  0
SECTION
  2
HEADER
  9
$ACADVER
  1
AC1009
  9
$DWGCODEPAGE
  3
ansi_932
  9
$INSBASE
 10
0.0
 20
0.0
 30
0.0
  9
$EXTMIN
 10
-193.639964538102
 20
-165.0248795406397
 30
0.0
  9
$EXTMAX
 10
218.2968102484596
 20
126.773749355285
 30
0.0
  9
$LIMMIN
 10
-105.0
 20
-74.0
  9
$LIMMAX
 10
105.0
 20
74.0
  9
$ORTHOMODE
 70
     0
  9
$REGENMODE
 70
     1
  9
$FILLMODE
 70
     1
  9
$QTEXTMODE
 70
     0
  9
$MIRRTEXT
 70
     1
  9
$DRAGMODE
 70
     2
  9
$LTSCALE
 40
0.25
  9
$OSMODE
 70
    37
  9
$ATTMODE
 70
     1
  9
$TEXTSIZE
 40
0.2
  9
$TRACEWID
 40
0.05
  9
$TEXTSTYLE
  7
STANDARD
  9
$CLAYER
  8
0
  9
$CELTYPE
  6
BYLAYER
  9
$CECOLOR
 62
   256
  9
$DIMSCALE
 40
1.0
  9
$DIMASZ
 40
1.800315856933594
  9
$DIMEXO
 40
1.0
  9
$DIMDLI
 40
10.0
  9
$DIMRND
 40
0.0
  9
$DIMDLE
 40
0.0
  9
$DIMEXE
 40
1.0
  9
$DIMTP
 40
0.0
  9
$DIMTM
 40
0.0
  9
$DIMTXT
 40
3.5
  9
$DIMCEN
 40
0.0
  9
$DIMTSZ
 40
0.0
  9
$DIMTOL
 70
     0
  9
$DIMLIM
 70
     0
  9
$DIMTIH
 70
     0
  9
$DIMTOH
 70
     0
  9
$DIMSE1
 70
     0
  9
$DIMSE2
 70
     0
  9
$DIMTAD
 70
     1
  9
$DIMZIN
 70
     8
  9
$DIMBLK
  1

  9
$DIMASO
 70
     1
  9
$DIMSHO
 70
     1
  9
$DIMPOST
  1

  9
$DIMAPOST
  1

  9
$DIMALT
 70
     0
  9
$DIMALTD
 70
     2
  9
$DIMALTF
 40
0.0393700787401575
  9
$DIMLFAC
 40
1.0
  9
$DIMTOFL
 70
     0
  9
$DIMTVP
 40
0.0
  9
$DIMTIX
 70
     0
  9
$DIMSOXD
 70
     0
  9
$DIMSAH
 70
     0
  9
$DIMBLK1
  1

  9
$DIMBLK2
  1

  9
$DIMSTYLE
  2
STANDARD
  9
$DIMCLRD
 70
     0
  9
$DIMCLRE
 70
     0
  9
$DIMCLRT
 70
     0
  9
$DIMTFAC
 40
0.65
  9
$DIMGAP
 40
0.09
  9
$LUNITS
 70
     2
  9
$LUPREC
 70
     4
  9
$SKETCHINC
 40
0.1
  9
$FILLETRAD
 40
0.5
  9
$AUNITS
 70
     0
  9
$AUPREC
 70
     0
  9
$MENU
  1
.
  9
$ELEVATION
 40
0.0
  9
$PELEVATION
 40
0.0
  9
$THICKNESS
 40
0.0
  9
$LIMCHECK
 70
     0
  9
$CHAMFERA
 40
0.0
  9
$CHAMFERB
 40
0.0
  9
$SKPOLY
 70
     0
  9
$TDCREATE
 40
2460528.454640972
  9
$TDUPDATE
 40
2460528.454641227
  9
$TDINDWG
 40
0.0000000116
  9
$TDUSRTIMER
 40
0.0000000116
  9
$USRTIMER
 70
     1
  9
$ANGBASE
 50
0.0
  9
$ANGDIR
 70
     0
  9
$PDMODE
 70
     0
  9
$PDSIZE
 40
1.0
  9
$PLINEWID
 40
0.0
  9
$COORDS
 70
     1
  9
$SPLFRAME
 70
     0
  9
$SPLINETYPE
 70
     6
  9
$SPLINESEGS
 70
     8
  9
$ATTDIA
 70
     0
  9
$ATTREQ
 70
     1
  9
$HANDLING
 70
     1
  9
$HANDSEED
  5
8B7
  9
$SURFTAB1
 70
     6
  9
$SURFTAB2
 70
     6
  9
$SURFTYPE
 70
     6
  9
$SURFU
 70
     6
  9
$SURFV
 70
     6
  9
$UCSNAME
  2

  9
$UCSORG
 10
0.0
 20
0.0
 30
0.0
  9
$UCSXDIR
 10
1.0
 20
0.0
 30
0.0
  9
$UCSYDIR
 10
0.0
 20
1.0
 30
0.0
  9
$PUCSNAME
  2

  9
$PUCSORG
 10
0.0
 20
0.0
 30
0.0
  9
$PUCSXDIR
 10
1.0
 20
0.0
 30
0.0
  9
$PUCSYDIR
 10
0.0
 20
1.0
 30
0.0
  9
$USERI1
 70
     0
  9
$USERI2
 70
     0
  9
$USERI3
 70
     0
  9
$USERI4
 70
     0
  9
$USERI5
 70
     0
  9
$USERR1
 40
0.0
  9
$USERR2
 40
0.0
  9
$USERR3
 40
0.0
  9
$USERR4
 40
0.0
  9
$USERR5
 40
0.0
  9
$WORLDVIEW
 70
     1
  9
$SHADEDGE
 70
     3
  9
$SHADEDIF
 70
    70
  9
$TILEMODE
 70
     1
  9
$MAXACTVP
 70
    64
  9
$PLIMCHECK
 70
     0
  9
$PEXTMIN
 10
1.000000000000000E+20
 20
1.000000000000000E+20
 30
1.000000000000000E+20
  9
$PEXTMAX
 10
-1.000000000000000E+20
 20
-1.000000000000000E+20
 30
-1.000000000000000E+20
  9
$PLIMMIN
 10
0.0
 20
0.0
  9
$PLIMMAX
 10
12.0
 20
9.0
  9
$UNITMODE
 70
     0
  9
$VISRETAIN
 70
     0
  9
$PLINEGEN
 70
     1
  9
$PSLTSCALE
 70
     0
  0
ENDSEC
  0
SECTION
  2
TABLES
  0
TABLE
  2
VPORT
 70
     1
  0
VPORT
  2
*ACTIVE
 70
     0
 10
0.0
 20
0.0
 11
1.0
 21
1.0
 12
15.6734228551788
 22
-19.67378630063036
 13
0.0
 23
0.0
 14
0.5
 24
0.5
 15
0.5
 25
0.5
 16
0.0
 26
0.0
 36
1.0
 17
0.0
 27
0.0
 37
0.0
 40
100.3299050888385
 41
1.463993246055321
 42
50.0
 43
0.0
 44
0.0
 50
0.0
 51
0.0
 71
     0
 72
  1000
 73
     1
 74
     1
 75
     0
 76
     0
 77
     0
 78
     0
  0
ENDTAB
  0
TABLE
  2
LTYPE
 70
    67
  0
LTYPE
  2
CONTINUOUS
 70
     0
  3
Solid line
 72
    65
 73
     0
 40
0.0
  0
LTYPE
  2
HIDDENX2
 70
     0
  3
Hidden (2x) ____ ____ ____ ____ ____ ____ ____ 
 72
    65
 73
     2
 40
19.05
 49
12.7
 49
-6.35
  0
LTYPE
  2
HIDDEN
 70
     0
  3
Hidden __ __ __ __ __ __ __ __ __ __ __ __ __ __
 72
    65
 73
     2
 40
9.524999999999999
 49
6.35
 49
-3.175
  0
LTYPE
  2
HIDDEN2
 70
     0
  3
Hidden (.5x) _ _ _ _ _ _ _ _ _ _ _ _ _ _ _ _ _ 
 72
    65
 73
     2
 40
4.762499999999999
 49
3.175
 49
-1.5875
  0
LTYPE
  2
DASHED
 70
     0
  3
Dashed __ __ __ __ __ __ __ __ __ __ __ __ __ _
 72
    65
 73
     2
 40
19.05
 49
12.7
 49
-6.35
  0
LTYPE
  2
DASHED2
 70
     0
  3
Dashed (.5x) _ _ _ _ _ _ _ _ _ _ _ _ _ _ _ _ _ 
 72
    65
 73
     2
 40
9.524999999999999
 49
6.35
 49
-3.175
  0
LTYPE
  2
DASHEDX2
 70
     0
  3
Dashed (2x) ____  ____  ____  ____  ____  ___
 72
    65
 73
     2
 40
38.09999999999999
 49
25.4
 49
-12.7
  0
LTYPE
  2
DOTX2
 70
     0
  3
Dot (2x) .  .  .  .  .  .  .  .  .  .  .  .  .  .
 72
    65
 73
     2
 40
12.7
 49
0.0
 49
-12.7
  0
LTYPE
  2
DOT
 70
     0
  3
Dot . . . . . . . . . . . . . . . . . . . . . . . .
 72
    65
 73
     2
 40
6.35
 49
0.0
 49
-6.35
  0
LTYPE
  2
DOT2
 70
     0
  3
Dot (.5x) ........................................
 72
    65
 73
     2
 40
3.175
 49
0.0
 49
-3.175
  0
LTYPE
  2
CENTERX2
 70
     0
  3
Center (2x) ________  __  ________  __  _____
 72
    65
 73
     4
 40
101.6
 49
63.5
 49
-12.7
 49
12.7
 49
-12.7
  0
LTYPE
  2
CENTER
 70
     0
  3
Center ____ _ ____ _ ____ _ ____ _ ____ _ ____
 72
    65
 73
     4
 40
50.8
 49
31.75
 49
-6.35
 49
6.35
 49
-6.35
  0
LTYPE
  2
CENTER2
 70
     0
  3
Center (.5x) ___ _ ___ _ ___ _ ___ _ ___ _ ___
 72
    65
 73
     4
 40
28.575
 49
19.05
 49
-3.175
 49
3.175
 49
-3.175
  0
LTYPE
  2
DASHDOTX2
 70
     0
  3
Dash dot (2x) ____  .  ____  .  ____  .  ___
 72
    65
 73
     4
 40
50.8
 49
25.4
 49
-12.7
 49
0.0
 49
-12.7
  0
LTYPE
  2
DASHDOT
 70
     0
  3
Dash dot __ . __ . __ . __ . __ . __ . __ . __
 72
    65
 73
     4
 40
25.4
 49
12.7
 49
-6.35
 49
0.0
 49
-6.35
  0
LTYPE
  2
DASHDOT2
 70
     0
  3
Dash dot (.5x) _._._._._._._._._._._._._._._.
 72
    65
 73
     4
 40
12.7
 49
6.35
 49
-3.175
 49
0.0
 49
-3.175
  0
LTYPE
  2
DIVIDEX2
 70
     0
  3
Divide (2x) ________  .  .  ________  .  .  _
 72
    65
 73
     6
 40
63.5
 49
25.4
 49
-12.7
 49
0.0
 49
-12.7
 49
0.0
 49
-12.7
  0
LTYPE
  2
DIVIDE
 70
     0
  3
Divide ____ . . ____ . . ____ . . ____ . . ____
 72
    65
 73
     6
 40
31.75
 49
12.7
 49
-6.35
 49
0.0
 49
-6.35
 49
0.0
 49
-6.35
  0
LTYPE
  2
DIVIDE2
 70
     0
  3
Divide (.5x) __..__..__..__..__..__..__..__.._
 72
    65
 73
     6
 40
15.875
 49
6.35
 49
-3.175
 49
0.0
 49
-3.175
 49
0.0
 49
-3.175
  0
LTYPE
  2
BORDERX2
 70
     0
  3
Border (2x) ____  ____  .  ____  ____  .  ___
 72
    65
 73
     6
 40
88.89999999999999
 49
25.4
 49
-12.7
 49
25.4
 49
-12.7
 49
0.0
 49
-12.7
  0
LTYPE
  2
BORDER
 70
     0
  3
Border __ __ . __ __ . __ __ . __ __ . __ __ .
 72
    65
 73
     6
 40
44.45
 49
12.7
 49
-6.35
 49
12.7
 49
-6.35
 49
0.0
 49
-6.35
  0
LTYPE
  2
BORDER2
 70
     0
  3
Border (.5x) __.__.__.__.__.__.__.__.__.__.__.
 72
    65
 73
     6
 40
22.225
 49
6.35
 49
-3.175
 49
6.35
 49
-3.175
 49
0.0
 49
-3.175
  0
LTYPE
  2
PHANTOMX2
 70
     0
  3
Phantom (2x) ____________    ____    ____   _
 72
    65
 73
     6
 40
127.0
 49
63.5
 49
-12.7
 49
12.7
 49
-12.7
 49
12.7
 49
-12.7
  0
LTYPE
  2
PHANTOM
 70
     0
  3
Phantom ______  __  __  ______  __  __  ______ 
 72
    65
 73
     6
 40
63.5
 49
31.75
 49
-6.35
 49
6.35
 49
-6.35
 49
6.35
 49
-6.35
  0
LTYPE
  2
PHANTOM2
 70
     0
  3
Phantom (.5x) ___ _ _ ___ _ _ ___ _ _ ___ _ _
 72
    65
 73
     6
 40
31.75
 49
15.875
 49
-3.175
 49
3.175
 49
-3.175
 49
3.175
 49
-3.175
  0
LTYPE
  2
ACAD_ISO06W100
 70
     0
  3
ISO long-dash triple-dot ____ ... ____ ... ____
 72
    65
 73
     8
 40
36.0
 49
24.0
 49
-3.0
 49
0.0
 49
-3.0
 49
0.0
 49
-3.0
 49
0.0
 49
-3.0
  0
LTYPE
  2
ACAD_ISO13W100
 70
     0
  3
ISO double-dash double-dot __ __ . . __ __ . . _
 72
    65
 73
     8
 40
36.0
 49
12.0
 49
-3.0
 49
12.0
 49
-3.0
 49
0.0
 49
-3.0
 49
0.0
 49
-3.0
  0
LTYPE
  2
ACAD_ISO14W100
 70
     0
  3
ISO dash triple-dot __ . . . __ . . . __ . . . _
 72
    65
 73
     8
 40
24.0
 49
12.0
 49
-3.0
 49
0.0
 49
-3.0
 49
0.0
 49
-3.0
 49
0.0
 49
-3.0
  0
LTYPE
  2
ACAD_ISO02W100
 70
     0
  3
ISO dash __ __ __ __ __ __ __ __ __ __ __ __ __
 72
    65
 73
     2
 40
15.0
 49
12.0
 49
-3.0
  0
LTYPE
  2
ACAD_ISO03W100
 70
     0
  3
ISO dash space __    __    __    __    __    __
 72
    65
 73
     2
 40
30.0
 49
12.0
 49
-18.0
  0
LTYPE
  2
ACAD_ISO04W100
 70
     0
  3
ISO long-dash dot ____ . ____ . ____ . ____ . _
 72
    65
 73
     4
 40
30.0
 49
24.0
 49
-3.0
 49
0.0
 49
-3.0
  0
LTYPE
  2
ACAD_ISO05W100
 70
     0
  3
ISO long-dash double-dot ____ .. ____ .. ____ . 
 72
    65
 73
     6
 40
33.0
 49
24.0
 49
-3.0
 49
0.0
 49
-3.0
 49
0.0
 49
-3.0
  0
LTYPE
  2
ACAD_ISO07W100
 70
     0
  3
ISO dot . . . . . . . . . . . . . . . . . . . . 
 72
    65
 73
     2
 40
3.0
 49
0.0
 49
-3.0
  0
LTYPE
  2
ACAD_ISO08W100
 70
     0
  3
ISO long-dash short-dash ____ __ ____ __ ____ _
 72
    65
 73
     4
 40
36.0
 49
24.0
 49
-3.0
 49
6.0
 49
-3.0
  0
LTYPE
  2
ACAD_ISO09W100
 70
     0
  3
ISO long-dash double-short-dash ____ __ __ ____
 72
    65
 73
     6
 40
45.0
 49
24.0
 49
-3.0
 49
6.0
 49
-3.0
 49
6.0
 49
-3.0
  0
LTYPE
  2
ACAD_ISO10W100
 70
     0
  3
ISO dash dot __ . __ . __ . __ . __ . __ . __ . 
 72
    65
 73
     4
 40
18.0
 49
12.0
 49
-3.0
 49
0.0
 49
-3.0
  0
LTYPE
  2
ACAD_ISO11W100
 70
     0
  3
ISO double-dash dot __ __ . __ __ . __ __ . __ _
 72
    65
 73
     6
 40
33.0
 49
12.0
 49
-3.0
 49
12.0
 49
-3.0
 49
0.0
 49
-3.0
  0
LTYPE
  2
ACAD_ISO12W100
 70
     0
  3
ISO dash double-dot __ . . __ . . __ . . __ . . 
 72
    65
 73
     6
 40
21.0
 49
12.0
 49
-3.0
 49
0.0
 49
-3.0
 49
0.0
 49
-3.0
  0
LTYPE
  2
ACAD_ISO15W100
 70
     0
  3
ISO double-dash triple-dot __ __ . . . __ __ . .
 72
    65
 73
    10
 40
39.0
 49
12.0
 49
-3.0
 49
12.0
 49
-3.0
 49
0.0
 49
-3.0
 49
0.0
 49
-3.0
 49
0.0
 49
-3.0
  0
LTYPE
  2
JIS_02_0_7
 70
     0
  3
HIDDEN0.75 _ _ _ _ _ _ _ _ _ _ _ _ _ _ _ _ _ 
 72
    65
 73
     2
 40
1.35
 49
0.75
 49
-0.6
  0
LTYPE
  2
JIS_02_1_0
 70
     0
  3
HIDDEN01 _ _ _ _ _ _ _ _ _ _ _ _ _ _ _ _ _ 
 72
    65
 73
     2
 40
2.0
 49
1.0
 49
-1.0
  0
LTYPE
  2
JIS_02_1_2
 70
     0
  3
HIDDEN01.25  _ _ _ _ _ _ _ _ _ _ _ _ _ _ _ _ _ 
 72
    65
 73
     2
 40
2.5
 49
1.25
 49
-1.25
  0
LTYPE
  2
JIS_02_2_0
 70
     0
  3
HIDDEN02 __ __ __ __ __ __ __ __ __ __ __ 
 72
    65
 73
     2
 40
3.0
 49
2.0
 49
-1.0
  0
LTYPE
  2
JIS_02_4_0
 70
     0
  3
HIDDEN04 ____ ____ ____ ____ ____ ____ ____ 
 72
    65
 73
     2
 40
5.5
 49
4.0
 49
-1.5
  0
LTYPE
  2
JIS_08_11
 70
     0
  3
1SASEN11 ___ _ ___ _ ___ _ ___ _ ___ _ ___
 72
    65
 73
     4
 40
12.8
 49
11.0
 49
-0.6
 49
0.6
 49
-0.6
  0
LTYPE
  2
JIS_08_15
 70
     0
  3
1SASEN15 ____ _ ____ _ ____ _ ____ _ ____ 
 72
    65
 73
     4
 40
17.25
 49
15.0
 49
-0.75
 49
0.75
 49
-0.75
  0
LTYPE
  2
JIS_08_25
 70
     0
  3
1SASEN25 ________  __  ________  __  _____
 72
    65
 73
     4
 40
28.0
 49
25.0
 49
-1.125
 49
0.75
 49
-1.125
  0
LTYPE
  2
JIS_08_37
 70
     0
  3
1SASEN37 ________  __  ________  __  _____
 72
    65
 73
     4
 40
40.5
 49
37.5
 49
-1.125
 49
0.75
 49
-1.125
  0
LTYPE
  2
JIS_08_50
 70
     0
  3
1SASEN50 _______________  __  ____________
 72
    65
 73
     4
 40
53.0
 49
50.0
 49
-1.125
 49
0.75
 49
-1.125
  0
LTYPE
  2
JIS_09_08
 70
     0
  3
2SASEN8 __ _ _ __ _ _ __ _ _ __ _ _ __ _ _ 
 72
    65
 73
     6
 40
10.75
 49
8.0
 49
-0.55
 49
0.55
 49
-0.55
 49
0.55
 49
-0.55
  0
LTYPE
  2
JIS_09_15
 70
     0
  3
2SASEN15 ___ _ _ ___ _ _ ___ _ _ ___ _ _ ___ 
 72
    65
 73
     6
 40
18.9
 49
15.0
 49
-0.9
 49
0.6
 49
-0.9
 49
0.6
 49
-0.9
  0
LTYPE
  2
JIS_09_29
 70
     0
  3
2SASEN29 ______　__  __  ______　__  __  ___
 72
    65
 73
     6
 40
34.0
 49
29.0
 49
-1.2
 49
0.7
 49
-1.2
 49
0.7
 49
-1.2
  0
LTYPE
  2
JIS_09_50
 70
     0
  3
2SASEN50 ____________　__  __  _____________
 72
    65
 73
     6
 40
55.0
 49
50.0
 49
-1.2
 49
0.7
 49
-1.2
 49
0.7
 49
-1.2
  0
LTYPE
  2
SXF_破線
 70
     0
  3
02 dashed -- -- -- -- -- --
 72
    65
 73
     2
 40
7.5
 49
6.0
 49
-1.5
  0
LTYPE
  2
SXF_跳び破線
 70
     0
  3
03 dashed_spaced --  --  --  --
 72
    65
 73
     2
 40
12.0
 49
6.0
 49
-6.0
  0
LTYPE
  2
SXF_一点長鎖線
 70
     0
  3
04 long_dashed_dotted ---- . ---- . ----
 72
    65
 73
     4
 40
15.25
 49
12.0
 49
-1.5
 49
0.25
 49
-1.5
  0
LTYPE
  2
SXF_二点長鎖線
 70
     0
  3
05 long_dashed_double-dotted ---- . . ---- 
 72
    65
 73
     6
 40
17.0
 49
12.0
 49
-1.5
 49
0.25
 49
-1.5
 49
0.25
 49
-1.5
  0
LTYPE
  2
SXF_三点長鎖線
 70
     0
  3
06 long_dashed_triplicate-dotted ---- ... ---- 
 72
    65
 73
     8
 40
18.75
 49
12.0
 49
-1.5
 49
0.25
 49
-1.5
 49
0.25
 49
-1.5
 49
0.25
 49
-1.5
  0
LTYPE
  2
SXF_点線
 70
     0
  3
07 dotted . . . . . . . . . . . . 
 72
    65
 73
     2
 40
1.75
 49
0.25
 49
-1.5
  0
LTYPE
  2
SXF_一点鎖線
 70
     0
  3
08 chain ---- - --- - --- - ---
 72
    65
 73
     4
 40
18.5
 49
12.0
 49
-1.5
 49
3.5
 49
-1.5
  0
LTYPE
  2
SXF_二点鎖線
 70
     0
  3
09 chain_double_dash ---- - - ---- - - ----
 72
    65
 73
     6
 40
23.5
 49
12.0
 49
-1.5
 49
3.5
 49
-1.5
 49
3.5
 49
-1.5
  0
LTYPE
  2
SXF_一点短鎖線
 70
     0
  3
10 dashed_dotted -- . -- . -- . --
 72
    65
 73
     4
 40
9.25
 49
6.0
 49
-1.5
 49
0.25
 49
-1.5
  0
LTYPE
  2
SXF_一点二短鎖線
 70
     0
  3
11 double-dashed_dotted -- -- . -- --
 72
    65
 73
     6
 40
16.75
 49
6.0
 49
-1.5
 49
6.0
 49
-1.5
 49
0.25
 49
-1.5
  0
LTYPE
  2
SXF_二点短鎖線
 70
     0
  3
12 dashed_double_dotted -- . . -- . . --
 72
    65
 73
     6
 40
11.0
 49
6.0
 49
-1.5
 49
0.25
 49
-1.5
 49
0.25
 49
-1.5
  0
LTYPE
  2
SXF_二点二短鎖線
 70
     0
  3
13 double-dashed_double-dotted -- -- . . -- --
 72
    65
 73
     8
 40
18.5
 49
6.0
 49
-1.5
 49
6.0
 49
-1.5
 49
0.25
 49
-1.5
 49
0.25
 49
-1.5
  0
LTYPE
  2
SXF_三点短鎖線
 70
     0
  3
14 dashed triplicate-dotted -- . . . -- . . . --
 72
    65
 73
     8
 40
12.75
 49
6.0
 49
-1.5
 49
0.25
 49
-1.5
 49
0.25
 49
-1.5
 49
0.25
 49
-1.5
  0
LTYPE
  2
SXF_三点二短鎖線
 70
     0
  3
15 double-dashed triplicate-dotted -- -- . . . -- -- 
 72
    65
 73
    10
 40
20.25
 49
6.0
 49
-1.5
 49
6.0
 49
-1.5
 49
0.25
 49
-1.5
 49
0.25
 49
-1.5
 49
0.25
 49
-1.5
  0
ENDTAB
  0
TABLE
  2
LAYER
 70
     2
  0
LAYER
  2
0
 70
     0
 62
     7
  6
CONTINUOUS
  0
LAYER
  2
LAYER0240
 70
     0
 62
     7
  6
CONTINUOUS
  0
ENDTAB
  0
TABLE
  2
STYLE
 70
     3
  0
STYLE
  2
STANDARD
 70
     0
 40
0.0
 41
1.0
 50
0.0
 71
     0
 42
0.2
  3
txt.shx
  4
bigfont.shx
  0
STYLE
  2
DCSTYLE0
 70
     0
 40
0.0
 41
1.2
 50
0.0
 71
     0
 42
0.2
  3
txt.shx
  4
bigfont
  0
STYLE
  2
DCSTYLE1
 70
     0
 40
0.0
 41
1.0
 50
0.0
 71
     0
 42
0.2
  3
ＭＳ ゴシック
  4

  0
ENDTAB
  0
TABLE
  2
VIEW
 70
     0
  0
ENDTAB
  0
TABLE
  2
UCS
 70
     0
  0
ENDTAB
  0
TABLE
  2
APPID
 70
     2
  0
APPID
  2
ACAD
 70
     0
  0
APPID
  2
DAFUSIONOUT
 70
     0
  0
ENDTAB
  0
TABLE
  2
DIMSTYLE
 70
     1
  0
DIMSTYLE
  2
STANDARD
 70
     0
  3

  4

  5

  6

  7

 40
1.0
 41
0.18
 42
0.0625
 43
0.38
 44
0.18
 45
0.0
 46
0.0
 47
0.0
 48
0.0
140
0.18
141
0.09
142
0.0
143
25.4
144
1.0
145
0.0
146
1.0
147
0.09
 71
     0
 72
     0
 73
     1
 74
     1
 75
     0
 76
     0
 77
     0
 78
     0
170
     0
171
     2
172
     0
173
     0
174
     0
175
     0
176
     0
177
     0
178
     0
  0
ENDTAB
  0
ENDSEC
  0
SECTION
  2
BLOCKS
  0
BLOCK
  8
0
  2
$MODEL_SPACE
 70
     0
 10
0.0
 20
0.0
 30
0.0
  3
$MODEL_SPACE
  1

  0
ENDBLK
  5
21
  8
0
  0
BLOCK
 67
     1
  8
0
  2
$PAPER_SPACE
 70
     0
 10
0.0
 20
0.0
 30
0.0
  3
$PAPER_SPACE
  1

  0
ENDBLK
  5
1D
 67
     1
  8
0
  0
BLOCK
  8
0
  2
DC_GROUP_1
 70
     0
 10
0.0
 20
0.0
 30
0.0
  3
DC_GROUP_1
  1

  0
LINE
  5
25A
  8
0
  6
CONTINUOUS
 62
     7
 10
-18.33803619750216
 20
18.75748020574742
 30
0.0
 11
-18.40185569175216
 21
18.83187396859742
 31
0.0
  0
LINE
  5
25B
  8
0
  6
CONTINUOUS
 62
     7
 10
-18.40185569175216
 20
18.83187396859742
 30
0.0
 11
-18.47896241550215
 21
18.89238771044741
 31
0.0
  0
LINE
  5
25C
  8
0
  6
CONTINUOUS
 62
     7
 10
-18.47896241550215
 20
18.89238771044741
 30
0.0
 11
-18.56639320050216
 21
18.93669592219741
 31
0.0
  0
LINE
  5
25D
  8
0
  6
CONTINUOUS
 62
     7
 10
-18.56639320050216
 20
18.93669592219741
 30
0.0
 11
-18.66078813085215
 21
18.96309586404741
 31
0.0
  0
LINE
  5
25E
  8
0
  6
CONTINUOUS
 62
     7
 10
-18.66078813085215
 20
18.96309586404741
 30
0.0
 11
-18.75851966220216
 21
18.97057300109741
 31
0.0
  0
LINE
  5
25F
  8
0
  6
CONTINUOUS
 62
     7
 10
-18.75851966220216
 20
18.97057300109741
 30
0.0
 11
-18.85583202665217
 21
18.95883999109741
 31
0.0
  0
LINE
  5
260
  8
0
  6
CONTINUOUS
 62
     7
 10
-18.85583202665217
 20
18.95883999109741
 30
0.0
 11
-18.94898556460215
 21
18.92834772709741
 31
0.0
  0
LINE
  5
261
  8
0
  6
CONTINUOUS
 62
     7
 10
-18.94898556460215
 20
18.92834772709741
 30
0.0
 11
-19.03440043785216
 21
18.88026800969741
 31
0.0
  0
ENDBLK
  5
B5
  8
0
  0
BLOCK
  8
0
  2
DC_GROUP_2
 70
     0
 10
0.0
 20
0.0
 30
0.0
  3
DC_GROUP_2
  1

  0
LINE
  5
262
  8
0
  6
CONTINUOUS
 62
     7
 10
-23.29399106815215
 20
15.89767054069742
 30
0.0
 11
-23.36838483100216
 21
15.83385104644742
 31
0.0
  0
LINE
  5
263
  8
0
  6
CONTINUOUS
 62
     7
 10
-23.36838483100216
 20
15.83385104644742
 30
0.0
 11
-23.42889857285216
 21
15.75674432269741
 31
0.0
  0
LINE
  5
264
  8
0
  6
CONTINUOUS
 62
     7
 10
-23.42889857285216
 20
15.75674432269741
 30
0.0
 11
-23.47320678460216
 21
15.66931353769742
 31
0.0
  0
LINE
  5
265
  8
0
  6
CONTINUOUS
 62
     7
 10
-23.47320678460216
 20
15.66931353769742
 30
0.0
 11
-23.49960672645216
 21
15.57491860734742
 31
0.0
  0
LINE
  5
266
  8
0
  6
CONTINUOUS
 62
     7
 10
-23.49960672645216
 20
15.57491860734742
 30
0.0
 11
-23.50708386350216
 21
15.47718707599742
 31
0.0
  0
LINE
  5
267
  8
0
  6
CONTINUOUS
 62
     7
 10
-23.50708386350216
 20
15.47718707599742
 30
0.0
 11
-23.49535085350216
 21
15.37987471154741
 31
0.0
  0
LINE
  5
268
  8
0
  6
CONTINUOUS
 62
     7
 10
-23.49535085350216
 20
15.37987471154741
 30
0.0
 11
-23.46485858950216
 21
15.28672117359742
 31
0.0
  0
LINE
  5
269
  8
0
  6
CONTINUOUS
 62
     7
 10
-23.46485858950216
 20
15.28672117359742
 30
0.0
 11
-23.41677887210216
 21
15.20130630034742
 31
0.0
  0
ENDBLK
  5
B8
  8
0
  0
BLOCK
  8
0
  2
DC_GROUP_3
 70
     0
 10
0.0
 20
0.0
 30
0.0
  3
DC_GROUP_3
  1

  0
LINE
  5
26A
  8
0
  6
CONTINUOUS
 62
     7
 10
-15.47822653245215
 20
13.80152533509741
 30
0.0
 11
-15.40383276960216
 21
13.86534482934741
 31
0.0
  0
LINE
  5
26B
  8
0
  6
CONTINUOUS
 62
     7
 10
-15.40383276960216
 20
13.86534482934741
 30
0.0
 11
-15.34331902775216
 21
13.94245155309742
 31
0.0
  0
LINE
  5
26C
  8
0
  6
CONTINUOUS
 62
     7
 10
-15.34331902775216
 20
13.94245155309742
 30
0.0
 11
-15.29901081600215
 21
14.02988233809741
 31
0.0
  0
LINE
  5
26D
  8
0
  6
CONTINUOUS
 62
     7
 10
-15.29901081600215
 20
14.02988233809741
 30
0.0
 11
-15.27261087415215
 21
14.12427726844741
 31
0.0
  0
LINE
  5
26E
  8
0
  6
CONTINUOUS
 62
     7
 10
-15.27261087415215
 20
14.12427726844741
 30
0.0
 11
-15.26513373710216
 21
14.22200879979741
 31
0.0
  0
LINE
  5
26F
  8
0
  6
CONTINUOUS
 62
     7
 10
-15.26513373710216
 20
14.22200879979741
 30
0.0
 11
-15.27686674710216
 21
14.31932116424742
 31
0.0
  0
LINE
  5
270
  8
0
  6
CONTINUOUS
 62
     7
 10
-15.27686674710216
 20
14.31932116424742
 30
0.0
 11
-15.30735901110216
 21
14.41247470219741
 31
0.0
  0
LINE
  5
271
  8
0
  6
CONTINUOUS
 62
     7
 10
-15.30735901110216
 20
14.41247470219741
 30
0.0
 11
-15.35543872850215
 21
14.49788957544741
 31
0.0
  0
ENDBLK
  5
BB
  8
0
  0
BLOCK
  8
0
  2
DC_GROUP_4
 70
     0
 10
0.0
 20
0.0
 30
0.0
  3
DC_GROUP_4
  1

  0
LINE
  5
272
  8
0
  6
CONTINUOUS
 62
     7
 10
-20.43418140310216
 20
10.94171567004741
 30
0.0
 11
-20.37036190885216
 21
10.86732190719741
 31
0.0
  0
LINE
  5
273
  8
0
  6
CONTINUOUS
 62
     7
 10
-20.37036190885216
 20
10.86732190719741
 30
0.0
 11
-20.29325518510215
 21
10.80680816534742
 31
0.0
  0
LINE
  5
274
  8
0
  6
CONTINUOUS
 62
     7
 10
-20.29325518510215
 20
10.80680816534742
 30
0.0
 11
-20.20582440010216
 21
10.76249995359742
 31
0.0
  0
LINE
  5
275
  8
0
  6
CONTINUOUS
 62
     7
 10
-20.20582440010216
 20
10.76249995359742
 30
0.0
 11
-20.11142946975215
 21
10.73610001174741
 31
0.0
  0
LINE
  5
276
  8
0
  6
CONTINUOUS
 62
     7
 10
-20.11142946975215
 20
10.73610001174741
 30
0.0
 11
-20.01369793840216
 21
10.72862287469741
 31
0.0
  0
LINE
  5
277
  8
0
  6
CONTINUOUS
 62
     7
 10
-20.01369793840216
 20
10.72862287469741
 30
0.0
 11
-19.91638557395216
 21
10.74035588464742
 31
0.0
  0
LINE
  5
278
  8
0
  6
CONTINUOUS
 62
     7
 10
-19.91638557395216
 20
10.74035588464742
 30
0.0
 11
-19.82323203600215
 21
10.77084814864741
 31
0.0
  0
LINE
  5
279
  8
0
  6
CONTINUOUS
 62
     7
 10
-19.82323203600215
 20
10.77084814864741
 30
0.0
 11
-19.73781716275215
 21
10.81892786609741
 31
0.0
  0
ENDBLK
  5
BE
  8
0
  0
BLOCK
  8
0
  2
DC_GROUP_5
 70
     0
 10
0.0
 20
0.0
 30
0.0
  3
DC_GROUP_5
  1

  0
LINE
  5
27A
  8
0
  6
CONTINUOUS
 62
     7
 10
-45.95068258000215
 20
18.88026800969742
 30
0.0
 11
-46.03609745325215
 21
18.92834772709742
 31
0.0
  0
LINE
  5
27B
  8
0
  6
CONTINUOUS
 62
     7
 10
-46.03609745325215
 20
18.92834772709742
 30
0.0
 11
-46.12925099120215
 21
18.95883999109742
 31
0.0
  0
LINE
  5
27C
  8
0
  6
CONTINUOUS
 62
     7
 10
-46.12925099120215
 20
18.95883999109742
 30
0.0
 11
-46.22656335565215
 21
18.97057300109742
 31
0.0
  0
LINE
  5
27D
  8
0
  6
CONTINUOUS
 62
     7
 10
-46.22656335565215
 20
18.97057300109742
 30
0.0
 11
-46.32429488700215
 21
18.96309586404742
 31
0.0
  0
LINE
  5
27E
  8
0
  6
CONTINUOUS
 62
     7
 10
-46.32429488700215
 20
18.96309586404742
 30
0.0
 11
-46.41868981735215
 21
18.93669592219742
 31
0.0
  0
LINE
  5
27F
  8
0
  6
CONTINUOUS
 62
     7
 10
-46.41868981735215
 20
18.93669592219742
 30
0.0
 11
-46.50612060235215
 21
18.89238771044742
 31
0.0
  0
LINE
  5
280
  8
0
  6
CONTINUOUS
 62
     7
 10
-46.50612060235215
 20
18.89238771044742
 30
0.0
 11
-46.58322732610215
 21
18.83187396859742
 31
0.0
  0
LINE
  5
281
  8
0
  6
CONTINUOUS
 62
     7
 10
-46.58322732610215
 20
18.83187396859742
 30
0.0
 11
-46.64704682035215
 21
18.75748020574742
 31
0.0
  0
ENDBLK
  5
C1
  8
0
  0
BLOCK
  8
0
  2
DC_GROUP_6
 70
     0
 10
0.0
 20
0.0
 30
0.0
  3
DC_GROUP_6
  1

  0
LINE
  5
282
  8
0
  6
CONTINUOUS
 62
     7
 10
-41.56830414575217
 20
15.20130630034742
 30
0.0
 11
-41.52022442830216
 21
15.28672117359742
 31
0.0
  0
LINE
  5
283
  8
0
  6
CONTINUOUS
 62
     7
 10
-41.52022442830216
 20
15.28672117359742
 30
0.0
 11
-41.48973216430215
 21
15.37987471154742
 31
0.0
  0
LINE
  5
284
  8
0
  6
CONTINUOUS
 62
     7
 10
-41.48973216430215
 20
15.37987471154742
 30
0.0
 11
-41.47799915435215
 21
15.47718707599742
 31
0.0
  0
LINE
  5
285
  8
0
  6
CONTINUOUS
 62
     7
 10
-41.47799915435215
 20
15.47718707599742
 30
0.0
 11
-41.48547629140216
 21
15.57491860734742
 31
0.0
  0
LINE
  5
286
  8
0
  6
CONTINUOUS
 62
     7
 10
-41.48547629140216
 20
15.57491860734742
 30
0.0
 11
-41.51187623325217
 21
15.66931353769742
 31
0.0
  0
LINE
  5
287
  8
0
  6
CONTINUOUS
 62
     7
 10
-41.51187623325217
 20
15.66931353769742
 30
0.0
 11
-41.55618444500216
 21
15.75674432269741
 31
0.0
  0
LINE
  5
288
  8
0
  6
CONTINUOUS
 62
     7
 10
-41.55618444500216
 20
15.75674432269741
 30
0.0
 11
-41.61669818685215
 21
15.83385104644742
 31
0.0
  0
LINE
  5
289
  8
0
  6
CONTINUOUS
 62
     7
 10
-41.61669818685215
 20
15.83385104644742
 30
0.0
 11
-41.69109194970216
 21
15.89767054069742
 31
0.0
  0
ENDBLK
  5
C4
  8
0
  0
BLOCK
  8
0
  2
DC_GROUP_7
 70
     0
 10
0.0
 20
0.0
 30
0.0
  3
DC_GROUP_7
  1

  0
LINE
  5
28A
  8
0
  6
CONTINUOUS
 62
     7
 10
-49.62964428935216
 20
14.49788957544742
 30
0.0
 11
-49.67322216075216
 21
14.42241048814742
 31
0.0
  0
LINE
  5
28B
  8
0
  6
CONTINUOUS
 62
     7
 10
-49.67322216075216
 20
14.42241048814742
 30
0.0
 11
-49.70303118035216
 21
14.34051087979742
 31
0.0
  0
LINE
  5
28C
  8
0
  6
CONTINUOUS
 62
     7
 10
-49.70303118035216
 20
14.34051087979742
 30
0.0
 11
-49.71816561625216
 21
14.25467922864742
 31
0.0
  0
LINE
  5
28D
  8
0
  6
CONTINUOUS
 62
     7
 10
-49.71816561625216
 20
14.25467922864742
 30
0.0
 11
-49.71816561625216
 21
14.16752348589742
 31
0.0
  0
LINE
  5
28E
  8
0
  6
CONTINUOUS
 62
     7
 10
-49.71816561625216
 20
14.16752348589742
 30
0.0
 11
-49.70303118035216
 21
14.08169183469742
 31
0.0
  0
LINE
  5
28F
  8
0
  6
CONTINUOUS
 62
     7
 10
-49.70303118035216
 20
14.08169183469742
 30
0.0
 11
-49.67322216075216
 21
13.99979222639742
 31
0.0
  0
LINE
  5
290
  8
0
  6
CONTINUOUS
 62
     7
 10
-49.67322216075216
 20
13.99979222639742
 30
0.0
 11
-49.62964428935216
 21
13.92431313909741
 31
0.0
  0
LINE
  5
291
  8
0
  6
CONTINUOUS
 62
     7
 10
-49.62964428935216
 20
13.92431313909741
 30
0.0
 11
-49.57362165780216
 21
13.85754796664742
 31
0.0
  0
LINE
  5
292
  8
0
  6
CONTINUOUS
 62
     7
 10
-49.57362165780216
 20
13.85754796664742
 30
0.0
 11
-49.50685648540216
 21
13.80152533509742
 31
0.0
  0
ENDBLK
  5
C7
  8
0
  0
BLOCK
  8
0
  2
DC_GROUP_8
 70
     0
 10
0.0
 20
0.0
 30
0.0
  3
DC_GROUP_8
  1

  0
LINE
  5
293
  8
0
  6
CONTINUOUS
 62
     7
 10
-45.24726585510216
 20
10.81892786609742
 30
0.0
 11
-45.17178676780216
 21
10.77534999469741
 31
0.0
  0
LINE
  5
294
  8
0
  6
CONTINUOUS
 62
     7
 10
-45.17178676780216
 20
10.77534999469741
 30
0.0
 11
-45.08988715945216
 21
10.74554097509742
 31
0.0
  0
LINE
  5
295
  8
0
  6
CONTINUOUS
 62
     7
 10
-45.08988715945216
 20
10.74554097509742
 30
0.0
 11
-45.00405550830216
 21
10.73040653919742
 31
0.0
  0
LINE
  5
296
  8
0
  6
CONTINUOUS
 62
     7
 10
-45.00405550830216
 20
10.73040653919742
 30
0.0
 11
-44.91689976555216
 21
10.73040653919742
 31
0.0
  0
LINE
  5
297
  8
0
  6
CONTINUOUS
 62
     7
 10
-44.91689976555216
 20
10.73040653919742
 30
0.0
 11
-44.83106811435216
 21
10.74554097509742
 31
0.0
  0
LINE
  5
298
  8
0
  6
CONTINUOUS
 62
     7
 10
-44.83106811435216
 20
10.74554097509742
 30
0.0
 11
-44.74916850605216
 21
10.77534999469741
 31
0.0
  0
LINE
  5
299
  8
0
  6
CONTINUOUS
 62
     7
 10
-44.74916850605216
 20
10.77534999469741
 30
0.0
 11
-44.67368941875215
 21
10.81892786609742
 31
0.0
  0
LINE
  5
29A
  8
0
  6
CONTINUOUS
 62
     7
 10
-44.67368941875215
 20
10.81892786609742
 30
0.0
 11
-44.60692424630216
 21
10.87495049764742
 31
0.0
  0
LINE
  5
29B
  8
0
  6
CONTINUOUS
 62
     7
 10
-44.60692424630216
 20
10.87495049764742
 30
0.0
 11
-44.55090161475216
 21
10.94171567004742
 31
0.0
  0
ENDBLK
  5
CA
  8
0
  0
BLOCK
  8
0
  2
DC_GROUP_9
 70
     0
 10
0.0
 20
0.0
 30
0.0
  3
DC_GROUP_9
  1

  0
LINE
  5
29C
  8
0
  6
CONTINUOUS
 62
     7
 10
-39.06369848640216
 20
-9.486731556152586
 30
0.0
 11
-38.92406809410215
 21
-9.569641151202584
 31
0.0
  0
LINE
  5
29D
  8
0
  6
CONTINUOUS
 62
     7
 10
-38.92406809410215
 20
-9.569641151202584
 30
0.0
 11
-38.81277789995215
 21
-9.699688982202582
 31
0.0
  0
LINE
  5
29E
  8
0
  6
CONTINUOUS
 62
     7
 10
-38.81277789995215
 20
-9.699688982202582
 30
0.0
 11
-38.75095566330216
 21
-9.857293958302586
 31
0.0
  0
LINE
  5
29F
  8
0
  6
CONTINUOUS
 62
     7
 10
-38.75095566330216
 20
-9.857293958302586
 30
0.0
 11
-38.74374439185216
 21
-10.02515578990258
 31
0.0
  0
LINE
  5
2A0
  8
0
  6
CONTINUOUS
 62
     7
 10
-38.74374439185216
 20
-10.02515578990258
 30
0.0
 11
-38.76066325220216
 21
-10.10709248775259
 31
0.0
  0
ENDBLK
  5
CD
  8
0
  0
BLOCK
  8
0
  2
DC_GROUP_10
 70
     0
 10
0.0
 20
0.0
 30
0.0
  3
DC_GROUP_10
  1

  0
LINE
  5
2A1
  8
0
  6
CONTINUOUS
 62
     7
 10
-39.00111903495215
 20
-10.80096043850258
 30
0.0
 11
-38.97168744280216
 21
-10.71495219970259
 31
0.0
  0
LINE
  5
2A2
  8
0
  6
CONTINUOUS
 62
     7
 10
-38.97168744280216
 20
-10.71495219970259
 30
0.0
 11
-38.94206650680215
 21
-10.62870583590259
 31
0.0
  0
LINE
  5
2A3
  8
0
  6
CONTINUOUS
 62
     7
 10
-38.94206650680215
 20
-10.62870583590259
 30
0.0
 11
-38.91226151860215
 21
-10.54223675480258
 31
0.0
  0
LINE
  5
2A4
  8
0
  6
CONTINUOUS
 62
     7
 10
-38.91226151860215
 20
-10.54223675480258
 30
0.0
 11
-38.88227780280215
 21
-10.45556040380259
 31
0.0
  0
LINE
  5
2A5
  8
0
  6
CONTINUOUS
 62
     7
 10
-38.88227780280215
 20
-10.45556040380259
 30
0.0
 11
-38.85212071585215
 21
-10.36869226740259
 31
0.0
  0
LINE
  5
2A6
  8
0
  6
CONTINUOUS
 62
     7
 10
-38.85212071585215
 20
-10.36869226740259
 30
0.0
 11
-38.82179564525217
 21
-10.28164786430258
 31
0.0
  0
LINE
  5
2A7
  8
0
  6
CONTINUOUS
 62
     7
 10
-38.82179564525217
 20
-10.28164786430258
 30
0.0
 11
-38.79130800855216
 21
-10.19444274480258
 31
0.0
  0
LINE
  5
2A8
  8
0
  6
CONTINUOUS
 62
     7
 10
-38.79130800855216
 20
-10.19444274480258
 30
0.0
 11
-38.76066325220216
 21
-10.10709248775259
 31
0.0
  0
ENDBLK
  5
D0
  8
0
  0
BLOCK
  8
0
  2
DC_GROUP_11
 70
     0
 10
0.0
 20
0.0
 30
0.0
  3
DC_GROUP_11
  1

  0
LINE
  5
2A9
  8
0
  6
CONTINUOUS
 62
     7
 10
-38.09553774450217
 20
-11.13056507295259
 30
0.0
 11
-38.21029848650215
 21
-11.09410068590258
 31
0.0
  0
LINE
  5
2AA
  8
0
  6
CONTINUOUS
 62
     7
 10
-38.21029848650215
 20
-11.09410068590258
 30
0.0
 11
-38.32469416885215
 21
-11.05625478230258
 31
0.0
  0
LINE
  5
2AB
  8
0
  6
CONTINUOUS
 62
     7
 10
-38.32469416885215
 20
-11.05625478230258
 30
0.0
 11
-38.43868382780215
 21
-11.01704091435259
 31
0.0
  0
LINE
  5
2AC
  8
0
  6
CONTINUOUS
 62
     7
 10
-38.43868382780215
 20
-11.01704091435259
 30
0.0
 11
-38.55222664500215
 21
-10.97647312410258
 31
0.0
  0
LINE
  5
2AD
  8
0
  6
CONTINUOUS
 62
     7
 10
-38.55222664500215
 20
-10.97647312410258
 30
0.0
 11
-38.66528196210216
 21
-10.93456593835259
 31
0.0
  0
LINE
  5
2AE
  8
0
  6
CONTINUOUS
 62
     7
 10
-38.66528196210216
 20
-10.93456593835259
 30
0.0
 11
-38.77780929535216
 21
-10.89133436355258
 31
0.0
  0
LINE
  5
2AF
  8
0
  6
CONTINUOUS
 62
     7
 10
-38.77780929535216
 20
-10.89133436355258
 30
0.0
 11
-38.88976835005215
 21
-10.84679388050258
 31
0.0
  0
LINE
  5
2B0
  8
0
  6
CONTINUOUS
 62
     7
 10
-38.88976835005215
 20
-10.84679388050258
 30
0.0
 11
-39.00111903495215
 21
-10.80096043850258
 31
0.0
  0
ENDBLK
  5
D3
  8
0
  0
BLOCK
  8
0
  2
DC_GROUP_12
 70
     0
 10
0.0
 20
0.0
 30
0.0
  3
DC_GROUP_12
  1

  0
LINE
  5
2B1
  8
0
  6
CONTINUOUS
 62
     7
 10
-37.83372783920215
 20
-10.44446938720258
 30
0.0
 11
-37.86640025680217
 21
-10.53108163585258
 31
0.0
  0
LINE
  5
2B2
  8
0
  6
CONTINUOUS
 62
     7
 10
-37.86640025680217
 20
-10.53108163585258
 30
0.0
 11
-37.89909974240216
 21
-10.61748170820258
 31
0.0
  0
LINE
  5
2B3
  8
0
  6
CONTINUOUS
 62
     7
 10
-37.89909974240216
 20
-10.61748170820258
 30
0.0
 11
-37.93182045440216
 21
-10.70365416915258
 31
0.0
  0
LINE
  5
2B4
  8
0
  6
CONTINUOUS
 62
     7
 10
-37.93182045440216
 20
-10.70365416915258
 30
0.0
 11
-37.96455654730215
 21
-10.78958362415258
 31
0.0
  0
LINE
  5
2B5
  8
0
  6
CONTINUOUS
 62
     7
 10
-37.96455654730215
 20
-10.78958362415258
 30
0.0
 11
-37.99730217290215
 21
-10.87525472220258
 31
0.0
  0
LINE
  5
2B6
  8
0
  6
CONTINUOUS
 62
     7
 10
-37.99730217290215
 20
-10.87525472220258
 30
0.0
 11
-38.03005148125216
 21
-10.96065215840259
 31
0.0
  0
LINE
  5
2B7
  8
0
  6
CONTINUOUS
 62
     7
 10
-38.03005148125216
 20
-10.96065215840259
 30
0.0
 11
-38.06279862185215
 21
-11.04576067680258
 31
0.0
  0
LINE
  5
2B8
  8
0
  6
CONTINUOUS
 62
     7
 10
-38.06279862185215
 20
-11.04576067680258
 30
0.0
 11
-38.09553774450217
 21
-11.13056507295259
 31
0.0
  0
ENDBLK
  5
D6
  8
0
  0
BLOCK
  8
0
  2
DC_GROUP_13
 70
     0
 10
0.0
 20
0.0
 30
0.0
  3
DC_GROUP_13
  1

  0
LINE
  5
2B9
  8
0
  6
CONTINUOUS
 62
     7
 10
-37.83372783920215
 20
-10.44446938720258
 30
0.0
 11
-37.75792962725217
 21
-10.32191126825259
 31
0.0
  0
LINE
  5
2BA
  8
0
  6
CONTINUOUS
 62
     7
 10
-37.75792962725217
 20
-10.32191126825259
 30
0.0
 11
-37.62788179625215
 21
-10.21062107415258
 31
0.0
  0
LINE
  5
2BB
  8
0
  6
CONTINUOUS
 62
     7
 10
-37.62788179625215
 20
-10.21062107415258
 30
0.0
 11
-37.47027682015215
 21
-10.14879883745258
 31
0.0
  0
LINE
  5
2BC
  8
0
  6
CONTINUOUS
 62
     7
 10
-37.47027682015215
 20
-10.14879883745258
 30
0.0
 11
-37.30241498855216
 21
-10.14158756600258
 31
0.0
  0
LINE
  5
2BD
  8
0
  6
CONTINUOUS
 62
     7
 10
-37.30241498855216
 20
-10.14158756600258
 30
0.0
 11
-37.20282906155217
 21
-10.16403263665259
 31
0.0
  0
ENDBLK
  5
D9
  8
0
  0
BLOCK
  8
0
  2
DC_GROUP_14
 70
     0
 10
0.0
 20
0.0
 30
0.0
  3
DC_GROUP_14
  1

  0
LINE
  5
2BE
  8
0
  6
CONTINUOUS
 62
     7
 10
-36.86602911785215
 20
-9.238682396452583
 30
0.0
 11
-37.00565951015216
 21
-9.155772801402586
 31
0.0
  0
LINE
  5
2BF
  8
0
  6
CONTINUOUS
 62
     7
 10
-37.00565951015216
 20
-9.155772801402586
 30
0.0
 11
-37.11694970430216
 21
-9.025724970402587
 31
0.0
  0
LINE
  5
2C0
  8
0
  6
CONTINUOUS
 62
     7
 10
-37.11694970430216
 20
-9.025724970402587
 30
0.0
 11
-37.17877194095216
 21
-8.868119994302583
 31
0.0
  0
LINE
  5
2C1
  8
0
  6
CONTINUOUS
 62
     7
 10
-37.17877194095216
 20
-8.868119994302583
 30
0.0
 11
-37.18598321245216
 21
-8.70025816270259
 31
0.0
  0
LINE
  5
2C2
  8
0
  6
CONTINUOUS
 62
     7
 10
-37.18598321245216
 20
-8.70025816270259
 30
0.0
 11
-37.16906435205216
 21
-8.618321464802586
 31
0.0
  0
ENDBLK
  5
DC
  8
0
  0
BLOCK
  8
0
  2
DC_GROUP_15
 70
     0
 10
0.0
 20
0.0
 30
0.0
  3
DC_GROUP_15
  1

  0
LINE
  5
2C3
  8
0
  6
CONTINUOUS
 62
     7
 10
-36.92860856930216
 20
-7.924453514052582
 30
0.0
 11
-36.95804016145216
 21
-8.01046175290258
 31
0.0
  0
LINE
  5
2C4
  8
0
  6
CONTINUOUS
 62
     7
 10
-36.95804016145216
 20
-8.01046175290258
 30
0.0
 11
-36.98766109745216
 21
-8.096708116702581
 31
0.0
  0
LINE
  5
2C5
  8
0
  6
CONTINUOUS
 62
     7
 10
-36.98766109745216
 20
-8.096708116702581
 30
0.0
 11
-37.01746608565216
 21
-8.183177197802587
 31
0.0
  0
LINE
  5
2C6
  8
0
  6
CONTINUOUS
 62
     7
 10
-37.01746608565216
 20
-8.183177197802587
 30
0.0
 11
-37.04744980150215
 21
-8.269853548802581
 31
0.0
  0
LINE
  5
2C7
  8
0
  6
CONTINUOUS
 62
     7
 10
-37.04744980150215
 20
-8.269853548802581
 30
0.0
 11
-37.07760688845215
 21
-8.356721685202581
 31
0.0
  0
LINE
  5
2C8
  8
0
  6
CONTINUOUS
 62
     7
 10
-37.07760688845215
 20
-8.356721685202581
 30
0.0
 11
-37.10793195900216
 21
-8.44376608830259
 31
0.0
  0
LINE
  5
2C9
  8
0
  6
CONTINUOUS
 62
     7
 10
-37.10793195900216
 20
-8.44376608830259
 30
0.0
 11
-37.13841959570216
 21
-8.530971207802589
 31
0.0
  0
LINE
  5
2CA
  8
0
  6
CONTINUOUS
 62
     7
 10
-37.13841959570216
 20
-8.530971207802589
 30
0.0
 11
-37.16906435205216
 21
-8.618321464802586
 31
0.0
  0
ENDBLK
  5
DF
  8
0
  0
BLOCK
  8
0
  2
DC_GROUP_16
 70
     0
 10
0.0
 20
0.0
 30
0.0
  3
DC_GROUP_16
  1

  0
LINE
  5
2CB
  8
0
  6
CONTINUOUS
 62
     7
 10
-37.83418985980217
 20
-7.594848879652582
 30
0.0
 11
-37.71942911780215
 21
-7.631313266702585
 31
0.0
  0
LINE
  5
2CC
  8
0
  6
CONTINUOUS
 62
     7
 10
-37.71942911780215
 20
-7.631313266702585
 30
0.0
 11
-37.60503343540216
 21
-7.669159170252578
 31
0.0
  0
LINE
  5
2CD
  8
0
  6
CONTINUOUS
 62
     7
 10
-37.60503343540216
 20
-7.669159170252578
 30
0.0
 11
-37.49104377645216
 21
-7.708373038202589
 31
0.0
  0
LINE
  5
2CE
  8
0
  6
CONTINUOUS
 62
     7
 10
-37.49104377645216
 20
-7.708373038202589
 30
0.0
 11
-37.37750095925216
 21
-7.748940828502577
 31
0.0
  0
LINE
  5
2CF
  8
0
  6
CONTINUOUS
 62
     7
 10
-37.37750095925216
 20
-7.748940828502577
 30
0.0
 11
-37.26444564215215
 21
-7.790848014252584
 31
0.0
  0
LINE
  5
2D0
  8
0
  6
CONTINUOUS
 62
     7
 10
-37.26444564215215
 20
-7.790848014252584
 30
0.0
 11
-37.15191830890217
 21
-7.834079589052587
 31
0.0
  0
LINE
  5
2D1
  8
0
  6
CONTINUOUS
 62
     7
 10
-37.15191830890217
 20
-7.834079589052587
 30
0.0
 11
-37.03995925420216
 21
-7.878620072102587
 31
0.0
  0
LINE
  5
2D2
  8
0
  6
CONTINUOUS
 62
     7
 10
-37.03995925420216
 20
-7.878620072102587
 30
0.0
 11
-36.92860856930216
 21
-7.924453514052582
 31
0.0
  0
ENDBLK
  5
E2
  8
0
  0
BLOCK
  8
0
  2
DC_GROUP_17
 70
     0
 10
0.0
 20
0.0
 30
0.0
  3
DC_GROUP_17
  1

  0
LINE
  5
2D3
  8
0
  6
CONTINUOUS
 62
     7
 10
-38.09599976510216
 20
-8.280944565402585
 30
0.0
 11
-38.06332734750217
 21
-8.194332316702578
 31
0.0
  0
LINE
  5
2D4
  8
0
  6
CONTINUOUS
 62
     7
 10
-38.06332734750217
 20
-8.194332316702578
 30
0.0
 11
-38.03062786185217
 21
-8.107932244352575
 31
0.0
  0
LINE
  5
2D5
  8
0
  6
CONTINUOUS
 62
     7
 10
-38.03062786185217
 20
-8.107932244352575
 30
0.0
 11
-37.99790714985215
 21
-8.021759783452588
 31
0.0
  0
LINE
  5
2D6
  8
0
  6
CONTINUOUS
 62
     7
 10
-37.99790714985215
 20
-8.021759783452588
 30
0.0
 11
-37.96517105695216
 21
-7.93583032845259
 31
0.0
  0
LINE
  5
2D7
  8
0
  6
CONTINUOUS
 62
     7
 10
-37.96517105695216
 20
-7.93583032845259
 30
0.0
 11
-37.93242543140215
 21
-7.85015923040259
 31
0.0
  0
LINE
  5
2D8
  8
0
  6
CONTINUOUS
 62
     7
 10
-37.93242543140215
 20
-7.85015923040259
 30
0.0
 11
-37.89967612300217
 21
-7.764761794202578
 31
0.0
  0
LINE
  5
2D9
  8
0
  6
CONTINUOUS
 62
     7
 10
-37.89967612300217
 20
-7.764761794202578
 30
0.0
 11
-37.86692898240216
 21
-7.679653275802587
 31
0.0
  0
LINE
  5
2DA
  8
0
  6
CONTINUOUS
 62
     7
 10
-37.86692898240216
 20
-7.679653275802587
 30
0.0
 11
-37.83418985980217
 21
-7.594848879652582
 31
0.0
  0
ENDBLK
  5
E5
  8
0
  0
BLOCK
  8
0
  2
DC_GROUP_18
 70
     0
 10
0.0
 20
0.0
 30
0.0
  3
DC_GROUP_18
  1

  0
LINE
  5
2DB
  8
0
  6
CONTINUOUS
 62
     7
 10
-38.09599976510216
 20
-8.280944565402585
 30
0.0
 11
-38.17179797705217
 21
-8.403502684352581
 31
0.0
  0
LINE
  5
2DC
  8
0
  6
CONTINUOUS
 62
     7
 10
-38.17179797705217
 20
-8.403502684352581
 30
0.0
 11
-38.30184580805215
 21
-8.514792878452589
 31
0.0
  0
LINE
  5
2DD
  8
0
  6
CONTINUOUS
 62
     7
 10
-38.30184580805215
 20
-8.514792878452589
 30
0.0
 11
-38.45945078415215
 21
-8.576615115102577
 31
0.0
  0
LINE
  5
2DE
  8
0
  6
CONTINUOUS
 62
     7
 10
-38.45945078415215
 20
-8.576615115102577
 30
0.0
 11
-38.62731261575216
 21
-8.583826386602588
 31
0.0
  0
LINE
  5
2DF
  8
0
  6
CONTINUOUS
 62
     7
 10
-38.62731261575216
 20
-8.583826386602588
 30
0.0
 11
-38.72689854270216
 21
-8.56138131595258
 31
0.0
  0
ENDBLK
  5
E8
  8
0
  0
BLOCK
  8
0
  2
DC_GROUP_19
 70
     0
 10
0.0
 20
0.0
 30
0.0
  3
DC_GROUP_19
  1

  0
LINE
  5
2E0
  8
0
  6
CONTINUOUS
 62
     7
 10
-37.83372783920215
 20
-10.44446938720258
 30
0.0
 11
-37.87180571880216
 21
-10.36301654180259
 31
0.0
  0
LINE
  5
2E1
  8
0
  6
CONTINUOUS
 62
     7
 10
-37.87180571880216
 20
-10.36301654180259
 30
0.0
 11
-37.89232939555217
 21
-10.33460484065258
 31
0.0
  0
ENDBLK
  5
EB
  8
0
  0
BLOCK
  8
0
  2
DC_GROUP_20
 70
     0
 10
0.0
 20
0.0
 30
0.0
  3
DC_GROUP_20
  1

  0
LINE
  5
2E2
  8
0
  6
CONTINUOUS
 62
     7
 10
-38.64515228635216
 20
-10.06059971670258
 30
0.0
 11
-38.69991826530216
 21
-10.07552765320258
 31
0.0
  0
LINE
  5
2E3
  8
0
  6
CONTINUOUS
 62
     7
 10
-38.69991826530216
 20
-10.07552765320258
 30
0.0
 11
-38.76066325220216
 21
-10.10709248775259
 31
0.0
  0
ENDBLK
  5
EE
  8
0
  0
BLOCK
  8
0
  2
DC_GROUP_21
 70
     0
 10
0.0
 20
0.0
 30
0.0
  3
DC_GROUP_21
  1

  0
LINE
  5
2E4
  8
0
  6
CONTINUOUS
 62
     7
 10
-37.28457531795216
 20
-8.664814235852582
 30
0.0
 11
-37.22980933900216
 21
-8.649886299352582
 31
0.0
  0
LINE
  5
2E5
  8
0
  6
CONTINUOUS
 62
     7
 10
-37.22980933900216
 20
-8.649886299352582
 30
0.0
 11
-37.16906435205216
 21
-8.618321464802586
 31
0.0
  0
ENDBLK
  5
F1
  8
0
  0
BLOCK
  8
0
  2
DC_GROUP_22
 70
     0
 10
0.0
 20
0.0
 30
0.0
  3
DC_GROUP_22
  1

  0
LINE
  5
2E6
  8
0
  6
CONTINUOUS
 62
     7
 10
-38.09599976510216
 20
-8.280944565402585
 30
0.0
 11
-38.05792188545216
 21
-8.36239741080258
 31
0.0
  0
LINE
  5
2E7
  8
0
  6
CONTINUOUS
 62
     7
 10
-38.05792188545216
 20
-8.36239741080258
 30
0.0
 11
-38.03739820875217
 21
-8.390809111952585
 31
0.0
  0
ENDBLK
  5
F4
  8
0
  0
BLOCK
  8
0
  2
DC_GROUP_23
 70
     0
 10
0.0
 20
0.0
 30
0.0
  3
DC_GROUP_23
  1

  0
LINE
  5
2E8
  8
0
  6
CONTINUOUS
 62
     7
 10
-46.57022447205216
 20
-2.976177331102583
 30
0.0
 11
-46.50340094080216
 21
-3.124181598202583
 31
0.0
  0
LINE
  5
2E9
  8
0
  6
CONTINUOUS
 62
     7
 10
-46.50340094080216
 20
-3.124181598202583
 30
0.0
 11
-46.48682972225216
 21
-3.294543977802583
 31
0.0
  0
LINE
  5
2EA
  8
0
  6
CONTINUOUS
 62
     7
 10
-46.48682972225216
 20
-3.294543977802583
 30
0.0
 11
-46.52658641125215
 21
-3.459106194352579
 31
0.0
  0
LINE
  5
2EB
  8
0
  6
CONTINUOUS
 62
     7
 10
-46.52658641125215
 20
-3.459106194352579
 30
0.0
 11
-46.61696087465216
 21
-3.600746772252585
 31
0.0
  0
LINE
  5
2EC
  8
0
  6
CONTINUOUS
 62
     7
 10
-46.61696087465216
 20
-3.600746772252585
 30
0.0
 11
-46.67781695285215
 21
-3.658161126202579
 31
0.0
  0
ENDBLK
  5
F7
  8
0
  0
BLOCK
  8
0
  2
DC_GROUP_24
 70
     0
 10
0.0
 20
0.0
 30
0.0
  3
DC_GROUP_24
  1

  0
LINE
  5
2ED
  8
0
  6
CONTINUOUS
 62
     7
 10
-47.27277310535216
 20
-4.088624705552583
 30
0.0
 11
-47.19933185735216
 21
-4.035052148602581
 31
0.0
  0
LINE
  5
2EE
  8
0
  6
CONTINUOUS
 62
     7
 10
-47.19933185735216
 20
-4.035052148602581
 30
0.0
 11
-47.12559892510216
 21
-3.981393134302586
 31
0.0
  0
LINE
  5
2EF
  8
0
  6
CONTINUOUS
 62
     7
 10
-47.12559892510216
 20
-3.981393134302586
 30
0.0
 11
-47.05158748065216
 21
-3.927657248652579
 31
0.0
  0
LINE
  5
2F0
  8
0
  6
CONTINUOUS
 62
     7
 10
-47.05158748065216
 20
-3.927657248652579
 30
0.0
 11
-46.97731074605215
 21
-3.873854091402585
 31
0.0
  0
LINE
  5
2F1
  8
0
  6
CONTINUOUS
 62
     7
 10
-46.97731074605215
 20
-3.873854091402585
 30
0.0
 11
-46.90278199050216
 21
-3.819993274352584
 31
0.0
  0
LINE
  5
2F2
  8
0
  6
CONTINUOUS
 62
     7
 10
-46.90278199050216
 20
-3.819993274352584
 30
0.0
 11
-46.82801452845216
 21
-3.766084419552584
 31
0.0
  0
LINE
  5
2F3
  8
0
  6
CONTINUOUS
 62
     7
 10
-46.82801452845216
 20
-3.766084419552584
 30
0.0
 11
-46.75302171680216
 21
-3.712137157652585
 31
0.0
  0
LINE
  5
2F4
  8
0
  6
CONTINUOUS
 62
     7
 10
-46.75302171680216
 20
-3.712137157652585
 30
0.0
 11
-46.67781695285215
 21
-3.658161126202579
 31
0.0
  0
ENDBLK
  5
FA
  8
0
  0
BLOCK
  8
0
  2
DC_GROUP_25
 70
     0
 10
0.0
 20
0.0
 30
0.0
  3
DC_GROUP_25
  1

  0
LINE
  5
2F5
  8
0
  6
CONTINUOUS
 62
     7
 10
-46.72001779160216
 20
-4.878041105052581
 30
0.0
 11
-46.79310917485216
 21
-4.782347170402581
 31
0.0
  0
LINE
  5
2F6
  8
0
  6
CONTINUOUS
 62
     7
 10
-46.79310917485216
 20
-4.782347170402581
 30
0.0
 11
-46.86510911340216
 21
-4.685730953302581
 31
0.0
  0
LINE
  5
2F7
  8
0
  6
CONTINUOUS
 62
     7
 10
-46.86510911340216
 20
-4.685730953302581
 30
0.0
 11
-46.93599182495215
 21
-4.588227050852581
 31
0.0
  0
LINE
  5
2F8
  8
0
  6
CONTINUOUS
 62
     7
 10
-46.93599182495215
 20
-4.588227050852581
 30
0.0
 11
-47.00573192720216
 21
-4.489870378052579
 31
0.0
  0
LINE
  5
2F9
  8
0
  6
CONTINUOUS
 62
     7
 10
-47.00573192720216
 20
-4.489870378052579
 30
0.0
 11
-47.07430444705216
 21
-4.390696155252584
 31
0.0
  0
LINE
  5
2FA
  8
0
  6
CONTINUOUS
 62
     7
 10
-47.07430444705216
 20
-4.390696155252584
 30
0.0
 11
-47.14168482950216
 21
-4.290739895602584
 31
0.0
  0
LINE
  5
2FB
  8
0
  6
CONTINUOUS
 62
     7
 10
-47.14168482950216
 20
-4.290739895602584
 30
0.0
 11
-47.20784894650216
 21
-4.190037392252584
 31
0.0
  0
LINE
  5
2FC
  8
0
  6
CONTINUOUS
 62
     7
 10
-47.20784894650216
 20
-4.190037392252584
 30
0.0
 11
-47.27277310535216
 21
-4.088624705552583
 31
0.0
  0
ENDBLK
  5
FD
  8
0
  0
BLOCK
  8
0
  2
DC_GROUP_26
 70
     0
 10
0.0
 20
0.0
 30
0.0
  3
DC_GROUP_26
  1

  0
LINE
  5
2FD
  8
0
  6
CONTINUOUS
 62
     7
 10
-46.11202735405216
 20
-4.466192413952584
 30
0.0
 11
-46.18846977665216
 21
-4.518400885652582
 31
0.0
  0
LINE
  5
2FE
  8
0
  6
CONTINUOUS
 62
     7
 10
-46.18846977665216
 20
-4.518400885652582
 30
0.0
 11
-46.26481267275216
 21
-4.570420027152579
 31
0.0
  0
LINE
  5
2FF
  8
0
  6
CONTINUOUS
 62
     7
 10
-46.26481267275216
 20
-4.570420027152579
 30
0.0
 11
-46.34104240390216
 21
-4.622240545252581
 31
0.0
  0
LINE
  5
300
  8
0
  6
CONTINUOUS
 62
     7
 10
-46.34104240390216
 20
-4.622240545252581
 30
0.0
 11
-46.41714535190216
 21
-4.673853182502583
 31
0.0
  0
LINE
  5
301
  8
0
  6
CONTINUOUS
 62
     7
 10
-46.41714535190216
 20
-4.673853182502583
 30
0.0
 11
-46.49310792115216
 21
-4.725248718352582
 31
0.0
  0
LINE
  5
302
  8
0
  6
CONTINUOUS
 62
     7
 10
-46.49310792115216
 20
-4.725248718352582
 30
0.0
 11
-46.56891654120216
 21
-4.776417971252584
 31
0.0
  0
LINE
  5
303
  8
0
  6
CONTINUOUS
 62
     7
 10
-46.56891654120216
 20
-4.776417971252584
 30
0.0
 11
-46.64455766905215
 21
-4.827351799852579
 31
0.0
  0
LINE
  5
304
  8
0
  6
CONTINUOUS
 62
     7
 10
-46.64455766905215
 20
-4.827351799852579
 30
0.0
 11
-46.72001779160216
 21
-4.878041105052581
 31
0.0
  0
ENDBLK
  5
100
  8
0
  0
BLOCK
  8
0
  2
DC_GROUP_27
 70
     0
 10
0.0
 20
0.0
 30
0.0
  3
DC_GROUP_27
  1

  0
LINE
  5
305
  8
0
  6
CONTINUOUS
 62
     7
 10
-46.11202735405216
 20
-4.466192413952584
 30
0.0
 11
-45.97964064465216
 21
-4.409274748602584
 31
0.0
  0
LINE
  5
306
  8
0
  6
CONTINUOUS
 62
     7
 10
-45.97964064465216
 20
-4.409274748602584
 30
0.0
 11
-45.80927826510216
 21
-4.392703530002585
 31
0.0
  0
LINE
  5
307
  8
0
  6
CONTINUOUS
 62
     7
 10
-45.80927826510216
 20
-4.392703530002585
 30
0.0
 11
-45.64471604855216
 21
-4.432460219002586
 31
0.0
  0
LINE
  5
308
  8
0
  6
CONTINUOUS
 62
     7
 10
-45.64471604855216
 20
-4.432460219002586
 30
0.0
 11
-45.50307547065216
 21
-4.522834682402582
 31
0.0
  0
LINE
  5
309
  8
0
  6
CONTINUOUS
 62
     7
 10
-45.50307547065216
 20
-4.522834682402582
 30
0.0
 11
-45.43437341860216
 21
-4.598340749002581
 31
0.0
  0
ENDBLK
  5
103
  8
0
  0
BLOCK
  8
0
  2
DC_GROUP_28
 70
     0
 10
0.0
 20
0.0
 30
0.0
  3
DC_GROUP_28
  1

  0
LINE
  5
30A
  8
0
  6
CONTINUOUS
 62
     7
 10
-44.62772396305215
 20
-4.033518719552582
 30
0.0
 11
-44.69454749430216
 21
-3.885514452452583
 31
0.0
  0
LINE
  5
30B
  8
0
  6
CONTINUOUS
 62
     7
 10
-44.69454749430216
 20
-3.885514452452583
 30
0.0
 11
-44.71111871285215
 21
-3.715152072852582
 31
0.0
  0
LINE
  5
30C
  8
0
  6
CONTINUOUS
 62
     7
 10
-44.71111871285215
 20
-3.715152072852582
 30
0.0
 11
-44.67136202385215
 21
-3.55058985635258
 31
0.0
  0
LINE
  5
30D
  8
0
  6
CONTINUOUS
 62
     7
 10
-44.67136202385215
 20
-3.55058985635258
 30
0.0
 11
-44.58098756045216
 21
-3.408949278402581
 31
0.0
  0
LINE
  5
30E
  8
0
  6
CONTINUOUS
 62
     7
 10
-44.58098756045216
 20
-3.408949278402581
 30
0.0
 11
-44.52013148225216
 21
-3.35153492450258
 31
0.0
  0
ENDBLK
  5
106
  8
0
  0
BLOCK
  8
0
  2
DC_GROUP_29
 70
     0
 10
0.0
 20
0.0
 30
0.0
  3
DC_GROUP_29
  1

  0
LINE
  5
30F
  8
0
  6
CONTINUOUS
 62
     7
 10
-43.92517532975216
 20
-2.921071345152583
 30
0.0
 11
-43.99861657775216
 21
-2.974643902052584
 31
0.0
  0
LINE
  5
310
  8
0
  6
CONTINUOUS
 62
     7
 10
-43.99861657775216
 20
-2.974643902052584
 30
0.0
 11
-44.07234951000216
 21
-3.02830291635258
 31
0.0
  0
LINE
  5
311
  8
0
  6
CONTINUOUS
 62
     7
 10
-44.07234951000216
 20
-3.02830291635258
 30
0.0
 11
-44.14636095445216
 21
-3.082038802002579
 31
0.0
  0
LINE
  5
312
  8
0
  6
CONTINUOUS
 62
     7
 10
-44.14636095445216
 20
-3.082038802002579
 30
0.0
 11
-44.22063768905215
 21
-3.135841959252581
 31
0.0
  0
LINE
  5
313
  8
0
  6
CONTINUOUS
 62
     7
 10
-44.22063768905215
 20
-3.135841959252581
 30
0.0
 11
-44.29516644460216
 21
-3.189702776302582
 31
0.0
  0
LINE
  5
314
  8
0
  6
CONTINUOUS
 62
     7
 10
-44.29516644460216
 20
-3.189702776302582
 30
0.0
 11
-44.36993390665216
 21
-3.243611631102581
 31
0.0
  0
LINE
  5
315
  8
0
  6
CONTINUOUS
 62
     7
 10
-44.36993390665216
 20
-3.243611631102581
 30
0.0
 11
-44.44492671830216
 21
-3.297558893002581
 31
0.0
  0
LINE
  5
316
  8
0
  6
CONTINUOUS
 62
     7
 10
-44.44492671830216
 20
-3.297558893002581
 30
0.0
 11
-44.52013148225216
 21
-3.35153492450258
 31
0.0
  0
ENDBLK
  5
109
  8
0
  0
BLOCK
  8
0
  2
DC_GROUP_30
 70
     0
 10
0.0
 20
0.0
 30
0.0
  3
DC_GROUP_30
  1

  0
LINE
  5
317
  8
0
  6
CONTINUOUS
 62
     7
 10
-44.47793064350216
 20
-2.131654945602584
 30
0.0
 11
-44.40483926025216
 21
-2.227348880252585
 31
0.0
  0
LINE
  5
318
  8
0
  6
CONTINUOUS
 62
     7
 10
-44.40483926025216
 20
-2.227348880252585
 30
0.0
 11
-44.33283932170216
 21
-2.323965097352584
 31
0.0
  0
LINE
  5
319
  8
0
  6
CONTINUOUS
 62
     7
 10
-44.33283932170216
 20
-2.323965097352584
 30
0.0
 11
-44.26195661015215
 21
-2.421468999802585
 31
0.0
  0
LINE
  5
31A
  8
0
  6
CONTINUOUS
 62
     7
 10
-44.26195661015215
 20
-2.421468999802585
 30
0.0
 11
-44.19221650790216
 21
-2.519825672602579
 31
0.0
  0
LINE
  5
31B
  8
0
  6
CONTINUOUS
 62
     7
 10
-44.19221650790216
 20
-2.519825672602579
 30
0.0
 11
-44.12364398805216
 21
-2.618999895402581
 31
0.0
  0
LINE
  5
31C
  8
0
  6
CONTINUOUS
 62
     7
 10
-44.12364398805216
 20
-2.618999895402581
 30
0.0
 11
-44.05626360555216
 21
-2.718956155052581
 31
0.0
  0
LINE
  5
31D
  8
0
  6
CONTINUOUS
 62
     7
 10
-44.05626360555216
 20
-2.718956155052581
 30
0.0
 11
-43.99009948860216
 21
-2.819658658452582
 31
0.0
  0
LINE
  5
31E
  8
0
  6
CONTINUOUS
 62
     7
 10
-43.99009948860216
 20
-2.819658658452582
 30
0.0
 11
-43.92517532975216
 21
-2.921071345152583
 31
0.0
  0
ENDBLK
  5
10C
  8
0
  0
BLOCK
  8
0
  2
DC_GROUP_31
 70
     0
 10
0.0
 20
0.0
 30
0.0
  3
DC_GROUP_31
  1

  0
LINE
  5
31F
  8
0
  6
CONTINUOUS
 62
     7
 10
-45.08592108105216
 20
-2.543503636702582
 30
0.0
 11
-45.00947865845216
 21
-2.491295165002583
 31
0.0
  0
LINE
  5
320
  8
0
  6
CONTINUOUS
 62
     7
 10
-45.00947865845216
 20
-2.491295165002583
 30
0.0
 11
-44.93313576235216
 21
-2.43927602355258
 31
0.0
  0
LINE
  5
321
  8
0
  6
CONTINUOUS
 62
     7
 10
-44.93313576235216
 20
-2.43927602355258
 30
0.0
 11
-44.85690603120216
 21
-2.387455505402585
 31
0.0
  0
LINE
  5
322
  8
0
  6
CONTINUOUS
 62
     7
 10
-44.85690603120216
 20
-2.387455505402585
 30
0.0
 11
-44.78080308320216
 21
-2.335842868202583
 31
0.0
  0
LINE
  5
323
  8
0
  6
CONTINUOUS
 62
     7
 10
-44.78080308320216
 20
-2.335842868202583
 30
0.0
 11
-44.70484051395216
 21
-2.284447332302584
 31
0.0
  0
LINE
  5
324
  8
0
  6
CONTINUOUS
 62
     7
 10
-44.70484051395216
 20
-2.284447332302584
 30
0.0
 11
-44.62903189390216
 21
-2.233278079452582
 31
0.0
  0
LINE
  5
325
  8
0
  6
CONTINUOUS
 62
     7
 10
-44.62903189390216
 20
-2.233278079452582
 30
0.0
 11
-44.55339076605216
 21
-2.182344250802579
 31
0.0
  0
LINE
  5
326
  8
0
  6
CONTINUOUS
 62
     7
 10
-44.55339076605216
 20
-2.182344250802579
 30
0.0
 11
-44.47793064350216
 21
-2.131654945602584
 31
0.0
  0
ENDBLK
  5
10F
  8
0
  0
BLOCK
  8
0
  2
DC_GROUP_32
 70
     0
 10
0.0
 20
0.0
 30
0.0
  3
DC_GROUP_32
  1

  0
LINE
  5
327
  8
0
  6
CONTINUOUS
 62
     7
 10
-45.08592108105216
 20
-2.543503636702582
 30
0.0
 11
-45.21830779045216
 21
-2.600421302102582
 31
0.0
  0
LINE
  5
328
  8
0
  6
CONTINUOUS
 62
     7
 10
-45.21830779045216
 20
-2.600421302102582
 30
0.0
 11
-45.38867017000216
 21
-2.61699252065258
 31
0.0
  0
LINE
  5
329
  8
0
  6
CONTINUOUS
 62
     7
 10
-45.38867017000216
 20
-2.61699252065258
 30
0.0
 11
-45.55323238655216
 21
-2.57723583165258
 31
0.0
  0
LINE
  5
32A
  8
0
  6
CONTINUOUS
 62
     7
 10
-45.55323238655216
 20
-2.57723583165258
 30
0.0
 11
-45.69487296445216
 21
-2.486861368252583
 31
0.0
  0
LINE
  5
32B
  8
0
  6
CONTINUOUS
 62
     7
 10
-45.69487296445216
 20
-2.486861368252583
 30
0.0
 11
-45.76357501650216
 21
-2.411355301652584
 31
0.0
  0
ENDBLK
  5
112
  8
0
  0
BLOCK
  8
0
  2
DC_GROUP_33
 70
     0
 10
0.0
 20
0.0
 30
0.0
  3
DC_GROUP_33
  1

  0
LINE
  5
32C
  8
0
  6
CONTINUOUS
 62
     7
 10
-46.11202735405216
 20
-4.466192413952584
 30
0.0
 11
-46.09649949420216
 21
-4.37762957465258
 31
0.0
  0
LINE
  5
32D
  8
0
  6
CONTINUOUS
 62
     7
 10
-46.09649949420216
 20
-4.37762957465258
 30
0.0
 11
-46.09701522365216
 21
-4.342584174202585
 31
0.0
  0
ENDBLK
  5
115
  8
0
  0
BLOCK
  8
0
  2
DC_GROUP_34
 70
     0
 10
0.0
 20
0.0
 30
0.0
  3
DC_GROUP_34
  1

  0
LINE
  5
32E
  8
0
  6
CONTINUOUS
 62
     7
 10
-46.55652875110216
 20
-3.686330845902582
 30
0.0
 11
-46.60995272735216
 21
-3.667146620552579
 31
0.0
  0
LINE
  5
32F
  8
0
  6
CONTINUOUS
 62
     7
 10
-46.60995272735216
 20
-3.667146620552579
 30
0.0
 11
-46.67781695285215
 21
-3.658161126202579
 31
0.0
  0
ENDBLK
  5
118
  8
0
  0
BLOCK
  8
0
  2
DC_GROUP_35
 70
     0
 10
0.0
 20
0.0
 30
0.0
  3
DC_GROUP_35
  1

  0
LINE
  5
330
  8
0
  6
CONTINUOUS
 62
     7
 10
-44.64141968400216
 20
-3.323365204752584
 30
0.0
 11
-44.58799570775216
 21
-3.342549430102579
 31
0.0
  0
LINE
  5
331
  8
0
  6
CONTINUOUS
 62
     7
 10
-44.58799570775216
 20
-3.342549430102579
 30
0.0
 11
-44.52013148225216
 21
-3.35153492450258
 31
0.0
  0
ENDBLK
  5
11B
  8
0
  0
BLOCK
  8
0
  2
DC_GROUP_36
 70
     0
 10
0.0
 20
0.0
 30
0.0
  3
DC_GROUP_36
  1

  0
LINE
  5
332
  8
0
  6
CONTINUOUS
 62
     7
 10
-45.08592108105216
 20
-2.543503636702582
 30
0.0
 11
-45.10144894090216
 21
-2.632066476002585
 31
0.0
  0
LINE
  5
333
  8
0
  6
CONTINUOUS
 62
     7
 10
-45.10144894090216
 20
-2.632066476002585
 30
0.0
 11
-45.10093321145216
 21
-2.66711187645258
 31
0.0
  0
ENDBLK
  5
11E
  8
0
  0
BLOCK
  8
0
  2
DC_GROUP_37
 70
     0
 10
0.0
 20
0.0
 30
0.0
  3
DC_GROUP_37
  1

  0
LINE
  5
334
  8
0
  6
CONTINUOUS
 62
     7
 10
-45.43437341860215
 20
15.94309066159742
 30
0.0
 11
-45.55059694250216
 21
15.82967664174742
 31
0.0
  0
LINE
  5
335
  8
0
  6
CONTINUOUS
 62
     7
 10
-45.55059694250216
 20
15.82967664174742
 30
0.0
 11
-45.70501752290216
 21
15.75583742444742
 31
0.0
  0
LINE
  5
336
  8
0
  6
CONTINUOUS
 62
     7
 10
-45.70501752290216
 20
15.75583742444742
 30
0.0
 11
-45.87325301195216
 21
15.73691289884741
 31
0.0
  0
LINE
  5
337
  8
0
  6
CONTINUOUS
 62
     7
 10
-45.87325301195216
 20
15.73691289884741
 30
0.0
 11
-46.03726150475216
 21
15.77339318444741
 31
0.0
  0
LINE
  5
338
  8
0
  6
CONTINUOUS
 62
     7
 10
-46.03726150475216
 20
15.77339318444741
 30
0.0
 11
-46.11202735405216
 21
15.81094232654742
 31
0.0
  0
ENDBLK
  5
121
  8
0
  0
BLOCK
  8
0
  2
DC_GROUP_38
 70
     0
 10
0.0
 20
0.0
 30
0.0
  3
DC_GROUP_38
  1

  0
LINE
  5
339
  8
0
  6
CONTINUOUS
 62
     7
 10
-46.72001779160215
 20
16.22279101759742
 30
0.0
 11
-46.64455766905215
 21
16.17210171239742
 31
0.0
  0
LINE
  5
33A
  8
0
  6
CONTINUOUS
 62
     7
 10
-46.64455766905215
 20
16.17210171239742
 30
0.0
 11
-46.56891654120215
 21
16.12116788379742
 31
0.0
  0
LINE
  5
33B
  8
0
  6
CONTINUOUS
 62
     7
 10
-46.56891654120215
 20
16.12116788379742
 30
0.0
 11
-46.49310792115215
 21
16.06999863094742
 31
0.0
  0
LINE
  5
33C
  8
0
  6
CONTINUOUS
 62
     7
 10
-46.49310792115215
 20
16.06999863094742
 30
0.0
 11
-46.41714535190215
 21
16.01860309504742
 31
0.0
  0
LINE
  5
33D
  8
0
  6
CONTINUOUS
 62
     7
 10
-46.41714535190215
 20
16.01860309504742
 30
0.0
 11
-46.34104240390215
 21
15.96699045784742
 31
0.0
  0
LINE
  5
33E
  8
0
  6
CONTINUOUS
 62
     7
 10
-46.34104240390215
 20
15.96699045784742
 30
0.0
 11
-46.26481267275216
 21
15.91516993969742
 31
0.0
  0
LINE
  5
33F
  8
0
  6
CONTINUOUS
 62
     7
 10
-46.26481267275216
 20
15.91516993969742
 30
0.0
 11
-46.18846977665216
 21
15.86315079824742
 31
0.0
  0
LINE
  5
340
  8
0
  6
CONTINUOUS
 62
     7
 10
-46.18846977665216
 20
15.86315079824742
 30
0.0
 11
-46.11202735405216
 21
15.81094232654742
 31
0.0
  0
ENDBLK
  5
124
  8
0
  0
BLOCK
  8
0
  2
DC_GROUP_39
 70
     0
 10
0.0
 20
0.0
 30
0.0
  3
DC_GROUP_39
  1

  0
LINE
  5
341
  8
0
  6
CONTINUOUS
 62
     7
 10
-47.27277310535216
 20
15.43337461809742
 30
0.0
 11
-47.20784894650216
 21
15.53478730479742
 31
0.0
  0
LINE
  5
342
  8
0
  6
CONTINUOUS
 62
     7
 10
-47.20784894650216
 20
15.53478730479742
 30
0.0
 11
-47.14168482950216
 21
15.63548980819742
 31
0.0
  0
LINE
  5
343
  8
0
  6
CONTINUOUS
 62
     7
 10
-47.14168482950216
 20
15.63548980819742
 30
0.0
 11
-47.07430444705216
 21
15.73544606784742
 31
0.0
  0
LINE
  5
344
  8
0
  6
CONTINUOUS
 62
     7
 10
-47.07430444705216
 20
15.73544606784742
 30
0.0
 11
-47.00573192720216
 21
15.83462029059742
 31
0.0
  0
LINE
  5
345
  8
0
  6
CONTINUOUS
 62
     7
 10
-47.00573192720216
 20
15.83462029059742
 30
0.0
 11
-46.93599182495215
 21
15.93297696339742
 31
0.0
  0
LINE
  5
346
  8
0
  6
CONTINUOUS
 62
     7
 10
-46.93599182495215
 20
15.93297696339742
 30
0.0
 11
-46.86510911340215
 21
16.03048086584742
 31
0.0
  0
LINE
  5
347
  8
0
  6
CONTINUOUS
 62
     7
 10
-46.86510911340215
 20
16.03048086584742
 30
0.0
 11
-46.79310917485215
 21
16.12709708299742
 31
0.0
  0
LINE
  5
348
  8
0
  6
CONTINUOUS
 62
     7
 10
-46.79310917485215
 20
16.12709708299742
 30
0.0
 11
-46.72001779160215
 21
16.22279101759742
 31
0.0
  0
ENDBLK
  5
127
  8
0
  0
BLOCK
  8
0
  2
DC_GROUP_40
 70
     0
 10
0.0
 20
0.0
 30
0.0
  3
DC_GROUP_40
  1

  0
LINE
  5
349
  8
0
  6
CONTINUOUS
 62
     7
 10
-46.67781695285215
 20
15.00291103874742
 30
0.0
 11
-46.75302171680216
 21
15.05688707019742
 31
0.0
  0
LINE
  5
34A
  8
0
  6
CONTINUOUS
 62
     7
 10
-46.75302171680216
 20
15.05688707019742
 30
0.0
 11
-46.82801452845216
 21
15.11083433209742
 31
0.0
  0
LINE
  5
34B
  8
0
  6
CONTINUOUS
 62
     7
 10
-46.82801452845216
 20
15.11083433209742
 30
0.0
 11
-46.90278199050216
 21
15.16474318689742
 31
0.0
  0
LINE
  5
34C
  8
0
  6
CONTINUOUS
 62
     7
 10
-46.90278199050216
 20
15.16474318689742
 30
0.0
 11
-46.97731074605215
 21
15.21860400399742
 31
0.0
  0
LINE
  5
34D
  8
0
  6
CONTINUOUS
 62
     7
 10
-46.97731074605215
 20
15.21860400399742
 30
0.0
 11
-47.05158748065216
 21
15.27240716124741
 31
0.0
  0
LINE
  5
34E
  8
0
  6
CONTINUOUS
 62
     7
 10
-47.05158748065216
 20
15.27240716124741
 30
0.0
 11
-47.12559892510216
 21
15.32614304689742
 31
0.0
  0
LINE
  5
34F
  8
0
  6
CONTINUOUS
 62
     7
 10
-47.12559892510216
 20
15.32614304689742
 30
0.0
 11
-47.19933185735216
 21
15.37980206119742
 31
0.0
  0
LINE
  5
350
  8
0
  6
CONTINUOUS
 62
     7
 10
-47.19933185735216
 20
15.37980206119742
 30
0.0
 11
-47.27277310535216
 21
15.43337461809742
 31
0.0
  0
ENDBLK
  5
12A
  8
0
  0
BLOCK
  8
0
  2
DC_GROUP_41
 70
     0
 10
0.0
 20
0.0
 30
0.0
  3
DC_GROUP_41
  1

  0
LINE
  5
351
  8
0
  6
CONTINUOUS
 62
     7
 10
-46.67781695285215
 20
15.00291103874742
 30
0.0
 11
-46.57905292140216
 21
14.89797521294742
 31
0.0
  0
LINE
  5
352
  8
0
  6
CONTINUOUS
 62
     7
 10
-46.57905292140216
 20
14.89797521294742
 30
0.0
 11
-46.50521370410216
 21
14.74355463254741
 31
0.0
  0
LINE
  5
353
  8
0
  6
CONTINUOUS
 62
     7
 10
-46.50521370410216
 20
14.74355463254741
 30
0.0
 11
-46.48628917850215
 21
14.57531914349742
 31
0.0
  0
LINE
  5
354
  8
0
  6
CONTINUOUS
 62
     7
 10
-46.48628917850215
 20
14.57531914349742
 30
0.0
 11
-46.52276946410215
 21
14.41131065069742
 31
0.0
  0
LINE
  5
355
  8
0
  6
CONTINUOUS
 62
     7
 10
-46.52276946410215
 20
14.41131065069742
 30
0.0
 11
-46.57022447205216
 21
14.32092724364742
 31
0.0
  0
ENDBLK
  5
12D
  8
0
  0
BLOCK
  8
0
  2
DC_GROUP_42
 70
     0
 10
0.0
 20
0.0
 30
0.0
  3
DC_GROUP_42
  1

  0
LINE
  5
356
  8
0
  6
CONTINUOUS
 62
     7
 10
-46.67781695285215
 20
15.00291103874742
 30
0.0
 11
-46.58928426540216
 21
15.01860989844742
 31
0.0
  0
LINE
  5
357
  8
0
  6
CONTINUOUS
 62
     7
 10
-46.58928426540216
 20
15.01860989844742
 30
0.0
 11
-46.55652875110216
 21
15.03108075844742
 31
0.0
  0
ENDBLK
  5
130
  8
0
  0
BLOCK
  8
0
  2
DC_GROUP_43
 70
     0
 10
0.0
 20
0.0
 30
0.0
  3
DC_GROUP_43
  1

  0
LINE
  5
358
  8
0
  6
CONTINUOUS
 62
     7
 10
-46.09701522365216
 20
15.68733408674742
 30
0.0
 11
-46.09726002465216
 21
15.74409759449742
 31
0.0
  0
LINE
  5
359
  8
0
  6
CONTINUOUS
 62
     7
 10
-46.09726002465216
 20
15.74409759449742
 30
0.0
 11
-46.11202735405216
 21
15.81094232654742
 31
0.0
  0
ENDBLK
  5
133
  8
0
  0
BLOCK
  8
0
  2
DC_GROUP_44
 70
     0
 10
0.0
 20
0.0
 30
0.0
  3
DC_GROUP_44
  1

  0
LINE
  5
35A
  8
0
  6
CONTINUOUS
 62
     7
 10
-45.76357501650216
 20
13.75610521419742
 30
0.0
 11
-45.64735149260216
 21
13.86951923404742
 31
0.0
  0
LINE
  5
35B
  8
0
  6
CONTINUOUS
 62
     7
 10
-45.64735149260216
 20
13.86951923404742
 30
0.0
 11
-45.49293091220216
 21
13.94335845134741
 31
0.0
  0
LINE
  5
35C
  8
0
  6
CONTINUOUS
 62
     7
 10
-45.49293091220216
 20
13.94335845134741
 30
0.0
 11
-45.32469542315216
 21
13.96228297694742
 31
0.0
  0
LINE
  5
35D
  8
0
  6
CONTINUOUS
 62
     7
 10
-45.32469542315216
 20
13.96228297694742
 30
0.0
 11
-45.16068693035216
 21
13.92580269134742
 31
0.0
  0
LINE
  5
35E
  8
0
  6
CONTINUOUS
 62
     7
 10
-45.16068693035216
 20
13.92580269134742
 30
0.0
 11
-45.08592108105216
 21
13.88825354924742
 31
0.0
  0
ENDBLK
  5
136
  8
0
  0
BLOCK
  8
0
  2
DC_GROUP_45
 70
     0
 10
0.0
 20
0.0
 30
0.0
  3
DC_GROUP_45
  1

  0
LINE
  5
35F
  8
0
  6
CONTINUOUS
 62
     7
 10
-44.47793064350216
 20
13.47640485819742
 30
0.0
 11
-44.55339076605216
 21
13.52709416339741
 31
0.0
  0
LINE
  5
360
  8
0
  6
CONTINUOUS
 62
     7
 10
-44.55339076605216
 20
13.52709416339741
 30
0.0
 11
-44.62903189390216
 21
13.57802799199742
 31
0.0
  0
LINE
  5
361
  8
0
  6
CONTINUOUS
 62
     7
 10
-44.62903189390216
 20
13.57802799199742
 30
0.0
 11
-44.70484051395216
 21
13.62919724484742
 31
0.0
  0
LINE
  5
362
  8
0
  6
CONTINUOUS
 62
     7
 10
-44.70484051395216
 20
13.62919724484742
 30
0.0
 11
-44.78080308320216
 21
13.68059278074742
 31
0.0
  0
LINE
  5
363
  8
0
  6
CONTINUOUS
 62
     7
 10
-44.78080308320216
 20
13.68059278074742
 30
0.0
 11
-44.85690603120216
 21
13.73220541794742
 31
0.0
  0
LINE
  5
364
  8
0
  6
CONTINUOUS
 62
     7
 10
-44.85690603120216
 20
13.73220541794742
 30
0.0
 11
-44.93313576235216
 21
13.78402593609741
 31
0.0
  0
LINE
  5
365
  8
0
  6
CONTINUOUS
 62
     7
 10
-44.93313576235216
 20
13.78402593609741
 30
0.0
 11
-45.00947865845216
 21
13.83604507754742
 31
0.0
  0
LINE
  5
366
  8
0
  6
CONTINUOUS
 62
     7
 10
-45.00947865845216
 20
13.83604507754742
 30
0.0
 11
-45.08592108105216
 21
13.88825354924742
 31
0.0
  0
ENDBLK
  5
139
  8
0
  0
BLOCK
  8
0
  2
DC_GROUP_46
 70
     0
 10
0.0
 20
0.0
 30
0.0
  3
DC_GROUP_46
  1

  0
LINE
  5
367
  8
0
  6
CONTINUOUS
 62
     7
 10
-43.92517532975216
 20
14.26582125769742
 30
0.0
 11
-43.99009948860216
 21
14.16440857099742
 31
0.0
  0
LINE
  5
368
  8
0
  6
CONTINUOUS
 62
     7
 10
-43.99009948860216
 20
14.16440857099742
 30
0.0
 11
-44.05626360555216
 21
14.06370606759742
 31
0.0
  0
LINE
  5
369
  8
0
  6
CONTINUOUS
 62
     7
 10
-44.05626360555216
 20
14.06370606759742
 30
0.0
 11
-44.12364398805216
 21
13.96374980794742
 31
0.0
  0
LINE
  5
36A
  8
0
  6
CONTINUOUS
 62
     7
 10
-44.12364398805216
 20
13.96374980794742
 30
0.0
 11
-44.19221650790216
 21
13.86457558519741
 31
0.0
  0
LINE
  5
36B
  8
0
  6
CONTINUOUS
 62
     7
 10
-44.19221650790216
 20
13.86457558519741
 30
0.0
 11
-44.26195661015215
 21
13.76621891239742
 31
0.0
  0
LINE
  5
36C
  8
0
  6
CONTINUOUS
 62
     7
 10
-44.26195661015215
 20
13.76621891239742
 30
0.0
 11
-44.33283932170216
 21
13.66871500994742
 31
0.0
  0
LINE
  5
36D
  8
0
  6
CONTINUOUS
 62
     7
 10
-44.33283932170216
 20
13.66871500994742
 30
0.0
 11
-44.40483926025216
 21
13.57209879279742
 31
0.0
  0
LINE
  5
36E
  8
0
  6
CONTINUOUS
 62
     7
 10
-44.40483926025216
 20
13.57209879279742
 30
0.0
 11
-44.47793064350216
 21
13.47640485819742
 31
0.0
  0
ENDBLK
  5
13C
  8
0
  0
BLOCK
  8
0
  2
DC_GROUP_47
 70
     0
 10
0.0
 20
0.0
 30
0.0
  3
DC_GROUP_47
  1

  0
LINE
  5
36F
  8
0
  6
CONTINUOUS
 62
     7
 10
-44.52013148225216
 20
14.69628483704741
 30
0.0
 11
-44.44492671830216
 21
14.64230880559742
 31
0.0
  0
LINE
  5
370
  8
0
  6
CONTINUOUS
 62
     7
 10
-44.44492671830216
 20
14.64230880559742
 30
0.0
 11
-44.36993390665216
 21
14.58836154369742
 31
0.0
  0
LINE
  5
371
  8
0
  6
CONTINUOUS
 62
     7
 10
-44.36993390665216
 20
14.58836154369742
 30
0.0
 11
-44.29516644460216
 21
14.53445268889742
 31
0.0
  0
LINE
  5
372
  8
0
  6
CONTINUOUS
 62
     7
 10
-44.29516644460216
 20
14.53445268889742
 30
0.0
 11
-44.22063768905215
 21
14.48059187179742
 31
0.0
  0
LINE
  5
373
  8
0
  6
CONTINUOUS
 62
     7
 10
-44.22063768905215
 20
14.48059187179742
 30
0.0
 11
-44.14636095445216
 21
14.42678871454742
 31
0.0
  0
LINE
  5
374
  8
0
  6
CONTINUOUS
 62
     7
 10
-44.14636095445216
 20
14.42678871454742
 30
0.0
 11
-44.07234951000216
 21
14.37305282889741
 31
0.0
  0
LINE
  5
375
  8
0
  6
CONTINUOUS
 62
     7
 10
-44.07234951000216
 20
14.37305282889741
 30
0.0
 11
-43.99861657775216
 21
14.31939381459742
 31
0.0
  0
LINE
  5
376
  8
0
  6
CONTINUOUS
 62
     7
 10
-43.99861657775216
 20
14.31939381459742
 30
0.0
 11
-43.92517532975216
 21
14.26582125769742
 31
0.0
  0
ENDBLK
  5
13F
  8
0
  0
BLOCK
  8
0
  2
DC_GROUP_48
 70
     0
 10
0.0
 20
0.0
 30
0.0
  3
DC_GROUP_48
  1

  0
LINE
  5
377
  8
0
  6
CONTINUOUS
 62
     7
 10
-44.52013148225216
 20
14.69628483704741
 30
0.0
 11
-44.61889551370216
 21
14.80122066284742
 31
0.0
  0
LINE
  5
378
  8
0
  6
CONTINUOUS
 62
     7
 10
-44.61889551370216
 20
14.80122066284742
 30
0.0
 11
-44.69273473100215
 21
14.95564124324742
 31
0.0
  0
LINE
  5
379
  8
0
  6
CONTINUOUS
 62
     7
 10
-44.69273473100215
 20
14.95564124324742
 30
0.0
 11
-44.71165925660216
 21
15.12387673229742
 31
0.0
  0
LINE
  5
37A
  8
0
  6
CONTINUOUS
 62
     7
 10
-44.71165925660216
 20
15.12387673229742
 30
0.0
 11
-44.67517897100215
 21
15.28788522509742
 31
0.0
  0
LINE
  5
37B
  8
0
  6
CONTINUOUS
 62
     7
 10
-44.67517897100215
 20
15.28788522509742
 30
0.0
 11
-44.62772396305215
 21
15.37826863214742
 31
0.0
  0
ENDBLK
  5
142
  8
0
  0
BLOCK
  8
0
  2
DC_GROUP_49
 70
     0
 10
0.0
 20
0.0
 30
0.0
  3
DC_GROUP_49
  1

  0
LINE
  5
37C
  8
0
  6
CONTINUOUS
 62
     7
 10
-45.10093321145216
 20
14.01186178904742
 30
0.0
 11
-45.10068841045216
 21
13.95509828129742
 31
0.0
  0
LINE
  5
37D
  8
0
  6
CONTINUOUS
 62
     7
 10
-45.10068841045216
 20
13.95509828129742
 30
0.0
 11
-45.08592108105216
 21
13.88825354924742
 31
0.0
  0
ENDBLK
  5
145
  8
0
  0
BLOCK
  8
0
  2
DC_GROUP_50
 70
     0
 10
0.0
 20
0.0
 30
0.0
  3
DC_GROUP_50
  1

  0
LINE
  5
37E
  8
0
  6
CONTINUOUS
 62
     7
 10
-44.52013148225216
 20
14.69628483704741
 30
0.0
 11
-44.60866416965216
 21
14.68058597734742
 31
0.0
  0
LINE
  5
37F
  8
0
  6
CONTINUOUS
 62
     7
 10
-44.60866416965216
 20
14.68058597734742
 30
0.0
 11
-44.64141968400216
 21
14.66811511734742
 31
0.0
  0
ENDBLK
  5
148
  8
0
  0
BLOCK
  8
0
  2
DC_GROUP_51
 70
     0
 10
0.0
 20
0.0
 30
0.0
  3
DC_GROUP_51
  1

  0
LINE
  5
380
  8
0
  6
CONTINUOUS
 62
     7
 10
-18.41485854580216
 20
14.32092724364741
 30
0.0
 11
-18.48168207705216
 21
14.46893151079741
 31
0.0
  0
LINE
  5
381
  8
0
  6
CONTINUOUS
 62
     7
 10
-18.48168207705216
 20
14.46893151079741
 30
0.0
 11
-18.49825329560215
 21
14.63929389034741
 31
0.0
  0
LINE
  5
382
  8
0
  6
CONTINUOUS
 62
     7
 10
-18.49825329560215
 20
14.63929389034741
 30
0.0
 11
-18.45849660660215
 21
14.80385610689742
 31
0.0
  0
LINE
  5
383
  8
0
  6
CONTINUOUS
 62
     7
 10
-18.45849660660215
 20
14.80385610689742
 30
0.0
 11
-18.36812214320216
 21
14.94549668479742
 31
0.0
  0
LINE
  5
384
  8
0
  6
CONTINUOUS
 62
     7
 10
-18.36812214320216
 20
14.94549668479742
 30
0.0
 11
-18.30726606500215
 21
15.00291103874742
 31
0.0
  0
ENDBLK
  5
14B
  8
0
  0
BLOCK
  8
0
  2
DC_GROUP_52
 70
     0
 10
0.0
 20
0.0
 30
0.0
  3
DC_GROUP_52
  1

  0
LINE
  5
385
  8
0
  6
CONTINUOUS
 62
     7
 10
-17.71230991250215
 20
15.43337461809741
 30
0.0
 11
-17.78575116050216
 21
15.37980206119741
 31
0.0
  0
LINE
  5
386
  8
0
  6
CONTINUOUS
 62
     7
 10
-17.78575116050216
 20
15.37980206119741
 30
0.0
 11
-17.85948409275215
 21
15.32614304689742
 31
0.0
  0
LINE
  5
387
  8
0
  6
CONTINUOUS
 62
     7
 10
-17.85948409275215
 20
15.32614304689742
 30
0.0
 11
-17.93349553720216
 21
15.27240716124741
 31
0.0
  0
LINE
  5
388
  8
0
  6
CONTINUOUS
 62
     7
 10
-17.93349553720216
 20
15.27240716124741
 30
0.0
 11
-18.00777227180215
 21
15.21860400399742
 31
0.0
  0
LINE
  5
389
  8
0
  6
CONTINUOUS
 62
     7
 10
-18.00777227180215
 20
15.21860400399742
 30
0.0
 11
-18.08230102735216
 21
15.16474318689741
 31
0.0
  0
LINE
  5
38A
  8
0
  6
CONTINUOUS
 62
     7
 10
-18.08230102735216
 20
15.16474318689741
 30
0.0
 11
-18.15706848940215
 21
15.11083433209742
 31
0.0
  0
LINE
  5
38B
  8
0
  6
CONTINUOUS
 62
     7
 10
-18.15706848940215
 20
15.11083433209742
 30
0.0
 11
-18.23206130105216
 21
15.05688707019742
 31
0.0
  0
LINE
  5
38C
  8
0
  6
CONTINUOUS
 62
     7
 10
-18.23206130105216
 20
15.05688707019742
 30
0.0
 11
-18.30726606500215
 21
15.00291103874742
 31
0.0
  0
ENDBLK
  5
14E
  8
0
  0
BLOCK
  8
0
  2
DC_GROUP_53
 70
     0
 10
0.0
 20
0.0
 30
0.0
  3
DC_GROUP_53
  1

  0
LINE
  5
38D
  8
0
  6
CONTINUOUS
 62
     7
 10
-18.26506522625216
 20
16.22279101759741
 30
0.0
 11
-18.19197384300216
 21
16.12709708299741
 31
0.0
  0
LINE
  5
38E
  8
0
  6
CONTINUOUS
 62
     7
 10
-18.19197384300216
 20
16.12709708299741
 30
0.0
 11
-18.11997390445215
 21
16.03048086584741
 31
0.0
  0
LINE
  5
38F
  8
0
  6
CONTINUOUS
 62
     7
 10
-18.11997390445215
 20
16.03048086584741
 30
0.0
 11
-18.04909119290215
 21
15.93297696339741
 31
0.0
  0
LINE
  5
390
  8
0
  6
CONTINUOUS
 62
     7
 10
-18.04909119290215
 20
15.93297696339741
 30
0.0
 11
-17.97935109065216
 21
15.83462029059742
 31
0.0
  0
LINE
  5
391
  8
0
  6
CONTINUOUS
 62
     7
 10
-17.97935109065216
 20
15.83462029059742
 30
0.0
 11
-17.91077857080217
 21
15.73544606784742
 31
0.0
  0
LINE
  5
392
  8
0
  6
CONTINUOUS
 62
     7
 10
-17.91077857080217
 20
15.73544606784742
 30
0.0
 11
-17.84339818830216
 21
15.63548980819742
 31
0.0
  0
LINE
  5
393
  8
0
  6
CONTINUOUS
 62
     7
 10
-17.84339818830216
 20
15.63548980819742
 30
0.0
 11
-17.77723407135215
 21
15.53478730479742
 31
0.0
  0
LINE
  5
394
  8
0
  6
CONTINUOUS
 62
     7
 10
-17.77723407135215
 20
15.53478730479742
 30
0.0
 11
-17.71230991250215
 21
15.43337461809741
 31
0.0
  0
ENDBLK
  5
151
  8
0
  0
BLOCK
  8
0
  2
DC_GROUP_54
 70
     0
 10
0.0
 20
0.0
 30
0.0
  3
DC_GROUP_54
  1

  0
LINE
  5
395
  8
0
  6
CONTINUOUS
 62
     7
 10
-18.87305566380216
 20
15.81094232654742
 30
0.0
 11
-18.79661324120215
 21
15.86315079824741
 31
0.0
  0
LINE
  5
396
  8
0
  6
CONTINUOUS
 62
     7
 10
-18.79661324120215
 20
15.86315079824741
 30
0.0
 11
-18.72027034510216
 21
15.91516993969742
 31
0.0
  0
LINE
  5
397
  8
0
  6
CONTINUOUS
 62
     7
 10
-18.72027034510216
 20
15.91516993969742
 30
0.0
 11
-18.64404061395216
 21
15.96699045784741
 31
0.0
  0
LINE
  5
398
  8
0
  6
CONTINUOUS
 62
     7
 10
-18.64404061395216
 20
15.96699045784741
 30
0.0
 11
-18.56793766595216
 21
16.01860309504741
 31
0.0
  0
LINE
  5
399
  8
0
  6
CONTINUOUS
 62
     7
 10
-18.56793766595216
 20
16.01860309504741
 30
0.0
 11
-18.49197509670216
 21
16.06999863094741
 31
0.0
  0
LINE
  5
39A
  8
0
  6
CONTINUOUS
 62
     7
 10
-18.49197509670216
 20
16.06999863094741
 30
0.0
 11
-18.41616647665217
 21
16.12116788379742
 31
0.0
  0
LINE
  5
39B
  8
0
  6
CONTINUOUS
 62
     7
 10
-18.41616647665217
 20
16.12116788379742
 30
0.0
 11
-18.34052534880216
 21
16.17210171239742
 31
0.0
  0
LINE
  5
39C
  8
0
  6
CONTINUOUS
 62
     7
 10
-18.34052534880216
 20
16.17210171239742
 30
0.0
 11
-18.26506522625216
 21
16.22279101759741
 31
0.0
  0
ENDBLK
  5
154
  8
0
  0
BLOCK
  8
0
  2
DC_GROUP_55
 70
     0
 10
0.0
 20
0.0
 30
0.0
  3
DC_GROUP_55
  1

  0
LINE
  5
39D
  8
0
  6
CONTINUOUS
 62
     7
 10
-18.87305566380216
 20
15.81094232654742
 30
0.0
 11
-19.00544237320216
 21
15.75402466114742
 31
0.0
  0
LINE
  5
39E
  8
0
  6
CONTINUOUS
 62
     7
 10
-19.00544237320216
 20
15.75402466114742
 30
0.0
 11
-19.17580475275216
 21
15.73745344259742
 31
0.0
  0
LINE
  5
39F
  8
0
  6
CONTINUOUS
 62
     7
 10
-19.17580475275216
 20
15.73745344259742
 30
0.0
 11
-19.34036696930215
 21
15.77721013159742
 31
0.0
  0
LINE
  5
3A0
  8
0
  6
CONTINUOUS
 62
     7
 10
-19.34036696930215
 20
15.77721013159742
 30
0.0
 11
-19.48200754720216
 21
15.86758459499741
 31
0.0
  0
LINE
  5
3A1
  8
0
  6
CONTINUOUS
 62
     7
 10
-19.48200754720216
 20
15.86758459499741
 30
0.0
 11
-19.55070959925216
 21
15.94309066159741
 31
0.0
  0
ENDBLK
  5
157
  8
0
  0
BLOCK
  8
0
  2
DC_GROUP_56
 70
     0
 10
0.0
 20
0.0
 30
0.0
  3
DC_GROUP_56
  1

  0
LINE
  5
3A2
  8
0
  6
CONTINUOUS
 62
     7
 10
-18.87305566380216
 20
15.81094232654742
 30
0.0
 11
-18.88858352365216
 21
15.72237948719741
 31
0.0
  0
LINE
  5
3A3
  8
0
  6
CONTINUOUS
 62
     7
 10
-18.88858352365216
 20
15.72237948719741
 30
0.0
 11
-18.88806779420216
 21
15.68733408674742
 31
0.0
  0
ENDBLK
  5
15A
  8
0
  0
BLOCK
  8
0
  2
DC_GROUP_57
 70
     0
 10
0.0
 20
0.0
 30
0.0
  3
DC_GROUP_57
  1

  0
LINE
  5
3A4
  8
0
  6
CONTINUOUS
 62
     7
 10
-18.42855426675216
 20
15.03108075844741
 30
0.0
 11
-18.37513029050216
 21
15.01189653309742
 31
0.0
  0
LINE
  5
3A5
  8
0
  6
CONTINUOUS
 62
     7
 10
-18.37513029050216
 20
15.01189653309742
 30
0.0
 11
-18.30726606500215
 21
15.00291103874742
 31
0.0
  0
ENDBLK
  5
15D
  8
0
  0
BLOCK
  8
0
  2
DC_GROUP_58
 70
     0
 10
0.0
 20
0.0
 30
0.0
  3
DC_GROUP_58
  1

  0
LINE
  5
3A6
  8
0
  6
CONTINUOUS
 62
     7
 10
-20.35735905480216
 20
15.37826863214741
 30
0.0
 11
-20.29053552355217
 21
15.23026436499741
 31
0.0
  0
LINE
  5
3A7
  8
0
  6
CONTINUOUS
 62
     7
 10
-20.29053552355217
 20
15.23026436499741
 30
0.0
 11
-20.27396430500215
 21
15.05990198544741
 31
0.0
  0
LINE
  5
3A8
  8
0
  6
CONTINUOUS
 62
     7
 10
-20.27396430500215
 20
15.05990198544741
 30
0.0
 11
-20.31372099400215
 21
14.89533976889741
 31
0.0
  0
LINE
  5
3A9
  8
0
  6
CONTINUOUS
 62
     7
 10
-20.31372099400215
 20
14.89533976889741
 30
0.0
 11
-20.40409545740215
 21
14.75369919099741
 31
0.0
  0
LINE
  5
3AA
  8
0
  6
CONTINUOUS
 62
     7
 10
-20.40409545740215
 20
14.75369919099741
 30
0.0
 11
-20.46495153560215
 21
14.69628483704741
 31
0.0
  0
ENDBLK
  5
160
  8
0
  0
BLOCK
  8
0
  2
DC_GROUP_59
 70
     0
 10
0.0
 20
0.0
 30
0.0
  3
DC_GROUP_59
  1

  0
LINE
  5
3AB
  8
0
  6
CONTINUOUS
 62
     7
 10
-21.05990768810216
 20
14.26582125769741
 30
0.0
 11
-20.98646644010216
 21
14.31939381459742
 31
0.0
  0
LINE
  5
3AC
  8
0
  6
CONTINUOUS
 62
     7
 10
-20.98646644010216
 20
14.31939381459742
 30
0.0
 11
-20.91273350785215
 21
14.37305282889741
 31
0.0
  0
LINE
  5
3AD
  8
0
  6
CONTINUOUS
 62
     7
 10
-20.91273350785215
 20
14.37305282889741
 30
0.0
 11
-20.83872206340216
 21
14.42678871454742
 31
0.0
  0
LINE
  5
3AE
  8
0
  6
CONTINUOUS
 62
     7
 10
-20.83872206340216
 20
14.42678871454742
 30
0.0
 11
-20.76444532880215
 21
14.48059187179741
 31
0.0
  0
LINE
  5
3AF
  8
0
  6
CONTINUOUS
 62
     7
 10
-20.76444532880215
 20
14.48059187179741
 30
0.0
 11
-20.68991657325216
 21
14.53445268889741
 31
0.0
  0
LINE
  5
3B0
  8
0
  6
CONTINUOUS
 62
     7
 10
-20.68991657325216
 20
14.53445268889741
 30
0.0
 11
-20.61514911120216
 21
14.58836154369741
 31
0.0
  0
LINE
  5
3B1
  8
0
  6
CONTINUOUS
 62
     7
 10
-20.61514911120216
 20
14.58836154369741
 30
0.0
 11
-20.54015629955217
 21
14.64230880559741
 31
0.0
  0
LINE
  5
3B2
  8
0
  6
CONTINUOUS
 62
     7
 10
-20.54015629955217
 20
14.64230880559741
 30
0.0
 11
-20.46495153560215
 21
14.69628483704741
 31
0.0
  0
ENDBLK
  5
163
  8
0
  0
BLOCK
  8
0
  2
DC_GROUP_60
 70
     0
 10
0.0
 20
0.0
 30
0.0
  3
DC_GROUP_60
  1

  0
LINE
  5
3B3
  8
0
  6
CONTINUOUS
 62
     7
 10
-20.50715237435216
 20
13.47640485819742
 30
0.0
 11
-20.58024375760216
 21
13.57209879279742
 31
0.0
  0
LINE
  5
3B4
  8
0
  6
CONTINUOUS
 62
     7
 10
-20.58024375760216
 20
13.57209879279742
 30
0.0
 11
-20.65224369615215
 21
13.66871500994742
 31
0.0
  0
LINE
  5
3B5
  8
0
  6
CONTINUOUS
 62
     7
 10
-20.65224369615215
 20
13.66871500994742
 30
0.0
 11
-20.72312640770215
 21
13.76621891239742
 31
0.0
  0
LINE
  5
3B6
  8
0
  6
CONTINUOUS
 62
     7
 10
-20.72312640770215
 20
13.76621891239742
 30
0.0
 11
-20.79286650995216
 21
13.86457558519741
 31
0.0
  0
LINE
  5
3B7
  8
0
  6
CONTINUOUS
 62
     7
 10
-20.79286650995216
 20
13.86457558519741
 30
0.0
 11
-20.86143902980216
 21
13.96374980794741
 31
0.0
  0
LINE
  5
3B8
  8
0
  6
CONTINUOUS
 62
     7
 10
-20.86143902980216
 20
13.96374980794741
 30
0.0
 11
-20.92881941230216
 21
14.06370606759741
 31
0.0
  0
LINE
  5
3B9
  8
0
  6
CONTINUOUS
 62
     7
 10
-20.92881941230216
 20
14.06370606759741
 30
0.0
 11
-20.99498352925215
 21
14.16440857099741
 31
0.0
  0
LINE
  5
3BA
  8
0
  6
CONTINUOUS
 62
     7
 10
-20.99498352925215
 20
14.16440857099741
 30
0.0
 11
-21.05990768810216
 21
14.26582125769741
 31
0.0
  0
ENDBLK
  5
166
  8
0
  0
BLOCK
  8
0
  2
DC_GROUP_61
 70
     0
 10
0.0
 20
0.0
 30
0.0
  3
DC_GROUP_61
  1

  0
LINE
  5
3BB
  8
0
  6
CONTINUOUS
 62
     7
 10
-19.89916193680216
 20
13.88825354924741
 30
0.0
 11
-19.97560435940215
 21
13.83604507754741
 31
0.0
  0
LINE
  5
3BC
  8
0
  6
CONTINUOUS
 62
     7
 10
-19.97560435940215
 20
13.83604507754741
 30
0.0
 11
-20.05194725550216
 21
13.78402593609741
 31
0.0
  0
LINE
  5
3BD
  8
0
  6
CONTINUOUS
 62
     7
 10
-20.05194725550216
 20
13.78402593609741
 30
0.0
 11
-20.12817698665216
 21
13.73220541794742
 31
0.0
  0
LINE
  5
3BE
  8
0
  6
CONTINUOUS
 62
     7
 10
-20.12817698665216
 20
13.73220541794742
 30
0.0
 11
-20.20427993465216
 21
13.68059278074741
 31
0.0
  0
LINE
  5
3BF
  8
0
  6
CONTINUOUS
 62
     7
 10
-20.20427993465216
 20
13.68059278074741
 30
0.0
 11
-20.28024250390216
 21
13.62919724484741
 31
0.0
  0
LINE
  5
3C0
  8
0
  6
CONTINUOUS
 62
     7
 10
-20.28024250390216
 20
13.62919724484741
 30
0.0
 11
-20.35605112395216
 21
13.57802799199741
 31
0.0
  0
LINE
  5
3C1
  8
0
  6
CONTINUOUS
 62
     7
 10
-20.35605112395216
 20
13.57802799199741
 30
0.0
 11
-20.43169225180216
 21
13.52709416339741
 31
0.0
  0
LINE
  5
3C2
  8
0
  6
CONTINUOUS
 62
     7
 10
-20.43169225180216
 20
13.52709416339741
 30
0.0
 11
-20.50715237435216
 21
13.47640485819742
 31
0.0
  0
ENDBLK
  5
169
  8
0
  0
BLOCK
  8
0
  2
DC_GROUP_62
 70
     0
 10
0.0
 20
0.0
 30
0.0
  3
DC_GROUP_62
  1

  0
LINE
  5
3C3
  8
0
  6
CONTINUOUS
 62
     7
 10
-19.89916193680216
 20
13.88825354924741
 30
0.0
 11
-19.76677522740215
 21
13.94517121464741
 31
0.0
  0
LINE
  5
3C4
  8
0
  6
CONTINUOUS
 62
     7
 10
-19.76677522740215
 20
13.94517121464741
 30
0.0
 11
-19.59641284785215
 21
13.96174243319741
 31
0.0
  0
LINE
  5
3C5
  8
0
  6
CONTINUOUS
 62
     7
 10
-19.59641284785215
 20
13.96174243319741
 30
0.0
 11
-19.43185063130215
 21
13.92198574419741
 31
0.0
  0
LINE
  5
3C6
  8
0
  6
CONTINUOUS
 62
     7
 10
-19.43185063130215
 20
13.92198574419741
 30
0.0
 11
-19.29021005340215
 21
13.83161128079741
 31
0.0
  0
LINE
  5
3C7
  8
0
  6
CONTINUOUS
 62
     7
 10
-19.29021005340215
 20
13.83161128079741
 30
0.0
 11
-19.22150800135216
 21
13.75610521419742
 31
0.0
  0
ENDBLK
  5
16C
  8
0
  0
BLOCK
  8
0
  2
DC_GROUP_63
 70
     0
 10
0.0
 20
0.0
 30
0.0
  3
DC_GROUP_63
  1

  0
LINE
  5
3C8
  8
0
  6
CONTINUOUS
 62
     7
 10
-20.34366333385216
 20
14.66811511734742
 30
0.0
 11
-20.39708731010217
 21
14.68729934269741
 31
0.0
  0
LINE
  5
3C9
  8
0
  6
CONTINUOUS
 62
     7
 10
-20.39708731010217
 20
14.68729934269741
 30
0.0
 11
-20.46495153560215
 21
14.69628483704741
 31
0.0
  0
ENDBLK
  5
16F
  8
0
  0
BLOCK
  8
0
  2
DC_GROUP_64
 70
     0
 10
0.0
 20
0.0
 30
0.0
  3
DC_GROUP_64
  1

  0
LINE
  5
3CA
  8
0
  6
CONTINUOUS
 62
     7
 10
-19.89916193680216
 20
13.88825354924741
 30
0.0
 11
-19.88363407695216
 21
13.97681638859742
 31
0.0
  0
LINE
  5
3CB
  8
0
  6
CONTINUOUS
 62
     7
 10
-19.88363407695216
 20
13.97681638859742
 30
0.0
 11
-19.88414980640215
 21
14.01186178904741
 31
0.0
  0
ENDBLK
  5
172
  8
0
  0
BLOCK
  8
0
  2
DC_GROUP_65
 70
     0
 10
0.0
 20
0.0
 30
0.0
  3
DC_GROUP_65
  1

  0
LINE
  5
3CC
  8
0
  6
CONTINUOUS
 62
     7
 10
-27.78225395630216
 20
-10.16403263665259
 30
0.0
 11
-27.62199760975216
 21
-10.13779238510258
 31
0.0
  0
LINE
  5
3CD
  8
0
  6
CONTINUOUS
 62
     7
 10
-27.62199760975216
 20
-10.13779238510258
 30
0.0
 11
-27.45315124050217
 21
-10.16587884550259
 31
0.0
  0
LINE
  5
3CE
  8
0
  6
CONTINUOUS
 62
     7
 10
-27.45315124050217
 20
-10.16587884550259
 30
0.0
 11
-27.30448613380216
 21
-10.24687269395258
 31
0.0
  0
LINE
  5
3CF
  8
0
  6
CONTINUOUS
 62
     7
 10
-27.30448613380216
 20
-10.24687269395258
 30
0.0
 11
-27.19106247390215
 21
-10.37082700130258
 31
0.0
  0
LINE
  5
3D0
  8
0
  6
CONTINUOUS
 62
     7
 10
-27.19106247390215
 20
-10.37082700130258
 30
0.0
 11
-27.15135517865215
 21
-10.44446938720258
 31
0.0
  0
ENDBLK
  5
175
  8
0
  0
BLOCK
  8
0
  2
DC_GROUP_66
 70
     0
 10
0.0
 20
0.0
 30
0.0
  3
DC_GROUP_66
  1

  0
LINE
  5
3D1
  8
0
  6
CONTINUOUS
 62
     7
 10
-26.88954527335216
 20
-11.13056507295259
 30
0.0
 11
-26.92228439600215
 21
-11.04576067680258
 31
0.0
  0
LINE
  5
3D2
  8
0
  6
CONTINUOUS
 62
     7
 10
-26.92228439600215
 20
-11.04576067680258
 30
0.0
 11
-26.95503153660215
 21
-10.96065215840259
 31
0.0
  0
LINE
  5
3D3
  8
0
  6
CONTINUOUS
 62
     7
 10
-26.95503153660215
 20
-10.96065215840259
 30
0.0
 11
-26.98778084495216
 21
-10.87525472220258
 31
0.0
  0
LINE
  5
3D4
  8
0
  6
CONTINUOUS
 62
     7
 10
-26.98778084495216
 20
-10.87525472220258
 30
0.0
 11
-27.02052647055216
 21
-10.78958362415258
 31
0.0
  0
LINE
  5
3D5
  8
0
  6
CONTINUOUS
 62
     7
 10
-27.02052647055216
 20
-10.78958362415258
 30
0.0
 11
-27.05326256345217
 21
-10.70365416915258
 31
0.0
  0
LINE
  5
3D6
  8
0
  6
CONTINUOUS
 62
     7
 10
-27.05326256345217
 20
-10.70365416915258
 30
0.0
 11
-27.08598327545215
 21
-10.61748170820259
 31
0.0
  0
LINE
  5
3D7
  8
0
  6
CONTINUOUS
 62
     7
 10
-27.08598327545215
 20
-10.61748170820259
 30
0.0
 11
-27.11868276105216
 21
-10.53108163585258
 31
0.0
  0
LINE
  5
3D8
  8
0
  6
CONTINUOUS
 62
     7
 10
-27.11868276105216
 20
-10.53108163585258
 30
0.0
 11
-27.15135517865215
 21
-10.44446938720258
 31
0.0
  0
ENDBLK
  5
178
  8
0
  0
BLOCK
  8
0
  2
DC_GROUP_67
 70
     0
 10
0.0
 20
0.0
 30
0.0
  3
DC_GROUP_67
  1

  0
LINE
  5
3D9
  8
0
  6
CONTINUOUS
 62
     7
 10
-25.98396398290215
 20
-10.80096043850258
 30
0.0
 11
-26.09531466780216
 21
-10.84679388050258
 31
0.0
  0
LINE
  5
3DA
  8
0
  6
CONTINUOUS
 62
     7
 10
-26.09531466780216
 20
-10.84679388050258
 30
0.0
 11
-26.20727372250215
 21
-10.89133436355258
 31
0.0
  0
LINE
  5
3DB
  8
0
  6
CONTINUOUS
 62
     7
 10
-26.20727372250215
 20
-10.89133436355258
 30
0.0
 11
-26.31980105575215
 21
-10.93456593835259
 31
0.0
  0
LINE
  5
3DC
  8
0
  6
CONTINUOUS
 62
     7
 10
-26.31980105575215
 20
-10.93456593835259
 30
0.0
 11
-26.43285637285216
 21
-10.97647312410258
 31
0.0
  0
LINE
  5
3DD
  8
0
  6
CONTINUOUS
 62
     7
 10
-26.43285637285216
 20
-10.97647312410258
 30
0.0
 11
-26.54639919005216
 21
-11.01704091435259
 31
0.0
  0
LINE
  5
3DE
  8
0
  6
CONTINUOUS
 62
     7
 10
-26.54639919005216
 20
-11.01704091435259
 30
0.0
 11
-26.66038884900216
 21
-11.05625478230258
 31
0.0
  0
LINE
  5
3DF
  8
0
  6
CONTINUOUS
 62
     7
 10
-26.66038884900216
 20
-11.05625478230258
 30
0.0
 11
-26.77478453135217
 21
-11.09410068590259
 31
0.0
  0
LINE
  5
3E0
  8
0
  6
CONTINUOUS
 62
     7
 10
-26.77478453135217
 20
-11.09410068590259
 30
0.0
 11
-26.88954527335216
 21
-11.13056507295259
 31
0.0
  0
ENDBLK
  5
17B
  8
0
  0
BLOCK
  8
0
  2
DC_GROUP_68
 70
     0
 10
0.0
 20
0.0
 30
0.0
  3
DC_GROUP_68
  1

  0
LINE
  5
3E1
  8
0
  6
CONTINUOUS
 62
     7
 10
-26.22441976565216
 20
-10.10709248775259
 30
0.0
 11
-26.19377500930216
 21
-10.19444274480258
 31
0.0
  0
LINE
  5
3E2
  8
0
  6
CONTINUOUS
 62
     7
 10
-26.19377500930216
 20
-10.19444274480258
 30
0.0
 11
-26.16328737260216
 21
-10.28164786430258
 31
0.0
  0
LINE
  5
3E3
  8
0
  6
CONTINUOUS
 62
     7
 10
-26.16328737260216
 20
-10.28164786430258
 30
0.0
 11
-26.13296230200216
 21
-10.36869226740259
 31
0.0
  0
LINE
  5
3E4
  8
0
  6
CONTINUOUS
 62
     7
 10
-26.13296230200216
 20
-10.36869226740259
 30
0.0
 11
-26.10280521505216
 21
-10.45556040380259
 31
0.0
  0
LINE
  5
3E5
  8
0
  6
CONTINUOUS
 62
     7
 10
-26.10280521505216
 20
-10.45556040380259
 30
0.0
 11
-26.07282149925216
 21
-10.54223675480258
 31
0.0
  0
LINE
  5
3E6
  8
0
  6
CONTINUOUS
 62
     7
 10
-26.07282149925216
 20
-10.54223675480258
 30
0.0
 11
-26.04301651105216
 21
-10.62870583590259
 31
0.0
  0
LINE
  5
3E7
  8
0
  6
CONTINUOUS
 62
     7
 10
-26.04301651105216
 20
-10.62870583590259
 30
0.0
 11
-26.01339557505216
 21
-10.71495219970259
 31
0.0
  0
LINE
  5
3E8
  8
0
  6
CONTINUOUS
 62
     7
 10
-26.01339557505216
 20
-10.71495219970259
 30
0.0
 11
-25.98396398290215
 21
-10.80096043850258
 31
0.0
  0
ENDBLK
  5
17E
  8
0
  0
BLOCK
  8
0
  2
DC_GROUP_69
 70
     0
 10
0.0
 20
0.0
 30
0.0
  3
DC_GROUP_69
  1

  0
LINE
  5
3E9
  8
0
  6
CONTINUOUS
 62
     7
 10
-26.22441976565216
 20
-10.10709248775259
 30
0.0
 11
-26.24513380690216
 21
-9.96448537030258
 31
0.0
  0
LINE
  5
3EA
  8
0
  6
CONTINUOUS
 62
     7
 10
-26.24513380690216
 20
-9.96448537030258
 30
0.0
 11
-26.21704734650216
 21
-9.795639001102582
 31
0.0
  0
LINE
  5
3EB
  8
0
  6
CONTINUOUS
 62
     7
 10
-26.21704734650216
 20
-9.795639001102582
 30
0.0
 11
-26.13605349810216
 21
-9.646973894402588
 31
0.0
  0
LINE
  5
3EC
  8
0
  6
CONTINUOUS
 62
     7
 10
-26.13605349810216
 20
-9.646973894402588
 30
0.0
 11
-26.01209919070216
 21
-9.533550234452587
 31
0.0
  0
LINE
  5
3ED
  8
0
  6
CONTINUOUS
 62
     7
 10
-26.01209919070216
 20
-9.533550234452587
 30
0.0
 11
-25.92138453145216
 21
-9.486731556152588
 31
0.0
  0
ENDBLK
  5
181
  8
0
  0
BLOCK
  8
0
  2
DC_GROUP_70
 70
     0
 10
0.0
 20
0.0
 30
0.0
  3
DC_GROUP_70
  1

  0
LINE
  5
3EE
  8
0
  6
CONTINUOUS
 62
     7
 10
-26.22441976565216
 20
-10.10709248775259
 30
0.0
 11
-26.30594599355216
 21
-10.06917197740259
 31
0.0
  0
LINE
  5
3EF
  8
0
  6
CONTINUOUS
 62
     7
 10
-26.30594599355216
 20
-10.06917197740259
 30
0.0
 11
-26.33993073150216
 21
-10.06059971670258
 31
0.0
  0
ENDBLK
  5
184
  8
0
  0
BLOCK
  8
0
  2
DC_GROUP_71
 70
     0
 10
0.0
 20
0.0
 30
0.0
  3
DC_GROUP_71
  1

  0
LINE
  5
3F0
  8
0
  6
CONTINUOUS
 62
     7
 10
-26.25818447515215
 20
-8.561381315952584
 30
0.0
 11
-26.41844082170215
 21
-8.587621567502591
 31
0.0
  0
LINE
  5
3F1
  8
0
  6
CONTINUOUS
 62
     7
 10
-26.41844082170215
 20
-8.587621567502591
 30
0.0
 11
-26.58728719090216
 21
-8.559535107052593
 31
0.0
  0
LINE
  5
3F2
  8
0
  6
CONTINUOUS
 62
     7
 10
-26.58728719090216
 20
-8.559535107052593
 30
0.0
 11
-26.73595229760215
 21
-8.47854125865258
 31
0.0
  0
LINE
  5
3F3
  8
0
  6
CONTINUOUS
 62
     7
 10
-26.73595229760215
 20
-8.47854125865258
 30
0.0
 11
-26.84937595755216
 21
-8.35458695130259
 31
0.0
  0
LINE
  5
3F4
  8
0
  6
CONTINUOUS
 62
     7
 10
-26.84937595755216
 20
-8.35458695130259
 30
0.0
 11
-26.88908325275216
 21
-8.280944565402589
 31
0.0
  0
ENDBLK
  5
187
  8
0
  0
BLOCK
  8
0
  2
DC_GROUP_72
 70
     0
 10
0.0
 20
0.0
 30
0.0
  3
DC_GROUP_72
  1

  0
LINE
  5
3F5
  8
0
  6
CONTINUOUS
 62
     7
 10
-27.15089315805216
 20
-7.594848879652583
 30
0.0
 11
-27.11815403545216
 21
-7.679653275802589
 31
0.0
  0
LINE
  5
3F6
  8
0
  6
CONTINUOUS
 62
     7
 10
-27.11815403545216
 20
-7.679653275802589
 30
0.0
 11
-27.08540689485216
 21
-7.76476179420258
 31
0.0
  0
LINE
  5
3F7
  8
0
  6
CONTINUOUS
 62
     7
 10
-27.08540689485216
 20
-7.76476179420258
 30
0.0
 11
-27.05265758645216
 21
-7.850159230402592
 31
0.0
  0
LINE
  5
3F8
  8
0
  6
CONTINUOUS
 62
     7
 10
-27.05265758645216
 20
-7.850159230402592
 30
0.0
 11
-27.01991196090216
 21
-7.935830328452592
 31
0.0
  0
LINE
  5
3F9
  8
0
  6
CONTINUOUS
 62
     7
 10
-27.01991196090216
 20
-7.935830328452592
 30
0.0
 11
-26.98717586800215
 21
-8.021759783452591
 31
0.0
  0
LINE
  5
3FA
  8
0
  6
CONTINUOUS
 62
     7
 10
-26.98717586800215
 20
-8.021759783452591
 30
0.0
 11
-26.95445515600215
 21
-8.107932244352579
 31
0.0
  0
LINE
  5
3FB
  8
0
  6
CONTINUOUS
 62
     7
 10
-26.95445515600215
 20
-8.107932244352579
 30
0.0
 11
-26.92175567035216
 21
-8.194332316702582
 31
0.0
  0
LINE
  5
3FC
  8
0
  6
CONTINUOUS
 62
     7
 10
-26.92175567035216
 20
-8.194332316702582
 30
0.0
 11
-26.88908325275216
 21
-8.280944565402589
 31
0.0
  0
ENDBLK
  5
18A
  8
0
  0
BLOCK
  8
0
  2
DC_GROUP_73
 70
     0
 10
0.0
 20
0.0
 30
0.0
  3
DC_GROUP_73
  1

  0
LINE
  5
3FD
  8
0
  6
CONTINUOUS
 62
     7
 10
-28.05647444855217
 20
-7.924453514052582
 30
0.0
 11
-27.94512376365216
 21
-7.878620072102588
 31
0.0
  0
LINE
  5
3FE
  8
0
  6
CONTINUOUS
 62
     7
 10
-27.94512376365216
 20
-7.878620072102588
 30
0.0
 11
-27.83316470895215
 21
-7.834079589052588
 31
0.0
  0
LINE
  5
3FF
  8
0
  6
CONTINUOUS
 62
     7
 10
-27.83316470895215
 20
-7.834079589052588
 30
0.0
 11
-27.72063737570215
 21
-7.790848014252584
 31
0.0
  0
LINE
  5
400
  8
0
  6
CONTINUOUS
 62
     7
 10
-27.72063737570215
 20
-7.790848014252584
 30
0.0
 11
-27.60758205860216
 21
-7.748940828502579
 31
0.0
  0
LINE
  5
401
  8
0
  6
CONTINUOUS
 62
     7
 10
-27.60758205860216
 20
-7.748940828502579
 30
0.0
 11
-27.49403924140216
 21
-7.70837303820259
 31
0.0
  0
LINE
  5
402
  8
0
  6
CONTINUOUS
 62
     7
 10
-27.49403924140216
 20
-7.70837303820259
 30
0.0
 11
-27.38004958240217
 21
-7.669159170302588
 31
0.0
  0
LINE
  5
403
  8
0
  6
CONTINUOUS
 62
     7
 10
-27.38004958240217
 20
-7.669159170302588
 30
0.0
 11
-27.26565390005216
 21
-7.631313266702587
 31
0.0
  0
LINE
  5
404
  8
0
  6
CONTINUOUS
 62
     7
 10
-27.26565390005216
 20
-7.631313266702587
 30
0.0
 11
-27.15089315805216
 21
-7.594848879652583
 31
0.0
  0
ENDBLK
  5
18D
  8
0
  0
BLOCK
  8
0
  2
DC_GROUP_74
 70
     0
 10
0.0
 20
0.0
 30
0.0
  3
DC_GROUP_74
  1

  0
LINE
  5
405
  8
0
  6
CONTINUOUS
 62
     7
 10
-27.81601866580215
 20
-8.618321464802587
 30
0.0
 11
-27.84666342215215
 21
-8.53097120780259
 31
0.0
  0
LINE
  5
406
  8
0
  6
CONTINUOUS
 62
     7
 10
-27.84666342215215
 20
-8.53097120780259
 30
0.0
 11
-27.87715105885215
 21
-8.443766088302592
 31
0.0
  0
LINE
  5
407
  8
0
  6
CONTINUOUS
 62
     7
 10
-27.87715105885215
 20
-8.443766088302592
 30
0.0
 11
-27.90747612940216
 21
-8.356721685202583
 31
0.0
  0
LINE
  5
408
  8
0
  6
CONTINUOUS
 62
     7
 10
-27.90747612940216
 20
-8.356721685202583
 30
0.0
 11
-27.93763321635215
 21
-8.269853548802583
 31
0.0
  0
LINE
  5
409
  8
0
  6
CONTINUOUS
 62
     7
 10
-27.93763321635215
 20
-8.269853548802583
 30
0.0
 11
-27.96761693215215
 21
-8.18317719780259
 31
0.0
  0
LINE
  5
40A
  8
0
  6
CONTINUOUS
 62
     7
 10
-27.96761693215215
 20
-8.18317719780259
 30
0.0
 11
-27.99742192040216
 21
-8.096708116702583
 31
0.0
  0
LINE
  5
40B
  8
0
  6
CONTINUOUS
 62
     7
 10
-27.99742192040216
 20
-8.096708116702583
 30
0.0
 11
-28.02704285640215
 21
-8.010461752902582
 31
0.0
  0
LINE
  5
40C
  8
0
  6
CONTINUOUS
 62
     7
 10
-28.02704285640215
 20
-8.010461752902582
 30
0.0
 11
-28.05647444855217
 21
-7.924453514052582
 31
0.0
  0
ENDBLK
  5
190
  8
0
  0
BLOCK
  8
0
  2
DC_GROUP_75
 70
     0
 10
0.0
 20
0.0
 30
0.0
  3
DC_GROUP_75
  1

  0
LINE
  5
40D
  8
0
  6
CONTINUOUS
 62
     7
 10
-27.81601866580215
 20
-8.618321464802587
 30
0.0
 11
-27.79530462450217
 21
-8.760928582252586
 31
0.0
  0
LINE
  5
40E
  8
0
  6
CONTINUOUS
 62
     7
 10
-27.79530462450217
 20
-8.760928582252586
 30
0.0
 11
-27.82339108495216
 21
-8.92977495150259
 31
0.0
  0
LINE
  5
40F
  8
0
  6
CONTINUOUS
 62
     7
 10
-27.82339108495216
 20
-8.92977495150259
 30
0.0
 11
-27.90438493335216
 21
-9.078440058202585
 31
0.0
  0
LINE
  5
410
  8
0
  6
CONTINUOUS
 62
     7
 10
-27.90438493335216
 20
-9.078440058202585
 30
0.0
 11
-28.02833924070217
 21
-9.191863718152586
 31
0.0
  0
LINE
  5
411
  8
0
  6
CONTINUOUS
 62
     7
 10
-28.02833924070217
 20
-9.191863718152586
 30
0.0
 11
-28.11905390000216
 21
-9.238682396452585
 31
0.0
  0
ENDBLK
  5
193
  8
0
  0
BLOCK
  8
0
  2
DC_GROUP_76
 70
     0
 10
0.0
 20
0.0
 30
0.0
  3
DC_GROUP_76
  1

  0
LINE
  5
412
  8
0
  6
CONTINUOUS
 62
     7
 10
-27.09275362230215
 20
-10.33460484065258
 30
0.0
 11
-27.12511130355216
 21
-10.38124319615259
 31
0.0
  0
LINE
  5
413
  8
0
  6
CONTINUOUS
 62
     7
 10
-27.12511130355216
 20
-10.38124319615259
 30
0.0
 11
-27.15135517865215
 21
-10.44446938720258
 31
0.0
  0
ENDBLK
  5
196
  8
0
  0
BLOCK
  8
0
  2
DC_GROUP_77
 70
     0
 10
0.0
 20
0.0
 30
0.0
  3
DC_GROUP_77
  1

  0
LINE
  5
414
  8
0
  6
CONTINUOUS
 62
     7
 10
-26.94768480910216
 20
-8.390809111952588
 30
0.0
 11
-26.91532712790216
 21
-8.34417075645258
 31
0.0
  0
LINE
  5
415
  8
0
  6
CONTINUOUS
 62
     7
 10
-26.91532712790216
 20
-8.34417075645258
 30
0.0
 11
-26.88908325275216
 21
-8.280944565402589
 31
0.0
  0
ENDBLK
  5
199
  8
0
  0
BLOCK
  8
0
  2
DC_GROUP_78
 70
     0
 10
0.0
 20
0.0
 30
0.0
  3
DC_GROUP_78
  1

  0
LINE
  5
416
  8
0
  6
CONTINUOUS
 62
     7
 10
-27.81601866580215
 20
-8.618321464802587
 30
0.0
 11
-27.73449243790216
 21
-8.656241975202587
 31
0.0
  0
LINE
  5
417
  8
0
  6
CONTINUOUS
 62
     7
 10
-27.73449243790216
 20
-8.656241975202587
 30
0.0
 11
-27.70050769990215
 21
-8.664814235852585
 31
0.0
  0
ENDBLK
  5
19C
  8
0
  0
BLOCK
  8
0
  2
DC_GROUP_79
 70
     0
 10
0.0
 20
0.0
 30
0.0
  3
DC_GROUP_79
  1

  0
LINE
  5
418
  8
0
  6
CONTINUOUS
 62
     7
 10
-18.30726606500215
 20
-3.658161126202582
 30
0.0
 11
-18.39579875245215
 21
-3.673859985852584
 31
0.0
  0
LINE
  5
419
  8
0
  6
CONTINUOUS
 62
     7
 10
-18.39579875245215
 20
-3.673859985852584
 30
0.0
 11
-18.42855426675216
 21
-3.686330845902585
 31
0.0
  0
ENDBLK
  5
19F
  8
0
  0
BLOCK
  8
0
  2
DC_GROUP_80
 70
     0
 10
0.0
 20
0.0
 30
0.0
  3
DC_GROUP_80
  1

  0
LINE
  5
41A
  8
0
  6
CONTINUOUS
 62
     7
 10
-19.55070959925216
 20
-4.598340749002585
 30
0.0
 11
-19.43448607535215
 21
-4.484926729152587
 31
0.0
  0
LINE
  5
41B
  8
0
  6
CONTINUOUS
 62
     7
 10
-19.43448607535215
 20
-4.484926729152587
 30
0.0
 11
-19.28006549495215
 21
-4.411087511902583
 31
0.0
  0
LINE
  5
41C
  8
0
  6
CONTINUOUS
 62
     7
 10
-19.28006549495215
 20
-4.411087511902583
 30
0.0
 11
-19.11183000590216
 21
-4.392162986302584
 31
0.0
  0
LINE
  5
41D
  8
0
  6
CONTINUOUS
 62
     7
 10
-19.11183000590216
 20
-4.392162986302584
 30
0.0
 11
-18.94782151310216
 21
-4.428643271902583
 31
0.0
  0
LINE
  5
41E
  8
0
  6
CONTINUOUS
 62
     7
 10
-18.94782151310216
 20
-4.428643271902583
 30
0.0
 11
-18.87305566380216
 21
-4.466192413952587
 31
0.0
  0
ENDBLK
  5
1A2
  8
0
  0
BLOCK
  8
0
  2
DC_GROUP_81
 70
     0
 10
0.0
 20
0.0
 30
0.0
  3
DC_GROUP_81
  1

  0
LINE
  5
41F
  8
0
  6
CONTINUOUS
 62
     7
 10
-18.26506522625216
 20
-4.878041105052585
 30
0.0
 11
-18.34052534880216
 21
-4.827351799852583
 31
0.0
  0
LINE
  5
420
  8
0
  6
CONTINUOUS
 62
     7
 10
-18.34052534880216
 20
-4.827351799852583
 30
0.0
 11
-18.41616647665217
 21
-4.776417971252588
 31
0.0
  0
LINE
  5
421
  8
0
  6
CONTINUOUS
 62
     7
 10
-18.41616647665217
 20
-4.776417971252588
 30
0.0
 11
-18.49197509670216
 21
-4.725248718352585
 31
0.0
  0
LINE
  5
422
  8
0
  6
CONTINUOUS
 62
     7
 10
-18.49197509670216
 20
-4.725248718352585
 30
0.0
 11
-18.56793766595216
 21
-4.673853182502587
 31
0.0
  0
LINE
  5
423
  8
0
  6
CONTINUOUS
 62
     7
 10
-18.56793766595216
 20
-4.673853182502587
 30
0.0
 11
-18.64404061395216
 21
-4.622240545252584
 31
0.0
  0
LINE
  5
424
  8
0
  6
CONTINUOUS
 62
     7
 10
-18.64404061395216
 20
-4.622240545252584
 30
0.0
 11
-18.72027034510216
 21
-4.570420027152583
 31
0.0
  0
LINE
  5
425
  8
0
  6
CONTINUOUS
 62
     7
 10
-18.72027034510216
 20
-4.570420027152583
 30
0.0
 11
-18.79661324120215
 21
-4.518400885652586
 31
0.0
  0
LINE
  5
426
  8
0
  6
CONTINUOUS
 62
     7
 10
-18.79661324120215
 20
-4.518400885652586
 30
0.0
 11
-18.87305566380216
 21
-4.466192413952587
 31
0.0
  0
ENDBLK
  5
1A5
  8
0
  0
BLOCK
  8
0
  2
DC_GROUP_82
 70
     0
 10
0.0
 20
0.0
 30
0.0
  3
DC_GROUP_82
  1

  0
LINE
  5
427
  8
0
  6
CONTINUOUS
 62
     7
 10
-17.71230991250215
 20
-4.088624705552586
 30
0.0
 11
-17.77723407135215
 21
-4.190037392252588
 31
0.0
  0
LINE
  5
428
  8
0
  6
CONTINUOUS
 62
     7
 10
-17.77723407135215
 20
-4.190037392252588
 30
0.0
 11
-17.84339818830216
 21
-4.290739895602588
 31
0.0
  0
LINE
  5
429
  8
0
  6
CONTINUOUS
 62
     7
 10
-17.84339818830216
 20
-4.290739895602588
 30
0.0
 11
-17.91077857080217
 21
-4.390696155252588
 31
0.0
  0
LINE
  5
42A
  8
0
  6
CONTINUOUS
 62
     7
 10
-17.91077857080217
 20
-4.390696155252588
 30
0.0
 11
-17.97935109065216
 21
-4.489870378052583
 31
0.0
  0
LINE
  5
42B
  8
0
  6
CONTINUOUS
 62
     7
 10
-17.97935109065216
 20
-4.489870378052583
 30
0.0
 11
-18.04909119290215
 21
-4.588227050852584
 31
0.0
  0
LINE
  5
42C
  8
0
  6
CONTINUOUS
 62
     7
 10
-18.04909119290215
 20
-4.588227050852584
 30
0.0
 11
-18.11997390445215
 21
-4.685730953302585
 31
0.0
  0
LINE
  5
42D
  8
0
  6
CONTINUOUS
 62
     7
 10
-18.11997390445215
 20
-4.685730953302585
 30
0.0
 11
-18.19197384300216
 21
-4.782347170402584
 31
0.0
  0
LINE
  5
42E
  8
0
  6
CONTINUOUS
 62
     7
 10
-18.19197384300216
 20
-4.782347170402584
 30
0.0
 11
-18.26506522625216
 21
-4.878041105052585
 31
0.0
  0
ENDBLK
  5
1A8
  8
0
  0
BLOCK
  8
0
  2
DC_GROUP_83
 70
     0
 10
0.0
 20
0.0
 30
0.0
  3
DC_GROUP_83
  1

  0
LINE
  5
42F
  8
0
  6
CONTINUOUS
 62
     7
 10
-18.30726606500215
 20
-3.658161126202582
 30
0.0
 11
-18.23206130105216
 21
-3.712137157652588
 31
0.0
  0
LINE
  5
430
  8
0
  6
CONTINUOUS
 62
     7
 10
-18.23206130105216
 20
-3.712137157652588
 30
0.0
 11
-18.15706848940215
 21
-3.766084419552588
 31
0.0
  0
LINE
  5
431
  8
0
  6
CONTINUOUS
 62
     7
 10
-18.15706848940215
 20
-3.766084419552588
 30
0.0
 11
-18.08230102735216
 21
-3.819993274352587
 31
0.0
  0
LINE
  5
432
  8
0
  6
CONTINUOUS
 62
     7
 10
-18.08230102735216
 20
-3.819993274352587
 30
0.0
 11
-18.00777227180215
 21
-3.873854091402588
 31
0.0
  0
LINE
  5
433
  8
0
  6
CONTINUOUS
 62
     7
 10
-18.00777227180215
 20
-3.873854091402588
 30
0.0
 11
-17.93349553720216
 21
-3.927657248652583
 31
0.0
  0
LINE
  5
434
  8
0
  6
CONTINUOUS
 62
     7
 10
-17.93349553720216
 20
-3.927657248652583
 30
0.0
 11
-17.85948409275215
 21
-3.981393134302589
 31
0.0
  0
LINE
  5
435
  8
0
  6
CONTINUOUS
 62
     7
 10
-17.85948409275215
 20
-3.981393134302589
 30
0.0
 11
-17.78575116050216
 21
-4.035052148602585
 31
0.0
  0
LINE
  5
436
  8
0
  6
CONTINUOUS
 62
     7
 10
-17.78575116050216
 20
-4.035052148602585
 30
0.0
 11
-17.71230991250215
 21
-4.088624705552586
 31
0.0
  0
ENDBLK
  5
1AB
  8
0
  0
BLOCK
  8
0
  2
DC_GROUP_84
 70
     0
 10
0.0
 20
0.0
 30
0.0
  3
DC_GROUP_84
  1

  0
LINE
  5
437
  8
0
  6
CONTINUOUS
 62
     7
 10
-18.30726606500215
 20
-3.658161126202582
 30
0.0
 11
-18.40603009645216
 21
-3.553225300352583
 31
0.0
  0
LINE
  5
438
  8
0
  6
CONTINUOUS
 62
     7
 10
-18.40603009645216
 20
-3.553225300352583
 30
0.0
 11
-18.47986931375216
 21
-3.398804719952583
 31
0.0
  0
LINE
  5
439
  8
0
  6
CONTINUOUS
 62
     7
 10
-18.47986931375216
 20
-3.398804719952583
 30
0.0
 11
-18.49879383935216
 21
-3.230569230952586
 31
0.0
  0
LINE
  5
43A
  8
0
  6
CONTINUOUS
 62
     7
 10
-18.49879383935216
 20
-3.230569230952586
 30
0.0
 11
-18.46231355375215
 21
-3.066560738152585
 31
0.0
  0
LINE
  5
43B
  8
0
  6
CONTINUOUS
 62
     7
 10
-18.46231355375215
 20
-3.066560738152585
 30
0.0
 11
-18.41485854580216
 21
-2.976177331102587
 31
0.0
  0
ENDBLK
  5
1AE
  8
0
  0
BLOCK
  8
0
  2
DC_GROUP_85
 70
     0
 10
0.0
 20
0.0
 30
0.0
  3
DC_GROUP_85
  1

  0
LINE
  5
43C
  8
0
  6
CONTINUOUS
 62
     7
 10
-19.22150800135216
 20
-2.411355301652588
 30
0.0
 11
-19.33773152525215
 21
-2.524769321502585
 31
0.0
  0
LINE
  5
43D
  8
0
  6
CONTINUOUS
 62
     7
 10
-19.33773152525215
 20
-2.524769321502585
 30
0.0
 11
-19.49215210565215
 21
-2.598608538802583
 31
0.0
  0
LINE
  5
43E
  8
0
  6
CONTINUOUS
 62
     7
 10
-19.49215210565215
 20
-2.598608538802583
 30
0.0
 11
-19.66038759470216
 21
-2.617533064402583
 31
0.0
  0
LINE
  5
43F
  8
0
  6
CONTINUOUS
 62
     7
 10
-19.66038759470216
 20
-2.617533064402583
 30
0.0
 11
-19.82439608750215
 21
-2.581052778752589
 31
0.0
  0
LINE
  5
440
  8
0
  6
CONTINUOUS
 62
     7
 10
-19.82439608750215
 20
-2.581052778752589
 30
0.0
 11
-19.89916193680216
 21
-2.543503636702585
 31
0.0
  0
ENDBLK
  5
1B1
  8
0
  0
BLOCK
  8
0
  2
DC_GROUP_86
 70
     0
 10
0.0
 20
0.0
 30
0.0
  3
DC_GROUP_86
  1

  0
LINE
  5
441
  8
0
  6
CONTINUOUS
 62
     7
 10
-20.50715237435216
 20
-2.131654945602588
 30
0.0
 11
-20.43169225180216
 21
-2.182344250802583
 31
0.0
  0
LINE
  5
442
  8
0
  6
CONTINUOUS
 62
     7
 10
-20.43169225180216
 20
-2.182344250802583
 30
0.0
 11
-20.35605112395216
 21
-2.233278079452585
 31
0.0
  0
LINE
  5
443
  8
0
  6
CONTINUOUS
 62
     7
 10
-20.35605112395216
 20
-2.233278079452585
 30
0.0
 11
-20.28024250390216
 21
-2.284447332302587
 31
0.0
  0
LINE
  5
444
  8
0
  6
CONTINUOUS
 62
     7
 10
-20.28024250390216
 20
-2.284447332302587
 30
0.0
 11
-20.20427993465216
 21
-2.335842868202587
 31
0.0
  0
LINE
  5
445
  8
0
  6
CONTINUOUS
 62
     7
 10
-20.20427993465216
 20
-2.335842868202587
 30
0.0
 11
-20.12817698665216
 21
-2.387455505402588
 31
0.0
  0
LINE
  5
446
  8
0
  6
CONTINUOUS
 62
     7
 10
-20.12817698665216
 20
-2.387455505402588
 30
0.0
 11
-20.05194725550216
 21
-2.439276023552583
 31
0.0
  0
LINE
  5
447
  8
0
  6
CONTINUOUS
 62
     7
 10
-20.05194725550216
 20
-2.439276023552583
 30
0.0
 11
-19.97560435940215
 21
-2.491295165002587
 31
0.0
  0
LINE
  5
448
  8
0
  6
CONTINUOUS
 62
     7
 10
-19.97560435940215
 20
-2.491295165002587
 30
0.0
 11
-19.89916193680216
 21
-2.543503636702585
 31
0.0
  0
ENDBLK
  5
1B4
  8
0
  0
BLOCK
  8
0
  2
DC_GROUP_87
 70
     0
 10
0.0
 20
0.0
 30
0.0
  3
DC_GROUP_87
  1

  0
LINE
  5
449
  8
0
  6
CONTINUOUS
 62
     7
 10
-21.05990768810216
 20
-2.921071345152587
 30
0.0
 11
-20.99498352925215
 21
-2.819658658452585
 31
0.0
  0
LINE
  5
44A
  8
0
  6
CONTINUOUS
 62
     7
 10
-20.99498352925215
 20
-2.819658658452585
 30
0.0
 11
-20.92881941230216
 21
-2.718956155052584
 31
0.0
  0
LINE
  5
44B
  8
0
  6
CONTINUOUS
 62
     7
 10
-20.92881941230216
 20
-2.718956155052584
 30
0.0
 11
-20.86143902980216
 21
-2.618999895402585
 31
0.0
  0
LINE
  5
44C
  8
0
  6
CONTINUOUS
 62
     7
 10
-20.86143902980216
 20
-2.618999895402585
 30
0.0
 11
-20.79286650995216
 21
-2.519825672602583
 31
0.0
  0
LINE
  5
44D
  8
0
  6
CONTINUOUS
 62
     7
 10
-20.79286650995216
 20
-2.519825672602583
 30
0.0
 11
-20.72312640770215
 21
-2.421468999802588
 31
0.0
  0
LINE
  5
44E
  8
0
  6
CONTINUOUS
 62
     7
 10
-20.72312640770215
 20
-2.421468999802588
 30
0.0
 11
-20.65224369615215
 21
-2.323965097352588
 31
0.0
  0
LINE
  5
44F
  8
0
  6
CONTINUOUS
 62
     7
 10
-20.65224369615215
 20
-2.323965097352588
 30
0.0
 11
-20.58024375760216
 21
-2.227348880252588
 31
0.0
  0
LINE
  5
450
  8
0
  6
CONTINUOUS
 62
     7
 10
-20.58024375760216
 20
-2.227348880252588
 30
0.0
 11
-20.50715237435216
 21
-2.131654945602588
 31
0.0
  0
ENDBLK
  5
1B7
  8
0
  0
BLOCK
  8
0
  2
DC_GROUP_88
 70
     0
 10
0.0
 20
0.0
 30
0.0
  3
DC_GROUP_88
  1

  0
LINE
  5
451
  8
0
  6
CONTINUOUS
 62
     7
 10
-20.46495153560215
 20
-3.351534924502584
 30
0.0
 11
-20.54015629955217
 21
-3.297558893002584
 31
0.0
  0
LINE
  5
452
  8
0
  6
CONTINUOUS
 62
     7
 10
-20.54015629955217
 20
-3.297558893002584
 30
0.0
 11
-20.61514911120216
 21
-3.243611631102585
 31
0.0
  0
LINE
  5
453
  8
0
  6
CONTINUOUS
 62
     7
 10
-20.61514911120216
 20
-3.243611631102585
 30
0.0
 11
-20.68991657325216
 21
-3.189702776302585
 31
0.0
  0
LINE
  5
454
  8
0
  6
CONTINUOUS
 62
     7
 10
-20.68991657325216
 20
-3.189702776302585
 30
0.0
 11
-20.76444532880215
 21
-3.135841959252584
 31
0.0
  0
LINE
  5
455
  8
0
  6
CONTINUOUS
 62
     7
 10
-20.76444532880215
 20
-3.135841959252584
 30
0.0
 11
-20.83872206340216
 21
-3.082038802002582
 31
0.0
  0
LINE
  5
456
  8
0
  6
CONTINUOUS
 62
     7
 10
-20.83872206340216
 20
-3.082038802002582
 30
0.0
 11
-20.91273350785215
 21
-3.028302916352583
 31
0.0
  0
LINE
  5
457
  8
0
  6
CONTINUOUS
 62
     7
 10
-20.91273350785215
 20
-3.028302916352583
 30
0.0
 11
-20.98646644010216
 21
-2.974643902052588
 31
0.0
  0
LINE
  5
458
  8
0
  6
CONTINUOUS
 62
     7
 10
-20.98646644010216
 20
-2.974643902052588
 30
0.0
 11
-21.05990768810216
 21
-2.921071345152587
 31
0.0
  0
ENDBLK
  5
1BA
  8
0
  0
BLOCK
  8
0
  2
DC_GROUP_89
 70
     0
 10
0.0
 20
0.0
 30
0.0
  3
DC_GROUP_89
  1

  0
LINE
  5
459
  8
0
  6
CONTINUOUS
 62
     7
 10
-20.46495153560215
 20
-3.351534924502584
 30
0.0
 11
-20.36618750415215
 21
-3.456470750302589
 31
0.0
  0
LINE
  5
45A
  8
0
  6
CONTINUOUS
 62
     7
 10
-20.36618750415215
 20
-3.456470750302589
 30
0.0
 11
-20.29234828685216
 21
-3.610891330702582
 31
0.0
  0
LINE
  5
45B
  8
0
  6
CONTINUOUS
 62
     7
 10
-20.29234828685216
 20
-3.610891330702582
 30
0.0
 11
-20.27342376125216
 21
-3.779126819702586
 31
0.0
  0
LINE
  5
45C
  8
0
  6
CONTINUOUS
 62
     7
 10
-20.27342376125216
 20
-3.779126819702586
 30
0.0
 11
-20.30990404685215
 21
-3.943135312502587
 31
0.0
  0
LINE
  5
45D
  8
0
  6
CONTINUOUS
 62
     7
 10
-20.30990404685215
 20
-3.943135312502587
 30
0.0
 11
-20.35735905480216
 21
-4.033518719552585
 31
0.0
  0
ENDBLK
  5
1BD
  8
0
  0
BLOCK
  8
0
  2
DC_GROUP_90
 70
     0
 10
0.0
 20
0.0
 30
0.0
  3
DC_GROUP_90
  1

  0
LINE
  5
45E
  8
0
  6
CONTINUOUS
 62
     7
 10
-18.88806779420216
 20
-4.342584174202589
 30
0.0
 11
-18.88782299320215
 21
-4.399347681952587
 31
0.0
  0
LINE
  5
45F
  8
0
  6
CONTINUOUS
 62
     7
 10
-18.88782299320215
 20
-4.399347681952587
 30
0.0
 11
-18.87305566380216
 21
-4.466192413952587
 31
0.0
  0
ENDBLK
  5
1C0
  8
0
  0
BLOCK
  8
0
  2
DC_GROUP_91
 70
     0
 10
0.0
 20
0.0
 30
0.0
  3
DC_GROUP_91
  1

  0
LINE
  5
460
  8
0
  6
CONTINUOUS
 62
     7
 10
-19.88414980640215
 20
-2.667111876452584
 30
0.0
 11
-19.88439460740216
 21
-2.610348368702585
 31
0.0
  0
LINE
  5
461
  8
0
  6
CONTINUOUS
 62
     7
 10
-19.88439460740216
 20
-2.610348368702585
 30
0.0
 11
-19.89916193680216
 21
-2.543503636702585
 31
0.0
  0
ENDBLK
  5
1C3
  8
0
  0
BLOCK
  8
0
  2
DC_GROUP_92
 70
     0
 10
0.0
 20
0.0
 30
0.0
  3
DC_GROUP_92
  1

  0
LINE
  5
462
  8
0
  6
CONTINUOUS
 62
     7
 10
-20.46495153560215
 20
-3.351534924502584
 30
0.0
 11
-20.37641884815216
 21
-3.335836064802589
 31
0.0
  0
LINE
  5
463
  8
0
  6
CONTINUOUS
 62
     7
 10
-20.37641884815216
 20
-3.335836064802589
 30
0.0
 11
-20.34366333385216
 21
-3.323365204752587
 31
0.0
  0
ENDBLK
  5
1C6
  8
0
  0
BLOCK
  8
0
  2
DC_GROUP_93
 70
     0
 10
0.0
 20
0.0
 30
0.0
  3
DC_GROUP_93
  1

  0
LINE
  5
464
  8
0
  6
CONTINUOUS
 62
     7
 10
34.47762082019831
 20
8.44856543244742
 30
0.0
 11
34.47502903079831
 21
8.442678735747425
 31
0.0
  0
LINE
  5
465
  8
0
  6
CONTINUOUS
 62
     7
 10
34.47502903079831
 20
8.442678735747425
 30
0.0
 11
34.40357338889831
 21
8.27616739704742
 31
0.0
  0
LINE
  5
466
  8
0
  6
CONTINUOUS
 62
     7
 10
34.40357338889831
 20
8.27616739704742
 30
0.0
 11
34.30302256179831
 21
7.988433189397423
 31
0.0
  0
LINE
  5
467
  8
0
  6
CONTINUOUS
 62
     7
 10
34.30302256179831
 20
7.988433189397423
 30
0.0
 11
34.27762082019831
 21
7.815870452447424
 31
0.0
  0
ENDBLK
  5
1C9
  8
0
  0
BLOCK
  8
0
  2
DC_GROUP_94
 70
     0
 10
0.0
 20
0.0
 30
0.0
  3
DC_GROUP_94
  1

  0
LINE
  5
468
  8
0
  6
CONTINUOUS
 62
     7
 10
34.27762082019831
 20
3.528879460147419
 30
0.0
 11
34.30302256179831
 21
3.356316723147419
 31
0.0
  0
LINE
  5
469
  8
0
  6
CONTINUOUS
 62
     7
 10
34.30302256179831
 20
3.356316723147419
 30
0.0
 11
34.40357338889831
 21
3.068582515547423
 31
0.0
  0
LINE
  5
46A
  8
0
  6
CONTINUOUS
 62
     7
 10
34.40357338889831
 20
3.068582515547423
 30
0.0
 11
34.47502903079831
 21
2.90207117684742
 31
0.0
  0
LINE
  5
46B
  8
0
  6
CONTINUOUS
 62
     7
 10
34.47502903079831
 20
2.90207117684742
 30
0.0
 11
34.47762082019831
 21
2.896184480097423
 31
0.0
  0
ENDBLK
  5
1CC
  8
0
  0
BLOCK
  8
0
  2
DC_GROUP_95
 70
     0
 10
0.0
 20
0.0
 30
0.0
  3
DC_GROUP_95
  1

  0
LINE
  5
46C
  8
0
  6
CONTINUOUS
 62
     7
 10
34.38052547629832
 20
27.06082978309743
 30
0.0
 11
34.40357338889831
 21
27.06616546044742
 31
0.0
  0
LINE
  5
46D
  8
0
  6
CONTINUOUS
 62
     7
 10
34.40357338889831
 20
27.06616546044742
 30
0.0
 11
34.47502903079831
 21
27.04109009104742
 31
0.0
  0
LINE
  5
46E
  8
0
  6
CONTINUOUS
 62
     7
 10
34.47502903079831
 20
27.04109009104742
 30
0.0
 11
34.47762082019831
 21
27.03969482274742
 31
0.0
  0
ENDBLK
  5
1CF
  8
0
  0
BLOCK
  8
0
  2
DC_GROUP_96
 70
     0
 10
0.0
 20
0.0
 30
0.0
  3
DC_GROUP_96
  1

  0
LINE
  5
46F
  8
0
  6
CONTINUOUS
 62
     7
 10
26.49198065494831
 20
-8.222350554952573
 30
0.0
 11
26.52378785939831
 21
-8.191025787002577
 31
0.0
  0
LINE
  5
470
  8
0
  6
CONTINUOUS
 62
     7
 10
26.52378785939831
 20
-8.191025787002577
 30
0.0
 11
26.71105825334831
 21
-8.087765564652575
 31
0.0
  0
LINE
  5
471
  8
0
  6
CONTINUOUS
 62
     7
 10
26.71105825334831
 20
-8.087765564652575
 30
0.0
 11
26.98018157079831
 21
-8.015183486652578
 31
0.0
  0
LINE
  5
472
  8
0
  6
CONTINUOUS
 62
     7
 10
26.98018157079831
 20
-8.015183486652578
 30
0.0
 11
27.28762082019831
 21
-7.979203367002572
 31
0.0
  0
ENDBLK
  5
1D2
  8
0
  0
BLOCK
  8
0
  2
DC_GROUP_97
 70
     0
 10
0.0
 20
0.0
 30
0.0
  3
DC_GROUP_97
  1

  0
LINE
  5
473
  8
0
  6
CONTINUOUS
 62
     7
 10
27.28762082019831
 20
-8.904553607152582
 30
0.0
 11
27.18083162324831
 21
-8.912712725402574
 31
0.0
  0
LINE
  5
474
  8
0
  6
CONTINUOUS
 62
     7
 10
27.18083162324831
 20
-8.912712725402574
 30
0.0
 11
26.88226099544831
 21
-8.96119471535258
 31
0.0
  0
LINE
  5
475
  8
0
  6
CONTINUOUS
 62
     7
 10
26.88226099544831
 20
-8.96119471535258
 30
0.0
 11
26.64538237129831
 21
-9.04093649300258
 31
0.0
  0
LINE
  5
476
  8
0
  6
CONTINUOUS
 62
     7
 10
26.64538237129831
 20
-9.04093649300258
 30
0.0
 11
26.49518165099832
 21
-9.144072017902577
 31
0.0
  0
LINE
  5
477
  8
0
  6
CONTINUOUS
 62
     7
 10
26.49518165099832
 20
-9.144072017902577
 30
0.0
 11
26.49198065494831
 21
-9.147700795102583
 31
0.0
  0
ENDBLK
  5
1D5
  8
0
  0
BLOCK
  8
0
  2
DC_GROUP_98
 70
     0
 10
0.0
 20
0.0
 30
0.0
  3
DC_GROUP_98
  1

  0
LINE
  5
478
  8
0
  6
CONTINUOUS
 62
     7
 10
26.27551692629831
 20
-9.48673155615258
 30
0.0
 11
26.25674025754832
 21
-9.569641151202578
 31
0.0
  0
LINE
  5
479
  8
0
  6
CONTINUOUS
 62
     7
 10
26.25674025754832
 20
-9.569641151202578
 30
0.0
 11
26.24734094034831
 21
-9.699688982202577
 31
0.0
  0
LINE
  5
47A
  8
0
  6
CONTINUOUS
 62
     7
 10
26.24734094034831
 20
-9.699688982202577
 30
0.0
 11
26.24950556434831
 21
-9.85729395830258
 31
0.0
  0
LINE
  5
47B
  8
0
  6
CONTINUOUS
 62
     7
 10
26.24950556434831
 20
-9.85729395830258
 30
0.0
 11
26.26270157184831
 21
-10.02515578990257
 31
0.0
  0
LINE
  5
47C
  8
0
  6
CONTINUOUS
 62
     7
 10
26.26270157184831
 20
-10.02515578990257
 30
0.0
 11
26.27295572014832
 21
-10.10709248775258
 31
0.0
  0
ENDBLK
  5
1D8
  8
0
  0
BLOCK
  8
0
  2
DC_GROUP_99
 70
     0
 10
0.0
 20
0.0
 30
0.0
  3
DC_GROUP_99
  1

  0
LINE
  5
47D
  8
0
  6
CONTINUOUS
 62
     7
 10
26.41579668844831
 20
-10.80096043850257
 30
0.0
 11
26.39367211474831
 21
-10.71495219970258
 31
0.0
  0
LINE
  5
47E
  8
0
  6
CONTINUOUS
 62
     7
 10
26.39367211474831
 20
-10.71495219970258
 30
0.0
 11
26.37276045759832
 21
-10.62870583590258
 31
0.0
  0
LINE
  5
47F
  8
0
  6
CONTINUOUS
 62
     7
 10
26.37276045759832
 20
-10.62870583590258
 30
0.0
 11
26.35306545289831
 21
-10.54223675480258
 31
0.0
  0
LINE
  5
480
  8
0
  6
CONTINUOUS
 62
     7
 10
26.35306545289831
 20
-10.54223675480258
 30
0.0
 11
26.33459061904831
 21
-10.45556040380258
 31
0.0
  0
LINE
  5
481
  8
0
  6
CONTINUOUS
 62
     7
 10
26.33459061904831
 20
-10.45556040380258
 30
0.0
 11
26.31733925659832
 21
-10.36869226740258
 31
0.0
  0
LINE
  5
482
  8
0
  6
CONTINUOUS
 62
     7
 10
26.31733925659832
 20
-10.36869226740258
 30
0.0
 11
26.30131444734832
 21
-10.28164786430257
 31
0.0
  0
LINE
  5
483
  8
0
  6
CONTINUOUS
 62
     7
 10
26.30131444734832
 20
-10.28164786430257
 30
0.0
 11
26.28651905414831
 21
-10.19444274480258
 31
0.0
  0
LINE
  5
484
  8
0
  6
CONTINUOUS
 62
     7
 10
26.28651905414831
 20
-10.19444274480258
 30
0.0
 11
26.27295572014832
 21
-10.10709248775258
 31
0.0
  0
ENDBLK
  5
1DB
  8
0
  0
BLOCK
  8
0
  2
DC_GROUP_100
 70
     0
 10
0.0
 20
0.0
 30
0.0
  3
DC_GROUP_100
  1

  0
LINE
  5
485
  8
0
  6
CONTINUOUS
 62
     7
 10
26.41579668844831
 20
-11.13056507295258
 30
0.0
 11
26.40956522599831
 21
-11.09410068590258
 31
0.0
  0
LINE
  5
486
  8
0
  6
CONTINUOUS
 62
     7
 10
26.40956522599831
 20
-11.09410068590258
 30
0.0
 11
26.40511258679831
 21
-11.05625478230258
 31
0.0
  0
LINE
  5
487
  8
0
  6
CONTINUOUS
 62
     7
 10
26.40511258679831
 20
-11.05625478230258
 30
0.0
 11
26.40244036534831
 21
-11.01704091435258
 31
0.0
  0
LINE
  5
488
  8
0
  6
CONTINUOUS
 62
     7
 10
26.40244036534831
 20
-11.01704091435258
 30
0.0
 11
26.40154951854831
 21
-10.97647312410257
 31
0.0
  0
LINE
  5
489
  8
0
  6
CONTINUOUS
 62
     7
 10
26.40154951854831
 20
-10.97647312410257
 30
0.0
 11
26.40244036534831
 21
-10.93456593835258
 31
0.0
  0
LINE
  5
48A
  8
0
  6
CONTINUOUS
 62
     7
 10
26.40244036534831
 20
-10.93456593835258
 30
0.0
 11
26.40511258679831
 21
-10.89133436355258
 31
0.0
  0
LINE
  5
48B
  8
0
  6
CONTINUOUS
 62
     7
 10
26.40511258679831
 20
-10.89133436355258
 30
0.0
 11
26.40956522599831
 21
-10.84679388050258
 31
0.0
  0
LINE
  5
48C
  8
0
  6
CONTINUOUS
 62
     7
 10
26.40956522599831
 20
-10.84679388050258
 30
0.0
 11
26.41579668844831
 21
-10.80096043850257
 31
0.0
  0
ENDBLK
  5
1DE
  8
0
  0
BLOCK
  8
0
  2
DC_GROUP_101
 70
     0
 10
0.0
 20
0.0
 30
0.0
  3
DC_GROUP_101
  1

  0
LINE
  5
48D
  8
0
  6
CONTINUOUS
 62
     7
 10
26.27295572014832
 20
-10.44446938720258
 30
0.0
 11
26.28651905414831
 21
-10.53108163585258
 31
0.0
  0
LINE
  5
48E
  8
0
  6
CONTINUOUS
 62
     7
 10
26.28651905414831
 20
-10.53108163585258
 30
0.0
 11
26.30131444734832
 21
-10.61748170820258
 31
0.0
  0
LINE
  5
48F
  8
0
  6
CONTINUOUS
 62
     7
 10
26.30131444734832
 20
-10.61748170820258
 30
0.0
 11
26.31733925659832
 21
-10.70365416915257
 31
0.0
  0
LINE
  5
490
  8
0
  6
CONTINUOUS
 62
     7
 10
26.31733925659832
 20
-10.70365416915257
 30
0.0
 11
26.33459061904831
 21
-10.78958362415257
 31
0.0
  0
LINE
  5
491
  8
0
  6
CONTINUOUS
 62
     7
 10
26.33459061904831
 20
-10.78958362415257
 30
0.0
 11
26.35306545289831
 21
-10.87525472220257
 31
0.0
  0
LINE
  5
492
  8
0
  6
CONTINUOUS
 62
     7
 10
26.35306545289831
 20
-10.87525472220257
 30
0.0
 11
26.37276045759832
 21
-10.96065215840258
 31
0.0
  0
LINE
  5
493
  8
0
  6
CONTINUOUS
 62
     7
 10
26.37276045759832
 20
-10.96065215840258
 30
0.0
 11
26.39367211474831
 21
-11.04576067680258
 31
0.0
  0
LINE
  5
494
  8
0
  6
CONTINUOUS
 62
     7
 10
26.39367211474831
 20
-11.04576067680258
 30
0.0
 11
26.41579668844831
 21
-11.13056507295258
 31
0.0
  0
ENDBLK
  5
1E1
  8
0
  0
BLOCK
  8
0
  2
DC_GROUP_102
 70
     0
 10
0.0
 20
0.0
 30
0.0
  3
DC_GROUP_102
  1

  0
LINE
  5
495
  8
0
  6
CONTINUOUS
 62
     7
 10
26.27295572014832
 20
-10.44446938720258
 30
0.0
 11
26.25674025754832
 21
-10.32191126825258
 31
0.0
  0
LINE
  5
496
  8
0
  6
CONTINUOUS
 62
     7
 10
26.25674025754832
 20
-10.32191126825258
 30
0.0
 11
26.24734094034831
 21
-10.21062107415257
 31
0.0
  0
LINE
  5
497
  8
0
  6
CONTINUOUS
 62
     7
 10
26.24734094034831
 20
-10.21062107415257
 30
0.0
 11
26.24950556434831
 21
-10.14879883745258
 31
0.0
  0
LINE
  5
498
  8
0
  6
CONTINUOUS
 62
     7
 10
26.24950556434831
 20
-10.14879883745258
 30
0.0
 11
26.25752668544831
 21
-10.14441550545257
 31
0.0
  0
ENDBLK
  5
1E4
  8
0
  0
BLOCK
  8
0
  2
DC_GROUP_103
 70
     0
 10
0.0
 20
0.0
 30
0.0
  3
DC_GROUP_103
  1

  0
LINE
  5
499
  8
0
  6
CONTINUOUS
 62
     7
 10
26.49198065494831
 20
-9.147700795102583
 30
0.0
 11
26.45706859449831
 21
-9.18944165470258
 31
0.0
  0
LINE
  5
49A
  8
0
  6
CONTINUOUS
 62
     7
 10
26.45706859449831
 20
-9.18944165470258
 30
0.0
 11
26.42438080904832
 21
-9.231392676252572
 31
0.0
  0
LINE
  5
49B
  8
0
  6
CONTINUOUS
 62
     7
 10
26.42438080904832
 20
-9.231392676252572
 30
0.0
 11
26.39392810109831
 21
-9.273539996152582
 31
0.0
  0
LINE
  5
49C
  8
0
  6
CONTINUOUS
 62
     7
 10
26.39392810109831
 20
-9.273539996152582
 30
0.0
 11
26.36572053444831
 21
-9.315869685652576
 31
0.0
  0
LINE
  5
49D
  8
0
  6
CONTINUOUS
 62
     7
 10
26.36572053444831
 20
-9.315869685652576
 30
0.0
 11
26.33976743099831
 21
-9.358367756002583
 31
0.0
  0
LINE
  5
49E
  8
0
  6
CONTINUOUS
 62
     7
 10
26.33976743099831
 20
-9.358367756002583
 30
0.0
 11
26.31607736759831
 21
-9.401020162602581
 31
0.0
  0
LINE
  5
49F
  8
0
  6
CONTINUOUS
 62
     7
 10
26.31607736759831
 20
-9.401020162602581
 30
0.0
 11
26.29465817319831
 21
-9.443812809902585
 31
0.0
  0
LINE
  5
4A0
  8
0
  6
CONTINUOUS
 62
     7
 10
26.29465817319831
 20
-9.443812809902585
 30
0.0
 11
26.27551692629831
 21
-9.48673155615258
 31
0.0
  0
ENDBLK
  5
1E7
  8
0
  0
BLOCK
  8
0
  2
DC_GROUP_104
 70
     0
 10
0.0
 20
0.0
 30
0.0
  3
DC_GROUP_104
  1

  0
LINE
  5
4A1
  8
0
  6
CONTINUOUS
 62
     7
 10
26.27579496814832
 20
-8.561880831502581
 30
0.0
 11
26.28227983369831
 21
-8.567522569902582
 31
0.0
  0
LINE
  5
4A2
  8
0
  6
CONTINUOUS
 62
     7
 10
26.28227983369831
 20
-8.567522569902582
 30
0.0
 11
26.29636428489832
 21
-8.57368513260258
 31
0.0
  0
LINE
  5
4A3
  8
0
  6
CONTINUOUS
 62
     7
 10
26.29636428489832
 20
-8.57368513260258
 30
0.0
 11
26.33012947924831
 21
-8.58272378850258
 31
0.0
  0
LINE
  5
4A4
  8
0
  6
CONTINUOUS
 62
     7
 10
26.33012947924831
 20
-8.58272378850258
 30
0.0
 11
26.39144443664831
 21
-8.593658172452582
 31
0.0
  0
LINE
  5
4A5
  8
0
  6
CONTINUOUS
 62
     7
 10
26.39144443664831
 20
-8.593658172452582
 30
0.0
 11
26.64767962164831
 21
-8.621853023152585
 31
0.0
  0
LINE
  5
4A6
  8
0
  6
CONTINUOUS
 62
     7
 10
26.64767962164831
 20
-8.621853023152585
 30
0.0
 11
27.17422151874831
 21
-8.658897708802574
 31
0.0
  0
LINE
  5
4A7
  8
0
  6
CONTINUOUS
 62
     7
 10
27.17422151874831
 20
-8.658897708802574
 30
0.0
 11
27.28762082019831
 21
-8.665506635502584
 31
0.0
  0
ENDBLK
  5
1EA
  8
0
  0
BLOCK
  8
0
  2
DC_GROUP_105
 70
     0
 10
0.0
 20
0.0
 30
0.0
  3
DC_GROUP_105
  1

  0
LINE
  5
4A8
  8
0
  6
CONTINUOUS
 62
     7
 10
26.27551692629831
 20
-8.561381315952577
 30
0.0
 11
26.29465817319831
 21
-8.518462569752575
 31
0.0
  0
LINE
  5
4A9
  8
0
  6
CONTINUOUS
 62
     7
 10
26.29465817319831
 20
-8.518462569752575
 30
0.0
 11
26.31607736759831
 21
-8.475669922402577
 31
0.0
  0
LINE
  5
4AA
  8
0
  6
CONTINUOUS
 62
     7
 10
26.31607736759831
 20
-8.475669922402577
 30
0.0
 11
26.33976743099831
 21
-8.433017515802579
 31
0.0
  0
LINE
  5
4AB
  8
0
  6
CONTINUOUS
 62
     7
 10
26.33976743099831
 20
-8.433017515802579
 30
0.0
 11
26.36572053444831
 21
-8.39051944550258
 31
0.0
  0
LINE
  5
4AC
  8
0
  6
CONTINUOUS
 62
     7
 10
26.36572053444831
 20
-8.39051944550258
 30
0.0
 11
26.39392810109831
 21
-8.348189755952578
 31
0.0
  0
LINE
  5
4AD
  8
0
  6
CONTINUOUS
 62
     7
 10
26.39392810109831
 20
-8.348189755952578
 30
0.0
 11
26.42438080904832
 21
-8.306042436102576
 31
0.0
  0
LINE
  5
4AE
  8
0
  6
CONTINUOUS
 62
     7
 10
26.42438080904832
 20
-8.306042436102576
 30
0.0
 11
26.45706859449831
 21
-8.264091414502577
 31
0.0
  0
LINE
  5
4AF
  8
0
  6
CONTINUOUS
 62
     7
 10
26.45706859449831
 20
-8.264091414502577
 30
0.0
 11
26.49198065494831
 21
-8.222350554952573
 31
0.0
  0
ENDBLK
  5
1ED
  8
0
  0
BLOCK
  8
0
  2
DC_GROUP_106
 70
     0
 10
0.0
 20
0.0
 30
0.0
  3
DC_GROUP_106
  1

  0
LINE
  5
4B0
  8
0
  6
CONTINUOUS
 62
     7
 10
26.27551692629831
 20
-9.238682396452578
 30
0.0
 11
26.25674025754832
 21
-9.15577280140258
 31
0.0
  0
LINE
  5
4B1
  8
0
  6
CONTINUOUS
 62
     7
 10
26.25674025754832
 20
-9.15577280140258
 30
0.0
 11
26.24734094034831
 21
-9.025724970402582
 31
0.0
  0
LINE
  5
4B2
  8
0
  6
CONTINUOUS
 62
     7
 10
26.24734094034831
 20
-9.025724970402582
 30
0.0
 11
26.24950556434831
 21
-8.868119994302578
 31
0.0
  0
LINE
  5
4B3
  8
0
  6
CONTINUOUS
 62
     7
 10
26.24950556434831
 20
-8.868119994302578
 30
0.0
 11
26.26270157184831
 21
-8.700258162702585
 31
0.0
  0
LINE
  5
4B4
  8
0
  6
CONTINUOUS
 62
     7
 10
26.26270157184831
 20
-8.700258162702585
 30
0.0
 11
26.27295572014832
 21
-8.61832146480258
 31
0.0
  0
ENDBLK
  5
1F0
  8
0
  0
BLOCK
  8
0
  2
DC_GROUP_107
 70
     0
 10
0.0
 20
0.0
 30
0.0
  3
DC_GROUP_107
  1

  0
LINE
  5
4B5
  8
0
  6
CONTINUOUS
 62
     7
 10
26.27295572014832
 20
-8.280944565402582
 30
0.0
 11
26.28651905414831
 21
-8.194332316702575
 31
0.0
  0
LINE
  5
4B6
  8
0
  6
CONTINUOUS
 62
     7
 10
26.28651905414831
 20
-8.194332316702575
 30
0.0
 11
26.30131444734832
 21
-8.107932244352572
 31
0.0
  0
LINE
  5
4B7
  8
0
  6
CONTINUOUS
 62
     7
 10
26.30131444734832
 20
-8.107932244352572
 30
0.0
 11
26.31733925659832
 21
-8.021759783452584
 31
0.0
  0
LINE
  5
4B8
  8
0
  6
CONTINUOUS
 62
     7
 10
26.31733925659832
 20
-8.021759783452584
 30
0.0
 11
26.33459061904831
 21
-7.935830328452585
 31
0.0
  0
ENDBLK
  5
1F3
  8
0
  0
BLOCK
  8
0
  2
DC_GROUP_108
 70
     0
 10
0.0
 20
0.0
 30
0.0
  3
DC_GROUP_108
  1

  0
LINE
  5
4B9
  8
0
  6
CONTINUOUS
 62
     7
 10
26.27295572014832
 20
-8.280944565402582
 30
0.0
 11
26.25674025754832
 21
-8.403502684352578
 31
0.0
  0
LINE
  5
4BA
  8
0
  6
CONTINUOUS
 62
     7
 10
26.25674025754832
 20
-8.403502684352578
 30
0.0
 11
26.24734094034831
 21
-8.514792878452585
 31
0.0
  0
LINE
  5
4BB
  8
0
  6
CONTINUOUS
 62
     7
 10
26.24734094034831
 20
-8.514792878452585
 30
0.0
 11
26.24950556434831
 21
-8.576615115102573
 31
0.0
  0
ENDBLK
  5
1F6
  8
0
  0
BLOCK
  8
0
  2
DC_GROUP_109
 70
     0
 10
0.0
 20
0.0
 30
0.0
  3
DC_GROUP_109
  1

  0
LINE
  5
4BC
  8
0
  6
CONTINUOUS
 62
     7
 10
26.25752668544831
 20
-8.580998447102576
 30
0.0
 11
26.26270157184831
 21
-8.583826386602585
 31
0.0
  0
LINE
  5
4BD
  8
0
  6
CONTINUOUS
 62
     7
 10
26.26270157184831
 20
-8.583826386602585
 30
0.0
 11
26.27551692629831
 21
-8.561381315952577
 31
0.0
  0
ENDBLK
  5
1F9
  8
0
  0
BLOCK
  8
0
  2
DC_GROUP_110
 70
     0
 10
0.0
 20
0.0
 30
0.0
  3
DC_GROUP_110
  1

  0
LINE
  5
4BE
  8
0
  6
CONTINUOUS
 62
     7
 10
26.33724985864831
 20
-9.36270697630258
 30
0.0
 11
26.31607736759831
 21
-9.324393790002578
 31
0.0
  0
LINE
  5
4BF
  8
0
  6
CONTINUOUS
 62
     7
 10
26.31607736759831
 20
-9.324393790002578
 30
0.0
 11
26.29465817319831
 21
-9.28160114265258
 31
0.0
  0
LINE
  5
4C0
  8
0
  6
CONTINUOUS
 62
     7
 10
26.29465817319831
 20
-9.28160114265258
 30
0.0
 11
26.27551692629831
 21
-9.238682396452578
 31
0.0
  0
ENDBLK
  5
1FC
  8
0
  0
BLOCK
  8
0
  2
DC_GROUP_111
 70
     0
 10
0.0
 20
0.0
 30
0.0
  3
DC_GROUP_111
  1

  0
LINE
  5
4C1
  8
0
  6
CONTINUOUS
 62
     7
 10
27.15566043424832
 20
-8.65759184965258
 30
0.0
 11
26.85483742749831
 21
-8.649886299352577
 31
0.0
  0
LINE
  5
4C2
  8
0
  6
CONTINUOUS
 62
     7
 10
26.85483742749831
 20
-8.649886299352577
 30
0.0
 11
26.27295572014832
 21
-8.61832146480258
 31
0.0
  0
ENDBLK
  5
1FF
  8
0
  0
BLOCK
  8
0
  2
DC_GROUP_112
 70
     0
 10
0.0
 20
0.0
 30
0.0
  3
DC_GROUP_112
  1

  0
LINE
  5
4C3
  8
0
  6
CONTINUOUS
 62
     7
 10
26.45849306019831
 20
-9.20014988120258
 30
0.0
 11
26.34196509344831
 21
-9.214884582002572
 31
0.0
  0
LINE
  5
4C4
  8
0
  6
CONTINUOUS
 62
     7
 10
26.34196509344831
 20
-9.214884582002572
 30
0.0
 11
26.28917580484831
 21
-9.22912980770258
 31
0.0
  0
LINE
  5
4C5
  8
0
  6
CONTINUOUS
 62
     7
 10
26.28917580484831
 20
-9.22912980770258
 30
0.0
 11
26.2786408806983
 21
-9.235047446352585
 31
0.0
  0
LINE
  5
4C6
  8
0
  6
CONTINUOUS
 62
     7
 10
26.2786408806983
 20
-9.235047446352585
 30
0.0
 11
26.27551692629831
 21
-9.238682396452578
 31
0.0
  0
ENDBLK
  5
202
  8
0
  0
BLOCK
  8
0
  2
DC_GROUP_113
 70
     0
 10
0.0
 20
0.0
 30
0.0
  3
DC_GROUP_113
  1

  0
LINE
  5
4C7
  8
0
  6
CONTINUOUS
 62
     7
 10
26.49198065494831
 20
-1.59936294865258
 30
0.0
 11
26.52378785939831
 21
-1.524338865352579
 31
0.0
  0
LINE
  5
4C8
  8
0
  6
CONTINUOUS
 62
     7
 10
26.52378785939831
 20
-1.524338865352579
 30
0.0
 11
26.71105825334831
 21
-1.277026466202582
 31
0.0
  0
LINE
  5
4C9
  8
0
  6
CONTINUOUS
 62
     7
 10
26.71105825334831
 20
-1.277026466202582
 30
0.0
 11
26.98018157079831
 21
-1.103189460552581
 31
0.0
  0
LINE
  5
4CA
  8
0
  6
CONTINUOUS
 62
     7
 10
26.98018157079831
 20
-1.103189460552581
 30
0.0
 11
27.28762082019831
 21
-1.01701562210258
 31
0.0
  0
ENDBLK
  5
205
  8
0
  0
BLOCK
  8
0
  2
DC_GROUP_114
 70
     0
 10
0.0
 20
0.0
 30
0.0
  3
DC_GROUP_114
  1

  0
LINE
  5
4CB
  8
0
  6
CONTINUOUS
 62
     7
 10
27.28762082019831
 20
-1.581837651552579
 30
0.0
 11
27.18083162324831
 21
-1.60137906905258
 31
0.0
  0
LINE
  5
4CC
  8
0
  6
CONTINUOUS
 62
     7
 10
27.18083162324831
 20
-1.60137906905258
 30
0.0
 11
26.88226099544831
 21
-1.717495391302581
 31
0.0
  0
LINE
  5
4CD
  8
0
  6
CONTINUOUS
 62
     7
 10
26.88226099544831
 20
-1.717495391302581
 30
0.0
 11
26.64538237129831
 21
-1.90848016640258
 31
0.0
  0
LINE
  5
4CE
  8
0
  6
CONTINUOUS
 62
     7
 10
26.64538237129831
 20
-1.90848016640258
 30
0.0
 11
26.49518165099832
 21
-2.155493910202576
 31
0.0
  0
LINE
  5
4CF
  8
0
  6
CONTINUOUS
 62
     7
 10
26.49518165099832
 20
-2.155493910202576
 30
0.0
 11
26.49198065494831
 21
-2.164184978102579
 31
0.0
  0
ENDBLK
  5
208
  8
0
  0
BLOCK
  8
0
  2
DC_GROUP_115
 70
     0
 10
0.0
 20
0.0
 30
0.0
  3
DC_GROUP_115
  1

  0
LINE
  5
4D0
  8
0
  6
CONTINUOUS
 62
     7
 10
26.27551692629831
 20
-2.97617733110258
 30
0.0
 11
26.25674025754832
 21
-3.124181598202579
 31
0.0
  0
LINE
  5
4D1
  8
0
  6
CONTINUOUS
 62
     7
 10
26.25674025754832
 20
-3.124181598202579
 30
0.0
 11
26.24734094034831
 21
-3.294543977802579
 31
0.0
  0
LINE
  5
4D2
  8
0
  6
CONTINUOUS
 62
     7
 10
26.24734094034831
 20
-3.294543977802579
 30
0.0
 11
26.24950556434831
 21
-3.459106194352575
 31
0.0
  0
LINE
  5
4D3
  8
0
  6
CONTINUOUS
 62
     7
 10
26.24950556434831
 20
-3.459106194352575
 30
0.0
 11
26.26270157184831
 21
-3.600746772252581
 31
0.0
  0
LINE
  5
4D4
  8
0
  6
CONTINUOUS
 62
     7
 10
26.26270157184831
 20
-3.600746772252581
 30
0.0
 11
26.27295572014832
 21
-3.658161126202575
 31
0.0
  0
ENDBLK
  5
20B
  8
0
  0
BLOCK
  8
0
  2
DC_GROUP_116
 70
     0
 10
0.0
 20
0.0
 30
0.0
  3
DC_GROUP_116
  1

  0
LINE
  5
4D5
  8
0
  6
CONTINUOUS
 62
     7
 10
26.41579668844831
 20
-4.088624705552579
 30
0.0
 11
26.39367211474831
 21
-4.035052148602578
 31
0.0
  0
LINE
  5
4D6
  8
0
  6
CONTINUOUS
 62
     7
 10
26.39367211474831
 20
-4.035052148602578
 30
0.0
 11
26.37276045759832
 21
-3.981393134302582
 31
0.0
  0
LINE
  5
4D7
  8
0
  6
CONTINUOUS
 62
     7
 10
26.37276045759832
 20
-3.981393134302582
 30
0.0
 11
26.35306545289831
 21
-3.927657248652576
 31
0.0
  0
LINE
  5
4D8
  8
0
  6
CONTINUOUS
 62
     7
 10
26.35306545289831
 20
-3.927657248652576
 30
0.0
 11
26.33459061904831
 21
-3.873854091402581
 31
0.0
  0
LINE
  5
4D9
  8
0
  6
CONTINUOUS
 62
     7
 10
26.33459061904831
 20
-3.873854091402581
 30
0.0
 11
26.31733925659832
 21
-3.81999327435258
 31
0.0
  0
LINE
  5
4DA
  8
0
  6
CONTINUOUS
 62
     7
 10
26.31733925659832
 20
-3.81999327435258
 30
0.0
 11
26.30131444734832
 21
-3.76608441955258
 31
0.0
  0
LINE
  5
4DB
  8
0
  6
CONTINUOUS
 62
     7
 10
26.30131444734832
 20
-3.76608441955258
 30
0.0
 11
26.28651905414831
 21
-3.712137157652581
 31
0.0
  0
LINE
  5
4DC
  8
0
  6
CONTINUOUS
 62
     7
 10
26.28651905414831
 20
-3.712137157652581
 30
0.0
 11
26.27295572014832
 21
-3.658161126202575
 31
0.0
  0
ENDBLK
  5
20E
  8
0
  0
BLOCK
  8
0
  2
DC_GROUP_117
 70
     0
 10
0.0
 20
0.0
 30
0.0
  3
DC_GROUP_117
  1

  0
LINE
  5
4DD
  8
0
  6
CONTINUOUS
 62
     7
 10
26.41579668844831
 20
-4.878041105052578
 30
0.0
 11
26.40956522599831
 21
-4.782347170402577
 31
0.0
  0
LINE
  5
4DE
  8
0
  6
CONTINUOUS
 62
     7
 10
26.40956522599831
 20
-4.782347170402577
 30
0.0
 11
26.40511258679831
 21
-4.685730953302578
 31
0.0
  0
LINE
  5
4DF
  8
0
  6
CONTINUOUS
 62
     7
 10
26.40511258679831
 20
-4.685730953302578
 30
0.0
 11
26.40244036534831
 21
-4.588227050852577
 31
0.0
  0
LINE
  5
4E0
  8
0
  6
CONTINUOUS
 62
     7
 10
26.40244036534831
 20
-4.588227050852577
 30
0.0
 11
26.40154951854831
 21
-4.489870378052576
 31
0.0
  0
LINE
  5
4E1
  8
0
  6
CONTINUOUS
 62
     7
 10
26.40154951854831
 20
-4.489870378052576
 30
0.0
 11
26.40244036534831
 21
-4.390696155252581
 31
0.0
  0
LINE
  5
4E2
  8
0
  6
CONTINUOUS
 62
     7
 10
26.40244036534831
 20
-4.390696155252581
 30
0.0
 11
26.40511258679831
 21
-4.290739895602581
 31
0.0
  0
LINE
  5
4E3
  8
0
  6
CONTINUOUS
 62
     7
 10
26.40511258679831
 20
-4.290739895602581
 30
0.0
 11
26.40956522599831
 21
-4.190037392252581
 31
0.0
  0
LINE
  5
4E4
  8
0
  6
CONTINUOUS
 62
     7
 10
26.40956522599831
 20
-4.190037392252581
 30
0.0
 11
26.41579668844831
 21
-4.088624705552579
 31
0.0
  0
ENDBLK
  5
211
  8
0
  0
BLOCK
  8
0
  2
DC_GROUP_118
 70
     0
 10
0.0
 20
0.0
 30
0.0
  3
DC_GROUP_118
  1

  0
LINE
  5
4E5
  8
0
  6
CONTINUOUS
 62
     7
 10
26.27295572014832
 20
-4.46619241395258
 30
0.0
 11
26.28651905414831
 21
-4.518400885652579
 31
0.0
  0
LINE
  5
4E6
  8
0
  6
CONTINUOUS
 62
     7
 10
26.28651905414831
 20
-4.518400885652579
 30
0.0
 11
26.30131444734832
 21
-4.570420027152576
 31
0.0
  0
LINE
  5
4E7
  8
0
  6
CONTINUOUS
 62
     7
 10
26.30131444734832
 20
-4.570420027152576
 30
0.0
 11
26.31733925659832
 21
-4.622240545252577
 31
0.0
  0
LINE
  5
4E8
  8
0
  6
CONTINUOUS
 62
     7
 10
26.31733925659832
 20
-4.622240545252577
 30
0.0
 11
26.33459061904831
 21
-4.67385318250258
 31
0.0
  0
LINE
  5
4E9
  8
0
  6
CONTINUOUS
 62
     7
 10
26.33459061904831
 20
-4.67385318250258
 30
0.0
 11
26.35306545289831
 21
-4.725248718352578
 31
0.0
  0
LINE
  5
4EA
  8
0
  6
CONTINUOUS
 62
     7
 10
26.35306545289831
 20
-4.725248718352578
 30
0.0
 11
26.37276045759832
 21
-4.776417971252581
 31
0.0
  0
LINE
  5
4EB
  8
0
  6
CONTINUOUS
 62
     7
 10
26.37276045759832
 20
-4.776417971252581
 30
0.0
 11
26.39367211474831
 21
-4.827351799852575
 31
0.0
  0
LINE
  5
4EC
  8
0
  6
CONTINUOUS
 62
     7
 10
26.39367211474831
 20
-4.827351799852575
 30
0.0
 11
26.41579668844831
 21
-4.878041105052578
 31
0.0
  0
ENDBLK
  5
214
  8
0
  0
BLOCK
  8
0
  2
DC_GROUP_119
 70
     0
 10
0.0
 20
0.0
 30
0.0
  3
DC_GROUP_119
  1

  0
LINE
  5
4ED
  8
0
  6
CONTINUOUS
 62
     7
 10
26.27295572014832
 20
-4.46619241395258
 30
0.0
 11
26.25674025754832
 21
-4.409274748602581
 31
0.0
  0
LINE
  5
4EE
  8
0
  6
CONTINUOUS
 62
     7
 10
26.25674025754832
 20
-4.409274748602581
 30
0.0
 11
26.24923139534832
 21
-4.396036446902581
 31
0.0
  0
ENDBLK
  5
217
  8
0
  0
BLOCK
  8
0
  2
DC_GROUP_120
 70
     0
 10
0.0
 20
0.0
 30
0.0
  3
DC_GROUP_120
  1

  0
LINE
  5
4EF
  8
0
  6
CONTINUOUS
 62
     7
 10
26.24734094034831
 20
-4.392703530002581
 30
0.0
 11
26.24950556434831
 21
-4.432460219002582
 31
0.0
  0
LINE
  5
4F0
  8
0
  6
CONTINUOUS
 62
     7
 10
26.24950556434831
 20
-4.432460219002582
 30
0.0
 11
26.25381720549831
 21
-4.461989018202576
 31
0.0
  0
ENDBLK
  5
21A
  8
0
  0
BLOCK
  8
0
  2
DC_GROUP_121
 70
     0
 10
0.0
 20
0.0
 30
0.0
  3
DC_GROUP_121
  1

  0
LINE
  5
4F1
  8
0
  6
CONTINUOUS
 62
     7
 10
26.49198065494831
 20
-2.164184978102579
 30
0.0
 11
26.45706859449831
 21
-2.264156021052582
 31
0.0
  0
LINE
  5
4F2
  8
0
  6
CONTINUOUS
 62
     7
 10
26.45706859449831
 20
-2.264156021052582
 30
0.0
 11
26.42438080904832
 21
-2.364630410552582
 31
0.0
  0
LINE
  5
4F3
  8
0
  6
CONTINUOUS
 62
     7
 10
26.42438080904832
 20
-2.364630410552582
 30
0.0
 11
26.39392810109831
 21
-2.465574942302577
 31
0.0
  0
LINE
  5
4F4
  8
0
  6
CONTINUOUS
 62
     7
 10
26.39392810109831
 20
-2.465574942302577
 30
0.0
 11
26.36572053444831
 21
-2.56695625680258
 31
0.0
  0
LINE
  5
4F5
  8
0
  6
CONTINUOUS
 62
     7
 10
26.36572053444831
 20
-2.56695625680258
 30
0.0
 11
26.33976743099831
 21
-2.668740850102576
 31
0.0
  0
LINE
  5
4F6
  8
0
  6
CONTINUOUS
 62
     7
 10
26.33976743099831
 20
-2.668740850102576
 30
0.0
 11
26.31607736759831
 21
-2.770895085002582
 31
0.0
  0
LINE
  5
4F7
  8
0
  6
CONTINUOUS
 62
     7
 10
26.31607736759831
 20
-2.770895085002582
 30
0.0
 11
26.29465817319831
 21
-2.873385202102579
 31
0.0
  0
LINE
  5
4F8
  8
0
  6
CONTINUOUS
 62
     7
 10
26.29465817319831
 20
-2.873385202102579
 30
0.0
 11
26.27551692629831
 21
-2.97617733110258
 31
0.0
  0
ENDBLK
  5
21D
  8
0
  0
BLOCK
  8
0
  2
DC_GROUP_122
 70
     0
 10
0.0
 20
0.0
 30
0.0
  3
DC_GROUP_122
  1

  0
LINE
  5
4F9
  8
0
  6
CONTINUOUS
 62
     7
 10
26.27551692629831
 20
-2.411355301652581
 30
0.0
 11
26.27579496814832
 21
-2.412551661502579
 31
0.0
  0
LINE
  5
4FA
  8
0
  6
CONTINUOUS
 62
     7
 10
26.27579496814832
 20
-2.412551661502579
 30
0.0
 11
26.28227983369831
 21
-2.426063852652579
 31
0.0
  0
LINE
  5
4FB
  8
0
  6
CONTINUOUS
 62
     7
 10
26.28227983369831
 20
-2.426063852652579
 30
0.0
 11
26.29636428489832
 21
-2.440823439052576
 31
0.0
  0
LINE
  5
4FC
  8
0
  6
CONTINUOUS
 62
     7
 10
26.29636428489832
 20
-2.440823439052576
 30
0.0
 11
26.33012947924831
 21
-2.462471384552575
 31
0.0
  0
LINE
  5
4FD
  8
0
  6
CONTINUOUS
 62
     7
 10
26.33012947924831
 20
-2.462471384552575
 30
0.0
 11
26.39144443664831
 21
-2.488659675402577
 31
0.0
  0
LINE
  5
4FE
  8
0
  6
CONTINUOUS
 62
     7
 10
26.39144443664831
 20
-2.488659675402577
 30
0.0
 11
26.40455965879831
 21
-2.492116039752577
 31
0.0
  0
ENDBLK
  5
220
  8
0
  0
BLOCK
  8
0
  2
DC_GROUP_123
 70
     0
 10
0.0
 20
0.0
 30
0.0
  3
DC_GROUP_123
  1

  0
LINE
  5
4FF
  8
0
  6
CONTINUOUS
 62
     7
 10
26.27551692629831
 20
-2.411355301652581
 30
0.0
 11
26.29465817319831
 21
-2.30856317265258
 31
0.0
  0
LINE
  5
500
  8
0
  6
CONTINUOUS
 62
     7
 10
26.29465817319831
 20
-2.30856317265258
 30
0.0
 11
26.31607736759831
 21
-2.206073055502582
 31
0.0
  0
LINE
  5
501
  8
0
  6
CONTINUOUS
 62
     7
 10
26.31607736759831
 20
-2.206073055502582
 30
0.0
 11
26.33976743099831
 21
-2.103918820652577
 31
0.0
  0
LINE
  5
502
  8
0
  6
CONTINUOUS
 62
     7
 10
26.33976743099831
 20
-2.103918820652577
 30
0.0
 11
26.36572053444831
 21
-2.002134227352581
 31
0.0
  0
LINE
  5
503
  8
0
  6
CONTINUOUS
 62
     7
 10
26.36572053444831
 20
-2.002134227352581
 30
0.0
 11
26.39392810109831
 21
-1.900752912852578
 31
0.0
  0
LINE
  5
504
  8
0
  6
CONTINUOUS
 62
     7
 10
26.39392810109831
 20
-1.900752912852578
 30
0.0
 11
26.42438080904832
 21
-1.799808381102576
 31
0.0
  0
LINE
  5
505
  8
0
  6
CONTINUOUS
 62
     7
 10
26.42438080904832
 20
-1.799808381102576
 30
0.0
 11
26.45706859449831
 21
-1.699333991602575
 31
0.0
  0
LINE
  5
506
  8
0
  6
CONTINUOUS
 62
     7
 10
26.45706859449831
 20
-1.699333991602575
 30
0.0
 11
26.49198065494831
 21
-1.59936294865258
 31
0.0
  0
ENDBLK
  5
223
  8
0
  0
BLOCK
  8
0
  2
DC_GROUP_124
 70
     0
 10
0.0
 20
0.0
 30
0.0
  3
DC_GROUP_124
  1

  0
LINE
  5
507
  8
0
  6
CONTINUOUS
 62
     7
 10
26.27551692629831
 20
-4.033518719552578
 30
0.0
 11
26.25674025754832
 21
-3.885514452452579
 31
0.0
  0
LINE
  5
508
  8
0
  6
CONTINUOUS
 62
     7
 10
26.25674025754832
 20
-3.885514452452579
 30
0.0
 11
26.24734094034831
 21
-3.715152072852579
 31
0.0
  0
LINE
  5
509
  8
0
  6
CONTINUOUS
 62
     7
 10
26.24734094034831
 20
-3.715152072852579
 30
0.0
 11
26.24950556434831
 21
-3.550589856352577
 31
0.0
  0
LINE
  5
50A
  8
0
  6
CONTINUOUS
 62
     7
 10
26.24950556434831
 20
-3.550589856352577
 30
0.0
 11
26.25378435604831
 21
-3.504663046552576
 31
0.0
  0
ENDBLK
  5
226
  8
0
  0
BLOCK
  8
0
  2
DC_GROUP_125
 70
     0
 10
0.0
 20
0.0
 30
0.0
  3
DC_GROUP_125
  1

  0
LINE
  5
50B
  8
0
  6
CONTINUOUS
 62
     7
 10
26.24923139534832
 20
-2.613659603802578
 30
0.0
 11
26.24734094034831
 21
-2.616992520652577
 31
0.0
  0
LINE
  5
50C
  8
0
  6
CONTINUOUS
 62
     7
 10
26.24734094034831
 20
-2.616992520652577
 30
0.0
 11
26.24950556434831
 21
-2.577235831652576
 31
0.0
  0
LINE
  5
50D
  8
0
  6
CONTINUOUS
 62
     7
 10
26.24950556434831
 20
-2.577235831652576
 30
0.0
 11
26.26270157184831
 21
-2.48686136825258
 31
0.0
  0
LINE
  5
50E
  8
0
  6
CONTINUOUS
 62
     7
 10
26.26270157184831
 20
-2.48686136825258
 30
0.0
 11
26.27551692629831
 21
-2.411355301652581
 31
0.0
  0
ENDBLK
  5
229
  8
0
  0
BLOCK
  8
0
  2
DC_GROUP_126
 70
     0
 10
0.0
 20
0.0
 30
0.0
  3
DC_GROUP_126
  1

  0
LINE
  5
50F
  8
0
  6
CONTINUOUS
 62
     7
 10
26.35007947214831
 20
-4.382514078752582
 30
0.0
 11
26.33976743099831
 21
-4.340955200552582
 31
0.0
  0
LINE
  5
510
  8
0
  6
CONTINUOUS
 62
     7
 10
26.33976743099831
 20
-4.340955200552582
 30
0.0
 11
26.31607736759831
 21
-4.238800965702577
 31
0.0
  0
LINE
  5
511
  8
0
  6
CONTINUOUS
 62
     7
 10
26.31607736759831
 20
-4.238800965702577
 30
0.0
 11
26.29465817319831
 21
-4.136310848552579
 31
0.0
  0
LINE
  5
512
  8
0
  6
CONTINUOUS
 62
     7
 10
26.29465817319831
 20
-4.136310848552579
 30
0.0
 11
26.27551692629831
 21
-4.033518719552578
 31
0.0
  0
ENDBLK
  5
22C
  8
0
  0
BLOCK
  8
0
  2
DC_GROUP_127
 70
     0
 10
0.0
 20
0.0
 30
0.0
  3
DC_GROUP_127
  1

  0
LINE
  5
513
  8
0
  6
CONTINUOUS
 62
     7
 10
26.37525240639832
 20
-3.966441014252577
 30
0.0
 11
26.34196509344831
 21
-3.976521993652579
 31
0.0
  0
LINE
  5
514
  8
0
  6
CONTINUOUS
 62
     7
 10
26.34196509344831
 20
-3.976521993652579
 30
0.0
 11
26.28917580484831
 21
-4.010639884052576
 31
0.0
  0
LINE
  5
515
  8
0
  6
CONTINUOUS
 62
     7
 10
26.28917580484831
 20
-4.010639884052576
 30
0.0
 11
26.2786408806983
 21
-4.024812867352576
 31
0.0
  0
LINE
  5
516
  8
0
  6
CONTINUOUS
 62
     7
 10
26.2786408806983
 20
-4.024812867352576
 30
0.0
 11
26.27551692629831
 21
-4.033518719552578
 31
0.0
  0
ENDBLK
  5
22F
  8
0
  0
BLOCK
  8
0
  2
DC_GROUP_128
 70
     0
 10
0.0
 20
0.0
 30
0.0
  3
DC_GROUP_128
  1

  0
LINE
  5
517
  8
0
  6
CONTINUOUS
 62
     7
 10
27.28762082019831
 20
12.36176553464742
 30
0.0
 11
27.01565847164831
 21
12.43300660699742
 31
0.0
  0
LINE
  5
518
  8
0
  6
CONTINUOUS
 62
     7
 10
27.01565847164831
 20
12.43300660699742
 30
0.0
 11
26.82646745754832
 21
12.53185933249742
 31
0.0
  0
LINE
  5
519
  8
0
  6
CONTINUOUS
 62
     7
 10
26.82646745754832
 20
12.53185933249742
 30
0.0
 11
26.60188466459832
 21
12.74174022544742
 31
0.0
  0
LINE
  5
51A
  8
0
  6
CONTINUOUS
 62
     7
 10
26.60188466459832
 20
12.74174022544742
 30
0.0
 11
26.49198065494831
 21
12.94411286119742
 31
0.0
  0
ENDBLK
  5
232
  8
0
  0
BLOCK
  8
0
  2
DC_GROUP_129
 70
     0
 10
0.0
 20
0.0
 30
0.0
  3
DC_GROUP_129
  1

  0
LINE
  5
51B
  8
0
  6
CONTINUOUS
 62
     7
 10
26.49198065494831
 20
13.50893489064742
 30
0.0
 11
26.49233304149831
 21
13.50796156799742
 31
0.0
  0
LINE
  5
51C
  8
0
  6
CONTINUOUS
 62
     7
 10
26.49233304149831
 20
13.50796156799742
 30
0.0
 11
26.65324640724832
 21
13.24447040244742
 31
0.0
  0
LINE
  5
51D
  8
0
  6
CONTINUOUS
 62
     7
 10
26.65324640724832
 20
13.24447040244742
 30
0.0
 11
26.82646745754832
 21
13.09668136194742
 31
0.0
  0
LINE
  5
51E
  8
0
  6
CONTINUOUS
 62
     7
 10
26.82646745754832
 20
13.09668136194742
 30
0.0
 11
27.11613468009831
 21
12.96309097974742
 31
0.0
  0
LINE
  5
51F
  8
0
  6
CONTINUOUS
 62
     7
 10
27.11613468009831
 20
12.96309097974742
 30
0.0
 11
27.28762082019831
 21
12.92658756409742
 31
0.0
  0
ENDBLK
  5
235
  8
0
  0
BLOCK
  8
0
  2
DC_GROUP_130
 70
     0
 10
0.0
 20
0.0
 30
0.0
  3
DC_GROUP_130
  1

  0
LINE
  5
520
  8
0
  6
CONTINUOUS
 62
     7
 10
26.24913518609831
 20
15.74015098229742
 30
0.0
 11
26.24950556434831
 21
15.73691289884742
 31
0.0
  0
LINE
  5
521
  8
0
  6
CONTINUOUS
 62
     7
 10
26.24950556434831
 20
15.73691289884742
 30
0.0
 11
26.26270157184831
 21
15.77339318444742
 31
0.0
  0
LINE
  5
522
  8
0
  6
CONTINUOUS
 62
     7
 10
26.26270157184831
 20
15.77339318444742
 30
0.0
 11
26.27295572014832
 21
15.81094232654742
 31
0.0
  0
ENDBLK
  5
238
  8
0
  0
BLOCK
  8
0
  2
DC_GROUP_131
 70
     0
 10
0.0
 20
0.0
 30
0.0
  3
DC_GROUP_131
  1

  0
LINE
  5
523
  8
0
  6
CONTINUOUS
 62
     7
 10
26.41579668844831
 20
16.22279101759742
 30
0.0
 11
26.39367211474831
 21
16.17210171239742
 31
0.0
  0
LINE
  5
524
  8
0
  6
CONTINUOUS
 62
     7
 10
26.39367211474831
 20
16.17210171239742
 30
0.0
 11
26.37276045759832
 21
16.12116788379742
 31
0.0
  0
LINE
  5
525
  8
0
  6
CONTINUOUS
 62
     7
 10
26.37276045759832
 20
16.12116788379742
 30
0.0
 11
26.35306545289831
 21
16.06999863094742
 31
0.0
  0
LINE
  5
526
  8
0
  6
CONTINUOUS
 62
     7
 10
26.35306545289831
 20
16.06999863094742
 30
0.0
 11
26.33459061904831
 21
16.01860309504742
 31
0.0
  0
LINE
  5
527
  8
0
  6
CONTINUOUS
 62
     7
 10
26.33459061904831
 20
16.01860309504742
 30
0.0
 11
26.31733925659832
 21
15.96699045784742
 31
0.0
  0
LINE
  5
528
  8
0
  6
CONTINUOUS
 62
     7
 10
26.31733925659832
 20
15.96699045784742
 30
0.0
 11
26.30131444734832
 21
15.91516993969742
 31
0.0
  0
LINE
  5
529
  8
0
  6
CONTINUOUS
 62
     7
 10
26.30131444734832
 20
15.91516993969742
 30
0.0
 11
26.28651905414831
 21
15.86315079824742
 31
0.0
  0
LINE
  5
52A
  8
0
  6
CONTINUOUS
 62
     7
 10
26.28651905414831
 20
15.86315079824742
 30
0.0
 11
26.27295572014832
 21
15.81094232654742
 31
0.0
  0
ENDBLK
  5
23B
  8
0
  0
BLOCK
  8
0
  2
DC_GROUP_132
 70
     0
 10
0.0
 20
0.0
 30
0.0
  3
DC_GROUP_132
  1

  0
LINE
  5
52B
  8
0
  6
CONTINUOUS
 62
     7
 10
26.41579668844831
 20
15.43337461809742
 30
0.0
 11
26.40956522599831
 21
15.53478730479742
 31
0.0
  0
LINE
  5
52C
  8
0
  6
CONTINUOUS
 62
     7
 10
26.40956522599831
 20
15.53478730479742
 30
0.0
 11
26.40511258679831
 21
15.63548980819742
 31
0.0
  0
LINE
  5
52D
  8
0
  6
CONTINUOUS
 62
     7
 10
26.40511258679831
 20
15.63548980819742
 30
0.0
 11
26.40244036534831
 21
15.73544606784742
 31
0.0
  0
LINE
  5
52E
  8
0
  6
CONTINUOUS
 62
     7
 10
26.40244036534831
 20
15.73544606784742
 30
0.0
 11
26.40154951854831
 21
15.83462029059742
 31
0.0
  0
LINE
  5
52F
  8
0
  6
CONTINUOUS
 62
     7
 10
26.40154951854831
 20
15.83462029059742
 30
0.0
 11
26.40244036534831
 21
15.93297696339742
 31
0.0
  0
LINE
  5
530
  8
0
  6
CONTINUOUS
 62
     7
 10
26.40244036534831
 20
15.93297696339742
 30
0.0
 11
26.40511258679831
 21
16.03048086584742
 31
0.0
  0
LINE
  5
531
  8
0
  6
CONTINUOUS
 62
     7
 10
26.40511258679831
 20
16.03048086584742
 30
0.0
 11
26.40956522599831
 21
16.12709708299742
 31
0.0
  0
LINE
  5
532
  8
0
  6
CONTINUOUS
 62
     7
 10
26.40956522599831
 20
16.12709708299742
 30
0.0
 11
26.41579668844831
 21
16.22279101759742
 31
0.0
  0
ENDBLK
  5
23E
  8
0
  0
BLOCK
  8
0
  2
DC_GROUP_133
 70
     0
 10
0.0
 20
0.0
 30
0.0
  3
DC_GROUP_133
  1

  0
LINE
  5
533
  8
0
  6
CONTINUOUS
 62
     7
 10
26.27295572014832
 20
15.00291103874742
 30
0.0
 11
26.28651905414831
 21
15.05688707019742
 31
0.0
  0
LINE
  5
534
  8
0
  6
CONTINUOUS
 62
     7
 10
26.28651905414831
 20
15.05688707019742
 30
0.0
 11
26.30131444734832
 21
15.11083433209742
 31
0.0
  0
LINE
  5
535
  8
0
  6
CONTINUOUS
 62
     7
 10
26.30131444734832
 20
15.11083433209742
 30
0.0
 11
26.31733925659832
 21
15.16474318689742
 31
0.0
  0
LINE
  5
536
  8
0
  6
CONTINUOUS
 62
     7
 10
26.31733925659832
 20
15.16474318689742
 30
0.0
 11
26.33459061904831
 21
15.21860400399742
 31
0.0
  0
LINE
  5
537
  8
0
  6
CONTINUOUS
 62
     7
 10
26.33459061904831
 20
15.21860400399742
 30
0.0
 11
26.35306545289831
 21
15.27240716124742
 31
0.0
  0
LINE
  5
538
  8
0
  6
CONTINUOUS
 62
     7
 10
26.35306545289831
 20
15.27240716124742
 30
0.0
 11
26.37276045759832
 21
15.32614304689742
 31
0.0
  0
LINE
  5
539
  8
0
  6
CONTINUOUS
 62
     7
 10
26.37276045759832
 20
15.32614304689742
 30
0.0
 11
26.39367211474831
 21
15.37980206119742
 31
0.0
  0
LINE
  5
53A
  8
0
  6
CONTINUOUS
 62
     7
 10
26.39367211474831
 20
15.37980206119742
 30
0.0
 11
26.41579668844831
 21
15.43337461809742
 31
0.0
  0
ENDBLK
  5
241
  8
0
  0
BLOCK
  8
0
  2
DC_GROUP_134
 70
     0
 10
0.0
 20
0.0
 30
0.0
  3
DC_GROUP_134
  1

  0
LINE
  5
53B
  8
0
  6
CONTINUOUS
 62
     7
 10
26.27295572014832
 20
15.00291103874742
 30
0.0
 11
26.25674025754832
 21
14.89797521294742
 31
0.0
  0
LINE
  5
53C
  8
0
  6
CONTINUOUS
 62
     7
 10
26.25674025754832
 20
14.89797521294742
 30
0.0
 11
26.24734094034831
 21
14.74355463254742
 31
0.0
  0
LINE
  5
53D
  8
0
  6
CONTINUOUS
 62
     7
 10
26.24734094034831
 20
14.74355463254742
 30
0.0
 11
26.24950556434831
 21
14.57531914349742
 31
0.0
  0
LINE
  5
53E
  8
0
  6
CONTINUOUS
 62
     7
 10
26.24950556434831
 20
14.57531914349742
 30
0.0
 11
26.26270157184831
 21
14.41131065069742
 31
0.0
  0
LINE
  5
53F
  8
0
  6
CONTINUOUS
 62
     7
 10
26.26270157184831
 20
14.41131065069742
 30
0.0
 11
26.27551692629831
 21
14.32092724364742
 31
0.0
  0
ENDBLK
  5
244
  8
0
  0
BLOCK
  8
0
  2
DC_GROUP_135
 70
     0
 10
0.0
 20
0.0
 30
0.0
  3
DC_GROUP_135
  1

  0
LINE
  5
540
  8
0
  6
CONTINUOUS
 62
     7
 10
26.27551692629831
 20
14.32092724364742
 30
0.0
 11
26.29465817319831
 21
14.21813511464742
 31
0.0
  0
LINE
  5
541
  8
0
  6
CONTINUOUS
 62
     7
 10
26.29465817319831
 20
14.21813511464742
 30
0.0
 11
26.31607736759831
 21
14.11564499754742
 31
0.0
  0
LINE
  5
542
  8
0
  6
CONTINUOUS
 62
     7
 10
26.31607736759831
 20
14.11564499754742
 30
0.0
 11
26.33976743099831
 21
14.01349076264742
 31
0.0
  0
LINE
  5
543
  8
0
  6
CONTINUOUS
 62
     7
 10
26.33976743099831
 20
14.01349076264742
 30
0.0
 11
26.36572053444831
 21
13.91170616934742
 31
0.0
  0
LINE
  5
544
  8
0
  6
CONTINUOUS
 62
     7
 10
26.36572053444831
 20
13.91170616934742
 30
0.0
 11
26.39392810109831
 21
13.81032485489742
 31
0.0
  0
LINE
  5
545
  8
0
  6
CONTINUOUS
 62
     7
 10
26.39392810109831
 20
13.81032485489742
 30
0.0
 11
26.42438080904832
 21
13.70938032309742
 31
0.0
  0
LINE
  5
546
  8
0
  6
CONTINUOUS
 62
     7
 10
26.42438080904832
 20
13.70938032309742
 30
0.0
 11
26.45706859449831
 21
13.60890593364742
 31
0.0
  0
LINE
  5
547
  8
0
  6
CONTINUOUS
 62
     7
 10
26.45706859449831
 20
13.60890593364742
 30
0.0
 11
26.49198065494831
 21
13.50893489064742
 31
0.0
  0
ENDBLK
  5
247
  8
0
  0
BLOCK
  8
0
  2
DC_GROUP_136
 70
     0
 10
0.0
 20
0.0
 30
0.0
  3
DC_GROUP_136
  1

  0
LINE
  5
548
  8
0
  6
CONTINUOUS
 62
     7
 10
26.40574549589832
 20
13.83241767534742
 30
0.0
 11
26.34196509344831
 21
13.81310194014742
 31
0.0
  0
LINE
  5
549
  8
0
  6
CONTINUOUS
 62
     7
 10
26.34196509344831
 20
13.81310194014742
 30
0.0
 11
26.28917580484831
 21
13.77898404969742
 31
0.0
  0
LINE
  5
54A
  8
0
  6
CONTINUOUS
 62
     7
 10
26.28917580484831
 20
13.77898404969742
 30
0.0
 11
26.2786408806983
 21
13.76481106639742
 31
0.0
  0
LINE
  5
54B
  8
0
  6
CONTINUOUS
 62
     7
 10
26.2786408806983
 20
13.76481106639742
 30
0.0
 11
26.27551692629831
 21
13.75610521419742
 31
0.0
  0
ENDBLK
  5
24A
  8
0
  0
BLOCK
  8
0
  2
DC_GROUP_137
 70
     0
 10
0.0
 20
0.0
 30
0.0
  3
DC_GROUP_137
  1

  0
LINE
  5
54C
  8
0
  6
CONTINUOUS
 62
     7
 10
26.49198065494831
 20
12.94411286119742
 30
0.0
 11
26.45706859449831
 21
13.04408390414742
 31
0.0
  0
LINE
  5
54D
  8
0
  6
CONTINUOUS
 62
     7
 10
26.45706859449831
 20
13.04408390414742
 30
0.0
 11
26.42438080904832
 21
13.14455829364742
 31
0.0
  0
LINE
  5
54E
  8
0
  6
CONTINUOUS
 62
     7
 10
26.42438080904832
 20
13.14455829364742
 30
0.0
 11
26.39392810109831
 21
13.24550282539742
 31
0.0
  0
LINE
  5
54F
  8
0
  6
CONTINUOUS
 62
     7
 10
26.39392810109831
 20
13.24550282539742
 30
0.0
 11
26.36572053444831
 21
13.34688413989742
 31
0.0
  0
LINE
  5
550
  8
0
  6
CONTINUOUS
 62
     7
 10
26.36572053444831
 20
13.34688413989742
 30
0.0
 11
26.33976743099831
 21
13.44866873319742
 31
0.0
  0
LINE
  5
551
  8
0
  6
CONTINUOUS
 62
     7
 10
26.33976743099831
 20
13.44866873319742
 30
0.0
 11
26.31607736759831
 21
13.55082296809742
 31
0.0
  0
LINE
  5
552
  8
0
  6
CONTINUOUS
 62
     7
 10
26.31607736759831
 20
13.55082296809742
 30
0.0
 11
26.29465817319831
 21
13.65331308519742
 31
0.0
  0
LINE
  5
553
  8
0
  6
CONTINUOUS
 62
     7
 10
26.29465817319831
 20
13.65331308519742
 30
0.0
 11
26.27551692629831
 21
13.75610521419742
 31
0.0
  0
ENDBLK
  5
24D
  8
0
  0
BLOCK
  8
0
  2
DC_GROUP_138
 70
     0
 10
0.0
 20
0.0
 30
0.0
  3
DC_GROUP_138
  1

  0
LINE
  5
554
  8
0
  6
CONTINUOUS
 62
     7
 10
26.27551692629831
 20
13.75610521419742
 30
0.0
 11
26.25674025754832
 21
13.86951923404742
 31
0.0
  0
LINE
  5
555
  8
0
  6
CONTINUOUS
 62
     7
 10
26.25674025754832
 20
13.86951923404742
 30
0.0
 11
26.24734094034831
 21
13.94335845134742
 31
0.0
  0
LINE
  5
556
  8
0
  6
CONTINUOUS
 62
     7
 10
26.24734094034831
 20
13.94335845134742
 30
0.0
 11
26.24913518609831
 21
13.95904489349742
 31
0.0
  0
ENDBLK
  5
250
  8
0
  0
BLOCK
  8
0
  2
DC_GROUP_139
 70
     0
 10
0.0
 20
0.0
 30
0.0
  3
DC_GROUP_139
  1

  0
LINE
  5
557
  8
0
  6
CONTINUOUS
 62
     7
 10
26.25378435604831
 20
14.84978291669742
 30
0.0
 11
26.24734094034831
 21
14.95564124324742
 31
0.0
  0
LINE
  5
558
  8
0
  6
CONTINUOUS
 62
     7
 10
26.24734094034831
 20
14.95564124324742
 30
0.0
 11
26.24950556434831
 21
15.12387673229742
 31
0.0
  0
LINE
  5
559
  8
0
  6
CONTINUOUS
 62
     7
 10
26.24950556434831
 20
15.12387673229742
 30
0.0
 11
26.26270157184831
 21
15.28788522509742
 31
0.0
  0
LINE
  5
55A
  8
0
  6
CONTINUOUS
 62
     7
 10
26.26270157184831
 20
15.28788522509742
 30
0.0
 11
26.27551692629831
 21
15.37826863214742
 31
0.0
  0
ENDBLK
  5
253
  8
0
  0
BLOCK
  8
0
  2
DC_GROUP_140
 70
     0
 10
0.0
 20
0.0
 30
0.0
  3
DC_GROUP_140
  1

  0
LINE
  5
55B
  8
0
  6
CONTINUOUS
 62
     7
 10
26.27551692629831
 20
15.37826863214742
 30
0.0
 11
26.29465817319831
 21
15.48106076114742
 31
0.0
  0
LINE
  5
55C
  8
0
  6
CONTINUOUS
 62
     7
 10
26.29465817319831
 20
15.48106076114742
 30
0.0
 11
26.31607736759831
 21
15.58355087824742
 31
0.0
  0
LINE
  5
55D
  8
0
  6
CONTINUOUS
 62
     7
 10
26.31607736759831
 20
15.58355087824742
 30
0.0
 11
26.33976743099831
 21
15.68570511314742
 31
0.0
  0
LINE
  5
55E
  8
0
  6
CONTINUOUS
 62
     7
 10
26.33976743099831
 20
15.68570511314742
 30
0.0
 11
26.35007947214831
 21
15.72726399129742
 31
0.0
  0
ENDBLK
  5
256
  8
0
  0
BLOCK
  8
0
  2
DC_GROUP_141
 70
     0
 10
0.0
 20
0.0
 30
0.0
  3
DC_GROUP_141
  1

  0
LINE
  5
55F
  8
0
  6
CONTINUOUS
 62
     7
 10
26.27551692629831
 20
15.37826863214742
 30
0.0
 11
26.27579496814832
 21
15.37707227229742
 31
0.0
  0
LINE
  5
560
  8
0
  6
CONTINUOUS
 62
     7
 10
26.27579496814832
 20
15.37707227229742
 30
0.0
 11
26.28227983369831
 21
15.36356008114742
 31
0.0
  0
LINE
  5
561
  8
0
  6
CONTINUOUS
 62
     7
 10
26.28227983369831
 20
15.36356008114742
 30
0.0
 11
26.29636428489832
 21
15.34880049474742
 31
0.0
  0
LINE
  5
562
  8
0
  6
CONTINUOUS
 62
     7
 10
26.29636428489832
 20
15.34880049474742
 30
0.0
 11
26.33012947924831
 21
15.32715254919742
 31
0.0
  0
LINE
  5
563
  8
0
  6
CONTINUOUS
 62
     7
 10
26.33012947924831
 20
15.32715254919742
 30
0.0
 11
26.37429013789831
 21
15.30829104754742
 31
0.0
  0
ENDBLK
  5
259
  8
0
  0
ENDSEC
  0
SECTION
  2
ENTITIES
  0
ARC
  5
564
  8
0
  6
CONTINUOUS
 62
     7
 10
-32.49254150890215
 20
5.672374956297414
 30
0.0
 40
11.0
 50
51.64037693579998
 51
65.37568164780001
  0
LINE
  5
565
  8
0
  6
CONTINUOUS
 62
     7
 10
-24.81419511310216
 20
14.89425093819741
 30
0.0
 11
-25.66599266880216
 21
14.29781586869742
 31
0.0
  0
ARC
  5
566
  8
0
  6
CONTINUOUS
 62
     7
 10
-32.49254150890215
 20
5.672374956297414
 30
0.0
 40
11.0
 50
114.6243183522
 51
128.3596230642
  0
LINE
  5
567
  8
0
  6
CONTINUOUS
 62
     7
 10
-39.31909034905216
 20
14.29781586869742
 30
0.0
 11
-40.17088790475216
 21
14.89425093819742
 31
0.0
  0
ARC
  5
568
  8
0
  6
CONTINUOUS
 62
     7
 10
-32.49254150890215
 20
5.672374956297414
 30
0.0
 40
11.0
 50
161.6403769358
 51
169.2247766975999
  0
LINE
  5
569
  8
0
  6
CONTINUOUS
 62
     7
 10
-43.35927331765216
 20
9.435902529847418
 30
0.0
 11
-42.93262189805215
 21
9.13715798964742
 31
0.0
  0
ARC
  5
56A
  8
0
  6
CONTINUOUS
 62
     7
 10
-32.49254150890215
 20
5.672374956297414
 30
0.0
 40
11.0
 50
341.6403769358
 51
349.2247766976
  0
LINE
  5
56B
  8
0
  6
CONTINUOUS
 62
     7
 10
-21.62580970020215
 20
1.908847382697413
 30
0.0
 11
-22.05246111980216
 21
2.207591922897411
 31
0.0
  0
ARC
  5
56C
  8
0
  6
CONTINUOUS
 62
     7
 10
-32.49254150890215
 20
5.672374956297414
 30
0.0
 40
11.0
 50
10.7752233024
 51
18.35962306419999
  0
LINE
  5
56D
  8
0
  6
CONTINUOUS
 62
     7
 10
-22.05246111980216
 20
9.137157989647417
 30
0.0
 11
-21.62580970020215
 21
9.435902529847414
 31
0.0
  0
ARC
  5
56E
  8
0
  6
CONTINUOUS
 62
     7
 10
-32.49254150890215
 20
5.672374956297414
 30
0.0
 40
11.0
 50
190.7752233024
 51
198.3596230642
  0
LINE
  5
56F
  8
0
  6
CONTINUOUS
 62
     7
 10
-42.93262189805215
 20
2.207591922897414
 30
0.0
 11
-43.35927331765216
 21
1.908847382697417
 31
0.0
  0
ARC
  5
570
  8
0
  6
CONTINUOUS
 62
     7
 10
-37.49254150890215
 20
26.06845301064742
 30
0.0
 40
1.0
 50
0.0
 51
103.7741469980001
  0
ARC
  5
571
  8
0
  6
CONTINUOUS
 62
     7
 10
-27.49254150890215
 20
26.06845301064742
 30
0.0
 40
1.0
 50
76.22585300199992
 51
180.0
  0
LINE
  5
572
  8
0
  6
CONTINUOUS
 62
     7
 10
-47.06881662020215
 20
19.72423262279742
 30
0.0
 11
-50.68234816920216
 21
14.56357474379742
 31
0.0
  0
LINE
  5
573
  8
0
  6
CONTINUOUS
 62
     7
 10
-50.68234816920216
 20
14.56357474379742
 30
0.0
 11
-43.35927331765216
 21
9.435902529847418
 31
0.0
  0
LINE
  5
574
  8
0
  6
CONTINUOUS
 62
     7
 10
-40.17088790475216
 20
14.89425093819742
 30
0.0
 11
-47.06881662020215
 21
19.72423262279742
 31
0.0
  0
LINE
  5
575
  8
0
  6
CONTINUOUS
 62
     7
 10
-14.30273484865216
 20
14.56357474379741
 30
0.0
 11
-17.91626639765215
 21
19.72423262279741
 31
0.0
  0
LINE
  5
576
  8
0
  6
CONTINUOUS
 62
     7
 10
-21.62580970020215
 20
9.435902529847414
 30
0.0
 11
-14.30273484865216
 21
14.56357474379741
 31
0.0
  0
LINE
  5
577
  8
0
  6
CONTINUOUS
 62
     7
 10
-17.91626639765215
 20
19.72423262279741
 30
0.0
 11
-24.81419511310216
 21
14.89425093819741
 31
0.0
  0
LINE
  5
578
  8
0
  6
CONTINUOUS
 62
     7
 10
-28.49254150890215
 20
16.58108707089741
 30
0.0
 11
-28.49254150890215
 21
26.06845301064742
 31
0.0
  0
LINE
  5
579
  8
0
  6
CONTINUOUS
 62
     7
 10
-36.49254150890215
 20
26.06845301064742
 30
0.0
 11
-36.49254150890215
 21
16.58108707089742
 31
0.0
  0
ARC
  5
57A
  8
0
  6
CONTINUOUS
 62
     7
 10
-37.49254150890215
 20
16.58108707089742
 30
0.0
 40
1.0
 50
294.6243183522002
 51
0.0
  0
ARC
  5
57B
  8
0
  6
CONTINUOUS
 62
     7
 10
-27.49254150890215
 20
16.58108707089741
 30
0.0
 40
1.0
 50
180.0
 51
245.3756816477998
  0
LINE
  5
57C
  8
0
  6
CONTINUOUS
 62
     7
 10
-52.71645074517524
 20
7.322374956297416
 30
0.0
 11
-53.32466814065216
 21
7.322374956297416
 31
0.0
  0
ARC
  5
57D
  8
0
  6
CONTINUOUS
 62
     7
 10
-53.32466814065216
 20
8.322374956297416
 30
0.0
 40
1.0
 50
172.7504905314999
 51
270.0
  0
LINE
  5
57E
  8
0
  6
CONTINUOUS
 62
     7
 10
-11.66041487720216
 20
7.322374956297413
 30
0.0
 11
-12.26863227262906
 21
7.322374956297413
 31
0.0
  0
ARC
  5
57F
  8
0
  6
CONTINUOUS
 62
     7
 10
-11.66041487720216
 20
8.322374956297413
 30
0.0
 40
1.0
 50
270.0
 51
7.249509468500106
  0
LINE
  5
580
  8
0
  6
CONTINUOUS
 62
     7
 10
-43.78977568370216
 20
7.322374956297416
 30
0.0
 11
-45.26863227262907
 21
7.322374956297416
 31
0.0
  0
LINE
  5
581
  8
0
  6
CONTINUOUS
 62
     7
 10
-19.71645074517524
 20
7.322374956297413
 30
0.0
 11
-21.19530733415216
 21
7.322374956297413
 31
0.0
  0
ARC
  5
582
  8
0
  6
CONTINUOUS
 62
     7
 10
-21.19530733415216
 20
7.822374956297413
 30
0.0
 40
0.5
 50
190.7752233024003
 51
270.0
  0
ARC
  5
583
  8
0
  6
CONTINUOUS
 62
     7
 10
-43.78977568370216
 20
7.822374956297416
 30
0.0
 40
0.5
 50
270.0
 51
349.2247766975997
  0
ARC
  5
584
  8
0
  6
CONTINUOUS
 62
     7
 10
-21.19530733415216
 20
3.522374956297416
 30
0.0
 40
0.5
 50
90.0
 51
169.2247766975997
  0
LINE
  5
585
  8
0
  6
CONTINUOUS
 62
     7
 10
-45.26863227262907
 20
4.022374956297419
 30
0.0
 11
-43.78977568370216
 21
4.022374956297419
 31
0.0
  0
LINE
  5
586
  8
0
  6
CONTINUOUS
 62
     7
 10
-12.26863227262906
 20
4.022374956297416
 30
0.0
 11
-11.66041487720216
 21
4.022374956297416
 31
0.0
  0
LINE
  5
587
  8
0
  6
CONTINUOUS
 62
     7
 10
-53.32466814065216
 20
4.022374956297419
 30
0.0
 11
-52.71645074517524
 21
4.022374956297419
 31
0.0
  0
LINE
  5
588
  8
0
  6
CONTINUOUS
 62
     7
 10
-21.19530733415216
 20
4.022374956297416
 30
0.0
 11
-19.71645074517524
 21
4.022374956297416
 31
0.0
  0
ARC
  5
589
  8
0
  6
CONTINUOUS
 62
     7
 10
-43.78977568370216
 20
3.522374956297419
 30
0.0
 40
0.5
 50
10.77522330240033
 51
90.0
  0
ARC
  5
58A
  8
0
  6
CONTINUOUS
 62
     7
 10
-11.66041487720216
 20
3.022374956297416
 30
0.0
 40
1.0
 50
352.7504905314999
 51
90.0
  0
ARC
  5
58B
  8
0
  6
CONTINUOUS
 62
     7
 10
-53.32466814065216
 20
3.022374956297419
 30
0.0
 40
1.0
 50
90.0
 51
187.2495094685001
  0
LINE
  5
58C
  8
0
  6
CONTINUOUS
 62
     7
 10
-42.29297613090215
 20
-12.04411400795258
 30
0.0
 11
-36.37291261995216
 21
-14.19884091090258
 31
0.0
  0
LINE
  5
58D
  8
0
  6
CONTINUOUS
 62
     7
 10
-36.37291261995216
 20
-14.19884091090258
 30
0.0
 11
-33.13717328625216
 21
-5.308720156302586
 31
0.0
  0
LINE
  5
58E
  8
0
  6
CONTINUOUS
 62
     7
 10
-31.84790973160216
 20
-5.308720156302586
 30
0.0
 11
-28.61217039790216
 21
-14.19884091090258
 31
0.0
  0
LINE
  5
58F
  8
0
  6
CONTINUOUS
 62
     7
 10
-28.61217039790216
 20
-14.19884091090258
 30
0.0
 11
-22.69210688695216
 21
-12.04411400795258
 31
0.0
  0
LINE
  5
590
  8
0
  6
CONTINUOUS
 62
     7
 10
-22.69210688695216
 20
-12.04411400795258
 30
0.0
 11
-25.68424264980216
 21
-3.823288563552584
 31
0.0
  0
ARC
  5
591
  8
0
  6
CONTINUOUS
 62
     7
 10
-25.31061180645216
 20
-3.687298057952585
 30
0.0
 40
0.3976096386
 50
54.99999999999974
 51
199.9999999999999
  0
LINE
  5
592
  8
0
  6
CONTINUOUS
 62
     7
 10
-25.08255228685215
 20
-3.361595309652589
 30
0.0
 11
-17.91626639765215
 21
-8.379482710252585
 31
0.0
  0
LINE
  5
593
  8
0
  6
CONTINUOUS
 62
     7
 10
-17.91626639765215
 20
-8.379482710252585
 30
0.0
 11
-14.30273484865216
 21
-3.218824831252586
 31
0.0
  0
LINE
  5
594
  8
0
  6
CONTINUOUS
 62
     7
 10
-50.68234816920216
 20
-3.218824831252583
 30
0.0
 11
-47.06881662020216
 21
-8.379482710252582
 31
0.0
  0
LINE
  5
595
  8
0
  6
CONTINUOUS
 62
     7
 10
-47.06881662020216
 20
-8.379482710252582
 30
0.0
 11
-39.90253073100216
 21
-3.361595309652587
 31
0.0
  0
ARC
  5
596
  8
0
  6
CONTINUOUS
 62
     7
 10
-39.67447121140216
 20
-3.687298057952583
 30
0.0
 40
0.3976096386
 50
340.0000000000001
 51
125.0000000000007
  0
LINE
  5
597
  8
0
  6
CONTINUOUS
 62
     7
 10
-39.30084036805215
 20
-3.823288563552582
 30
0.0
 11
-42.29297613090215
 21
-12.04411400795258
 31
0.0
  0
ARC
  5
598
  8
0
  6
CONTINUOUS
 62
     7
 10
-32.49254150890215
 20
5.672374956297414
 30
0.0
 40
11.0
 50
266.6403769358
 51
273.3596230642
  0
LINE
  5
599
  8
0
  6
CONTINUOUS
 62
     7
 10
-43.35927331765216
 20
1.908847382697417
 30
0.0
 11
-50.68234816920216
 21
-3.218824831252583
 31
0.0
  0
LINE
  5
59A
  8
0
  6
CONTINUOUS
 62
     7
 10
-14.30273484865216
 20
-3.218824831252586
 30
0.0
 11
-21.62580970020215
 21
1.908847382697413
 31
0.0
  0
LINE
  5
59B
  8
0
  6
CONTINUOUS
 62
     7
 10
-21.34349117385216
 20
10.67124249064741
 30
0.0
 11
-22.31857111565216
 21
12.06380096589742
 31
0.0
  0
LINE
  5
59C
  8
0
  6
CONTINUOUS
 62
     7
 10
-23.00686283925216
 20
13.04678341904741
 30
0.0
 11
-23.98194278105215
 21
14.43934189434741
 31
0.0
  0
LINE
  5
59D
  8
0
  6
CONTINUOUS
 62
     7
 10
-14.79027481955215
 20
15.25985398144742
 30
0.0
 11
-15.52751165940217
 21
14.74363518869741
 31
0.0
  0
LINE
  5
59E
  8
0
  6
CONTINUOUS
 62
     7
 10
-20.60625433400216
 20
11.18746128334741
 30
0.0
 11
-21.34349117385216
 21
10.67124249064741
 31
0.0
  0
LINE
  5
59F
  8
0
  6
CONTINUOUS
 62
     7
 10
-23.98194278105215
 20
14.43934189434741
 30
0.0
 11
-23.24470594120216
 21
14.95556068709741
 31
0.0
  0
LINE
  5
5A0
  8
0
  6
CONTINUOUS
 62
     7
 10
-18.16596326660216
 20
18.51173459244741
 30
0.0
 11
-17.42872642675215
 21
19.02795338514741
 31
0.0
  0
ARC
  5
5A1
  8
0
  6
CONTINUOUS
 62
     7
 10
-32.49254150890215
 20
5.672374956297414
 30
0.0
 40
11.0
 50
38.12677611359997
 51
51.64037693579998
  0
ARC
  5
5A2
  8
0
  6
CONTINUOUS
 62
     7
 10
-32.49254150890215
 20
5.672374956297414
 30
0.0
 40
11.0
 50
18.35962306419999
 51
31.8732238864
  0
LINE
  5
5A3
  8
0
  6
CONTINUOUS
 62
     7
 10
-43.64159184400216
 20
10.67124249064742
 30
0.0
 11
-44.37882868385216
 21
11.18746128334742
 31
0.0
  0
LINE
  5
5A4
  8
0
  6
CONTINUOUS
 62
     7
 10
-49.45757135845216
 20
14.74363518869742
 30
0.0
 11
-50.19480819830216
 21
15.25985398144742
 31
0.0
  0
LINE
  5
5A5
  8
0
  6
CONTINUOUS
 62
     7
 10
-41.00314023680215
 20
14.43934189434741
 30
0.0
 11
-41.97822017860216
 21
13.04678341904742
 31
0.0
  0
LINE
  5
5A6
  8
0
  6
CONTINUOUS
 62
     7
 10
-42.66651190220216
 20
12.06380096589742
 30
0.0
 11
-43.64159184400216
 21
10.67124249064742
 31
0.0
  0
LINE
  5
5A7
  8
0
  6
CONTINUOUS
 62
     7
 10
-47.55635659110215
 20
19.02795338514742
 30
0.0
 11
-46.81911975125215
 21
18.51173459244742
 31
0.0
  0
LINE
  5
5A8
  8
0
  6
CONTINUOUS
 62
     7
 10
-41.74037707665215
 20
14.95556068709742
 30
0.0
 11
-41.00314023680215
 21
14.43934189434741
 31
0.0
  0
ARC
  5
5A9
  8
0
  6
CONTINUOUS
 62
     7
 10
-32.49254150890215
 20
5.672374956297414
 30
0.0
 40
11.0
 50
148.1267761136
 51
161.6403769358
  0
ARC
  5
5AA
  8
0
  6
CONTINUOUS
 62
     7
 10
-32.49254150890215
 20
5.672374956297414
 30
0.0
 40
11.0
 50
128.3596230642
 51
141.8732238864
  0
LINE
  5
5AB
  8
0
  6
CONTINUOUS
 62
     7
 10
-21.34349117385216
 20
0.6735074219474164
 30
0.0
 11
-20.60625433400216
 21
0.1572886291974136
 31
0.0
  0
LINE
  5
5AC
  8
0
  6
CONTINUOUS
 62
     7
 10
-15.52751165940217
 20
-3.398885276152587
 30
0.0
 11
-14.79027481955215
 21
-3.915104068852589
 31
0.0
  0
LINE
  5
5AD
  8
0
  6
CONTINUOUS
 62
     7
 10
-23.98194278105215
 20
-3.094591981802584
 30
0.0
 11
-21.34349117385216
 21
0.6735074219474164
 31
0.0
  0
LINE
  5
5AE
  8
0
  6
CONTINUOUS
 62
     7
 10
-17.42872642675215
 20
-7.683203472602582
 30
0.0
 11
-18.16596326660216
 21
-7.16698467990258
 31
0.0
  0
LINE
  5
5AF
  8
0
  6
CONTINUOUS
 62
     7
 10
-23.24470594120216
 20
-3.610810774502585
 30
0.0
 11
-23.98194278105215
 21
-3.094591981802584
 31
0.0
  0
LINE
  5
5B0
  8
0
  6
CONTINUOUS
 62
     7
 10
-26.22700676120216
 20
-4.817290163502587
 30
0.0
 11
-25.91918863220215
 21
-5.663013522202585
 31
0.0
  0
LINE
  5
5B1
  8
0
  6
CONTINUOUS
 62
     7
 10
-23.79866374360216
 20
-11.48910777110259
 30
0.0
 11
-23.49084561460216
 21
-12.33483112980259
 31
0.0
  0
LINE
  5
5B2
  8
0
  6
CONTINUOUS
 62
     7
 10
-30.54959281680216
 20
-6.390582822802587
 30
0.0
 11
-26.22700676120216
 21
-4.817290163502587
 31
0.0
  0
LINE
  5
5B3
  8
0
  6
CONTINUOUS
 62
     7
 10
-27.81343167020216
 20
-13.90812378910258
 30
0.0
 11
-28.12124979920216
 21
-13.06240043040258
 31
0.0
  0
LINE
  5
5B4
  8
0
  6
CONTINUOUS
 62
     7
 10
-30.24177468785216
 20
-7.236306181502579
 30
0.0
 11
-30.54959281680216
 21
-6.390582822802587
 31
0.0
  0
ARC
  5
5B5
  8
0
  6
CONTINUOUS
 62
     7
 10
-32.49254150890215
 20
5.672374956297414
 30
0.0
 40
11.0
 50
273.3596230642
 51
341.6403769358
  0
LINE
  5
5B6
  8
0
  6
CONTINUOUS
 62
     7
 10
-43.64159184400216
 20
0.67350742194742
 30
0.0
 11
-41.00314023680215
 21
-3.09459198180258
 31
0.0
  0
LINE
  5
5B7
  8
0
  6
CONTINUOUS
 62
     7
 10
-50.19480819830216
 20
-3.915104068852585
 30
0.0
 11
-49.45757135845216
 21
-3.398885276152583
 31
0.0
  0
LINE
  5
5B8
  8
0
  6
CONTINUOUS
 62
     7
 10
-44.37882868385216
 20
0.1572886291974172
 30
0.0
 11
-43.64159184400216
 21
0.67350742194742
 31
0.0
  0
LINE
  5
5B9
  8
0
  6
CONTINUOUS
 62
     7
 10
-34.43549020100215
 20
-6.390582822802587
 30
0.0
 11
-34.74330833000215
 21
-7.236306181502579
 31
0.0
  0
LINE
  5
5BA
  8
0
  6
CONTINUOUS
 62
     7
 10
-36.86383321865216
 20
-13.06240043040258
 30
0.0
 11
-37.17165134765216
 21
-13.90812378910258
 31
0.0
  0
LINE
  5
5BB
  8
0
  6
CONTINUOUS
 62
     7
 10
-38.75807625665216
 20
-4.817290163502586
 30
0.0
 11
-34.43549020100215
 21
-6.390582822802587
 31
0.0
  0
LINE
  5
5BC
  8
0
  6
CONTINUOUS
 62
     7
 10
-41.49423740325216
 20
-12.33483112980259
 30
0.0
 11
-41.18641927425216
 21
-11.48910777110259
 31
0.0
  0
LINE
  5
5BD
  8
0
  6
CONTINUOUS
 62
     7
 10
-39.06589438565216
 20
-5.663013522202584
 30
0.0
 11
-38.75807625665216
 21
-4.817290163502586
 31
0.0
  0
LINE
  5
5BE
  8
0
  6
CONTINUOUS
 62
     7
 10
-41.00314023680215
 20
-3.09459198180258
 30
0.0
 11
-41.74037707665215
 21
-3.610810774502582
 31
0.0
  0
LINE
  5
5BF
  8
0
  6
CONTINUOUS
 62
     7
 10
-46.81911975125216
 20
-7.166984679902576
 30
0.0
 11
-47.55635659110216
 21
-7.683203472602578
 31
0.0
  0
ARC
  5
5C0
  8
0
  6
CONTINUOUS
 62
     7
 10
-32.49254150890215
 20
5.672374956297414
 30
0.0
 40
11.0
 50
198.3596230642
 51
266.6403769358
  0
LINE
  5
5C1
  8
0
  6
CONTINUOUS
 62
     7
 10
-49.21972825650215
 20
16.65241245674742
 30
0.0
 11
-49.13781305210215
 21
16.59505481309742
 31
0.0
  0
LINE
  5
5C2
  8
0
  6
CONTINUOUS
 62
     7
 10
-48.44952132845215
 20
17.57803726624742
 30
0.0
 11
-48.53143653290215
 21
17.63539490989742
 31
0.0
  0
LINE
  5
5C3
  8
0
  6
CONTINUOUS
 62
     7
 10
-15.84726996575216
 20
16.59505481309742
 30
0.0
 11
-15.76535476135216
 21
16.65241245674742
 31
0.0
  0
LINE
  5
5C4
  8
0
  6
CONTINUOUS
 62
     7
 10
-16.45364648495216
 20
17.63539490989742
 30
0.0
 11
-16.53556168940216
 21
17.57803726624742
 31
0.0
  0
LINE
  5
5C5
  8
0
  6
CONTINUOUS
 62
     7
 10
-16.53556168940216
 20
-6.233287353702583
 30
0.0
 11
-16.45364648495216
 21
-6.290644997302589
 31
0.0
  0
LINE
  5
5C6
  8
0
  6
CONTINUOUS
 62
     7
 10
-15.76535476135216
 20
-5.307662544152588
 30
0.0
 11
-15.84726996575216
 21
-5.250304900552589
 31
0.0
  0
LINE
  5
5C7
  8
0
  6
CONTINUOUS
 62
     7
 10
-48.53143653290216
 20
-6.290644997302586
 30
0.0
 11
-48.44952132845216
 21
-6.233287353702579
 31
0.0
  0
LINE
  5
5C8
  8
0
  6
CONTINUOUS
 62
     7
 10
-49.13781305210216
 20
-5.250304900552585
 30
0.0
 11
-49.21972825650216
 21
-5.307662544152585
 31
0.0
  0
LINE
  5
5C9
  8
0
  6
CONTINUOUS
 62
     7
 10
-39.86255793360215
 20
-12.82229611135258
 30
0.0
 11
-39.89675994790215
 21
-12.91626537345258
 31
0.0
  0
LINE
  5
5CA
  8
0
  6
CONTINUOUS
 62
     7
 10
-38.76912880295217
 20
-13.32668954545259
 30
0.0
 11
-38.73492678865216
 21
-13.23272028335259
 31
0.0
  0
LINE
  5
5CB
  8
0
  6
CONTINUOUS
 62
     7
 10
-25.08832306995215
 20
-12.91626537345259
 30
0.0
 11
-25.12252508425216
 21
-12.82229611135258
 31
0.0
  0
LINE
  5
5CC
  8
0
  6
CONTINUOUS
 62
     7
 10
-26.25015622920216
 20
-13.23272028335259
 30
0.0
 11
-26.21595421490215
 21
-13.32668954545259
 31
0.0
  0
CIRCLE
  5
5CD
  8
0
  6
CONTINUOUS
 62
     7
 10
-32.49254150890215
 20
5.672374956297414
 30
0.0
 40
3.0
  0
LINE
  5
5CE
  8
0
  6
CONTINUOUS
 62
     7
 10
-46.41761624580215
 20
19.08514102344742
 30
0.0
 11
-46.25378583695215
 21
18.97042573619742
 31
0.0
  0
LINE
  5
5CF
  8
0
  6
CONTINUOUS
 62
     7
 10
-41.50270398005216
 20
15.64368240534742
 30
0.0
 11
-41.33887357120216
 21
15.52896711809742
 31
0.0
  0
LINE
  5
5D0
  8
0
  6
CONTINUOUS
 62
     7
 10
-41.56830414575217
 20
15.20130630034742
 30
0.0
 11
-41.33887357120216
 21
15.52896711809742
 31
0.0
  0
LINE
  5
5D1
  8
0
  6
CONTINUOUS
 62
     7
 10
-44.78033218930216
 20
10.61405485234742
 30
0.0
 11
-44.55090161475216
 21
10.94171567004742
 31
0.0
  0
LINE
  5
5D2
  8
0
  6
CONTINUOUS
 62
     7
 10
-44.78033218930216
 20
10.61405485234742
 30
0.0
 11
-44.94416259815215
 21
10.72877013959742
 31
0.0
  0
LINE
  5
5D3
  8
0
  6
CONTINUOUS
 62
     7
 10
-49.69524445505215
 20
14.05551347044742
 30
0.0
 11
-49.85907486390216
 21
14.17022875769742
 31
0.0
  0
LINE
  5
5D4
  8
0
  6
CONTINUOUS
 62
     7
 10
-49.62964428935216
 20
14.49788957544742
 30
0.0
 11
-49.85907486390216
 21
14.17022875769742
 31
0.0
  0
LINE
  5
5D5
  8
0
  6
CONTINUOUS
 62
     7
 10
-46.41761624580215
 20
19.08514102344742
 30
0.0
 11
-46.64704682035215
 21
18.75748020574742
 31
0.0
  0
LINE
  5
5D6
  8
0
  6
CONTINUOUS
 62
     7
 10
-49.94082006300216
 20
15.44824195109742
 30
0.0
 11
-47.64651431755215
 21
18.72485012824742
 31
0.0
  0
LINE
  5
5D7
  8
0
  6
CONTINUOUS
 62
     7
 10
-47.64651431755215
 20
18.72485012824742
 30
0.0
 11
-46.99119268215215
 21
18.26598897914742
 31
0.0
  0
LINE
  5
5D8
  8
0
  6
CONTINUOUS
 62
     7
 10
-49.28549842755216
 20
14.98938080199742
 30
0.0
 11
-49.94082006300216
 21
15.44824195109742
 31
0.0
  0
LINE
  5
5D9
  8
0
  6
CONTINUOUS
 62
     7
 10
-41.25712837210216
 20
14.25095392469742
 30
0.0
 11
-42.06013538300215
 21
13.10414106269742
 31
0.0
  0
LINE
  5
5DA
  8
0
  6
CONTINUOUS
 62
     7
 10
-42.74842710665216
 20
12.12115860954741
 30
0.0
 11
-43.55143411750215
 21
10.97434574754742
 31
0.0
  0
LINE
  5
5DB
  8
0
  6
CONTINUOUS
 62
     7
 10
-43.55143411750215
 20
10.97434574754742
 30
0.0
 11
-44.20675575295216
 21
11.43320689664742
 31
0.0
  0
LINE
  5
5DC
  8
0
  6
CONTINUOUS
 62
     7
 10
-41.91245000755217
 20
14.70981507379742
 30
0.0
 11
-41.25712837210216
 21
14.25095392469742
 31
0.0
  0
LINE
  5
5DD
  8
0
  6
CONTINUOUS
 62
     7
 10
-41.08505544120216
 20
14.49669953799742
 30
0.0
 11
-41.25712837210216
 21
14.25095392469742
 31
0.0
  0
LINE
  5
5DE
  8
0
  6
CONTINUOUS
 62
     7
 10
-47.64651431755215
 20
18.72485012824742
 30
0.0
 11
-47.47444138665215
 21
18.97059574154742
 31
0.0
  0
LINE
  5
5DF
  8
0
  6
CONTINUOUS
 62
     7
 10
-50.11289299390216
 20
15.20249633779742
 30
0.0
 11
-49.94082006300216
 21
15.44824195109742
 31
0.0
  0
LINE
  5
5E0
  8
0
  6
CONTINUOUS
 62
     7
 10
-43.55143411750215
 20
10.97434574754742
 30
0.0
 11
-43.72350704845216
 21
10.72860013424742
 31
0.0
  0
LINE
  5
5E1
  8
0
  6
CONTINUOUS
 62
     7
 10
-15.12600815395216
 20
14.17022875769741
 30
0.0
 11
-15.28983856280216
 21
14.05551347044741
 31
0.0
  0
LINE
  5
5E2
  8
0
  6
CONTINUOUS
 62
     7
 10
-20.04092041970216
 20
10.72877013959741
 30
0.0
 11
-20.20475082855216
 21
10.61405485234741
 31
0.0
  0
LINE
  5
5E3
  8
0
  6
CONTINUOUS
 62
     7
 10
-20.43418140310216
 20
10.94171567004741
 30
0.0
 11
-20.20475082855216
 21
10.61405485234741
 31
0.0
  0
LINE
  5
5E4
  8
0
  6
CONTINUOUS
 62
     7
 10
-23.64620944665216
 20
15.52896711809742
 30
0.0
 11
-23.41677887210216
 21
15.20130630034742
 31
0.0
  0
LINE
  5
5E5
  8
0
  6
CONTINUOUS
 62
     7
 10
-23.64620944665216
 20
15.52896711809742
 30
0.0
 11
-23.48237903780216
 21
15.64368240534742
 31
0.0
  0
LINE
  5
5E6
  8
0
  6
CONTINUOUS
 62
     7
 10
-18.73129718090216
 20
18.97042573619741
 30
0.0
 11
-18.56746677205216
 21
19.08514102344741
 31
0.0
  0
LINE
  5
5E7
  8
0
  6
CONTINUOUS
 62
     7
 10
-18.33803619750216
 20
18.75748020574742
 30
0.0
 11
-18.56746677205216
 21
19.08514102344741
 31
0.0
  0
LINE
  5
5E8
  8
0
  6
CONTINUOUS
 62
     7
 10
-15.12600815395216
 20
14.17022875769741
 30
0.0
 11
-15.35543872850215
 21
14.49788957544741
 31
0.0
  0
LINE
  5
5E9
  8
0
  6
CONTINUOUS
 62
     7
 10
-17.33856870030216
 20
18.72485012824741
 30
0.0
 11
-15.04426295485216
 21
15.44824195109741
 31
0.0
  0
LINE
  5
5EA
  8
0
  6
CONTINUOUS
 62
     7
 10
-15.04426295485216
 20
15.44824195109741
 30
0.0
 11
-15.69958459030215
 21
14.98938080199742
 31
0.0
  0
LINE
  5
5EB
  8
0
  6
CONTINUOUS
 62
     7
 10
-17.99389033570216
 20
18.26598897914741
 30
0.0
 11
-17.33856870030216
 21
18.72485012824741
 31
0.0
  0
LINE
  5
5EC
  8
0
  6
CONTINUOUS
 62
     7
 10
-21.43364890035215
 20
10.97434574754741
 30
0.0
 11
-22.23665591120215
 21
12.12115860954741
 31
0.0
  0
LINE
  5
5ED
  8
0
  6
CONTINUOUS
 62
     7
 10
-22.92494763485216
 20
13.10414106269741
 30
0.0
 11
-23.72795464575216
 21
14.25095392469742
 31
0.0
  0
LINE
  5
5EE
  8
0
  6
CONTINUOUS
 62
     7
 10
-23.72795464575216
 20
14.25095392469742
 30
0.0
 11
-23.07263301030216
 21
14.70981507379741
 31
0.0
  0
LINE
  5
5EF
  8
0
  6
CONTINUOUS
 62
     7
 10
-20.77832726490216
 20
11.43320689664742
 30
0.0
 11
-21.43364890035215
 21
10.97434574754741
 31
0.0
  0
LINE
  5
5F0
  8
0
  6
CONTINUOUS
 62
     7
 10
-17.51064163120216
 20
18.97059574154741
 30
0.0
 11
-17.33856870030216
 21
18.72485012824741
 31
0.0
  0
LINE
  5
5F1
  8
0
  6
CONTINUOUS
 62
     7
 10
-21.26157596940216
 20
10.72860013424741
 30
0.0
 11
-21.43364890035215
 21
10.97434574754741
 31
0.0
  0
LINE
  5
5F2
  8
0
  6
CONTINUOUS
 62
     7
 10
-15.04426295485216
 20
15.44824195109741
 30
0.0
 11
-14.87219002395216
 21
15.20249633779742
 31
0.0
  0
LINE
  5
5F3
  8
0
  6
CONTINUOUS
 62
     7
 10
-23.72795464575216
 20
14.25095392469742
 30
0.0
 11
-23.90002757665215
 21
14.49669953799741
 31
0.0
  0
LINE
  5
5F4
  8
0
  6
CONTINUOUS
 62
     7
 10
-47.64651431755216
 20
-7.380100215702576
 30
0.0
 11
-49.94082006300216
 21
-4.103492038552581
 31
0.0
  0
LINE
  5
5F5
  8
0
  6
CONTINUOUS
 62
     7
 10
-49.94082006300216
 20
-4.103492038552581
 30
0.0
 11
-49.28549842755216
 21
-3.644630889452586
 31
0.0
  0
LINE
  5
5F6
  8
0
  6
CONTINUOUS
 62
     7
 10
-46.99119268215216
 20
-6.921239066602588
 30
0.0
 11
-47.64651431755216
 21
-7.380100215702576
 31
0.0
  0
LINE
  5
5F7
  8
0
  6
CONTINUOUS
 62
     7
 10
-43.55143411750215
 20
0.3704041649974172
 30
0.0
 11
-41.25712837210216
 21
-2.906204012152585
 31
0.0
  0
LINE
  5
5F8
  8
0
  6
CONTINUOUS
 62
     7
 10
-41.25712837210216
 20
-2.906204012152585
 30
0.0
 11
-41.91245000755217
 21
-3.36506516120258
 31
0.0
  0
LINE
  5
5F9
  8
0
  6
CONTINUOUS
 62
     7
 10
-44.20675575295216
 20
-0.0884569840525842
 30
0.0
 11
-43.55143411750215
 21
0.3704041649974172
 31
0.0
  0
LINE
  5
5FA
  8
0
  6
CONTINUOUS
 62
     7
 10
-43.72350704845216
 20
0.6161497782974195
 30
0.0
 11
-43.55143411750215
 21
0.3704041649974172
 31
0.0
  0
LINE
  5
5FB
  8
0
  6
CONTINUOUS
 62
     7
 10
-41.25712837210216
 20
-2.906204012152585
 30
0.0
 11
-41.08505544120216
 21
-3.151949625452581
 31
0.0
  0
LINE
  5
5FC
  8
0
  6
CONTINUOUS
 62
     7
 10
-49.94082006300216
 20
-4.103492038552581
 30
0.0
 11
-50.11289299390216
 21
-3.857746425252586
 31
0.0
  0
LINE
  5
5FD
  8
0
  6
CONTINUOUS
 62
     7
 10
-47.47444138665216
 20
-7.625845828952585
 30
0.0
 11
-47.64651431755216
 21
-7.380100215702576
 31
0.0
  0
LINE
  5
5FE
  8
0
  6
CONTINUOUS
 62
     7
 10
-38.51037048475216
 20
-5.013865468602583
 30
0.0
 11
-34.75160000160216
 21
-6.381946041902582
 31
0.0
  0
LINE
  5
5FF
  8
0
  6
CONTINUOUS
 62
     7
 10
-34.75160000160216
 20
-6.381946041902582
 30
0.0
 11
-35.02521611625215
 21
-7.133700138502585
 31
0.0
  0
LINE
  5
600
  8
0
  6
CONTINUOUS
 62
     7
 10
-38.78398659940216
 20
-5.765619565202585
 30
0.0
 11
-38.51037048475216
 21
-5.013865468602583
 31
0.0
  0
LINE
  5
601
  8
0
  6
CONTINUOUS
 62
     7
 10
-37.41935711955216
 20
-13.71154848400259
 30
0.0
 11
-41.17812760270215
 21
-12.34346791070258
 31
0.0
  0
LINE
  5
602
  8
0
  6
CONTINUOUS
 62
     7
 10
-41.17812760270215
 20
-12.34346791070258
 30
0.0
 11
-40.90451148800216
 21
-11.59171381410258
 31
0.0
  0
LINE
  5
603
  8
0
  6
CONTINUOUS
 62
     7
 10
-37.14574100485216
 20
-12.95979438740259
 30
0.0
 11
-37.41935711955216
 21
-13.71154848400259
 31
0.0
  0
LINE
  5
604
  8
0
  6
CONTINUOUS
 62
     7
 10
-38.79227827095215
 20
-4.911259425602582
 30
0.0
 11
-38.51037048475216
 21
-5.013865468602583
 31
0.0
  0
LINE
  5
605
  8
0
  6
CONTINUOUS
 62
     7
 10
-34.75160000160216
 20
-6.381946041902582
 30
0.0
 11
-34.46969221535215
 21
-6.484552084902584
 31
0.0
  0
LINE
  5
606
  8
0
  6
CONTINUOUS
 62
     7
 10
-41.17812760270215
 20
-12.34346791070258
 30
0.0
 11
-41.46003538890216
 21
-12.24086186770258
 31
0.0
  0
LINE
  5
607
  8
0
  6
CONTINUOUS
 62
     7
 10
-37.13744933330216
 20
-13.81415452700258
 30
0.0
 11
-37.41935711955216
 21
-13.71154848400259
 31
0.0
  0
LINE
  5
608
  8
0
  6
CONTINUOUS
 62
     7
 10
-30.23348301625217
 20
-6.381946041902582
 30
0.0
 11
-26.47471253310215
 21
-5.013865468602583
 31
0.0
  0
LINE
  5
609
  8
0
  6
CONTINUOUS
 62
     7
 10
-26.47471253310215
 20
-5.013865468602583
 30
0.0
 11
-26.20109641845215
 21
-5.765619565202587
 31
0.0
  0
LINE
  5
60A
  8
0
  6
CONTINUOUS
 62
     7
 10
-29.95986690160215
 20
-7.133700138502586
 30
0.0
 11
-30.23348301625217
 21
-6.381946041902582
 31
0.0
  0
LINE
  5
60B
  8
0
  6
CONTINUOUS
 62
     7
 10
-23.80695541515216
 20
-12.34346791070258
 30
0.0
 11
-27.56572589830216
 21
-13.71154848400259
 31
0.0
  0
LINE
  5
60C
  8
0
  6
CONTINUOUS
 62
     7
 10
-27.56572589830216
 20
-13.71154848400259
 30
0.0
 11
-27.83934201300215
 21
-12.95979438740259
 31
0.0
  0
LINE
  5
60D
  8
0
  6
CONTINUOUS
 62
     7
 10
-24.08057152985216
 20
-11.59171381410259
 30
0.0
 11
-23.80695541515216
 21
-12.34346791070258
 31
0.0
  0
LINE
  5
60E
  8
0
  6
CONTINUOUS
 62
     7
 10
-30.51539080250217
 20
-6.484552084902584
 30
0.0
 11
-30.23348301625217
 21
-6.381946041902582
 31
0.0
  0
LINE
  5
60F
  8
0
  6
CONTINUOUS
 62
     7
 10
-26.47471253310215
 20
-5.013865468602583
 30
0.0
 11
-26.19280474690215
 21
-4.911259425602584
 31
0.0
  0
LINE
  5
610
  8
0
  6
CONTINUOUS
 62
     7
 10
-23.52504762895217
 20
-12.24086186770259
 30
0.0
 11
-23.80695541515216
 21
-12.34346791070258
 31
0.0
  0
LINE
  5
611
  8
0
  6
CONTINUOUS
 62
     7
 10
-27.56572589830216
 20
-13.71154848400259
 30
0.0
 11
-27.84763368455216
 21
-13.81415452700258
 31
0.0
  0
LINE
  5
612
  8
0
  6
CONTINUOUS
 62
     7
 10
-15.04426295485216
 20
-4.103492038552584
 30
0.0
 11
-17.33856870030216
 21
-7.38010021570258
 31
0.0
  0
LINE
  5
613
  8
0
  6
CONTINUOUS
 62
     7
 10
-17.33856870030216
 20
-7.38010021570258
 30
0.0
 11
-17.99389033570216
 21
-6.921239066602592
 31
0.0
  0
LINE
  5
614
  8
0
  6
CONTINUOUS
 62
     7
 10
-15.69958459030215
 20
-3.644630889452589
 30
0.0
 11
-15.04426295485216
 21
-4.103492038552584
 31
0.0
  0
LINE
  5
615
  8
0
  6
CONTINUOUS
 62
     7
 10
-23.72795464575216
 20
-2.906204012152589
 30
0.0
 11
-21.43364890035215
 21
0.3704041649974137
 31
0.0
  0
LINE
  5
616
  8
0
  6
CONTINUOUS
 62
     7
 10
-21.43364890035215
 20
0.3704041649974137
 30
0.0
 11
-20.77832726490216
 21
-0.0884569840525877
 31
0.0
  0
LINE
  5
617
  8
0
  6
CONTINUOUS
 62
     7
 10
-23.07263301030216
 20
-3.365065161202583
 30
0.0
 11
-23.72795464575216
 21
-2.906204012152589
 31
0.0
  0
LINE
  5
618
  8
0
  6
CONTINUOUS
 62
     7
 10
-23.90002757665215
 20
-3.151949625452584
 30
0.0
 11
-23.72795464575216
 21
-2.906204012152589
 31
0.0
  0
LINE
  5
619
  8
0
  6
CONTINUOUS
 62
     7
 10
-21.43364890035215
 20
0.3704041649974137
 30
0.0
 11
-21.26157596940216
 21
0.6161497782974159
 31
0.0
  0
LINE
  5
61A
  8
0
  6
CONTINUOUS
 62
     7
 10
-14.87219002395216
 20
-3.857746425252589
 30
0.0
 11
-15.04426295485216
 21
-4.103492038552584
 31
0.0
  0
LINE
  5
61B
  8
0
  6
CONTINUOUS
 62
     7
 10
-17.33856870030216
 20
-7.38010021570258
 30
0.0
 11
-17.51064163120216
 21
-7.625845828952588
 31
0.0
  0
LINE
  5
61C
  8
0
  6
CONTINUOUS
 62
     7
 10
-24.09597804695215
 20
9.720550104297413
 30
0.0
 11
-25.81670735600215
 21
12.17800623714741
 31
0.0
  0
LINE
  5
61D
  8
0
  6
CONTINUOUS
 62
     7
 10
-25.16138572055216
 20
12.63686738624741
 30
0.0
 11
-25.81670735600215
 21
12.17800623714741
 31
0.0
  0
LINE
  5
61E
  8
0
  6
CONTINUOUS
 62
     7
 10
-23.44065641150216
 20
10.17941125334741
 30
0.0
 11
-25.16138572055216
 21
12.63686738624741
 31
0.0
  0
LINE
  5
61F
  8
0
  6
CONTINUOUS
 62
     7
 10
-23.44065641150216
 20
10.17941125334741
 30
0.0
 11
-24.09597804695215
 21
9.720550104297413
 31
0.0
  0
LINE
  5
620
  8
0
  6
CONTINUOUS
 62
     7
 10
-18.11589611505215
 20
11.95460921004741
 30
0.0
 11
-19.13164465000216
 21
11.24337442899742
 31
0.0
  0
LINE
  5
621
  8
0
  6
CONTINUOUS
 62
     7
 10
-20.85862796600216
 20
11.54788818284741
 30
0.0
 11
-19.13164465000216
 21
11.24337442899742
 31
0.0
  0
LINE
  5
622
  8
0
  6
CONTINUOUS
 62
     7
 10
-20.85862796600216
 20
11.54788818284741
 30
0.0
 11
-21.58133427580216
 21
12.58001975864741
 31
0.0
  0
LINE
  5
623
  8
0
  6
CONTINUOUS
 62
     7
 10
-22.26962599940217
 20
13.56300221179741
 30
0.0
 11
-22.99233230920215
 21
14.59513378759742
 31
0.0
  0
LINE
  5
624
  8
0
  6
CONTINUOUS
 62
     7
 10
-22.99233230920215
 20
14.59513378759742
 30
0.0
 11
-22.68781855535215
 21
16.32211710359742
 31
0.0
  0
LINE
  5
625
  8
0
  6
CONTINUOUS
 62
     7
 10
-21.67207002045215
 20
17.03335188464741
 30
0.0
 11
-22.68781855535215
 21
16.32211710359742
 31
0.0
  0
LINE
  5
626
  8
0
  6
CONTINUOUS
 62
     7
 10
-21.67207002045215
 20
17.03335188464741
 30
0.0
 11
-21.43070770300216
 21
16.68865077209741
 31
0.0
  0
LINE
  5
627
  8
0
  6
CONTINUOUS
 62
     7
 10
-18.11589611505215
 20
11.95460921004741
 30
0.0
 11
-18.35725843250216
 21
12.29931032259742
 31
0.0
  0
LINE
  5
628
  8
0
  6
CONTINUOUS
 62
     7
 10
-23.95687520420216
 20
10.91664809319741
 30
0.0
 11
-21.58133427580216
 21
12.58001975864741
 31
0.0
  0
LINE
  5
629
  8
0
  6
CONTINUOUS
 62
     7
 10
-24.64516692785216
 20
11.89963054634741
 30
0.0
 11
-22.26962599940217
 21
13.56300221179741
 31
0.0
  0
LINE
  5
62A
  8
0
  6
CONTINUOUS
 62
     7
 10
-20.65632148555216
 20
17.74458666574742
 30
0.0
 11
-19.64057295060215
 21
18.45582144679741
 31
0.0
  0
LINE
  5
62B
  8
0
  6
CONTINUOUS
 62
     7
 10
-17.91358963460216
 20
18.15130769294742
 30
0.0
 11
-19.64057295060215
 21
18.45582144679741
 31
0.0
  0
LINE
  5
62C
  8
0
  6
CONTINUOUS
 62
     7
 10
-17.91358963460216
 20
18.15130769294742
 30
0.0
 11
-17.20235485355215
 21
17.13555915804742
 31
0.0
  0
LINE
  5
62D
  8
0
  6
CONTINUOUS
 62
     7
 10
-17.54705596610216
 20
16.89419684059741
 30
0.0
 11
-17.20235485355215
 21
17.13555915804742
 31
0.0
  0
LINE
  5
62E
  8
0
  6
CONTINUOUS
 62
     7
 10
-20.65632148555216
 20
17.74458666574742
 30
0.0
 11
-20.41495916810216
 21
17.39988555319741
 31
0.0
  0
LINE
  5
62F
  8
0
  6
CONTINUOUS
 62
     7
 10
-19.64057295060215
 20
18.45582144679741
 30
0.0
 11
-19.03440043785216
 21
18.88026800969741
 31
0.0
  0
LINE
  5
630
  8
0
  6
CONTINUOUS
 62
     7
 10
-18.33803619750216
 20
18.75748020574742
 30
0.0
 11
-17.91358963460216
 21
18.15130769294742
 31
0.0
  0
LINE
  5
631
  8
0
  6
CONTINUOUS
 62
     7
 10
-22.68781855535215
 20
16.32211710359742
 30
0.0
 11
-23.29399106815215
 21
15.89767054069742
 31
0.0
  0
LINE
  5
632
  8
0
  6
CONTINUOUS
 62
     7
 10
-23.41677887210216
 20
15.20130630034742
 30
0.0
 11
-22.99233230920215
 21
14.59513378759742
 31
0.0
  0
LINE
  5
633
  8
0
  6
CONTINUOUS
 62
     7
 10
-15.77988529140215
 20
15.10406208819741
 30
0.0
 11
-16.08439904525216
 21
13.37707877219741
 31
0.0
  0
LINE
  5
634
  8
0
  6
CONTINUOUS
 62
     7
 10
-17.10014758015215
 20
12.66584399114742
 30
0.0
 11
-16.08439904525216
 21
13.37707877219741
 31
0.0
  0
LINE
  5
635
  8
0
  6
CONTINUOUS
 62
     7
 10
-17.10014758015215
 20
12.66584399114742
 30
0.0
 11
-17.34150989760215
 21
13.01054510369741
 31
0.0
  0
LINE
  5
636
  8
0
  6
CONTINUOUS
 62
     7
 10
-16.83582118500216
 20
15.87844830569741
 30
0.0
 11
-16.49112007245216
 21
16.11981062314741
 31
0.0
  0
LINE
  5
637
  8
0
  6
CONTINUOUS
 62
     7
 10
-15.77988529140215
 20
15.10406208819741
 30
0.0
 11
-16.49112007245216
 21
16.11981062314741
 31
0.0
  0
LINE
  5
638
  8
0
  6
CONTINUOUS
 62
     7
 10
-16.08439904525216
 20
13.37707877219741
 30
0.0
 11
-15.47822653245215
 21
13.80152533509741
 31
0.0
  0
LINE
  5
639
  8
0
  6
CONTINUOUS
 62
     7
 10
-15.35543872850215
 20
14.49788957544741
 30
0.0
 11
-15.77988529140215
 21
15.10406208819741
 31
0.0
  0
LINE
  5
63A
  8
0
  6
CONTINUOUS
 62
     7
 10
-19.13164465000216
 20
11.24337442899742
 30
0.0
 11
-19.73781716275215
 21
10.81892786609741
 31
0.0
  0
LINE
  5
63B
  8
0
  6
CONTINUOUS
 62
     7
 10
-20.43418140310216
 20
10.94171567004741
 30
0.0
 11
-20.85862796600216
 21
11.54788818284741
 31
0.0
  0
LINE
  5
63C
  8
0
  6
CONTINUOUS
 62
     7
 10
-21.67207002045215
 20
17.03335188464741
 30
0.0
 11
-20.65632148555216
 21
17.74458666574742
 31
0.0
  0
LINE
  5
63D
  8
0
  6
CONTINUOUS
 62
     7
 10
-16.49112007245216
 20
16.11981062314741
 30
0.0
 11
-17.20235485355215
 21
17.13555915804742
 31
0.0
  0
LINE
  5
63E
  8
0
  6
CONTINUOUS
 62
     7
 10
-18.11589611505215
 20
11.95460921004741
 30
0.0
 11
-17.10014758015215
 21
12.66584399114742
 31
0.0
  0
LINE
  5
63F
  8
0
  6
CONTINUOUS
 62
     7
 10
-39.16837566185217
 20
12.17800623714741
 30
0.0
 11
-40.88910497090217
 21
9.720550104297416
 31
0.0
  0
LINE
  5
640
  8
0
  6
CONTINUOUS
 62
     7
 10
-41.54442660635215
 20
10.17941125334742
 30
0.0
 11
-40.88910497090217
 21
9.720550104297416
 31
0.0
  0
LINE
  5
641
  8
0
  6
CONTINUOUS
 62
     7
 10
-39.82369729730216
 20
12.63686738624742
 30
0.0
 11
-41.54442660635215
 21
10.17941125334742
 31
0.0
  0
LINE
  5
642
  8
0
  6
CONTINUOUS
 62
     7
 10
-39.82369729730216
 20
12.63686738624742
 30
0.0
 11
-39.16837566185217
 21
12.17800623714741
 31
0.0
  0
LINE
  5
643
  8
0
  6
CONTINUOUS
 62
     7
 10
-43.31301299740215
 20
17.03335188464742
 30
0.0
 11
-42.29726446250215
 21
16.32211710359742
 31
0.0
  0
LINE
  5
644
  8
0
  6
CONTINUOUS
 62
     7
 10
-41.99275070865215
 20
14.59513378759742
 30
0.0
 11
-42.29726446250215
 21
16.32211710359742
 31
0.0
  0
LINE
  5
645
  8
0
  6
CONTINUOUS
 62
     7
 10
-41.99275070865215
 20
14.59513378759742
 30
0.0
 11
-42.71545701845216
 21
13.56300221179742
 31
0.0
  0
LINE
  5
646
  8
0
  6
CONTINUOUS
 62
     7
 10
-43.40374874205216
 20
12.58001975864742
 30
0.0
 11
-44.12645505185215
 21
11.54788818284742
 31
0.0
  0
LINE
  5
647
  8
0
  6
CONTINUOUS
 62
     7
 10
-44.12645505185215
 20
11.54788818284742
 30
0.0
 11
-45.85343836785216
 21
11.24337442899742
 31
0.0
  0
LINE
  5
648
  8
0
  6
CONTINUOUS
 62
     7
 10
-46.86918690280216
 20
11.95460921004742
 30
0.0
 11
-45.85343836785216
 21
11.24337442899742
 31
0.0
  0
LINE
  5
649
  8
0
  6
CONTINUOUS
 62
     7
 10
-46.86918690280216
 20
11.95460921004742
 30
0.0
 11
-46.62782458535216
 21
12.29931032259742
 31
0.0
  0
LINE
  5
64A
  8
0
  6
CONTINUOUS
 62
     7
 10
-43.31301299740215
 20
17.03335188464742
 30
0.0
 11
-43.55437531485215
 21
16.68865077209742
 31
0.0
  0
LINE
  5
64B
  8
0
  6
CONTINUOUS
 62
     7
 10
-40.33991609000216
 20
11.89963054634742
 30
0.0
 11
-42.71545701845216
 21
13.56300221179742
 31
0.0
  0
LINE
  5
64C
  8
0
  6
CONTINUOUS
 62
     7
 10
-41.02820781360217
 20
10.91664809319742
 30
0.0
 11
-43.40374874205216
 21
12.58001975864742
 31
0.0
  0
LINE
  5
64D
  8
0
  6
CONTINUOUS
 62
     7
 10
-45.34451006725215
 20
18.45582144679742
 30
0.0
 11
-45.95068258000215
 21
18.88026800969742
 31
0.0
  0
LINE
  5
64E
  8
0
  6
CONTINUOUS
 62
     7
 10
-46.64704682035215
 20
18.75748020574742
 30
0.0
 11
-47.07149338325215
 21
18.15130769294742
 31
0.0
  0
LINE
  5
64F
  8
0
  6
CONTINUOUS
 62
     7
 10
-47.07149338325215
 20
18.15130769294742
 30
0.0
 11
-45.34451006725215
 21
18.45582144679742
 31
0.0
  0
LINE
  5
650
  8
0
  6
CONTINUOUS
 62
     7
 10
-44.32876153230215
 20
17.74458666574742
 30
0.0
 11
-45.34451006725215
 21
18.45582144679742
 31
0.0
  0
LINE
  5
651
  8
0
  6
CONTINUOUS
 62
     7
 10
-44.32876153230215
 20
17.74458666574742
 30
0.0
 11
-44.57012384975215
 21
17.39988555319741
 31
0.0
  0
LINE
  5
652
  8
0
  6
CONTINUOUS
 62
     7
 10
-47.43802705175215
 20
16.89419684059742
 30
0.0
 11
-47.78272816430215
 21
17.13555915804742
 31
0.0
  0
LINE
  5
653
  8
0
  6
CONTINUOUS
 62
     7
 10
-47.07149338325215
 20
18.15130769294742
 30
0.0
 11
-47.78272816430215
 21
17.13555915804742
 31
0.0
  0
LINE
  5
654
  8
0
  6
CONTINUOUS
 62
     7
 10
-42.29726446250215
 20
16.32211710359742
 30
0.0
 11
-41.69109194970216
 21
15.89767054069742
 31
0.0
  0
LINE
  5
655
  8
0
  6
CONTINUOUS
 62
     7
 10
-41.56830414575217
 20
15.20130630034742
 30
0.0
 11
-41.99275070865215
 21
14.59513378759742
 31
0.0
  0
LINE
  5
656
  8
0
  6
CONTINUOUS
 62
     7
 10
-47.88493543770215
 20
12.66584399114742
 30
0.0
 11
-48.90068397260216
 21
13.37707877219741
 31
0.0
  0
LINE
  5
657
  8
0
  6
CONTINUOUS
 62
     7
 10
-49.20519772645216
 20
15.10406208819742
 30
0.0
 11
-48.90068397260216
 21
13.37707877219741
 31
0.0
  0
LINE
  5
658
  8
0
  6
CONTINUOUS
 62
     7
 10
-49.20519772645216
 20
15.10406208819742
 30
0.0
 11
-48.49396294540215
 21
16.11981062314742
 31
0.0
  0
LINE
  5
659
  8
0
  6
CONTINUOUS
 62
     7
 10
-48.14926183285215
 20
15.87844830569742
 30
0.0
 11
-48.49396294540215
 21
16.11981062314742
 31
0.0
  0
LINE
  5
65A
  8
0
  6
CONTINUOUS
 62
     7
 10
-47.88493543770215
 20
12.66584399114742
 30
0.0
 11
-47.64357312025216
 21
13.01054510369742
 31
0.0
  0
LINE
  5
65B
  8
0
  6
CONTINUOUS
 62
     7
 10
-48.90068397260216
 20
13.37707877219741
 30
0.0
 11
-49.50685648540216
 21
13.80152533509742
 31
0.0
  0
LINE
  5
65C
  8
0
  6
CONTINUOUS
 62
     7
 10
-49.62964428935216
 20
14.49788957544742
 30
0.0
 11
-49.20519772645216
 21
15.10406208819742
 31
0.0
  0
LINE
  5
65D
  8
0
  6
CONTINUOUS
 62
     7
 10
-45.85343836785216
 20
11.24337442899742
 30
0.0
 11
-45.24726585510216
 21
10.81892786609742
 31
0.0
  0
LINE
  5
65E
  8
0
  6
CONTINUOUS
 62
     7
 10
-44.55090161475216
 20
10.94171567004742
 30
0.0
 11
-44.12645505185215
 21
11.54788818284742
 31
0.0
  0
LINE
  5
65F
  8
0
  6
CONTINUOUS
 62
     7
 10
-43.31301299740215
 20
17.03335188464742
 30
0.0
 11
-44.32876153230215
 21
17.74458666574742
 31
0.0
  0
LINE
  5
660
  8
0
  6
CONTINUOUS
 62
     7
 10
-47.78272816430215
 20
17.13555915804742
 30
0.0
 11
-48.49396294540215
 21
16.11981062314742
 31
0.0
  0
LINE
  5
661
  8
0
  6
CONTINUOUS
 62
     7
 10
-46.86918690280216
 20
11.95460921004742
 30
0.0
 11
-47.88493543770215
 21
12.66584399114742
 31
0.0
  0
LINE
  5
662
  8
0
  6
CONTINUOUS
 62
     7
 10
-37.20282906155217
 20
-10.16403263665259
 30
0.0
 11
-36.27134970120215
 21
-10.50306339765259
 31
0.0
  0
LINE
  5
663
  8
0
  6
CONTINUOUS
 62
     7
 10
-39.99517784675216
 20
-9.147700795102587
 30
0.0
 11
-39.06369848640216
 21
-9.486731556152586
 31
0.0
  0
LINE
  5
664
  8
0
  6
CONTINUOUS
 62
     7
 10
-38.72689854270216
 20
-8.56138131595258
 30
0.0
 11
-39.65837790305216
 21
-8.222350554952577
 31
0.0
  0
LINE
  5
665
  8
0
  6
CONTINUOUS
 62
     7
 10
-35.93454975750215
 20
-9.577713157452587
 30
0.0
 11
-36.86602911785215
 21
-9.238682396452583
 31
0.0
  0
ARC
  5
666
  8
0
  6
CONTINUOUS
 62
     7
 10
-37.36848358070216
 20
-10.64164848845258
 30
0.0
 40
0.60719868195
 50
80.3760015599998
 51
149.6239984399994
  0
LINE
  5
667
  8
0
  6
CONTINUOUS
 62
     7
 10
-37.26697106170215
 20
-10.04299546050259
 30
0.0
 11
-37.25841530905215
 21
-10.05785868415259
 31
0.0
  0
ARC
  5
668
  8
0
  6
CONTINUOUS
 62
     7
 10
-37.36848358070216
 20
-10.64164848845258
 30
0.0
 40
0.59407538245
 50
79.32274034039976
 51
101.6957161507001
  0
LINE
  5
669
  8
0
  6
CONTINUOUS
 62
     7
 10
-37.20282906155217
 20
-10.16403263665259
 30
0.0
 11
-37.48891102585216
 21
-10.05990731705259
 31
0.0
  0
LINE
  5
66A
  8
0
  6
CONTINUOUS
 62
     7
 10
-38.93676166650215
 20
-9.435241382902584
 30
0.0
 11
-38.95286964930216
 21
-9.44112774095259
 31
0.0
  0
ARC
  5
66B
  8
0
  6
CONTINUOUS
 62
     7
 10
-39.24380531425216
 20
-9.959087197752588
 30
0.0
 40
0.60719868195
 50
350.3760015600006
 51
59.62399844000036
  0
LINE
  5
66C
  8
0
  6
CONTINUOUS
 62
     7
 10
-38.77761652210216
 20
-9.59085687570258
 30
0.0
 11
-39.06369848640216
 21
-9.486731556152586
 31
0.0
  0
ARC
  5
66D
  8
0
  6
CONTINUOUS
 62
     7
 10
-39.24380531425216
 20
-9.959087197752588
 30
0.0
 40
0.59407538245
 50
38.3042838493003
 51
60.67725965960012
  0
LINE
  5
66E
  8
0
  6
CONTINUOUS
 62
     7
 10
-36.99296593780215
 20
-9.290172569702586
 30
0.0
 11
-36.97685795500216
 21
-9.284286211602586
 31
0.0
  0
ARC
  5
66F
  8
0
  6
CONTINUOUS
 62
     7
 10
-36.68592229000217
 20
-8.76632675485258
 30
0.0
 40
0.60719868195
 50
170.3760015600006
 51
239.6239984400003
  0
LINE
  5
670
  8
0
  6
CONTINUOUS
 62
     7
 10
-37.15211108215216
 20
-9.13455707690259
 30
0.0
 11
-36.86602911785215
 21
-9.238682396452583
 31
0.0
  0
ARC
  5
671
  8
0
  6
CONTINUOUS
 62
     7
 10
-36.68592229000217
 20
-8.76632675485258
 30
0.0
 40
0.59407538245
 50
218.3042838493003
 51
240.6772596596001
  0
ARC
  5
672
  8
0
  6
CONTINUOUS
 62
     7
 10
-38.56124402360216
 20
-8.083765464152584
 30
0.0
 40
0.60719868195
 50
260.3760015599998
 51
329.6239984399994
  0
LINE
  5
673
  8
0
  6
CONTINUOUS
 62
     7
 10
-38.66275654255216
 20
-8.682418492102578
 30
0.0
 11
-38.67131229525216
 21
-8.667555268452581
 31
0.0
  0
ARC
  5
674
  8
0
  6
CONTINUOUS
 62
     7
 10
-38.56124402360216
 20
-8.083765464152584
 30
0.0
 40
0.59407538245
 50
259.3227403403997
 51
281.6957161507001
  0
LINE
  5
675
  8
0
  6
CONTINUOUS
 62
     7
 10
-38.72689854270216
 20
-8.56138131595258
 30
0.0
 11
-38.44081657840215
 21
-8.665506635502588
 31
0.0
  0
LINE
  5
676
  8
0
  6
CONTINUOUS
 62
     7
 10
-37.89232939555217
 20
-10.33460484065258
 30
0.0
 11
-38.09553774450217
 21
-11.13056507295259
 31
0.0
  0
LINE
  5
677
  8
0
  6
CONTINUOUS
 62
     7
 10
-38.03739820875217
 20
-8.390809111952585
 30
0.0
 11
-37.83418985980217
 21
-7.594848879652582
 31
0.0
  0
LINE
  5
678
  8
0
  6
CONTINUOUS
 62
     7
 10
-37.28457531795216
 20
-8.664814235852582
 30
0.0
 11
-36.92860856930216
 21
-7.924453514052582
 31
0.0
  0
LINE
  5
679
  8
0
  6
CONTINUOUS
 62
     7
 10
-38.64515228635216
 20
-10.06059971670258
 30
0.0
 11
-39.00111903495215
 21
-10.80096043850258
 31
0.0
  0
LINE
  5
67A
  8
0
  6
CONTINUOUS
 62
     7
 10
-37.28457531795216
 20
-8.664814235852582
 30
0.0
 11
-38.03739820875217
 21
-8.390809111952585
 31
0.0
  0
LINE
  5
67B
  8
0
  6
CONTINUOUS
 62
     7
 10
-38.64515228635216
 20
-10.06059971670258
 30
0.0
 11
-37.89232939555217
 21
-10.33460484065258
 31
0.0
  0
CIRCLE
  5
67C
  8
0
  6
CONTINUOUS
 62
     7
 10
-37.96486380215217
 20
-9.362706976302585
 30
0.0
 40
2.75
  0
ARC
  5
67D
  8
0
  6
CONTINUOUS
 62
     7
 10
-37.96486380215217
 20
-9.362706976302585
 30
0.0
 40
2.7369739972
 50
329.6363424350999
 51
350.3636575649001
  0
ARC
  5
67E
  8
0
  6
CONTINUOUS
 62
     7
 10
-37.96486380215217
 20
-9.362706976302585
 30
0.0
 40
2.7369739972
 50
149.6363424350999
 51
170.3636575649001
  0
LINE
  5
67F
  8
0
  6
CONTINUOUS
 62
     7
 10
-39.65837790305216
 20
-8.222350554952577
 30
0.0
 11
-40.32641931165216
 21
-7.979203367002577
 31
0.0
  0
LINE
  5
680
  8
0
  6
CONTINUOUS
 62
     7
 10
-35.26650834895216
 20
-9.820860345452582
 30
0.0
 11
-35.93454975750215
 21
-9.577713157452587
 31
0.0
  0
LINE
  5
681
  8
0
  6
CONTINUOUS
 62
     7
 10
-40.66321925530215
 20
-8.904553607152586
 30
0.0
 11
-39.99517784675216
 21
-9.147700795102587
 31
0.0
  0
LINE
  5
682
  8
0
  6
CONTINUOUS
 62
     7
 10
-36.27134970120215
 20
-10.50306339765259
 30
0.0
 11
-35.60330829265216
 21
-10.74621058560258
 31
0.0
  0
LINE
  5
683
  8
0
  6
CONTINUOUS
 62
     7
 10
-38.95286964930216
 20
-9.44112774095259
 30
0.0
 11
-38.67131229525216
 21
-8.667555268452581
 31
0.0
  0
LINE
  5
684
  8
0
  6
CONTINUOUS
 62
     7
 10
-38.66275654255216
 20
-8.682418492102578
 30
0.0
 11
-38.93676166650215
 21
-9.435241382902584
 31
0.0
  0
LINE
  5
685
  8
0
  6
CONTINUOUS
 62
     7
 10
-36.97685795500216
 20
-9.284286211602586
 30
0.0
 11
-37.25841530905215
 21
-10.05785868415259
 31
0.0
  0
LINE
  5
686
  8
0
  6
CONTINUOUS
 62
     7
 10
-37.26697106170215
 20
-10.04299546050259
 30
0.0
 11
-36.99296593780215
 21
-9.290172569702586
 31
0.0
  0
LINE
  5
687
  8
0
  6
CONTINUOUS
 62
     7
 10
-45.43437341860216
 20
-4.598340749002581
 30
0.0
 11
-44.86581025205216
 21
-5.410333102002582
 31
0.0
  0
LINE
  5
688
  8
0
  6
CONTINUOUS
 62
     7
 10
-47.13878763855216
 20
-2.164184978102583
 30
0.0
 11
-46.57022447205216
 21
-2.976177331102583
 31
0.0
  0
LINE
  5
689
  8
0
  6
CONTINUOUS
 62
     7
 10
-45.76357501650216
 20
-2.411355301652584
 30
0.0
 11
-46.33213818305216
 21
-1.599362948652583
 31
0.0
  0
LINE
  5
68A
  8
0
  6
CONTINUOUS
 62
     7
 10
-44.05916079655216
 20
-4.845511072552583
 30
0.0
 11
-44.62772396305215
 21
-4.033518719552582
 31
0.0
  0
ARC
  5
68B
  8
0
  6
CONTINUOUS
 62
     7
 10
-45.84401885480216
 20
-4.894565221652584
 30
0.0
 40
0.60719868195
 50
45.37600155999999
 51
114.6239984400001
  0
LINE
  5
68C
  8
0
  6
CONTINUOUS
 62
     7
 10
-45.41749139700216
 20
-4.462402558902582
 30
0.0
 11
-45.41900812955216
 21
-4.479485177052581
 31
0.0
  0
ARC
  5
68D
  8
0
  6
CONTINUOUS
 62
     7
 10
-45.84401885480216
 20
-4.894565221652584
 30
0.0
 40
0.59407538245
 50
44.32274034040017
 51
66.69571615069977
  0
LINE
  5
68E
  8
0
  6
CONTINUOUS
 62
     7
 10
-45.43437341860216
 20
-4.598340749002581
 30
0.0
 11
-45.60899421475216
 21
-4.348956407052583
 31
0.0
  0
LINE
  5
68F
  8
0
  6
CONTINUOUS
 62
     7
 10
-46.43671036640216
 20
-3.006807019252584
 30
0.0
 11
-46.45328152975216
 21
-3.002389682152582
 31
0.0
  0
ARC
  5
690
  8
0
  6
CONTINUOUS
 62
     7
 10
-46.98869141385216
 20
-3.259803388052582
 30
0.0
 40
0.60719868195
 50
315.37600156
 51
24.62399844000015
  0
LINE
  5
691
  8
0
  6
CONTINUOUS
 62
     7
 10
-46.39560367585216
 20
-3.225561673102582
 30
0.0
 11
-46.57022447205216
 21
-2.976177331102583
 31
0.0
  0
ARC
  5
692
  8
0
  6
CONTINUOUS
 62
     7
 10
-46.98869141385216
 20
-3.259803388052582
 30
0.0
 40
0.59407538245
 50
3.304283849299891
 51
25.67725965959998
  0
LINE
  5
693
  8
0
  6
CONTINUOUS
 62
     7
 10
-44.76123806870216
 20
-4.002889031452582
 30
0.0
 11
-44.74466690535215
 21
-4.007306368552584
 31
0.0
  0
ARC
  5
694
  8
0
  6
CONTINUOUS
 62
     7
 10
-44.20925702125216
 20
-3.749892662602583
 30
0.0
 40
0.60719868195
 50
135.37600156
 51
204.6239984400001
  0
LINE
  5
695
  8
0
  6
CONTINUOUS
 62
     7
 10
-44.80234475925216
 20
-3.784134377602584
 30
0.0
 11
-44.62772396305215
 21
-4.033518719552582
 31
0.0
  0
ARC
  5
696
  8
0
  6
CONTINUOUS
 62
     7
 10
-44.20925702125216
 20
-3.749892662602583
 30
0.0
 40
0.59407538245
 50
183.3042838492999
 51
205.6772596596
  0
ARC
  5
697
  8
0
  6
CONTINUOUS
 62
     7
 10
-45.35392958030216
 20
-2.115130829002581
 30
0.0
 40
0.60719868195
 50
225.37600156
 51
294.6239984400001
  0
LINE
  5
698
  8
0
  6
CONTINUOUS
 62
     7
 10
-45.78045703810216
 20
-2.547293491802584
 30
0.0
 11
-45.77894030555215
 21
-2.530210873602584
 31
0.0
  0
ARC
  5
699
  8
0
  6
CONTINUOUS
 62
     7
 10
-45.35392958030216
 20
-2.115130829002581
 30
0.0
 40
0.59407538245
 50
224.3227403404002
 51
246.6957161506998
  0
LINE
  5
69A
  8
0
  6
CONTINUOUS
 62
     7
 10
-45.76357501650216
 20
-2.411355301652584
 30
0.0
 11
-45.58895422035216
 21
-2.660739643652583
 31
0.0
  0
LINE
  5
69B
  8
0
  6
CONTINUOUS
 62
     7
 10
-46.09701522365216
 20
-4.342584174202585
 30
0.0
 11
-46.72001779160216
 21
-4.878041105052581
 31
0.0
  0
LINE
  5
69C
  8
0
  6
CONTINUOUS
 62
     7
 10
-45.10093321145216
 20
-2.66711187645258
 30
0.0
 11
-44.47793064350216
 21
-2.131654945602584
 31
0.0
  0
LINE
  5
69D
  8
0
  6
CONTINUOUS
 62
     7
 10
-44.64141968400216
 20
-3.323365204752584
 30
0.0
 11
-43.92517532975216
 21
-2.921071345152583
 31
0.0
  0
LINE
  5
69E
  8
0
  6
CONTINUOUS
 62
     7
 10
-46.55652875110216
 20
-3.686330845902582
 30
0.0
 11
-47.27277310535216
 21
-4.088624705552583
 31
0.0
  0
LINE
  5
69F
  8
0
  6
CONTINUOUS
 62
     7
 10
-44.64141968400216
 20
-3.323365204752584
 30
0.0
 11
-45.10093321145216
 21
-2.66711187645258
 31
0.0
  0
LINE
  5
6A0
  8
0
  6
CONTINUOUS
 62
     7
 10
-46.55652875110216
 20
-3.686330845902582
 30
0.0
 11
-46.09701522365216
 21
-4.342584174202585
 31
0.0
  0
CIRCLE
  5
6A1
  8
0
  6
CONTINUOUS
 62
     7
 10
-45.59897421755215
 20
-3.50484802535258
 30
0.0
 40
2.75
  0
ARC
  5
6A2
  8
0
  6
CONTINUOUS
 62
     7
 10
-45.59897421755215
 20
-3.50484802535258
 30
0.0
 40
2.7369739972
 50
294.6363424350999
 51
315.3636575648999
  0
ARC
  5
6A3
  8
0
  6
CONTINUOUS
 62
     7
 10
-45.59897421755215
 20
-3.50484802535258
 30
0.0
 40
2.7369739972
 50
114.6363424351
 51
135.3636575648999
  0
LINE
  5
6A4
  8
0
  6
CONTINUOUS
 62
     7
 10
-46.33213818305216
 20
-1.599362948652583
 30
0.0
 11
-46.73990217095216
 21
-1.017015622102583
 31
0.0
  0
LINE
  5
6A5
  8
0
  6
CONTINUOUS
 62
     7
 10
-43.65139680860216
 20
-5.427858399102583
 30
0.0
 11
-44.05916079655216
 21
-4.845511072552583
 31
0.0
  0
LINE
  5
6A6
  8
0
  6
CONTINUOUS
 62
     7
 10
-47.54655162645216
 20
-1.581837651552583
 30
0.0
 11
-47.13878763855216
 21
-2.164184978102583
 31
0.0
  0
LINE
  5
6A7
  8
0
  6
CONTINUOUS
 62
     7
 10
-44.86581025205216
 20
-5.410333102002582
 30
0.0
 11
-44.45804626415216
 21
-5.992680428552583
 31
0.0
  0
LINE
  5
6A8
  8
0
  6
CONTINUOUS
 62
     7
 10
-46.45328152975216
 20
-3.002389682152582
 30
0.0
 11
-45.77894030555215
 21
-2.530210873602584
 31
0.0
  0
LINE
  5
6A9
  8
0
  6
CONTINUOUS
 62
     7
 10
-45.78045703810216
 20
-2.547293491802584
 30
0.0
 11
-46.43671036640216
 21
-3.006807019252584
 31
0.0
  0
LINE
  5
6AA
  8
0
  6
CONTINUOUS
 62
     7
 10
-44.74466690535215
 20
-4.007306368552584
 30
0.0
 11
-45.41900812955216
 21
-4.479485177052581
 31
0.0
  0
LINE
  5
6AB
  8
0
  6
CONTINUOUS
 62
     7
 10
-45.41749139700216
 20
-4.462402558902582
 30
0.0
 11
-44.76123806870216
 21
-4.002889031452582
 31
0.0
  0
LINE
  5
6AC
  8
0
  6
CONTINUOUS
 62
     7
 10
-46.57022447205216
 20
14.32092724364742
 30
0.0
 11
-47.13878763855216
 21
13.50893489064742
 31
0.0
  0
LINE
  5
6AD
  8
0
  6
CONTINUOUS
 62
     7
 10
-44.86581025205215
 20
16.75508301459742
 30
0.0
 11
-45.43437341860215
 21
15.94309066159742
 31
0.0
  0
ARC
  5
6AE
  8
0
  6
CONTINUOUS
 62
     7
 10
-46.98869141385216
 20
14.60455330064742
 30
0.0
 40
0.60719868195
 50
335.3760015599998
 51
44.62399843999997
  0
LINE
  5
6AF
  8
0
  6
CONTINUOUS
 62
     7
 10
-46.43671036640216
 20
14.35155693179742
 30
0.0
 11
-46.45328152975216
 21
14.34713959469742
 31
0.0
  0
ARC
  5
6B0
  8
0
  6
CONTINUOUS
 62
     7
 10
-46.98869141385216
 20
14.60455330064742
 30
0.0
 40
0.59407538245
 50
334.3227403404
 51
356.6957161507001
  0
LINE
  5
6B1
  8
0
  6
CONTINUOUS
 62
     7
 10
-46.57022447205216
 20
14.32092724364742
 30
0.0
 11
-46.39560367585216
 21
14.57031158564742
 31
0.0
  0
LINE
  5
6B2
  8
0
  6
CONTINUOUS
 62
     7
 10
-45.41749139700216
 20
15.80715247144742
 30
0.0
 11
-45.41900812955216
 21
15.82423508959742
 31
0.0
  0
ARC
  5
6B3
  8
0
  6
CONTINUOUS
 62
     7
 10
-45.84401885480215
 20
16.23931513419742
 30
0.0
 40
0.60719868195
 50
245.3760015599998
 51
314.62399844
  0
LINE
  5
6B4
  8
0
  6
CONTINUOUS
 62
     7
 10
-45.60899421475216
 20
15.69370631959742
 30
0.0
 11
-45.43437341860215
 21
15.94309066159742
 31
0.0
  0
ARC
  5
6B5
  8
0
  6
CONTINUOUS
 62
     7
 10
-45.84401885480215
 20
16.23931513419742
 30
0.0
 40
0.59407538245
 50
293.3042838493002
 51
315.6772596595998
  0
LINE
  5
6B6
  8
0
  6
CONTINUOUS
 62
     7
 10
-44.62772396305215
 20
15.37826863214742
 30
0.0
 11
-44.05916079650215
 21
16.19026098514742
 31
0.0
  0
LINE
  5
6B7
  8
0
  6
CONTINUOUS
 62
     7
 10
-46.33213818305216
 20
12.94411286119742
 30
0.0
 11
-45.76357501650216
 21
13.75610521419742
 31
0.0
  0
LINE
  5
6B8
  8
0
  6
CONTINUOUS
 62
     7
 10
-45.78045703810216
 20
13.89204340434742
 30
0.0
 11
-45.77894030555215
 21
13.87496078619742
 31
0.0
  0
ARC
  5
6B9
  8
0
  6
CONTINUOUS
 62
     7
 10
-45.35392958030216
 20
13.45988074159742
 30
0.0
 40
0.60719868195
 50
65.37600155999988
 51
134.62399844
  0
LINE
  5
6BA
  8
0
  6
CONTINUOUS
 62
     7
 10
-45.58895422035216
 20
14.00548955619742
 30
0.0
 11
-45.76357501650216
 21
13.75610521419742
 31
0.0
  0
ARC
  5
6BB
  8
0
  6
CONTINUOUS
 62
     7
 10
-45.35392958030216
 20
13.45988074159742
 30
0.0
 40
0.59407538245
 50
113.3042838493002
 51
135.6772596595998
  0
ARC
  5
6BC
  8
0
  6
CONTINUOUS
 62
     7
 10
-44.20925702125216
 20
15.09464257514742
 30
0.0
 40
0.60719868195
 50
155.3760015599999
 51
224.62399844
  0
LINE
  5
6BD
  8
0
  6
CONTINUOUS
 62
     7
 10
-44.76123806870216
 20
15.34763894399742
 30
0.0
 11
-44.74466690535215
 21
15.35205628109742
 31
0.0
  0
ARC
  5
6BE
  8
0
  6
CONTINUOUS
 62
     7
 10
-44.20925702125216
 20
15.09464257514742
 30
0.0
 40
0.59407538245
 50
154.3227403404
 51
176.6957161507001
  0
LINE
  5
6BF
  8
0
  6
CONTINUOUS
 62
     7
 10
-44.62772396305215
 20
15.37826863214742
 30
0.0
 11
-44.80234475925216
 21
15.12888429014742
 31
0.0
  0
LINE
  5
6C0
  8
0
  6
CONTINUOUS
 62
     7
 10
-46.55652875110216
 20
15.03108075844742
 30
0.0
 11
-47.27277310535216
 21
15.43337461809742
 31
0.0
  0
LINE
  5
6C1
  8
0
  6
CONTINUOUS
 62
     7
 10
-44.64141968400216
 20
14.66811511734742
 30
0.0
 11
-43.92517532975216
 21
14.26582125769742
 31
0.0
  0
LINE
  5
6C2
  8
0
  6
CONTINUOUS
 62
     7
 10
-45.10093321145216
 20
14.01186178904742
 30
0.0
 11
-44.47793064350216
 21
13.47640485819742
 31
0.0
  0
LINE
  5
6C3
  8
0
  6
CONTINUOUS
 62
     7
 10
-46.09701522365216
 20
15.68733408674742
 30
0.0
 11
-46.72001779160215
 21
16.22279101759742
 31
0.0
  0
LINE
  5
6C4
  8
0
  6
CONTINUOUS
 62
     7
 10
-46.09701522365216
 20
15.68733408674742
 30
0.0
 11
-46.55652875110216
 21
15.03108075844742
 31
0.0
  0
LINE
  5
6C5
  8
0
  6
CONTINUOUS
 62
     7
 10
-45.10093321145216
 20
14.01186178904742
 30
0.0
 11
-44.64141968400216
 21
14.66811511734742
 31
0.0
  0
CIRCLE
  5
6C6
  8
0
  6
CONTINUOUS
 62
     7
 10
-45.59897421755215
 20
14.84959793789742
 30
0.0
 40
2.75
  0
ARC
  5
6C7
  8
0
  6
CONTINUOUS
 62
     7
 10
-45.59897421755215
 20
14.84959793789742
 30
0.0
 40
2.7369739972
 50
224.6363424351001
 51
245.3636575649
  0
ARC
  5
6C8
  8
0
  6
CONTINUOUS
 62
     7
 10
-45.59897421755215
 20
14.84959793789742
 30
0.0
 40
2.7369739972
 50
44.63634243510007
 51
65.36365756490001
  0
LINE
  5
6C9
  8
0
  6
CONTINUOUS
 62
     7
 10
-44.05916079650215
 20
16.19026098514742
 30
0.0
 11
-43.65139680860215
 21
16.77260831164742
 31
0.0
  0
LINE
  5
6CA
  8
0
  6
CONTINUOUS
 62
     7
 10
-46.73990217095216
 20
12.36176553464742
 30
0.0
 11
-46.33213818305216
 21
12.94411286119742
 31
0.0
  0
LINE
  5
6CB
  8
0
  6
CONTINUOUS
 62
     7
 10
-44.45804626415215
 20
17.33743034114742
 30
0.0
 11
-44.86581025205215
 21
16.75508301459742
 31
0.0
  0
LINE
  5
6CC
  8
0
  6
CONTINUOUS
 62
     7
 10
-47.13878763855216
 20
13.50893489064742
 30
0.0
 11
-47.54655162645216
 21
12.92658756409742
 31
0.0
  0
LINE
  5
6CD
  8
0
  6
CONTINUOUS
 62
     7
 10
-45.41900812955216
 20
15.82423508959742
 30
0.0
 11
-44.74466690535215
 21
15.35205628109742
 31
0.0
  0
LINE
  5
6CE
  8
0
  6
CONTINUOUS
 62
     7
 10
-44.76123806870216
 20
15.34763894399742
 30
0.0
 11
-45.41749139700216
 21
15.80715247144742
 31
0.0
  0
LINE
  5
6CF
  8
0
  6
CONTINUOUS
 62
     7
 10
-45.77894030555215
 20
13.87496078619742
 30
0.0
 11
-46.45328152975216
 21
14.34713959469742
 31
0.0
  0
LINE
  5
6D0
  8
0
  6
CONTINUOUS
 62
     7
 10
-46.43671036640216
 20
14.35155693179742
 30
0.0
 11
-45.78045703810216
 21
13.89204340434742
 31
0.0
  0
LINE
  5
6D1
  8
0
  6
CONTINUOUS
 62
     7
 10
-19.55070959925216
 20
15.94309066159741
 30
0.0
 11
-20.11927276580215
 21
16.75508301459741
 31
0.0
  0
LINE
  5
6D2
  8
0
  6
CONTINUOUS
 62
     7
 10
-17.84629537930216
 20
13.50893489064741
 30
0.0
 11
-18.41485854580216
 21
14.32092724364741
 31
0.0
  0
ARC
  5
6D3
  8
0
  6
CONTINUOUS
 62
     7
 10
-19.14106416305216
 20
16.23931513419742
 30
0.0
 40
0.60719868195
 50
225.3760015600002
 51
294.6239984400001
  0
LINE
  5
6D4
  8
0
  6
CONTINUOUS
 62
     7
 10
-19.56759162085216
 20
15.80715247144741
 30
0.0
 11
-19.56607488830215
 21
15.82423508959741
 31
0.0
  0
ARC
  5
6D5
  8
0
  6
CONTINUOUS
 62
     7
 10
-19.14106416305216
 20
16.23931513419742
 30
0.0
 40
0.59407538245
 50
224.3227403403999
 51
246.6957161506998
  0
LINE
  5
6D6
  8
0
  6
CONTINUOUS
 62
     7
 10
-19.55070959925216
 20
15.94309066159741
 30
0.0
 11
-19.37608880310216
 21
15.69370631959741
 31
0.0
  0
LINE
  5
6D7
  8
0
  6
CONTINUOUS
 62
     7
 10
-18.54837265145215
 20
14.35155693179741
 30
0.0
 11
-18.53180148810216
 21
14.34713959469741
 31
0.0
  0
ARC
  5
6D8
  8
0
  6
CONTINUOUS
 62
     7
 10
-17.99639160400216
 20
14.60455330064741
 30
0.0
 40
0.60719868195
 50
135.3760015599998
 51
204.62399844
  0
LINE
  5
6D9
  8
0
  6
CONTINUOUS
 62
     7
 10
-18.58947934200216
 20
14.57031158564741
 30
0.0
 11
-18.41485854580216
 21
14.32092724364741
 31
0.0
  0
ARC
  5
6DA
  8
0
  6
CONTINUOUS
 62
     7
 10
-17.99639160400216
 20
14.60455330064741
 30
0.0
 40
0.59407538245
 50
183.3042838492999
 51
205.6772596596
  0
LINE
  5
6DB
  8
0
  6
CONTINUOUS
 62
     7
 10
-19.22150800135216
 20
13.75610521419742
 30
0.0
 11
-18.65294483480216
 21
12.94411286119741
 31
0.0
  0
LINE
  5
6DC
  8
0
  6
CONTINUOUS
 62
     7
 10
-20.92592222130216
 20
16.19026098514741
 30
0.0
 11
-20.35735905480216
 21
15.37826863214741
 31
0.0
  0
LINE
  5
6DD
  8
0
  6
CONTINUOUS
 62
     7
 10
-20.22384494915215
 20
15.34763894399741
 30
0.0
 11
-20.24041611250216
 21
15.35205628109741
 31
0.0
  0
ARC
  5
6DE
  8
0
  6
CONTINUOUS
 62
     7
 10
-20.77582599660215
 20
15.09464257514741
 30
0.0
 40
0.60719868195
 50
315.3760015599997
 51
24.62399843999995
  0
LINE
  5
6DF
  8
0
  6
CONTINUOUS
 62
     7
 10
-20.18273825860216
 20
15.12888429014741
 30
0.0
 11
-20.35735905480216
 21
15.37826863214741
 31
0.0
  0
ARC
  5
6E0
  8
0
  6
CONTINUOUS
 62
     7
 10
-20.77582599660215
 20
15.09464257514741
 30
0.0
 40
0.59407538245
 50
3.304283849299916
 51
25.67725965959998
  0
ARC
  5
6E1
  8
0
  6
CONTINUOUS
 62
     7
 10
-19.63115343755216
 20
13.45988074159741
 30
0.0
 40
0.60719868195
 50
45.37600156000023
 51
114.6239984400001
  0
LINE
  5
6E2
  8
0
  6
CONTINUOUS
 62
     7
 10
-19.20462597975217
 20
13.89204340434742
 30
0.0
 11
-19.20614271230215
 21
13.87496078619742
 31
0.0
  0
ARC
  5
6E3
  8
0
  6
CONTINUOUS
 62
     7
 10
-19.63115343755216
 20
13.45988074159741
 30
0.0
 40
0.59407538245
 50
44.32274034039995
 51
66.69571615069977
  0
LINE
  5
6E4
  8
0
  6
CONTINUOUS
 62
     7
 10
-19.22150800135216
 20
13.75610521419742
 30
0.0
 11
-19.39612879750216
 21
14.00548955619741
 31
0.0
  0
LINE
  5
6E5
  8
0
  6
CONTINUOUS
 62
     7
 10
-18.88806779420216
 20
15.68733408674742
 30
0.0
 11
-18.26506522625216
 21
16.22279101759741
 31
0.0
  0
LINE
  5
6E6
  8
0
  6
CONTINUOUS
 62
     7
 10
-19.88414980640215
 20
14.01186178904741
 30
0.0
 11
-20.50715237435216
 21
13.47640485819742
 31
0.0
  0
LINE
  5
6E7
  8
0
  6
CONTINUOUS
 62
     7
 10
-20.34366333385216
 20
14.66811511734742
 30
0.0
 11
-21.05990768810216
 21
14.26582125769741
 31
0.0
  0
LINE
  5
6E8
  8
0
  6
CONTINUOUS
 62
     7
 10
-18.42855426675216
 20
15.03108075844741
 30
0.0
 11
-17.71230991250215
 21
15.43337461809741
 31
0.0
  0
LINE
  5
6E9
  8
0
  6
CONTINUOUS
 62
     7
 10
-18.42855426675216
 20
15.03108075844741
 30
0.0
 11
-18.88806779420216
 21
15.68733408674742
 31
0.0
  0
LINE
  5
6EA
  8
0
  6
CONTINUOUS
 62
     7
 10
-20.34366333385216
 20
14.66811511734742
 30
0.0
 11
-19.88414980640215
 21
14.01186178904741
 31
0.0
  0
CIRCLE
  5
6EB
  8
0
  6
CONTINUOUS
 62
     7
 10
-19.38610880030215
 20
14.84959793789742
 30
0.0
 40
2.75
  0
ARC
  5
6EC
  8
0
  6
CONTINUOUS
 62
     7
 10
-19.38610880030215
 20
14.84959793789742
 30
0.0
 40
2.7369739972
 50
114.6363424351
 51
135.3636575649
  0
ARC
  5
6ED
  8
0
  6
CONTINUOUS
 62
     7
 10
-19.38610880030215
 20
14.84959793789742
 30
0.0
 40
2.7369739972
 50
294.6363424350999
 51
315.3636575648999
  0
LINE
  5
6EE
  8
0
  6
CONTINUOUS
 62
     7
 10
-18.65294483480216
 20
12.94411286119741
 30
0.0
 11
-18.24518084690216
 21
12.36176553464741
 31
0.0
  0
LINE
  5
6EF
  8
0
  6
CONTINUOUS
 62
     7
 10
-21.33368620925216
 20
16.77260831164741
 30
0.0
 11
-20.92592222130216
 21
16.19026098514741
 31
0.0
  0
LINE
  5
6F0
  8
0
  6
CONTINUOUS
 62
     7
 10
-17.43853139140217
 20
12.92658756409741
 30
0.0
 11
-17.84629537930216
 21
13.50893489064741
 31
0.0
  0
LINE
  5
6F1
  8
0
  6
CONTINUOUS
 62
     7
 10
-20.11927276580215
 20
16.75508301459741
 30
0.0
 11
-20.52703675370216
 21
17.33743034114741
 31
0.0
  0
LINE
  5
6F2
  8
0
  6
CONTINUOUS
 62
     7
 10
-20.24041611250216
 20
15.35205628109741
 30
0.0
 11
-19.56607488830215
 21
15.82423508959741
 31
0.0
  0
LINE
  5
6F3
  8
0
  6
CONTINUOUS
 62
     7
 10
-18.53180148810216
 20
14.34713959469741
 30
0.0
 11
-19.20614271230215
 21
13.87496078619742
 31
0.0
  0
LINE
  5
6F4
  8
0
  6
CONTINUOUS
 62
     7
 10
-19.56759162085216
 20
15.80715247144741
 30
0.0
 11
-20.22384494915215
 21
15.34763894399741
 31
0.0
  0
LINE
  5
6F5
  8
0
  6
CONTINUOUS
 62
     7
 10
-19.20462597975217
 20
13.89204340434742
 30
0.0
 11
-18.54837265145215
 21
14.35155693179741
 31
0.0
  0
LINE
  5
6F6
  8
0
  6
CONTINUOUS
 62
     7
 10
-25.92138453145216
 20
-9.486731556152588
 30
0.0
 11
-24.98990517110215
 21
-9.14770079510259
 31
0.0
  0
LINE
  5
6F7
  8
0
  6
CONTINUOUS
 62
     7
 10
-28.71373331665217
 20
-10.50306339765259
 30
0.0
 11
-27.78225395630216
 21
-10.16403263665259
 31
0.0
  0
ARC
  5
6F8
  8
0
  6
CONTINUOUS
 62
     7
 10
-25.74127770360215
 20
-9.959087197752591
 30
0.0
 40
0.60719868195
 50
120.3760015599996
 51
189.6239984399994
  0
LINE
  5
6F9
  8
0
  6
CONTINUOUS
 62
     7
 10
-26.04832135135216
 20
-9.435241382902586
 30
0.0
 11
-26.03221336855216
 21
-9.441127740952592
 31
0.0
  0
ARC
  5
6FA
  8
0
  6
CONTINUOUS
 62
     7
 10
-25.74127770360215
 20
-9.959087197752591
 30
0.0
 40
0.59407538245
 50
119.3227403403999
 51
141.6957161506999
  0
LINE
  5
6FB
  8
0
  6
CONTINUOUS
 62
     7
 10
-25.92138453145216
 20
-9.486731556152588
 30
0.0
 11
-26.20746649575216
 21
-9.590856875702581
 31
0.0
  0
LINE
  5
6FC
  8
0
  6
CONTINUOUS
 62
     7
 10
-28.11905390000216
 20
-9.238682396452585
 30
0.0
 11
-29.05053326035215
 21
-9.577713157452587
 31
0.0
  0
LINE
  5
6FD
  8
0
  6
CONTINUOUS
 62
     7
 10
-25.32670511480215
 20
-8.22235055495258
 30
0.0
 11
-26.25818447515215
 21
-8.561381315952584
 31
0.0
  0
LINE
  5
6FE
  8
0
  6
CONTINUOUS
 62
     7
 10
-27.71811195615216
 20
-10.04299546050259
 30
0.0
 11
-27.72666770880215
 21
-10.05785868415259
 31
0.0
  0
ARC
  5
6FF
  8
0
  6
CONTINUOUS
 62
     7
 10
-27.61659943715216
 20
-10.64164848845259
 30
0.0
 40
0.60719868195
 50
30.37600156000053
 51
99.6239984400002
  0
LINE
  5
700
  8
0
  6
CONTINUOUS
 62
     7
 10
-27.49617199200216
 20
-10.05990731705259
 30
0.0
 11
-27.78225395630216
 21
-10.16403263665259
 31
0.0
  0
ARC
  5
701
  8
0
  6
CONTINUOUS
 62
     7
 10
-27.61659943715216
 20
-10.64164848845259
 30
0.0
 40
0.59407538245
 50
78.30428384929989
 51
100.6772596595996
  0
LINE
  5
702
  8
0
  6
CONTINUOUS
 62
     7
 10
-26.32232647530216
 20
-8.682418492102581
 30
0.0
 11
-26.31377072260216
 21
-8.667555268452585
 31
0.0
  0
ARC
  5
703
  8
0
  6
CONTINUOUS
 62
     7
 10
-26.42383899425215
 20
-8.083765464152588
 30
0.0
 40
0.60719868195
 50
210.3760015600005
 51
279.6239984400002
  0
LINE
  5
704
  8
0
  6
CONTINUOUS
 62
     7
 10
-26.54426643945216
 20
-8.665506635502592
 30
0.0
 11
-26.25818447515215
 21
-8.561381315952584
 31
0.0
  0
ARC
  5
705
  8
0
  6
CONTINUOUS
 62
     7
 10
-26.42383899425215
 20
-8.083765464152588
 30
0.0
 40
0.59407538245
 50
258.3042838492999
 51
280.6772596595999
  0
ARC
  5
706
  8
0
  6
CONTINUOUS
 62
     7
 10
-28.29916072785215
 20
-8.766326754852582
 30
0.0
 40
0.60719868195
 50
300.3760015599996
 51
9.623998439999404
  0
LINE
  5
707
  8
0
  6
CONTINUOUS
 62
     7
 10
-27.99211708005217
 20
-9.290172569702587
 30
0.0
 11
-28.00822506285215
 21
-9.284286211602588
 31
0.0
  0
ARC
  5
708
  8
0
  6
CONTINUOUS
 62
     7
 10
-28.29916072785215
 20
-8.766326754852582
 30
0.0
 40
0.59407538245
 50
299.3227403403999
 51
321.6957161506997
  0
LINE
  5
709
  8
0
  6
CONTINUOUS
 62
     7
 10
-28.11905390000216
 20
-9.238682396452585
 30
0.0
 11
-27.83297193565215
 21
-9.134557076902592
 31
0.0
  0
LINE
  5
70A
  8
0
  6
CONTINUOUS
 62
     7
 10
-26.33993073150216
 20
-10.06059971670258
 30
0.0
 11
-25.98396398290215
 21
-10.80096043850258
 31
0.0
  0
LINE
  5
70B
  8
0
  6
CONTINUOUS
 62
     7
 10
-27.70050769990215
 20
-8.664814235852585
 30
0.0
 11
-28.05647444855217
 21
-7.924453514052582
 31
0.0
  0
LINE
  5
70C
  8
0
  6
CONTINUOUS
 62
     7
 10
-26.94768480910216
 20
-8.390809111952588
 30
0.0
 11
-27.15089315805216
 21
-7.594848879652583
 31
0.0
  0
LINE
  5
70D
  8
0
  6
CONTINUOUS
 62
     7
 10
-27.09275362230215
 20
-10.33460484065258
 30
0.0
 11
-26.88954527335216
 21
-11.13056507295259
 31
0.0
  0
LINE
  5
70E
  8
0
  6
CONTINUOUS
 62
     7
 10
-26.94768480910216
 20
-8.390809111952588
 30
0.0
 11
-27.70050769990215
 21
-8.664814235852585
 31
0.0
  0
LINE
  5
70F
  8
0
  6
CONTINUOUS
 62
     7
 10
-27.09275362230215
 20
-10.33460484065258
 30
0.0
 11
-26.33993073150216
 21
-10.06059971670258
 31
0.0
  0
CIRCLE
  5
710
  8
0
  6
CONTINUOUS
 62
     7
 10
-27.02021921570216
 20
-9.362706976302587
 30
0.0
 40
2.75
  0
ARC
  5
711
  8
0
  6
CONTINUOUS
 62
     7
 10
-27.02021921570216
 20
-9.362706976302587
 30
0.0
 40
2.7369739972
 50
9.636342435099957
 51
30.36365756490007
  0
ARC
  5
712
  8
0
  6
CONTINUOUS
 62
     7
 10
-27.02021921570216
 20
-9.362706976302587
 30
0.0
 40
2.7369739972
 50
189.6363424350999
 51
210.3636575649001
  0
LINE
  5
713
  8
0
  6
CONTINUOUS
 62
     7
 10
-29.05053326035215
 20
-9.577713157452587
 30
0.0
 11
-29.71857466890216
 21
-9.820860345452582
 31
0.0
  0
LINE
  5
714
  8
0
  6
CONTINUOUS
 62
     7
 10
-24.65866370620216
 20
-7.979203367002579
 30
0.0
 11
-25.32670511480215
 21
-8.22235055495258
 31
0.0
  0
LINE
  5
715
  8
0
  6
CONTINUOUS
 62
     7
 10
-29.38177472520215
 20
-10.74621058560258
 30
0.0
 11
-28.71373331665217
 21
-10.50306339765259
 31
0.0
  0
LINE
  5
716
  8
0
  6
CONTINUOUS
 62
     7
 10
-24.98990517110215
 20
-9.14770079510259
 30
0.0
 11
-24.32186376255216
 21
-8.90455360715259
 31
0.0
  0
LINE
  5
717
  8
0
  6
CONTINUOUS
 62
     7
 10
-27.72666770880215
 20
-10.05785868415259
 30
0.0
 11
-28.00822506285215
 21
-9.284286211602588
 31
0.0
  0
LINE
  5
718
  8
0
  6
CONTINUOUS
 62
     7
 10
-27.99211708005217
 20
-9.290172569702587
 30
0.0
 11
-27.71811195615216
 21
-10.04299546050259
 31
0.0
  0
LINE
  5
719
  8
0
  6
CONTINUOUS
 62
     7
 10
-26.31377072260216
 20
-8.667555268452585
 30
0.0
 11
-26.03221336855216
 21
-9.441127740952592
 31
0.0
  0
LINE
  5
71A
  8
0
  6
CONTINUOUS
 62
     7
 10
-26.04832135135216
 20
-9.435241382902586
 30
0.0
 11
-26.32232647530216
 21
-8.682418492102581
 31
0.0
  0
ARC
  5
71B
  8
0
  6
CONTINUOUS
 62
     7
 10
-17.99639160400216
 20
-3.259803388052585
 30
0.0
 40
0.60719868195
 50
155.37600156
 51
224.6239984400002
  0
LINE
  5
71C
  8
0
  6
CONTINUOUS
 62
     7
 10
-18.54837265145215
 20
-3.006807019252587
 30
0.0
 11
-18.53180148810216
 21
-3.002389682152586
 31
0.0
  0
ARC
  5
71D
  8
0
  6
CONTINUOUS
 62
     7
 10
-17.99639160400216
 20
-3.259803388052585
 30
0.0
 40
0.59407538245
 50
154.3227403404
 51
176.6957161507001
  0
LINE
  5
71E
  8
0
  6
CONTINUOUS
 62
     7
 10
-18.41485854580216
 20
-2.976177331102587
 30
0.0
 11
-18.58947934200216
 21
-3.225561673102586
 31
0.0
  0
LINE
  5
71F
  8
0
  6
CONTINUOUS
 62
     7
 10
-18.41485854580216
 20
-2.976177331102587
 30
0.0
 11
-17.84629537930216
 21
-2.164184978102586
 31
0.0
  0
LINE
  5
720
  8
0
  6
CONTINUOUS
 62
     7
 10
-20.11927276580215
 20
-5.410333102002586
 30
0.0
 11
-19.55070959925216
 21
-4.598340749002585
 31
0.0
  0
LINE
  5
721
  8
0
  6
CONTINUOUS
 62
     7
 10
-20.35735905480216
 20
-4.033518719552585
 30
0.0
 11
-20.92592222130216
 21
-4.845511072552586
 31
0.0
  0
LINE
  5
722
  8
0
  6
CONTINUOUS
 62
     7
 10
-18.65294483480216
 20
-1.599362948652587
 30
0.0
 11
-19.22150800135216
 21
-2.411355301652588
 31
0.0
  0
LINE
  5
723
  8
0
  6
CONTINUOUS
 62
     7
 10
-19.56759162085216
 20
-4.462402558902586
 30
0.0
 11
-19.56607488830215
 21
-4.479485177052585
 31
0.0
  0
ARC
  5
724
  8
0
  6
CONTINUOUS
 62
     7
 10
-19.14106416305216
 20
-4.894565221652588
 30
0.0
 40
0.60719868195
 50
65.37600155999988
 51
134.6239984399998
  0
LINE
  5
725
  8
0
  6
CONTINUOUS
 62
     7
 10
-19.37608880310216
 20
-4.348956407052587
 30
0.0
 11
-19.55070959925216
 21
-4.598340749002585
 31
0.0
  0
ARC
  5
726
  8
0
  6
CONTINUOUS
 62
     7
 10
-19.14106416305216
 20
-4.894565221652588
 30
0.0
 40
0.59407538245
 50
113.3042838493002
 51
135.6772596596001
  0
LINE
  5
727
  8
0
  6
CONTINUOUS
 62
     7
 10
-19.20462597975217
 20
-2.547293491802588
 30
0.0
 11
-19.20614271230215
 21
-2.530210873602588
 31
0.0
  0
ARC
  5
728
  8
0
  6
CONTINUOUS
 62
     7
 10
-19.63115343755216
 20
-2.115130829002585
 30
0.0
 40
0.60719868195
 50
245.3760015599998
 51
314.6239984399998
  0
LINE
  5
729
  8
0
  6
CONTINUOUS
 62
     7
 10
-19.39612879750216
 20
-2.660739643652587
 30
0.0
 11
-19.22150800135216
 21
-2.411355301652588
 31
0.0
  0
ARC
  5
72A
  8
0
  6
CONTINUOUS
 62
     7
 10
-19.63115343755216
 20
-2.115130829002585
 30
0.0
 40
0.59407538245
 50
293.3042838493002
 51
315.6772596596001
  0
ARC
  5
72B
  8
0
  6
CONTINUOUS
 62
     7
 10
-20.77582599660215
 20
-3.749892662602587
 30
0.0
 40
0.60719868195
 50
335.37600156
 51
44.62399844000023
  0
LINE
  5
72C
  8
0
  6
CONTINUOUS
 62
     7
 10
-20.22384494915215
 20
-4.002889031452586
 30
0.0
 11
-20.24041611250216
 21
-4.007306368552587
 31
0.0
  0
ARC
  5
72D
  8
0
  6
CONTINUOUS
 62
     7
 10
-20.77582599660215
 20
-3.749892662602587
 30
0.0
 40
0.59407538245
 50
334.3227403404
 51
356.6957161507001
  0
LINE
  5
72E
  8
0
  6
CONTINUOUS
 62
     7
 10
-20.35735905480216
 20
-4.033518719552585
 30
0.0
 11
-20.18273825860216
 21
-3.784134377602587
 31
0.0
  0
LINE
  5
72F
  8
0
  6
CONTINUOUS
 62
     7
 10
-18.42855426675216
 20
-3.686330845902585
 30
0.0
 11
-17.71230991250215
 21
-4.088624705552586
 31
0.0
  0
LINE
  5
730
  8
0
  6
CONTINUOUS
 62
     7
 10
-20.34366333385216
 20
-3.323365204752587
 30
0.0
 11
-21.05990768810216
 21
-2.921071345152587
 31
0.0
  0
LINE
  5
731
  8
0
  6
CONTINUOUS
 62
     7
 10
-19.88414980640215
 20
-2.667111876452584
 30
0.0
 11
-20.50715237435216
 21
-2.131654945602588
 31
0.0
  0
LINE
  5
732
  8
0
  6
CONTINUOUS
 62
     7
 10
-18.88806779420216
 20
-4.342584174202589
 30
0.0
 11
-18.26506522625216
 21
-4.878041105052585
 31
0.0
  0
LINE
  5
733
  8
0
  6
CONTINUOUS
 62
     7
 10
-19.88414980640215
 20
-2.667111876452584
 30
0.0
 11
-20.34366333385216
 21
-3.323365204752587
 31
0.0
  0
LINE
  5
734
  8
0
  6
CONTINUOUS
 62
     7
 10
-18.88806779420216
 20
-4.342584174202589
 30
0.0
 11
-18.42855426675216
 21
-3.686330845902585
 31
0.0
  0
CIRCLE
  5
735
  8
0
  6
CONTINUOUS
 62
     7
 10
-19.38610880030215
 20
-3.504848025352583
 30
0.0
 40
2.75
  0
ARC
  5
736
  8
0
  6
CONTINUOUS
 62
     7
 10
-19.38610880030215
 20
-3.504848025352583
 30
0.0
 40
2.7369739972
 50
44.63634243510002
 51
65.36365756489992
  0
ARC
  5
737
  8
0
  6
CONTINUOUS
 62
     7
 10
-19.38610880030215
 20
-3.504848025352583
 30
0.0
 40
2.7369739972
 50
224.6363424351
 51
245.3636575648999
  0
LINE
  5
738
  8
0
  6
CONTINUOUS
 62
     7
 10
-20.92592222130216
 20
-4.845511072552586
 30
0.0
 11
-21.33368620925216
 21
-5.427858399102586
 31
0.0
  0
LINE
  5
739
  8
0
  6
CONTINUOUS
 62
     7
 10
-18.24518084690216
 20
-1.017015622102587
 30
0.0
 11
-18.65294483480216
 21
-1.599362948652587
 31
0.0
  0
LINE
  5
73A
  8
0
  6
CONTINUOUS
 62
     7
 10
-20.52703675370216
 20
-5.992680428552585
 30
0.0
 11
-20.11927276580215
 21
-5.410333102002586
 31
0.0
  0
LINE
  5
73B
  8
0
  6
CONTINUOUS
 62
     7
 10
-17.84629537930216
 20
-2.164184978102586
 30
0.0
 11
-17.43853139140217
 21
-1.581837651552586
 31
0.0
  0
LINE
  5
73C
  8
0
  6
CONTINUOUS
 62
     7
 10
-19.20614271230215
 20
-2.530210873602588
 30
0.0
 11
-18.53180148810216
 21
-3.002389682152586
 31
0.0
  0
LINE
  5
73D
  8
0
  6
CONTINUOUS
 62
     7
 10
-19.56607488830215
 20
-4.479485177052585
 30
0.0
 11
-20.24041611250216
 21
-4.007306368552587
 31
0.0
  0
LINE
  5
73E
  8
0
  6
CONTINUOUS
 62
     7
 10
-20.22384494915215
 20
-4.002889031452586
 30
0.0
 11
-19.56759162085216
 21
-4.462402558902586
 31
0.0
  0
LINE
  5
73F
  8
0
  6
CONTINUOUS
 62
     7
 10
-18.54837265145215
 20
-3.006807019252587
 30
0.0
 11
-19.20462597975217
 21
-2.547293491802588
 31
0.0
  0
LINE
  5
740
  8
0
  6
CONTINUOUS
 62
     7
 10
-30.56942380675216
 20
-8.675141145952589
 30
0.0
 11
-30.99352878445217
 21
-7.50992229615259
 31
0.0
  0
LINE
  5
741
  8
0
  6
CONTINUOUS
 62
     7
 10
-30.99352878445217
 20
-7.50992229615259
 30
0.0
 11
-29.82830993470216
 21
-7.085817318452579
 31
0.0
  0
LINE
  5
742
  8
0
  6
CONTINUOUS
 62
     7
 10
-29.82830993470216
 20
-7.085817318452579
 30
0.0
 11
-30.56942380675216
 21
-8.675141145952589
 31
0.0
  0
LINE
  5
743
  8
0
  6
CONTINUOUS
 62
     7
 10
-30.14531882900215
 20
-9.84035999570258
 30
0.0
 11
-30.56942380675216
 21
-8.675141145952589
 31
0.0
  0
LINE
  5
744
  8
0
  6
CONTINUOUS
 62
     7
 10
-29.82830993470216
 20
-7.085817318452579
 30
0.0
 11
-28.66309108490216
 21
-6.661712340702588
 31
0.0
  0
LINE
  5
745
  8
0
  6
CONTINUOUS
 62
     7
 10
-28.51916820180216
 20
-7.057137212202586
 30
0.0
 11
-28.66309108490216
 21
-6.661712340702588
 31
0.0
  0
LINE
  5
746
  8
0
  6
CONTINUOUS
 62
     7
 10
-30.14531882900215
 20
-9.84035999570258
 30
0.0
 11
-29.74989395755216
 21
-9.69643711260259
 31
0.0
  0
LINE
  5
747
  8
0
  6
CONTINUOUS
 62
     7
 10
-26.33265338535216
 20
-5.813502385252586
 30
0.0
 11
-24.74332955785215
 21
-6.554616257302579
 31
0.0
  0
LINE
  5
748
  8
0
  6
CONTINUOUS
 62
     7
 10
-24.31922458015215
 20
-7.719835107102578
 30
0.0
 11
-24.74332955785215
 21
-6.554616257302579
 31
0.0
  0
LINE
  5
749
  8
0
  6
CONTINUOUS
 62
     7
 10
-24.31922458015215
 20
-7.719835107102578
 30
0.0
 11
-24.71464945160216
 21
-7.863757990202582
 31
0.0
  0
LINE
  5
74A
  8
0
  6
CONTINUOUS
 62
     7
 10
-27.35394935205215
 20
-6.633032234502589
 30
0.0
 11
-27.49787223515216
 21
-6.237607363002584
 31
0.0
  0
LINE
  5
74B
  8
0
  6
CONTINUOUS
 62
     7
 10
-26.33265338535216
 20
-5.813502385252586
 30
0.0
 11
-27.49787223515216
 21
-6.237607363002584
 31
0.0
  0
LINE
  5
74C
  8
0
  6
CONTINUOUS
 62
     7
 10
-24.74332955785215
 20
-6.554616257302579
 30
0.0
 11
-25.16743453560215
 21
-5.389397407552582
 31
0.0
  0
LINE
  5
74D
  8
0
  6
CONTINUOUS
 62
     7
 10
-25.16743453560215
 20
-5.389397407552582
 30
0.0
 11
-26.33265338535216
 21
-5.813502385252586
 31
0.0
  0
LINE
  5
74E
  8
0
  6
CONTINUOUS
 62
     7
 10
-27.70778504605215
 20
-12.91191156730259
 30
0.0
 11
-26.54256619630215
 21
-12.48780658960258
 31
0.0
  0
LINE
  5
74F
  8
0
  6
CONTINUOUS
 62
     7
 10
-27.70778504605215
 20
-12.91191156730259
 30
0.0
 11
-29.29710887355216
 21
-12.17079769525258
 31
0.0
  0
LINE
  5
750
  8
0
  6
CONTINUOUS
 62
     7
 10
-29.72121385130217
 20
-11.00557884550258
 30
0.0
 11
-29.32578897980216
 21
-10.86165596240259
 31
0.0
  0
LINE
  5
751
  8
0
  6
CONTINUOUS
 62
     7
 10
-26.68648907940215
 20
-12.09238171810258
 30
0.0
 11
-26.54256619630215
 21
-12.48780658960258
 31
0.0
  0
LINE
  5
752
  8
0
  6
CONTINUOUS
 62
     7
 10
-29.72121385130217
 20
-11.00557884550258
 30
0.0
 11
-29.29710887355216
 21
-12.17079769525258
 31
0.0
  0
LINE
  5
753
  8
0
  6
CONTINUOUS
 62
     7
 10
-24.21212849675216
 20
-11.63959663415259
 30
0.0
 11
-23.47101462470215
 21
-10.05027280665258
 31
0.0
  0
LINE
  5
754
  8
0
  6
CONTINUOUS
 62
     7
 10
-24.21212849675216
 20
-11.63959663415259
 30
0.0
 11
-25.37734734650216
 21
-12.06370161185259
 31
0.0
  0
LINE
  5
755
  8
0
  6
CONTINUOUS
 62
     7
 10
-25.52127022960215
 20
-11.66827674040259
 30
0.0
 11
-25.37734734650216
 21
-12.06370161185259
 31
0.0
  0
LINE
  5
756
  8
0
  6
CONTINUOUS
 62
     7
 10
-23.89511960240216
 20
-8.885053956852584
 30
0.0
 11
-24.29054447390216
 21
-9.028976840002581
 31
0.0
  0
LINE
  5
757
  8
0
  6
CONTINUOUS
 62
     7
 10
-23.89511960240216
 20
-8.885053956852584
 30
0.0
 11
-23.47101462470215
 21
-10.05027280665258
 31
0.0
  0
LINE
  5
758
  8
0
  6
CONTINUOUS
 62
     7
 10
-28.87300389585215
 20
-13.33601654505258
 30
0.0
 11
-27.70778504605215
 21
-12.91191156730259
 31
0.0
  0
LINE
  5
759
  8
0
  6
CONTINUOUS
 62
     7
 10
-29.29710887355216
 20
-12.17079769525258
 30
0.0
 11
-28.87300389585215
 21
-13.33601654505258
 31
0.0
  0
LINE
  5
75A
  8
0
  6
CONTINUOUS
 62
     7
 10
-23.04690964695216
 20
-11.21549165640259
 30
0.0
 11
-24.21212849675216
 21
-11.63959663415259
 31
0.0
  0
LINE
  5
75B
  8
0
  6
CONTINUOUS
 62
     7
 10
-23.47101462470215
 20
-10.05027280665258
 30
0.0
 11
-23.04690964695216
 21
-11.21549165640259
 31
0.0
  0
LINE
  5
75C
  8
0
  6
CONTINUOUS
 62
     7
 10
-28.66309108490216
 20
-6.661712340702588
 30
0.0
 11
-27.49787223515216
 21
-6.237607363002584
 31
0.0
  0
LINE
  5
75D
  8
0
  6
CONTINUOUS
 62
     7
 10
-30.14531882900215
 20
-9.84035999570258
 30
0.0
 11
-29.72121385130217
 21
-11.00557884550258
 31
0.0
  0
LINE
  5
75E
  8
0
  6
CONTINUOUS
 62
     7
 10
-24.31922458015215
 20
-7.719835107102578
 30
0.0
 11
-23.89511960240216
 21
-8.885053956852584
 31
0.0
  0
LINE
  5
75F
  8
0
  6
CONTINUOUS
 62
     7
 10
-26.54256619630215
 20
-12.48780658960258
 30
0.0
 11
-25.37734734650216
 21
-12.06370161185259
 31
0.0
  0
LINE
  5
760
  8
0
  6
CONTINUOUS
 62
     7
 10
-19.13164465000216
 20
0.101375483547411
 30
0.0
 11
-20.14739318490216
 21
0.8126102646474145
 31
0.0
  0
LINE
  5
761
  8
0
  6
CONTINUOUS
 62
     7
 10
-20.14739318490216
 20
0.8126102646474145
 30
0.0
 11
-20.85862796600216
 21
-0.2031382702525839
 31
0.0
  0
LINE
  5
762
  8
0
  6
CONTINUOUS
 62
     7
 10
-20.85862796600216
 20
-0.2031382702525839
 30
0.0
 11
-19.13164465000216
 21
0.101375483547411
 31
0.0
  0
LINE
  5
763
  8
0
  6
CONTINUOUS
 62
     7
 10
-18.11589611505215
 20
-0.6098592975025845
 30
0.0
 11
-19.13164465000216
 21
0.101375483547411
 31
0.0
  0
LINE
  5
764
  8
0
  6
CONTINUOUS
 62
     7
 10
-18.11589611505215
 20
-0.6098592975025845
 30
0.0
 11
-18.35725843250216
 21
-0.9545604100525829
 31
0.0
  0
LINE
  5
765
  8
0
  6
CONTINUOUS
 62
     7
 10
-21.22516163450216
 20
-1.460249122602587
 30
0.0
 11
-21.56986274705216
 21
-1.218886805202583
 31
0.0
  0
LINE
  5
766
  8
0
  6
CONTINUOUS
 62
     7
 10
-20.85862796600216
 20
-0.2031382702525839
 30
0.0
 11
-21.56986274705216
 21
-1.218886805202583
 31
0.0
  0
LINE
  5
767
  8
0
  6
CONTINUOUS
 62
     7
 10
-21.67207002045215
 20
-5.688601972102585
 30
0.0
 11
-22.68781855535215
 21
-4.977367191002589
 31
0.0
  0
LINE
  5
768
  8
0
  6
CONTINUOUS
 62
     7
 10
-22.99233230920215
 20
-3.250383875002587
 30
0.0
 11
-22.28109752815216
 21
-2.234635340102589
 31
0.0
  0
LINE
  5
769
  8
0
  6
CONTINUOUS
 62
     7
 10
-21.93639641560216
 20
-2.475997657552586
 30
0.0
 11
-22.28109752815216
 21
-2.234635340102589
 31
0.0
  0
LINE
  5
76A
  8
0
  6
CONTINUOUS
 62
     7
 10
-21.67207002045215
 20
-5.688601972102585
 30
0.0
 11
-21.43070770300216
 21
-5.343900859552587
 31
0.0
  0
LINE
  5
76B
  8
0
  6
CONTINUOUS
 62
     7
 10
-22.68781855535215
 20
-4.977367191002589
 30
0.0
 11
-23.70356709030216
 21
-4.266132409952586
 31
0.0
  0
LINE
  5
76C
  8
0
  6
CONTINUOUS
 62
     7
 10
-23.70356709030216
 20
-4.266132409952586
 30
0.0
 11
-22.99233230920215
 21
-3.250383875002587
 31
0.0
  0
LINE
  5
76D
  8
0
  6
CONTINUOUS
 62
     7
 10
-22.99233230920215
 20
-3.250383875002587
 30
0.0
 11
-22.68781855535215
 21
-4.977367191002589
 31
0.0
  0
LINE
  5
76E
  8
0
  6
CONTINUOUS
 62
     7
 10
-15.77988529140215
 20
-3.759312175652585
 30
0.0
 11
-16.08439904525216
 21
-2.032328859652583
 31
0.0
  0
LINE
  5
76F
  8
0
  6
CONTINUOUS
 62
     7
 10
-15.77988529140215
 20
-3.759312175652585
 30
0.0
 11
-16.49112007245216
 21
-4.775060710552584
 31
0.0
  0
LINE
  5
770
  8
0
  6
CONTINUOUS
 62
     7
 10
-16.83582118500216
 20
-4.533698393152587
 30
0.0
 11
-16.49112007245216
 21
-4.775060710552584
 31
0.0
  0
LINE
  5
771
  8
0
  6
CONTINUOUS
 62
     7
 10
-17.10014758015215
 20
-1.321094078602588
 30
0.0
 11
-17.34150989760215
 21
-1.665795191102585
 31
0.0
  0
LINE
  5
772
  8
0
  6
CONTINUOUS
 62
     7
 10
-17.10014758015215
 20
-1.321094078602588
 30
0.0
 11
-16.08439904525216
 21
-2.032328859652583
 31
0.0
  0
LINE
  5
773
  8
0
  6
CONTINUOUS
 62
     7
 10
-17.91358963460216
 20
-6.806557780402581
 30
0.0
 11
-17.20235485355215
 21
-5.790809245502583
 31
0.0
  0
LINE
  5
774
  8
0
  6
CONTINUOUS
 62
     7
 10
-17.91358963460216
 20
-6.806557780402581
 30
0.0
 11
-19.64057295060215
 21
-7.111071534252584
 31
0.0
  0
LINE
  5
775
  8
0
  6
CONTINUOUS
 62
     7
 10
-20.65632148555216
 20
-6.399836753152588
 30
0.0
 11
-20.41495916810216
 21
-6.055135640602582
 31
0.0
  0
LINE
  5
776
  8
0
  6
CONTINUOUS
 62
     7
 10
-17.54705596610216
 20
-5.549446928052586
 30
0.0
 11
-17.20235485355215
 21
-5.790809245502583
 31
0.0
  0
LINE
  5
777
  8
0
  6
CONTINUOUS
 62
     7
 10
-20.65632148555216
 20
-6.399836753152588
 30
0.0
 11
-19.64057295060215
 21
-7.111071534252584
 31
0.0
  0
LINE
  5
778
  8
0
  6
CONTINUOUS
 62
     7
 10
-15.06865051030215
 20
-2.743563640752587
 30
0.0
 11
-15.77988529140215
 21
-3.759312175652585
 31
0.0
  0
LINE
  5
779
  8
0
  6
CONTINUOUS
 62
     7
 10
-16.08439904525216
 20
-2.032328859652583
 30
0.0
 11
-15.06865051030215
 21
-2.743563640752587
 31
0.0
  0
LINE
  5
77A
  8
0
  6
CONTINUOUS
 62
     7
 10
-18.62482441570216
 20
-7.82230631530258
 30
0.0
 11
-17.91358963460216
 21
-6.806557780402581
 31
0.0
  0
LINE
  5
77B
  8
0
  6
CONTINUOUS
 62
     7
 10
-19.64057295060215
 20
-7.111071534252584
 30
0.0
 11
-18.62482441570216
 21
-7.82230631530258
 31
0.0
  0
LINE
  5
77C
  8
0
  6
CONTINUOUS
 62
     7
 10
-22.28109752815216
 20
-2.234635340102589
 30
0.0
 11
-21.56986274705216
 21
-1.218886805202583
 31
0.0
  0
LINE
  5
77D
  8
0
  6
CONTINUOUS
 62
     7
 10
-18.11589611505215
 20
-0.6098592975025845
 30
0.0
 11
-17.10014758015215
 21
-1.321094078602588
 31
0.0
  0
LINE
  5
77E
  8
0
  6
CONTINUOUS
 62
     7
 10
-21.67207002045215
 20
-5.688601972102585
 30
0.0
 11
-20.65632148555216
 21
-6.399836753152588
 31
0.0
  0
LINE
  5
77F
  8
0
  6
CONTINUOUS
 62
     7
 10
-17.20235485355215
 20
-5.790809245502583
 30
0.0
 11
-16.49112007245216
 21
-4.775060710552584
 31
0.0
  0
LINE
  5
780
  8
0
  6
CONTINUOUS
 62
     7
 10
-46.86918690280216
 20
-0.6098592975025809
 30
0.0
 11
-45.85343836785216
 21
0.1013754835474145
 31
0.0
  0
LINE
  5
781
  8
0
  6
CONTINUOUS
 62
     7
 10
-44.12645505185215
 20
-0.2031382702525804
 30
0.0
 11
-43.41522027080216
 21
-1.21888680520258
 31
0.0
  0
LINE
  5
782
  8
0
  6
CONTINUOUS
 62
     7
 10
-43.75992138335216
 20
-1.460249122602583
 30
0.0
 11
-43.41522027080216
 21
-1.21888680520258
 31
0.0
  0
LINE
  5
783
  8
0
  6
CONTINUOUS
 62
     7
 10
-46.86918690280216
 20
-0.6098592975025809
 30
0.0
 11
-46.62782458535216
 21
-0.9545604100525793
 31
0.0
  0
LINE
  5
784
  8
0
  6
CONTINUOUS
 62
     7
 10
-45.85343836785216
 20
0.1013754835474145
 30
0.0
 11
-44.83768983295216
 21
0.812610264647418
 31
0.0
  0
LINE
  5
785
  8
0
  6
CONTINUOUS
 62
     7
 10
-44.83768983295216
 20
0.812610264647418
 30
0.0
 11
-44.12645505185215
 21
-0.2031382702525804
 31
0.0
  0
LINE
  5
786
  8
0
  6
CONTINUOUS
 62
     7
 10
-44.12645505185215
 20
-0.2031382702525804
 30
0.0
 11
-45.85343836785216
 21
0.1013754835474145
 31
0.0
  0
LINE
  5
787
  8
0
  6
CONTINUOUS
 62
     7
 10
-49.20519772645216
 20
-3.759312175652582
 30
0.0
 11
-48.49396294540216
 21
-4.77506071055258
 31
0.0
  0
LINE
  5
788
  8
0
  6
CONTINUOUS
 62
     7
 10
-49.20519772645216
 20
-3.759312175652582
 30
0.0
 11
-48.90068397260216
 21
-2.03232885965258
 31
0.0
  0
LINE
  5
789
  8
0
  6
CONTINUOUS
 62
     7
 10
-47.88493543770215
 20
-1.321094078602584
 30
0.0
 11
-47.64357312025216
 21
-1.665795191102582
 31
0.0
  0
LINE
  5
78A
  8
0
  6
CONTINUOUS
 62
     7
 10
-48.14926183285215
 20
-4.533698393152584
 30
0.0
 11
-48.49396294540216
 21
-4.77506071055258
 31
0.0
  0
LINE
  5
78B
  8
0
  6
CONTINUOUS
 62
     7
 10
-47.88493543770215
 20
-1.321094078602584
 30
0.0
 11
-48.90068397260216
 21
-2.03232885965258
 31
0.0
  0
LINE
  5
78C
  8
0
  6
CONTINUOUS
 62
     7
 10
-49.91643250755216
 20
-2.743563640752583
 30
0.0
 11
-49.20519772645216
 21
-3.759312175652582
 31
0.0
  0
LINE
  5
78D
  8
0
  6
CONTINUOUS
 62
     7
 10
-48.90068397260216
 20
-2.03232885965258
 30
0.0
 11
-49.91643250755216
 21
-2.743563640752583
 31
0.0
  0
LINE
  5
78E
  8
0
  6
CONTINUOUS
 62
     7
 10
-41.99275070865215
 20
-3.250383875002584
 30
0.0
 11
-42.29726446250216
 21
-4.977367191002585
 31
0.0
  0
LINE
  5
78F
  8
0
  6
CONTINUOUS
 62
     7
 10
-43.31301299740215
 20
-5.688601972102583
 30
0.0
 11
-42.29726446250216
 21
-4.977367191002585
 31
0.0
  0
LINE
  5
790
  8
0
  6
CONTINUOUS
 62
     7
 10
-43.31301299740215
 20
-5.688601972102583
 30
0.0
 11
-43.55437531485216
 21
-5.343900859552584
 31
0.0
  0
LINE
  5
791
  8
0
  6
CONTINUOUS
 62
     7
 10
-43.04868660225215
 20
-2.475997657552583
 30
0.0
 11
-42.70398548970216
 21
-2.234635340102585
 31
0.0
  0
LINE
  5
792
  8
0
  6
CONTINUOUS
 62
     7
 10
-41.99275070865215
 20
-3.250383875002584
 30
0.0
 11
-42.70398548970216
 21
-2.234635340102585
 31
0.0
  0
LINE
  5
793
  8
0
  6
CONTINUOUS
 62
     7
 10
-42.29726446250216
 20
-4.977367191002585
 30
0.0
 11
-41.28151592755216
 21
-4.266132409952583
 31
0.0
  0
LINE
  5
794
  8
0
  6
CONTINUOUS
 62
     7
 10
-41.28151592755216
 20
-4.266132409952583
 30
0.0
 11
-41.99275070865215
 21
-3.250383875002584
 31
0.0
  0
LINE
  5
795
  8
0
  6
CONTINUOUS
 62
     7
 10
-47.07149338325216
 20
-6.806557780402578
 30
0.0
 11
-45.34451006725216
 21
-7.111071534252581
 31
0.0
  0
LINE
  5
796
  8
0
  6
CONTINUOUS
 62
     7
 10
-47.07149338325216
 20
-6.806557780402578
 30
0.0
 11
-47.78272816430216
 21
-5.790809245502579
 31
0.0
  0
LINE
  5
797
  8
0
  6
CONTINUOUS
 62
     7
 10
-47.43802705175216
 20
-5.549446928052582
 30
0.0
 11
-47.78272816430216
 21
-5.790809245502579
 31
0.0
  0
LINE
  5
798
  8
0
  6
CONTINUOUS
 62
     7
 10
-44.32876153230216
 20
-6.399836753152585
 30
0.0
 11
-44.57012384975216
 21
-6.055135640602579
 31
0.0
  0
LINE
  5
799
  8
0
  6
CONTINUOUS
 62
     7
 10
-44.32876153230216
 20
-6.399836753152585
 30
0.0
 11
-45.34451006725216
 21
-7.111071534252581
 31
0.0
  0
LINE
  5
79A
  8
0
  6
CONTINUOUS
 62
     7
 10
-46.36025860215216
 20
-7.822306315302576
 30
0.0
 11
-47.07149338325216
 21
-6.806557780402578
 31
0.0
  0
LINE
  5
79B
  8
0
  6
CONTINUOUS
 62
     7
 10
-45.34451006725216
 20
-7.111071534252581
 30
0.0
 11
-46.36025860215216
 21
-7.822306315302576
 31
0.0
  0
LINE
  5
79C
  8
0
  6
CONTINUOUS
 62
     7
 10
-46.86918690280216
 20
-0.6098592975025809
 30
0.0
 11
-47.88493543770215
 21
-1.321094078602584
 31
0.0
  0
LINE
  5
79D
  8
0
  6
CONTINUOUS
 62
     7
 10
-43.41522027080216
 20
-1.21888680520258
 30
0.0
 11
-42.70398548970216
 21
-2.234635340102585
 31
0.0
  0
LINE
  5
79E
  8
0
  6
CONTINUOUS
 62
     7
 10
-48.49396294540216
 20
-4.77506071055258
 30
0.0
 11
-47.78272816430216
 21
-5.790809245502579
 31
0.0
  0
LINE
  5
79F
  8
0
  6
CONTINUOUS
 62
     7
 10
-43.31301299740215
 20
-5.688601972102583
 30
0.0
 11
-44.32876153230216
 21
-6.399836753152585
 31
0.0
  0
LINE
  5
7A0
  8
0
  6
CONTINUOUS
 62
     7
 10
-40.24175346000216
 20
-6.554616257302578
 30
0.0
 11
-39.81764848225217
 21
-5.38939740755258
 31
0.0
  0
LINE
  5
7A1
  8
0
  6
CONTINUOUS
 62
     7
 10
-39.81764848225217
 20
-5.38939740755258
 30
0.0
 11
-38.65242963250216
 21
-5.813502385252584
 31
0.0
  0
LINE
  5
7A2
  8
0
  6
CONTINUOUS
 62
     7
 10
-38.65242963250216
 20
-5.813502385252584
 30
0.0
 11
-40.24175346000216
 21
-6.554616257302578
 31
0.0
  0
LINE
  5
7A3
  8
0
  6
CONTINUOUS
 62
     7
 10
-40.66585843770216
 20
-7.719835107102576
 30
0.0
 11
-40.24175346000216
 21
-6.554616257302578
 31
0.0
  0
LINE
  5
7A4
  8
0
  6
CONTINUOUS
 62
     7
 10
-38.65242963250216
 20
-5.813502385252584
 30
0.0
 11
-37.48721078270216
 21
-6.237607363002582
 31
0.0
  0
LINE
  5
7A5
  8
0
  6
CONTINUOUS
 62
     7
 10
-37.63113366580217
 20
-6.633032234452579
 30
0.0
 11
-37.48721078270216
 21
-6.237607363002582
 31
0.0
  0
LINE
  5
7A6
  8
0
  6
CONTINUOUS
 62
     7
 10
-40.66585843770216
 20
-7.719835107102576
 30
0.0
 11
-40.27043356625217
 21
-7.86375799020258
 31
0.0
  0
LINE
  5
7A7
  8
0
  6
CONTINUOUS
 62
     7
 10
-35.15677308315216
 20
-7.085817318452579
 30
0.0
 11
-34.41565921110217
 21
-8.675141145952589
 31
0.0
  0
LINE
  5
7A8
  8
0
  6
CONTINUOUS
 62
     7
 10
-34.83976418885216
 20
-9.84035999570258
 30
0.0
 11
-34.41565921110217
 21
-8.675141145952589
 31
0.0
  0
LINE
  5
7A9
  8
0
  6
CONTINUOUS
 62
     7
 10
-34.83976418885216
 20
-9.84035999570258
 30
0.0
 11
-35.23518906030216
 21
-9.69643711260259
 31
0.0
  0
LINE
  5
7AA
  8
0
  6
CONTINUOUS
 62
     7
 10
-36.46591481605216
 20
-7.057137212202585
 30
0.0
 11
-36.32199193295216
 21
-6.661712340702588
 31
0.0
  0
LINE
  5
7AB
  8
0
  6
CONTINUOUS
 62
     7
 10
-35.15677308315216
 20
-7.085817318452579
 30
0.0
 11
-36.32199193295216
 21
-6.661712340702588
 31
0.0
  0
LINE
  5
7AC
  8
0
  6
CONTINUOUS
 62
     7
 10
-40.77295452110215
 20
-11.63959663415259
 30
0.0
 11
-39.60773567135216
 21
-12.06370161185259
 31
0.0
  0
LINE
  5
7AD
  8
0
  6
CONTINUOUS
 62
     7
 10
-40.77295452110215
 20
-11.63959663415259
 30
0.0
 11
-41.51406839315216
 21
-10.05027280665258
 31
0.0
  0
LINE
  5
7AE
  8
0
  6
CONTINUOUS
 62
     7
 10
-41.08996341545216
 20
-8.88505395685258
 30
0.0
 11
-40.69453854395215
 21
-9.028976840002578
 31
0.0
  0
LINE
  5
7AF
  8
0
  6
CONTINUOUS
 62
     7
 10
-39.46381278820215
 20
-11.66827674040258
 30
0.0
 11
-39.60773567135216
 21
-12.06370161185259
 31
0.0
  0
LINE
  5
7B0
  8
0
  6
CONTINUOUS
 62
     7
 10
-41.08996341545216
 20
-8.88505395685258
 30
0.0
 11
-41.51406839315216
 21
-10.05027280665258
 31
0.0
  0
LINE
  5
7B1
  8
0
  6
CONTINUOUS
 62
     7
 10
-34.41565921110217
 20
-8.675141145952589
 30
0.0
 11
-33.99155423340216
 21
-7.50992229615259
 31
0.0
  0
LINE
  5
7B2
  8
0
  6
CONTINUOUS
 62
     7
 10
-33.99155423340216
 20
-7.50992229615259
 30
0.0
 11
-35.15677308315216
 21
-7.085817318452579
 31
0.0
  0
LINE
  5
7B3
  8
0
  6
CONTINUOUS
 62
     7
 10
-41.93817337090215
 20
-11.21549165640258
 30
0.0
 11
-40.77295452110215
 21
-11.63959663415259
 31
0.0
  0
LINE
  5
7B4
  8
0
  6
CONTINUOUS
 62
     7
 10
-41.51406839315216
 20
-10.05027280665258
 30
0.0
 11
-41.93817337090215
 21
-11.21549165640258
 31
0.0
  0
LINE
  5
7B5
  8
0
  6
CONTINUOUS
 62
     7
 10
-37.27729797180216
 20
-12.91191156730259
 30
0.0
 11
-35.68797414430216
 21
-12.17079769525258
 31
0.0
  0
LINE
  5
7B6
  8
0
  6
CONTINUOUS
 62
     7
 10
-37.27729797180216
 20
-12.91191156730259
 30
0.0
 11
-38.44251682155216
 21
-12.48780658960258
 31
0.0
  0
LINE
  5
7B7
  8
0
  6
CONTINUOUS
 62
     7
 10
-38.29859393845216
 20
-12.09238171810258
 30
0.0
 11
-38.44251682155216
 21
-12.48780658960258
 31
0.0
  0
LINE
  5
7B8
  8
0
  6
CONTINUOUS
 62
     7
 10
-35.26386916655215
 20
-11.00557884550258
 30
0.0
 11
-35.65929403805217
 21
-10.86165596240259
 31
0.0
  0
LINE
  5
7B9
  8
0
  6
CONTINUOUS
 62
     7
 10
-35.26386916655215
 20
-11.00557884550258
 30
0.0
 11
-35.68797414430216
 21
-12.17079769525258
 31
0.0
  0
LINE
  5
7BA
  8
0
  6
CONTINUOUS
 62
     7
 10
-36.11207912200216
 20
-13.33601654505258
 30
0.0
 11
-37.27729797180216
 21
-12.91191156730259
 31
0.0
  0
LINE
  5
7BB
  8
0
  6
CONTINUOUS
 62
     7
 10
-35.68797414430216
 20
-12.17079769525258
 30
0.0
 11
-36.11207912200216
 21
-13.33601654505258
 31
0.0
  0
LINE
  5
7BC
  8
0
  6
CONTINUOUS
 62
     7
 10
-37.48721078270216
 20
-6.237607363002582
 30
0.0
 11
-36.32199193295216
 21
-6.661712340702588
 31
0.0
  0
LINE
  5
7BD
  8
0
  6
CONTINUOUS
 62
     7
 10
-40.66585843770216
 20
-7.719835107102576
 30
0.0
 11
-41.08996341545216
 21
-8.88505395685258
 31
0.0
  0
LINE
  5
7BE
  8
0
  6
CONTINUOUS
 62
     7
 10
-34.83976418885216
 20
-9.84035999570258
 30
0.0
 11
-35.26386916655215
 21
-11.00557884550258
 31
0.0
  0
LINE
  5
7BF
  8
0
  6
CONTINUOUS
 62
     7
 10
-39.60773567135216
 20
-12.06370161185259
 30
0.0
 11
-38.44251682155216
 21
-12.48780658960258
 31
0.0
  0
LINE
  5
7C0
  8
0
  6
CONTINUOUS
 62
     7
 10
34.27762082019831
 20
4.022374956297423
 30
0.0
 11
34.27762082019831
 21
7.346236694397422
 31
0.0
  0
LINE
  5
7C1
  8
0
  6
CONTINUOUS
 62
     7
 10
34.47762082019831
 20
27.67237495629742
 30
0.0
 11
46.9776208201983
 21
27.67237495629742
 31
0.0
  0
LINE
  5
7C2
  8
0
  6
CONTINUOUS
 62
     7
 10
46.97762082019831
 20
-16.32762504370257
 30
0.0
 11
28.47762082019831
 21
-16.32762504370257
 31
0.0
  0
ARC
  5
7C3
  8
0
  6
CONTINUOUS
 62
     7
 10
28.47762082019831
 20
-15.32762504370257
 30
0.0
 40
1.0
 50
180.0
 51
270.0
  0
LINE
  5
7C4
  8
0
  6
CONTINUOUS
 62
     7
 10
28.47762082019831
 20
27.06845301064742
 30
0.0
 11
34.38052547629832
 21
27.06845301064742
 31
0.0
  0
ARC
  5
7C5
  8
0
  6
CONTINUOUS
 62
     7
 10
34.47762082019831
 20
27.47237495629743
 30
0.0
 40
0.2
 50
90.00000000000001
 51
180.0
  0
ARC
  5
7C6
  8
0
  6
CONTINUOUS
 62
     7
 10
28.47762082019831
 20
26.06845301064742
 30
0.0
 40
1.0
 50
90.00000000000001
 51
180.0
  0
ARC
  5
7C7
  8
0
  6
CONTINUOUS
 62
     7
 10
27.44850067854831
 20
-11.11270697630258
 30
0.0
 40
1.0
 50
196.9577633000002
 51
270.0
  0
ARC
  5
7C8
  8
0
  6
CONTINUOUS
 62
     7
 10
27.44850067854831
 20
-7.612706976302579
 30
0.0
 40
1.0
 50
90.00000000000001
 51
163.0422366999998
  0
LINE
  5
7C9
  8
0
  6
CONTINUOUS
 62
     7
 10
27.47762082019831
 20
-12.11270697630258
 30
0.0
 11
27.44850067854831
 21
-12.11270697630258
 31
0.0
  0
LINE
  5
7CA
  8
0
  6
CONTINUOUS
 62
     7
 10
27.44850067854831
 20
-6.612706976302579
 30
0.0
 11
27.47762082019831
 21
-6.612706976302579
 31
0.0
  0
ARC
  5
7CB
  8
0
  6
CONTINUOUS
 62
     7
 10
33.1876208201983
 20
-9.36270697630258
 30
0.0
 40
7.0
 50
191.7683060272
 51
196.9577633
  0
ARC
  5
7CC
  8
0
  6
CONTINUOUS
 62
     7
 10
33.1876208201983
 20
-9.36270697630258
 30
0.0
 40
7.0
 50
163.0422367
 51
168.2316939728
  0
LINE
  5
7CD
  8
0
  6
CONTINUOUS
 62
     7
 10
26.64606416124832
 20
-8.621711911952577
 30
0.0
 11
26.25694315459832
 21
-8.587668235102573
 31
0.0
  0
LINE
  5
7CE
  8
0
  6
CONTINUOUS
 62
     7
 10
26.25694315459832
 20
-10.13774571750257
 30
0.0
 11
26.27730008599831
 21
-10.13596471675259
 31
0.0
  0
ARC
  5
7CF
  8
0
  6
CONTINUOUS
 62
     7
 10
27.44850067854831
 20
-5.254848025352576
 30
0.0
 40
1.0
 50
196.9577633000002
 51
270.0
  0
ARC
  5
7D0
  8
0
  6
CONTINUOUS
 62
     7
 10
27.44850067854831
 20
-1.754848025352576
 30
0.0
 40
1.0
 50
90.00000000000001
 51
163.0422366999998
  0
LINE
  5
7D1
  8
0
  6
CONTINUOUS
 62
     7
 10
27.47762082019831
 20
-6.254848025352576
 30
0.0
 11
27.44850067854831
 21
-6.254848025352576
 31
0.0
  0
LINE
  5
7D2
  8
0
  6
CONTINUOUS
 62
     7
 10
27.44850067854831
 20
-0.754848025352576
 30
0.0
 11
27.47762082019831
 21
-0.754848025352576
 31
0.0
  0
ARC
  5
7D3
  8
0
  6
CONTINUOUS
 62
     7
 10
33.1876208201983
 20
-3.504848025352574
 30
0.0
 40
7.0
 50
187.8609981996
 51
196.9577633
  0
ARC
  5
7D4
  8
0
  6
CONTINUOUS
 62
     7
 10
33.1876208201983
 20
-3.504848025352574
 30
0.0
 40
7.0
 50
163.0422367
 51
172.1358505005001
  0
LINE
  5
7D5
  8
0
  6
CONTINUOUS
 62
     7
 10
26.24882338249832
 20
-4.391372838702576
 30
0.0
 11
26.40268367084832
 21
-4.377911807702578
 31
0.0
  0
LINE
  5
7D6
  8
0
  6
CONTINUOUS
 62
     7
 10
26.35007947214831
 20
-2.627181971902576
 30
0.0
 11
26.24882338249832
 21
-2.618323211952582
 31
0.0
  0
ARC
  5
7D7
  8
0
  6
CONTINUOUS
 62
     7
 10
27.44850067854831
 20
13.09959793789742
 30
0.0
 40
1.0
 50
196.9577633000002
 51
270.0
  0
ARC
  5
7D8
  8
0
  6
CONTINUOUS
 62
     7
 10
27.44850067854831
 20
16.59959793789742
 30
0.0
 40
1.0
 50
90.00000000000001
 51
163.0422366999998
  0
LINE
  5
7D9
  8
0
  6
CONTINUOUS
 62
     7
 10
27.47762082019831
 20
12.09959793789742
 30
0.0
 11
27.44850067854831
 21
12.09959793789742
 31
0.0
  0
LINE
  5
7DA
  8
0
  6
CONTINUOUS
 62
     7
 10
27.44850067854831
 20
17.59959793789742
 30
0.0
 11
27.47762082019831
 21
17.59959793789742
 31
0.0
  0
ARC
  5
7DB
  8
0
  6
CONTINUOUS
 62
     7
 10
33.1876208201983
 20
14.84959793789742
 30
0.0
 40
7.0
 50
163.0422367
 51
172.1372647667
  0
ARC
  5
7DC
  8
0
  6
CONTINUOUS
 62
     7
 10
33.1876208201983
 20
14.84959793789742
 30
0.0
 40
7.0
 50
187.8598911849
 51
196.9577633
  0
LINE
  5
7DD
  8
0
  6
CONTINUOUS
 62
     7
 10
26.40268367084832
 20
15.72266172029742
 30
0.0
 11
26.24878307009831
 21
15.73612627814742
 31
0.0
  0
LINE
  5
7DE
  8
0
  6
CONTINUOUS
 62
     7
 10
26.24878307009831
 20
13.96306959764742
 30
0.0
 11
26.35007947214831
 21
13.97193188449742
 31
0.0
  0
ARC
  5
7DF
  8
0
  6
CONTINUOUS
 62
     7
 10
33.1876208201983
 20
-3.504848025352574
 30
0.0
 40
7.0
 50
163.0422367
 51
172.1372647667
  0
ARC
  5
7E0
  8
0
  6
CONTINUOUS
 62
     7
 10
33.1876208201983
 20
-3.504848025352574
 30
0.0
 40
7.0
 50
187.8598911849
 51
196.9577633
  0
LINE
  5
7E1
  8
0
  6
CONTINUOUS
 62
     7
 10
46.97762082019831
 20
-16.32762504370257
 30
0.0
 11
46.9776208201983
 21
27.67237495629742
 31
0.0
  0
LINE
  5
7E2
  8
0
  6
CONTINUOUS
 62
     7
 10
34.27762082019831
 20
7.815870452447424
 30
0.0
 11
34.27762082019831
 21
3.528879460147419
 31
0.0
  0
LINE
  5
7E3
  8
0
  6
CONTINUOUS
 62
     7
 10
28.47762082019831
 20
7.32237495629742
 30
0.0
 11
34.27762082019831
 21
7.32237495629742
 31
0.0
  0
LINE
  5
7E4
  8
0
  6
CONTINUOUS
 62
     7
 10
34.27762082019831
 20
4.022374956297423
 30
0.0
 11
28.47762082019831
 21
4.022374956297423
 31
0.0
  0
ARC
  5
7E5
  8
0
  6
CONTINUOUS
 62
     7
 10
28.47762082019831
 20
8.32237495629742
 30
0.0
 40
1.0
 50
180.0
 51
270.0
  0
ARC
  5
7E6
  8
0
  6
CONTINUOUS
 62
     7
 10
28.47762082019831
 20
3.022374956297423
 30
0.0
 40
1.0
 50
90.00000000000001
 51
180.0
  0
LINE
  5
7E7
  8
0
  6
CONTINUOUS
 62
     7
 10
27.47762082019831
 20
3.022374956297423
 30
0.0
 11
27.47762082019831
 21
-15.32762504370257
 31
0.0
  0
LINE
  5
7E8
  8
0
  6
CONTINUOUS
 62
     7
 10
27.47762082019831
 20
26.06845301064742
 30
0.0
 11
27.47762082019831
 21
8.32237495629742
 31
0.0
  0
LINE
  5
7E9
  8
0
  6
CONTINUOUS
 62
     7
 10
27.47762082019831
 20
3.522374956297423
 30
0.0
 11
27.47762082019831
 21
0.8223749562974199
 31
0.0
  0
LINE
  5
7EA
  8
0
  6
CONTINUOUS
 62
     7
 10
27.47762082019831
 20
10.52237495629742
 30
0.0
 11
27.47762082019831
 21
7.82237495629742
 31
0.0
  0
LINE
  5
7EB
  8
0
  6
CONTINUOUS
 62
     7
 10
27.47762082019831
 20
17.59959793789742
 30
0.0
 11
27.47762082019831
 21
19.72423262279742
 31
0.0
  0
LINE
  5
7EC
  8
0
  6
CONTINUOUS
 62
     7
 10
27.47762082019831
 20
-8.379482710252578
 30
0.0
 11
27.47762082019831
 21
-6.254848025352576
 31
0.0
  0
LINE
  5
7ED
  8
0
  6
CONTINUOUS
 62
     7
 10
28.47762082019831
 20
4.022374956297423
 30
0.0
 11
27.97762082019831
 21
4.022374956297423
 31
0.0
  0
ARC
  5
7EE
  8
0
  6
CONTINUOUS
 62
     7
 10
27.97762082019831
 20
3.522374956297423
 30
0.0
 40
0.5
 50
90.00000000000001
 51
180.0
  0
ARC
  5
7EF
  8
0
  6
CONTINUOUS
 62
     7
 10
27.97762082019831
 20
7.82237495629742
 30
0.0
 40
0.5
 50
180.0
 51
270.0
  0
LINE
  5
7F0
  8
0
  6
CONTINUOUS
 62
     7
 10
27.97762082019831
 20
7.32237495629742
 30
0.0
 11
28.47762082019831
 21
7.32237495629742
 31
0.0
  0
LINE
  5
7F1
  8
0
  6
CONTINUOUS
 62
     7
 10
34.27762082019831
 20
27.47237495629743
 30
0.0
 11
34.27762082019831
 21
27.06845301064742
 31
0.0
  0
LINE
  5
7F2
  8
0
  6
CONTINUOUS
 62
     7
 10
27.47762082019831
 20
-14.19884091090258
 30
0.0
 11
27.47762082019831
 21
-12.11270697630258
 31
0.0
  0
LINE
  5
7F3
  8
0
  6
CONTINUOUS
 62
     7
 10
27.47762082019831
 20
-0.754848025352576
 30
0.0
 11
27.47762082019831
 21
1.90884738269742
 31
0.0
  0
LINE
  5
7F4
  8
0
  6
CONTINUOUS
 62
     7
 10
27.47762082019831
 20
3.522374956297423
 30
0.0
 11
27.47762082019831
 21
1.90884738269742
 31
0.0
  0
LINE
  5
7F5
  8
0
  6
CONTINUOUS
 62
     7
 10
27.47762082019831
 20
11.91437528314742
 30
0.0
 11
27.34860914289831
 21
12.10459960569742
 31
0.0
  0
LINE
  5
7F6
  8
0
  6
CONTINUOUS
 62
     7
 10
26.56200170139832
 20
12.63686738624742
 30
0.0
 11
26.48762082019832
 21
12.63686738624742
 31
0.0
  0
LINE
  5
7F7
  8
0
  6
CONTINUOUS
 62
     7
 10
26.48762082019832
 20
12.63686738624742
 30
0.0
 11
26.48762082019832
 21
10.17941125334742
 31
0.0
  0
LINE
  5
7F8
  8
0
  6
CONTINUOUS
 62
     7
 10
26.48762082019832
 20
10.17941125334742
 30
0.0
 11
26.98762082019832
 21
10.17941125334742
 31
0.0
  0
LINE
  5
7F9
  8
0
  6
CONTINUOUS
 62
     7
 10
26.98762082019832
 20
10.17941125334742
 30
0.0
 11
27.47762082019831
 21
10.90190335639742
 31
0.0
  0
LINE
  5
7FA
  8
0
  6
CONTINUOUS
 62
     7
 10
26.98762082019832
 20
9.72055010429742
 30
0.0
 11
27.47762082019831
 21
10.44304220734742
 31
0.0
  0
LINE
  5
7FB
  8
0
  6
CONTINUOUS
 62
     7
 10
26.98762082019832
 20
10.17941125334742
 30
0.0
 11
26.98762082019832
 21
9.72055010429742
 31
0.0
  0
LINE
  5
7FC
  8
0
  6
CONTINUOUS
 62
     7
 10
26.48762082019832
 20
9.72055010429742
 30
0.0
 11
26.98762082019832
 21
9.72055010429742
 31
0.0
  0
LINE
  5
7FD
  8
0
  6
CONTINUOUS
 62
     7
 10
26.48762082019832
 20
10.17941125334742
 30
0.0
 11
26.48762082019832
 21
9.72055010429742
 31
0.0
  0
LINE
  5
7FE
  8
0
  6
CONTINUOUS
 62
     7
 10
27.28762082019831
 20
-8.904553607152582
 30
0.0
 11
27.28762082019831
 21
-7.979203367002572
 31
0.0
  0
LINE
  5
7FF
  8
0
  6
CONTINUOUS
 62
     7
 10
26.27893056699831
 20
-8.578841785002584
 30
0.0
 11
26.27295572014832
 21
-8.61832146480258
 31
0.0
  0
LINE
  5
800
  8
0
  6
CONTINUOUS
 62
     7
 10
26.27295572014832
 20
-10.44446938720258
 30
0.0
 11
26.34098300084831
 21
-10.43754355090258
 31
0.0
  0
LINE
  5
801
  8
0
  6
CONTINUOUS
 62
     7
 10
27.28762082019831
 20
-1.581837651552579
 30
0.0
 11
27.28762082019831
 21
-1.01701562210258
 31
0.0
  0
LINE
  5
802
  8
0
  6
CONTINUOUS
 62
     7
 10
26.27295572014832
 20
-4.46619241395258
 30
0.0
 11
26.41579668844831
 21
-4.450380400802576
 31
0.0
  0
LINE
  5
803
  8
0
  6
CONTINUOUS
 62
     7
 10
27.28762082019831
 20
12.36176553464742
 30
0.0
 11
27.28762082019831
 21
12.92658756409742
 31
0.0
  0
LINE
  5
804
  8
0
  6
CONTINUOUS
 62
     7
 10
26.25382415804832
 20
15.80676832829742
 30
0.0
 11
26.24734094034831
 21
15.75583742444742
 31
0.0
  0
LINE
  5
805
  8
0
  6
CONTINUOUS
 62
     7
 10
26.41579668844831
 20
15.79453320739742
 30
0.0
 11
26.27295572014832
 21
15.81094232654742
 31
0.0
  0
ARC
  5
806
  8
0
  6
CONTINUOUS
 62
     7
 10
-52.71645074517524
 20
7.822374956297416
 30
0.0
 40
0.5
 50
270.0
 51
329.9999999999999
  0
ARC
  5
807
  8
0
  6
CONTINUOUS
 62
     7
 10
-45.26863227262907
 20
7.822374956297416
 30
0.0
 40
0.5
 50
210.0000000000001
 51
270.0
  0
ARC
  5
808
  8
0
  6
CONTINUOUS
 62
     7
 10
-45.26863227262907
 20
3.522374956297419
 30
0.0
 40
0.5
 50
90.0
 51
150.0
  0
ARC
  5
809
  8
0
  6
CONTINUOUS
 62
     7
 10
-52.71645074517524
 20
3.522374956297419
 30
0.0
 40
0.5
 50
30.00000000000004
 51
90.0
  0
ARC
  5
80A
  8
0
  6
CONTINUOUS
 62
     7
 10
-19.71645074517524
 20
7.822374956297413
 30
0.0
 40
0.5
 50
270.0
 51
330.0000000000001
  0
ARC
  5
80B
  8
0
  6
CONTINUOUS
 62
     7
 10
-12.26863227262906
 20
3.522374956297416
 30
0.0
 40
0.5
 50
90.0
 51
150.0
  0
ARC
  5
80C
  8
0
  6
CONTINUOUS
 62
     7
 10
-19.71645074517524
 20
3.522374956297416
 30
0.0
 40
0.5
 50
29.99999999999993
 51
90.0
  0
INSERT
  5
80D
  8
0
  6
CONTINUOUS
  2
DC_GROUP_1
 10
0.0
 20
0.0
 30
0.0
  0
INSERT
  5
80E
  8
0
  6
CONTINUOUS
  2
DC_GROUP_2
 10
0.0
 20
0.0
 30
0.0
  0
INSERT
  5
80F
  8
0
  6
CONTINUOUS
  2
DC_GROUP_3
 10
0.0
 20
0.0
 30
0.0
  0
INSERT
  5
810
  8
0
  6
CONTINUOUS
  2
DC_GROUP_4
 10
0.0
 20
0.0
 30
0.0
  0
INSERT
  5
811
  8
0
  6
CONTINUOUS
  2
DC_GROUP_5
 10
0.0
 20
0.0
 30
0.0
  0
INSERT
  5
812
  8
0
  6
CONTINUOUS
  2
DC_GROUP_6
 10
0.0
 20
0.0
 30
0.0
  0
INSERT
  5
813
  8
0
  6
CONTINUOUS
  2
DC_GROUP_7
 10
0.0
 20
0.0
 30
0.0
  0
INSERT
  5
814
  8
0
  6
CONTINUOUS
  2
DC_GROUP_8
 10
0.0
 20
0.0
 30
0.0
  0
INSERT
  5
815
  8
0
  6
CONTINUOUS
  2
DC_GROUP_9
 10
0.0
 20
0.0
 30
0.0
  0
INSERT
  5
816
  8
0
  6
CONTINUOUS
  2
DC_GROUP_10
 10
0.0
 20
0.0
 30
0.0
  0
INSERT
  5
817
  8
0
  6
CONTINUOUS
  2
DC_GROUP_11
 10
0.0
 20
0.0
 30
0.0
  0
INSERT
  5
818
  8
0
  6
CONTINUOUS
  2
DC_GROUP_12
 10
0.0
 20
0.0
 30
0.0
  0
INSERT
  5
819
  8
0
  6
CONTINUOUS
  2
DC_GROUP_13
 10
0.0
 20
0.0
 30
0.0
  0
INSERT
  5
81A
  8
0
  6
CONTINUOUS
  2
DC_GROUP_14
 10
0.0
 20
0.0
 30
0.0
  0
INSERT
  5
81B
  8
0
  6
CONTINUOUS
  2
DC_GROUP_15
 10
0.0
 20
0.0
 30
0.0
  0
INSERT
  5
81C
  8
0
  6
CONTINUOUS
  2
DC_GROUP_16
 10
0.0
 20
0.0
 30
0.0
  0
INSERT
  5
81D
  8
0
  6
CONTINUOUS
  2
DC_GROUP_17
 10
0.0
 20
0.0
 30
0.0
  0
INSERT
  5
81E
  8
0
  6
CONTINUOUS
  2
DC_GROUP_18
 10
0.0
 20
0.0
 30
0.0
  0
INSERT
  5
81F
  8
0
  6
CONTINUOUS
  2
DC_GROUP_19
 10
0.0
 20
0.0
 30
0.0
  0
INSERT
  5
820
  8
0
  6
CONTINUOUS
  2
DC_GROUP_20
 10
0.0
 20
0.0
 30
0.0
  0
INSERT
  5
821
  8
0
  6
CONTINUOUS
  2
DC_GROUP_21
 10
0.0
 20
0.0
 30
0.0
  0
INSERT
  5
822
  8
0
  6
CONTINUOUS
  2
DC_GROUP_22
 10
0.0
 20
0.0
 30
0.0
  0
INSERT
  5
823
  8
0
  6
CONTINUOUS
  2
DC_GROUP_23
 10
0.0
 20
0.0
 30
0.0
  0
INSERT
  5
824
  8
0
  6
CONTINUOUS
  2
DC_GROUP_24
 10
0.0
 20
0.0
 30
0.0
  0
INSERT
  5
825
  8
0
  6
CONTINUOUS
  2
DC_GROUP_25
 10
0.0
 20
0.0
 30
0.0
  0
INSERT
  5
826
  8
0
  6
CONTINUOUS
  2
DC_GROUP_26
 10
0.0
 20
0.0
 30
0.0
  0
INSERT
  5
827
  8
0
  6
CONTINUOUS
  2
DC_GROUP_27
 10
0.0
 20
0.0
 30
0.0
  0
INSERT
  5
828
  8
0
  6
CONTINUOUS
  2
DC_GROUP_28
 10
0.0
 20
0.0
 30
0.0
  0
INSERT
  5
829
  8
0
  6
CONTINUOUS
  2
DC_GROUP_29
 10
0.0
 20
0.0
 30
0.0
  0
INSERT
  5
82A
  8
0
  6
CONTINUOUS
  2
DC_GROUP_30
 10
0.0
 20
0.0
 30
0.0
  0
INSERT
  5
82B
  8
0
  6
CONTINUOUS
  2
DC_GROUP_31
 10
0.0
 20
0.0
 30
0.0
  0
INSERT
  5
82C
  8
0
  6
CONTINUOUS
  2
DC_GROUP_32
 10
0.0
 20
0.0
 30
0.0
  0
INSERT
  5
82D
  8
0
  6
CONTINUOUS
  2
DC_GROUP_33
 10
0.0
 20
0.0
 30
0.0
  0
INSERT
  5
82E
  8
0
  6
CONTINUOUS
  2
DC_GROUP_34
 10
0.0
 20
0.0
 30
0.0
  0
INSERT
  5
82F
  8
0
  6
CONTINUOUS
  2
DC_GROUP_35
 10
0.0
 20
0.0
 30
0.0
  0
INSERT
  5
830
  8
0
  6
CONTINUOUS
  2
DC_GROUP_36
 10
0.0
 20
0.0
 30
0.0
  0
INSERT
  5
831
  8
0
  6
CONTINUOUS
  2
DC_GROUP_37
 10
0.0
 20
0.0
 30
0.0
  0
INSERT
  5
832
  8
0
  6
CONTINUOUS
  2
DC_GROUP_38
 10
0.0
 20
0.0
 30
0.0
  0
INSERT
  5
833
  8
0
  6
CONTINUOUS
  2
DC_GROUP_39
 10
0.0
 20
0.0
 30
0.0
  0
INSERT
  5
834
  8
0
  6
CONTINUOUS
  2
DC_GROUP_40
 10
0.0
 20
0.0
 30
0.0
  0
INSERT
  5
835
  8
0
  6
CONTINUOUS
  2
DC_GROUP_41
 10
0.0
 20
0.0
 30
0.0
  0
INSERT
  5
836
  8
0
  6
CONTINUOUS
  2
DC_GROUP_42
 10
0.0
 20
0.0
 30
0.0
  0
INSERT
  5
837
  8
0
  6
CONTINUOUS
  2
DC_GROUP_43
 10
0.0
 20
0.0
 30
0.0
  0
INSERT
  5
838
  8
0
  6
CONTINUOUS
  2
DC_GROUP_44
 10
0.0
 20
0.0
 30
0.0
  0
INSERT
  5
839
  8
0
  6
CONTINUOUS
  2
DC_GROUP_45
 10
0.0
 20
0.0
 30
0.0
  0
INSERT
  5
83A
  8
0
  6
CONTINUOUS
  2
DC_GROUP_46
 10
0.0
 20
0.0
 30
0.0
  0
INSERT
  5
83B
  8
0
  6
CONTINUOUS
  2
DC_GROUP_47
 10
0.0
 20
0.0
 30
0.0
  0
INSERT
  5
83C
  8
0
  6
CONTINUOUS
  2
DC_GROUP_48
 10
0.0
 20
0.0
 30
0.0
  0
INSERT
  5
83D
  8
0
  6
CONTINUOUS
  2
DC_GROUP_49
 10
0.0
 20
0.0
 30
0.0
  0
INSERT
  5
83E
  8
0
  6
CONTINUOUS
  2
DC_GROUP_50
 10
0.0
 20
0.0
 30
0.0
  0
INSERT
  5
83F
  8
0
  6
CONTINUOUS
  2
DC_GROUP_51
 10
0.0
 20
0.0
 30
0.0
  0
INSERT
  5
840
  8
0
  6
CONTINUOUS
  2
DC_GROUP_52
 10
0.0
 20
0.0
 30
0.0
  0
INSERT
  5
841
  8
0
  6
CONTINUOUS
  2
DC_GROUP_53
 10
0.0
 20
0.0
 30
0.0
  0
INSERT
  5
842
  8
0
  6
CONTINUOUS
  2
DC_GROUP_54
 10
0.0
 20
0.0
 30
0.0
  0
INSERT
  5
843
  8
0
  6
CONTINUOUS
  2
DC_GROUP_55
 10
0.0
 20
0.0
 30
0.0
  0
INSERT
  5
844
  8
0
  6
CONTINUOUS
  2
DC_GROUP_56
 10
0.0
 20
0.0
 30
0.0
  0
INSERT
  5
845
  8
0
  6
CONTINUOUS
  2
DC_GROUP_57
 10
0.0
 20
0.0
 30
0.0
  0
INSERT
  5
846
  8
0
  6
CONTINUOUS
  2
DC_GROUP_58
 10
0.0
 20
0.0
 30
0.0
  0
INSERT
  5
847
  8
0
  6
CONTINUOUS
  2
DC_GROUP_59
 10
0.0
 20
0.0
 30
0.0
  0
INSERT
  5
848
  8
0
  6
CONTINUOUS
  2
DC_GROUP_60
 10
0.0
 20
0.0
 30
0.0
  0
INSERT
  5
849
  8
0
  6
CONTINUOUS
  2
DC_GROUP_61
 10
0.0
 20
0.0
 30
0.0
  0
INSERT
  5
84A
  8
0
  6
CONTINUOUS
  2
DC_GROUP_62
 10
0.0
 20
0.0
 30
0.0
  0
INSERT
  5
84B
  8
0
  6
CONTINUOUS
  2
DC_GROUP_63
 10
0.0
 20
0.0
 30
0.0
  0
INSERT
  5
84C
  8
0
  6
CONTINUOUS
  2
DC_GROUP_64
 10
0.0
 20
0.0
 30
0.0
  0
INSERT
  5
84D
  8
0
  6
CONTINUOUS
  2
DC_GROUP_65
 10
0.0
 20
0.0
 30
0.0
  0
INSERT
  5
84E
  8
0
  6
CONTINUOUS
  2
DC_GROUP_66
 10
0.0
 20
0.0
 30
0.0
  0
INSERT
  5
84F
  8
0
  6
CONTINUOUS
  2
DC_GROUP_67
 10
0.0
 20
0.0
 30
0.0
  0
INSERT
  5
850
  8
0
  6
CONTINUOUS
  2
DC_GROUP_68
 10
0.0
 20
0.0
 30
0.0
  0
INSERT
  5
851
  8
0
  6
CONTINUOUS
  2
DC_GROUP_69
 10
0.0
 20
0.0
 30
0.0
  0
INSERT
  5
852
  8
0
  6
CONTINUOUS
  2
DC_GROUP_70
 10
0.0
 20
0.0
 30
0.0
  0
INSERT
  5
853
  8
0
  6
CONTINUOUS
  2
DC_GROUP_71
 10
0.0
 20
0.0
 30
0.0
  0
INSERT
  5
854
  8
0
  6
CONTINUOUS
  2
DC_GROUP_72
 10
0.0
 20
0.0
 30
0.0
  0
INSERT
  5
855
  8
0
  6
CONTINUOUS
  2
DC_GROUP_73
 10
0.0
 20
0.0
 30
0.0
  0
INSERT
  5
856
  8
0
  6
CONTINUOUS
  2
DC_GROUP_74
 10
0.0
 20
0.0
 30
0.0
  0
INSERT
  5
857
  8
0
  6
CONTINUOUS
  2
DC_GROUP_75
 10
0.0
 20
0.0
 30
0.0
  0
INSERT
  5
858
  8
0
  6
CONTINUOUS
  2
DC_GROUP_76
 10
0.0
 20
0.0
 30
0.0
  0
INSERT
  5
859
  8
0
  6
CONTINUOUS
  2
DC_GROUP_77
 10
0.0
 20
0.0
 30
0.0
  0
INSERT
  5
85A
  8
0
  6
CONTINUOUS
  2
DC_GROUP_78
 10
0.0
 20
0.0
 30
0.0
  0
INSERT
  5
85B
  8
0
  6
CONTINUOUS
  2
DC_GROUP_79
 10
0.0
 20
0.0
 30
0.0
  0
INSERT
  5
85C
  8
0
  6
CONTINUOUS
  2
DC_GROUP_80
 10
0.0
 20
0.0
 30
0.0
  0
INSERT
  5
85D
  8
0
  6
CONTINUOUS
  2
DC_GROUP_81
 10
0.0
 20
0.0
 30
0.0
  0
INSERT
  5
85E
  8
0
  6
CONTINUOUS
  2
DC_GROUP_82
 10
0.0
 20
0.0
 30
0.0
  0
INSERT
  5
85F
  8
0
  6
CONTINUOUS
  2
DC_GROUP_83
 10
0.0
 20
0.0
 30
0.0
  0
INSERT
  5
860
  8
0
  6
CONTINUOUS
  2
DC_GROUP_84
 10
0.0
 20
0.0
 30
0.0
  0
INSERT
  5
861
  8
0
  6
CONTINUOUS
  2
DC_GROUP_85
 10
0.0
 20
0.0
 30
0.0
  0
INSERT
  5
862
  8
0
  6
CONTINUOUS
  2
DC_GROUP_86
 10
0.0
 20
0.0
 30
0.0
  0
INSERT
  5
863
  8
0
  6
CONTINUOUS
  2
DC_GROUP_87
 10
0.0
 20
0.0
 30
0.0
  0
INSERT
  5
864
  8
0
  6
CONTINUOUS
  2
DC_GROUP_88
 10
0.0
 20
0.0
 30
0.0
  0
INSERT
  5
865
  8
0
  6
CONTINUOUS
  2
DC_GROUP_89
 10
0.0
 20
0.0
 30
0.0
  0
INSERT
  5
866
  8
0
  6
CONTINUOUS
  2
DC_GROUP_90
 10
0.0
 20
0.0
 30
0.0
  0
INSERT
  5
867
  8
0
  6
CONTINUOUS
  2
DC_GROUP_91
 10
0.0
 20
0.0
 30
0.0
  0
INSERT
  5
868
  8
0
  6
CONTINUOUS
  2
DC_GROUP_92
 10
0.0
 20
0.0
 30
0.0
  0
INSERT
  5
869
  8
0
  6
CONTINUOUS
  2
DC_GROUP_93
 10
0.0
 20
0.0
 30
0.0
  0
INSERT
  5
86A
  8
0
  6
CONTINUOUS
  2
DC_GROUP_94
 10
0.0
 20
0.0
 30
0.0
  0
INSERT
  5
86B
  8
0
  6
CONTINUOUS
  2
DC_GROUP_95
 10
0.0
 20
0.0
 30
0.0
  0
INSERT
  5
86C
  8
0
  6
CONTINUOUS
  2
DC_GROUP_96
 10
0.0
 20
0.0
 30
0.0
  0
INSERT
  5
86D
  8
0
  6
CONTINUOUS
  2
DC_GROUP_97
 10
0.0
 20
0.0
 30
0.0
  0
INSERT
  5
86E
  8
0
  6
CONTINUOUS
  2
DC_GROUP_98
 10
0.0
 20
0.0
 30
0.0
  0
INSERT
  5
86F
  8
0
  6
CONTINUOUS
  2
DC_GROUP_99
 10
0.0
 20
0.0
 30
0.0
  0
INSERT
  5
870
  8
0
  6
CONTINUOUS
  2
DC_GROUP_100
 10
0.0
 20
0.0
 30
0.0
  0
INSERT
  5
871
  8
0
  6
CONTINUOUS
  2
DC_GROUP_101
 10
0.0
 20
0.0
 30
0.0
  0
INSERT
  5
872
  8
0
  6
CONTINUOUS
  2
DC_GROUP_102
 10
0.0
 20
0.0
 30
0.0
  0
INSERT
  5
873
  8
0
  6
CONTINUOUS
  2
DC_GROUP_103
 10
0.0
 20
0.0
 30
0.0
  0
INSERT
  5
874
  8
0
  6
CONTINUOUS
  2
DC_GROUP_104
 10
0.0
 20
0.0
 30
0.0
  0
INSERT
  5
875
  8
0
  6
CONTINUOUS
  2
DC_GROUP_105
 10
0.0
 20
0.0
 30
0.0
  0
INSERT
  5
876
  8
0
  6
CONTINUOUS
  2
DC_GROUP_106
 10
0.0
 20
0.0
 30
0.0
  0
INSERT
  5
877
  8
0
  6
CONTINUOUS
  2
DC_GROUP_107
 10
0.0
 20
0.0
 30
0.0
  0
INSERT
  5
878
  8
0
  6
CONTINUOUS
  2
DC_GROUP_108
 10
0.0
 20
0.0
 30
0.0
  0
INSERT
  5
879
  8
0
  6
CONTINUOUS
  2
DC_GROUP_109
 10
0.0
 20
0.0
 30
0.0
  0
INSERT
  5
87A
  8
0
  6
CONTINUOUS
  2
DC_GROUP_110
 10
0.0
 20
0.0
 30
0.0
  0
INSERT
  5
87B
  8
0
  6
CONTINUOUS
  2
DC_GROUP_111
 10
0.0
 20
0.0
 30
0.0
  0
INSERT
  5
87C
  8
0
  6
CONTINUOUS
  2
DC_GROUP_112
 10
0.0
 20
0.0
 30
0.0
  0
INSERT
  5
87D
  8
0
  6
CONTINUOUS
  2
DC_GROUP_113
 10
0.0
 20
0.0
 30
0.0
  0
INSERT
  5
87E
  8
0
  6
CONTINUOUS
  2
DC_GROUP_114
 10
0.0
 20
0.0
 30
0.0
  0
INSERT
  5
87F
  8
0
  6
CONTINUOUS
  2
DC_GROUP_115
 10
0.0
 20
0.0
 30
0.0
  0
INSERT
  5
880
  8
0
  6
CONTINUOUS
  2
DC_GROUP_116
 10
0.0
 20
0.0
 30
0.0
  0
INSERT
  5
881
  8
0
  6
CONTINUOUS
  2
DC_GROUP_117
 10
0.0
 20
0.0
 30
0.0
  0
INSERT
  5
882
  8
0
  6
CONTINUOUS
  2
DC_GROUP_118
 10
0.0
 20
0.0
 30
0.0
  0
INSERT
  5
883
  8
0
  6
CONTINUOUS
  2
DC_GROUP_119
 10
0.0
 20
0.0
 30
0.0
  0
INSERT
  5
884
  8
0
  6
CONTINUOUS
  2
DC_GROUP_120
 10
0.0
 20
0.0
 30
0.0
  0
INSERT
  5
885
  8
0
  6
CONTINUOUS
  2
DC_GROUP_121
 10
0.0
 20
0.0
 30
0.0
  0
INSERT
  5
886
  8
0
  6
CONTINUOUS
  2
DC_GROUP_122
 10
0.0
 20
0.0
 30
0.0
  0
INSERT
  5
887
  8
0
  6
CONTINUOUS
  2
DC_GROUP_123
 10
0.0
 20
0.0
 30
0.0
  0
INSERT
  5
888
  8
0
  6
CONTINUOUS
  2
DC_GROUP_124
 10
0.0
 20
0.0
 30
0.0
  0
INSERT
  5
889
  8
0
  6
CONTINUOUS
  2
DC_GROUP_125
 10
0.0
 20
0.0
 30
0.0
  0
INSERT
  5
88A
  8
0
  6
CONTINUOUS
  2
DC_GROUP_126
 10
0.0
 20
0.0
 30
0.0
  0
INSERT
  5
88B
  8
0
  6
CONTINUOUS
  2
DC_GROUP_127
 10
0.0
 20
0.0
 30
0.0
  0
INSERT
  5
88C
  8
0
  6
CONTINUOUS
  2
DC_GROUP_128
 10
0.0
 20
0.0
 30
0.0
  0
INSERT
  5
88D
  8
0
  6
CONTINUOUS
  2
DC_GROUP_129
 10
0.0
 20
0.0
 30
0.0
  0
INSERT
  5
88E
  8
0
  6
CONTINUOUS
  2
DC_GROUP_130
 10
0.0
 20
0.0
 30
0.0
  0
INSERT
  5
88F
  8
0
  6
CONTINUOUS
  2
DC_GROUP_131
 10
0.0
 20
0.0
 30
0.0
  0
INSERT
  5
890
  8
0
  6
CONTINUOUS
  2
DC_GROUP_132
 10
0.0
 20
0.0
 30
0.0
  0
INSERT
  5
891
  8
0
  6
CONTINUOUS
  2
DC_GROUP_133
 10
0.0
 20
0.0
 30
0.0
  0
INSERT
  5
892
  8
0
  6
CONTINUOUS
  2
DC_GROUP_134
 10
0.0
 20
0.0
 30
0.0
  0
INSERT
  5
893
  8
0
  6
CONTINUOUS
  2
DC_GROUP_135
 10
0.0
 20
0.0
 30
0.0
  0
INSERT
  5
894
  8
0
  6
CONTINUOUS
  2
DC_GROUP_136
 10
0.0
 20
0.0
 30
0.0
  0
INSERT
  5
895
  8
0
  6
CONTINUOUS
  2
DC_GROUP_137
 10
0.0
 20
0.0
 30
0.0
  0
INSERT
  5
896
  8
0
  6
CONTINUOUS
  2
DC_GROUP_138
 10
0.0
 20
0.0
 30
0.0
  0
INSERT
  5
897
  8
0
  6
CONTINUOUS
  2
DC_GROUP_139
 10
0.0
 20
0.0
 30
0.0
  0
INSERT
  5
898
  8
0
  6
CONTINUOUS
  2
DC_GROUP_140
 10
0.0
 20
0.0
 30
0.0
  0
INSERT
  5
899
  8
0
  6
CONTINUOUS
  2
DC_GROUP_141
 10
0.0
 20
0.0
 30
0.0
  0
TEXT
  5
89B
  8
0
 62
     7
 10
-51.44882137135216
 20
-1.162358234702581
 30
0.0
 40
2.5
  1
1
 41
1.145454545454546
  7
DCSTYLE0
 72
     5
 11
-49.94882137135216
 21
-1.162358234702581
 31
0.0
  0
TEXT
  5
89C
  8
0
 62
     7
 10
-44.91458111440216
 20
-10.30191283625258
 30
0.0
 40
2.5
  1
2
 41
0.7411764705882353
  7
DCSTYLE0
 72
     5
 11
-43.41458111440216
 21
-10.30191283625258
 31
0.0
  0
TEXT
  5
89D
  8
0
 62
     7
 10
-21.69967766900216
 20
-10.46329897405259
 30
0.0
 40
2.5
  1
3
 41
0.7411764705882353
  7
DCSTYLE0
 72
     5
 11
-20.19967766900216
 21
-10.46329897405259
 31
0.0
  0
TEXT
  5
89E
  8
0
 62
     7
 10
-19.55386857815216
 20
21.69698162599742
 30
0.0
 40
2.5
  1
－
 50
180.0
 41
1.68
  7
DCSTYLE0
 72
     5
 11
-22.55386857815216
 21
21.69698162599742
 31
0.0
  0
TEXT
  5
89F
  8
0
 62
     7
 10
-42.69683456575215
 20
21.69804341859741
 30
0.0
 40
2.5
  1
＋
 50
180.0
 41
1.68
  7
DCSTYLE0
 72
     5
 11
-45.69683456575215
 21
21.69804341859741
 31
0.0
  0
TEXT
  5
8A0
  8
0
 62
     7
 10
-15.23826321030216
 20
-1.039716730652583
 30
0.0
 40
2.5
  1
4
 41
0.7000000000000001
  7
DCSTYLE0
 72
     5
 11
-13.73826321030216
 21
-1.039716730652583
 31
0.0
  0
CIRCLE
  5
8A1
  8
0
  6
CONTINUOUS
 62
     7
 10
-32.49254150890215
 20
5.672374956297414
 30
0.0
 40
22.0
  0
CIRCLE
  5
8A2
  8
0
  6
CONTINUOUS
 62
     7
 10
-15.99254150890215
 20
5.672374956297414
 30
0.0
 40
2.25
  0
CIRCLE
  5
8A3
  8
0
  6
CONTINUOUS
 62
     7
 10
-48.99254150890216
 20
5.672374956297414
 30
0.0
 40
2.25
  0
ARC
  5
8A4
  8
0
  6
CONTINUOUS
 62
     7
 10
-48.99254150890216
 20
5.672374956297414
 30
0.0
 40
3.8
 50
209.9999999999999
 51
330.0000000000001
  0
ARC
  5
8A5
  8
0
  6
CONTINUOUS
 62
     7
 10
-48.99254150890216
 20
5.672374956297414
 30
0.0
 40
3.8
 50
29.99999999999998
 51
150.0
  0
ARC
  5
8A6
  8
0
  6
CONTINUOUS
 62
     7
 10
-15.99254150890215
 20
5.672374956297414
 30
0.0
 40
3.8
 50
29.99999999999997
 51
150.0
  0
ARC
  5
8A7
  8
0
  6
CONTINUOUS
 62
     7
 10
-15.99254150890215
 20
5.672374956297414
 30
0.0
 40
3.8
 50
210.0
 51
330.0
  0
ARC
  5
8A8
  8
0
  6
CONTINUOUS
 62
     7
 10
-12.26863227262906
 20
7.822374956297413
 30
0.0
 40
0.5
 50
210.0
 51
270.0
  0
LINE
  5
8A9
  8
0
  6
CENTER
 62
   222
 10
-8.657376741889493
 20
5.672374956297414
 30
0.0
 11
-56.32770627591481
 21
5.672374956297414
 31
0.0
  0
LINE
  5
8AA
  8
0
  6
CENTER
 62
   222
 10
-32.49254150890215
 20
29.50753972331007
 30
0.0
 11
-32.49254150890215
 21
-18.16278981071524
 31
0.0
  0
LINE
  5
8AB
  8
0
  6
CENTER
 62
   222
 10
22.6488376199432
 20
5.672374956297414
 30
0.0
 11
51.09043105977809
 21
5.672374956297414
 31
0.0
  0
LINE
  5
8AC
  8
0
  6
CENTER
 62
   222
 10
-15.99254150890215
 20
0.9480200060360158
 30
0.0
 11
-15.99254150890215
 21
10.39672990655881
 31
0.0
  0
LINE
  5
8AD
  8
0
  6
CENTER
 62
   222
 10
-48.99254150890216
 20
0.9480200060360193
 30
0.0
 11
-48.99254150890216
 21
10.39672990655882
 31
0.0
  0
TEXT
  5
8AF
  8
LAYER0240
 62
     7
 10
78.6745519862724
 20
-67.75866990866483
 30
0.0
 40
6.0
  1
000
 41
0.7689423076923076
  7
DCSTYLE1
 72
     5
 11
87.6745519862724
 21
-67.75866990866483
 31
0.0
  0
VIEWPORT
  5
B2
 67
     1
  8
0
 10
12.3284228551788
 20
-19.12556509267738
 30
0.0
 40
411.9367747865616
 41
291.7986288959247
 68
     1
 69
     1
1001
ACAD
1000
MVIEW
1002
{
1070
    16
1010
0.0
1020
0.0
1030
0.0
1010
0.0
1020
0.0
1030
1.0
1040
0.0
1040
291.7986288959247
1040
12.3284228551788
1040
-19.12556509267738
1040
50.0
1040
0.0
1040
0.0
1070
     0
1070
   100
1070
     0
1070
     3
1070
     0
1070
     0
1070
     0
1070
     0
1040
0.0
1040
0.0
1040
0.0
1040
0.5
1040
0.5
1040
0.0
1040
0.0
1070
     0
1002
{
1002
}
1002
}
  0
ENDSEC
  0
EOF
