  0
SECTION
  2
HEADER
  9
$ACADVER
  1
AC1014
  9
$ACADMAINTVER
 70
       0
  9
$DWGCODEPAGE
  3
ANSI_932
  9
$INSBASE
 10
0.0
 20
0.0
 30
0.0
  9
$EXTMIN
 10
-85.8955626
 20
-68.4738955
 30
0.0
  9
$EXTMAX
 10
81.61952097
 20
65.56347884
 30
0.0
  9
$LIMMIN
 10
-91.13040896
 20
-72.66256345
  9
$LIMMAX
 10
86.85436733
 20
69.75214678
  9
$ORTHOMODE
 70
       0
  9
$REGENMODE
 70
       1
  9
$FILLMODE
 70
       1
  9
$QTEXTMODE
 70
       0
  9
$MIRRTEXT
 70
       1
  9
$DRAGMODE
 70
       2
  9
$LTSCALE
 40
1.0
  9
$OSMODE
 70
       0
  9
$ATTMODE
 70
       1
  9
$TEXTSIZE
 40
0.2
  9
$TRACEWID
 40
0.05
  9
$TEXTSTYLE
  7
STANDARD
  9
$CLAYER
  8
0
  9
$CELTYPE
  6
CONTINUOUS
  9
$CECOLOR
 62
     256
  9
$CELTSCALE
 40
1.0
  9
$DELOBJ
 70
       1
  9
$DISPSILH
 70
       0
  9
$DIMSCALE
 40
1.0
  9
$DIMASZ
 40
0.18
  9
$DIMEXO
 40
0.0625
  9
$DIMDLI
 40
0.38
  9
$DIMRND
 40
0.0
  9
$DIMDLE
 40
0.0
  9
$DIMEXE
 40
0.18
  9
$DIMTP
 40
0.0
  9
$DIMTM
 40
0.0
  9
$DIMTXT
 40
0.18
  9
$DIMCEN
 40
0.09
  9
$DIMTSZ
 40
0.0
  9
$DIMTOL
 70
       0
  9
$DIMLIM
 70
       0
  9
$DIMTIH
 70
       1
  9
$DIMTOH
 70
       1
  9
$DIMSE1
 70
       0
  9
$DIMSE2
 70
       0
  9
$DIMTAD
 70
       0
  9
$DIMZIN
 70
       0
  9
$DIMBLK
  1

  9
$DIMASO
 70
       1
  9
$DIMSHO
 70
       1
  9
$DIMPOST
  1

  9
$DIMAPOST
  1

  9
$DIMALT
 70
       0
  9
$DIMALTD
 70
       2
  9
$DIMALTF
 40
25.4
  9
$DIMLFAC
 40
1.0
  9
$DIMTOFL
 70
       0
  9
$DIMTVP
 40
0.0
  9
$DIMTIX
 70
       0
  9
$DIMSOXD
 70
       0
  9
$DIMSAH
 70
       0
  9
$DIMBLK1
  1

  9
$DIMBLK2
  1

  9
$DIMSTYLE
  2
STANDARD
  9
$DIMCLRD
 70
       0
  9
$DIMCLRE
 70
       0
  9
$DIMCLRT
 70
       0
  9
$DIMTFAC
 40
1.0
  9
$DIMGAP
 40
0.09
  9
$DIMJUST
 70
       0
  9
$DIMSD1
 70
       0
  9
$DIMSD2
 70
       0
  9
$DIMTOLJ
 70
       1
  9
$DIMTZIN
 70
       0
  9
$DIMALTZ
 70
       0
  9
$DIMALTTZ
 70
       0
  9
$DIMFIT
 70
       3
  9
$DIMUPT
 70
       0
  9
$DIMUNIT
 70
       2
  9
$DIMDEC
 70
       4
  9
$DIMTDEC
 70
       4
  9
$DIMALTU
 70
       2
  9
$DIMALTTD
 70
       2
  9
$DIMTXSTY
  7
STANDARD
  9
$DIMAUNIT
 70
       0
  9
$LUNITS
 70
       2
  9
$LUPREC
 70
       4
  9
$SKETCHINC
 40
0.1
  9
$FILLETRAD
 40
0.0
  9
$AUNITS
 70
       0
  9
$AUPREC
 70
       0
  9
$MENU
  1
acad
  9
$ELEVATION
 40
0.0
  9
$PELEVATION
 40
0.0
  9
$THICKNESS
 40
0.0
  9
$LIMCHECK
 70
       0
  9
$BLIPMODE
 70
       1
  9
$CHAMFERA
 40
0.0
  9
$CHAMFERB
 40
0.0
  9
$CHAMFERC
 40
0.0
  9
$CHAMFERD
 40
0.0
  9
$SKPOLY
 70
       0
  9
$TDCREATE
 40
0.000000000
  9
$TDUPDATE
 40
0.000000000
  9
$TDINDWG
 40
0.0000000000
  9
$TDUSRTIMER
 40
0.0000000000
  9
$USRTIMER
 70
       1
  9
$ANGBASE
 50
0.0
  9
$ANGDIR
 70
       0
  9
$PDMODE
 70
       0
  9
$PDSIZE
 40
1.0
  9
$PLINEWID
 40
0.0
  9
$COORDS
 70
       1
  9
$SPLFRAME
 70
       0
  9
$SPLINETYPE
 70
       6
  9
$SPLINESEGS
 70
       8
  9
$ATTDIA
 70
       0
  9
$ATTREQ
 70
       1
  9
$HANDLING
 70
       1
  9
$HANDSEED
  5
168
  9
$SURFTAB1
 70
       6
  9
$SURFTAB2
 70
       6
  9
$SURFTYPE
 70
       6
  9
$SURFU
 70
       6
  9
$SURFV
 70
       6
  9
$UCSNAME
  2

  9
$UCSORG
 10
0.0
 20
0.0
 30
0.0
  9
$UCSXDIR
 10
1.0
 20
0.0
 30
0.0
  9
$UCSYDIR
 10
0.0
 20
1.0
 30
0.0
  9
$PUCSNAME
  2

  9
$PUCSORG
 10
0.0
 20
0.0
 30
0.0
  9
$PUCSXDIR
 10
1.0
 20
0.0
 30
0.0
  9
$PUCSYDIR
 10
0.0
 20
1.0
 30
0.0
  9
$USERI1
 70
       0
  9
$USERI2
 70
       0
  9
$USERI3
 70
       0
  9
$USERI4
 70
       0
  9
$USERI5
 70
       0
  9
$USERR1
 40
0.0
  9
$USERR2
 40
0.0
  9
$USERR3
 40
0.0
  9
$USERR4
 40
0.0
  9
$USERR5
 40
0.0
  9
$WORLDVIEW
 70
       1
  9
$SHADEDGE
 70
       3
  9
$SHADEDIF
 70
      70
  9
$TILEMODE
 70
       1
  9
$MAXACTVP
 70
      16
  9
$PINSBASE
 10
0.0
 20
0.0
 30
0.0
  9
$PLIMCHECK
 70
       0
  9
$PEXTMIN
 10
1.00000000E+20
 20
1.00000000E+20
 30
1.00000000E+20
  9
$PEXTMAX
 10
-1.00000000E+20
 20
-1.00000000E+20
 30
-1.00000000E+20
  9
$PLIMMIN
 10
0.0
 20
0.0
  9
$PLIMMAX
 10
12.0
 20
9.0
  9
$UNITMODE
 70
       0
  9
$VISRETAIN
 70
       0
  9
$PLINEGEN
 70
       1
  9
$PSLTSCALE
 70
       0
  9
$TREEDEPTH
 70
    3020
  9
$PICKSTYLE
 70
       1
  9
$CMLSTYLE
  2
STANDARD
  9
$CMLJUST
 70
       0
  9
$CMLSCALE
 40
1.0
  9
$PROXYGRAPHICS
 70
       0
  9
$MEASUREMENT
 70
       0
  0
ENDSEC
  0
SECTION
  2
CLASSES
  0
CLASS
  1
LWPOLYLINE
  2
AcDbPolyline
  3
"AutoCAD"
 90
        0
280
       0
281
       1
  0
CLASS
  1
IMAGE
  2
AcDbRasterImage
  3
ISM
 90
      127
280
       0
281
       1
  0
CLASS
  1
OLE2FRAME
  2
AcDbOle2Frame
  3
""
 90
        0
280
       0
281
       1
  0
CLASS
  1
HATCH
  2
AcDbHatch
  3
"ACAD_SEDONA"
 90
        0
280
       0
281
       1
  0
CLASS
  1
DICTIONARYVAR
  2
AcDbDictionaryVar
  3
"AutoCAD"
 90
        0
280
       0
281
       0
  0
CLASS
  1
RASTERVARIABLES
  2
AcDbRasterVariables
  3
ISM
 90
        0
280
       0
281
       0
  0
CLASS
  1
IMAGEDEF
  2
AcDbRasterImageDef
  3
ISM
 90
        0
280
       0
281
       0
  0
CLASS
  1
IMAGEDEF_REACTOR
  2
AcDbRasterImageDefReactor
  3
ISM
 90
        1
280
       0
281
       0
  0
CLASS
  1
IDBUFFER
  2
AcDbIdBuffer
  3
"Acad"
 90
        0
280
       0
281
       0
  0
CLASS
  1
SPATIAL_FILTER
  2
AcDbSpatialFilter
  3
"Acad"
 90
        0
280
       0
281
       0
  0
CLASS
  1
XRECORD
  2
AcDbXrecord
  3
"<Built In>"
 90
        0
280
       0
281
       0
  0
CLASS
  1
SORTENTSTABLE
  2
AcDbSortentsTable
  3
"AutoCAD"
 90
        0
280
       0
281
       0
  0
CLASS
  1
LAYER_INDEX
  2
AcDbLayerIndex
  3
"Acad"
 90
        0
280
       0
281
       0
  0
CLASS
  1
SPATIAL_INDEX
  2
AcDbSpatialIndex
  3
"Acad"
 90
        0
280
       0
281
       0
  0
CLASS
  1
OBJECT_PTR
  2
CAseDLPNTableRecord
  3
"ASE-LPNTableRecord"
 90
        1
280
       0
281
       0
  0
CLASS
  1
LAYOUT
  2
AcDbLayout
  3
"AutoCAD 2000"
 90
        1
280
       0
281
       0
  0
CLASS
  1
PLOTSETTINGS
  2
AcDbPlotSettings
  3
"AutoCAD 2000"
 90
        1
280
       0
281
       0
  0
CLASS
  1
ACDBDICTIONARYWDFLT
  2
AcDbDictionaryWithDefault
  3
"AutoCAD 2000"
 90
        1
280
       0
281
       0
  0
CLASS
  1
ACDBPLACEHOLDER
  2
AcDbPlaceHolder
  3
"AutoCAD 2000"
 90
        1
280
       0
281
       0
  0
CLASS
  1
VBA_PROJECT
  2
AcDbVbaProject
  3
"acadvba"
 90
        1
280
       0
281
       0
  0
CLASS
  1
WIPEOUT
  2
AcDbWipeout
  3
WipeOut|AutoCAD Express Tool|expresstools@autodesk.com
 90
      127
280
       0
281
       1
  0
CLASS
  1
WIPEOUTVARIABLES
  2
AcDbWipeoutVariables
  3
WipeOut|AutoCAD Express Tool|expresstools@autodesk.com
 90
        0
280
       0
281
       0
  0
CLASS
  1
RTEXT
  2
RText
  3
RText|AutoCAD Express Tool|expresstools@autodesk.com
 90
        0
280
       0
281
       1
  0
CLASS
  1
ARCALIGNEDTEXT
  2
AcDbArcAlignedText
  3
ATEXT|AutoCAD Express Tool|expresstools@autodesk.com
 90
        0
280
       0
281
       1
  0
ENDSEC
  0
SECTION
  2
TABLES
  0
TABLE
  2
VPORT
  5
7
100
AcDbSymbolTable
 70
       1
  0
VPORT
  5
15
100
AcDbSymbolTableRecord
100
AcDbViewportTableRecord
  2
*ACTIVE
 70
       0
 10
0.0
 20
0.0
 11
1.0
 21
1.0
 12
-2.13802082
 22
-1.45520833
 13
0.0
 23
0.0
 14
1.0
 24
1.0
 15
0.0
 25
0.0
 16
0.0
 26
0.0
 36
1.0
 17
0.0
 27
0.0
 37
0.0
 40
142.41471023
 41
1.24976399
 42
50.0
 43
0.0
 44
0.0
 50
0.0
 51
0.0
 71
       0
 72
     100
 73
       1
 74
       1
 75
       0
 76
       0
 77
       0
 78
       0
  0
ENDTAB
  0
TABLE
  2
LTYPE
  5
4
100
AcDbSymbolTable
 70
      30
  0
LTYPE
  5
11
100
AcDbSymbolTableRecord
100
AcDbLinetypeTableRecord
  2
BYBLOCK
 70
      64
  3

 72
      65
 73
       0
 40
0.0
  0
LTYPE
  5
12
100
AcDbSymbolTableRecord
100
AcDbLinetypeTableRecord
  2
BYLAYER
 70
      64
  3

 72
      65
 73
       0
 40
0.0
  0
LTYPE
  5
13
100
AcDbSymbolTableRecord
100
AcDbLinetypeTableRecord
  2
CONTINUOUS
 70
      64
  3
Solid line
 72
      65
 73
       0
 40
0.0
  0
LTYPE
  5
1D
100
AcDbSymbolTableRecord
100
AcDbLinetypeTableRecord
  2
HIDDENX2
 70
      64
  3
CADPAC LINETYPE
 72
      65
 73
       2
 40
7.40887197
 49
5.55665398
 74
       0
 49
-1.85221799
 74
       0
  0
LTYPE
  5
1E
100
AcDbSymbolTableRecord
100
AcDbLinetypeTableRecord
  2
HIDDEN
 70
      64
  3
CADPAC LINETYPE
 72
      65
 73
       2
 40
5.55665398
 49
3.70443599
 74
       0
 49
-1.85221799
 74
       0
  0
LTYPE
  5
1F
100
AcDbSymbolTableRecord
100
AcDbLinetypeTableRecord
  2
HIDDEN2
 70
      64
  3
CADPAC LINETYPE
 72
      65
 73
       2
 40
4.63054498
 49
2.77832699
 74
       0
 49
-1.85221799
 74
       0
  0
LTYPE
  5
20
100
AcDbSymbolTableRecord
100
AcDbLinetypeTableRecord
  2
DASHED
 70
      64
  3
CADPAC LINETYPE
 72
      65
 73
       2
 40
5.55665398
 49
3.70443599
 74
       0
 49
-1.85221799
 74
       0
  0
LTYPE
  5
21
100
AcDbSymbolTableRecord
100
AcDbLinetypeTableRecord
  2
DASHED2
 70
      64
  3
CADPAC LINETYPE
 72
      65
 73
       2
 40
4.16749049
 49
2.77832699
 74
       0
 49
-1.3891635
 74
       0
  0
LTYPE
  5
22
100
AcDbSymbolTableRecord
100
AcDbLinetypeTableRecord
  2
DASHEDX2
 70
      64
  3
CADPAC LINETYPE
 72
      65
 73
       2
 40
8.33498097
 49
5.55665398
 74
       0
 49
-2.77832699
 74
       0
  0
LTYPE
  5
23
100
AcDbSymbolTableRecord
100
AcDbLinetypeTableRecord
  2
DOTX2
 70
      64
  3
CADPAC LINETYPE
 72
      65
 73
       2
 40
2.31527249
 49
0.0
 74
       0
 49
-2.31527249
 74
       0
  0
LTYPE
  5
24
100
AcDbSymbolTableRecord
100
AcDbLinetypeTableRecord
  2
DOT
 70
      64
  3
CADPAC LINETYPE
 72
      65
 73
       2
 40
1.85221799
 49
0.0
 74
       0
 49
-1.85221799
 74
       0
  0
LTYPE
  5
25
100
AcDbSymbolTableRecord
100
AcDbLinetypeTableRecord
  2
DOT2
 70
      64
  3
CADPAC LINETYPE
 72
      65
 73
       2
 40
1.3891635
 49
0.0
 74
       0
 49
-1.3891635
 74
       0
  0
LTYPE
  5
26
100
AcDbSymbolTableRecord
100
AcDbLinetypeTableRecord
  2
CENTERX2
 70
      64
  3
CADPAC LINETYPE
 72
      65
 73
       4
 40
11.11330796
 49
4.63054498
 74
       0
 49
-2.31527249
 74
       0
 49
1.85221799
 74
       0
 49
-2.31527249
 74
       0
  0
LTYPE
  5
27
100
AcDbSymbolTableRecord
100
AcDbLinetypeTableRecord
  2
CENTER
 70
      64
  3
CADPAC LINETYPE
 72
      65
 73
       4
 40
8.52020277
 49
3.70443599
 74
       0
 49
-1.85221799
 74
       0
 49
1.1113308
 74
       0
 49
-1.85221799
 74
       0
  0
LTYPE
  5
28
100
AcDbSymbolTableRecord
100
AcDbLinetypeTableRecord
  2
CENTER2
 70
      64
  3
CADPAC LINETYPE
 72
      65
 73
       4
 40
5.92709758
 49
2.77832699
 74
       0
 49
-1.3891635
 74
       0
 49
0.3704436
 74
       0
 49
-1.3891635
 74
       0
  0
LTYPE
  5
29
100
AcDbSymbolTableRecord
100
AcDbLinetypeTableRecord
  2
DASHDOTX2
 70
      64
  3
CADPAC LINETYPE
 72
      65
 73
       4
 40
9.26108997
 49
4.63054498
 74
       0
 49
-2.31527249
 74
       0
 49
0.0
 74
       0
 49
-2.31527249
 74
       0
  0
LTYPE
  5
2A
100
AcDbSymbolTableRecord
100
AcDbLinetypeTableRecord
  2
DASHDOT
 70
      64
  3
CADPAC LINETYPE
 72
      65
 73
       4
 40
7.40887197
 49
3.70443599
 74
       0
 49
-1.85221799
 74
       0
 49
0.0
 74
       0
 49
-1.85221799
 74
       0
  0
LTYPE
  5
2B
100
AcDbSymbolTableRecord
100
AcDbLinetypeTableRecord
  2
DASHDOT2
 70
      64
  3
CADPAC LINETYPE
 72
      65
 73
       4
 40
5.55665398
 49
2.77832699
 74
       0
 49
-1.3891635
 74
       0
 49
0.0
 74
       0
 49
-1.3891635
 74
       0
  0
LTYPE
  5
2C
100
AcDbSymbolTableRecord
100
AcDbLinetypeTableRecord
  2
DIVIDEX2
 70
      64
  3
CADPAC LINETYPE
 72
      65
 73
       6
 40
11.57636246
 49
4.63054498
 74
       0
 49
-2.31527249
 74
       0
 49
0.0
 74
       0
 49
-2.31527249
 74
       0
 49
0.0
 74
       0
 49
-2.31527249
 74
       0
  0
LTYPE
  5
2D
100
AcDbSymbolTableRecord
100
AcDbLinetypeTableRecord
  2
DIVIDE
 70
      64
  3
CADPAC LINETYPE
 72
      65
 73
       6
 40
9.26108997
 49
3.70443599
 74
       0
 49
-1.85221799
 74
       0
 49
0.0
 74
       0
 49
-1.85221799
 74
       0
 49
0.0
 74
       0
 49
-1.85221799
 74
       0
  0
LTYPE
  5
2E
100
AcDbSymbolTableRecord
100
AcDbLinetypeTableRecord
  2
DIVIDE2
 70
      64
  3
CADPAC LINETYPE
 72
      65
 73
       6
 40
6.94581748
 49
2.77832699
 74
       0
 49
-1.3891635
 74
       0
 49
0.0
 74
       0
 49
-1.3891635
 74
       0
 49
0.0
 74
       0
 49
-1.3891635
 74
       0
  0
LTYPE
  5
2F
100
AcDbSymbolTableRecord
100
AcDbLinetypeTableRecord
  2
BORDERX2
 70
      64
  3
CADPAC LINETYPE
 72
      65
 73
       6
 40
16.20690744
 49
4.63054498
 74
       0
 49
-2.31527249
 74
       0
 49
4.63054498
 74
       0
 49
-2.31527249
 74
       0
 49
0.0
 74
       0
 49
-2.31527249
 74
       0
  0
LTYPE
  5
30
100
AcDbSymbolTableRecord
100
AcDbLinetypeTableRecord
  2
BORDER
 70
      64
  3
CADPAC LINETYPE
 72
      65
 73
       6
 40
12.96552595
 49
3.70443599
 74
       0
 49
-1.85221799
 74
       0
 49
3.70443599
 74
       0
 49
-1.85221799
 74
       0
 49
0.0
 74
       0
 49
-1.85221799
 74
       0
  0
LTYPE
  5
31
100
AcDbSymbolTableRecord
100
AcDbLinetypeTableRecord
  2
BORDER2
 70
      64
  3
CADPAC LINETYPE
 72
      65
 73
       6
 40
9.72414447
 49
2.77832699
 74
       0
 49
-1.3891635
 74
       0
 49
2.77832699
 74
       0
 49
-1.3891635
 74
       0
 49
0.0
 74
       0
 49
-1.3891635
 74
       0
  0
LTYPE
  5
32
100
AcDbSymbolTableRecord
100
AcDbLinetypeTableRecord
  2
PHANTOMX2
 70
      64
  3
CADPAC LINETYPE
 72
      65
 73
       6
 40
13.89163495
 49
4.63054498
 74
       0
 49
-1.85221799
 74
       0
 49
1.85221799
 74
       0
 49
-1.85221799
 74
       0
 49
1.85221799
 74
       0
 49
-1.85221799
 74
       0
  0
LTYPE
  5
33
100
AcDbSymbolTableRecord
100
AcDbLinetypeTableRecord
  2
PHANTOM
 70
      64
  3
CADPAC LINETYPE
 72
      65
 73
       6
 40
11.48375156
 49
3.70443599
 74
       0
 49
-1.85221799
 74
       0
 49
1.1113308
 74
       0
 49
-1.85221799
 74
       0
 49
1.1113308
 74
       0
 49
-1.85221799
 74
       0
  0
LTYPE
  5
34
100
AcDbSymbolTableRecord
100
AcDbLinetypeTableRecord
  2
PHANTOM2
 70
      64
  3
CADPAC LINETYPE
 72
      65
 73
       6
 40
9.81675537
 49
2.77832699
 74
       0
 49
-1.85221799
 74
       0
 49
0.7408872
 74
       0
 49
-1.85221799
 74
       0
 49
0.7408872
 74
       0
 49
-1.85221799
 74
       0
  0
LTYPE
  5
35
100
AcDbSymbolTableRecord
100
AcDbLinetypeTableRecord
  2
ACAD_ISO06W100
 70
      64
  3
CADPAC LINETYPE
 72
      65
 73
       8
 40
12.50247146
 49
4.63054498
 74
       0
 49
-2.31527249
 74
       0
 49
0.0
 74
       0
 49
-1.85221799
 74
       0
 49
0.0
 74
       0
 49
-1.85221799
 74
       0
 49
0.0
 74
       0
 49
-1.85221799
 74
       0
  0
LTYPE
  5
36
100
AcDbSymbolTableRecord
100
AcDbLinetypeTableRecord
  2
ACAD_ISO13W100
 70
      64
  3
CADPAC LINETYPE
 72
      65
 73
       8
 40
14.81774395
 49
3.70443599
 74
       0
 49
-1.85221799
 74
       0
 49
3.70443599
 74
       0
 49
-1.85221799
 74
       0
 49
0.0
 74
       0
 49
-1.85221799
 74
       0
 49
0.0
 74
       0
 49
-1.85221799
 74
       0
  0
LTYPE
  5
37
100
AcDbSymbolTableRecord
100
AcDbLinetypeTableRecord
  2
ACAD_ISO14W100
 70
      64
  3
CADPAC LINETYPE
 72
      65
 73
       8
 40
11.11330796
 49
3.70443599
 74
       0
 49
-1.85221799
 74
       0
 49
0.0
 74
       0
 49
-1.85221799
 74
       0
 49
0.0
 74
       0
 49
-1.85221799
 74
       0
 49
0.0
 74
       0
 49
-1.85221799
 74
       0
  0
ENDTAB
  0
TABLE
  2
LAYER
  5
2
100
AcDbSymbolTable
 70
       2
  0
LAYER
  5
14
100
AcDbSymbolTableRecord
100
AcDbLayerTableRecord
  2
0
 70
       0
 62
       7
  6
CONTINUOUS
  0
LAYER
  5
38
100
AcDbSymbolTableRecord
100
AcDbLayerTableRecord
  2
LAYER0002
 70
       0
 62
       7
  6
CONTINUOUS
  0
ENDTAB
  0
TABLE
  2
STYLE
  5
3
100
AcDbSymbolTable
 70
       1
  0
STYLE
  5
17
100
AcDbSymbolTableRecord
100
AcDbTextStyleTableRecord
  2
STANDARD
 70
       0
 40
0.0
 41
1.0
 50
0.0
 71
       0
 42
5.82083333
  3
txt.shx
  4
bigfont.shx
  0
ENDTAB
  0
TABLE
  2
VIEW
  5
5
100
AcDbSymbolTable
 70
       1
  0
VIEW
  5
39
100
AcDbSymbolTableRecord
100
AcDbViewTableRecord
  2
QQQQ
 70
       0
 40
142.41471023
 10
-2.13802082
 20
-1.45520833
 41
177.98477629
 11
0.0
 21
0.0
 31
1.0
 12
100.0
 22
100.0
 32
0.0
 42
50.0
 43
0.0
 44
0.0
 50
0.0
 71
       0
  0
ENDTAB
  0
TABLE
  2
UCS
  5
6
100
AcDbSymbolTable
 70
       0
  0
ENDTAB
  0
TABLE
  2
APPID
  5
8
100
AcDbSymbolTable
 70
       1
  0
APPID
  5
16
100
AcDbSymbolTableRecord
100
AcDbRegAppTableRecord
  2
ACAD
 70
       0
  0
ENDTAB
  0
TABLE
  2
DIMSTYLE
  5
9
100
AcDbSymbolTable
 70
       1
  0
DIMSTYLE
105
18
100
AcDbSymbolTableRecord
100
AcDbDimStyleTableRecord
  2
STANDARD
 70
       0
  3

  4

  5

  6

  7

 40
1.0
 41
0.18
 42
0.0625
 43
0.38
 44
0.18
 45
0.0
 46
0.0
 47
0.0
 48
0.0
 71
       0
 72
       0
 73
       1
 74
       1
 75
       0
 76
       0
 77
       0
 78
       0
140
0.18
141
0.09
142
0.0
143
25.4
144
1.0
145
0.0
146
1.0
147
0.09
170
       0
171
       2
172
       0
173
       0
174
       0
175
       0
176
       0
177
       0
178
       0
270
       2
271
       4
272
       4
273
       2
274
       2
275
       0
280
       0
281
       0
282
       0
283
       1
284
       0
285
       0
286
       0
287
       0
288
       0
340
17
  0
ENDTAB
  0
TABLE
  2
BLOCK_RECORD
  5
1
100
AcDbSymbolTable
 70
       0
  0
BLOCK_RECORD
  5
A
100
AcDbSymbolTableRecord
100
AcDbBlockTableRecord
  2
*MODEL_SPACE
  0
BLOCK_RECORD
  5
B
100
AcDbSymbolTableRecord
100
AcDbBlockTableRecord
  2
*PAPER_SPACE
  0
ENDTAB
  0
ENDSEC
  0
SECTION
  2
BLOCKS
  0
BLOCK
  5
D
100
AcDbEntity
  8
0
100
AcDbBlockBegin
  2
*MODEL_SPACE
 70
       0
 10
0.0
 20
0.0
 30
0.0
  3
*MODEL_SPACE
  1

  0
ENDBLK
  5
E
100
AcDbEntity
  8
0
100
AcDbBlockEnd
  0
BLOCK
  5
F
100
AcDbEntity
 67
       1
  8
0
100
AcDbBlockBegin
  2
*PAPER_SPACE
 70
       0
 10
0.0
 20
0.0
 30
0.0
  3
*PAPER_SPACE
  1

  0
ENDBLK
  5
10
100
AcDbEntity
 67
       1
  8
0
100
AcDbBlockEnd
  0
ENDSEC
  0
SECTION
  2
ENTITIES
  0
LINE
  5
3A
100
AcDbEntity
  8
LAYER0002
  6
PHANTOM
 62
       7
100
AcDbLine
 10
-50.49411843
 20
56.92699136
 30
0.0
 11
-51.29411846
 21
56.92699136
 31
0.0
  0
LINE
  5
3B
100
AcDbEntity
  8
LAYER0002
  6
PHANTOM
 62
       7
100
AcDbLine
 10
-49.99411821
 20
58.48583629
 30
0.0
 11
-51.29411846
 21
58.48583629
 31
0.0
  0
LINE
  5
3C
100
AcDbEntity
  8
LAYER0002
  6
PHANTOM
 62
       7
100
AcDbLine
 10
-51.29411846
 20
56.92699136
 30
0.0
 11
-51.29411846
 21
58.48583629
 31
0.0
  0
LINE
  5
3D
100
AcDbEntity
  8
LAYER0002
  6
PHANTOM
 62
       7
100
AcDbLine
 10
-39.07411808
 20
58.48583536
 30
0.0
 11
-40.37411892
 21
58.48583629
 31
0.0
  0
LINE
  5
3E
100
AcDbEntity
  8
LAYER0002
  6
PHANTOM
 62
       7
100
AcDbLine
 10
-39.07411808
 20
56.92699136
 30
0.0
 11
-39.87411858
 21
56.92699136
 31
0.0
  0
LINE
  5
3F
100
AcDbEntity
  8
LAYER0002
  6
PHANTOM
 62
       7
100
AcDbLine
 10
-39.07411808
 20
58.48583536
 30
0.0
 11
-39.07411808
 21
56.92699136
 31
0.0
  0
LINE
  5
40
100
AcDbEntity
  8
LAYER0002
  6
PHANTOM
 62
       7
100
AcDbLine
 10
-42.05452996
 20
58.28583629
 30
0.0
 11
-44.50370668
 21
58.28583629
 31
0.0
  0
LINE
  5
41
100
AcDbEntity
  8
LAYER0002
  6
PHANTOM
 62
       7
100
AcDbLine
 10
-44.50370668
 20
53.04468201
 30
0.0
 11
-45.86453039
 21
53.04468201
 31
0.0
  0
LINE
  5
42
100
AcDbEntity
  8
LAYER0002
  6
PHANTOM
 62
       7
100
AcDbLine
 10
-46.50370668
 20
58.28583629
 30
0.0
 11
-47.67453034
 21
58.28583629
 31
0.0
  0
LINE
  5
43
100
AcDbEntity
  8
LAYER0002
  6
PHANTOM
 62
       7
100
AcDbLine
 10
-47.67452996
 20
53.04468201
 30
0.0
 11
-50.31370668
 21
53.04468201
 31
0.0
  0
LINE
  5
44
100
AcDbEntity
  8
LAYER0002
  6
PHANTOM
 62
       7
100
AcDbLine
 10
-40.05452995
 20
53.04468201
 30
0.0
 11
-42.05452977
 21
53.04468201
 31
0.0
  0
LINE
  5
45
100
AcDbEntity
  8
LAYER0002
  6
PHANTOM
 62
       7
100
AcDbLine
 10
-39.07411808
 20
60.9858367
 30
0.0
 11
-51.29411846
 21
60.9858367
 31
0.0
  0
LINE
  5
46
100
AcDbEntity
  8
LAYER0002
  6
PHANTOM
 62
       7
100
AcDbLine
 10
-39.07411808
 20
60.9858367
 30
0.0
 11
-39.07411808
 21
58.48583536
 31
0.0
  0
LINE
  5
47
100
AcDbEntity
  8
LAYER0002
  6
PHANTOM
 62
       7
100
AcDbLine
 10
-51.29411846
 20
58.48583629
 30
0.0
 11
-51.29411846
 21
60.9858367
 31
0.0
  0
LINE
  5
48
100
AcDbEntity
  8
LAYER0002
  6
PHANTOM
 62
       7
100
AcDbLine
 10
-50.49411832
 20
52.37865664
 30
0.0
 11
-50.49411821
 21
57.61981091
 31
0.0
  0
LINE
  5
49
100
AcDbEntity
  8
LAYER0002
  6
PHANTOM
 62
       7
100
AcDbLine
 10
-47.49411832
 20
52.37865672
 30
0.0
 11
-47.4941187
 21
57.61981099
 31
0.0
  0
LINE
  5
4A
100
AcDbEntity
  8
LAYER0002
  6
PHANTOM
 62
       7
100
AcDbLine
 10
-43.68411832
 20
52.37865661
 30
0.0
 11
-43.68411832
 21
57.61981088
 31
0.0
  0
LINE
  5
4B
100
AcDbEntity
  8
LAYER0002
  6
PHANTOM
 62
       7
100
AcDbLine
 10
-46.58411875
 20
56.92699136
 30
0.0
 11
-47.39411793
 21
56.92699136
 31
0.0
  0
LINE
  5
4C
100
AcDbEntity
  8
LAYER0002
  6
PHANTOM
 62
       7
100
AcDbLine
 10
-42.77411814
 20
56.92699136
 30
0.0
 11
-43.58411826
 21
56.92699136
 31
0.0
  0
LINE
  5
4D
100
AcDbEntity
  8
LAYER0002
  6
PHANTOM
 62
       7
100
AcDbLine
 10
-46.68411876
 20
52.37865673
 30
0.0
 11
-46.68411833
 21
57.61981101
 31
0.0
  0
LINE
  5
4E
100
AcDbEntity
  8
LAYER0002
  6
PHANTOM
 62
       7
100
AcDbLine
 10
-42.87411814
 20
52.37865656
 30
0.0
 11
-42.87411832
 21
57.61981083
 31
0.0
  0
LINE
  5
4F
100
AcDbEntity
  8
LAYER0002
  6
PHANTOM
 62
       7
100
AcDbLine
 10
-39.87411832
 20
52.37865653
 30
0.0
 11
-39.87411805
 21
57.61981081
 31
0.0
  0
LINE
  5
50
100
AcDbEntity
  8
LAYER0002
  6
PHANTOM
 62
       7
100
AcDbLine
 10
-43.68411832
 20
52.37865661
 30
0.0
 11
-43.68411832
 21
51.68583573
 31
0.0
  0
LINE
  5
51
100
AcDbEntity
  8
LAYER0002
  6
PHANTOM
 62
       7
100
AcDbLine
 10
-43.68411832
 20
51.68583573
 30
0.0
 11
-46.68411876
 21
51.68583573
 31
0.0
  0
LINE
  5
52
100
AcDbEntity
  8
LAYER0002
  6
PHANTOM
 62
       7
100
AcDbLine
 10
-46.68411876
 20
52.37865673
 30
0.0
 11
-46.68411876
 21
51.68583573
 31
0.0
  0
LINE
  5
53
100
AcDbEntity
  8
LAYER0002
  6
PHANTOM
 62
       7
100
AcDbLine
 10
-47.49411832
 20
52.37865672
 30
0.0
 11
-47.49411832
 21
51.68583573
 31
0.0
  0
LINE
  5
54
100
AcDbEntity
  8
LAYER0002
  6
PHANTOM
 62
       7
100
AcDbLine
 10
-47.49411832
 20
51.68583573
 30
0.0
 11
-50.49411832
 21
51.68583573
 31
0.0
  0
LINE
  5
55
100
AcDbEntity
  8
LAYER0002
  6
PHANTOM
 62
       7
100
AcDbLine
 10
-50.49411832
 20
52.37865664
 30
0.0
 11
-50.49411832
 21
51.68583573
 31
0.0
  0
LINE
  5
56
100
AcDbEntity
  8
LAYER0002
  6
PHANTOM
 62
       7
100
AcDbLine
 10
-39.87411832
 20
52.37865653
 30
0.0
 11
-39.87411832
 21
51.68583573
 31
0.0
  0
LINE
  5
57
100
AcDbEntity
  8
LAYER0002
  6
PHANTOM
 62
       7
100
AcDbLine
 10
-39.87411832
 20
51.68583573
 30
0.0
 11
-42.87411814
 21
51.68583573
 31
0.0
  0
LINE
  5
58
100
AcDbEntity
  8
LAYER0002
  6
PHANTOM
 62
       7
100
AcDbLine
 10
-42.87411814
 20
52.37865656
 30
0.0
 11
-42.87411814
 21
51.68583573
 31
0.0
  0
LINE
  5
59
100
AcDbEntity
  8
LAYER0002
  6
PHANTOM
 62
       7
100
AcDbLine
 10
-39.07411808
 20
56.92699136
 30
0.0
 11
-39.07411808
 21
46.68583677
 31
0.0
  0
LINE
  5
5A
100
AcDbEntity
  8
LAYER0002
  6
PHANTOM
 62
       7
100
AcDbLine
 10
-51.29411846
 20
56.92699136
 30
0.0
 11
-51.29411846
 21
46.68583677
 31
0.0
  0
LINE
  5
5B
100
AcDbEntity
  8
LAYER0002
  6
PHANTOM
 62
       7
100
AcDbLine
 10
-50.39411843
 20
62.98583702
 30
0.0
 11
-50.39411843
 21
60.9858367
 31
0.0
  0
LINE
  5
5C
100
AcDbEntity
  8
LAYER0002
  6
PHANTOM
 62
       7
100
AcDbLine
 10
-50.39411843
 20
62.98583702
 30
0.0
 11
-47.39411793
 21
62.98583702
 31
0.0
  0
LINE
  5
5D
100
AcDbEntity
  8
LAYER0002
  6
PHANTOM
 62
       7
100
AcDbLine
 10
-47.39411793
 20
62.98583702
 30
0.0
 11
-47.39411793
 21
60.9858367
 31
0.0
  0
LINE
  5
5E
100
AcDbEntity
  8
LAYER0002
  6
PHANTOM
 62
       7
100
AcDbLine
 10
-46.58411875
 20
62.98583702
 30
0.0
 11
-46.58411875
 21
60.9858367
 31
0.0
  0
LINE
  5
5F
100
AcDbEntity
  8
LAYER0002
  6
PHANTOM
 62
       7
100
AcDbLine
 10
-46.58411875
 20
62.98583702
 30
0.0
 11
-43.58411826
 21
62.98583702
 31
0.0
  0
LINE
  5
60
100
AcDbEntity
  8
LAYER0002
  6
PHANTOM
 62
       7
100
AcDbLine
 10
-43.58411826
 20
62.98583702
 30
0.0
 11
-43.58411826
 21
60.9858367
 31
0.0
  0
LINE
  5
61
100
AcDbEntity
  8
LAYER0002
  6
PHANTOM
 62
       7
100
AcDbLine
 10
-42.77411814
 20
62.98583702
 30
0.0
 11
-42.77411814
 21
60.9858367
 31
0.0
  0
LINE
  5
62
100
AcDbEntity
  8
LAYER0002
  6
PHANTOM
 62
       7
100
AcDbLine
 10
-42.77411814
 20
62.98583702
 30
0.0
 11
-39.77411858
 21
62.98583702
 31
0.0
  0
LINE
  5
63
100
AcDbEntity
  8
LAYER0002
  6
PHANTOM
 62
       7
100
AcDbLine
 10
-39.77411858
 20
62.98583702
 30
0.0
 11
-39.77411858
 21
60.9858367
 31
0.0
  0
LINE
  5
64
100
AcDbEntity
  8
LAYER0002
  6
PHANTOM
 62
       7
100
AcDbLine
 10
57.48192033
 20
47.48583542
 30
0.0
 11
57.48192033
 21
46.68583677
 31
0.0
  0
LINE
  5
65
100
AcDbEntity
  8
LAYER0002
  6
PHANTOM
 62
       7
100
AcDbLine
 10
54.78191933
 20
47.48583542
 30
0.0
 11
54.78191933
 21
46.68583677
 31
0.0
  0
LINE
  5
66
100
AcDbEntity
  8
LAYER0002
  6
PHANTOM
 62
       7
100
AcDbLine
 10
54.78191933
 20
47.48583542
 30
0.0
 11
55.83191941
 21
47.48583542
 31
0.0
  0
LINE
  5
67
100
AcDbEntity
  8
LAYER0002
  6
PHANTOM
 62
       7
100
AcDbLine
 10
55.83191941
 20
46.98583813
 30
0.0
 11
55.83191941
 21
47.48583542
 31
0.0
  0
LINE
  5
68
100
AcDbEntity
  8
LAYER0002
  6
PHANTOM
 62
       7
100
AcDbLine
 10
55.83191941
 20
46.98583813
 30
0.0
 11
56.43191932
 21
46.98583813
 31
0.0
  0
LINE
  5
69
100
AcDbEntity
  8
LAYER0002
  6
PHANTOM
 62
       7
100
AcDbLine
 10
56.43191932
 20
46.98583813
 30
0.0
 11
56.43191932
 21
47.48583542
 31
0.0
  0
LINE
  5
6A
100
AcDbEntity
  8
LAYER0002
  6
PHANTOM
 62
       7
100
AcDbLine
 10
56.43191932
 20
47.48583542
 30
0.0
 11
57.48192033
 21
47.48583542
 31
0.0
  0
LINE
  5
6B
100
AcDbEntity
  8
LAYER0002
  6
PHANTOM
 62
       7
100
AcDbLine
 10
53.98191976
 20
47.48583542
 30
0.0
 11
53.98191976
 21
46.68583677
 31
0.0
  0
LINE
  5
6C
100
AcDbEntity
  8
LAYER0002
  6
PHANTOM
 62
       7
100
AcDbLine
 10
51.28191969
 20
47.48583542
 30
0.0
 11
51.28191969
 21
46.68583677
 31
0.0
  0
LINE
  5
6D
100
AcDbEntity
  8
LAYER0002
  6
PHANTOM
 62
       7
100
AcDbLine
 10
51.28191969
 20
47.48583542
 30
0.0
 11
52.33191977
 21
47.48583542
 31
0.0
  0
LINE
  5
6E
100
AcDbEntity
  8
LAYER0002
  6
PHANTOM
 62
       7
100
AcDbLine
 10
52.33191977
 20
46.98583813
 30
0.0
 11
52.33191977
 21
47.48583542
 31
0.0
  0
LINE
  5
6F
100
AcDbEntity
  8
LAYER0002
  6
PHANTOM
 62
       7
100
AcDbLine
 10
52.33191977
 20
46.98583813
 30
0.0
 11
52.93191968
 21
46.98583813
 31
0.0
  0
LINE
  5
70
100
AcDbEntity
  8
LAYER0002
  6
PHANTOM
 62
       7
100
AcDbLine
 10
52.93191968
 20
46.98583813
 30
0.0
 11
52.93191968
 21
47.48583542
 31
0.0
  0
LINE
  5
71
100
AcDbEntity
  8
LAYER0002
  6
PHANTOM
 62
       7
100
AcDbLine
 10
52.93191968
 20
47.48583542
 30
0.0
 11
53.98191976
 21
47.48583542
 31
0.0
  0
LINE
  5
72
100
AcDbEntity
  8
LAYER0002
  6
PHANTOM
 62
       7
100
AcDbLine
 10
47.78191958
 20
47.48583542
 30
0.0
 11
47.78191958
 21
46.68583677
 31
0.0
  0
LINE
  5
73
100
AcDbEntity
  8
LAYER0002
  6
PHANTOM
 62
       7
100
AcDbLine
 10
47.78191958
 20
47.48583542
 30
0.0
 11
48.83191919
 21
47.48583542
 31
0.0
  0
LINE
  5
74
100
AcDbEntity
  8
LAYER0002
  6
PHANTOM
 62
       7
100
AcDbLine
 10
48.83191919
 20
46.98583813
 30
0.0
 11
48.83191919
 21
47.48583542
 31
0.0
  0
LINE
  5
75
100
AcDbEntity
  8
LAYER0002
  6
PHANTOM
 62
       7
100
AcDbLine
 10
48.83191919
 20
46.98583813
 30
0.0
 11
49.43191911
 21
46.98583813
 31
0.0
  0
LINE
  5
76
100
AcDbEntity
  8
LAYER0002
  6
PHANTOM
 62
       7
100
AcDbLine
 10
49.43191911
 20
46.98583813
 30
0.0
 11
49.43191911
 21
47.48583542
 31
0.0
  0
LINE
  5
77
100
AcDbEntity
  8
LAYER0002
  6
PHANTOM
 62
       7
100
AcDbLine
 10
50.48191918
 20
47.48583542
 30
0.0
 11
50.48191918
 21
46.68583677
 31
0.0
  0
LINE
  5
78
100
AcDbEntity
  8
LAYER0002
  6
PHANTOM
 62
       7
100
AcDbLine
 10
49.43191911
 20
47.48583542
 30
0.0
 11
50.48191918
 21
47.48583542
 31
0.0
  0
LINE
  5
79
100
AcDbEntity
  8
LAYER0002
  6
PHANTOM
 62
       7
100
AcDbLine
 10
62.2730741
 20
-31.24835504
 30
0.0
 11
52.03191952
 21
-31.24835504
 31
0.0
  0
LINE
  5
7A
100
AcDbEntity
  8
LAYER0002
  6
PHANTOM
 62
       7
100
AcDbLine
 10
63.8319181
 20
-30.34835494
 30
0.0
 11
62.2730741
 21
-31.24835504
 31
0.0
  0
LINE
  5
7B
100
AcDbEntity
  8
LAYER0002
  6
PHANTOM
 62
       7
100
AcDbLine
 10
66.33191944
 20
-30.34835494
 30
0.0
 11
63.8319181
 21
-30.34835494
 31
0.0
  0
LINE
  5
7C
100
AcDbEntity
  8
LAYER0002
  6
PHANTOM
 62
       7
100
AcDbLine
 10
66.33191944
 20
-30.34835494
 30
0.0
 11
66.33191944
 21
-42.04835509
 31
0.0
  0
LINE
  5
7D
100
AcDbEntity
  8
LAYER0002
  6
PHANTOM
 62
       7
100
AcDbLine
 10
66.33191944
 20
-42.04835509
 30
0.0
 11
52.03191952
 21
-42.04835509
 31
0.0
  0
LINE
  5
7E
100
AcDbEntity
  8
LAYER0002
  6
PHANTOM
 62
       7
100
AcDbLine
 10
68.33191977
 20
-35.69835516
 30
0.0
 11
66.33191944
 21
-35.69835516
 31
0.0
  0
LINE
  5
7F
100
AcDbEntity
  8
LAYER0002
  6
PHANTOM
 62
       7
100
AcDbLine
 10
68.33191977
 20
-36.34835499
 30
0.0
 11
67.33191774
 21
-36.48000745
 31
0.0
  0
LINE
  5
80
100
AcDbEntity
  8
LAYER0002
  6
PHANTOM
 62
       7
100
AcDbLine
 10
67.33191774
 20
-36.48000745
 30
0.0
 11
67.33191774
 21
-36.91670251
 31
0.0
  0
LINE
  5
81
100
AcDbEntity
  8
LAYER0002
  6
PHANTOM
 62
       7
100
AcDbLine
 10
68.33191977
 20
-37.0483552
 30
0.0
 11
68.33191977
 21
-37.69835503
 31
0.0
  0
LINE
  5
82
100
AcDbEntity
  8
LAYER0002
  6
PHANTOM
 62
       7
100
AcDbLine
 10
67.33191774
 20
-36.91670251
 30
0.0
 11
68.33191977
 21
-37.0483552
 31
0.0
  0
LINE
  5
83
100
AcDbEntity
  8
LAYER0002
  6
PHANTOM
 62
       7
100
AcDbLine
 10
68.33191977
 20
-35.69835516
 30
0.0
 11
68.33191977
 21
-36.34835499
 31
0.0
  0
LINE
  5
84
100
AcDbEntity
  8
LAYER0002
  6
PHANTOM
 62
       7
100
AcDbLine
 10
68.33191977
 20
-37.69835503
 30
0.0
 11
66.33191944
 21
-37.69835503
 31
0.0
  0
LINE
  5
85
100
AcDbEntity
  8
LAYER0002
  6
PHANTOM
 62
       7
100
AcDbLine
 10
58.5907662
 20
-30.34835494
 30
0.0
 11
58.57412533
 21
-30.35796246
 31
0.0
  0
LINE
  5
86
100
AcDbEntity
  8
LAYER0002
  6
PHANTOM
 62
       7
100
AcDbLine
 10
58.57412533
 20
-30.35796246
 30
0.0
 11
58.52484346
 21
-30.3864153
 31
0.0
  0
LINE
  5
87
100
AcDbEntity
  8
LAYER0002
  6
PHANTOM
 62
       7
100
AcDbLine
 10
58.52484346
 20
-30.3864153
 30
0.0
 11
58.44481305
 21
-30.43262031
 31
0.0
  0
LINE
  5
88
100
AcDbEntity
  8
LAYER0002
  6
PHANTOM
 62
       7
100
AcDbLine
 10
58.44481305
 20
-30.43262031
 30
0.0
 11
58.33711118
 21
-30.49480169
 31
0.0
  0
LINE
  5
89
100
AcDbEntity
  8
LAYER0002
  6
PHANTOM
 62
       7
100
AcDbLine
 10
58.33711118
 20
-30.49480169
 30
0.0
 11
58.20587665
 21
-30.5705699
 31
0.0
  0
LINE
  5
8A
100
AcDbEntity
  8
LAYER0002
  6
PHANTOM
 62
       7
100
AcDbLine
 10
58.20587665
 20
-30.5705699
 30
0.0
 11
58.05615351
 21
-30.6570134
 31
0.0
  0
LINE
  5
8B
100
AcDbEntity
  8
LAYER0002
  6
PHANTOM
 62
       7
100
AcDbLine
 10
58.05615351
 20
-30.6570134
 30
0.0
 11
57.8936936
 21
-30.75080992
 31
0.0
  0
LINE
  5
8C
100
AcDbEntity
  8
LAYER0002
  6
PHANTOM
 62
       7
100
AcDbLine
 10
57.8936936
 20
-30.75080992
 30
0.0
 11
57.72474051
 21
-30.84835502
 31
0.0
  0
LINE
  5
8D
100
AcDbEntity
  8
LAYER0002
  6
PHANTOM
 62
       7
100
AcDbLine
 10
58.5907662
 20
-30.34835494
 30
0.0
 11
63.8319181
 21
-30.34835494
 31
0.0
  0
LINE
  5
8E
100
AcDbEntity
  8
LAYER0002
  6
PHANTOM
 62
       7
100
AcDbLine
 10
57.72474051
 20
-30.84835502
 30
0.0
 11
57.03191847
 21
-31.24835504
 31
0.0
  0
ELLIPSE
  5
8F
100
AcDbEntity
  8
LAYER0002
  6
PHANTOM
 62
       7
100
AcDbEllipse
 10
-49.99411821
 20
57.61981088
 30
0.0
 11
0.0
 21
0.8660254037844197
 31
0.0
210
0.0
220
0.0
230
1.0
 40
0.57735027
 41
0.0
 42
1.5707963267943192
  0
ELLIPSE
  5
90
100
AcDbEntity
  8
LAYER0002
  6
PHANTOM
 62
       7
100
AcDbEllipse
 10
-40.37411805
 20
57.61981088
 30
0.0
 11
0.0
 21
0.8660254037844197
 31
0.0
210
0.0
220
0.0
230
1.0
 40
0.57735027
 41
4.71238889955562
 42
6.2831870471796005
  0
ELLIPSE
  5
91
100
AcDbEntity
  8
LAYER0002
  6
PHANTOM
 62
       7
100
AcDbEllipse
 10
-49.99411832
 20
52.37865661
 30
0.0
 11
0.0
 21
0.8660254037844481
 31
0.0
210
0.0
220
0.0
230
1.0
 40
0.57735027
 41
0.6934272930158968
 42
1.5707963267943192
  0
ELLIPSE
  5
92
100
AcDbEntity
  8
LAYER0002
  6
PHANTOM
 62
       7
100
AcDbEllipse
 10
-47.9941187
 20
57.61981088
 30
0.0
 11
0.0
 21
0.8660254037844197
 31
0.0
210
0.0
220
0.0
230
1.0
 40
0.57735027
 41
4.712388980385267
 42
5.589758026348961
  0
ELLIPSE
  5
93
100
AcDbEntity
  8
LAYER0002
  6
PHANTOM
 62
       7
100
AcDbEllipse
 10
-47.99411832
 20
52.37865661
 30
0.0
 11
0.0
 21
0.8660254037844481
 31
0.0
210
0.0
220
0.0
230
1.0
 40
0.57735027
 41
4.712388980385267
 42
5.5897580141637118
  0
ELLIPSE
  5
94
100
AcDbEntity
  8
LAYER0002
  6
PHANTOM
 62
       7
100
AcDbEllipse
 10
-44.18411832
 20
57.61981088
 30
0.0
 11
0.0
 21
0.8660254037844197
 31
0.0
210
0.0
220
0.0
230
1.0
 40
0.57735027
 41
4.712388980385267
 42
6.9766125880101688
  0
ELLIPSE
  5
95
100
AcDbEntity
  8
LAYER0002
  6
PHANTOM
 62
       7
100
AcDbEllipse
 10
-44.18411832
 20
52.37865661
 30
0.0
 11
0.0
 21
0.8660254037844481
 31
0.0
210
0.0
220
0.0
230
1.0
 40
0.57735027
 41
4.712388980385267
 42
6.9766126001954829
  0
ELLIPSE
  5
96
100
AcDbEntity
  8
LAYER0002
  6
PHANTOM
 62
       7
100
AcDbEllipse
 10
-46.18411833
 20
57.61981088
 30
0.0
 11
0.0
 21
0.8660254037844197
 31
0.0
210
0.0
220
0.0
230
1.0
 40
0.57735027
 41
0.6934272808305825
 42
1.5707963267943192
  0
ELLIPSE
  5
97
100
AcDbEntity
  8
LAYER0002
  6
PHANTOM
 62
       7
100
AcDbEllipse
 10
-42.37411832
 20
57.61981088
 30
0.0
 11
0.0
 21
0.8660254037844197
 31
0.0
210
0.0
220
0.0
230
1.0
 40
0.57735027
 41
5.5897580263488962
 42
7.8539816917095227
  0
ELLIPSE
  5
98
100
AcDbEntity
  8
LAYER0002
  6
PHANTOM
 62
       7
100
AcDbEllipse
 10
-46.18411876
 20
52.37865661
 30
0.0
 11
0.0
 21
0.8660254037844481
 31
0.0
210
0.0
220
0.0
230
1.0
 40
0.57735027
 41
5.5897580141636896
 42
7.8539816339739055
  0
ELLIPSE
  5
99
100
AcDbEntity
  8
LAYER0002
  6
PHANTOM
 62
       7
100
AcDbEllipse
 10
-42.37411814
 20
52.37865661
 30
0.0
 11
0.0
 21
0.8660254037844481
 31
0.0
210
0.0
220
0.0
230
1.0
 40
0.57735027
 41
5.5897580141636469
 42
7.8539816917094569
  0
ELLIPSE
  5
9A
100
AcDbEntity
  8
LAYER0002
  6
PHANTOM
 62
       7
100
AcDbEllipse
 10
-40.37411832
 20
52.37865661
 30
0.0
 11
0.0
 21
0.8660254037844481
 31
0.0
210
0.0
220
0.0
230
1.0
 40
0.57735027
 41
4.7123888880086389
 42
5.5897580141636469
  0
LINE
  5
9B
100
AcDbEntity
  8
LAYER0002
  6
CONTINUOUS
 62
       7
100
AcDbLine
 10
-33.57411794
 20
8.48583637
 30
0.0
 11
-81.5741187
 21
8.48583637
 31
0.0
  0
LINE
  5
9C
100
AcDbEntity
  8
LAYER0002
  6
CONTINUOUS
 62
       7
100
AcDbLine
 10
-33.57411794
 20
8.48583637
 30
0.0
 11
-33.57411794
 21
7.98583657
 31
0.0
  0
LINE
  5
9D
100
AcDbEntity
  8
LAYER0002
  6
CONTINUOUS
 62
       7
100
AcDbLine
 10
-33.57411794
 20
-38.11651516
 30
0.0
 11
-32.47411795
 21
-38.11651516
 31
0.0
  0
LINE
  5
9E
100
AcDbEntity
  8
LAYER0002
  6
CONTINUOUS
 62
       7
100
AcDbLine
 10
-81.5741187
 20
8.48583637
 30
0.0
 11
-81.37411904
 21
8.68583626
 31
0.0
  0
LINE
  5
9F
100
AcDbEntity
  8
LAYER0002
  6
CONTINUOUS
 62
       7
100
AcDbLine
 10
-34.37411844
 20
7.18583648
 30
0.0
 11
-80.77411819
 21
7.18583591
 31
0.0
  0
LINE
  5
A0
100
AcDbEntity
  8
LAYER0002
  6
CONTINUOUS
 62
       7
100
AcDbLine
 10
-32.47411795
 20
-28.11651538
 30
0.0
 11
-33.57411794
 21
-28.11651538
 31
0.0
  0
LINE
  5
A1
100
AcDbEntity
  8
LAYER0002
  6
CONTINUOUS
 62
       7
100
AcDbLine
 10
-81.5741187
 20
7.98583628
 30
0.0
 11
-81.5741187
 21
8.48583637
 31
0.0
  0
LINE
  5
A2
100
AcDbEntity
  8
LAYER0002
  6
CONTINUOUS
 62
       7
100
AcDbLine
 10
-33.7741176
 20
8.68583626
 30
0.0
 11
-33.57411794
 21
8.48583637
 31
0.0
  0
LINE
  5
A3
100
AcDbEntity
  8
LAYER0002
  6
CONTINUOUS
 62
       7
100
AcDbLine
 10
-76.72411855
 20
6.5858361
 30
0.0
 11
-38.42411808
 21
6.5858361
 31
0.0
  0
LINE
  5
A4
100
AcDbEntity
  8
LAYER0002
  6
CONTINUOUS
 62
       7
100
AcDbLine
 10
-38.42411808
 20
6.5858361
 30
0.0
 11
-37.83124931
 21
6.5858361
 31
0.0
  0
LINE
  5
A5
100
AcDbEntity
  8
LAYER0002
  6
CONTINUOUS
 62
       7
100
AcDbLine
 10
-77.31698733
 20
6.58583629
 30
0.0
 11
-76.72411855
 21
6.5858361
 31
0.0
  0
LINE
  5
A6
100
AcDbEntity
  8
LAYER0002
  6
CONTINUOUS
 62
       7
100
AcDbLine
 10
-33.57411794
 20
11.68583629
 30
0.0
 11
-33.60029928
 21
8.68583626
 31
0.0
  0
LINE
  5
A7
100
AcDbEntity
  8
LAYER0002
  6
CONTINUOUS
 62
       7
100
AcDbLine
 10
-33.60029928
 20
8.68583626
 30
0.0
 11
-81.54793736
 21
8.68583626
 31
0.0
  0
LINE
  5
A8
100
AcDbEntity
  8
LAYER0002
  6
CONTINUOUS
 62
       7
100
AcDbLine
 10
-81.54793736
 20
8.68583626
 30
0.0
 11
-81.5741187
 21
11.68583629
 31
0.0
  0
LINE
  5
A9
100
AcDbEntity
  8
LAYER0002
  6
CONTINUOUS
 62
       7
100
AcDbLine
 10
-32.47411795
 20
-38.11651516
 30
0.0
 11
-32.47411795
 21
-28.11651538
 31
0.0
  0
LINE
  5
AA
100
AcDbEntity
  8
LAYER0002
  6
CONTINUOUS
 62
       7
100
AcDbLine
 10
-33.57411794
 20
11.68583629
 30
0.0
 11
-81.5741187
 21
11.68583629
 31
0.0
  0
LINE
  5
AB
100
AcDbEntity
  8
LAYER0002
  6
CONTINUOUS
 62
       7
100
AcDbLine
 10
-35.07411912
 20
46.38583543
 30
0.0
 11
-35.07411912
 21
11.6858363
 31
0.0
  0
LINE
  5
AC
100
AcDbEntity
  8
LAYER0002
  6
CONTINUOUS
 62
       7
100
AcDbLine
 10
-80.07411751
 20
11.68583629
 30
0.0
 11
-80.07411881
 21
46.38583542
 31
0.0
  0
LINE
  5
AD
100
AcDbEntity
  8
LAYER0002
  6
CONTINUOUS
 62
       7
100
AcDbLine
 10
-79.07411922
 20
46.68583678
 30
0.0
 11
-36.07411742
 21
46.68583614
 31
0.0
  0
LINE
  5
AE
100
AcDbEntity
  8
LAYER0002
  6
CONTINUOUS
 62
       7
100
AcDbLine
 10
-36.07411742
 20
46.68583614
 30
0.0
 11
-35.37411861
 21
46.68583614
 31
0.0
  0
LINE
  5
AF
100
AcDbEntity
  8
LAYER0002
  6
CONTINUOUS
 62
       7
100
AcDbLine
 10
-79.77411803
 20
46.68583678
 30
0.0
 11
-79.07411922
 21
46.68583678
 31
0.0
  0
LINE
  5
B0
100
AcDbEntity
  8
LAYER0002
  6
CONTINUOUS
 62
       7
100
AcDbLine
 10
-80.67411836
 20
11.88583628
 30
0.0
 11
-80.87411802
 21
11.88583628
 31
0.0
  0
LINE
  5
B1
100
AcDbEntity
  8
LAYER0002
  6
CONTINUOUS
 62
       7
100
AcDbLine
 10
-80.87411802
 20
12.38583626
 30
0.0
 11
-80.87411802
 21
11.88583628
 31
0.0
  0
LINE
  5
B2
100
AcDbEntity
  8
LAYER0002
  6
CONTINUOUS
 62
       7
100
AcDbLine
 10
-81.07411768
 20
12.38583626
 30
0.0
 11
-80.87411802
 21
12.38583626
 31
0.0
  0
LINE
  5
B3
100
AcDbEntity
  8
LAYER0002
  6
CONTINUOUS
 62
       7
100
AcDbLine
 10
-81.07411768
 20
12.88583634
 30
0.0
 11
-81.07411768
 21
12.38583626
 31
0.0
  0
LINE
  5
B4
100
AcDbEntity
  8
LAYER0002
  6
CONTINUOUS
 62
       7
100
AcDbLine
 10
-81.27411921
 20
12.88583634
 30
0.0
 11
-81.07411768
 21
12.88583634
 31
0.0
  0
LINE
  5
B5
100
AcDbEntity
  8
LAYER0002
  6
CONTINUOUS
 62
       7
100
AcDbLine
 10
-81.27411921
 20
13.38583631
 30
0.0
 11
-81.27411921
 21
12.88583634
 31
0.0
  0
LINE
  5
B6
100
AcDbEntity
  8
LAYER0002
  6
CONTINUOUS
 62
       7
100
AcDbLine
 10
-81.47411887
 20
13.38583631
 30
0.0
 11
-81.27411921
 21
13.38583631
 31
0.0
  0
LINE
  5
B7
100
AcDbEntity
  8
LAYER0002
  6
CONTINUOUS
 62
       7
100
AcDbLine
 10
-81.47411887
 20
13.88583627
 30
0.0
 11
-81.47411887
 21
13.38583631
 31
0.0
  0
LINE
  5
B8
100
AcDbEntity
  8
LAYER0002
  6
CONTINUOUS
 62
       7
100
AcDbLine
 10
-81.67411853
 20
13.88583627
 30
0.0
 11
-81.47411887
 21
13.88583627
 31
0.0
  0
LINE
  5
B9
100
AcDbEntity
  8
LAYER0002
  6
CONTINUOUS
 62
       7
100
AcDbLine
 10
-81.67411853
 20
14.38583636
 30
0.0
 11
-81.67411853
 21
13.88583627
 31
0.0
  0
LINE
  5
BA
100
AcDbEntity
  8
LAYER0002
  6
CONTINUOUS
 62
       7
100
AcDbLine
 10
-81.87411819
 20
14.38583636
 30
0.0
 11
-81.67411853
 21
14.38583636
 31
0.0
  0
LINE
  5
BB
100
AcDbEntity
  8
LAYER0002
  6
CONTINUOUS
 62
       7
100
AcDbLine
 10
-81.87411819
 20
14.8858362
 30
0.0
 11
-81.87411819
 21
14.38583636
 31
0.0
  0
LINE
  5
BC
100
AcDbEntity
  8
LAYER0002
  6
CONTINUOUS
 62
       7
100
AcDbLine
 10
-82.07411785
 20
14.8858362
 30
0.0
 11
-81.87411819
 21
14.8858362
 31
0.0
  0
LINE
  5
BD
100
AcDbEntity
  8
LAYER0002
  6
CONTINUOUS
 62
       7
100
AcDbLine
 10
-82.07411785
 20
15.38583629
 30
0.0
 11
-82.07411785
 21
14.8858362
 31
0.0
  0
LINE
  5
BE
100
AcDbEntity
  8
LAYER0002
  6
CONTINUOUS
 62
       7
100
AcDbLine
 10
-82.27411751
 20
15.38583629
 30
0.0
 11
-82.07411785
 21
15.38583629
 31
0.0
  0
LINE
  5
BF
100
AcDbEntity
  8
LAYER0002
  6
CONTINUOUS
 62
       7
100
AcDbLine
 10
-82.27411751
 20
15.88583614
 30
0.0
 11
-82.27411751
 21
15.38583629
 31
0.0
  0
LINE
  5
C0
100
AcDbEntity
  8
LAYER0002
  6
CONTINUOUS
 62
       7
100
AcDbLine
 10
-82.47411903
 20
15.88583614
 30
0.0
 11
-82.27411751
 21
15.88583614
 31
0.0
  0
LINE
  5
C1
100
AcDbEntity
  8
LAYER0002
  6
CONTINUOUS
 62
       7
100
AcDbLine
 10
-82.47411903
 20
16.38583622
 30
0.0
 11
-82.47411903
 21
15.88583614
 31
0.0
  0
LINE
  5
C2
100
AcDbEntity
  8
LAYER0002
  6
CONTINUOUS
 62
       7
100
AcDbLine
 10
-82.67411869
 20
16.38583622
 30
0.0
 11
-82.47411903
 21
16.38583622
 31
0.0
  0
LINE
  5
C3
100
AcDbEntity
  8
LAYER0002
  6
CONTINUOUS
 62
       7
100
AcDbLine
 10
-82.67411869
 20
16.38583622
 30
0.0
 11
-82.67411869
 21
16.8858363
 31
0.0
  0
LINE
  5
C4
100
AcDbEntity
  8
LAYER0002
  6
CONTINUOUS
 62
       7
100
AcDbLine
 10
-80.46311047
 20
17.48583621
 30
0.0
 11
-80.07411752
 21
18.21455049
 31
0.0
  0
LINE
  5
C5
100
AcDbEntity
  8
LAYER0002
  6
CONTINUOUS
 62
       7
100
AcDbLine
 10
-80.07411752
 20
16.18583609
 30
0.0
 11
-80.46311047
 21
17.48583621
 31
0.0
  0
LINE
  5
C6
100
AcDbEntity
  8
LAYER0002
  6
CONTINUOUS
 62
       7
100
AcDbLine
 10
-80.07411752
 20
16.18583609
 30
0.0
 11
-80.67411836
 21
11.88583628
 31
0.0
  0
LINE
  5
C7
100
AcDbEntity
  8
LAYER0002
  6
CONTINUOUS
 62
       7
100
AcDbLine
 10
-32.47411795
 20
16.38583622
 30
0.0
 11
-32.47411832
 21
16.88583629
 31
0.0
  0
LINE
  5
C8
100
AcDbEntity
  8
LAYER0002
  6
CONTINUOUS
 62
       7
100
AcDbLine
 10
-32.47411795
 20
16.38583622
 30
0.0
 11
-32.67411761
 21
16.38583622
 31
0.0
  0
LINE
  5
C9
100
AcDbEntity
  8
LAYER0002
  6
CONTINUOUS
 62
       7
100
AcDbLine
 10
-32.67411761
 20
16.38583622
 30
0.0
 11
-32.67411761
 21
15.88583614
 31
0.0
  0
LINE
  5
CA
100
AcDbEntity
  8
LAYER0002
  6
CONTINUOUS
 62
       7
100
AcDbLine
 10
-32.67411761
 20
15.88583614
 30
0.0
 11
-32.87411913
 21
15.88583614
 31
0.0
  0
LINE
  5
CB
100
AcDbEntity
  8
LAYER0002
  6
CONTINUOUS
 62
       7
100
AcDbLine
 10
-32.87411913
 20
15.88583614
 30
0.0
 11
-32.87411913
 21
15.38583629
 31
0.0
  0
LINE
  5
CC
100
AcDbEntity
  8
LAYER0002
  6
CONTINUOUS
 62
       7
100
AcDbLine
 10
-32.87411913
 20
15.38583629
 30
0.0
 11
-33.07411879
 21
15.38583629
 31
0.0
  0
LINE
  5
CD
100
AcDbEntity
  8
LAYER0002
  6
CONTINUOUS
 62
       7
100
AcDbLine
 10
-33.07411879
 20
15.38583629
 30
0.0
 11
-33.07411879
 21
14.8858362
 31
0.0
  0
LINE
  5
CE
100
AcDbEntity
  8
LAYER0002
  6
CONTINUOUS
 62
       7
100
AcDbLine
 10
-33.07411879
 20
14.8858362
 30
0.0
 11
-33.27411845
 21
14.8858362
 31
0.0
  0
LINE
  5
CF
100
AcDbEntity
  8
LAYER0002
  6
CONTINUOUS
 62
       7
100
AcDbLine
 10
-33.27411845
 20
14.8858362
 30
0.0
 11
-33.27411845
 21
14.38583636
 31
0.0
  0
LINE
  5
D0
100
AcDbEntity
  8
LAYER0002
  6
CONTINUOUS
 62
       7
100
AcDbLine
 10
-33.27411845
 20
14.38583636
 30
0.0
 11
-33.47411811
 21
14.38583636
 31
0.0
  0
LINE
  5
D1
100
AcDbEntity
  8
LAYER0002
  6
CONTINUOUS
 62
       7
100
AcDbLine
 10
-33.47411811
 20
14.38583636
 30
0.0
 11
-33.47411811
 21
13.88583627
 31
0.0
  0
LINE
  5
D2
100
AcDbEntity
  8
LAYER0002
  6
CONTINUOUS
 62
       7
100
AcDbLine
 10
-33.47411811
 20
13.88583627
 30
0.0
 11
-33.67411777
 21
13.88583627
 31
0.0
  0
LINE
  5
D3
100
AcDbEntity
  8
LAYER0002
  6
CONTINUOUS
 62
       7
100
AcDbLine
 10
-33.67411777
 20
13.88583627
 30
0.0
 11
-33.67411777
 21
13.38583631
 31
0.0
  0
LINE
  5
D4
100
AcDbEntity
  8
LAYER0002
  6
CONTINUOUS
 62
       7
100
AcDbLine
 10
-33.67411777
 20
13.38583631
 30
0.0
 11
-33.87411743
 21
13.38583631
 31
0.0
  0
LINE
  5
D5
100
AcDbEntity
  8
LAYER0002
  6
CONTINUOUS
 62
       7
100
AcDbLine
 10
-33.87411743
 20
13.38583631
 30
0.0
 11
-33.87411743
 21
12.88583634
 31
0.0
  0
LINE
  5
D6
100
AcDbEntity
  8
LAYER0002
  6
CONTINUOUS
 62
       7
100
AcDbLine
 10
-33.87411743
 20
12.88583634
 30
0.0
 11
-34.07411895
 21
12.88583634
 31
0.0
  0
LINE
  5
D7
100
AcDbEntity
  8
LAYER0002
  6
CONTINUOUS
 62
       7
100
AcDbLine
 10
-34.07411895
 20
12.88583634
 30
0.0
 11
-34.07411895
 21
12.38583626
 31
0.0
  0
LINE
  5
D8
100
AcDbEntity
  8
LAYER0002
  6
CONTINUOUS
 62
       7
100
AcDbLine
 10
-34.07411895
 20
12.38583626
 30
0.0
 11
-34.27411861
 21
12.38583626
 31
0.0
  0
LINE
  5
D9
100
AcDbEntity
  8
LAYER0002
  6
CONTINUOUS
 62
       7
100
AcDbLine
 10
-34.27411861
 20
12.38583626
 30
0.0
 11
-34.27411861
 21
11.88583628
 31
0.0
  0
LINE
  5
DA
100
AcDbEntity
  8
LAYER0002
  6
CONTINUOUS
 62
       7
100
AcDbLine
 10
-34.47411827
 20
11.88583628
 30
0.0
 11
-34.27411861
 21
11.88583628
 31
0.0
  0
LINE
  5
DB
100
AcDbEntity
  8
LAYER0002
  6
CONTINUOUS
 62
       7
100
AcDbLine
 10
-35.07411912
 20
16.18583609
 30
0.0
 11
-34.47411827
 21
11.88583628
 31
0.0
  0
LINE
  5
DC
100
AcDbEntity
  8
LAYER0002
  6
CONTINUOUS
 62
       7
100
AcDbLine
 10
-35.07411912
 20
16.18583609
 30
0.0
 11
-34.68512617
 21
17.48583621
 31
0.0
  0
LINE
  5
DD
100
AcDbEntity
  8
LAYER0002
  6
CONTINUOUS
 62
       7
100
AcDbLine
 10
-34.68512617
 20
17.48583621
 30
0.0
 11
-35.07411912
 21
18.21455049
 31
0.0
  0
LINE
  5
DE
100
AcDbEntity
  8
LAYER0002
  6
CONTINUOUS
 62
       7
100
AcDbLine
 10
63.43191924
 20
46.38583542
 30
0.0
 11
63.43191924
 21
11.68583629
 31
0.0
  0
LINE
  5
DF
100
AcDbEntity
  8
LAYER0002
  6
CONTINUOUS
 62
       7
100
AcDbLine
 10
18.4319202
 20
11.68583629
 30
0.0
 11
18.4319202
 21
46.38583542
 31
0.0
  0
LINE
  5
E0
100
AcDbEntity
  8
LAYER0002
  6
CONTINUOUS
 62
       7
100
AcDbLine
 10
19.4319185
 20
46.68583614
 30
0.0
 11
62.43192031
 21
46.68583614
 31
0.0
  0
LINE
  5
E1
100
AcDbEntity
  8
LAYER0002
  6
CONTINUOUS
 62
       7
100
AcDbLine
 10
62.43192031
 20
46.68583614
 30
0.0
 11
63.1319194
 21
46.68583614
 31
0.0
  0
LINE
  5
E2
100
AcDbEntity
  8
LAYER0002
  6
CONTINUOUS
 62
       7
100
AcDbLine
 10
18.73192005
 20
46.68583614
 30
0.0
 11
19.4319185
 21
46.68583614
 31
0.0
  0
LINE
  5
E3
100
AcDbEntity
  8
LAYER0002
  6
CONTINUOUS
 62
       7
100
AcDbLine
 10
-77.22411836
 20
-25.21651565
 30
0.0
 11
-77.22411836
 21
-37.61651527
 31
0.0
  0
LINE
  5
E4
100
AcDbEntity
  8
LAYER0002
  6
CONTINUOUS
 62
       7
100
AcDbLine
 10
-37.92411897
 20
-37.61651527
 30
0.0
 11
-37.92411897
 21
-25.21651585
 31
0.0
  0
LINE
  5
E5
100
AcDbEntity
  8
LAYER0002
  6
CONTINUOUS
 62
       7
100
AcDbLine
 10
-38.22411832
 20
-24.91651523
 30
0.0
 11
-76.92411821
 21
-24.91651523
 31
0.0
  0
LINE
  5
E6
100
AcDbEntity
  8
LAYER0002
  6
CONTINUOUS
 62
       7
100
AcDbLine
 10
-76.92411836
 20
-37.91651527
 30
0.0
 11
-38.22411846
 21
-37.91651527
 31
0.0
  0
LINE
  5
E7
100
AcDbEntity
  8
LAYER0002
  6
CONTINUOUS
 62
       7
100
AcDbLine
 10
-79.57411847
 20
-21.11651499
 30
0.0
 11
-35.57411842
 21
-21.11651499
 31
0.0
  0
LINE
  5
E8
100
AcDbEntity
  8
LAYER0002
  6
CONTINUOUS
 62
       7
100
AcDbLine
 10
-81.5741187
 20
-43.11651522
 30
0.0
 11
-81.5741187
 21
-23.11651527
 31
0.0
  0
LINE
  5
E9
100
AcDbEntity
  8
LAYER0002
  6
CONTINUOUS
 62
       7
100
AcDbLine
 10
-33.57411832
 20
-23.11651532
 30
0.0
 11
-33.57411794
 21
-43.11651527
 31
0.0
  0
LINE
  5
EA
100
AcDbEntity
  8
LAYER0002
  6
CONTINUOUS
 62
       7
100
AcDbLine
 10
-35.57411827
 20
-45.11651565
 30
0.0
 11
-79.57411832
 21
-45.11651565
 31
0.0
  0
LINE
  5
EB
100
AcDbEntity
  8
LAYER0002
  6
CONTINUOUS
 62
       7
100
AcDbLine
 10
-82.67411869
 20
-38.11651516
 30
0.0
 11
-82.67411869
 21
-28.11651538
 31
0.0
  0
LINE
  5
EC
100
AcDbEntity
  8
LAYER0002
  6
CONTINUOUS
 62
       7
100
AcDbLine
 10
-82.67411869
 20
-28.11651538
 30
0.0
 11
-81.5741187
 21
-28.11651538
 31
0.0
  0
LINE
  5
ED
100
AcDbEntity
  8
LAYER0002
  6
CONTINUOUS
 62
       7
100
AcDbLine
 10
-81.5741187
 20
-38.11651516
 30
0.0
 11
-82.67411869
 21
-38.11651516
 31
0.0
  0
LINE
  5
EE
100
AcDbEntity
  8
LAYER0002
  6
CONTINUOUS
 62
       7
100
AcDbLine
 10
13.33191903
 20
-20.74835501
 30
0.0
 11
13.83191911
 21
-20.74835501
 31
0.0
  0
LINE
  5
EF
100
AcDbEntity
  8
LAYER0002
  6
CONTINUOUS
 62
       7
100
AcDbLine
 10
14.03191888
 20
-44.54835462
 30
0.0
 11
13.83191911
 21
-44.74835509
 31
0.0
  0
LINE
  5
F0
100
AcDbEntity
  8
LAYER0002
  6
CONTINUOUS
 62
       7
100
AcDbLine
 10
13.83191911
 20
-44.74835509
 30
0.0
 11
13.83191911
 21
-20.74835501
 31
0.0
  0
LINE
  5
F1
100
AcDbEntity
  8
LAYER0002
  6
CONTINUOUS
 62
       7
100
AcDbLine
 10
13.83191911
 20
-44.74835509
 30
0.0
 11
13.33191903
 21
-44.74835509
 31
0.0
  0
LINE
  5
F2
100
AcDbEntity
  8
LAYER0002
  6
CONTINUOUS
 62
       7
100
AcDbLine
 10
13.83191911
 20
-20.74835501
 30
0.0
 11
14.03191888
 21
-20.94835549
 31
0.0
  0
LINE
  5
F3
100
AcDbEntity
  8
LAYER0002
  6
CONTINUOUS
 62
       7
100
AcDbLine
 10
12.53191922
 20
-43.94835482
 30
0.0
 11
12.53191922
 21
-21.54835528
 31
0.0
  0
LINE
  5
F4
100
AcDbEntity
  8
LAYER0002
  6
CONTINUOUS
 62
       7
100
AcDbLine
 10
11.93191884
 20
-24.9483551
 30
0.0
 11
11.93191884
 21
-37.0483552
 31
0.0
  0
LINE
  5
F5
100
AcDbEntity
  8
LAYER0002
  6
CONTINUOUS
 62
       7
100
AcDbLine
 10
11.93191884
 20
-37.0483552
 30
0.0
 11
11.93191884
 21
-37.64122444
 31
0.0
  0
LINE
  5
F6
100
AcDbEntity
  8
LAYER0002
  6
CONTINUOUS
 62
       7
100
AcDbLine
 10
11.93191884
 20
-24.35548539
 30
0.0
 11
11.93191884
 21
-24.9483551
 31
0.0
  0
LINE
  5
F7
100
AcDbEntity
  8
LAYER0002
  6
CONTINUOUS
 62
       7
100
AcDbLine
 10
17.23191902
 20
-37.74835494
 30
0.0
 11
30.03191929
 21
-37.74835494
 31
0.0
  0
LINE
  5
F8
100
AcDbEntity
  8
LAYER0002
  6
CONTINUOUS
 62
       7
100
AcDbLine
 10
17.23191902
 20
-27.74835517
 30
0.0
 11
30.03191929
 21
-27.74835517
 31
0.0
  0
LINE
  5
F9
100
AcDbEntity
  8
LAYER0002
  6
CONTINUOUS
 62
       7
100
AcDbLine
 10
17.03191903
 20
-44.74835533
 30
0.0
 11
14.031919
 21
-44.72217399
 31
0.0
  0
LINE
  5
FA
100
AcDbEntity
  8
LAYER0002
  6
CONTINUOUS
 62
       7
100
AcDbLine
 10
14.031919
 20
-44.72217399
 30
0.0
 11
14.031919
 21
-20.77453612
 31
0.0
  0
LINE
  5
FB
100
AcDbEntity
  8
LAYER0002
  6
CONTINUOUS
 62
       7
100
AcDbLine
 10
17.03191903
 20
-26.748355
 30
0.0
 11
17.03191903
 21
-20.74835478
 31
0.0
  0
LINE
  5
FC
100
AcDbEntity
  8
LAYER0002
  6
CONTINUOUS
 62
       7
100
AcDbLine
 10
16.83191903
 20
-38.74835511
 30
0.0
 11
16.83191903
 21
-26.748355
 31
0.0
  0
LINE
  5
FD
100
AcDbEntity
  8
LAYER0002
  6
CONTINUOUS
 62
       7
100
AcDbLine
 10
17.03191903
 20
-44.74835533
 30
0.0
 11
17.03191903
 21
-38.74835511
 31
0.0
  0
LINE
  5
FE
100
AcDbEntity
  8
LAYER0002
  6
CONTINUOUS
 62
       7
100
AcDbLine
 10
16.83191903
 20
-26.748355
 30
0.0
 11
17.03191903
 21
-26.748355
 31
0.0
  0
LINE
  5
FF
100
AcDbEntity
  8
LAYER0002
  6
CONTINUOUS
 62
       7
100
AcDbLine
 10
14.031919
 20
-20.77453612
 30
0.0
 11
17.03191903
 21
-20.74835478
 31
0.0
  0
LINE
  5
100
100
AcDbEntity
  8
LAYER0002
  6
CONTINUOUS
 62
       7
100
AcDbLine
 10
17.23191902
 20
-37.74835494
 30
0.0
 11
17.23191902
 21
-27.74835517
 31
0.0
  0
LINE
  5
101
100
AcDbEntity
  8
LAYER0002
  6
CONTINUOUS
 62
       7
100
AcDbLine
 10
33.03191979
 20
-38.74835511
 30
0.0
 11
33.03191979
 21
-37.74835494
 31
0.0
  0
LINE
  5
102
100
AcDbEntity
  8
LAYER0002
  6
CONTINUOUS
 62
       7
100
AcDbLine
 10
33.03191979
 20
-27.74835517
 30
0.0
 11
33.03191979
 21
-26.748355
 31
0.0
  0
LINE
  5
103
100
AcDbEntity
  8
LAYER0002
  6
CONTINUOUS
 62
       7
100
AcDbLine
 10
16.83191903
 20
-38.74835511
 30
0.0
 11
33.03191979
 21
-38.74835511
 31
0.0
  0
LINE
  5
104
100
AcDbEntity
  8
LAYER0002
  6
CONTINUOUS
 62
       7
100
AcDbLine
 10
33.03191979
 20
-26.748355
 30
0.0
 11
17.03191903
 21
-26.748355
 31
0.0
  0
LINE
  5
105
100
AcDbEntity
  8
LAYER0002
  6
CONTINUOUS
 62
       7
100
AcDbLine
 10
30.03191929
 20
-37.74835494
 30
0.0
 11
33.03191979
 21
-37.74835494
 31
0.0
  0
LINE
  5
106
100
AcDbEntity
  8
LAYER0002
  6
CONTINUOUS
 62
       7
100
AcDbLine
 10
30.03191929
 20
-27.74835517
 30
0.0
 11
33.03191979
 21
-27.74835517
 31
0.0
  0
LINE
  5
107
100
AcDbEntity
  8
LAYER0002
  6
CONTINUOUS
 62
       7
100
AcDbLine
 10
52.03191944
 20
-21.74835505
 30
0.0
 11
52.03191944
 21
-43.74835505
 31
0.0
  0
LINE
  5
108
100
AcDbEntity
  8
LAYER0002
  6
CONTINUOUS
 62
       7
100
AcDbLine
 10
52.03191944
 20
-21.74835505
 30
0.0
 11
17.03191903
 21
-21.74835505
 31
0.0
  0
LINE
  5
109
100
AcDbEntity
  8
LAYER0002
  6
CONTINUOUS
 62
       7
100
AcDbLine
 10
52.03191944
 20
-43.74835505
 30
0.0
 11
17.03191903
 21
-43.74835505
 31
0.0
  0
ARC
  5
10A
100
AcDbEntity
  8
LAYER0002
  6
CONTINUOUS
 62
       7
100
AcDbCircle
 10
-80.77411832
 20
7.98583629
 30
0.0
 40
0.80000038
100
AcDbArc
 50
180.00000072
 51
270.00000931
  0
ARC
  5
10B
100
AcDbEntity
  8
LAYER0002
  6
CONTINUOUS
 62
       7
100
AcDbCircle
 10
-34.37411803
 20
7.98583657
 30
0.0
 40
0.80000009
100
AcDbArc
 50
269.99997064
 51
360.0
  0
ARC
  5
10C
100
AcDbEntity
  8
LAYER0002
  6
CONTINUOUS
 62
       7
100
AcDbCircle
 10
-35.64035884
 20
6.88583612
 30
0.0
 40
0.3
100
AcDbArc
 50
90.0
 51
120.63115371
  0
ARC
  5
10D
100
AcDbEntity
  8
LAYER0002
  6
CONTINUOUS
 62
       7
100
AcDbCircle
 10
-79.5078778
 20
6.88583629
 30
0.0
 40
0.3
100
AcDbArc
 50
59.36884629
 51
90.0
  0
ARC
  5
10E
100
AcDbEntity
  8
LAYER0002
  6
CONTINUOUS
 62
       7
100
AcDbCircle
 10
-37.83124912
 20
10.58583619
 30
0.0
 40
4.00000009
100
AcDbArc
 50
269.99999728
 51
300.63115374
  0
ARC
  5
10F
100
AcDbEntity
  8
LAYER0002
  6
CONTINUOUS
 62
       7
100
AcDbCircle
 10
-77.31698757
 20
10.58583629
 30
0.0
 40
4.0
100
AcDbArc
 50
239.36884629
 51
270.00000344
  0
ARC
  5
110
100
AcDbEntity
  8
LAYER0002
  6
CONTINUOUS
 62
       7
100
AcDbCircle
 10
-35.37411896
 20
46.3858363
 30
0.0
 40
0.29999984
100
AcDbArc
 50
359.99983384
 51
449.99993315
  0
ARC
  5
111
100
AcDbEntity
  8
LAYER0002
  6
CONTINUOUS
 62
       7
100
AcDbCircle
 10
-79.77411832
 20
46.38583629
 30
0.0
 40
0.30000049
100
AcDbArc
 50
89.99994461
 51
180.00016616
  0
ARC
  5
112
100
AcDbEntity
  8
LAYER0002
  6
CONTINUOUS
 62
       7
100
AcDbCircle
 10
-93.07411831
 20
24.68583629
 30
0.0
 40
12.99999969
100
AcDbArc
 50
323.13010141
 51
360.0
  0
ARC
  5
113
100
AcDbEntity
  8
LAYER0002
  6
CONTINUOUS
 62
       7
100
AcDbCircle
 10
-22.07411832
 20
24.68583629
 30
0.0
 40
13.0
100
AcDbArc
 50
180.0
 51
216.86989765
  0
ARC
  5
114
100
AcDbEntity
  8
LAYER0002
  6
CONTINUOUS
 62
       7
100
AcDbCircle
 10
63.1319194
 20
46.38583629
 30
0.0
 40
0.29999985
100
AcDbArc
 50
359.99983384
 51
450.0
  0
ARC
  5
115
100
AcDbEntity
  8
LAYER0002
  6
CONTINUOUS
 62
       7
100
AcDbCircle
 10
18.73192005
 20
46.38583629
 30
0.0
 40
0.29999985
100
AcDbArc
 50
90.0
 51
180.00016616
  0
ARC
  5
116
100
AcDbEntity
  8
LAYER0002
  6
CONTINUOUS
 62
       7
100
AcDbCircle
 10
-76.92411836
 20
-37.61651527
 30
0.0
 40
0.3
100
AcDbArc
 50
180.0
 51
270.0
  0
ARC
  5
117
100
AcDbEntity
  8
LAYER0002
  6
CONTINUOUS
 62
       7
100
AcDbCircle
 10
-38.22411866
 20
-25.21651492
 30
0.0
 40
0.2999997
100
AcDbArc
 50
359.99982334
 51
449.99993411
  0
ARC
  5
118
100
AcDbEntity
  8
LAYER0002
  6
CONTINUOUS
 62
       7
100
AcDbCircle
 10
-76.92411832
 20
-25.21651527
 30
0.0
 40
0.30000004
100
AcDbArc
 50
89.99997899
 51
180.00007257
  0
ARC
  5
119
100
AcDbEntity
  8
LAYER0002
  6
CONTINUOUS
 62
       7
100
AcDbCircle
 10
-38.22411878
 20
-37.61651546
 30
0.0
 40
0.29999981
100
AcDbArc
 50
270.00006112
 51
360.00003629
  0
ARC
  5
11A
100
AcDbEntity
  8
LAYER0002
  6
CONTINUOUS
 62
       7
100
AcDbCircle
 10
-35.57411832
 20
-23.11651499
 30
0.0
 40
2.0
100
AcDbArc
 50
359.99999069
 51
450.00000301
  0
ARC
  5
11B
100
AcDbEntity
  8
LAYER0002
  6
CONTINUOUS
 62
       7
100
AcDbCircle
 10
-79.57411842
 20
-23.11651527
 30
0.0
 40
2.00000028
100
AcDbArc
 50
90.00000143
 51
180.0
  0
ARC
  5
11C
100
AcDbEntity
  8
LAYER0002
  6
CONTINUOUS
 62
       7
100
AcDbCircle
 10
-79.57411832
 20
-43.11651527
 30
0.0
 40
2.00000038
100
AcDbArc
 50
179.99999857
 51
270.0
  0
ARC
  5
11D
100
AcDbEntity
  8
LAYER0002
  6
CONTINUOUS
 62
       7
100
AcDbCircle
 10
-35.57411827
 20
-43.11651532
 30
0.0
 40
2.00000033
100
AcDbArc
 50
270.0
 51
360.00000143
  0
ARC
  5
11E
100
AcDbEntity
  8
LAYER0002
  6
CONTINUOUS
 62
       7
100
AcDbCircle
 10
13.33191926
 20
-21.54835505
 30
0.0
 40
0.80000004
100
AcDbArc
 50
90.00001647
 51
180.00001647
  0
ARC
  5
11F
100
AcDbEntity
  8
LAYER0002
  6
CONTINUOUS
 62
       7
100
AcDbCircle
 10
13.33191926
 20
-43.94835505
 30
0.0
 40
0.80000004
100
AcDbArc
 50
179.99998353
 51
269.99998353
  0
ARC
  5
120
100
AcDbEntity
  8
LAYER0002
  6
CONTINUOUS
 62
       7
100
AcDbCircle
 10
12.23191888
 20
-39.83211462
 30
0.0
 40
0.3
100
AcDbArc
 50
0.00001665
 51
30.63115371
  0
ARC
  5
121
100
AcDbEntity
  8
LAYER0002
  6
CONTINUOUS
 62
       7
100
AcDbCircle
 10
12.23191888
 20
-22.16459549
 30
0.0
 40
0.3
100
AcDbArc
 50
329.36884629
 51
359.99998334
  0
ARC
  5
122
100
AcDbEntity
  8
LAYER0002
  6
CONTINUOUS
 62
       7
100
AcDbCircle
 10
15.93191893
 20
-37.6412243
 30
0.0
 40
4.00000009
100
AcDbArc
 50
180.00000201
 51
210.63115445
  0
ARC
  5
123
100
AcDbEntity
  8
LAYER0002
  6
CONTINUOUS
 62
       7
100
AcDbCircle
 10
15.93191893
 20
-24.3554858
 30
0.0
 40
4.00000009
100
AcDbArc
 50
149.36884567
 51
179.99999413
  0
LINE
  5
124
100
AcDbEntity
  8
0
  6
CONTINUOUS
 62
       7
100
AcDbLine
 10
16.03191934
 20
16.38583622
 30
0.0
 11
16.03191934
 21
15.88583614
 31
0.0
  0
LINE
  5
125
100
AcDbEntity
  8
0
  6
CONTINUOUS
 62
       7
100
AcDbLine
 10
15.83191968
 20
16.38583622
 30
0.0
 11
15.83191968
 21
16.8858363
 31
0.0
  0
LINE
  5
126
100
AcDbEntity
  8
0
  6
CONTINUOUS
 62
       7
100
AcDbLine
 10
18.43192085
 20
16.18583609
 30
0.0
 11
18.0429279
 21
17.48583621
 31
0.0
  0
LINE
  5
127
100
AcDbEntity
  8
0
  6
CONTINUOUS
 62
       7
100
AcDbLine
 10
66.03192042
 20
16.38583622
 30
0.0
 11
66.03192005
 21
16.88583629
 31
0.0
  0
LINE
  5
128
100
AcDbEntity
  8
0
  6
CONTINUOUS
 62
       7
100
AcDbLine
 10
65.83192076
 20
16.38583622
 30
0.0
 11
65.83192076
 21
15.88583614
 31
0.0
  0
LINE
  5
129
100
AcDbEntity
  8
0
  6
CONTINUOUS
 62
       7
100
AcDbLine
 10
65.63191924
 20
15.88583614
 30
0.0
 11
65.63191924
 21
15.38583629
 31
0.0
  0
LINE
  5
12A
100
AcDbEntity
  8
0
  6
CONTINUOUS
 62
       7
100
AcDbLine
 10
60.08192029
 20
6.5858361
 30
0.0
 11
60.67478906
 21
6.5858361
 31
0.0
  0
LINE
  5
12B
100
AcDbEntity
  8
0
  6
CONTINUOUS
 62
       7
100
AcDbLine
 10
64.93192043
 20
11.68583629
 30
0.0
 11
64.90573909
 21
8.68583626
 31
0.0
  0
LINE
  5
12C
100
AcDbEntity
  8
0
  6
CONTINUOUS
 62
       7
100
AcDbLine
 10
16.95810101
 20
8.68583626
 30
0.0
 11
16.93191967
 21
11.68583629
 31
0.0
  0
LINE
  5
12D
100
AcDbEntity
  8
0
  6
CONTINUOUS
 62
       7
100
AcDbLine
 10
17.83192001
 20
11.88583628
 30
0.0
 11
17.63192035
 21
11.88583628
 31
0.0
  0
LINE
  5
12E
100
AcDbEntity
  8
0
  6
CONTINUOUS
 62
       7
100
AcDbLine
 10
17.43192069
 20
12.38583626
 30
0.0
 11
17.63192035
 21
12.38583626
 31
0.0
  0
LINE
  5
12F
100
AcDbEntity
  8
0
  6
CONTINUOUS
 62
       7
100
AcDbLine
 10
17.23191916
 20
12.88583634
 30
0.0
 11
17.43192069
 21
12.88583634
 31
0.0
  0
LINE
  5
130
100
AcDbEntity
  8
0
  6
CONTINUOUS
 62
       7
100
AcDbLine
 10
64.0319201
 20
11.88583628
 30
0.0
 11
64.23191976
 21
11.88583628
 31
0.0
  0
LINE
  5
131
100
AcDbEntity
  8
0
  6
CONTINUOUS
 62
       7
100
AcDbLine
 10
63.43191925
 20
16.18583609
 30
0.0
 11
63.8209122
 21
17.48583621
 31
0.0
  0
LINE
  5
132
100
AcDbEntity
  8
0
  6
CONTINUOUS
 62
       7
100
AcDbLine
 10
65.43191958
 20
14.8858362
 30
0.0
 11
65.23191992
 21
14.8858362
 31
0.0
  0
LINE
  5
133
100
AcDbEntity
  8
0
  6
CONTINUOUS
 62
       7
100
AcDbLine
 10
65.23191992
 20
14.38583636
 30
0.0
 11
65.03192026
 21
14.38583636
 31
0.0
  0
LINE
  5
134
100
AcDbEntity
  8
0
  6
CONTINUOUS
 62
       7
100
AcDbLine
 10
65.03192026
 20
13.88583627
 30
0.0
 11
64.8319206
 21
13.88583627
 31
0.0
  0
LINE
  5
135
100
AcDbEntity
  8
0
  6
CONTINUOUS
 62
       7
100
AcDbLine
 10
64.8319206
 20
13.38583631
 30
0.0
 11
64.63192094
 21
13.38583631
 31
0.0
  0
LINE
  5
136
100
AcDbEntity
  8
0
  6
CONTINUOUS
 62
       7
100
AcDbLine
 10
64.63192094
 20
12.88583634
 30
0.0
 11
64.43191942
 21
12.88583634
 31
0.0
  0
LINE
  5
137
100
AcDbEntity
  8
0
  6
CONTINUOUS
 62
       7
100
AcDbLine
 10
64.43191942
 20
12.38583626
 30
0.0
 11
64.23191976
 21
12.38583626
 31
0.0
  0
LINE
  5
138
100
AcDbEntity
  8
0
  6
CONTINUOUS
 62
       7
100
AcDbLine
 10
64.93192043
 20
8.48583637
 30
0.0
 11
16.93191967
 21
8.48583637
 31
0.0
  0
LINE
  5
139
100
AcDbEntity
  8
0
  6
CONTINUOUS
 62
       7
100
AcDbLine
 10
16.93191967
 20
8.48583637
 30
0.0
 11
17.13191933
 21
8.68583626
 31
0.0
  0
LINE
  5
13A
100
AcDbEntity
  8
0
  6
CONTINUOUS
 62
       7
100
AcDbLine
 10
16.93191967
 20
7.98583628
 30
0.0
 11
16.93191967
 21
8.48583637
 31
0.0
  0
LINE
  5
13B
100
AcDbEntity
  8
0
  6
CONTINUOUS
 62
       7
100
AcDbLine
 10
17.23191916
 20
13.38583631
 30
0.0
 11
17.23191916
 21
12.88583634
 31
0.0
  0
LINE
  5
13C
100
AcDbEntity
  8
0
  6
CONTINUOUS
 62
       7
100
AcDbLine
 10
17.0319195
 20
13.88583627
 30
0.0
 11
17.0319195
 21
13.38583631
 31
0.0
  0
LINE
  5
13D
100
AcDbEntity
  8
0
  6
CONTINUOUS
 62
       7
100
AcDbLine
 10
16.83191984
 20
14.38583636
 30
0.0
 11
16.83191984
 21
13.88583627
 31
0.0
  0
LINE
  5
13E
100
AcDbEntity
  8
0
  6
CONTINUOUS
 62
       7
100
AcDbLine
 10
16.63192018
 20
14.8858362
 30
0.0
 11
16.63192018
 21
14.38583636
 31
0.0
  0
LINE
  5
13F
100
AcDbEntity
  8
0
  6
CONTINUOUS
 62
       7
100
AcDbLine
 10
16.43192052
 20
15.38583629
 30
0.0
 11
16.43192052
 21
14.8858362
 31
0.0
  0
LINE
  5
140
100
AcDbEntity
  8
0
  6
CONTINUOUS
 62
       7
100
AcDbLine
 10
16.23192086
 20
15.88583614
 30
0.0
 11
16.23192086
 21
15.38583629
 31
0.0
  0
LINE
  5
141
100
AcDbEntity
  8
0
  6
CONTINUOUS
 62
       7
100
AcDbLine
 10
15.83191968
 20
16.38583622
 30
0.0
 11
16.03191934
 21
16.38583622
 31
0.0
  0
LINE
  5
142
100
AcDbEntity
  8
0
  6
CONTINUOUS
 62
       7
100
AcDbLine
 10
18.0429279
 20
17.48583621
 30
0.0
 11
18.43192085
 21
18.21455049
 31
0.0
  0
LINE
  5
143
100
AcDbEntity
  8
0
  6
CONTINUOUS
 62
       7
100
AcDbLine
 10
18.43192085
 20
16.18583609
 30
0.0
 11
17.83192001
 21
11.88583628
 31
0.0
  0
LINE
  5
144
100
AcDbEntity
  8
0
  6
CONTINUOUS
 62
       7
100
AcDbLine
 10
66.03192042
 20
16.38583622
 30
0.0
 11
65.83192076
 21
16.38583622
 31
0.0
  0
LINE
  5
145
100
AcDbEntity
  8
0
  6
CONTINUOUS
 62
       7
100
AcDbLine
 10
65.83192076
 20
15.88583614
 30
0.0
 11
65.63191924
 21
15.88583614
 31
0.0
  0
LINE
  5
146
100
AcDbEntity
  8
0
  6
CONTINUOUS
 62
       7
100
AcDbLine
 10
65.63191924
 20
15.38583629
 30
0.0
 11
65.43191958
 21
15.38583629
 31
0.0
  0
LINE
  5
147
100
AcDbEntity
  8
0
  6
CONTINUOUS
 62
       7
100
AcDbLine
 10
64.23191976
 20
12.38583626
 30
0.0
 11
64.23191976
 21
11.88583628
 31
0.0
  0
LINE
  5
148
100
AcDbEntity
  8
0
  6
CONTINUOUS
 62
       7
100
AcDbLine
 10
63.43191925
 20
16.18583609
 30
0.0
 11
64.0319201
 21
11.88583628
 31
0.0
  0
LINE
  5
149
100
AcDbEntity
  8
0
  6
CONTINUOUS
 62
       7
100
AcDbLine
 10
63.8209122
 20
17.48583621
 30
0.0
 11
63.43191925
 21
18.21455049
 31
0.0
  0
LINE
  5
14A
100
AcDbEntity
  8
0
  6
CONTINUOUS
 62
       7
100
AcDbLine
 10
21.78191982
 20
6.5858361
 30
0.0
 11
60.08192029
 21
6.5858361
 31
0.0
  0
LINE
  5
14B
100
AcDbEntity
  8
0
  6
CONTINUOUS
 62
       7
100
AcDbLine
 10
21.18905104
 20
6.58583629
 30
0.0
 11
21.78191982
 21
6.5858361
 31
0.0
  0
LINE
  5
14C
100
AcDbEntity
  8
0
  6
CONTINUOUS
 62
       7
100
AcDbLine
 10
64.90573909
 20
8.68583626
 30
0.0
 11
16.95810101
 21
8.68583626
 31
0.0
  0
LINE
  5
14D
100
AcDbEntity
  8
0
  6
CONTINUOUS
 62
       7
100
AcDbLine
 10
64.93192043
 20
11.68583629
 30
0.0
 11
16.93191967
 21
11.68583629
 31
0.0
  0
LINE
  5
14E
100
AcDbEntity
  8
0
  6
CONTINUOUS
 62
       7
100
AcDbLine
 10
17.63192035
 20
12.38583626
 30
0.0
 11
17.63192035
 21
11.88583628
 31
0.0
  0
LINE
  5
14F
100
AcDbEntity
  8
0
  6
CONTINUOUS
 62
       7
100
AcDbLine
 10
17.43192069
 20
12.88583634
 30
0.0
 11
17.43192069
 21
12.38583626
 31
0.0
  0
LINE
  5
150
100
AcDbEntity
  8
0
  6
CONTINUOUS
 62
       7
100
AcDbLine
 10
65.43191958
 20
15.38583629
 30
0.0
 11
65.43191958
 21
14.8858362
 31
0.0
  0
LINE
  5
151
100
AcDbEntity
  8
0
  6
CONTINUOUS
 62
       7
100
AcDbLine
 10
65.23191992
 20
14.8858362
 30
0.0
 11
65.23191992
 21
14.38583636
 31
0.0
  0
LINE
  5
152
100
AcDbEntity
  8
0
  6
CONTINUOUS
 62
       7
100
AcDbLine
 10
65.03192026
 20
14.38583636
 30
0.0
 11
65.03192026
 21
13.88583627
 31
0.0
  0
LINE
  5
153
100
AcDbEntity
  8
0
  6
CONTINUOUS
 62
       7
100
AcDbLine
 10
64.8319206
 20
13.88583627
 30
0.0
 11
64.8319206
 21
13.38583631
 31
0.0
  0
LINE
  5
154
100
AcDbEntity
  8
0
  6
CONTINUOUS
 62
       7
100
AcDbLine
 10
64.63192094
 20
13.38583631
 30
0.0
 11
64.63192094
 21
12.88583634
 31
0.0
  0
LINE
  5
155
100
AcDbEntity
  8
0
  6
CONTINUOUS
 62
       7
100
AcDbLine
 10
64.43191942
 20
12.88583634
 30
0.0
 11
64.43191942
 21
12.38583626
 31
0.0
  0
LINE
  5
156
100
AcDbEntity
  8
0
  6
CONTINUOUS
 62
       7
100
AcDbLine
 10
64.93192043
 20
8.48583637
 30
0.0
 11
64.93192043
 21
7.98583657
 31
0.0
  0
LINE
  5
157
100
AcDbEntity
  8
0
  6
CONTINUOUS
 62
       7
100
AcDbLine
 10
64.13191993
 20
7.18583648
 30
0.0
 11
17.73192018
 21
7.18583591
 31
0.0
  0
LINE
  5
158
100
AcDbEntity
  8
0
  6
CONTINUOUS
 62
       7
100
AcDbLine
 10
64.73192077
 20
8.68583626
 30
0.0
 11
64.93192043
 21
8.48583637
 31
0.0
  0
LINE
  5
159
100
AcDbEntity
  8
0
  6
CONTINUOUS
 62
       7
100
AcDbLine
 10
17.0319195
 20
13.38583631
 30
0.0
 11
17.23191916
 21
13.38583631
 31
0.0
  0
LINE
  5
15A
100
AcDbEntity
  8
0
  6
CONTINUOUS
 62
       7
100
AcDbLine
 10
16.83191984
 20
13.88583627
 30
0.0
 11
17.0319195
 21
13.88583627
 31
0.0
  0
LINE
  5
15B
100
AcDbEntity
  8
0
  6
CONTINUOUS
 62
       7
100
AcDbLine
 10
16.63192018
 20
14.38583636
 30
0.0
 11
16.83191984
 21
14.38583636
 31
0.0
  0
LINE
  5
15C
100
AcDbEntity
  8
0
  6
CONTINUOUS
 62
       7
100
AcDbLine
 10
16.43192052
 20
14.8858362
 30
0.0
 11
16.63192018
 21
14.8858362
 31
0.0
  0
LINE
  5
15D
100
AcDbEntity
  8
0
  6
CONTINUOUS
 62
       7
100
AcDbLine
 10
16.23192086
 20
15.38583629
 30
0.0
 11
16.43192052
 21
15.38583629
 31
0.0
  0
LINE
  5
15E
100
AcDbEntity
  8
0
  6
CONTINUOUS
 62
       7
100
AcDbLine
 10
16.03191934
 20
15.88583614
 30
0.0
 11
16.23192086
 21
15.88583614
 31
0.0
  0
ARC
  5
15F
100
AcDbEntity
  8
0
  6
CONTINUOUS
 62
       7
100
AcDbCircle
 10
76.43192005
 20
24.68583629
 30
0.0
 40
13.0
100
AcDbArc
 50
180.0
 51
216.86989765
  0
ARC
  5
160
100
AcDbEntity
  8
0
  6
CONTINUOUS
 62
       7
100
AcDbCircle
 10
17.73192005
 20
7.98583629
 30
0.0
 40
0.80000038
100
AcDbArc
 50
180.00000072
 51
270.00000931
  0
ARC
  5
161
100
AcDbEntity
  8
0
  6
CONTINUOUS
 62
       7
100
AcDbCircle
 10
62.86567953
 20
6.88583611
 30
0.0
 40
0.3
100
AcDbArc
 50
90.0
 51
120.63115371
  0
ARC
  5
162
100
AcDbEntity
  8
0
  6
CONTINUOUS
 62
       7
100
AcDbCircle
 10
60.67478925
 20
10.58583619
 30
0.0
 40
4.00000009
100
AcDbArc
 50
269.99999728
 51
300.63115374
  0
ARC
  5
163
100
AcDbEntity
  8
0
  6
CONTINUOUS
 62
       7
100
AcDbCircle
 10
5.43192005
 20
24.68583628
 30
0.0
 40
12.99999969
100
AcDbArc
 50
323.13010141
 51
360.0
  0
ARC
  5
164
100
AcDbEntity
  8
0
  6
CONTINUOUS
 62
       7
100
AcDbCircle
 10
64.13192034
 20
7.98583657
 30
0.0
 40
0.80000009
100
AcDbArc
 50
269.99997064
 51
360.0
  0
ARC
  5
165
100
AcDbEntity
  8
0
  6
CONTINUOUS
 62
       7
100
AcDbCircle
 10
18.99816057
 20
6.88583629
 30
0.0
 40
0.3
100
AcDbArc
 50
59.36884629
 51
90.0
  0
ARC
  5
166
100
AcDbEntity
  8
0
  6
CONTINUOUS
 62
       7
100
AcDbCircle
 10
21.1890508
 20
10.58583629
 30
0.0
 40
4.0
100
AcDbArc
 50
239.36884629
 51
270.00000344
  0
TEXT
  5
167
100
AcDbEntity
  8
LAYER0002
 62
       7
100
AcDbText
 10
75.39807705
 20
-65.89625369
 30
0.0
 40
5.82083333
  1
000
 72
       5
 11
92.86057704
 21
-65.89625369
 31
0.0
100
AcDbText
  0
ENDSEC
  0
SECTION
  2
OBJECTS
  0
DICTIONARY
  5
19
100
AcDbDictionary
  3
ACAD_GROUP
350
1A
  3
ACAD_MLINESTYLE
350
1B
  0
DICTIONARY
  5
1A
102
{ACAD_REACTORS
330
19
102
}
100
AcDbDictionary
  0
DICTIONARY
  5
1B
102
{ACAD_REACTORS
330
19
102
}
100
AcDbDictionary
  3
STANDARD
350
1C
  0
MLINESTYLE
  5
1C
102
{ACAD_REACTORS
330
1B
102
}
100
AcDbMlineStyle
  2
STANDARD
 70
       0
  3

 62
       0
 51
90.0
 52
90.0
 71
       2
 49
0.5
 62
     256
  6
BYLAYER
 49
-0.5
 62
     256
  6
BYLAYER
  0
ENDSEC
  0
EOF
