  0
SECTION
  2
HEADER
  9
$ACADVER
  1
AC1009
  9
$DWGCODEPAGE
  3
ansi_932
  9
$INSBASE
 10
0.0
 20
0.0
 30
0.0
  9
$EXTMIN
 10
-347.87028041445
 20
-67.43760001065002
 30
0.0
  9
$EXTMAX
 10
347.87028041445
 20
67.43760001065002
 30
0.0
  9
$LIMMIN
 10
-148.5
 20
-105.0
  9
$LIMMAX
 10
148.5
 20
105.0
  9
$ORTHOMODE
 70
     0
  9
$REGENMODE
 70
     1
  9
$FILLMODE
 70
     1
  9
$QTEXTMODE
 70
     0
  9
$MIRRTEXT
 70
     1
  9
$DRAGMODE
 70
     2
  9
$LTSCALE
 40
0.25
  9
$OSMODE
 70
    37
  9
$ATTMODE
 70
     1
  9
$TEXTSIZE
 40
0.2
  9
$TRACEWID
 40
0.05
  9
$TEXTSTYLE
  7
STANDARD
  9
$CLAYER
  8
0
  9
$CELTYPE
  6
BYLAYER
  9
$CECOLOR
 62
   256
  9
$DIMSCALE
 40
1.0
  9
$DIMASZ
 40
3.000001907348633
  9
$DIMEXO
 40
1.0
  9
$DIMDLI
 40
10.0
  9
$DIMRND
 40
0.0
  9
$DIMDLE
 40
0.0
  9
$DIMEXE
 40
1.0
  9
$DIMTP
 40
0.0
  9
$DIMTM
 40
0.0
  9
$DIMTXT
 40
3.5
  9
$DIMCEN
 40
0.0
  9
$DIMTSZ
 40
0.0
  9
$DIMTOL
 70
     0
  9
$DIMLIM
 70
     0
  9
$DIMTIH
 70
     0
  9
$DIMTOH
 70
     0
  9
$DIMSE1
 70
     0
  9
$DIMSE2
 70
     0
  9
$DIMTAD
 70
     1
  9
$DIMZIN
 70
     8
  9
$DIMBLK
  1

  9
$DIMASO
 70
     1
  9
$DIMSHO
 70
     1
  9
$DIMPOST
  1

  9
$DIMAPOST
  1

  9
$DIMALT
 70
     0
  9
$DIMALTD
 70
     2
  9
$DIMALTF
 40
0.0393700787401575
  9
$DIMLFAC
 40
1.0
  9
$DIMTOFL
 70
     0
  9
$DIMTVP
 40
0.0
  9
$DIMTIX
 70
     0
  9
$DIMSOXD
 70
     0
  9
$DIMSAH
 70
     0
  9
$DIMBLK1
  1

  9
$DIMBLK2
  1

  9
$DIMSTYLE
  2
STANDARD
  9
$DIMCLRD
 70
     0
  9
$DIMCLRE
 70
     0
  9
$DIMCLRT
 70
     0
  9
$DIMTFAC
 40
0.65
  9
$DIMGAP
 40
0.09
  9
$LUNITS
 70
     2
  9
$LUPREC
 70
     4
  9
$SKETCHINC
 40
0.1
  9
$FILLETRAD
 40
0.5
  9
$AUNITS
 70
     0
  9
$AUPREC
 70
     0
  9
$MENU
  1
.
  9
$ELEVATION
 40
0.0
  9
$PELEVATION
 40
0.0
  9
$THICKNESS
 40
0.0
  9
$LIMCHECK
 70
     0
  9
$CHAMFERA
 40
0.0
  9
$CHAMFERB
 40
0.0
  9
$SKPOLY
 70
     0
  9
$TDCREATE
 40
2460125.462990486
  9
$TDUPDATE
 40
2460125.462990544
  9
$TDINDWG
 40
0.0000000116
  9
$TDUSRTIMER
 40
0.0000000116
  9
$USRTIMER
 70
     1
  9
$ANGBASE
 50
0.0
  9
$ANGDIR
 70
     0
  9
$PDMODE
 70
     0
  9
$PDSIZE
 40
1.0
  9
$PLINEWID
 40
0.0
  9
$COORDS
 70
     1
  9
$SPLFRAME
 70
     0
  9
$SPLINETYPE
 70
     6
  9
$SPLINESEGS
 70
     8
  9
$ATTDIA
 70
     0
  9
$ATTREQ
 70
     1
  9
$HANDLING
 70
     1
  9
$HANDSEED
  5
326
  9
$SURFTAB1
 70
     6
  9
$SURFTAB2
 70
     6
  9
$SURFTYPE
 70
     6
  9
$SURFU
 70
     6
  9
$SURFV
 70
     6
  9
$UCSNAME
  2

  9
$UCSORG
 10
0.0
 20
0.0
 30
0.0
  9
$UCSXDIR
 10
1.0
 20
0.0
 30
0.0
  9
$UCSYDIR
 10
0.0
 20
1.0
 30
0.0
  9
$PUCSNAME
  2

  9
$PUCSORG
 10
0.0
 20
0.0
 30
0.0
  9
$PUCSXDIR
 10
1.0
 20
0.0
 30
0.0
  9
$PUCSYDIR
 10
0.0
 20
1.0
 30
0.0
  9
$USERI1
 70
     0
  9
$USERI2
 70
     0
  9
$USERI3
 70
     0
  9
$USERI4
 70
     0
  9
$USERI5
 70
     0
  9
$USERR1
 40
0.0
  9
$USERR2
 40
0.0
  9
$USERR3
 40
0.0
  9
$USERR4
 40
0.0
  9
$USERR5
 40
0.0
  9
$WORLDVIEW
 70
     1
  9
$SHADEDGE
 70
     3
  9
$SHADEDIF
 70
    70
  9
$TILEMODE
 70
     1
  9
$MAXACTVP
 70
    64
  9
$PLIMCHECK
 70
     0
  9
$PEXTMIN
 10
1.000000000000000E+20
 20
1.000000000000000E+20
 30
1.000000000000000E+20
  9
$PEXTMAX
 10
-1.000000000000000E+20
 20
-1.000000000000000E+20
 30
-1.000000000000000E+20
  9
$PLIMMIN
 10
0.0
 20
0.0
  9
$PLIMMAX
 10
12.0
 20
9.0
  9
$UNITMODE
 70
     0
  9
$VISRETAIN
 70
     0
  9
$PLINEGEN
 70
     1
  9
$PSLTSCALE
 70
     0
  0
ENDSEC
  0
SECTION
  2
TABLES
  0
TABLE
  2
VPORT
 70
     1
  0
VPORT
  2
*ACTIVE
 70
     0
 10
0.0
 20
0.0
 11
1.0
 21
1.0
 12
0.0
 22
0.0
 13
0.0
 23
0.0
 14
0.5
 24
0.5
 15
0.5
 25
0.5
 16
0.0
 26
0.0
 36
1.0
 17
-0.0000000000000036
 27
0.0
 37
0.0
 40
45.85756800724201
 41
5.158402439581375
 42
50.0
 43
0.0
 44
0.0
 50
0.0
 51
0.0
 71
     0
 72
  1000
 73
     1
 74
     1
 75
     0
 76
     0
 77
     0
 78
     0
  0
ENDTAB
  0
TABLE
  2
LTYPE
 70
    67
  0
LTYPE
  2
CONTINUOUS
 70
     0
  3
Solid line
 72
    65
 73
     0
 40
0.0
  0
LTYPE
  2
HIDDENX2
 70
     0
  3
Hidden (2x) ____ ____ ____ ____ ____ ____ ____ 
 72
    65
 73
     2
 40
19.05
 49
12.7
 49
-6.35
  0
LTYPE
  2
HIDDEN
 70
     0
  3
Hidden __ __ __ __ __ __ __ __ __ __ __ __ __ __
 72
    65
 73
     2
 40
9.524999999999999
 49
6.35
 49
-3.175
  0
LTYPE
  2
HIDDEN2
 70
     0
  3
Hidden (.5x) _ _ _ _ _ _ _ _ _ _ _ _ _ _ _ _ _ 
 72
    65
 73
     2
 40
4.762499999999999
 49
3.175
 49
-1.5875
  0
LTYPE
  2
DASHED
 70
     0
  3
Dashed __ __ __ __ __ __ __ __ __ __ __ __ __ _
 72
    65
 73
     2
 40
19.05
 49
12.7
 49
-6.35
  0
LTYPE
  2
DASHED2
 70
     0
  3
Dashed (.5x) _ _ _ _ _ _ _ _ _ _ _ _ _ _ _ _ _ 
 72
    65
 73
     2
 40
9.524999999999999
 49
6.35
 49
-3.175
  0
LTYPE
  2
DASHEDX2
 70
     0
  3
Dashed (2x) ____  ____  ____  ____  ____  ___
 72
    65
 73
     2
 40
38.09999999999999
 49
25.4
 49
-12.7
  0
LTYPE
  2
DOTX2
 70
     0
  3
Dot (2x) .  .  .  .  .  .  .  .  .  .  .  .  .  .
 72
    65
 73
     2
 40
12.7
 49
0.0
 49
-12.7
  0
LTYPE
  2
DOT
 70
     0
  3
Dot . . . . . . . . . . . . . . . . . . . . . . . .
 72
    65
 73
     2
 40
6.35
 49
0.0
 49
-6.35
  0
LTYPE
  2
DOT2
 70
     0
  3
Dot (.5x) ........................................
 72
    65
 73
     2
 40
3.175
 49
0.0
 49
-3.175
  0
LTYPE
  2
CENTERX2
 70
     0
  3
Center (2x) ________  __  ________  __  _____
 72
    65
 73
     4
 40
101.6
 49
63.5
 49
-12.7
 49
12.7
 49
-12.7
  0
LTYPE
  2
CENTER
 70
     0
  3
Center ____ _ ____ _ ____ _ ____ _ ____ _ ____
 72
    65
 73
     4
 40
50.8
 49
31.75
 49
-6.35
 49
6.35
 49
-6.35
  0
LTYPE
  2
CENTER2
 70
     0
  3
Center (.5x) ___ _ ___ _ ___ _ ___ _ ___ _ ___
 72
    65
 73
     4
 40
28.575
 49
19.05
 49
-3.175
 49
3.175
 49
-3.175
  0
LTYPE
  2
DASHDOTX2
 70
     0
  3
Dash dot (2x) ____  .  ____  .  ____  .  ___
 72
    65
 73
     4
 40
50.8
 49
25.4
 49
-12.7
 49
0.0
 49
-12.7
  0
LTYPE
  2
DASHDOT
 70
     0
  3
Dash dot __ . __ . __ . __ . __ . __ . __ . __
 72
    65
 73
     4
 40
25.4
 49
12.7
 49
-6.35
 49
0.0
 49
-6.35
  0
LTYPE
  2
DASHDOT2
 70
     0
  3
Dash dot (.5x) _._._._._._._._._._._._._._._.
 72
    65
 73
     4
 40
12.7
 49
6.35
 49
-3.175
 49
0.0
 49
-3.175
  0
LTYPE
  2
DIVIDEX2
 70
     0
  3
Divide (2x) ________  .  .  ________  .  .  _
 72
    65
 73
     6
 40
63.5
 49
25.4
 49
-12.7
 49
0.0
 49
-12.7
 49
0.0
 49
-12.7
  0
LTYPE
  2
DIVIDE
 70
     0
  3
Divide ____ . . ____ . . ____ . . ____ . . ____
 72
    65
 73
     6
 40
31.75
 49
12.7
 49
-6.35
 49
0.0
 49
-6.35
 49
0.0
 49
-6.35
  0
LTYPE
  2
DIVIDE2
 70
     0
  3
Divide (.5x) __..__..__..__..__..__..__..__.._
 72
    65
 73
     6
 40
15.875
 49
6.35
 49
-3.175
 49
0.0
 49
-3.175
 49
0.0
 49
-3.175
  0
LTYPE
  2
BORDERX2
 70
     0
  3
Border (2x) ____  ____  .  ____  ____  .  ___
 72
    65
 73
     6
 40
88.89999999999999
 49
25.4
 49
-12.7
 49
25.4
 49
-12.7
 49
0.0
 49
-12.7
  0
LTYPE
  2
BORDER
 70
     0
  3
Border __ __ . __ __ . __ __ . __ __ . __ __ .
 72
    65
 73
     6
 40
44.45
 49
12.7
 49
-6.35
 49
12.7
 49
-6.35
 49
0.0
 49
-6.35
  0
LTYPE
  2
BORDER2
 70
     0
  3
Border (.5x) __.__.__.__.__.__.__.__.__.__.__.
 72
    65
 73
     6
 40
22.225
 49
6.35
 49
-3.175
 49
6.35
 49
-3.175
 49
0.0
 49
-3.175
  0
LTYPE
  2
PHANTOMX2
 70
     0
  3
Phantom (2x) ____________    ____    ____   _
 72
    65
 73
     6
 40
127.0
 49
63.5
 49
-12.7
 49
12.7
 49
-12.7
 49
12.7
 49
-12.7
  0
LTYPE
  2
PHANTOM
 70
     0
  3
Phantom ______  __  __  ______  __  __  ______ 
 72
    65
 73
     6
 40
63.5
 49
31.75
 49
-6.35
 49
6.35
 49
-6.35
 49
6.35
 49
-6.35
  0
LTYPE
  2
PHANTOM2
 70
     0
  3
Phantom (.5x) ___ _ _ ___ _ _ ___ _ _ ___ _ _
 72
    65
 73
     6
 40
31.75
 49
15.875
 49
-3.175
 49
3.175
 49
-3.175
 49
3.175
 49
-3.175
  0
LTYPE
  2
ACAD_ISO06W100
 70
     0
  3
ISO long-dash triple-dot ____ ... ____ ... ____
 72
    65
 73
     8
 40
36.0
 49
24.0
 49
-3.0
 49
0.0
 49
-3.0
 49
0.0
 49
-3.0
 49
0.0
 49
-3.0
  0
LTYPE
  2
ACAD_ISO13W100
 70
     0
  3
ISO double-dash double-dot __ __ . . __ __ . . _
 72
    65
 73
     8
 40
36.0
 49
12.0
 49
-3.0
 49
12.0
 49
-3.0
 49
0.0
 49
-3.0
 49
0.0
 49
-3.0
  0
LTYPE
  2
ACAD_ISO14W100
 70
     0
  3
ISO dash triple-dot __ . . . __ . . . __ . . . _
 72
    65
 73
     8
 40
24.0
 49
12.0
 49
-3.0
 49
0.0
 49
-3.0
 49
0.0
 49
-3.0
 49
0.0
 49
-3.0
  0
LTYPE
  2
ACAD_ISO02W100
 70
     0
  3
ISO dash __ __ __ __ __ __ __ __ __ __ __ __ __
 72
    65
 73
     2
 40
15.0
 49
12.0
 49
-3.0
  0
LTYPE
  2
ACAD_ISO03W100
 70
     0
  3
ISO dash space __    __    __    __    __    __
 72
    65
 73
     2
 40
30.0
 49
12.0
 49
-18.0
  0
LTYPE
  2
ACAD_ISO04W100
 70
     0
  3
ISO long-dash dot ____ . ____ . ____ . ____ . _
 72
    65
 73
     4
 40
30.0
 49
24.0
 49
-3.0
 49
0.0
 49
-3.0
  0
LTYPE
  2
ACAD_ISO05W100
 70
     0
  3
ISO long-dash double-dot ____ .. ____ .. ____ . 
 72
    65
 73
     6
 40
33.0
 49
24.0
 49
-3.0
 49
0.0
 49
-3.0
 49
0.0
 49
-3.0
  0
LTYPE
  2
ACAD_ISO07W100
 70
     0
  3
ISO dot . . . . . . . . . . . . . . . . . . . . 
 72
    65
 73
     2
 40
3.0
 49
0.0
 49
-3.0
  0
LTYPE
  2
ACAD_ISO08W100
 70
     0
  3
ISO long-dash short-dash ____ __ ____ __ ____ _
 72
    65
 73
     4
 40
36.0
 49
24.0
 49
-3.0
 49
6.0
 49
-3.0
  0
LTYPE
  2
ACAD_ISO09W100
 70
     0
  3
ISO long-dash double-short-dash ____ __ __ ____
 72
    65
 73
     6
 40
45.0
 49
24.0
 49
-3.0
 49
6.0
 49
-3.0
 49
6.0
 49
-3.0
  0
LTYPE
  2
ACAD_ISO10W100
 70
     0
  3
ISO dash dot __ . __ . __ . __ . __ . __ . __ . 
 72
    65
 73
     4
 40
18.0
 49
12.0
 49
-3.0
 49
0.0
 49
-3.0
  0
LTYPE
  2
ACAD_ISO11W100
 70
     0
  3
ISO double-dash dot __ __ . __ __ . __ __ . __ _
 72
    65
 73
     6
 40
33.0
 49
12.0
 49
-3.0
 49
12.0
 49
-3.0
 49
0.0
 49
-3.0
  0
LTYPE
  2
ACAD_ISO12W100
 70
     0
  3
ISO dash double-dot __ . . __ . . __ . . __ . . 
 72
    65
 73
     6
 40
21.0
 49
12.0
 49
-3.0
 49
0.0
 49
-3.0
 49
0.0
 49
-3.0
  0
LTYPE
  2
ACAD_ISO15W100
 70
     0
  3
ISO double-dash triple-dot __ __ . . . __ __ . .
 72
    65
 73
    10
 40
39.0
 49
12.0
 49
-3.0
 49
12.0
 49
-3.0
 49
0.0
 49
-3.0
 49
0.0
 49
-3.0
 49
0.0
 49
-3.0
  0
LTYPE
  2
JIS_02_0_7
 70
     0
  3
HIDDEN0.75 _ _ _ _ _ _ _ _ _ _ _ _ _ _ _ _ _ 
 72
    65
 73
     2
 40
1.35
 49
0.75
 49
-0.6
  0
LTYPE
  2
JIS_02_1_0
 70
     0
  3
HIDDEN01 _ _ _ _ _ _ _ _ _ _ _ _ _ _ _ _ _ 
 72
    65
 73
     2
 40
2.0
 49
1.0
 49
-1.0
  0
LTYPE
  2
JIS_02_1_2
 70
     0
  3
HIDDEN01.25  _ _ _ _ _ _ _ _ _ _ _ _ _ _ _ _ _ 
 72
    65
 73
     2
 40
2.5
 49
1.25
 49
-1.25
  0
LTYPE
  2
JIS_02_2_0
 70
     0
  3
HIDDEN02 __ __ __ __ __ __ __ __ __ __ __ 
 72
    65
 73
     2
 40
3.0
 49
2.0
 49
-1.0
  0
LTYPE
  2
JIS_02_4_0
 70
     0
  3
HIDDEN04 ____ ____ ____ ____ ____ ____ ____ 
 72
    65
 73
     2
 40
5.5
 49
4.0
 49
-1.5
  0
LTYPE
  2
JIS_08_11
 70
     0
  3
1SASEN11 ___ _ ___ _ ___ _ ___ _ ___ _ ___
 72
    65
 73
     4
 40
12.8
 49
11.0
 49
-0.6
 49
0.6
 49
-0.6
  0
LTYPE
  2
JIS_08_15
 70
     0
  3
1SASEN15 ____ _ ____ _ ____ _ ____ _ ____ 
 72
    65
 73
     4
 40
17.25
 49
15.0
 49
-0.75
 49
0.75
 49
-0.75
  0
LTYPE
  2
JIS_08_25
 70
     0
  3
1SASEN25 ________  __  ________  __  _____
 72
    65
 73
     4
 40
28.0
 49
25.0
 49
-1.125
 49
0.75
 49
-1.125
  0
LTYPE
  2
JIS_08_37
 70
     0
  3
1SASEN37 ________  __  ________  __  _____
 72
    65
 73
     4
 40
40.5
 49
37.5
 49
-1.125
 49
0.75
 49
-1.125
  0
LTYPE
  2
JIS_08_50
 70
     0
  3
1SASEN50 _______________  __  ____________
 72
    65
 73
     4
 40
53.0
 49
50.0
 49
-1.125
 49
0.75
 49
-1.125
  0
LTYPE
  2
JIS_09_08
 70
     0
  3
2SASEN8 __ _ _ __ _ _ __ _ _ __ _ _ __ _ _ 
 72
    65
 73
     6
 40
10.75
 49
8.0
 49
-0.55
 49
0.55
 49
-0.55
 49
0.55
 49
-0.55
  0
LTYPE
  2
JIS_09_15
 70
     0
  3
2SASEN15 ___ _ _ ___ _ _ ___ _ _ ___ _ _ ___ 
 72
    65
 73
     6
 40
18.9
 49
15.0
 49
-0.9
 49
0.6
 49
-0.9
 49
0.6
 49
-0.9
  0
LTYPE
  2
JIS_09_29
 70
     0
  3
2SASEN29 ______　__  __  ______　__  __  ___
 72
    65
 73
     6
 40
34.0
 49
29.0
 49
-1.2
 49
0.7
 49
-1.2
 49
0.7
 49
-1.2
  0
LTYPE
  2
JIS_09_50
 70
     0
  3
2SASEN50 ____________　__  __  _____________
 72
    65
 73
     6
 40
55.0
 49
50.0
 49
-1.2
 49
0.7
 49
-1.2
 49
0.7
 49
-1.2
  0
LTYPE
  2
SXF_破線
 70
     0
  3
02 dashed -- -- -- -- -- --
 72
    65
 73
     2
 40
7.5
 49
6.0
 49
-1.5
  0
LTYPE
  2
SXF_跳び破線
 70
     0
  3
03 dashed_spaced --  --  --  --
 72
    65
 73
     2
 40
12.0
 49
6.0
 49
-6.0
  0
LTYPE
  2
SXF_一点長鎖線
 70
     0
  3
04 long_dashed_dotted ---- . ---- . ----
 72
    65
 73
     4
 40
15.25
 49
12.0
 49
-1.5
 49
0.25
 49
-1.5
  0
LTYPE
  2
SXF_二点長鎖線
 70
     0
  3
05 long_dashed_double-dotted ---- . . ---- 
 72
    65
 73
     6
 40
17.0
 49
12.0
 49
-1.5
 49
0.25
 49
-1.5
 49
0.25
 49
-1.5
  0
LTYPE
  2
SXF_三点長鎖線
 70
     0
  3
06 long_dashed_triplicate-dotted ---- ... ---- 
 72
    65
 73
     8
 40
18.75
 49
12.0
 49
-1.5
 49
0.25
 49
-1.5
 49
0.25
 49
-1.5
 49
0.25
 49
-1.5
  0
LTYPE
  2
SXF_点線
 70
     0
  3
07 dotted . . . . . . . . . . . . 
 72
    65
 73
     2
 40
1.75
 49
0.25
 49
-1.5
  0
LTYPE
  2
SXF_一点鎖線
 70
     0
  3
08 chain ---- - --- - --- - ---
 72
    65
 73
     4
 40
18.5
 49
12.0
 49
-1.5
 49
3.5
 49
-1.5
  0
LTYPE
  2
SXF_二点鎖線
 70
     0
  3
09 chain_double_dash ---- - - ---- - - ----
 72
    65
 73
     6
 40
23.5
 49
12.0
 49
-1.5
 49
3.5
 49
-1.5
 49
3.5
 49
-1.5
  0
LTYPE
  2
SXF_一点短鎖線
 70
     0
  3
10 dashed_dotted -- . -- . -- . --
 72
    65
 73
     4
 40
9.25
 49
6.0
 49
-1.5
 49
0.25
 49
-1.5
  0
LTYPE
  2
SXF_一点二短鎖線
 70
     0
  3
11 double-dashed_dotted -- -- . -- --
 72
    65
 73
     6
 40
16.75
 49
6.0
 49
-1.5
 49
6.0
 49
-1.5
 49
0.25
 49
-1.5
  0
LTYPE
  2
SXF_二点短鎖線
 70
     0
  3
12 dashed_double_dotted -- . . -- . . --
 72
    65
 73
     6
 40
11.0
 49
6.0
 49
-1.5
 49
0.25
 49
-1.5
 49
0.25
 49
-1.5
  0
LTYPE
  2
SXF_二点二短鎖線
 70
     0
  3
13 double-dashed_double-dotted -- -- . . -- --
 72
    65
 73
     8
 40
18.5
 49
6.0
 49
-1.5
 49
6.0
 49
-1.5
 49
0.25
 49
-1.5
 49
0.25
 49
-1.5
  0
LTYPE
  2
SXF_三点短鎖線
 70
     0
  3
14 dashed triplicate-dotted -- . . . -- . . . --
 72
    65
 73
     8
 40
12.75
 49
6.0
 49
-1.5
 49
0.25
 49
-1.5
 49
0.25
 49
-1.5
 49
0.25
 49
-1.5
  0
LTYPE
  2
SXF_三点二短鎖線
 70
     0
  3
15 double-dashed triplicate-dotted -- -- . . . -- -- 
 72
    65
 73
    10
 40
20.25
 49
6.0
 49
-1.5
 49
6.0
 49
-1.5
 49
0.25
 49
-1.5
 49
0.25
 49
-1.5
 49
0.25
 49
-1.5
  0
ENDTAB
  0
TABLE
  2
LAYER
 70
     1
  0
LAYER
  2
0
 70
     0
 62
     7
  6
CONTINUOUS
  0
ENDTAB
  0
TABLE
  2
STYLE
 70
     2
  0
STYLE
  2
STANDARD
 70
     0
 40
0.0
 41
1.0
 50
0.0
 71
     0
 42
0.2
  3
txt.shx
  4
bigfont.shx
  0
STYLE
  2
DCSTYLE0
 70
     0
 40
0.0
 41
0.86
 50
0.0
 71
     0
 42
0.2
  3
txt.shx
  4
bigfont
  0
ENDTAB
  0
TABLE
  2
VIEW
 70
     0
  0
ENDTAB
  0
TABLE
  2
UCS
 70
     0
  0
ENDTAB
  0
TABLE
  2
APPID
 70
     2
  0
APPID
  2
ACAD
 70
     0
  0
APPID
  2
DAFUSIONOUT
 70
     0
  0
ENDTAB
  0
TABLE
  2
DIMSTYLE
 70
     1
  0
DIMSTYLE
  2
STANDARD
 70
     0
  3

  4

  5

  6

  7

 40
1.0
 41
0.18
 42
0.0625
 43
0.38
 44
0.18
 45
0.0
 46
0.0
 47
0.0
 48
0.0
140
0.18
141
0.09
142
0.0
143
25.4
144
1.0
145
0.0
146
1.0
147
0.09
 71
     0
 72
     0
 73
     1
 74
     1
 75
     0
 76
     0
 77
     0
 78
     0
170
     0
171
     2
172
     0
173
     0
174
     0
175
     0
176
     0
177
     0
178
     0
  0
ENDTAB
  0
ENDSEC
  0
SECTION
  2
BLOCKS
  0
BLOCK
  8
0
  2
$MODEL_SPACE
 70
     0
 10
0.0
 20
0.0
 30
0.0
  3
$MODEL_SPACE
  1

  0
ENDBLK
  5
21
  8
0
  0
BLOCK
 67
     1
  8
0
  2
$PAPER_SPACE
 70
     0
 10
0.0
 20
0.0
 30
0.0
  3
$PAPER_SPACE
  1

  0
ENDBLK
  5
1D
 67
     1
  8
0
  0
ENDSEC
  0
SECTION
  2
ENTITIES
  0
LINE
  5
B2
  8
0
  6
CONTINUOUS
 62
     7
 10
-71.15676013825001
 20
5.979200003449989
 30
0.0
 11
-71.15676013825001
 21
18.37920000354998
 31
0.0
  0
LINE
  5
B3
  8
0
  6
CONTINUOUS
 62
     7
 10
-71.45676013825
 20
18.67920000354999
 30
0.0
 11
-109.95676013815
 21
18.67920000354999
 31
0.0
  0
LINE
  5
B4
  8
0
  6
CONTINUOUS
 62
     7
 10
-110.25676013815
 20
18.37920000354998
 30
0.0
 11
-110.25676013815
 21
5.979200003449989
 31
0.0
  0
LINE
  5
B5
  8
0
  6
CONTINUOUS
 62
     7
 10
-109.95676013815
 20
5.679200003549994
 30
0.0
 11
-71.45676013825
 21
5.679200003549994
 31
0.0
  0
LINE
  5
B6
  8
0
  6
CONTINUOUS
 62
     7
 10
-114.70676013815
 20
0.4792000034499893
 30
0.0
 11
-114.70676013815
 21
20.47920000354999
 31
0.0
  0
LINE
  5
B7
  8
0
  6
CONTINUOUS
 62
     7
 10
-112.70676013815
 20
22.47920000354999
 30
0.0
 11
-68.70676013825
 21
22.47920000354999
 31
0.0
  0
LINE
  5
B8
  8
0
  6
CONTINUOUS
 62
     7
 10
-66.70676013825
 20
20.47920000354999
 30
0.0
 11
-66.70676013825
 21
0.4792000034499893
 31
0.0
  0
LINE
  5
B9
  8
0
  6
CONTINUOUS
 62
     7
 10
-68.70676013825
 20
-1.520799996450009
 30
0.0
 11
-112.70676013815
 21
-1.520799996450009
 31
0.0
  0
LINE
  5
BA
  8
0
  6
CONTINUOUS
 62
     7
 10
-65.45676013815
 20
5.479200003449989
 30
0.0
 11
-65.45676013815
 21
15.47920000354999
 31
0.0
  0
LINE
  5
BB
  8
0
  6
CONTINUOUS
 62
     7
 10
-66.70676013825
 20
5.479200003449989
 30
0.0
 11
-65.45676013815
 21
5.479200003449989
 31
0.0
  0
LINE
  5
BC
  8
0
  6
CONTINUOUS
 62
     7
 10
-65.45676013815
 20
15.47920000354999
 30
0.0
 11
-66.70676013825
 21
15.47920000354999
 31
0.0
  0
LINE
  5
BD
  8
0
  6
CONTINUOUS
 62
     7
 10
-115.95676013815
 20
5.479200003449989
 30
0.0
 11
-115.95676013815
 21
15.47920000354999
 31
0.0
  0
LINE
  5
BE
  8
0
  6
CONTINUOUS
 62
     7
 10
-115.95676013815
 20
15.47920000354999
 30
0.0
 11
-114.70676013815
 21
15.47920000354999
 31
0.0
  0
LINE
  5
BF
  8
0
  6
CONTINUOUS
 62
     7
 10
-114.70676013815
 20
5.479200003449989
 30
0.0
 11
-115.95676013815
 21
5.479200003449989
 31
0.0
  0
LINE
  5
C0
  8
0
  6
CONTINUOUS
 62
     7
 10
-41.11559794515
 20
20.37920000354998
 30
0.0
 11
-41.11559794515
 21
21.67920000354999
 31
0.0
  0
LINE
  5
C1
  8
0
  6
CONTINUOUS
 62
     7
 10
-41.11559794515
 20
-0.7207999964500118
 30
0.0
 11
-41.11559794515
 21
0.5792000035499854
 31
0.0
  0
LINE
  5
C2
  8
0
  6
CONTINUOUS
 62
     7
 10
-41.11559794515
 20
0.5792000035499854
 30
0.0
 11
-41.11559794515
 21
20.37920000354998
 31
0.0
  0
LINE
  5
C3
  8
0
  6
CONTINUOUS
 62
     7
 10
-41.71559794505001
 20
6.179200003549994
 30
0.0
 11
-41.71559794505001
 21
5.586330754149984
 31
0.0
  0
LINE
  5
C4
  8
0
  6
CONTINUOUS
 62
     7
 10
-41.71559794505001
 20
18.17920000354999
 30
0.0
 11
-41.71559794505001
 21
6.179200003549994
 31
0.0
  0
LINE
  5
C5
  8
0
  6
CONTINUOUS
 62
     7
 10
-41.71559794505001
 20
18.77206925304999
 30
0.0
 11
-41.71559794505001
 21
18.17920000354999
 31
0.0
  0
LINE
  5
C6
  8
0
  6
CONTINUOUS
 62
     7
 10
40.18440205495
 20
8.479200003549991
 30
0.0
 11
38.78440205494999
 21
8.479200003549991
 31
0.0
  0
LINE
  5
C7
  8
0
  6
CONTINUOUS
 62
     7
 10
40.18440205495
 20
11.47920000354999
 30
0.0
 11
40.18440205495
 21
8.479200003549991
 31
0.0
  0
LINE
  5
C8
  8
0
  6
CONTINUOUS
 62
     7
 10
40.18440205495
 20
11.47920000354999
 30
0.0
 11
38.78440205494999
 21
11.47920000354999
 31
0.0
  0
LINE
  5
C9
  8
0
  6
CONTINUOUS
 62
     7
 10
-31.31559794505
 20
15.47920000354999
 30
0.0
 11
-31.31559794505
 21
5.479200003449989
 31
0.0
  0
LINE
  5
CA
  8
0
  6
CONTINUOUS
 62
     7
 10
-35.41559794505
 20
5.479200003449989
 30
0.0
 11
-21.01559794505
 21
5.479200003449989
 31
0.0
  0
LINE
  5
CB
  8
0
  6
CONTINUOUS
 62
     7
 10
-35.41559794505
 20
15.47920000354999
 30
0.0
 11
-21.01559794505
 21
15.47920000354999
 31
0.0
  0
LINE
  5
CC
  8
0
  6
CONTINUOUS
 62
     7
 10
-39.61559794515
 20
-1.520799996450009
 30
0.0
 11
-39.61559794515
 21
22.47920000354999
 31
0.0
  0
LINE
  5
CD
  8
0
  6
CONTINUOUS
 62
     7
 10
-40.31559794505
 20
22.47920000354999
 30
0.0
 11
-36.21559794505001
 21
22.47920000354999
 31
0.0
  0
LINE
  5
CE
  8
0
  6
CONTINUOUS
 62
     7
 10
-36.21559794505001
 20
22.47920000354999
 30
0.0
 11
-36.21559794505001
 21
-1.520799996450009
 31
0.0
  0
LINE
  5
CF
  8
0
  6
CONTINUOUS
 62
     7
 10
-36.21559794505001
 20
-1.520799996450009
 30
0.0
 11
-40.31559794505
 21
-1.520799996450009
 31
0.0
  0
LINE
  5
D0
  8
0
  6
CONTINUOUS
 62
     7
 10
-35.71559794505001
 20
5.779200003549988
 30
0.0
 11
-35.71559794505001
 21
15.17920000354999
 31
0.0
  0
LINE
  5
D1
  8
0
  6
CONTINUOUS
 62
     7
 10
-20.71559794505001
 20
4.779200003549988
 30
0.0
 11
-20.71559794505001
 21
5.179200003549994
 31
0.0
  0
LINE
  5
D2
  8
0
  6
CONTINUOUS
 62
     7
 10
-20.71559794505001
 20
15.77920000354999
 30
0.0
 11
-20.71559794505001
 21
16.17920000354999
 31
0.0
  0
LINE
  5
D3
  8
0
  6
CONTINUOUS
 62
     7
 10
-36.21559794505001
 20
4.479200003449989
 30
0.0
 11
-21.01559794505
 21
4.479200003449989
 31
0.0
  0
LINE
  5
D4
  8
0
  6
CONTINUOUS
 62
     7
 10
-21.01559794505
 20
16.47920000354999
 30
0.0
 11
-36.21559794505001
 21
16.47920000354999
 31
0.0
  0
LINE
  5
D5
  8
0
  6
CONTINUOUS
 62
     7
 10
38.78440205494999
 20
21.57920000354999
 30
0.0
 11
38.78440205494999
 21
-0.6207999964500175
 31
0.0
  0
LINE
  5
D6
  8
0
  6
CONTINUOUS
 62
     7
 10
-36.21559794505001
 20
21.57920000354999
 30
0.0
 11
38.78440205494999
 21
21.57920000354999
 31
0.0
  0
LINE
  5
D7
  8
0
  6
CONTINUOUS
 62
     7
 10
38.78440205494999
 20
-0.6207999964500175
 30
0.0
 11
-36.21559794505001
 21
-0.6207999964500175
 31
0.0
  0
LINE
  5
D8
  8
0
  6
CONTINUOUS
 62
     7
 10
107.45676013825
 20
8.979200003549991
 30
0.0
 11
107.45676013825
 21
8.479200003549991
 31
0.0
  0
LINE
  5
D9
  8
0
  6
CONTINUOUS
 62
     7
 10
107.80676013825
 20
8.479200003549991
 30
0.0
 11
107.80676013825
 21
11.47920000354999
 31
0.0
  0
LINE
  5
DA
  8
0
  6
CONTINUOUS
 62
     7
 10
107.45676013825
 20
8.479200003549991
 30
0.0
 11
107.80676013825
 21
8.479200003549991
 31
0.0
  0
LINE
  5
DB
  8
0
  6
CONTINUOUS
 62
     7
 10
105.45676013825
 20
8.979200003549991
 30
0.0
 11
107.45676013825
 21
8.979200003549991
 31
0.0
  0
LINE
  5
DC
  8
0
  6
CONTINUOUS
 62
     7
 10
105.45676013825
 20
8.479200003549991
 30
0.0
 11
105.45676013825
 21
8.979200003549991
 31
0.0
  0
LINE
  5
DD
  8
0
  6
CONTINUOUS
 62
     7
 10
105.10676013825
 20
8.479200003549991
 30
0.0
 11
105.45676013825
 21
8.479200003549991
 31
0.0
  0
LINE
  5
DE
  8
0
  6
CONTINUOUS
 62
     7
 10
105.10676013825
 20
11.47920000354999
 30
0.0
 11
105.10676013825
 21
8.479200003549991
 31
0.0
  0
LINE
  5
DF
  8
0
  6
CONTINUOUS
 62
     7
 10
107.80676013825
 20
11.47920000354999
 30
0.0
 11
105.10676013825
 21
11.47920000354999
 31
0.0
  0
LINE
  5
E0
  8
0
  6
CONTINUOUS
 62
     7
 10
104.30676013815
 20
8.479200003549991
 30
0.0
 11
104.30676013815
 21
11.47920000354999
 31
0.0
  0
LINE
  5
E1
  8
0
  6
CONTINUOUS
 62
     7
 10
103.95676013825
 20
8.479200003549991
 30
0.0
 11
104.30676013815
 21
8.479200003549991
 31
0.0
  0
LINE
  5
E2
  8
0
  6
CONTINUOUS
 62
     7
 10
103.95676013825
 20
8.979200003549991
 30
0.0
 11
103.95676013825
 21
8.479200003549991
 31
0.0
  0
LINE
  5
E3
  8
0
  6
CONTINUOUS
 62
     7
 10
101.60676013825
 20
11.47920000354999
 30
0.0
 11
101.60676013825
 21
8.479200003549991
 31
0.0
  0
LINE
  5
E4
  8
0
  6
CONTINUOUS
 62
     7
 10
101.95676013825
 20
8.479200003549991
 30
0.0
 11
101.95676013825
 21
8.979200003549991
 31
0.0
  0
LINE
  5
E5
  8
0
  6
CONTINUOUS
 62
     7
 10
101.60676013825
 20
8.479200003549991
 30
0.0
 11
101.95676013825
 21
8.479200003549991
 31
0.0
  0
LINE
  5
E6
  8
0
  6
CONTINUOUS
 62
     7
 10
101.95676013825
 20
8.979200003549991
 30
0.0
 11
103.95676013825
 21
8.979200003549991
 31
0.0
  0
LINE
  5
E7
  8
0
  6
CONTINUOUS
 62
     7
 10
104.30676013815
 20
11.47920000354999
 30
0.0
 11
101.60676013825
 21
11.47920000354999
 31
0.0
  0
LINE
  5
E8
  8
0
  6
CONTINUOUS
 62
     7
 10
100.80676013825
 20
8.479200003549991
 30
0.0
 11
100.80676013825
 21
11.47920000354999
 31
0.0
  0
LINE
  5
E9
  8
0
  6
CONTINUOUS
 62
     7
 10
100.45676013825
 20
8.979200003549991
 30
0.0
 11
100.45676013825
 21
8.479200003549991
 31
0.0
  0
LINE
  5
EA
  8
0
  6
CONTINUOUS
 62
     7
 10
100.45676013825
 20
8.479200003549991
 30
0.0
 11
100.80676013825
 21
8.479200003549991
 31
0.0
  0
LINE
  5
EB
  8
0
  6
CONTINUOUS
 62
     7
 10
98.10676013825
 20
11.47920000354999
 30
0.0
 11
98.10676013825
 21
8.479200003549991
 31
0.0
  0
LINE
  5
EC
  8
0
  6
CONTINUOUS
 62
     7
 10
98.45676013824999
 20
8.479200003549991
 30
0.0
 11
98.45676013824999
 21
8.979200003549991
 31
0.0
  0
LINE
  5
ED
  8
0
  6
CONTINUOUS
 62
     7
 10
98.10676013825
 20
8.479200003549991
 30
0.0
 11
98.45676013824999
 21
8.479200003549991
 31
0.0
  0
LINE
  5
EE
  8
0
  6
CONTINUOUS
 62
     7
 10
98.45676013824999
 20
8.979200003549991
 30
0.0
 11
100.45676013825
 21
8.979200003549991
 31
0.0
  0
LINE
  5
EF
  8
0
  6
CONTINUOUS
 62
     7
 10
100.80676013825
 20
11.47920000354999
 30
0.0
 11
98.10676013825
 21
11.47920000354999
 31
0.0
  0
LINE
  5
F0
  8
0
  6
CONTINUOUS
 62
     7
 10
97.30676013825001
 20
8.479200003549991
 30
0.0
 11
97.30676013825001
 21
11.47920000354999
 31
0.0
  0
LINE
  5
F1
  8
0
  6
CONTINUOUS
 62
     7
 10
96.95676013824999
 20
8.479200003549991
 30
0.0
 11
97.30676013825001
 21
8.479200003549991
 31
0.0
  0
LINE
  5
F2
  8
0
  6
CONTINUOUS
 62
     7
 10
96.95676013824999
 20
8.979200003549991
 30
0.0
 11
96.95676013824999
 21
8.479200003549991
 31
0.0
  0
LINE
  5
F3
  8
0
  6
CONTINUOUS
 62
     7
 10
93.45676013824999
 20
8.479200003549991
 30
0.0
 11
93.80676013825001
 21
8.479200003549991
 31
0.0
  0
LINE
  5
F4
  8
0
  6
CONTINUOUS
 62
     7
 10
93.45676013824999
 20
8.979200003549991
 30
0.0
 11
93.45676013824999
 21
8.479200003549991
 31
0.0
  0
LINE
  5
F5
  8
0
  6
CONTINUOUS
 62
     7
 10
93.80676013825001
 20
8.479200003549991
 30
0.0
 11
93.80676013825001
 21
11.47920000354999
 31
0.0
  0
LINE
  5
F6
  8
0
  6
CONTINUOUS
 62
     7
 10
94.60676013825
 20
11.47920000354999
 30
0.0
 11
94.60676013825
 21
8.479200003549991
 31
0.0
  0
LINE
  5
F7
  8
0
  6
CONTINUOUS
 62
     7
 10
94.60676013825
 20
8.479200003549991
 30
0.0
 11
94.95676013824999
 21
8.479200003549991
 31
0.0
  0
LINE
  5
F8
  8
0
  6
CONTINUOUS
 62
     7
 10
94.95676013824999
 20
8.479200003549991
 30
0.0
 11
94.95676013824999
 21
8.979200003549991
 31
0.0
  0
LINE
  5
F9
  8
0
  6
CONTINUOUS
 62
     7
 10
94.95676013824999
 20
8.979200003549991
 30
0.0
 11
96.95676013824999
 21
8.979200003549991
 31
0.0
  0
LINE
  5
FA
  8
0
  6
CONTINUOUS
 62
     7
 10
97.30676013825001
 20
11.47920000354999
 30
0.0
 11
94.60676013825
 21
11.47920000354999
 31
0.0
  0
LINE
  5
FB
  8
0
  6
CONTINUOUS
 62
     7
 10
91.45676013824999
 20
8.479200003549991
 30
0.0
 11
91.45676013824999
 21
8.979200003549991
 31
0.0
  0
LINE
  5
FC
  8
0
  6
CONTINUOUS
 62
     7
 10
91.10676013825
 20
8.479200003549991
 30
0.0
 11
91.45676013824999
 21
8.479200003549991
 31
0.0
  0
LINE
  5
FD
  8
0
  6
CONTINUOUS
 62
     7
 10
91.10676013825
 20
11.47920000354999
 30
0.0
 11
91.10676013825
 21
8.479200003549991
 31
0.0
  0
LINE
  5
FE
  8
0
  6
CONTINUOUS
 62
     7
 10
91.45676013824999
 20
8.979200003549991
 30
0.0
 11
93.45676013824999
 21
8.979200003549991
 31
0.0
  0
LINE
  5
FF
  8
0
  6
CONTINUOUS
 62
     7
 10
93.80676013825001
 20
11.47920000354999
 30
0.0
 11
91.10676013825
 21
11.47920000354999
 31
0.0
  0
LINE
  5
100
  8
0
  6
CONTINUOUS
 62
     7
 10
90.30676013825001
 20
8.479200003549991
 30
0.0
 11
90.30676013825001
 21
11.47920000354999
 31
0.0
  0
LINE
  5
101
  8
0
  6
CONTINUOUS
 62
     7
 10
89.95676013824999
 20
8.479200003549991
 30
0.0
 11
90.30676013825001
 21
8.479200003549991
 31
0.0
  0
LINE
  5
102
  8
0
  6
CONTINUOUS
 62
     7
 10
89.95676013824999
 20
8.979200003549991
 30
0.0
 11
89.95676013824999
 21
8.479200003549991
 31
0.0
  0
LINE
  5
103
  8
0
  6
CONTINUOUS
 62
     7
 10
87.60676013825
 20
11.47920000354999
 30
0.0
 11
87.60676013825
 21
8.479200003549991
 31
0.0
  0
LINE
  5
104
  8
0
  6
CONTINUOUS
 62
     7
 10
87.95676013824999
 20
8.479200003549991
 30
0.0
 11
87.95676013824999
 21
8.979200003549991
 31
0.0
  0
LINE
  5
105
  8
0
  6
CONTINUOUS
 62
     7
 10
87.60676013825
 20
8.479200003549991
 30
0.0
 11
87.95676013824999
 21
8.479200003549991
 31
0.0
  0
LINE
  5
106
  8
0
  6
CONTINUOUS
 62
     7
 10
87.95676013824999
 20
8.979200003549991
 30
0.0
 11
89.95676013824999
 21
8.979200003549991
 31
0.0
  0
LINE
  5
107
  8
0
  6
CONTINUOUS
 62
     7
 10
90.30676013825001
 20
11.47920000354999
 30
0.0
 11
87.60676013825
 21
11.47920000354999
 31
0.0
  0
LINE
  5
108
  8
0
  6
CONTINUOUS
 62
     7
 10
86.80676013825001
 20
8.479200003549991
 30
0.0
 11
86.80676013825001
 21
11.47920000354999
 31
0.0
  0
LINE
  5
109
  8
0
  6
CONTINUOUS
 62
     7
 10
86.45676013824999
 20
8.979200003549991
 30
0.0
 11
86.45676013824999
 21
8.479200003549991
 31
0.0
  0
LINE
  5
10A
  8
0
  6
CONTINUOUS
 62
     7
 10
86.45676013824999
 20
8.479200003549991
 30
0.0
 11
86.80676013825001
 21
8.479200003549991
 31
0.0
  0
LINE
  5
10B
  8
0
  6
CONTINUOUS
 62
     7
 10
84.45676013824999
 20
8.479200003549991
 30
0.0
 11
84.45676013824999
 21
8.979200003549991
 31
0.0
  0
LINE
  5
10C
  8
0
  6
CONTINUOUS
 62
     7
 10
84.10676013825
 20
11.47920000354999
 30
0.0
 11
84.10676013825
 21
8.479200003549991
 31
0.0
  0
LINE
  5
10D
  8
0
  6
CONTINUOUS
 62
     7
 10
84.10676013825
 20
8.479200003549991
 30
0.0
 11
84.45676013824999
 21
8.479200003549991
 31
0.0
  0
LINE
  5
10E
  8
0
  6
CONTINUOUS
 62
     7
 10
86.80676013825001
 20
11.47920000354999
 30
0.0
 11
84.10676013825
 21
11.47920000354999
 31
0.0
  0
LINE
  5
10F
  8
0
  6
CONTINUOUS
 62
     7
 10
84.45676013824999
 20
8.979200003549991
 30
0.0
 11
86.45676013824999
 21
8.979200003549991
 31
0.0
  0
LINE
  5
110
  8
0
  6
CONTINUOUS
 62
     7
 10
83.30676013825001
 20
8.479200003549991
 30
0.0
 11
83.30676013825001
 21
11.47920000354999
 31
0.0
  0
LINE
  5
111
  8
0
  6
CONTINUOUS
 62
     7
 10
82.95676013824999
 20
8.479200003549991
 30
0.0
 11
83.30676013825001
 21
8.479200003549991
 31
0.0
  0
LINE
  5
112
  8
0
  6
CONTINUOUS
 62
     7
 10
82.95676013824999
 20
8.979200003549991
 30
0.0
 11
82.95676013824999
 21
8.479200003549991
 31
0.0
  0
LINE
  5
113
  8
0
  6
CONTINUOUS
 62
     7
 10
79.80676013825001
 20
8.479200003549991
 30
0.0
 11
79.80676013825001
 21
11.47920000354999
 31
0.0
  0
LINE
  5
114
  8
0
  6
CONTINUOUS
 62
     7
 10
79.45676013824999
 20
8.479200003549991
 30
0.0
 11
79.80676013825001
 21
8.479200003549991
 31
0.0
  0
LINE
  5
115
  8
0
  6
CONTINUOUS
 62
     7
 10
79.45676013824999
 20
8.979200003549991
 30
0.0
 11
79.45676013824999
 21
8.479200003549991
 31
0.0
  0
LINE
  5
116
  8
0
  6
CONTINUOUS
 62
     7
 10
80.95676013824999
 20
8.479200003549991
 30
0.0
 11
80.95676013824999
 21
8.979200003549991
 31
0.0
  0
LINE
  5
117
  8
0
  6
CONTINUOUS
 62
     7
 10
80.60676013825
 20
8.479200003549991
 30
0.0
 11
80.95676013824999
 21
8.479200003549991
 31
0.0
  0
LINE
  5
118
  8
0
  6
CONTINUOUS
 62
     7
 10
80.60676013825
 20
11.47920000354999
 30
0.0
 11
80.60676013825
 21
8.479200003549991
 31
0.0
  0
LINE
  5
119
  8
0
  6
CONTINUOUS
 62
     7
 10
83.30676013825001
 20
11.47920000354999
 30
0.0
 11
80.60676013825
 21
11.47920000354999
 31
0.0
  0
LINE
  5
11A
  8
0
  6
CONTINUOUS
 62
     7
 10
80.95676013824999
 20
8.979200003549991
 30
0.0
 11
82.95676013824999
 21
8.979200003549991
 31
0.0
  0
LINE
  5
11B
  8
0
  6
CONTINUOUS
 62
     7
 10
77.45676013824999
 20
8.479200003549991
 30
0.0
 11
77.45676013824999
 21
8.979200003549991
 31
0.0
  0
LINE
  5
11C
  8
0
  6
CONTINUOUS
 62
     7
 10
77.10676013825
 20
8.479200003549991
 30
0.0
 11
77.45676013824999
 21
8.479200003549991
 31
0.0
  0
LINE
  5
11D
  8
0
  6
CONTINUOUS
 62
     7
 10
77.10676013825
 20
11.47920000354999
 30
0.0
 11
77.10676013825
 21
8.479200003549991
 31
0.0
  0
LINE
  5
11E
  8
0
  6
CONTINUOUS
 62
     7
 10
77.45676013824999
 20
8.979200003549991
 30
0.0
 11
79.45676013824999
 21
8.979200003549991
 31
0.0
  0
LINE
  5
11F
  8
0
  6
CONTINUOUS
 62
     7
 10
79.80676013825001
 20
11.47920000354999
 30
0.0
 11
77.10676013825
 21
11.47920000354999
 31
0.0
  0
LINE
  5
120
  8
0
  6
CONTINUOUS
 62
     7
 10
75.95676013824999
 20
8.979200003549991
 30
0.0
 11
75.95676013824999
 21
8.479200003549991
 31
0.0
  0
LINE
  5
121
  8
0
  6
CONTINUOUS
 62
     7
 10
75.95676013824999
 20
8.479200003549991
 30
0.0
 11
76.30676013825001
 21
8.479200003549991
 31
0.0
  0
LINE
  5
122
  8
0
  6
CONTINUOUS
 62
     7
 10
76.30676013825001
 20
8.479200003549991
 30
0.0
 11
76.30676013825001
 21
11.47920000354999
 31
0.0
  0
LINE
  5
123
  8
0
  6
CONTINUOUS
 62
     7
 10
73.60676013825
 20
11.47920000354999
 30
0.0
 11
73.60676013825
 21
8.479200003549991
 31
0.0
  0
LINE
  5
124
  8
0
  6
CONTINUOUS
 62
     7
 10
73.95676013824999
 20
8.479200003549991
 30
0.0
 11
73.95676013824999
 21
8.979200003549991
 31
0.0
  0
LINE
  5
125
  8
0
  6
CONTINUOUS
 62
     7
 10
73.60676013825
 20
8.479200003549991
 30
0.0
 11
73.95676013824999
 21
8.479200003549991
 31
0.0
  0
LINE
  5
126
  8
0
  6
CONTINUOUS
 62
     7
 10
73.95676013824999
 20
8.979200003549991
 30
0.0
 11
75.95676013824999
 21
8.979200003549991
 31
0.0
  0
LINE
  5
127
  8
0
  6
CONTINUOUS
 62
     7
 10
76.30676013825001
 20
11.47920000354999
 30
0.0
 11
73.60676013825
 21
11.47920000354999
 31
0.0
  0
LINE
  5
128
  8
0
  6
CONTINUOUS
 62
     7
 10
108.55676013825
 20
6.079200003549985
 30
0.0
 11
108.55676013825
 21
5.579200003549985
 31
0.0
  0
LINE
  5
129
  8
0
  6
CONTINUOUS
 62
     7
 10
108.55676013825
 20
5.579200003549985
 30
0.0
 11
72.85676013825
 21
5.579200003549985
 31
0.0
  0
LINE
  5
12A
  8
0
  6
CONTINUOUS
 62
     7
 10
72.85676013825
 20
5.579200003549985
 30
0.0
 11
72.85676013825
 21
6.079200003549985
 31
0.0
  0
LINE
  5
12B
  8
0
  6
CONTINUOUS
 62
     7
 10
108.55676013825
 20
11.57920000354999
 30
0.0
 11
108.55676013825
 21
6.079200003549985
 31
0.0
  0
LINE
  5
12C
  8
0
  6
CONTINUOUS
 62
     7
 10
72.85676013825
 20
11.57920000354999
 30
0.0
 11
72.85676013825
 21
6.079200003549985
 31
0.0
  0
LINE
  5
12D
  8
0
  6
CONTINUOUS
 62
     7
 10
72.85676013825
 20
11.57920000354999
 30
0.0
 11
108.55676013825
 21
11.57920000354999
 31
0.0
  0
LINE
  5
12E
  8
0
  6
CONTINUOUS
 62
     7
 10
72.85676013825
 20
4.979200003449989
 30
0.0
 11
108.55676013825
 21
4.979200003449989
 31
0.0
  0
LINE
  5
12F
  8
0
  6
CONTINUOUS
 62
     7
 10
72.85676013825
 20
5.579200003549985
 30
0.0
 11
72.85676013825
 21
4.979200003449989
 31
0.0
  0
LINE
  5
130
  8
0
  6
CONTINUOUS
 62
     7
 10
108.55676013825
 20
4.979200003449989
 30
0.0
 11
108.55676013825
 21
5.579200003549985
 31
0.0
  0
LINE
  5
131
  8
0
  6
CONTINUOUS
 62
     7
 10
72.65676013825001
 20
4.479200003449989
 30
0.0
 11
108.75676013825
 21
4.479200003449989
 31
0.0
  0
LINE
  5
132
  8
0
  6
CONTINUOUS
 62
     7
 10
109.05676013825
 20
4.779200003549988
 30
0.0
 11
109.05676013825
 21
12.37920000354998
 31
0.0
  0
LINE
  5
133
  8
0
  6
CONTINUOUS
 62
     7
 10
108.75676013825
 20
12.67920000354999
 30
0.0
 11
72.65676013825001
 21
12.67920000354999
 31
0.0
  0
LINE
  5
134
  8
0
  6
CONTINUOUS
 62
     7
 10
72.35676013825
 20
12.37920000354998
 30
0.0
 11
72.35676013825
 21
4.779200003549988
 31
0.0
  0
LINE
  5
135
  8
0
  6
CONTINUOUS
 62
     7
 10
112.20676013815
 20
-0.6207999964500175
 30
0.0
 11
69.20676013824999
 21
-0.6207999964500175
 31
0.0
  0
LINE
  5
136
  8
0
  6
CONTINUOUS
 62
     7
 10
113.20676013815
 20
20.57920000354999
 30
0.0
 11
113.20676013815
 21
0.3792000035499825
 31
0.0
  0
LINE
  5
137
  8
0
  6
CONTINUOUS
 62
     7
 10
69.20676013824999
 20
21.57920000354999
 30
0.0
 11
112.20676013815
 21
21.57920000354999
 31
0.0
  0
LINE
  5
138
  8
0
  6
CONTINUOUS
 62
     7
 10
68.20676013824999
 20
0.3792000035499825
 30
0.0
 11
68.20676013824999
 21
20.57920000354999
 31
0.0
  0
LINE
  5
139
  8
0
  6
CONTINUOUS
 62
     7
 10
115.95676013815
 20
15.47920000354999
 30
0.0
 11
115.95676013815
 21
5.479200003449989
 31
0.0
  0
LINE
  5
13A
  8
0
  6
CONTINUOUS
 62
     7
 10
115.95676013815
 20
15.47920000354999
 30
0.0
 11
113.20676013815
 21
15.47920000354999
 31
0.0
  0
LINE
  5
13B
  8
0
  6
CONTINUOUS
 62
     7
 10
115.95676013815
 20
5.479200003449989
 30
0.0
 11
113.20676013815
 21
5.479200003449989
 31
0.0
  0
LINE
  5
13C
  8
0
  6
CONTINUOUS
 62
     7
 10
65.45676013824999
 20
15.47920000354999
 30
0.0
 11
65.45676013824999
 21
5.479200003449989
 31
0.0
  0
LINE
  5
13D
  8
0
  6
CONTINUOUS
 62
     7
 10
65.45676013824999
 20
5.479200003449989
 30
0.0
 11
68.20676013824999
 21
5.479200003449989
 31
0.0
  0
LINE
  5
13E
  8
0
  6
CONTINUOUS
 62
     7
 10
65.45676013824999
 20
15.47920000354999
 30
0.0
 11
68.20676013824999
 21
15.47920000354999
 31
0.0
  0
LINE
  5
13F
  8
0
  6
CONTINUOUS
 62
     7
 10
66.70676013824999
 20
0.4792000034499893
 30
0.0
 11
66.70676013824999
 21
5.479200003449989
 31
0.0
  0
LINE
  5
140
  8
0
  6
CONTINUOUS
 62
     7
 10
114.70676013815
 20
0.4792000034499893
 30
0.0
 11
114.70676013815
 21
5.479200003449989
 31
0.0
  0
LINE
  5
141
  8
0
  6
CONTINUOUS
 62
     7
 10
68.70676013824999
 20
-1.520799996450009
 30
0.0
 11
112.70676013815
 21
-1.520799996450009
 31
0.0
  0
LINE
  5
142
  8
0
  6
CONTINUOUS
 62
     7
 10
66.70676013824999
 20
15.47920000354999
 30
0.0
 11
66.70676013824999
 21
20.47920000354999
 31
0.0
  0
LINE
  5
143
  8
0
  6
CONTINUOUS
 62
     7
 10
68.70676013824999
 20
22.47920000354999
 30
0.0
 11
112.70676013815
 21
22.47920000354999
 31
0.0
  0
LINE
  5
144
  8
0
  6
CONTINUOUS
 62
     7
 10
114.70676013815
 20
15.47920000354999
 30
0.0
 11
114.70676013815
 21
20.47920000354999
 31
0.0
  0
LINE
  5
145
  8
0
  6
CONTINUOUS
 62
     7
 10
74.41824365745
 20
6.079200003549985
 30
0.0
 11
74.44487969925001
 21
6.071815635849987
 31
0.0
  0
LINE
  5
146
  8
0
  6
CONTINUOUS
 62
     7
 10
74.44487969925001
 20
6.071815635849987
 30
0.0
 11
74.47152004545
 21
6.064466328449996
 31
0.0
  0
LINE
  5
147
  8
0
  6
CONTINUOUS
 62
     7
 10
74.47152004545
 20
6.064466328449996
 30
0.0
 11
74.49816900075001
 21
6.057187141849994
 31
0.0
  0
LINE
  5
148
  8
0
  6
CONTINUOUS
 62
     7
 10
74.49816900075001
 20
6.057187141849994
 30
0.0
 11
74.52483086965
 21
6.050013136349989
 31
0.0
  0
LINE
  5
149
  8
0
  6
CONTINUOUS
 62
     7
 10
74.52483086965
 20
6.050013136349989
 30
0.0
 11
74.55150995675001
 21
6.04297937234999
 31
0.0
  0
LINE
  5
14A
  8
0
  6
CONTINUOUS
 62
     7
 10
74.55150995675001
 20
6.04297937234999
 30
0.0
 11
74.57821056665
 21
6.03612091014999
 31
0.0
  0
LINE
  5
14B
  8
0
  6
CONTINUOUS
 62
     7
 10
74.57821056665
 20
6.03612091014999
 30
0.0
 11
74.60493700385001
 21
6.029472810449988
 31
0.0
  0
LINE
  5
14C
  8
0
  6
CONTINUOUS
 62
     7
 10
74.60493700385001
 20
6.029472810449988
 30
0.0
 11
74.63169357295001
 21
6.023070133249988
 31
0.0
  0
LINE
  5
14D
  8
0
  6
CONTINUOUS
 62
     7
 10
74.63169357295001
 20
6.023070133249988
 30
0.0
 11
74.65848457835
 21
6.016947939149986
 31
0.0
  0
LINE
  5
14E
  8
0
  6
CONTINUOUS
 62
     7
 10
74.65848457835
 20
6.016947939149986
 30
0.0
 11
74.68531432475001
 21
6.011141288249988
 31
0.0
  0
LINE
  5
14F
  8
0
  6
CONTINUOUS
 62
     7
 10
74.68531432475001
 20
6.011141288249988
 30
0.0
 11
74.71218711665
 21
6.005685241449996
 31
0.0
  0
LINE
  5
150
  8
0
  6
CONTINUOUS
 62
     7
 10
74.71218711665
 20
6.005685241449996
 30
0.0
 11
74.73910725865
 21
6.000614858649996
 31
0.0
  0
LINE
  5
151
  8
0
  6
CONTINUOUS
 62
     7
 10
74.73910725865
 20
6.000614858649996
 30
0.0
 11
74.76607905514999
 21
5.995965200349985
 31
0.0
  0
LINE
  5
152
  8
0
  6
CONTINUOUS
 62
     7
 10
74.76607905514999
 20
5.995965200349985
 30
0.0
 11
74.79310681084999
 21
5.991771326949987
 31
0.0
  0
LINE
  5
153
  8
0
  6
CONTINUOUS
 62
     7
 10
74.79310681084999
 20
5.991771326949987
 30
0.0
 11
74.82019483024999
 21
5.988068298949983
 31
0.0
  0
LINE
  5
154
  8
0
  6
CONTINUOUS
 62
     7
 10
74.82019483024999
 20
5.988068298949983
 30
0.0
 11
74.84734741795
 21
5.984891176549993
 31
0.0
  0
LINE
  5
155
  8
0
  6
CONTINUOUS
 62
     7
 10
74.84734741795
 20
5.984891176549993
 30
0.0
 11
74.87456887835
 21
5.982275020149984
 31
0.0
  0
LINE
  5
156
  8
0
  6
CONTINUOUS
 62
     7
 10
74.87456887835
 20
5.982275020149984
 30
0.0
 11
74.90186351615
 21
5.980254890249995
 31
0.0
  0
LINE
  5
157
  8
0
  6
CONTINUOUS
 62
     7
 10
74.90186351615
 20
5.980254890249995
 30
0.0
 11
74.92923298365
 21
5.978859961849992
 31
0.0
  0
LINE
  5
158
  8
0
  6
CONTINUOUS
 62
     7
 10
74.92923298365
 20
5.978859961849992
 30
0.0
 11
74.95666579895001
 21
5.978090265449993
 31
0.0
  0
LINE
  5
159
  8
0
  6
CONTINUOUS
 62
     7
 10
74.95666579895001
 20
5.978090265449993
 30
0.0
 11
74.98414642214999
 21
5.977936826749996
 31
0.0
  0
LINE
  5
15A
  8
0
  6
CONTINUOUS
 62
     7
 10
74.98414642214999
 20
5.977936826749996
 30
0.0
 11
75.01165931185
 21
5.978390668249986
 31
0.0
  0
LINE
  5
15B
  8
0
  6
CONTINUOUS
 62
     7
 10
75.01165931185
 20
5.978390668249986
 30
0.0
 11
75.03918892715001
 21
5.979442813049985
 31
0.0
  0
LINE
  5
15C
  8
0
  6
CONTINUOUS
 62
     7
 10
75.03918892715001
 20
5.979442813049985
 30
0.0
 11
75.06671972654999
 21
5.981084283849995
 31
0.0
  0
LINE
  5
15D
  8
0
  6
CONTINUOUS
 62
     7
 10
75.06671972654999
 20
5.981084283849995
 30
0.0
 11
75.09423616915001
 21
5.983306103549992
 31
0.0
  0
LINE
  5
15E
  8
0
  6
CONTINUOUS
 62
     7
 10
75.09423616915001
 20
5.983306103549992
 30
0.0
 11
75.12172271345
 21
5.986099294949994
 31
0.0
  0
LINE
  5
15F
  8
0
  6
CONTINUOUS
 62
     7
 10
75.12172271345
 20
5.986099294949994
 30
0.0
 11
75.14916381845
 21
5.989454880749989
 31
0.0
  0
LINE
  5
160
  8
0
  6
CONTINUOUS
 62
     7
 10
75.14916381845
 20
5.989454880749989
 30
0.0
 11
75.17654394285
 21
5.993363883949996
 31
0.0
  0
LINE
  5
161
  8
0
  6
CONTINUOUS
 62
     7
 10
75.17654394285
 20
5.993363883949996
 30
0.0
 11
75.20384754554999
 21
5.997817327149988
 31
0.0
  0
LINE
  5
162
  8
0
  6
CONTINUOUS
 62
     7
 10
75.20384754554999
 20
5.997817327149988
 30
0.0
 11
75.23105908525
 21
6.00280623354999
 31
0.0
  0
LINE
  5
163
  8
0
  6
CONTINUOUS
 62
     7
 10
75.23105908525
 20
6.00280623354999
 30
0.0
 11
75.25816302084999
 21
6.008321625749986
 31
0.0
  0
LINE
  5
164
  8
0
  6
CONTINUOUS
 62
     7
 10
75.25816302084999
 20
6.008321625749986
 30
0.0
 11
75.28514381094999
 21
6.014354526549994
 31
0.0
  0
LINE
  5
165
  8
0
  6
CONTINUOUS
 62
     7
 10
75.28514381094999
 20
6.014354526549994
 30
0.0
 11
75.31198591465
 21
6.020895958749989
 31
0.0
  0
LINE
  5
166
  8
0
  6
CONTINUOUS
 62
     7
 10
75.31198591465
 20
6.020895958749989
 30
0.0
 11
75.33867379054999
 21
6.027936945349992
 31
0.0
  0
LINE
  5
167
  8
0
  6
CONTINUOUS
 62
     7
 10
75.33867379054999
 20
6.027936945349992
 30
0.0
 11
75.36519189744999
 21
6.03546850894999
 31
0.0
  0
LINE
  5
168
  8
0
  6
CONTINUOUS
 62
     7
 10
75.36519189744999
 20
6.03546850894999
 30
0.0
 11
75.39152469415001
 21
6.043481672649989
 31
0.0
  0
LINE
  5
169
  8
0
  6
CONTINUOUS
 62
     7
 10
75.39152469415001
 20
6.043481672649989
 30
0.0
 11
75.41765996724999
 21
6.051961933749993
 31
0.0
  0
LINE
  5
16A
  8
0
  6
CONTINUOUS
 62
     7
 10
75.41765996724999
 20
6.051961933749993
 30
0.0
 11
75.44362631364999
 21
6.060827027749994
 31
0.0
  0
LINE
  5
16B
  8
0
  6
CONTINUOUS
 62
     7
 10
75.44362631364999
 20
6.060827027749994
 30
0.0
 11
75.46947970504999
 21
6.069949236949995
 31
0.0
  0
LINE
  5
16C
  8
0
  6
CONTINUOUS
 62
     7
 10
75.46947970504999
 20
6.069949236949995
 30
0.0
 11
75.49527661894999
 21
6.079200003549985
 31
0.0
  0
LINE
  5
16D
  8
0
  6
CONTINUOUS
 62
     7
 10
77.91824365745
 20
6.079200003549985
 30
0.0
 11
77.94487969925001
 21
6.071815635849987
 31
0.0
  0
LINE
  5
16E
  8
0
  6
CONTINUOUS
 62
     7
 10
77.94487969925001
 20
6.071815635849987
 30
0.0
 11
77.97152004545
 21
6.064466328449996
 31
0.0
  0
LINE
  5
16F
  8
0
  6
CONTINUOUS
 62
     7
 10
77.97152004545
 20
6.064466328449996
 30
0.0
 11
77.99816900075001
 21
6.057187141849994
 31
0.0
  0
LINE
  5
170
  8
0
  6
CONTINUOUS
 62
     7
 10
77.99816900075001
 20
6.057187141849994
 30
0.0
 11
78.02483086965
 21
6.050013136349989
 31
0.0
  0
LINE
  5
171
  8
0
  6
CONTINUOUS
 62
     7
 10
78.02483086965
 20
6.050013136349989
 30
0.0
 11
78.05150995675001
 21
6.04297937234999
 31
0.0
  0
LINE
  5
172
  8
0
  6
CONTINUOUS
 62
     7
 10
78.05150995675001
 20
6.04297937234999
 30
0.0
 11
78.07821056665
 21
6.03612091014999
 31
0.0
  0
LINE
  5
173
  8
0
  6
CONTINUOUS
 62
     7
 10
78.07821056665
 20
6.03612091014999
 30
0.0
 11
78.10493700385001
 21
6.029472810449988
 31
0.0
  0
LINE
  5
174
  8
0
  6
CONTINUOUS
 62
     7
 10
78.10493700385001
 20
6.029472810449988
 30
0.0
 11
78.13169357295001
 21
6.023070133249988
 31
0.0
  0
LINE
  5
175
  8
0
  6
CONTINUOUS
 62
     7
 10
78.13169357295001
 20
6.023070133249988
 30
0.0
 11
78.15848457835
 21
6.016947939149986
 31
0.0
  0
LINE
  5
176
  8
0
  6
CONTINUOUS
 62
     7
 10
78.15848457835
 20
6.016947939149986
 30
0.0
 11
78.18531432475001
 21
6.011141288249988
 31
0.0
  0
LINE
  5
177
  8
0
  6
CONTINUOUS
 62
     7
 10
78.18531432475001
 20
6.011141288249988
 30
0.0
 11
78.21218711665
 21
6.005685241449996
 31
0.0
  0
LINE
  5
178
  8
0
  6
CONTINUOUS
 62
     7
 10
78.21218711665
 20
6.005685241449996
 30
0.0
 11
78.23910725865
 21
6.000614858649996
 31
0.0
  0
LINE
  5
179
  8
0
  6
CONTINUOUS
 62
     7
 10
78.23910725865
 20
6.000614858649996
 30
0.0
 11
78.26607905514999
 21
5.995965200349985
 31
0.0
  0
LINE
  5
17A
  8
0
  6
CONTINUOUS
 62
     7
 10
78.26607905514999
 20
5.995965200349985
 30
0.0
 11
78.29310681084999
 21
5.991771326949987
 31
0.0
  0
LINE
  5
17B
  8
0
  6
CONTINUOUS
 62
     7
 10
78.29310681084999
 20
5.991771326949987
 30
0.0
 11
78.32019483024999
 21
5.988068298949983
 31
0.0
  0
LINE
  5
17C
  8
0
  6
CONTINUOUS
 62
     7
 10
78.32019483024999
 20
5.988068298949983
 30
0.0
 11
78.34734741795
 21
5.984891176549993
 31
0.0
  0
LINE
  5
17D
  8
0
  6
CONTINUOUS
 62
     7
 10
78.34734741795
 20
5.984891176549993
 30
0.0
 11
78.37456887835
 21
5.982275020149984
 31
0.0
  0
LINE
  5
17E
  8
0
  6
CONTINUOUS
 62
     7
 10
78.37456887835
 20
5.982275020149984
 30
0.0
 11
78.40186351615
 21
5.980254890249995
 31
0.0
  0
LINE
  5
17F
  8
0
  6
CONTINUOUS
 62
     7
 10
78.40186351615
 20
5.980254890249995
 30
0.0
 11
78.42923298365
 21
5.978859961849992
 31
0.0
  0
LINE
  5
180
  8
0
  6
CONTINUOUS
 62
     7
 10
78.42923298365
 20
5.978859961849992
 30
0.0
 11
78.45666579895001
 21
5.978090265449993
 31
0.0
  0
LINE
  5
181
  8
0
  6
CONTINUOUS
 62
     7
 10
78.45666579895001
 20
5.978090265449993
 30
0.0
 11
78.48414642214999
 21
5.977936826749996
 31
0.0
  0
LINE
  5
182
  8
0
  6
CONTINUOUS
 62
     7
 10
78.48414642214999
 20
5.977936826749996
 30
0.0
 11
78.51165931185
 21
5.978390668249986
 31
0.0
  0
LINE
  5
183
  8
0
  6
CONTINUOUS
 62
     7
 10
78.51165931185
 20
5.978390668249986
 30
0.0
 11
78.53918892715001
 21
5.979442813049985
 31
0.0
  0
LINE
  5
184
  8
0
  6
CONTINUOUS
 62
     7
 10
78.53918892715001
 20
5.979442813049985
 30
0.0
 11
78.56671972654999
 21
5.981084283849995
 31
0.0
  0
LINE
  5
185
  8
0
  6
CONTINUOUS
 62
     7
 10
78.56671972654999
 20
5.981084283849995
 30
0.0
 11
78.59423616915001
 21
5.983306103549992
 31
0.0
  0
LINE
  5
186
  8
0
  6
CONTINUOUS
 62
     7
 10
78.59423616915001
 20
5.983306103549992
 30
0.0
 11
78.62172271345
 21
5.986099294949994
 31
0.0
  0
LINE
  5
187
  8
0
  6
CONTINUOUS
 62
     7
 10
78.62172271345
 20
5.986099294949994
 30
0.0
 11
78.64916381845
 21
5.989454880749989
 31
0.0
  0
LINE
  5
188
  8
0
  6
CONTINUOUS
 62
     7
 10
78.64916381845
 20
5.989454880749989
 30
0.0
 11
78.67654394285
 21
5.993363883949996
 31
0.0
  0
LINE
  5
189
  8
0
  6
CONTINUOUS
 62
     7
 10
78.67654394285
 20
5.993363883949996
 30
0.0
 11
78.70384754554999
 21
5.997817327149988
 31
0.0
  0
LINE
  5
18A
  8
0
  6
CONTINUOUS
 62
     7
 10
78.70384754554999
 20
5.997817327149988
 30
0.0
 11
78.73105908525
 21
6.00280623354999
 31
0.0
  0
LINE
  5
18B
  8
0
  6
CONTINUOUS
 62
     7
 10
78.73105908525
 20
6.00280623354999
 30
0.0
 11
78.75816302084999
 21
6.008321625749986
 31
0.0
  0
LINE
  5
18C
  8
0
  6
CONTINUOUS
 62
     7
 10
78.75816302084999
 20
6.008321625749986
 30
0.0
 11
78.78514381094999
 21
6.014354526549994
 31
0.0
  0
LINE
  5
18D
  8
0
  6
CONTINUOUS
 62
     7
 10
78.78514381094999
 20
6.014354526549994
 30
0.0
 11
78.81198591465
 21
6.020895958749989
 31
0.0
  0
LINE
  5
18E
  8
0
  6
CONTINUOUS
 62
     7
 10
78.81198591465
 20
6.020895958749989
 30
0.0
 11
78.83867379054999
 21
6.027936945349992
 31
0.0
  0
LINE
  5
18F
  8
0
  6
CONTINUOUS
 62
     7
 10
78.83867379054999
 20
6.027936945349992
 30
0.0
 11
78.86519189744999
 21
6.03546850894999
 31
0.0
  0
LINE
  5
190
  8
0
  6
CONTINUOUS
 62
     7
 10
78.86519189744999
 20
6.03546850894999
 30
0.0
 11
78.89152469415001
 21
6.043481672649989
 31
0.0
  0
LINE
  5
191
  8
0
  6
CONTINUOUS
 62
     7
 10
78.89152469415001
 20
6.043481672649989
 30
0.0
 11
78.91765996724999
 21
6.051961933749993
 31
0.0
  0
LINE
  5
192
  8
0
  6
CONTINUOUS
 62
     7
 10
78.91765996724999
 20
6.051961933749993
 30
0.0
 11
78.94362631364999
 21
6.060827027749994
 31
0.0
  0
LINE
  5
193
  8
0
  6
CONTINUOUS
 62
     7
 10
78.94362631364999
 20
6.060827027749994
 30
0.0
 11
78.96947970504999
 21
6.069949236949995
 31
0.0
  0
LINE
  5
194
  8
0
  6
CONTINUOUS
 62
     7
 10
78.96947970504999
 20
6.069949236949995
 30
0.0
 11
78.99527661894999
 21
6.079200003549985
 31
0.0
  0
LINE
  5
195
  8
0
  6
CONTINUOUS
 62
     7
 10
81.41824365745
 20
6.079200003549985
 30
0.0
 11
81.44487969925001
 21
6.071815635849987
 31
0.0
  0
LINE
  5
196
  8
0
  6
CONTINUOUS
 62
     7
 10
81.44487969925001
 20
6.071815635849987
 30
0.0
 11
81.47152004545
 21
6.064466328449996
 31
0.0
  0
LINE
  5
197
  8
0
  6
CONTINUOUS
 62
     7
 10
81.47152004545
 20
6.064466328449996
 30
0.0
 11
81.49816900075001
 21
6.057187141849994
 31
0.0
  0
LINE
  5
198
  8
0
  6
CONTINUOUS
 62
     7
 10
81.49816900075001
 20
6.057187141849994
 30
0.0
 11
81.52483086965
 21
6.050013136349989
 31
0.0
  0
LINE
  5
199
  8
0
  6
CONTINUOUS
 62
     7
 10
81.52483086965
 20
6.050013136349989
 30
0.0
 11
81.55150995675001
 21
6.04297937234999
 31
0.0
  0
LINE
  5
19A
  8
0
  6
CONTINUOUS
 62
     7
 10
81.55150995675001
 20
6.04297937234999
 30
0.0
 11
81.57821056665
 21
6.03612091014999
 31
0.0
  0
LINE
  5
19B
  8
0
  6
CONTINUOUS
 62
     7
 10
81.57821056665
 20
6.03612091014999
 30
0.0
 11
81.60493700385001
 21
6.029472810449988
 31
0.0
  0
LINE
  5
19C
  8
0
  6
CONTINUOUS
 62
     7
 10
81.60493700385001
 20
6.029472810449988
 30
0.0
 11
81.63169357295001
 21
6.023070133249988
 31
0.0
  0
LINE
  5
19D
  8
0
  6
CONTINUOUS
 62
     7
 10
81.63169357295001
 20
6.023070133249988
 30
0.0
 11
81.65848457835
 21
6.016947939149986
 31
0.0
  0
LINE
  5
19E
  8
0
  6
CONTINUOUS
 62
     7
 10
81.65848457835
 20
6.016947939149986
 30
0.0
 11
81.68531432475001
 21
6.011141288249988
 31
0.0
  0
LINE
  5
19F
  8
0
  6
CONTINUOUS
 62
     7
 10
81.68531432475001
 20
6.011141288249988
 30
0.0
 11
81.71218711665
 21
6.005685241449996
 31
0.0
  0
LINE
  5
1A0
  8
0
  6
CONTINUOUS
 62
     7
 10
81.71218711665
 20
6.005685241449996
 30
0.0
 11
81.73910725865
 21
6.000614858649996
 31
0.0
  0
LINE
  5
1A1
  8
0
  6
CONTINUOUS
 62
     7
 10
81.73910725865
 20
6.000614858649996
 30
0.0
 11
81.76607905514999
 21
5.995965200349985
 31
0.0
  0
LINE
  5
1A2
  8
0
  6
CONTINUOUS
 62
     7
 10
81.76607905514999
 20
5.995965200349985
 30
0.0
 11
81.79310681084999
 21
5.991771326949987
 31
0.0
  0
LINE
  5
1A3
  8
0
  6
CONTINUOUS
 62
     7
 10
81.79310681084999
 20
5.991771326949987
 30
0.0
 11
81.82019483024999
 21
5.988068298949983
 31
0.0
  0
LINE
  5
1A4
  8
0
  6
CONTINUOUS
 62
     7
 10
81.82019483024999
 20
5.988068298949983
 30
0.0
 11
81.84734741795
 21
5.984891176549993
 31
0.0
  0
LINE
  5
1A5
  8
0
  6
CONTINUOUS
 62
     7
 10
81.84734741795
 20
5.984891176549993
 30
0.0
 11
81.87456887835
 21
5.982275020149984
 31
0.0
  0
LINE
  5
1A6
  8
0
  6
CONTINUOUS
 62
     7
 10
81.87456887835
 20
5.982275020149984
 30
0.0
 11
81.90186351615
 21
5.980254890249995
 31
0.0
  0
LINE
  5
1A7
  8
0
  6
CONTINUOUS
 62
     7
 10
81.90186351615
 20
5.980254890249995
 30
0.0
 11
81.92923298365
 21
5.978859961849992
 31
0.0
  0
LINE
  5
1A8
  8
0
  6
CONTINUOUS
 62
     7
 10
81.92923298365
 20
5.978859961849992
 30
0.0
 11
81.95666579895001
 21
5.978090265449993
 31
0.0
  0
LINE
  5
1A9
  8
0
  6
CONTINUOUS
 62
     7
 10
81.95666579895001
 20
5.978090265449993
 30
0.0
 11
81.98414642214999
 21
5.977936826749996
 31
0.0
  0
LINE
  5
1AA
  8
0
  6
CONTINUOUS
 62
     7
 10
81.98414642214999
 20
5.977936826749996
 30
0.0
 11
82.01165931185
 21
5.978390668249986
 31
0.0
  0
LINE
  5
1AB
  8
0
  6
CONTINUOUS
 62
     7
 10
82.01165931185
 20
5.978390668249986
 30
0.0
 11
82.03918892715001
 21
5.979442813049985
 31
0.0
  0
LINE
  5
1AC
  8
0
  6
CONTINUOUS
 62
     7
 10
82.03918892715001
 20
5.979442813049985
 30
0.0
 11
82.06671972654999
 21
5.981084283849995
 31
0.0
  0
LINE
  5
1AD
  8
0
  6
CONTINUOUS
 62
     7
 10
82.06671972654999
 20
5.981084283849995
 30
0.0
 11
82.09423616915001
 21
5.983306103549992
 31
0.0
  0
LINE
  5
1AE
  8
0
  6
CONTINUOUS
 62
     7
 10
82.09423616915001
 20
5.983306103549992
 30
0.0
 11
82.12172271345
 21
5.986099294949994
 31
0.0
  0
LINE
  5
1AF
  8
0
  6
CONTINUOUS
 62
     7
 10
82.12172271345
 20
5.986099294949994
 30
0.0
 11
82.14916381845
 21
5.989454880749989
 31
0.0
  0
LINE
  5
1B0
  8
0
  6
CONTINUOUS
 62
     7
 10
82.14916381845
 20
5.989454880749989
 30
0.0
 11
82.17654394285
 21
5.993363883949996
 31
0.0
  0
LINE
  5
1B1
  8
0
  6
CONTINUOUS
 62
     7
 10
82.17654394285
 20
5.993363883949996
 30
0.0
 11
82.20384754554999
 21
5.997817327149988
 31
0.0
  0
LINE
  5
1B2
  8
0
  6
CONTINUOUS
 62
     7
 10
82.20384754554999
 20
5.997817327149988
 30
0.0
 11
82.23105908525
 21
6.00280623354999
 31
0.0
  0
LINE
  5
1B3
  8
0
  6
CONTINUOUS
 62
     7
 10
82.23105908525
 20
6.00280623354999
 30
0.0
 11
82.25816302084999
 21
6.008321625749986
 31
0.0
  0
LINE
  5
1B4
  8
0
  6
CONTINUOUS
 62
     7
 10
82.25816302084999
 20
6.008321625749986
 30
0.0
 11
82.28514381094999
 21
6.014354526549994
 31
0.0
  0
LINE
  5
1B5
  8
0
  6
CONTINUOUS
 62
     7
 10
82.28514381094999
 20
6.014354526549994
 30
0.0
 11
82.31198591465
 21
6.020895958749989
 31
0.0
  0
LINE
  5
1B6
  8
0
  6
CONTINUOUS
 62
     7
 10
82.31198591465
 20
6.020895958749989
 30
0.0
 11
82.33867379054999
 21
6.027936945349992
 31
0.0
  0
LINE
  5
1B7
  8
0
  6
CONTINUOUS
 62
     7
 10
82.33867379054999
 20
6.027936945349992
 30
0.0
 11
82.36519189744999
 21
6.03546850894999
 31
0.0
  0
LINE
  5
1B8
  8
0
  6
CONTINUOUS
 62
     7
 10
82.36519189744999
 20
6.03546850894999
 30
0.0
 11
82.39152469415001
 21
6.043481672649989
 31
0.0
  0
LINE
  5
1B9
  8
0
  6
CONTINUOUS
 62
     7
 10
82.39152469415001
 20
6.043481672649989
 30
0.0
 11
82.41765996724999
 21
6.051961933749993
 31
0.0
  0
LINE
  5
1BA
  8
0
  6
CONTINUOUS
 62
     7
 10
82.41765996724999
 20
6.051961933749993
 30
0.0
 11
82.44362631364999
 21
6.060827027749994
 31
0.0
  0
LINE
  5
1BB
  8
0
  6
CONTINUOUS
 62
     7
 10
82.44362631364999
 20
6.060827027749994
 30
0.0
 11
82.46947970504999
 21
6.069949236949995
 31
0.0
  0
LINE
  5
1BC
  8
0
  6
CONTINUOUS
 62
     7
 10
82.46947970504999
 20
6.069949236949995
 30
0.0
 11
82.49527661894999
 21
6.079200003549985
 31
0.0
  0
LINE
  5
1BD
  8
0
  6
CONTINUOUS
 62
     7
 10
84.91824365745
 20
6.079200003549985
 30
0.0
 11
84.94487969925001
 21
6.071815635849987
 31
0.0
  0
LINE
  5
1BE
  8
0
  6
CONTINUOUS
 62
     7
 10
84.94487969925001
 20
6.071815635849987
 30
0.0
 11
84.97152004545
 21
6.064466328449996
 31
0.0
  0
LINE
  5
1BF
  8
0
  6
CONTINUOUS
 62
     7
 10
84.97152004545
 20
6.064466328449996
 30
0.0
 11
84.99816900075001
 21
6.057187141849994
 31
0.0
  0
LINE
  5
1C0
  8
0
  6
CONTINUOUS
 62
     7
 10
84.99816900075001
 20
6.057187141849994
 30
0.0
 11
85.02483086965
 21
6.050013136349989
 31
0.0
  0
LINE
  5
1C1
  8
0
  6
CONTINUOUS
 62
     7
 10
85.02483086965
 20
6.050013136349989
 30
0.0
 11
85.05150995675001
 21
6.04297937234999
 31
0.0
  0
LINE
  5
1C2
  8
0
  6
CONTINUOUS
 62
     7
 10
85.05150995675001
 20
6.04297937234999
 30
0.0
 11
85.07821056665
 21
6.03612091014999
 31
0.0
  0
LINE
  5
1C3
  8
0
  6
CONTINUOUS
 62
     7
 10
85.07821056665
 20
6.03612091014999
 30
0.0
 11
85.10493700385001
 21
6.029472810449988
 31
0.0
  0
LINE
  5
1C4
  8
0
  6
CONTINUOUS
 62
     7
 10
85.10493700385001
 20
6.029472810449988
 30
0.0
 11
85.13169357295001
 21
6.023070133249988
 31
0.0
  0
LINE
  5
1C5
  8
0
  6
CONTINUOUS
 62
     7
 10
85.13169357295001
 20
6.023070133249988
 30
0.0
 11
85.15848457835
 21
6.016947939149986
 31
0.0
  0
LINE
  5
1C6
  8
0
  6
CONTINUOUS
 62
     7
 10
85.15848457835
 20
6.016947939149986
 30
0.0
 11
85.18531432475001
 21
6.011141288249988
 31
0.0
  0
LINE
  5
1C7
  8
0
  6
CONTINUOUS
 62
     7
 10
85.18531432475001
 20
6.011141288249988
 30
0.0
 11
85.21218711665
 21
6.005685241449996
 31
0.0
  0
LINE
  5
1C8
  8
0
  6
CONTINUOUS
 62
     7
 10
85.21218711665
 20
6.005685241449996
 30
0.0
 11
85.23910725865
 21
6.000614858649996
 31
0.0
  0
LINE
  5
1C9
  8
0
  6
CONTINUOUS
 62
     7
 10
85.23910725865
 20
6.000614858649996
 30
0.0
 11
85.26607905514999
 21
5.995965200349985
 31
0.0
  0
LINE
  5
1CA
  8
0
  6
CONTINUOUS
 62
     7
 10
85.26607905514999
 20
5.995965200349985
 30
0.0
 11
85.29310681084999
 21
5.991771326949987
 31
0.0
  0
LINE
  5
1CB
  8
0
  6
CONTINUOUS
 62
     7
 10
85.29310681084999
 20
5.991771326949987
 30
0.0
 11
85.32019483024999
 21
5.988068298949983
 31
0.0
  0
LINE
  5
1CC
  8
0
  6
CONTINUOUS
 62
     7
 10
85.32019483024999
 20
5.988068298949983
 30
0.0
 11
85.34734741795
 21
5.984891176549993
 31
0.0
  0
LINE
  5
1CD
  8
0
  6
CONTINUOUS
 62
     7
 10
85.34734741795
 20
5.984891176549993
 30
0.0
 11
85.37456887835
 21
5.982275020149984
 31
0.0
  0
LINE
  5
1CE
  8
0
  6
CONTINUOUS
 62
     7
 10
85.37456887835
 20
5.982275020149984
 30
0.0
 11
85.40186351615
 21
5.980254890249995
 31
0.0
  0
LINE
  5
1CF
  8
0
  6
CONTINUOUS
 62
     7
 10
85.40186351615
 20
5.980254890249995
 30
0.0
 11
85.42923298365
 21
5.978859961849992
 31
0.0
  0
LINE
  5
1D0
  8
0
  6
CONTINUOUS
 62
     7
 10
85.42923298365
 20
5.978859961849992
 30
0.0
 11
85.45666579895001
 21
5.978090265449993
 31
0.0
  0
LINE
  5
1D1
  8
0
  6
CONTINUOUS
 62
     7
 10
85.45666579895001
 20
5.978090265449993
 30
0.0
 11
85.48414642214999
 21
5.977936826749996
 31
0.0
  0
LINE
  5
1D2
  8
0
  6
CONTINUOUS
 62
     7
 10
85.48414642214999
 20
5.977936826749996
 30
0.0
 11
85.51165931185
 21
5.978390668249986
 31
0.0
  0
LINE
  5
1D3
  8
0
  6
CONTINUOUS
 62
     7
 10
85.51165931185
 20
5.978390668249986
 30
0.0
 11
85.53918892715001
 21
5.979442813049985
 31
0.0
  0
LINE
  5
1D4
  8
0
  6
CONTINUOUS
 62
     7
 10
85.53918892715001
 20
5.979442813049985
 30
0.0
 11
85.56671972654999
 21
5.981084283849995
 31
0.0
  0
LINE
  5
1D5
  8
0
  6
CONTINUOUS
 62
     7
 10
85.56671972654999
 20
5.981084283849995
 30
0.0
 11
85.59423616915001
 21
5.983306103549992
 31
0.0
  0
LINE
  5
1D6
  8
0
  6
CONTINUOUS
 62
     7
 10
85.59423616915001
 20
5.983306103549992
 30
0.0
 11
85.62172271345
 21
5.986099294949994
 31
0.0
  0
LINE
  5
1D7
  8
0
  6
CONTINUOUS
 62
     7
 10
85.62172271345
 20
5.986099294949994
 30
0.0
 11
85.64916381845
 21
5.989454880749989
 31
0.0
  0
LINE
  5
1D8
  8
0
  6
CONTINUOUS
 62
     7
 10
85.64916381845
 20
5.989454880749989
 30
0.0
 11
85.67654394285
 21
5.993363883949996
 31
0.0
  0
LINE
  5
1D9
  8
0
  6
CONTINUOUS
 62
     7
 10
85.67654394285
 20
5.993363883949996
 30
0.0
 11
85.70384754554999
 21
5.997817327149988
 31
0.0
  0
LINE
  5
1DA
  8
0
  6
CONTINUOUS
 62
     7
 10
85.70384754554999
 20
5.997817327149988
 30
0.0
 11
85.73105908525
 21
6.00280623354999
 31
0.0
  0
LINE
  5
1DB
  8
0
  6
CONTINUOUS
 62
     7
 10
85.73105908525
 20
6.00280623354999
 30
0.0
 11
85.75816302084999
 21
6.008321625749986
 31
0.0
  0
LINE
  5
1DC
  8
0
  6
CONTINUOUS
 62
     7
 10
85.75816302084999
 20
6.008321625749986
 30
0.0
 11
85.78514381094999
 21
6.014354526549994
 31
0.0
  0
LINE
  5
1DD
  8
0
  6
CONTINUOUS
 62
     7
 10
85.78514381094999
 20
6.014354526549994
 30
0.0
 11
85.81198591465
 21
6.020895958749989
 31
0.0
  0
LINE
  5
1DE
  8
0
  6
CONTINUOUS
 62
     7
 10
85.81198591465
 20
6.020895958749989
 30
0.0
 11
85.83867379054999
 21
6.027936945349992
 31
0.0
  0
LINE
  5
1DF
  8
0
  6
CONTINUOUS
 62
     7
 10
85.83867379054999
 20
6.027936945349992
 30
0.0
 11
85.86519189744999
 21
6.03546850894999
 31
0.0
  0
LINE
  5
1E0
  8
0
  6
CONTINUOUS
 62
     7
 10
85.86519189744999
 20
6.03546850894999
 30
0.0
 11
85.89152469415001
 21
6.043481672649989
 31
0.0
  0
LINE
  5
1E1
  8
0
  6
CONTINUOUS
 62
     7
 10
85.89152469415001
 20
6.043481672649989
 30
0.0
 11
85.91765996724999
 21
6.051961933749993
 31
0.0
  0
LINE
  5
1E2
  8
0
  6
CONTINUOUS
 62
     7
 10
85.91765996724999
 20
6.051961933749993
 30
0.0
 11
85.94362631364999
 21
6.060827027749994
 31
0.0
  0
LINE
  5
1E3
  8
0
  6
CONTINUOUS
 62
     7
 10
85.94362631364999
 20
6.060827027749994
 30
0.0
 11
85.96947970504999
 21
6.069949236949995
 31
0.0
  0
LINE
  5
1E4
  8
0
  6
CONTINUOUS
 62
     7
 10
85.96947970504999
 20
6.069949236949995
 30
0.0
 11
85.99527661894999
 21
6.079200003549985
 31
0.0
  0
LINE
  5
1E5
  8
0
  6
CONTINUOUS
 62
     7
 10
88.41824365745
 20
6.079200003549985
 30
0.0
 11
88.44487969925001
 21
6.071815635849987
 31
0.0
  0
LINE
  5
1E6
  8
0
  6
CONTINUOUS
 62
     7
 10
88.44487969925001
 20
6.071815635849987
 30
0.0
 11
88.47152004545
 21
6.064466328449996
 31
0.0
  0
LINE
  5
1E7
  8
0
  6
CONTINUOUS
 62
     7
 10
88.47152004545
 20
6.064466328449996
 30
0.0
 11
88.49816900075001
 21
6.057187141849994
 31
0.0
  0
LINE
  5
1E8
  8
0
  6
CONTINUOUS
 62
     7
 10
88.49816900075001
 20
6.057187141849994
 30
0.0
 11
88.52483086965
 21
6.050013136349989
 31
0.0
  0
LINE
  5
1E9
  8
0
  6
CONTINUOUS
 62
     7
 10
88.52483086965
 20
6.050013136349989
 30
0.0
 11
88.55150995675001
 21
6.04297937234999
 31
0.0
  0
LINE
  5
1EA
  8
0
  6
CONTINUOUS
 62
     7
 10
88.55150995675001
 20
6.04297937234999
 30
0.0
 11
88.57821056665
 21
6.03612091014999
 31
0.0
  0
LINE
  5
1EB
  8
0
  6
CONTINUOUS
 62
     7
 10
88.57821056665
 20
6.03612091014999
 30
0.0
 11
88.60493700385001
 21
6.029472810449988
 31
0.0
  0
LINE
  5
1EC
  8
0
  6
CONTINUOUS
 62
     7
 10
88.60493700385001
 20
6.029472810449988
 30
0.0
 11
88.63169357295001
 21
6.023070133249988
 31
0.0
  0
LINE
  5
1ED
  8
0
  6
CONTINUOUS
 62
     7
 10
88.63169357295001
 20
6.023070133249988
 30
0.0
 11
88.65848457835
 21
6.016947939149986
 31
0.0
  0
LINE
  5
1EE
  8
0
  6
CONTINUOUS
 62
     7
 10
88.65848457835
 20
6.016947939149986
 30
0.0
 11
88.68531432475001
 21
6.011141288249988
 31
0.0
  0
LINE
  5
1EF
  8
0
  6
CONTINUOUS
 62
     7
 10
88.68531432475001
 20
6.011141288249988
 30
0.0
 11
88.71218711665
 21
6.005685241449996
 31
0.0
  0
LINE
  5
1F0
  8
0
  6
CONTINUOUS
 62
     7
 10
88.71218711665
 20
6.005685241449996
 30
0.0
 11
88.73910725865
 21
6.000614858649996
 31
0.0
  0
LINE
  5
1F1
  8
0
  6
CONTINUOUS
 62
     7
 10
88.73910725865
 20
6.000614858649996
 30
0.0
 11
88.76607905514999
 21
5.995965200349985
 31
0.0
  0
LINE
  5
1F2
  8
0
  6
CONTINUOUS
 62
     7
 10
88.76607905514999
 20
5.995965200349985
 30
0.0
 11
88.79310681084999
 21
5.991771326949987
 31
0.0
  0
LINE
  5
1F3
  8
0
  6
CONTINUOUS
 62
     7
 10
88.79310681084999
 20
5.991771326949987
 30
0.0
 11
88.82019483024999
 21
5.988068298949983
 31
0.0
  0
LINE
  5
1F4
  8
0
  6
CONTINUOUS
 62
     7
 10
88.82019483024999
 20
5.988068298949983
 30
0.0
 11
88.84734741795
 21
5.984891176549993
 31
0.0
  0
LINE
  5
1F5
  8
0
  6
CONTINUOUS
 62
     7
 10
88.84734741795
 20
5.984891176549993
 30
0.0
 11
88.87456887835
 21
5.982275020149984
 31
0.0
  0
LINE
  5
1F6
  8
0
  6
CONTINUOUS
 62
     7
 10
88.87456887835
 20
5.982275020149984
 30
0.0
 11
88.90186351615
 21
5.980254890249995
 31
0.0
  0
LINE
  5
1F7
  8
0
  6
CONTINUOUS
 62
     7
 10
88.90186351615
 20
5.980254890249995
 30
0.0
 11
88.92923298365
 21
5.978859961849992
 31
0.0
  0
LINE
  5
1F8
  8
0
  6
CONTINUOUS
 62
     7
 10
88.92923298365
 20
5.978859961849992
 30
0.0
 11
88.95666579895001
 21
5.978090265449993
 31
0.0
  0
LINE
  5
1F9
  8
0
  6
CONTINUOUS
 62
     7
 10
88.95666579895001
 20
5.978090265449993
 30
0.0
 11
88.98414642214999
 21
5.977936826749996
 31
0.0
  0
LINE
  5
1FA
  8
0
  6
CONTINUOUS
 62
     7
 10
88.98414642214999
 20
5.977936826749996
 30
0.0
 11
89.01165931185
 21
5.978390668249986
 31
0.0
  0
LINE
  5
1FB
  8
0
  6
CONTINUOUS
 62
     7
 10
89.01165931185
 20
5.978390668249986
 30
0.0
 11
89.03918892715001
 21
5.979442813049985
 31
0.0
  0
LINE
  5
1FC
  8
0
  6
CONTINUOUS
 62
     7
 10
89.03918892715001
 20
5.979442813049985
 30
0.0
 11
89.06671972654999
 21
5.981084283849995
 31
0.0
  0
LINE
  5
1FD
  8
0
  6
CONTINUOUS
 62
     7
 10
89.06671972654999
 20
5.981084283849995
 30
0.0
 11
89.09423616915001
 21
5.983306103549992
 31
0.0
  0
LINE
  5
1FE
  8
0
  6
CONTINUOUS
 62
     7
 10
89.09423616915001
 20
5.983306103549992
 30
0.0
 11
89.12172271345
 21
5.986099294949994
 31
0.0
  0
LINE
  5
1FF
  8
0
  6
CONTINUOUS
 62
     7
 10
89.12172271345
 20
5.986099294949994
 30
0.0
 11
89.14916381845
 21
5.989454880749989
 31
0.0
  0
LINE
  5
200
  8
0
  6
CONTINUOUS
 62
     7
 10
89.14916381845
 20
5.989454880749989
 30
0.0
 11
89.17654394285
 21
5.993363883949996
 31
0.0
  0
LINE
  5
201
  8
0
  6
CONTINUOUS
 62
     7
 10
89.17654394285
 20
5.993363883949996
 30
0.0
 11
89.20384754554999
 21
5.997817327149988
 31
0.0
  0
LINE
  5
202
  8
0
  6
CONTINUOUS
 62
     7
 10
89.20384754554999
 20
5.997817327149988
 30
0.0
 11
89.23105908525
 21
6.00280623354999
 31
0.0
  0
LINE
  5
203
  8
0
  6
CONTINUOUS
 62
     7
 10
89.23105908525
 20
6.00280623354999
 30
0.0
 11
89.25816302084999
 21
6.008321625749986
 31
0.0
  0
LINE
  5
204
  8
0
  6
CONTINUOUS
 62
     7
 10
89.25816302084999
 20
6.008321625749986
 30
0.0
 11
89.28514381094999
 21
6.014354526549994
 31
0.0
  0
LINE
  5
205
  8
0
  6
CONTINUOUS
 62
     7
 10
89.28514381094999
 20
6.014354526549994
 30
0.0
 11
89.31198591465
 21
6.020895958749989
 31
0.0
  0
LINE
  5
206
  8
0
  6
CONTINUOUS
 62
     7
 10
89.31198591465
 20
6.020895958749989
 30
0.0
 11
89.33867379054999
 21
6.027936945349992
 31
0.0
  0
LINE
  5
207
  8
0
  6
CONTINUOUS
 62
     7
 10
89.33867379054999
 20
6.027936945349992
 30
0.0
 11
89.36519189744999
 21
6.03546850894999
 31
0.0
  0
LINE
  5
208
  8
0
  6
CONTINUOUS
 62
     7
 10
89.36519189744999
 20
6.03546850894999
 30
0.0
 11
89.39152469415001
 21
6.043481672649989
 31
0.0
  0
LINE
  5
209
  8
0
  6
CONTINUOUS
 62
     7
 10
89.39152469415001
 20
6.043481672649989
 30
0.0
 11
89.41765996724999
 21
6.051961933749993
 31
0.0
  0
LINE
  5
20A
  8
0
  6
CONTINUOUS
 62
     7
 10
89.41765996724999
 20
6.051961933749993
 30
0.0
 11
89.44362631364999
 21
6.060827027749994
 31
0.0
  0
LINE
  5
20B
  8
0
  6
CONTINUOUS
 62
     7
 10
89.44362631364999
 20
6.060827027749994
 30
0.0
 11
89.46947970504999
 21
6.069949236949995
 31
0.0
  0
LINE
  5
20C
  8
0
  6
CONTINUOUS
 62
     7
 10
89.46947970504999
 20
6.069949236949995
 30
0.0
 11
89.49527661894999
 21
6.079200003549985
 31
0.0
  0
LINE
  5
20D
  8
0
  6
CONTINUOUS
 62
     7
 10
91.91824365745
 20
6.079200003549985
 30
0.0
 11
91.94487969925001
 21
6.071815635849987
 31
0.0
  0
LINE
  5
20E
  8
0
  6
CONTINUOUS
 62
     7
 10
91.94487969925001
 20
6.071815635849987
 30
0.0
 11
91.97152004545
 21
6.064466328449996
 31
0.0
  0
LINE
  5
20F
  8
0
  6
CONTINUOUS
 62
     7
 10
91.97152004545
 20
6.064466328449996
 30
0.0
 11
91.99816900075001
 21
6.057187141849994
 31
0.0
  0
LINE
  5
210
  8
0
  6
CONTINUOUS
 62
     7
 10
91.99816900075001
 20
6.057187141849994
 30
0.0
 11
92.02483086965
 21
6.050013136349989
 31
0.0
  0
LINE
  5
211
  8
0
  6
CONTINUOUS
 62
     7
 10
92.02483086965
 20
6.050013136349989
 30
0.0
 11
92.05150995675001
 21
6.04297937234999
 31
0.0
  0
LINE
  5
212
  8
0
  6
CONTINUOUS
 62
     7
 10
92.05150995675001
 20
6.04297937234999
 30
0.0
 11
92.07821056665
 21
6.03612091014999
 31
0.0
  0
LINE
  5
213
  8
0
  6
CONTINUOUS
 62
     7
 10
92.07821056665
 20
6.03612091014999
 30
0.0
 11
92.10493700385001
 21
6.029472810449988
 31
0.0
  0
LINE
  5
214
  8
0
  6
CONTINUOUS
 62
     7
 10
92.10493700385001
 20
6.029472810449988
 30
0.0
 11
92.13169357295001
 21
6.023070133249988
 31
0.0
  0
LINE
  5
215
  8
0
  6
CONTINUOUS
 62
     7
 10
92.13169357295001
 20
6.023070133249988
 30
0.0
 11
92.15848457835
 21
6.016947939149986
 31
0.0
  0
LINE
  5
216
  8
0
  6
CONTINUOUS
 62
     7
 10
92.15848457835
 20
6.016947939149986
 30
0.0
 11
92.18531432475001
 21
6.011141288249988
 31
0.0
  0
LINE
  5
217
  8
0
  6
CONTINUOUS
 62
     7
 10
92.18531432475001
 20
6.011141288249988
 30
0.0
 11
92.21218711665
 21
6.005685241449996
 31
0.0
  0
LINE
  5
218
  8
0
  6
CONTINUOUS
 62
     7
 10
92.21218711665
 20
6.005685241449996
 30
0.0
 11
92.23910725865
 21
6.000614858649996
 31
0.0
  0
LINE
  5
219
  8
0
  6
CONTINUOUS
 62
     7
 10
92.23910725865
 20
6.000614858649996
 30
0.0
 11
92.26607905514999
 21
5.995965200349985
 31
0.0
  0
LINE
  5
21A
  8
0
  6
CONTINUOUS
 62
     7
 10
92.26607905514999
 20
5.995965200349985
 30
0.0
 11
92.29310681084999
 21
5.991771326949987
 31
0.0
  0
LINE
  5
21B
  8
0
  6
CONTINUOUS
 62
     7
 10
92.29310681084999
 20
5.991771326949987
 30
0.0
 11
92.32019483024999
 21
5.988068298949983
 31
0.0
  0
LINE
  5
21C
  8
0
  6
CONTINUOUS
 62
     7
 10
92.32019483024999
 20
5.988068298949983
 30
0.0
 11
92.34734741795
 21
5.984891176549993
 31
0.0
  0
LINE
  5
21D
  8
0
  6
CONTINUOUS
 62
     7
 10
92.34734741795
 20
5.984891176549993
 30
0.0
 11
92.37456887835
 21
5.982275020149984
 31
0.0
  0
LINE
  5
21E
  8
0
  6
CONTINUOUS
 62
     7
 10
92.37456887835
 20
5.982275020149984
 30
0.0
 11
92.40186351615
 21
5.980254890249995
 31
0.0
  0
LINE
  5
21F
  8
0
  6
CONTINUOUS
 62
     7
 10
92.40186351615
 20
5.980254890249995
 30
0.0
 11
92.42923298365
 21
5.978859961849992
 31
0.0
  0
LINE
  5
220
  8
0
  6
CONTINUOUS
 62
     7
 10
92.42923298365
 20
5.978859961849992
 30
0.0
 11
92.45666579895001
 21
5.978090265449993
 31
0.0
  0
LINE
  5
221
  8
0
  6
CONTINUOUS
 62
     7
 10
92.45666579895001
 20
5.978090265449993
 30
0.0
 11
92.48414642214999
 21
5.977936826749996
 31
0.0
  0
LINE
  5
222
  8
0
  6
CONTINUOUS
 62
     7
 10
92.48414642214999
 20
5.977936826749996
 30
0.0
 11
92.51165931185
 21
5.978390668249986
 31
0.0
  0
LINE
  5
223
  8
0
  6
CONTINUOUS
 62
     7
 10
92.51165931185
 20
5.978390668249986
 30
0.0
 11
92.53918892715001
 21
5.979442813049985
 31
0.0
  0
LINE
  5
224
  8
0
  6
CONTINUOUS
 62
     7
 10
92.53918892715001
 20
5.979442813049985
 30
0.0
 11
92.56671972654999
 21
5.981084283849995
 31
0.0
  0
LINE
  5
225
  8
0
  6
CONTINUOUS
 62
     7
 10
92.56671972654999
 20
5.981084283849995
 30
0.0
 11
92.59423616915001
 21
5.983306103549992
 31
0.0
  0
LINE
  5
226
  8
0
  6
CONTINUOUS
 62
     7
 10
92.59423616915001
 20
5.983306103549992
 30
0.0
 11
92.62172271345
 21
5.986099294949994
 31
0.0
  0
LINE
  5
227
  8
0
  6
CONTINUOUS
 62
     7
 10
92.62172271345
 20
5.986099294949994
 30
0.0
 11
92.64916381845
 21
5.989454880749989
 31
0.0
  0
LINE
  5
228
  8
0
  6
CONTINUOUS
 62
     7
 10
92.64916381845
 20
5.989454880749989
 30
0.0
 11
92.67654394285
 21
5.993363883949996
 31
0.0
  0
LINE
  5
229
  8
0
  6
CONTINUOUS
 62
     7
 10
92.67654394285
 20
5.993363883949996
 30
0.0
 11
92.70384754554999
 21
5.997817327149988
 31
0.0
  0
LINE
  5
22A
  8
0
  6
CONTINUOUS
 62
     7
 10
92.70384754554999
 20
5.997817327149988
 30
0.0
 11
92.73105908525
 21
6.00280623354999
 31
0.0
  0
LINE
  5
22B
  8
0
  6
CONTINUOUS
 62
     7
 10
92.73105908525
 20
6.00280623354999
 30
0.0
 11
92.75816302084999
 21
6.008321625749986
 31
0.0
  0
LINE
  5
22C
  8
0
  6
CONTINUOUS
 62
     7
 10
92.75816302084999
 20
6.008321625749986
 30
0.0
 11
92.78514381094999
 21
6.014354526549994
 31
0.0
  0
LINE
  5
22D
  8
0
  6
CONTINUOUS
 62
     7
 10
92.78514381094999
 20
6.014354526549994
 30
0.0
 11
92.81198591465
 21
6.020895958749989
 31
0.0
  0
LINE
  5
22E
  8
0
  6
CONTINUOUS
 62
     7
 10
92.81198591465
 20
6.020895958749989
 30
0.0
 11
92.83867379054999
 21
6.027936945349992
 31
0.0
  0
LINE
  5
22F
  8
0
  6
CONTINUOUS
 62
     7
 10
92.83867379054999
 20
6.027936945349992
 30
0.0
 11
92.86519189744999
 21
6.03546850894999
 31
0.0
  0
LINE
  5
230
  8
0
  6
CONTINUOUS
 62
     7
 10
92.86519189744999
 20
6.03546850894999
 30
0.0
 11
92.89152469415001
 21
6.043481672649989
 31
0.0
  0
LINE
  5
231
  8
0
  6
CONTINUOUS
 62
     7
 10
92.89152469415001
 20
6.043481672649989
 30
0.0
 11
92.91765996724999
 21
6.051961933749993
 31
0.0
  0
LINE
  5
232
  8
0
  6
CONTINUOUS
 62
     7
 10
92.91765996724999
 20
6.051961933749993
 30
0.0
 11
92.94362631364999
 21
6.060827027749994
 31
0.0
  0
LINE
  5
233
  8
0
  6
CONTINUOUS
 62
     7
 10
92.94362631364999
 20
6.060827027749994
 30
0.0
 11
92.96947970504999
 21
6.069949236949995
 31
0.0
  0
LINE
  5
234
  8
0
  6
CONTINUOUS
 62
     7
 10
92.96947970504999
 20
6.069949236949995
 30
0.0
 11
92.99527661894999
 21
6.079200003549985
 31
0.0
  0
LINE
  5
235
  8
0
  6
CONTINUOUS
 62
     7
 10
95.41824365745
 20
6.079200003549985
 30
0.0
 11
95.44487969925001
 21
6.071815635849987
 31
0.0
  0
LINE
  5
236
  8
0
  6
CONTINUOUS
 62
     7
 10
95.44487969925001
 20
6.071815635849987
 30
0.0
 11
95.47152004545
 21
6.064466328449996
 31
0.0
  0
LINE
  5
237
  8
0
  6
CONTINUOUS
 62
     7
 10
95.47152004545
 20
6.064466328449996
 30
0.0
 11
95.49816900075001
 21
6.057187141849994
 31
0.0
  0
LINE
  5
238
  8
0
  6
CONTINUOUS
 62
     7
 10
95.49816900075001
 20
6.057187141849994
 30
0.0
 11
95.52483086965
 21
6.050013136349989
 31
0.0
  0
LINE
  5
239
  8
0
  6
CONTINUOUS
 62
     7
 10
95.52483086965
 20
6.050013136349989
 30
0.0
 11
95.55150995675001
 21
6.04297937234999
 31
0.0
  0
LINE
  5
23A
  8
0
  6
CONTINUOUS
 62
     7
 10
95.55150995675001
 20
6.04297937234999
 30
0.0
 11
95.57821056665
 21
6.03612091014999
 31
0.0
  0
LINE
  5
23B
  8
0
  6
CONTINUOUS
 62
     7
 10
95.57821056665
 20
6.03612091014999
 30
0.0
 11
95.60493700385001
 21
6.029472810449988
 31
0.0
  0
LINE
  5
23C
  8
0
  6
CONTINUOUS
 62
     7
 10
95.60493700385001
 20
6.029472810449988
 30
0.0
 11
95.63169357295001
 21
6.023070133249988
 31
0.0
  0
LINE
  5
23D
  8
0
  6
CONTINUOUS
 62
     7
 10
95.63169357295001
 20
6.023070133249988
 30
0.0
 11
95.65848457835
 21
6.016947939149986
 31
0.0
  0
LINE
  5
23E
  8
0
  6
CONTINUOUS
 62
     7
 10
95.65848457835
 20
6.016947939149986
 30
0.0
 11
95.68531432475001
 21
6.011141288249988
 31
0.0
  0
LINE
  5
23F
  8
0
  6
CONTINUOUS
 62
     7
 10
95.68531432475001
 20
6.011141288249988
 30
0.0
 11
95.71218711665
 21
6.005685241449996
 31
0.0
  0
LINE
  5
240
  8
0
  6
CONTINUOUS
 62
     7
 10
95.71218711665
 20
6.005685241449996
 30
0.0
 11
95.73910725865
 21
6.000614858649996
 31
0.0
  0
LINE
  5
241
  8
0
  6
CONTINUOUS
 62
     7
 10
95.73910725865
 20
6.000614858649996
 30
0.0
 11
95.76607905514999
 21
5.995965200349985
 31
0.0
  0
LINE
  5
242
  8
0
  6
CONTINUOUS
 62
     7
 10
95.76607905514999
 20
5.995965200349985
 30
0.0
 11
95.79310681084999
 21
5.991771326949987
 31
0.0
  0
LINE
  5
243
  8
0
  6
CONTINUOUS
 62
     7
 10
95.79310681084999
 20
5.991771326949987
 30
0.0
 11
95.82019483024999
 21
5.988068298949983
 31
0.0
  0
LINE
  5
244
  8
0
  6
CONTINUOUS
 62
     7
 10
95.82019483024999
 20
5.988068298949983
 30
0.0
 11
95.84734741795
 21
5.984891176549993
 31
0.0
  0
LINE
  5
245
  8
0
  6
CONTINUOUS
 62
     7
 10
95.84734741795
 20
5.984891176549993
 30
0.0
 11
95.87456887835
 21
5.982275020149984
 31
0.0
  0
LINE
  5
246
  8
0
  6
CONTINUOUS
 62
     7
 10
95.87456887835
 20
5.982275020149984
 30
0.0
 11
95.90186351615
 21
5.980254890249995
 31
0.0
  0
LINE
  5
247
  8
0
  6
CONTINUOUS
 62
     7
 10
95.90186351615
 20
5.980254890249995
 30
0.0
 11
95.92923298365
 21
5.978859961849992
 31
0.0
  0
LINE
  5
248
  8
0
  6
CONTINUOUS
 62
     7
 10
95.92923298365
 20
5.978859961849992
 30
0.0
 11
95.95666579895001
 21
5.978090265449993
 31
0.0
  0
LINE
  5
249
  8
0
  6
CONTINUOUS
 62
     7
 10
95.95666579895001
 20
5.978090265449993
 30
0.0
 11
95.98414642214999
 21
5.977936826749996
 31
0.0
  0
LINE
  5
24A
  8
0
  6
CONTINUOUS
 62
     7
 10
95.98414642214999
 20
5.977936826749996
 30
0.0
 11
96.01165931185
 21
5.978390668249986
 31
0.0
  0
LINE
  5
24B
  8
0
  6
CONTINUOUS
 62
     7
 10
96.01165931185
 20
5.978390668249986
 30
0.0
 11
96.03918892715001
 21
5.979442813049985
 31
0.0
  0
LINE
  5
24C
  8
0
  6
CONTINUOUS
 62
     7
 10
96.03918892715001
 20
5.979442813049985
 30
0.0
 11
96.06671972654999
 21
5.981084283849995
 31
0.0
  0
LINE
  5
24D
  8
0
  6
CONTINUOUS
 62
     7
 10
96.06671972654999
 20
5.981084283849995
 30
0.0
 11
96.09423616915001
 21
5.983306103549992
 31
0.0
  0
LINE
  5
24E
  8
0
  6
CONTINUOUS
 62
     7
 10
96.09423616915001
 20
5.983306103549992
 30
0.0
 11
96.12172271345
 21
5.986099294949994
 31
0.0
  0
LINE
  5
24F
  8
0
  6
CONTINUOUS
 62
     7
 10
96.12172271345
 20
5.986099294949994
 30
0.0
 11
96.14916381845
 21
5.989454880749989
 31
0.0
  0
LINE
  5
250
  8
0
  6
CONTINUOUS
 62
     7
 10
96.14916381845
 20
5.989454880749989
 30
0.0
 11
96.17654394285
 21
5.993363883949996
 31
0.0
  0
LINE
  5
251
  8
0
  6
CONTINUOUS
 62
     7
 10
96.17654394285
 20
5.993363883949996
 30
0.0
 11
96.20384754554999
 21
5.997817327149988
 31
0.0
  0
LINE
  5
252
  8
0
  6
CONTINUOUS
 62
     7
 10
96.20384754554999
 20
5.997817327149988
 30
0.0
 11
96.23105908525
 21
6.00280623354999
 31
0.0
  0
LINE
  5
253
  8
0
  6
CONTINUOUS
 62
     7
 10
96.23105908525
 20
6.00280623354999
 30
0.0
 11
96.25816302084999
 21
6.008321625749986
 31
0.0
  0
LINE
  5
254
  8
0
  6
CONTINUOUS
 62
     7
 10
96.25816302084999
 20
6.008321625749986
 30
0.0
 11
96.28514381094999
 21
6.014354526549994
 31
0.0
  0
LINE
  5
255
  8
0
  6
CONTINUOUS
 62
     7
 10
96.28514381094999
 20
6.014354526549994
 30
0.0
 11
96.31198591465
 21
6.020895958749989
 31
0.0
  0
LINE
  5
256
  8
0
  6
CONTINUOUS
 62
     7
 10
96.31198591465
 20
6.020895958749989
 30
0.0
 11
96.33867379054999
 21
6.027936945349992
 31
0.0
  0
LINE
  5
257
  8
0
  6
CONTINUOUS
 62
     7
 10
96.33867379054999
 20
6.027936945349992
 30
0.0
 11
96.36519189744999
 21
6.03546850894999
 31
0.0
  0
LINE
  5
258
  8
0
  6
CONTINUOUS
 62
     7
 10
96.36519189744999
 20
6.03546850894999
 30
0.0
 11
96.39152469415001
 21
6.043481672649989
 31
0.0
  0
LINE
  5
259
  8
0
  6
CONTINUOUS
 62
     7
 10
96.39152469415001
 20
6.043481672649989
 30
0.0
 11
96.41765996724999
 21
6.051961933749993
 31
0.0
  0
LINE
  5
25A
  8
0
  6
CONTINUOUS
 62
     7
 10
96.41765996724999
 20
6.051961933749993
 30
0.0
 11
96.44362631364999
 21
6.060827027749994
 31
0.0
  0
LINE
  5
25B
  8
0
  6
CONTINUOUS
 62
     7
 10
96.44362631364999
 20
6.060827027749994
 30
0.0
 11
96.46947970504999
 21
6.069949236949995
 31
0.0
  0
LINE
  5
25C
  8
0
  6
CONTINUOUS
 62
     7
 10
96.46947970504999
 20
6.069949236949995
 30
0.0
 11
96.49527661894999
 21
6.079200003549985
 31
0.0
  0
LINE
  5
25D
  8
0
  6
CONTINUOUS
 62
     7
 10
98.91824365745
 20
6.079200003549985
 30
0.0
 11
98.94487969925001
 21
6.071815635849987
 31
0.0
  0
LINE
  5
25E
  8
0
  6
CONTINUOUS
 62
     7
 10
98.94487969925001
 20
6.071815635849987
 30
0.0
 11
98.97152004545
 21
6.064466328449996
 31
0.0
  0
LINE
  5
25F
  8
0
  6
CONTINUOUS
 62
     7
 10
98.97152004545
 20
6.064466328449996
 30
0.0
 11
98.99816900075001
 21
6.057187141849994
 31
0.0
  0
LINE
  5
260
  8
0
  6
CONTINUOUS
 62
     7
 10
98.99816900075001
 20
6.057187141849994
 30
0.0
 11
99.02483086965
 21
6.050013136349989
 31
0.0
  0
LINE
  5
261
  8
0
  6
CONTINUOUS
 62
     7
 10
99.02483086965
 20
6.050013136349989
 30
0.0
 11
99.05150995675001
 21
6.04297937234999
 31
0.0
  0
LINE
  5
262
  8
0
  6
CONTINUOUS
 62
     7
 10
99.05150995675001
 20
6.04297937234999
 30
0.0
 11
99.07821056665
 21
6.03612091014999
 31
0.0
  0
LINE
  5
263
  8
0
  6
CONTINUOUS
 62
     7
 10
99.07821056665
 20
6.03612091014999
 30
0.0
 11
99.10493700385001
 21
6.029472810449988
 31
0.0
  0
LINE
  5
264
  8
0
  6
CONTINUOUS
 62
     7
 10
99.10493700385001
 20
6.029472810449988
 30
0.0
 11
99.13169357295001
 21
6.023070133249988
 31
0.0
  0
LINE
  5
265
  8
0
  6
CONTINUOUS
 62
     7
 10
99.13169357295001
 20
6.023070133249988
 30
0.0
 11
99.15848457835
 21
6.016947939149986
 31
0.0
  0
LINE
  5
266
  8
0
  6
CONTINUOUS
 62
     7
 10
99.15848457835
 20
6.016947939149986
 30
0.0
 11
99.18531432475001
 21
6.011141288249988
 31
0.0
  0
LINE
  5
267
  8
0
  6
CONTINUOUS
 62
     7
 10
99.18531432475001
 20
6.011141288249988
 30
0.0
 11
99.21218711665
 21
6.005685241449996
 31
0.0
  0
LINE
  5
268
  8
0
  6
CONTINUOUS
 62
     7
 10
99.21218711665
 20
6.005685241449996
 30
0.0
 11
99.23910725865
 21
6.000614858649996
 31
0.0
  0
LINE
  5
269
  8
0
  6
CONTINUOUS
 62
     7
 10
99.23910725865
 20
6.000614858649996
 30
0.0
 11
99.26607905514999
 21
5.995965200349985
 31
0.0
  0
LINE
  5
26A
  8
0
  6
CONTINUOUS
 62
     7
 10
99.26607905514999
 20
5.995965200349985
 30
0.0
 11
99.29310681084999
 21
5.991771326949987
 31
0.0
  0
LINE
  5
26B
  8
0
  6
CONTINUOUS
 62
     7
 10
99.29310681084999
 20
5.991771326949987
 30
0.0
 11
99.32019483024999
 21
5.988068298949983
 31
0.0
  0
LINE
  5
26C
  8
0
  6
CONTINUOUS
 62
     7
 10
99.32019483024999
 20
5.988068298949983
 30
0.0
 11
99.34734741795
 21
5.984891176549993
 31
0.0
  0
LINE
  5
26D
  8
0
  6
CONTINUOUS
 62
     7
 10
99.34734741795
 20
5.984891176549993
 30
0.0
 11
99.37456887835
 21
5.982275020149984
 31
0.0
  0
LINE
  5
26E
  8
0
  6
CONTINUOUS
 62
     7
 10
99.37456887835
 20
5.982275020149984
 30
0.0
 11
99.40186351615
 21
5.980254890249995
 31
0.0
  0
LINE
  5
26F
  8
0
  6
CONTINUOUS
 62
     7
 10
99.40186351615
 20
5.980254890249995
 30
0.0
 11
99.42923298365
 21
5.978859961849992
 31
0.0
  0
LINE
  5
270
  8
0
  6
CONTINUOUS
 62
     7
 10
99.42923298365
 20
5.978859961849992
 30
0.0
 11
99.45666579895001
 21
5.978090265449993
 31
0.0
  0
LINE
  5
271
  8
0
  6
CONTINUOUS
 62
     7
 10
99.45666579895001
 20
5.978090265449993
 30
0.0
 11
99.48414642214999
 21
5.977936826749996
 31
0.0
  0
LINE
  5
272
  8
0
  6
CONTINUOUS
 62
     7
 10
99.48414642214999
 20
5.977936826749996
 30
0.0
 11
99.51165931185
 21
5.978390668249986
 31
0.0
  0
LINE
  5
273
  8
0
  6
CONTINUOUS
 62
     7
 10
99.51165931185
 20
5.978390668249986
 30
0.0
 11
99.53918892715001
 21
5.979442813049985
 31
0.0
  0
LINE
  5
274
  8
0
  6
CONTINUOUS
 62
     7
 10
99.53918892715001
 20
5.979442813049985
 30
0.0
 11
99.56671972654999
 21
5.981084283849995
 31
0.0
  0
LINE
  5
275
  8
0
  6
CONTINUOUS
 62
     7
 10
99.56671972654999
 20
5.981084283849995
 30
0.0
 11
99.59423616915001
 21
5.983306103549992
 31
0.0
  0
LINE
  5
276
  8
0
  6
CONTINUOUS
 62
     7
 10
99.59423616915001
 20
5.983306103549992
 30
0.0
 11
99.62172271345
 21
5.986099294949994
 31
0.0
  0
LINE
  5
277
  8
0
  6
CONTINUOUS
 62
     7
 10
99.62172271345
 20
5.986099294949994
 30
0.0
 11
99.64916381845
 21
5.989454880749989
 31
0.0
  0
LINE
  5
278
  8
0
  6
CONTINUOUS
 62
     7
 10
99.64916381845
 20
5.989454880749989
 30
0.0
 11
99.67654394285
 21
5.993363883949996
 31
0.0
  0
LINE
  5
279
  8
0
  6
CONTINUOUS
 62
     7
 10
99.67654394285
 20
5.993363883949996
 30
0.0
 11
99.70384754554999
 21
5.997817327149988
 31
0.0
  0
LINE
  5
27A
  8
0
  6
CONTINUOUS
 62
     7
 10
99.70384754554999
 20
5.997817327149988
 30
0.0
 11
99.73105908525
 21
6.00280623354999
 31
0.0
  0
LINE
  5
27B
  8
0
  6
CONTINUOUS
 62
     7
 10
99.73105908525
 20
6.00280623354999
 30
0.0
 11
99.75816302084999
 21
6.008321625749986
 31
0.0
  0
LINE
  5
27C
  8
0
  6
CONTINUOUS
 62
     7
 10
99.75816302084999
 20
6.008321625749986
 30
0.0
 11
99.78514381094999
 21
6.014354526549994
 31
0.0
  0
LINE
  5
27D
  8
0
  6
CONTINUOUS
 62
     7
 10
99.78514381094999
 20
6.014354526549994
 30
0.0
 11
99.81198591465
 21
6.020895958749989
 31
0.0
  0
LINE
  5
27E
  8
0
  6
CONTINUOUS
 62
     7
 10
99.81198591465
 20
6.020895958749989
 30
0.0
 11
99.83867379054999
 21
6.027936945349992
 31
0.0
  0
LINE
  5
27F
  8
0
  6
CONTINUOUS
 62
     7
 10
99.83867379054999
 20
6.027936945349992
 30
0.0
 11
99.86519189744999
 21
6.03546850894999
 31
0.0
  0
LINE
  5
280
  8
0
  6
CONTINUOUS
 62
     7
 10
99.86519189744999
 20
6.03546850894999
 30
0.0
 11
99.89152469415001
 21
6.043481672649989
 31
0.0
  0
LINE
  5
281
  8
0
  6
CONTINUOUS
 62
     7
 10
99.89152469415001
 20
6.043481672649989
 30
0.0
 11
99.91765996724999
 21
6.051961933749993
 31
0.0
  0
LINE
  5
282
  8
0
  6
CONTINUOUS
 62
     7
 10
99.91765996724999
 20
6.051961933749993
 30
0.0
 11
99.94362631364999
 21
6.060827027749994
 31
0.0
  0
LINE
  5
283
  8
0
  6
CONTINUOUS
 62
     7
 10
99.94362631364999
 20
6.060827027749994
 30
0.0
 11
99.96947970504999
 21
6.069949236949995
 31
0.0
  0
LINE
  5
284
  8
0
  6
CONTINUOUS
 62
     7
 10
99.96947970504999
 20
6.069949236949995
 30
0.0
 11
99.99527661894999
 21
6.079200003549985
 31
0.0
  0
LINE
  5
285
  8
0
  6
CONTINUOUS
 62
     7
 10
102.41824365745
 20
6.079200003549985
 30
0.0
 11
102.44487969925
 21
6.071815635849987
 31
0.0
  0
LINE
  5
286
  8
0
  6
CONTINUOUS
 62
     7
 10
102.44487969925
 20
6.071815635849987
 30
0.0
 11
102.47152004535
 21
6.064466328449996
 31
0.0
  0
LINE
  5
287
  8
0
  6
CONTINUOUS
 62
     7
 10
102.47152004535
 20
6.064466328449996
 30
0.0
 11
102.49816900075
 21
6.057187141849994
 31
0.0
  0
LINE
  5
288
  8
0
  6
CONTINUOUS
 62
     7
 10
102.49816900075
 20
6.057187141849994
 30
0.0
 11
102.52483086965
 21
6.050013136349989
 31
0.0
  0
LINE
  5
289
  8
0
  6
CONTINUOUS
 62
     7
 10
102.52483086965
 20
6.050013136349989
 30
0.0
 11
102.55150995675
 21
6.04297937234999
 31
0.0
  0
LINE
  5
28A
  8
0
  6
CONTINUOUS
 62
     7
 10
102.55150995675
 20
6.04297937234999
 30
0.0
 11
102.57821056665
 21
6.03612091014999
 31
0.0
  0
LINE
  5
28B
  8
0
  6
CONTINUOUS
 62
     7
 10
102.57821056665
 20
6.03612091014999
 30
0.0
 11
102.60493700385
 21
6.029472810449988
 31
0.0
  0
LINE
  5
28C
  8
0
  6
CONTINUOUS
 62
     7
 10
102.60493700385
 20
6.029472810449988
 30
0.0
 11
102.63169357295
 21
6.023070133249988
 31
0.0
  0
LINE
  5
28D
  8
0
  6
CONTINUOUS
 62
     7
 10
102.63169357295
 20
6.023070133249988
 30
0.0
 11
102.65848457835
 21
6.016947939149986
 31
0.0
  0
LINE
  5
28E
  8
0
  6
CONTINUOUS
 62
     7
 10
102.65848457835
 20
6.016947939149986
 30
0.0
 11
102.68531432475
 21
6.011141288249988
 31
0.0
  0
LINE
  5
28F
  8
0
  6
CONTINUOUS
 62
     7
 10
102.68531432475
 20
6.011141288249988
 30
0.0
 11
102.71218711665
 21
6.005685241449996
 31
0.0
  0
LINE
  5
290
  8
0
  6
CONTINUOUS
 62
     7
 10
102.71218711665
 20
6.005685241449996
 30
0.0
 11
102.73910725865
 21
6.000614858649996
 31
0.0
  0
LINE
  5
291
  8
0
  6
CONTINUOUS
 62
     7
 10
102.73910725865
 20
6.000614858649996
 30
0.0
 11
102.76607905515
 21
5.995965200349985
 31
0.0
  0
LINE
  5
292
  8
0
  6
CONTINUOUS
 62
     7
 10
102.76607905515
 20
5.995965200349985
 30
0.0
 11
102.79310681085
 21
5.991771326949987
 31
0.0
  0
LINE
  5
293
  8
0
  6
CONTINUOUS
 62
     7
 10
102.79310681085
 20
5.991771326949987
 30
0.0
 11
102.82019483025
 21
5.988068298949983
 31
0.0
  0
LINE
  5
294
  8
0
  6
CONTINUOUS
 62
     7
 10
102.82019483025
 20
5.988068298949983
 30
0.0
 11
102.84734741795
 21
5.984891176549993
 31
0.0
  0
LINE
  5
295
  8
0
  6
CONTINUOUS
 62
     7
 10
102.84734741795
 20
5.984891176549993
 30
0.0
 11
102.87456887835
 21
5.982275020149984
 31
0.0
  0
LINE
  5
296
  8
0
  6
CONTINUOUS
 62
     7
 10
102.87456887835
 20
5.982275020149984
 30
0.0
 11
102.90186351615
 21
5.980254890249995
 31
0.0
  0
LINE
  5
297
  8
0
  6
CONTINUOUS
 62
     7
 10
102.90186351615
 20
5.980254890249995
 30
0.0
 11
102.92923298355
 21
5.978859961849992
 31
0.0
  0
LINE
  5
298
  8
0
  6
CONTINUOUS
 62
     7
 10
102.92923298355
 20
5.978859961849992
 30
0.0
 11
102.95666579895
 21
5.978090265449993
 31
0.0
  0
LINE
  5
299
  8
0
  6
CONTINUOUS
 62
     7
 10
102.95666579895
 20
5.978090265449993
 30
0.0
 11
102.98414642215
 21
5.977936826749996
 31
0.0
  0
LINE
  5
29A
  8
0
  6
CONTINUOUS
 62
     7
 10
102.98414642215
 20
5.977936826749996
 30
0.0
 11
103.01165931185
 21
5.978390668249986
 31
0.0
  0
LINE
  5
29B
  8
0
  6
CONTINUOUS
 62
     7
 10
103.01165931185
 20
5.978390668249986
 30
0.0
 11
103.03918892715
 21
5.979442813049985
 31
0.0
  0
LINE
  5
29C
  8
0
  6
CONTINUOUS
 62
     7
 10
103.03918892715
 20
5.979442813049985
 30
0.0
 11
103.06671972655
 21
5.981084283849995
 31
0.0
  0
LINE
  5
29D
  8
0
  6
CONTINUOUS
 62
     7
 10
103.06671972655
 20
5.981084283849995
 30
0.0
 11
103.09423616915
 21
5.983306103549992
 31
0.0
  0
LINE
  5
29E
  8
0
  6
CONTINUOUS
 62
     7
 10
103.09423616915
 20
5.983306103549992
 30
0.0
 11
103.12172271345
 21
5.986099294949994
 31
0.0
  0
LINE
  5
29F
  8
0
  6
CONTINUOUS
 62
     7
 10
103.12172271345
 20
5.986099294949994
 30
0.0
 11
103.14916381835
 21
5.989454880749989
 31
0.0
  0
LINE
  5
2A0
  8
0
  6
CONTINUOUS
 62
     7
 10
103.14916381835
 20
5.989454880749989
 30
0.0
 11
103.17654394285
 21
5.993363883949996
 31
0.0
  0
LINE
  5
2A1
  8
0
  6
CONTINUOUS
 62
     7
 10
103.17654394285
 20
5.993363883949996
 30
0.0
 11
103.20384754555
 21
5.997817327149988
 31
0.0
  0
LINE
  5
2A2
  8
0
  6
CONTINUOUS
 62
     7
 10
103.20384754555
 20
5.997817327149988
 30
0.0
 11
103.23105908525
 21
6.00280623354999
 31
0.0
  0
LINE
  5
2A3
  8
0
  6
CONTINUOUS
 62
     7
 10
103.23105908525
 20
6.00280623354999
 30
0.0
 11
103.25816302085
 21
6.008321625749986
 31
0.0
  0
LINE
  5
2A4
  8
0
  6
CONTINUOUS
 62
     7
 10
103.25816302085
 20
6.008321625749986
 30
0.0
 11
103.28514381095
 21
6.014354526549994
 31
0.0
  0
LINE
  5
2A5
  8
0
  6
CONTINUOUS
 62
     7
 10
103.28514381095
 20
6.014354526549994
 30
0.0
 11
103.31198591465
 21
6.020895958749989
 31
0.0
  0
LINE
  5
2A6
  8
0
  6
CONTINUOUS
 62
     7
 10
103.31198591465
 20
6.020895958749989
 30
0.0
 11
103.33867379055
 21
6.027936945349992
 31
0.0
  0
LINE
  5
2A7
  8
0
  6
CONTINUOUS
 62
     7
 10
103.33867379055
 20
6.027936945349992
 30
0.0
 11
103.36519189735
 21
6.03546850894999
 31
0.0
  0
LINE
  5
2A8
  8
0
  6
CONTINUOUS
 62
     7
 10
103.36519189735
 20
6.03546850894999
 30
0.0
 11
103.39152469415
 21
6.043481672649989
 31
0.0
  0
LINE
  5
2A9
  8
0
  6
CONTINUOUS
 62
     7
 10
103.39152469415
 20
6.043481672649989
 30
0.0
 11
103.41765996725
 21
6.051961933749993
 31
0.0
  0
LINE
  5
2AA
  8
0
  6
CONTINUOUS
 62
     7
 10
103.41765996725
 20
6.051961933749993
 30
0.0
 11
103.44362631365
 21
6.060827027749994
 31
0.0
  0
LINE
  5
2AB
  8
0
  6
CONTINUOUS
 62
     7
 10
103.44362631365
 20
6.060827027749994
 30
0.0
 11
103.46947970505
 21
6.069949236949995
 31
0.0
  0
LINE
  5
2AC
  8
0
  6
CONTINUOUS
 62
     7
 10
103.46947970505
 20
6.069949236949995
 30
0.0
 11
103.49527661885
 21
6.079200003549985
 31
0.0
  0
LINE
  5
2AD
  8
0
  6
CONTINUOUS
 62
     7
 10
105.91824365745
 20
6.079200003549985
 30
0.0
 11
105.94487969925
 21
6.071815635849987
 31
0.0
  0
LINE
  5
2AE
  8
0
  6
CONTINUOUS
 62
     7
 10
105.94487969925
 20
6.071815635849987
 30
0.0
 11
105.97152004535
 21
6.064466328449996
 31
0.0
  0
LINE
  5
2AF
  8
0
  6
CONTINUOUS
 62
     7
 10
105.97152004535
 20
6.064466328449996
 30
0.0
 11
105.99816900075
 21
6.057187141849994
 31
0.0
  0
LINE
  5
2B0
  8
0
  6
CONTINUOUS
 62
     7
 10
105.99816900075
 20
6.057187141849994
 30
0.0
 11
106.02483086965
 21
6.050013136349989
 31
0.0
  0
LINE
  5
2B1
  8
0
  6
CONTINUOUS
 62
     7
 10
106.02483086965
 20
6.050013136349989
 30
0.0
 11
106.05150995675
 21
6.04297937234999
 31
0.0
  0
LINE
  5
2B2
  8
0
  6
CONTINUOUS
 62
     7
 10
106.05150995675
 20
6.04297937234999
 30
0.0
 11
106.07821056665
 21
6.03612091014999
 31
0.0
  0
LINE
  5
2B3
  8
0
  6
CONTINUOUS
 62
     7
 10
106.07821056665
 20
6.03612091014999
 30
0.0
 11
106.10493700385
 21
6.029472810449988
 31
0.0
  0
LINE
  5
2B4
  8
0
  6
CONTINUOUS
 62
     7
 10
106.10493700385
 20
6.029472810449988
 30
0.0
 11
106.13169357295
 21
6.023070133249988
 31
0.0
  0
LINE
  5
2B5
  8
0
  6
CONTINUOUS
 62
     7
 10
106.13169357295
 20
6.023070133249988
 30
0.0
 11
106.15848457835
 21
6.016947939149986
 31
0.0
  0
LINE
  5
2B6
  8
0
  6
CONTINUOUS
 62
     7
 10
106.15848457835
 20
6.016947939149986
 30
0.0
 11
106.18531432475
 21
6.011141288249988
 31
0.0
  0
LINE
  5
2B7
  8
0
  6
CONTINUOUS
 62
     7
 10
106.18531432475
 20
6.011141288249988
 30
0.0
 11
106.21218711665
 21
6.005685241449996
 31
0.0
  0
LINE
  5
2B8
  8
0
  6
CONTINUOUS
 62
     7
 10
106.21218711665
 20
6.005685241449996
 30
0.0
 11
106.23910725865
 21
6.000614858649996
 31
0.0
  0
LINE
  5
2B9
  8
0
  6
CONTINUOUS
 62
     7
 10
106.23910725865
 20
6.000614858649996
 30
0.0
 11
106.26607905515
 21
5.995965200349985
 31
0.0
  0
LINE
  5
2BA
  8
0
  6
CONTINUOUS
 62
     7
 10
106.26607905515
 20
5.995965200349985
 30
0.0
 11
106.29310681085
 21
5.991771326949987
 31
0.0
  0
LINE
  5
2BB
  8
0
  6
CONTINUOUS
 62
     7
 10
106.29310681085
 20
5.991771326949987
 30
0.0
 11
106.32019483025
 21
5.988068298949983
 31
0.0
  0
LINE
  5
2BC
  8
0
  6
CONTINUOUS
 62
     7
 10
106.32019483025
 20
5.988068298949983
 30
0.0
 11
106.34734741795
 21
5.984891176549993
 31
0.0
  0
LINE
  5
2BD
  8
0
  6
CONTINUOUS
 62
     7
 10
106.34734741795
 20
5.984891176549993
 30
0.0
 11
106.37456887835
 21
5.982275020149984
 31
0.0
  0
LINE
  5
2BE
  8
0
  6
CONTINUOUS
 62
     7
 10
106.37456887835
 20
5.982275020149984
 30
0.0
 11
106.40186351615
 21
5.980254890249995
 31
0.0
  0
LINE
  5
2BF
  8
0
  6
CONTINUOUS
 62
     7
 10
106.40186351615
 20
5.980254890249995
 30
0.0
 11
106.42923298355
 21
5.978859961849992
 31
0.0
  0
LINE
  5
2C0
  8
0
  6
CONTINUOUS
 62
     7
 10
106.42923298355
 20
5.978859961849992
 30
0.0
 11
106.45666579895
 21
5.978090265449993
 31
0.0
  0
LINE
  5
2C1
  8
0
  6
CONTINUOUS
 62
     7
 10
106.45666579895
 20
5.978090265449993
 30
0.0
 11
106.48414642215
 21
5.977936826749996
 31
0.0
  0
LINE
  5
2C2
  8
0
  6
CONTINUOUS
 62
     7
 10
106.48414642215
 20
5.977936826749996
 30
0.0
 11
106.51165931185
 21
5.978390668249986
 31
0.0
  0
LINE
  5
2C3
  8
0
  6
CONTINUOUS
 62
     7
 10
106.51165931185
 20
5.978390668249986
 30
0.0
 11
106.53918892715
 21
5.979442813049985
 31
0.0
  0
LINE
  5
2C4
  8
0
  6
CONTINUOUS
 62
     7
 10
106.53918892715
 20
5.979442813049985
 30
0.0
 11
106.56671972655
 21
5.981084283849995
 31
0.0
  0
LINE
  5
2C5
  8
0
  6
CONTINUOUS
 62
     7
 10
106.56671972655
 20
5.981084283849995
 30
0.0
 11
106.59423616915
 21
5.983306103549992
 31
0.0
  0
LINE
  5
2C6
  8
0
  6
CONTINUOUS
 62
     7
 10
106.59423616915
 20
5.983306103549992
 30
0.0
 11
106.62172271345
 21
5.986099294949994
 31
0.0
  0
LINE
  5
2C7
  8
0
  6
CONTINUOUS
 62
     7
 10
106.62172271345
 20
5.986099294949994
 30
0.0
 11
106.64916381845
 21
5.989454880749989
 31
0.0
  0
LINE
  5
2C8
  8
0
  6
CONTINUOUS
 62
     7
 10
106.64916381845
 20
5.989454880749989
 30
0.0
 11
106.67654394285
 21
5.993363883949996
 31
0.0
  0
LINE
  5
2C9
  8
0
  6
CONTINUOUS
 62
     7
 10
106.67654394285
 20
5.993363883949996
 30
0.0
 11
106.70384754555
 21
5.997817327149988
 31
0.0
  0
LINE
  5
2CA
  8
0
  6
CONTINUOUS
 62
     7
 10
106.70384754555
 20
5.997817327149988
 30
0.0
 11
106.73105908525
 21
6.00280623354999
 31
0.0
  0
LINE
  5
2CB
  8
0
  6
CONTINUOUS
 62
     7
 10
106.73105908525
 20
6.00280623354999
 30
0.0
 11
106.75816302085
 21
6.008321625749986
 31
0.0
  0
LINE
  5
2CC
  8
0
  6
CONTINUOUS
 62
     7
 10
106.75816302085
 20
6.008321625749986
 30
0.0
 11
106.78514381095
 21
6.014354526549994
 31
0.0
  0
LINE
  5
2CD
  8
0
  6
CONTINUOUS
 62
     7
 10
106.78514381095
 20
6.014354526549994
 30
0.0
 11
106.81198591465
 21
6.020895958749989
 31
0.0
  0
LINE
  5
2CE
  8
0
  6
CONTINUOUS
 62
     7
 10
106.81198591465
 20
6.020895958749989
 30
0.0
 11
106.83867379055
 21
6.027936945349992
 31
0.0
  0
LINE
  5
2CF
  8
0
  6
CONTINUOUS
 62
     7
 10
106.83867379055
 20
6.027936945349992
 30
0.0
 11
106.86519189735
 21
6.03546850894999
 31
0.0
  0
LINE
  5
2D0
  8
0
  6
CONTINUOUS
 62
     7
 10
106.86519189735
 20
6.03546850894999
 30
0.0
 11
106.89152469415
 21
6.043481672649989
 31
0.0
  0
LINE
  5
2D1
  8
0
  6
CONTINUOUS
 62
     7
 10
106.89152469415
 20
6.043481672649989
 30
0.0
 11
106.91765996725
 21
6.051961933749993
 31
0.0
  0
LINE
  5
2D2
  8
0
  6
CONTINUOUS
 62
     7
 10
106.91765996725
 20
6.051961933749993
 30
0.0
 11
106.94362631365
 21
6.060827027749994
 31
0.0
  0
LINE
  5
2D3
  8
0
  6
CONTINUOUS
 62
     7
 10
106.94362631365
 20
6.060827027749994
 30
0.0
 11
106.96947970505
 21
6.069949236949995
 31
0.0
  0
LINE
  5
2D4
  8
0
  6
CONTINUOUS
 62
     7
 10
106.96947970505
 20
6.069949236949995
 30
0.0
 11
106.99527661895
 21
6.079200003549985
 31
0.0
  0
ARC
  5
2D5
  8
0
  6
CONTINUOUS
 62
     7
 10
-71.45676013825
 20
18.37920000354998
 30
0.0
 40
0.2999999999999972
 50
0.0
 51
90.0
  0
ARC
  5
2D6
  8
0
  6
CONTINUOUS
 62
     7
 10
-109.95676013815
 20
18.37920000354998
 30
0.0
 40
0.2999999999999972
 50
90.0
 51
180.0
  0
ARC
  5
2D7
  8
0
  6
CONTINUOUS
 62
     7
 10
-109.95676013815
 20
5.979200003449989
 30
0.0
 40
0.2999999999999972
 50
180.0
 51
270.0
  0
ARC
  5
2D8
  8
0
  6
CONTINUOUS
 62
     7
 10
-71.45676013825
 20
5.979200003449989
 30
0.0
 40
0.2999999999999972
 50
270.0
 51
0.0
  0
ARC
  5
2D9
  8
0
  6
CONTINUOUS
 62
     7
 10
-112.70676013815
 20
20.47920000354999
 30
0.0
 40
2.000000000000014
 50
90.0
 51
180.0
  0
ARC
  5
2DA
  8
0
  6
CONTINUOUS
 62
     7
 10
-68.70676013825
 20
20.47920000354999
 30
0.0
 40
2.000000000000014
 50
0.0
 51
90.0
  0
ARC
  5
2DB
  8
0
  6
CONTINUOUS
 62
     7
 10
-112.70676013815
 20
0.4792000034499893
 30
0.0
 40
2.0
 50
180.0
 51
270.0
  0
ARC
  5
2DC
  8
0
  6
CONTINUOUS
 62
     7
 10
-68.70676013825
 20
0.4792000034499893
 30
0.0
 40
2.0
 50
270.0
 51
0.0
  0
ARC
  5
2DD
  8
0
  6
CONTINUOUS
 62
     7
 10
-40.31559794505
 20
21.67920000354999
 30
0.0
 40
0.8000000000000114
 50
90.0
 51
180.0
  0
ARC
  5
2DE
  8
0
  6
CONTINUOUS
 62
     7
 10
-40.31559794505
 20
-0.7207999964500118
 30
0.0
 40
0.8000000000000114
 50
180.0
 51
270.0
  0
ARC
  5
2DF
  8
0
  6
CONTINUOUS
 62
     7
 10
-41.41559794515
 20
3.395440524049988
 30
0.0
 40
0.2999999999999843
 50
0.0
 51
30.63115370559903
  0
ARC
  5
2E0
  8
0
  6
CONTINUOUS
 62
     7
 10
-41.41559794515
 20
20.96295948304999
 30
0.0
 40
0.2999999999999972
 50
329.3688462944
 51
0.0
  0
ARC
  5
2E1
  8
0
  6
CONTINUOUS
 62
     7
 10
-37.71559794514999
 20
5.586330754149984
 30
0.0
 40
3.999999999994756
 50
180.0
 51
210.6311537054
  0
ARC
  5
2E2
  8
0
  6
CONTINUOUS
 62
     7
 10
-37.71559794514999
 20
18.77206925304999
 30
0.0
 40
3.999999999994755
 50
149.3688462945999
 51
180.0
  0
ARC
  5
2E3
  8
0
  6
CONTINUOUS
 62
     7
 10
-35.41559794505
 20
15.17920000354999
 30
0.0
 40
0.2999999999999972
 50
90.0
 51
180.0
  0
ARC
  5
2E4
  8
0
  6
CONTINUOUS
 62
     7
 10
-35.41559794505
 20
5.779200003549988
 30
0.0
 40
0.3000000000000114
 50
180.0
 51
270.0
  0
ARC
  5
2E5
  8
0
  6
CONTINUOUS
 62
     7
 10
-21.01559794505
 20
4.779200003549988
 30
0.0
 40
0.3000000000000114
 50
270.0
 51
0.0
  0
ARC
  5
2E6
  8
0
  6
CONTINUOUS
 62
     7
 10
-21.01559794505
 20
5.179200003549994
 30
0.0
 40
0.2999999999999972
 50
0.0
 51
90.0
  0
ARC
  5
2E7
  8
0
  6
CONTINUOUS
 62
     7
 10
-21.01559794505
 20
15.77920000354999
 30
0.0
 40
0.3000000000000256
 50
270.0
 51
0.0
  0
ARC
  5
2E8
  8
0
  6
CONTINUOUS
 62
     7
 10
-21.01559794505
 20
16.17920000354999
 30
0.0
 40
0.2999999999999972
 50
0.0
 51
90.0
  0
ARC
  5
2E9
  8
0
  6
CONTINUOUS
 62
     7
 10
102.95676013815
 20
7.479200003449989
 30
0.0
 40
1.499999999983653
 50
291.0394697811998
 51
41.81031489580013
  0
ARC
  5
2EA
  8
0
  6
CONTINUOUS
 62
     7
 10
102.95676013815
 20
7.479200003449989
 30
0.0
 40
1.50000000001558
 50
138.1896851042003
 51
248.9605302156005
  0
ARC
  5
2EB
  8
0
  6
CONTINUOUS
 62
     7
 10
99.45676013815
 20
7.479200003449989
 30
0.0
 40
1.49999999998366
 50
291.0394697811998
 51
41.81031489579983
  0
ARC
  5
2EC
  8
0
  6
CONTINUOUS
 62
     7
 10
99.45676013815
 20
7.479200003449989
 30
0.0
 40
1.500000000015567
 50
138.1896851041996
 51
248.9605302156003
  0
ARC
  5
2ED
  8
0
  6
CONTINUOUS
 62
     7
 10
95.95676013815
 20
7.479200003449989
 30
0.0
 40
1.49999999998366
 50
291.0394697811998
 51
41.81031489579983
  0
ARC
  5
2EE
  8
0
  6
CONTINUOUS
 62
     7
 10
95.95676013815
 20
7.479200003449989
 30
0.0
 40
1.500000000015556
 50
138.1896851042
 51
248.9605302156001
  0
ARC
  5
2EF
  8
0
  6
CONTINUOUS
 62
     7
 10
92.45676013815
 20
7.479200003449989
 30
0.0
 40
1.499999999983663
 50
291.0394697811998
 51
41.81031489579983
  0
ARC
  5
2F0
  8
0
  6
CONTINUOUS
 62
     7
 10
92.45676013815
 20
7.479200003449989
 30
0.0
 40
1.50000000001558
 50
138.1896851042003
 51
248.9605302156005
  0
ARC
  5
2F1
  8
0
  6
CONTINUOUS
 62
     7
 10
88.95676013815
 20
7.479200003449989
 30
0.0
 40
1.499999999983646
 50
291.0394697812001
 51
41.81031489580013
  0
ARC
  5
2F2
  8
0
  6
CONTINUOUS
 62
     7
 10
88.95676013815
 20
7.479200003449989
 30
0.0
 40
1.500000000015562
 50
138.1896851042
 51
248.9605302156003
  0
ARC
  5
2F3
  8
0
  6
CONTINUOUS
 62
     7
 10
85.45676013815
 20
7.479200003449989
 30
0.0
 40
1.499999999983646
 50
291.0394697812001
 51
41.81031489580013
  0
ARC
  5
2F4
  8
0
  6
CONTINUOUS
 62
     7
 10
85.45676013815
 20
7.479200003449989
 30
0.0
 40
1.500000000015562
 50
138.1896851042
 51
248.9605302156003
  0
ARC
  5
2F5
  8
0
  6
CONTINUOUS
 62
     7
 10
81.95676013815
 20
7.479200003449989
 30
0.0
 40
1.49999999998366
 50
291.0394697811998
 51
41.81031489579983
  0
ARC
  5
2F6
  8
0
  6
CONTINUOUS
 62
     7
 10
81.95676013815
 20
7.479200003449989
 30
0.0
 40
1.500000000015543
 50
138.1896851042
 51
248.9605302155999
  0
ARC
  5
2F7
  8
0
  6
CONTINUOUS
 62
     7
 10
78.45676013815
 20
7.479200003449989
 30
0.0
 40
1.499999999983657
 50
291.0394697811998
 51
41.81031489579983
  0
ARC
  5
2F8
  8
0
  6
CONTINUOUS
 62
     7
 10
78.45676013815
 20
7.479200003449989
 30
0.0
 40
1.500000000015562
 50
138.1896851042
 51
248.9605302156003
  0
ARC
  5
2F9
  8
0
  6
CONTINUOUS
 62
     7
 10
74.95676013815
 20
7.479200003449989
 30
0.0
 40
1.49999999998366
 50
291.0394697811998
 51
41.81031489579983
  0
ARC
  5
2FA
  8
0
  6
CONTINUOUS
 62
     7
 10
74.95676013815
 20
7.479200003449989
 30
0.0
 40
1.500000000015562
 50
138.1896851042
 51
248.9605302156003
  0
ARC
  5
2FB
  8
0
  6
CONTINUOUS
 62
     7
 10
106.45676013815
 20
7.479200003449989
 30
0.0
 40
1.499999999983669
 50
291.0394697811996
 51
41.81031489579983
  0
ARC
  5
2FC
  8
0
  6
CONTINUOUS
 62
     7
 10
106.45676013815
 20
7.479200003449989
 30
0.0
 40
1.500000000015573
 50
138.1896851042003
 51
248.9605302156003
  0
ARC
  5
2FD
  8
0
  6
CONTINUOUS
 62
     7
 10
106.45676013815
 20
7.479200003449989
 30
0.0
 40
1.500000000000014
 50
90.0
 51
131.8103148958
  0
ARC
  5
2FE
  8
0
  6
CONTINUOUS
 62
     7
 10
106.45676013815
 20
7.479200003449989
 30
0.0
 40
1.500000000000015
 50
48.1896851042
 51
90.0
  0
ARC
  5
2FF
  8
0
  6
CONTINUOUS
 62
     7
 10
102.95676013815
 20
7.479200003449989
 30
0.0
 40
1.500000000000112
 50
48.18968510420019
 51
90.0
  0
ARC
  5
300
  8
0
  6
CONTINUOUS
 62
     7
 10
102.95676013815
 20
7.479200003449989
 30
0.0
 40
1.500000000000085
 50
90.0
 51
131.8103148958002
  0
ARC
  5
301
  8
0
  6
CONTINUOUS
 62
     7
 10
99.45676013815
 20
7.479200003449989
 30
0.0
 40
1.500000000000028
 50
48.18968510420037
 51
90.0
  0
ARC
  5
302
  8
0
  6
CONTINUOUS
 62
     7
 10
99.45676013815
 20
7.479200003449989
 30
0.0
 40
1.500000000000028
 50
90.0
 51
131.8103148957996
  0
ARC
  5
303
  8
0
  6
CONTINUOUS
 62
     7
 10
95.95676013815
 20
7.479200003449989
 30
0.0
 40
1.500000000000053
 50
48.18968510419991
 51
90.0
  0
ARC
  5
304
  8
0
  6
CONTINUOUS
 62
     7
 10
95.95676013815
 20
7.479200003449989
 30
0.0
 40
1.500000000000043
 50
90.0
 51
131.8103148958001
  0
ARC
  5
305
  8
0
  6
CONTINUOUS
 62
     7
 10
92.45676013815
 20
7.479200003449989
 30
0.0
 40
1.500000000000028
 50
48.18968510420037
 51
90.0
  0
ARC
  5
306
  8
0
  6
CONTINUOUS
 62
     7
 10
92.45676013815
 20
7.479200003449989
 30
0.0
 40
1.500000000000042
 50
90.0
 51
131.8103148958001
  0
ARC
  5
307
  8
0
  6
CONTINUOUS
 62
     7
 10
88.95676013815
 20
7.479200003449989
 30
0.0
 40
1.500000000000057
 50
48.18968510419991
 51
90.0
  0
ARC
  5
308
  8
0
  6
CONTINUOUS
 62
     7
 10
88.95676013815
 20
7.479200003449989
 30
0.0
 40
1.500000000000057
 50
90.0
 51
131.8103148958001
  0
ARC
  5
309
  8
0
  6
CONTINUOUS
 62
     7
 10
85.45676013815
 20
7.479200003449989
 30
0.0
 40
1.500000000000043
 50
48.18968510419991
 51
90.0
  0
ARC
  5
30A
  8
0
  6
CONTINUOUS
 62
     7
 10
85.45676013815
 20
7.479200003449989
 30
0.0
 40
1.500000000000043
 50
90.0
 51
131.8103148958001
  0
ARC
  5
30B
  8
0
  6
CONTINUOUS
 62
     7
 10
81.95676013815
 20
7.479200003449989
 30
0.0
 40
1.500000000000028
 50
90.0
 51
131.8103148957996
  0
ARC
  5
30C
  8
0
  6
CONTINUOUS
 62
     7
 10
81.95676013815
 20
7.479200003449989
 30
0.0
 40
1.500000000000042
 50
48.18968510419991
 51
90.0
  0
ARC
  5
30D
  8
0
  6
CONTINUOUS
 62
     7
 10
78.45676013815
 20
7.479200003449989
 30
0.0
 40
1.500000000000028
 50
90.0
 51
131.8103148957996
  0
ARC
  5
30E
  8
0
  6
CONTINUOUS
 62
     7
 10
78.45676013815
 20
7.479200003449989
 30
0.0
 40
1.500000000000028
 50
48.18968510420037
 51
90.0
  0
ARC
  5
30F
  8
0
  6
CONTINUOUS
 62
     7
 10
74.95676013815
 20
7.479200003449989
 30
0.0
 40
1.500000000000064
 50
48.18968510420027
 51
90.0
  0
ARC
  5
310
  8
0
  6
CONTINUOUS
 62
     7
 10
74.95676013815
 20
7.479200003449989
 30
0.0
 40
1.500000000000043
 50
90.0
 51
131.8103148958001
  0
ARC
  5
311
  8
0
  6
CONTINUOUS
 62
     7
 10
72.65676013825001
 20
4.779200003549988
 30
0.0
 40
0.3000000000000114
 50
180.0
 51
270.0
  0
ARC
  5
312
  8
0
  6
CONTINUOUS
 62
     7
 10
108.75676013825
 20
4.779200003549988
 30
0.0
 40
0.3000000000000114
 50
270.0
 51
0.0
  0
ARC
  5
313
  8
0
  6
CONTINUOUS
 62
     7
 10
108.75676013825
 20
12.37920000354998
 30
0.0
 40
0.3000000000000114
 50
0.0
 51
90.0
  0
ARC
  5
314
  8
0
  6
CONTINUOUS
 62
     7
 10
72.65676013825001
 20
12.37920000354998
 30
0.0
 40
0.2999999999999972
 50
90.0
 51
180.0
  0
ARC
  5
315
  8
0
  6
CONTINUOUS
 62
     7
 10
112.20676013815
 20
0.3792000035499825
 30
0.0
 40
1.0
 50
270.0
 51
0.0
  0
ARC
  5
316
  8
0
  6
CONTINUOUS
 62
     7
 10
112.20676013815
 20
20.57920000354999
 30
0.0
 40
1.0
 50
0.0
 51
90.0
  0
ARC
  5
317
  8
0
  6
CONTINUOUS
 62
     7
 10
69.20676013824999
 20
0.3792000035499825
 30
0.0
 40
1.0
 50
180.0
 51
270.0
  0
ARC
  5
318
  8
0
  6
CONTINUOUS
 62
     7
 10
69.20676013824999
 20
20.57920000354999
 30
0.0
 40
1.0
 50
90.0
 51
180.0
  0
ARC
  5
319
  8
0
  6
CONTINUOUS
 62
     7
 10
68.70676013824999
 20
0.4792000034499893
 30
0.0
 40
2.0
 50
180.0
 51
270.0
  0
ARC
  5
31A
  8
0
  6
CONTINUOUS
 62
     7
 10
112.70676013815
 20
0.4792000034499893
 30
0.0
 40
2.0
 50
270.0
 51
0.0
  0
ARC
  5
31B
  8
0
  6
CONTINUOUS
 62
     7
 10
68.70676013824999
 20
20.47920000354999
 30
0.0
 40
2.000000000000014
 50
90.0
 51
180.0
  0
ARC
  5
31C
  8
0
  6
CONTINUOUS
 62
     7
 10
112.70676013815
 20
20.47920000354999
 30
0.0
 40
2.000000000000014
 50
0.0
 51
90.0
  0
TEXT
  5
31E
  8
0
 62
     7
 10
102.34623083355
 20
-22.47920000355001
 30
0.0
 40
6.25
  1
000
 41
0.4752631578947368
  7
DCSTYLE0
 72
     5
 11
110.40873083355
 21
-22.47920000355001
 31
0.0
  0
VIEWPORT
  5
B1
 67
     1
  8
0
 10
0.0
 20
0.0
 30
0.0
 40
695.7405608289
 41
134.8752000213
 68
     1
 69
     1
1001
ACAD
1000
MVIEW
1002
{
1070
    16
1010
0.0
1020
0.0
1030
0.0
1010
0.0
1020
0.0
1030
1.0
1040
0.0
1040
134.8752000213
1040
0.0
1040
0.0
1040
50.0
1040
0.0
1040
0.0
1070
     0
1070
   100
1070
     0
1070
     3
1070
     0
1070
     0
1070
     0
1070
     0
1040
0.0
1040
0.0
1040
0.0
1040
0.5
1040
0.5
1040
0.0
1040
0.0
1070
     0
1002
{
1002
}
1002
}
  0
ENDSEC
  0
EOF
