  0
SECTION
  2
HEADER
  9
$ACADVER
  1
AC1009
  9
$DWGCODEPAGE
  3
ansi_932
  9
$INSBASE
 10
0.0
 20
0.0
 30
0.0
  9
$EXTMIN
 10
-374.110712095
 20
-268.4263574700001
 30
0.0
  9
$EXTMAX
 10
370.504137215
 20
268.4263574700001
 30
0.0
  9
$LIMMIN
 10
-148.625
 20
-105.125
  9
$LIMMAX
 10
148.625
 20
105.125
  9
$ORTHOMODE
 70
     0
  9
$REGENMODE
 70
     1
  9
$FILLMODE
 70
     1
  9
$QTEXTMODE
 70
     0
  9
$MIRRTEXT
 70
     1
  9
$DRAGMODE
 70
     2
  9
$LTSCALE
 40
0.0625
  9
$OSMODE
 70
    37
  9
$ATTMODE
 70
     1
  9
$TEXTSIZE
 40
0.2
  9
$TRACEWID
 40
0.05
  9
$TEXTSTYLE
  7
STANDARD
  9
$CLAYER
  8
0
  9
$CELTYPE
  6
BYLAYER
  9
$CECOLOR
 62
   256
  9
$DIMSCALE
 40
1.0
  9
$DIMASZ
 40
0.4500789642333984
  9
$DIMEXO
 40
1.0
  9
$DIMDLI
 40
10.0
  9
$DIMRND
 40
0.0
  9
$DIMDLE
 40
0.0
  9
$DIMEXE
 40
1.0
  9
$DIMTP
 40
0.0
  9
$DIMTM
 40
0.0
  9
$DIMTXT
 40
0.875
  9
$DIMCEN
 40
0.0
  9
$DIMTSZ
 40
0.0
  9
$DIMTOL
 70
     0
  9
$DIMLIM
 70
     0
  9
$DIMTIH
 70
     0
  9
$DIMTOH
 70
     0
  9
$DIMSE1
 70
     0
  9
$DIMSE2
 70
     0
  9
$DIMTAD
 70
     1
  9
$DIMZIN
 70
     8
  9
$DIMBLK
  1

  9
$DIMASO
 70
     1
  9
$DIMSHO
 70
     1
  9
$DIMPOST
  1

  9
$DIMAPOST
  1

  9
$DIMALT
 70
     0
  9
$DIMALTD
 70
     2
  9
$DIMALTF
 40
0.0393700787401575
  9
$DIMLFAC
 40
1.0
  9
$DIMTOFL
 70
     0
  9
$DIMTVP
 40
0.0
  9
$DIMTIX
 70
     0
  9
$DIMSOXD
 70
     0
  9
$DIMSAH
 70
     0
  9
$DIMBLK1
  1

  9
$DIMBLK2
  1

  9
$DIMSTYLE
  2
STANDARD
  9
$DIMCLRD
 70
     0
  9
$DIMCLRE
 70
     0
  9
$DIMCLRT
 70
     0
  9
$DIMTFAC
 40
0.65
  9
$DIMGAP
 40
0.09
  9
$LUNITS
 70
     2
  9
$LUPREC
 70
     4
  9
$SKETCHINC
 40
0.1
  9
$FILLETRAD
 40
0.5
  9
$AUNITS
 70
     0
  9
$AUPREC
 70
     0
  9
$MENU
  1
.
  9
$ELEVATION
 40
0.0
  9
$PELEVATION
 40
0.0
  9
$THICKNESS
 40
0.0
  9
$LIMCHECK
 70
     0
  9
$CHAMFERA
 40
0.0
  9
$CHAMFERB
 40
0.0
  9
$SKPOLY
 70
     0
  9
$TDCREATE
 40
2458925.62131691
  9
$TDUPDATE
 40
2458925.62131934
  9
$TDINDWG
 40
0.0000000116
  9
$TDUSRTIMER
 40
0.0000000116
  9
$USRTIMER
 70
     1
  9
$ANGBASE
 50
0.0
  9
$ANGDIR
 70
     0
  9
$PDMODE
 70
     0
  9
$PDSIZE
 40
1.0
  9
$PLINEWID
 40
0.0
  9
$COORDS
 70
     1
  9
$SPLFRAME
 70
     0
  9
$SPLINETYPE
 70
     6
  9
$SPLINESEGS
 70
     8
  9
$ATTDIA
 70
     0
  9
$ATTREQ
 70
     1
  9
$HANDLING
 70
     1
  9
$HANDSEED
  5
4EB
  9
$SURFTAB1
 70
     6
  9
$SURFTAB2
 70
     6
  9
$SURFTYPE
 70
     6
  9
$SURFU
 70
     6
  9
$SURFV
 70
     6
  9
$UCSNAME
  2

  9
$UCSORG
 10
0.0
 20
0.0
 30
0.0
  9
$UCSXDIR
 10
1.0
 20
0.0
 30
0.0
  9
$UCSYDIR
 10
0.0
 20
1.0
 30
0.0
  9
$PUCSNAME
  2

  9
$PUCSORG
 10
0.0
 20
0.0
 30
0.0
  9
$PUCSXDIR
 10
1.0
 20
0.0
 30
0.0
  9
$PUCSYDIR
 10
0.0
 20
1.0
 30
0.0
  9
$USERI1
 70
     0
  9
$USERI2
 70
     0
  9
$USERI3
 70
     0
  9
$USERI4
 70
     0
  9
$USERI5
 70
     0
  9
$USERR1
 40
0.0
  9
$USERR2
 40
0.0
  9
$USERR3
 40
0.0
  9
$USERR4
 40
0.0
  9
$USERR5
 40
0.0
  9
$WORLDVIEW
 70
     1
  9
$SHADEDGE
 70
     3
  9
$SHADEDIF
 70
    70
  9
$TILEMODE
 70
     1
  9
$MAXACTVP
 70
    64
  9
$PLIMCHECK
 70
     0
  9
$PEXTMIN
 10
1.000000000000000E+20
 20
1.000000000000000E+20
 30
1.000000000000000E+20
  9
$PEXTMAX
 10
-1.000000000000000E+20
 20
-1.000000000000000E+20
 30
-1.000000000000000E+20
  9
$PLIMMIN
 10
0.0
 20
0.0
  9
$PLIMMAX
 10
12.0
 20
9.0
  9
$UNITMODE
 70
     0
  9
$VISRETAIN
 70
     0
  9
$PLINEGEN
 70
     1
  9
$PSLTSCALE
 70
     0
  0
ENDSEC
  0
SECTION
  2
TABLES
  0
TABLE
  2
VPORT
 70
     1
  0
VPORT
  2
*ACTIVE
 70
     0
 10
0.0
 20
0.0
 11
1.0
 21
1.0
 12
0.0
 22
0.0
 13
0.0
 23
0.0
 14
0.5
 24
0.5
 15
0.5
 25
0.5
 16
0.0
 26
0.0
 36
1.0
 17
-0.0000000000000036
 27
0.0
 37
0.0
 40
182.5299230796001
 41
1.40715423975164
 42
50.0
 43
0.0
 44
0.0
 50
0.0
 51
0.0
 71
     0
 72
  1000
 73
     1
 74
     1
 75
     0
 76
     0
 77
     0
 78
     0
  0
ENDTAB
  0
TABLE
  2
LTYPE
 70
    67
  0
LTYPE
  2
CONTINUOUS
 70
     0
  3
Solid line
 72
    65
 73
     0
 40
0.0
  0
LTYPE
  2
HIDDENX2
 70
     0
  3
Hidden (2x) ____ ____ ____ ____ ____ ____ ____ 
 72
    65
 73
     2
 40
19.05
 49
12.7
 49
-6.35
  0
LTYPE
  2
HIDDEN
 70
     0
  3
Hidden __ __ __ __ __ __ __ __ __ __ __ __ __ __
 72
    65
 73
     2
 40
9.524999999999999
 49
6.35
 49
-3.175
  0
LTYPE
  2
HIDDEN2
 70
     0
  3
Hidden (.5x) _ _ _ _ _ _ _ _ _ _ _ _ _ _ _ _ _ 
 72
    65
 73
     2
 40
4.762499999999999
 49
3.175
 49
-1.5875
  0
LTYPE
  2
DASHED
 70
     0
  3
Dashed __ __ __ __ __ __ __ __ __ __ __ __ __ _
 72
    65
 73
     2
 40
19.05
 49
12.7
 49
-6.35
  0
LTYPE
  2
DASHED2
 70
     0
  3
Dashed (.5x) _ _ _ _ _ _ _ _ _ _ _ _ _ _ _ _ _ 
 72
    65
 73
     2
 40
9.524999999999999
 49
6.35
 49
-3.175
  0
LTYPE
  2
DASHEDX2
 70
     0
  3
Dashed (2x) ____  ____  ____  ____  ____  ___
 72
    65
 73
     2
 40
38.09999999999999
 49
25.4
 49
-12.7
  0
LTYPE
  2
DOTX2
 70
     0
  3
Dot (2x) .  .  .  .  .  .  .  .  .  .  .  .  .  .
 72
    65
 73
     2
 40
12.7
 49
0.0
 49
-12.7
  0
LTYPE
  2
DOT
 70
     0
  3
Dot . . . . . . . . . . . . . . . . . . . . . . . .
 72
    65
 73
     2
 40
6.35
 49
0.0
 49
-6.35
  0
LTYPE
  2
DOT2
 70
     0
  3
Dot (.5x) ........................................
 72
    65
 73
     2
 40
3.175
 49
0.0
 49
-3.175
  0
LTYPE
  2
CENTERX2
 70
     0
  3
Center (2x) ________  __  ________  __  _____
 72
    65
 73
     4
 40
101.6
 49
63.5
 49
-12.7
 49
12.7
 49
-12.7
  0
LTYPE
  2
CENTER
 70
     0
  3
Center ____ _ ____ _ ____ _ ____ _ ____ _ ____
 72
    65
 73
     4
 40
50.8
 49
31.75
 49
-6.35
 49
6.35
 49
-6.35
  0
LTYPE
  2
CENTER2
 70
     0
  3
Center (.5x) ___ _ ___ _ ___ _ ___ _ ___ _ ___
 72
    65
 73
     4
 40
28.575
 49
19.05
 49
-3.175
 49
3.175
 49
-3.175
  0
LTYPE
  2
DASHDOTX2
 70
     0
  3
Dash dot (2x) ____  .  ____  .  ____  .  ___
 72
    65
 73
     4
 40
50.8
 49
25.4
 49
-12.7
 49
0.0
 49
-12.7
  0
LTYPE
  2
DASHDOT
 70
     0
  3
Dash dot __ . __ . __ . __ . __ . __ . __ . __
 72
    65
 73
     4
 40
25.4
 49
12.7
 49
-6.35
 49
0.0
 49
-6.35
  0
LTYPE
  2
DASHDOT2
 70
     0
  3
Dash dot (.5x) _._._._._._._._._._._._._._._.
 72
    65
 73
     4
 40
12.7
 49
6.35
 49
-3.175
 49
0.0
 49
-3.175
  0
LTYPE
  2
DIVIDEX2
 70
     0
  3
Divide (2x) ________  .  .  ________  .  .  _
 72
    65
 73
     6
 40
63.5
 49
25.4
 49
-12.7
 49
0.0
 49
-12.7
 49
0.0
 49
-12.7
  0
LTYPE
  2
DIVIDE
 70
     0
  3
Divide ____ . . ____ . . ____ . . ____ . . ____
 72
    65
 73
     6
 40
31.75
 49
12.7
 49
-6.35
 49
0.0
 49
-6.35
 49
0.0
 49
-6.35
  0
LTYPE
  2
DIVIDE2
 70
     0
  3
Divide (.5x) __..__..__..__..__..__..__..__.._
 72
    65
 73
     6
 40
15.875
 49
6.35
 49
-3.175
 49
0.0
 49
-3.175
 49
0.0
 49
-3.175
  0
LTYPE
  2
BORDERX2
 70
     0
  3
Border (2x) ____  ____  .  ____  ____  .  ___
 72
    65
 73
     6
 40
88.89999999999999
 49
25.4
 49
-12.7
 49
25.4
 49
-12.7
 49
0.0
 49
-12.7
  0
LTYPE
  2
BORDER
 70
     0
  3
Border __ __ . __ __ . __ __ . __ __ . __ __ .
 72
    65
 73
     6
 40
44.45
 49
12.7
 49
-6.35
 49
12.7
 49
-6.35
 49
0.0
 49
-6.35
  0
LTYPE
  2
BORDER2
 70
     0
  3
Border (.5x) __.__.__.__.__.__.__.__.__.__.__.
 72
    65
 73
     6
 40
22.225
 49
6.35
 49
-3.175
 49
6.35
 49
-3.175
 49
0.0
 49
-3.175
  0
LTYPE
  2
PHANTOMX2
 70
     0
  3
Phantom (2x) ____________    ____    ____   _
 72
    65
 73
     6
 40
127.0
 49
63.5
 49
-12.7
 49
12.7
 49
-12.7
 49
12.7
 49
-12.7
  0
LTYPE
  2
PHANTOM
 70
     0
  3
Phantom ______  __  __  ______  __  __  ______ 
 72
    65
 73
     6
 40
63.5
 49
31.75
 49
-6.35
 49
6.35
 49
-6.35
 49
6.35
 49
-6.35
  0
LTYPE
  2
PHANTOM2
 70
     0
  3
Phantom (.5x) ___ _ _ ___ _ _ ___ _ _ ___ _ _
 72
    65
 73
     6
 40
31.75
 49
15.875
 49
-3.175
 49
3.175
 49
-3.175
 49
3.175
 49
-3.175
  0
LTYPE
  2
ACAD_ISO06W100
 70
     0
  3
ISO long-dash triple-dot ____ ... ____ ... ____
 72
    65
 73
     8
 40
36.0
 49
24.0
 49
-3.0
 49
0.0
 49
-3.0
 49
0.0
 49
-3.0
 49
0.0
 49
-3.0
  0
LTYPE
  2
ACAD_ISO13W100
 70
     0
  3
ISO double-dash double-dot __ __ . . __ __ . . _
 72
    65
 73
     8
 40
36.0
 49
12.0
 49
-3.0
 49
12.0
 49
-3.0
 49
0.0
 49
-3.0
 49
0.0
 49
-3.0
  0
LTYPE
  2
ACAD_ISO14W100
 70
     0
  3
ISO dash triple-dot __ . . . __ . . . __ . . . _
 72
    65
 73
     8
 40
24.0
 49
12.0
 49
-3.0
 49
0.0
 49
-3.0
 49
0.0
 49
-3.0
 49
0.0
 49
-3.0
  0
LTYPE
  2
ACAD_ISO02W100
 70
     0
  3
ISO dash __ __ __ __ __ __ __ __ __ __ __ __ __
 72
    65
 73
     2
 40
15.0
 49
12.0
 49
-3.0
  0
LTYPE
  2
ACAD_ISO03W100
 70
     0
  3
ISO dash space __    __    __    __    __    __
 72
    65
 73
     2
 40
30.0
 49
12.0
 49
-18.0
  0
LTYPE
  2
ACAD_ISO04W100
 70
     0
  3
ISO long-dash dot ____ . ____ . ____ . ____ . _
 72
    65
 73
     4
 40
30.0
 49
24.0
 49
-3.0
 49
0.0
 49
-3.0
  0
LTYPE
  2
ACAD_ISO05W100
 70
     0
  3
ISO long-dash double-dot ____ .. ____ .. ____ . 
 72
    65
 73
     6
 40
33.0
 49
24.0
 49
-3.0
 49
0.0
 49
-3.0
 49
0.0
 49
-3.0
  0
LTYPE
  2
ACAD_ISO07W100
 70
     0
  3
ISO dot . . . . . . . . . . . . . . . . . . . . 
 72
    65
 73
     2
 40
3.0
 49
0.0
 49
-3.0
  0
LTYPE
  2
ACAD_ISO08W100
 70
     0
  3
ISO long-dash short-dash ____ __ ____ __ ____ _
 72
    65
 73
     4
 40
36.0
 49
24.0
 49
-3.0
 49
6.0
 49
-3.0
  0
LTYPE
  2
ACAD_ISO09W100
 70
     0
  3
ISO long-dash double-short-dash ____ __ __ ____
 72
    65
 73
     6
 40
45.0
 49
24.0
 49
-3.0
 49
6.0
 49
-3.0
 49
6.0
 49
-3.0
  0
LTYPE
  2
ACAD_ISO10W100
 70
     0
  3
ISO dash dot __ . __ . __ . __ . __ . __ . __ . 
 72
    65
 73
     4
 40
18.0
 49
12.0
 49
-3.0
 49
0.0
 49
-3.0
  0
LTYPE
  2
ACAD_ISO11W100
 70
     0
  3
ISO double-dash dot __ __ . __ __ . __ __ . __ _
 72
    65
 73
     6
 40
33.0
 49
12.0
 49
-3.0
 49
12.0
 49
-3.0
 49
0.0
 49
-3.0
  0
LTYPE
  2
ACAD_ISO12W100
 70
     0
  3
ISO dash double-dot __ . . __ . . __ . . __ . . 
 72
    65
 73
     6
 40
21.0
 49
12.0
 49
-3.0
 49
0.0
 49
-3.0
 49
0.0
 49
-3.0
  0
LTYPE
  2
ACAD_ISO15W100
 70
     0
  3
ISO double-dash triple-dot __ __ . . . __ __ . .
 72
    65
 73
    10
 40
39.0
 49
12.0
 49
-3.0
 49
12.0
 49
-3.0
 49
0.0
 49
-3.0
 49
0.0
 49
-3.0
 49
0.0
 49
-3.0
  0
LTYPE
  2
JIS_02_0_7
 70
     0
  3
HIDDEN0.75 _ _ _ _ _ _ _ _ _ _ _ _ _ _ _ _ _ 
 72
    65
 73
     2
 40
1.35
 49
0.75
 49
-0.6
  0
LTYPE
  2
JIS_02_1_0
 70
     0
  3
HIDDEN01 _ _ _ _ _ _ _ _ _ _ _ _ _ _ _ _ _ 
 72
    65
 73
     2
 40
2.0
 49
1.0
 49
-1.0
  0
LTYPE
  2
JIS_02_1_2
 70
     0
  3
HIDDEN01.25  _ _ _ _ _ _ _ _ _ _ _ _ _ _ _ _ _ 
 72
    65
 73
     2
 40
2.5
 49
1.25
 49
-1.25
  0
LTYPE
  2
JIS_02_2_0
 70
     0
  3
HIDDEN02 __ __ __ __ __ __ __ __ __ __ __ 
 72
    65
 73
     2
 40
3.0
 49
2.0
 49
-1.0
  0
LTYPE
  2
JIS_02_4_0
 70
     0
  3
HIDDEN04 ____ ____ ____ ____ ____ ____ ____ 
 72
    65
 73
     2
 40
5.5
 49
4.0
 49
-1.5
  0
LTYPE
  2
JIS_08_11
 70
     0
  3
1SASEN11 ___ _ ___ _ ___ _ ___ _ ___ _ ___
 72
    65
 73
     4
 40
12.8
 49
11.0
 49
-0.6
 49
0.6
 49
-0.6
  0
LTYPE
  2
JIS_08_15
 70
     0
  3
1SASEN15 ____ _ ____ _ ____ _ ____ _ ____ 
 72
    65
 73
     4
 40
17.25
 49
15.0
 49
-0.75
 49
0.75
 49
-0.75
  0
LTYPE
  2
JIS_08_25
 70
     0
  3
1SASEN25 ________  __  ________  __  _____
 72
    65
 73
     4
 40
28.0
 49
25.0
 49
-1.125
 49
0.75
 49
-1.125
  0
LTYPE
  2
JIS_08_37
 70
     0
  3
1SASEN37 ________  __  ________  __  _____
 72
    65
 73
     4
 40
40.5
 49
37.5
 49
-1.125
 49
0.75
 49
-1.125
  0
LTYPE
  2
JIS_08_50
 70
     0
  3
1SASEN50 _______________  __  ____________
 72
    65
 73
     4
 40
53.0
 49
50.0
 49
-1.125
 49
0.75
 49
-1.125
  0
LTYPE
  2
JIS_09_08
 70
     0
  3
2SASEN8 __ _ _ __ _ _ __ _ _ __ _ _ __ _ _ 
 72
    65
 73
     6
 40
10.75
 49
8.0
 49
-0.55
 49
0.55
 49
-0.55
 49
0.55
 49
-0.55
  0
LTYPE
  2
JIS_09_15
 70
     0
  3
2SASEN15 ___ _ _ ___ _ _ ___ _ _ ___ _ _ ___ 
 72
    65
 73
     6
 40
18.9
 49
15.0
 49
-0.9
 49
0.6
 49
-0.9
 49
0.6
 49
-0.9
  0
LTYPE
  2
JIS_09_29
 70
     0
  3
2SASEN29 ______　__  __  ______　__  __  ___
 72
    65
 73
     6
 40
34.0
 49
29.0
 49
-1.2
 49
0.7
 49
-1.2
 49
0.7
 49
-1.2
  0
LTYPE
  2
JIS_09_50
 70
     0
  3
2SASEN50 ____________　__  __  _____________
 72
    65
 73
     6
 40
55.0
 49
50.0
 49
-1.2
 49
0.7
 49
-1.2
 49
0.7
 49
-1.2
  0
LTYPE
  2
SXF_破線
 70
     0
  3
02 dashed -- -- -- -- -- --
 72
    65
 73
     2
 40
7.5
 49
6.0
 49
-1.5
  0
LTYPE
  2
SXF_跳び破線
 70
     0
  3
03 dashed_spaced --  --  --  --
 72
    65
 73
     2
 40
12.0
 49
6.0
 49
-6.0
  0
LTYPE
  2
SXF_一点長鎖線
 70
     0
  3
04 long_dashed_dotted ---- . ---- . ----
 72
    65
 73
     4
 40
15.25
 49
12.0
 49
-1.5
 49
0.25
 49
-1.5
  0
LTYPE
  2
SXF_二点長鎖線
 70
     0
  3
05 long_dashed_double-dotted ---- . . ---- 
 72
    65
 73
     6
 40
17.0
 49
12.0
 49
-1.5
 49
0.25
 49
-1.5
 49
0.25
 49
-1.5
  0
LTYPE
  2
SXF_三点長鎖線
 70
     0
  3
06 long_dashed_triplicate-dotted ---- ... ---- 
 72
    65
 73
     8
 40
18.75
 49
12.0
 49
-1.5
 49
0.25
 49
-1.5
 49
0.25
 49
-1.5
 49
0.25
 49
-1.5
  0
LTYPE
  2
SXF_点線
 70
     0
  3
07 dotted . . . . . . . . . . . . 
 72
    65
 73
     2
 40
1.75
 49
0.25
 49
-1.5
  0
LTYPE
  2
SXF_一点鎖線
 70
     0
  3
08 chain ---- - --- - --- - ---
 72
    65
 73
     4
 40
18.5
 49
12.0
 49
-1.5
 49
3.5
 49
-1.5
  0
LTYPE
  2
SXF_二点鎖線
 70
     0
  3
09 chain_double_dash ---- - - ---- - - ----
 72
    65
 73
     6
 40
23.5
 49
12.0
 49
-1.5
 49
3.5
 49
-1.5
 49
3.5
 49
-1.5
  0
LTYPE
  2
SXF_一点短鎖線
 70
     0
  3
10 dashed_dotted -- . -- . -- . --
 72
    65
 73
     4
 40
9.25
 49
6.0
 49
-1.5
 49
0.25
 49
-1.5
  0
LTYPE
  2
SXF_一点二短鎖線
 70
     0
  3
11 double-dashed_dotted -- -- . -- --
 72
    65
 73
     6
 40
16.75
 49
6.0
 49
-1.5
 49
6.0
 49
-1.5
 49
0.25
 49
-1.5
  0
LTYPE
  2
SXF_二点短鎖線
 70
     0
  3
12 dashed_double_dotted -- . . -- . . --
 72
    65
 73
     6
 40
11.0
 49
6.0
 49
-1.5
 49
0.25
 49
-1.5
 49
0.25
 49
-1.5
  0
LTYPE
  2
SXF_二点二短鎖線
 70
     0
  3
13 double-dashed_double-dotted -- -- . . -- --
 72
    65
 73
     8
 40
18.5
 49
6.0
 49
-1.5
 49
6.0
 49
-1.5
 49
0.25
 49
-1.5
 49
0.25
 49
-1.5
  0
LTYPE
  2
SXF_三点短鎖線
 70
     0
  3
14 dashed triplicate-dotted -- . . . -- . . . --
 72
    65
 73
     8
 40
12.75
 49
6.0
 49
-1.5
 49
0.25
 49
-1.5
 49
0.25
 49
-1.5
 49
0.25
 49
-1.5
  0
LTYPE
  2
SXF_三点二短鎖線
 70
     0
  3
15 double-dashed triplicate-dotted -- -- . . . -- -- 
 72
    65
 73
    10
 40
20.25
 49
6.0
 49
-1.5
 49
6.0
 49
-1.5
 49
0.25
 49
-1.5
 49
0.25
 49
-1.5
 49
0.25
 49
-1.5
  0
ENDTAB
  0
TABLE
  2
LAYER
 70
     6
  0
LAYER
  2
0
 70
     0
 62
     7
  6
CONTINUOUS
  0
LAYER
  2
LAYER0016
 70
     0
 62
     7
  6
CONTINUOUS
  0
LAYER
  2
LAYER0032
 70
     0
 62
     7
  6
CONTINUOUS
  0
LAYER
  2
LAYER0128
 70
     0
 62
     7
  6
CONTINUOUS
  0
LAYER
  2
LAYER0176
 70
     0
 62
     7
  6
CONTINUOUS
  0
LAYER
  2
LAYER0192
 70
     0
 62
     7
  6
CONTINUOUS
  0
ENDTAB
  0
TABLE
  2
STYLE
 70
     2
  0
STYLE
  2
STANDARD
 70
     0
 40
0.0
 41
1.0
 50
0.0
 71
     0
 42
0.2
  3
txt.shx
  4
bigfont.shx
  0
STYLE
  2
DCSTYLE0
 70
     0
 40
0.0
 41
1.6
 50
0.0
 71
     0
 42
0.2
  3
txt.shx
  4
bigfont
  0
ENDTAB
  0
TABLE
  2
VIEW
 70
     0
  0
ENDTAB
  0
TABLE
  2
UCS
 70
     0
  0
ENDTAB
  0
TABLE
  2
APPID
 70
     2
  0
APPID
  2
ACAD
 70
     0
  0
APPID
  2
DAFUSIONOUT
 70
     0
  0
ENDTAB
  0
TABLE
  2
DIMSTYLE
 70
     1
  0
DIMSTYLE
  2
STANDARD
 70
     0
  3

  4

  5

  6

  7

 40
1.0
 41
0.18
 42
0.0625
 43
0.38
 44
0.18
 45
0.0
 46
0.0
 47
0.0
 48
0.0
140
0.18
141
0.09
142
0.0
143
25.4
144
1.0
145
0.0
146
1.0
147
0.09
 71
     0
 72
     0
 73
     1
 74
     1
 75
     0
 76
     0
 77
     0
 78
     0
170
     0
171
     2
172
     0
173
     0
174
     0
175
     0
176
     0
177
     0
178
     0
  0
ENDTAB
  0
ENDSEC
  0
SECTION
  2
BLOCKS
  0
BLOCK
  8
0
  2
$MODEL_SPACE
 70
     0
 10
0.0
 20
0.0
 30
0.0
  3
$MODEL_SPACE
  1

  0
ENDBLK
  5
21
  8
0
  0
BLOCK
 67
     1
  8
0
  2
$PAPER_SPACE
 70
     0
 10
0.0
 20
0.0
 30
0.0
  3
$PAPER_SPACE
  1

  0
ENDBLK
  5
1D
 67
     1
  8
0
  0
ENDSEC
  0
SECTION
  2
ENTITIES
  0
LINE
  5
B7
  8
LAYER0128
  6
DIVIDE
 62
     3
 10
106.799187445
 20
65.85545249
 30
0.0
 11
117.299187445
 21
65.85545249
 31
0.0
  0
LINE
  5
B8
  8
LAYER0128
  6
DIVIDE
 62
     3
 10
106.799187445
 20
59.65545249
 30
0.0
 11
117.299187445
 21
59.65545249
 31
0.0
  0
LINE
  5
B9
  8
LAYER0128
  6
DIVIDE
 62
     3
 10
106.799187445
 20
67.27545248999999
 30
0.0
 11
117.299187445
 21
67.27545248999999
 31
0.0
  0
LINE
  5
BA
  8
LAYER0128
  6
DIVIDE
 62
     3
 10
106.799187445
 20
73.47545249000002
 30
0.0
 11
118.799187445
 21
73.47545249000002
 31
0.0
  0
LINE
  5
BB
  8
LAYER0128
  6
DIVIDE
 62
     3
 10
118.799187445
 20
80.47545249000002
 30
0.0
 11
118.799187445
 21
-54.02454751
 31
0.0
  0
LINE
  5
BC
  8
LAYER0128
  6
DIVIDE
 62
     3
 10
117.299187445
 20
73.47545249000002
 30
0.0
 11
117.299187445
 21
67.27545248999999
 31
0.0
  0
LINE
  5
BD
  8
LAYER0128
  6
DIVIDE
 62
     3
 10
117.299187445
 20
65.85545249
 30
0.0
 11
117.299187445
 21
59.65545249
 31
0.0
  0
LINE
  5
BE
  8
LAYER0128
  6
DIVIDE
 62
     3
 10
106.799187445
 20
74.89545249
 30
0.0
 11
118.799187445
 21
74.89545249
 31
0.0
  0
LINE
  5
BF
  8
LAYER0128
  6
DIVIDE
 62
     3
 10
106.799187445
 20
58.23545249
 30
0.0
 11
117.299187445
 21
58.23545249
 31
0.0
  0
LINE
  5
C0
  8
LAYER0128
  6
DIVIDE
 62
     3
 10
106.799187445
 20
52.03545248999999
 30
0.0
 11
117.299187445
 21
52.03545248999999
 31
0.0
  0
LINE
  5
C1
  8
LAYER0128
  6
DIVIDE
 62
     3
 10
117.299187445
 20
58.23545249
 30
0.0
 11
117.299187445
 21
52.03545248999999
 31
0.0
  0
LINE
  5
C2
  8
LAYER0128
  6
DIVIDE
 62
     3
 10
106.799187445
 20
50.61545249
 30
0.0
 11
117.299187445
 21
50.61545249
 31
0.0
  0
LINE
  5
C3
  8
LAYER0128
  6
DIVIDE
 62
     3
 10
106.799187445
 20
44.41545249000001
 30
0.0
 11
117.299187445
 21
44.41545249000001
 31
0.0
  0
LINE
  5
C4
  8
LAYER0128
  6
DIVIDE
 62
     3
 10
117.299187445
 20
50.61545249
 30
0.0
 11
117.299187445
 21
44.41545249000001
 31
0.0
  0
LINE
  5
C5
  8
LAYER0128
  6
DIVIDE
 62
     3
 10
106.799187445
 20
42.99545249000001
 30
0.0
 11
117.299187445
 21
42.99545249000001
 31
0.0
  0
LINE
  5
C6
  8
LAYER0128
  6
DIVIDE
 62
     3
 10
106.799187445
 20
36.79545249000001
 30
0.0
 11
117.299187445
 21
36.79545249000001
 31
0.0
  0
LINE
  5
C7
  8
LAYER0128
  6
DIVIDE
 62
     3
 10
117.299187445
 20
42.99545249000001
 30
0.0
 11
117.299187445
 21
36.79545249000001
 31
0.0
  0
LINE
  5
C8
  8
LAYER0128
  6
DIVIDE
 62
     3
 10
106.799187445
 20
35.37545249
 30
0.0
 11
117.299187445
 21
35.37545249
 31
0.0
  0
LINE
  5
C9
  8
LAYER0128
  6
DIVIDE
 62
     3
 10
106.799187445
 20
29.17545249
 30
0.0
 11
117.299187445
 21
29.17545249
 31
0.0
  0
LINE
  5
CA
  8
LAYER0128
  6
DIVIDE
 62
     3
 10
117.299187445
 20
35.37545249
 30
0.0
 11
117.299187445
 21
29.17545249
 31
0.0
  0
LINE
  5
CB
  8
LAYER0128
  6
DIVIDE
 62
     3
 10
106.799187445
 20
27.75545249
 30
0.0
 11
117.299187445
 21
27.75545249
 31
0.0
  0
LINE
  5
CC
  8
LAYER0128
  6
DIVIDE
 62
     3
 10
106.799187445
 20
21.55545249
 30
0.0
 11
117.299187445
 21
21.55545249
 31
0.0
  0
LINE
  5
CD
  8
LAYER0128
  6
DIVIDE
 62
     3
 10
117.299187445
 20
27.75545249
 30
0.0
 11
117.299187445
 21
21.55545249
 31
0.0
  0
LINE
  5
CE
  8
LAYER0128
  6
DIVIDE
 62
     3
 10
106.799187445
 20
20.13545249
 30
0.0
 11
117.299187445
 21
20.13545249
 31
0.0
  0
LINE
  5
CF
  8
LAYER0128
  6
DIVIDE
 62
     3
 10
106.799187445
 20
13.93545249
 30
0.0
 11
117.299187445
 21
13.93545249
 31
0.0
  0
LINE
  5
D0
  8
LAYER0128
  6
DIVIDE
 62
     3
 10
117.299187445
 20
20.13545249
 30
0.0
 11
117.299187445
 21
13.93545249
 31
0.0
  0
LINE
  5
D1
  8
LAYER0128
  6
DIVIDE
 62
     3
 10
106.799187445
 20
12.51545249
 30
0.0
 11
117.299187445
 21
12.51545249
 31
0.0
  0
LINE
  5
D2
  8
LAYER0128
  6
DIVIDE
 62
     3
 10
106.799187445
 20
6.315452490000001
 30
0.0
 11
117.299187445
 21
6.315452490000001
 31
0.0
  0
LINE
  5
D3
  8
LAYER0128
  6
DIVIDE
 62
     3
 10
117.299187445
 20
12.51545249
 30
0.0
 11
117.299187445
 21
6.315452490000001
 31
0.0
  0
LINE
  5
D4
  8
LAYER0128
  6
DIVIDE
 62
     3
 10
106.799187445
 20
4.895452490000002
 30
0.0
 11
117.299187445
 21
4.895452490000002
 31
0.0
  0
LINE
  5
D5
  8
LAYER0128
  6
DIVIDE
 62
     3
 10
106.799187445
 20
-1.304547509999996
 30
0.0
 11
117.299187445
 21
-1.304547509999996
 31
0.0
  0
LINE
  5
D6
  8
LAYER0128
  6
DIVIDE
 62
     3
 10
117.299187445
 20
4.895452490000002
 30
0.0
 11
117.299187445
 21
-1.304547509999996
 31
0.0
  0
LINE
  5
D7
  8
LAYER0128
  6
DIVIDE
 62
     3
 10
106.799187445
 20
-2.724547509999997
 30
0.0
 11
117.299187445
 21
-2.724547509999997
 31
0.0
  0
LINE
  5
D8
  8
LAYER0128
  6
DIVIDE
 62
     3
 10
106.799187445
 20
-8.924547509999996
 30
0.0
 11
117.299187445
 21
-8.924547509999996
 31
0.0
  0
LINE
  5
D9
  8
LAYER0128
  6
DIVIDE
 62
     3
 10
117.299187445
 20
-2.724547509999997
 30
0.0
 11
117.299187445
 21
-8.924547509999996
 31
0.0
  0
LINE
  5
DA
  8
LAYER0128
  6
DIVIDE
 62
     3
 10
106.799187445
 20
-10.34454751
 30
0.0
 11
117.299187445
 21
-10.34454751
 31
0.0
  0
LINE
  5
DB
  8
LAYER0128
  6
DIVIDE
 62
     3
 10
106.799187445
 20
-16.54454751
 30
0.0
 11
117.299187445
 21
-16.54454751
 31
0.0
  0
LINE
  5
DC
  8
LAYER0128
  6
DIVIDE
 62
     3
 10
117.299187445
 20
-10.34454751
 30
0.0
 11
117.299187445
 21
-16.54454751
 31
0.0
  0
LINE
  5
DD
  8
LAYER0128
  6
DIVIDE
 62
     3
 10
106.799187445
 20
-17.96454751
 30
0.0
 11
117.299187445
 21
-17.96454751
 31
0.0
  0
LINE
  5
DE
  8
LAYER0128
  6
DIVIDE
 62
     3
 10
106.799187445
 20
-24.16454751
 30
0.0
 11
117.299187445
 21
-24.16454751
 31
0.0
  0
LINE
  5
DF
  8
LAYER0128
  6
DIVIDE
 62
     3
 10
117.299187445
 20
-17.96454751
 30
0.0
 11
117.299187445
 21
-24.16454751
 31
0.0
  0
LINE
  5
E0
  8
LAYER0128
  6
DIVIDE
 62
     3
 10
106.799187445
 20
-25.58454751
 30
0.0
 11
117.299187445
 21
-25.58454751
 31
0.0
  0
LINE
  5
E1
  8
LAYER0128
  6
DIVIDE
 62
     3
 10
106.799187445
 20
-31.78454751
 30
0.0
 11
117.299187445
 21
-31.78454751
 31
0.0
  0
LINE
  5
E2
  8
LAYER0128
  6
DIVIDE
 62
     3
 10
117.299187445
 20
-25.58454751
 30
0.0
 11
117.299187445
 21
-31.78454751
 31
0.0
  0
LINE
  5
E3
  8
LAYER0128
  6
DIVIDE
 62
     3
 10
106.799187445
 20
-33.20454751
 30
0.0
 11
117.299187445
 21
-33.20454751
 31
0.0
  0
LINE
  5
E4
  8
LAYER0128
  6
DIVIDE
 62
     3
 10
106.799187445
 20
-39.40454751
 30
0.0
 11
117.299187445
 21
-39.40454751
 31
0.0
  0
LINE
  5
E5
  8
LAYER0128
  6
DIVIDE
 62
     3
 10
117.299187445
 20
-33.20454751
 30
0.0
 11
117.299187445
 21
-39.40454751
 31
0.0
  0
LINE
  5
E6
  8
LAYER0128
  6
DIVIDE
 62
     3
 10
106.799187445
 20
-40.82454751
 30
0.0
 11
117.299187445
 21
-40.82454751
 31
0.0
  0
LINE
  5
E7
  8
LAYER0128
  6
DIVIDE
 62
     3
 10
106.799187445
 20
-47.02454750999999
 30
0.0
 11
118.799187445
 21
-47.02454750999999
 31
0.0
  0
LINE
  5
E8
  8
LAYER0128
  6
DIVIDE
 62
     3
 10
117.299187445
 20
-40.82454751
 30
0.0
 11
117.299187445
 21
-47.02454750999999
 31
0.0
  0
LINE
  5
E9
  8
LAYER0128
  6
DIVIDE
 62
     3
 10
118.799187445
 20
-48.44454751
 30
0.0
 11
106.799187445
 21
-48.44454751
 31
0.0
  0
LINE
  5
EA
  8
LAYER0128
  6
DIVIDE
 62
     3
 10
103.499187445
 20
81.97545249000002
 30
0.0
 11
117.299187445
 21
81.97545249000002
 31
0.0
  0
LINE
  5
EB
  8
LAYER0128
  6
DIVIDE
 62
     3
 10
103.499187445
 20
-55.52454751
 30
0.0
 11
117.299187445
 21
-55.52454751
 31
0.0
  0
LINE
  5
EC
  8
LAYER0128
  6
DIVIDE
 62
     3
 10
114.299187445
 20
-55.52454751
 30
0.0
 11
114.299187445
 21
-51.44454751
 31
0.0
  0
LINE
  5
ED
  8
LAYER0128
  6
DIVIDE
 62
     3
 10
105.299187445
 20
-55.52454751
 30
0.0
 11
105.299187445
 21
-51.44454751
 31
0.0
  0
ARC
  5
EE
  8
LAYER0128
  6
DIVIDE
 62
     3
 10
111.299187445
 20
-51.44454751
 30
0.0
 40
3.0
 50
0.0
 51
90.0
  0
ARC
  5
EF
  8
LAYER0128
  6
DIVIDE
 62
     3
 10
108.299187445
 20
-51.44454751
 30
0.0
 40
3.0
 50
90.0
 51
180.0
  0
LINE
  5
F0
  8
LAYER0128
  6
DIVIDE
 62
     3
 10
114.299187445
 20
81.97545249000002
 30
0.0
 11
114.299187445
 21
78.14545249
 31
0.0
  0
LINE
  5
F1
  8
LAYER0128
  6
DIVIDE
 62
     3
 10
105.299187445
 20
81.97545249000002
 30
0.0
 11
105.299187445
 21
78.14545249
 31
0.0
  0
LINE
  5
F2
  8
LAYER0128
  6
DIVIDE
 62
     3
 10
103.799187445
 20
81.97545249000002
 30
0.0
 11
103.799187445
 21
-55.52454751
 31
0.0
  0
LINE
  5
F3
  8
LAYER0128
  6
DIVIDE
 62
     3
 10
101.999187445
 20
80.47545249000002
 30
0.0
 11
101.999187445
 21
-54.02454751
 31
0.0
  0
LINE
  5
F4
  8
LAYER0128
  6
DIVIDE
 62
     3
 10
115.799187445
 20
-55.52454751
 30
0.0
 11
115.799187445
 21
-48.44454751
 31
0.0
  0
LINE
  5
F5
  8
LAYER0128
  6
DIVIDE
 62
     3
 10
115.799187445
 20
81.97545249000002
 30
0.0
 11
115.799187445
 21
74.89545249
 31
0.0
  0
ARC
  5
F6
  8
LAYER0128
  6
DIVIDE
 62
     3
 10
117.299187445
 20
80.47545249000002
 30
0.0
 40
1.5
 50
0.0
 51
90.0
  0
ARC
  5
F7
  8
LAYER0128
  6
DIVIDE
 62
     3
 10
117.299187445
 20
-54.02454751
 30
0.0
 40
1.5
 50
270.0
 51
0.0
  0
ARC
  5
F8
  8
LAYER0128
  6
DIVIDE
 62
     3
 10
103.499187445
 20
-54.02454751
 30
0.0
 40
1.5
 50
180.0
 51
270.0
  0
ARC
  5
F9
  8
LAYER0128
  6
DIVIDE
 62
     3
 10
103.499187445
 20
80.47545249000002
 30
0.0
 40
1.5
 50
90.0
 51
180.0
  0
LINE
  5
FA
  8
LAYER0128
  6
DIVIDE
 62
     3
 10
108.799187445
 20
73.47545249000002
 30
0.0
 11
108.799187445
 21
67.27545248999999
 31
0.0
  0
LINE
  5
FB
  8
LAYER0128
  6
DIVIDE
 62
     3
 10
108.799187445
 20
65.85545249
 30
0.0
 11
108.799187445
 21
59.65545249
 31
0.0
  0
LINE
  5
FC
  8
LAYER0128
  6
DIVIDE
 62
     3
 10
108.799187445
 20
58.23545249
 30
0.0
 11
108.799187445
 21
52.03545248999999
 31
0.0
  0
LINE
  5
FD
  8
LAYER0128
  6
DIVIDE
 62
     3
 10
108.799187445
 20
50.61545249
 30
0.0
 11
108.799187445
 21
44.41545249000001
 31
0.0
  0
LINE
  5
FE
  8
LAYER0128
  6
DIVIDE
 62
     3
 10
108.799187445
 20
42.99545249000001
 30
0.0
 11
108.799187445
 21
36.79545249000001
 31
0.0
  0
LINE
  5
FF
  8
LAYER0128
  6
DIVIDE
 62
     3
 10
108.799187445
 20
35.37545249
 30
0.0
 11
108.799187445
 21
29.17545249
 31
0.0
  0
LINE
  5
100
  8
LAYER0128
  6
DIVIDE
 62
     3
 10
108.799187445
 20
27.75545249
 30
0.0
 11
108.799187445
 21
21.55545249
 31
0.0
  0
LINE
  5
101
  8
LAYER0128
  6
DIVIDE
 62
     3
 10
108.799187445
 20
20.13545249
 30
0.0
 11
108.799187445
 21
13.93545249
 31
0.0
  0
LINE
  5
102
  8
LAYER0128
  6
DIVIDE
 62
     3
 10
108.799187445
 20
12.51545249
 30
0.0
 11
108.799187445
 21
6.315452490000001
 31
0.0
  0
LINE
  5
103
  8
LAYER0128
  6
DIVIDE
 62
     3
 10
108.799187445
 20
4.895452490000002
 30
0.0
 11
108.799187445
 21
-1.304547509999996
 31
0.0
  0
LINE
  5
104
  8
LAYER0128
  6
DIVIDE
 62
     3
 10
108.799187445
 20
-2.724547509999997
 30
0.0
 11
108.799187445
 21
-8.924547509999996
 31
0.0
  0
LINE
  5
105
  8
LAYER0128
  6
DIVIDE
 62
     3
 10
108.799187445
 20
-10.34454751
 30
0.0
 11
108.799187445
 21
-16.54454751
 31
0.0
  0
LINE
  5
106
  8
LAYER0128
  6
DIVIDE
 62
     3
 10
108.799187445
 20
-17.96454751
 30
0.0
 11
108.799187445
 21
-24.16454751
 31
0.0
  0
LINE
  5
107
  8
LAYER0128
  6
DIVIDE
 62
     3
 10
108.799187445
 20
-25.58454751
 30
0.0
 11
108.799187445
 21
-31.78454751
 31
0.0
  0
LINE
  5
108
  8
LAYER0128
  6
DIVIDE
 62
     3
 10
108.799187445
 20
-33.20454751
 30
0.0
 11
108.799187445
 21
-39.40454751
 31
0.0
  0
LINE
  5
109
  8
LAYER0128
  6
DIVIDE
 62
     3
 10
108.799187445
 20
-40.82454751
 30
0.0
 11
108.799187445
 21
-47.02454750999999
 31
0.0
  0
LINE
  5
10A
  8
LAYER0128
  6
DIVIDE
 62
     3
 10
106.799187445
 20
74.89545249
 30
0.0
 11
106.799187445
 21
73.47545249000002
 31
0.0
  0
LINE
  5
10B
  8
LAYER0128
  6
DIVIDE
 62
     3
 10
106.799187445
 20
67.27545248999999
 30
0.0
 11
106.799187445
 21
65.85545249
 31
0.0
  0
LINE
  5
10C
  8
LAYER0128
  6
DIVIDE
 62
     3
 10
106.799187445
 20
59.65545249
 30
0.0
 11
106.799187445
 21
58.23545249
 31
0.0
  0
LINE
  5
10D
  8
LAYER0128
  6
DIVIDE
 62
     3
 10
106.799187445
 20
52.03545248999999
 30
0.0
 11
106.799187445
 21
50.61545249
 31
0.0
  0
LINE
  5
10E
  8
LAYER0128
  6
DIVIDE
 62
     3
 10
106.799187445
 20
44.41545249000001
 30
0.0
 11
106.799187445
 21
42.99545249000001
 31
0.0
  0
LINE
  5
10F
  8
LAYER0128
  6
DIVIDE
 62
     3
 10
106.799187445
 20
36.79545249000001
 30
0.0
 11
106.799187445
 21
35.37545249
 31
0.0
  0
LINE
  5
110
  8
LAYER0128
  6
DIVIDE
 62
     3
 10
106.799187445
 20
29.17545249
 30
0.0
 11
106.799187445
 21
27.75545249
 31
0.0
  0
LINE
  5
111
  8
LAYER0128
  6
DIVIDE
 62
     3
 10
106.799187445
 20
21.55545249
 30
0.0
 11
106.799187445
 21
20.13545249
 31
0.0
  0
LINE
  5
112
  8
LAYER0128
  6
DIVIDE
 62
     3
 10
106.799187445
 20
13.93545249
 30
0.0
 11
106.799187445
 21
12.51545249
 31
0.0
  0
LINE
  5
113
  8
LAYER0128
  6
DIVIDE
 62
     3
 10
106.799187445
 20
6.315452490000001
 30
0.0
 11
106.799187445
 21
4.895452490000002
 31
0.0
  0
LINE
  5
114
  8
LAYER0128
  6
DIVIDE
 62
     3
 10
106.799187445
 20
-1.304547509999996
 30
0.0
 11
106.799187445
 21
-2.724547509999997
 31
0.0
  0
LINE
  5
115
  8
LAYER0128
  6
DIVIDE
 62
     3
 10
106.799187445
 20
-8.924547509999996
 30
0.0
 11
106.799187445
 21
-10.34454751
 31
0.0
  0
LINE
  5
116
  8
LAYER0128
  6
DIVIDE
 62
     3
 10
106.799187445
 20
-16.54454751
 30
0.0
 11
106.799187445
 21
-17.96454751
 31
0.0
  0
LINE
  5
117
  8
LAYER0128
  6
DIVIDE
 62
     3
 10
106.799187445
 20
-24.16454751
 30
0.0
 11
106.799187445
 21
-25.58454751
 31
0.0
  0
LINE
  5
118
  8
LAYER0128
  6
DIVIDE
 62
     3
 10
106.799187445
 20
-31.78454751
 30
0.0
 11
106.799187445
 21
-33.20454751
 31
0.0
  0
LINE
  5
119
  8
LAYER0128
  6
DIVIDE
 62
     3
 10
106.799187445
 20
-39.40454751
 30
0.0
 11
106.799187445
 21
-40.82454751
 31
0.0
  0
LINE
  5
11A
  8
LAYER0128
  6
DIVIDE
 62
     3
 10
106.799187445
 20
-47.02454750999999
 30
0.0
 11
106.799187445
 21
-48.44454751
 31
0.0
  0
CIRCLE
  5
11B
  8
LAYER0128
  6
DIVIDE
 62
     3
 10
112.799187445
 20
17.03545249
 30
0.0
 40
2.75
  0
CIRCLE
  5
11C
  8
LAYER0128
  6
DIVIDE
 62
     3
 10
112.799187445
 20
9.415452490000002
 30
0.0
 40
2.75
  0
CIRCLE
  5
11D
  8
LAYER0128
  6
DIVIDE
 62
     3
 10
112.799187445
 20
24.65545249
 30
0.0
 40
2.75
  0
CIRCLE
  5
11E
  8
LAYER0128
  6
DIVIDE
 62
     3
 10
112.799187445
 20
32.27545249
 30
0.0
 40
2.75
  0
CIRCLE
  5
11F
  8
LAYER0128
  6
DIVIDE
 62
     3
 10
112.799187445
 20
39.89545249
 30
0.0
 40
2.75
  0
CIRCLE
  5
120
  8
LAYER0128
  6
DIVIDE
 62
     3
 10
112.799187445
 20
47.51545249
 30
0.0
 40
2.75
  0
CIRCLE
  5
121
  8
LAYER0128
  6
DIVIDE
 62
     3
 10
112.799187445
 20
55.13545249
 30
0.0
 40
2.75
  0
CIRCLE
  5
122
  8
LAYER0128
  6
DIVIDE
 62
     3
 10
112.799187445
 20
62.75545249
 30
0.0
 40
2.75
  0
CIRCLE
  5
123
  8
LAYER0128
  6
DIVIDE
 62
     3
 10
112.799187445
 20
70.37545249
 30
0.0
 40
2.75
  0
CIRCLE
  5
124
  8
LAYER0128
  6
DIVIDE
 62
     3
 10
112.799187445
 20
1.795452490000002
 30
0.0
 40
2.75
  0
CIRCLE
  5
125
  8
LAYER0128
  6
DIVIDE
 62
     3
 10
112.799187445
 20
-5.824547509999998
 30
0.0
 40
2.75
  0
CIRCLE
  5
126
  8
LAYER0128
  6
DIVIDE
 62
     3
 10
112.799187445
 20
-13.44454751
 30
0.0
 40
2.75
  0
CIRCLE
  5
127
  8
LAYER0128
  6
DIVIDE
 62
     3
 10
112.799187445
 20
-21.06454751
 30
0.0
 40
2.75
  0
CIRCLE
  5
128
  8
LAYER0128
  6
DIVIDE
 62
     3
 10
112.799187445
 20
-28.68454750999999
 30
0.0
 40
2.75
  0
CIRCLE
  5
129
  8
LAYER0128
  6
DIVIDE
 62
     3
 10
112.799187445
 20
-36.30454751
 30
0.0
 40
2.75
  0
CIRCLE
  5
12A
  8
LAYER0128
  6
DIVIDE
 62
     3
 10
112.799187445
 20
-43.92454750999999
 30
0.0
 40
2.75
  0
POLYLINE
  5
12B
  8
LAYER0128
  6
DIVIDE
 62
     3
 66
     1
 10
0.0
 20
0.0
 30
0.0
 70
     1
  0
VERTEX
  5
209
  8
LAYER0128
  6
DIVIDE
 62
     3
 10
1.0
 20
0.0
 30
0.0
  0
VERTEX
  5
20A
  8
LAYER0128
  6
DIVIDE
 62
     3
 10
0.9807852804032304
 20
0.1950903220161282
 30
0.0
  0
VERTEX
  5
20B
  8
LAYER0128
  6
DIVIDE
 62
     3
 10
0.9238795325112867
 20
0.3826834323650898
 30
0.0
  0
VERTEX
  5
20C
  8
LAYER0128
  6
DIVIDE
 62
     3
 10
0.8314696123025452
 20
0.5555702330196022
 30
0.0
  0
VERTEX
  5
20D
  8
LAYER0128
  6
DIVIDE
 62
     3
 10
0.7071067811865476
 20
0.7071067811865476
 30
0.0
  0
VERTEX
  5
20E
  8
LAYER0128
  6
DIVIDE
 62
     3
 10
0.5555702330196023
 20
0.8314696123025452
 30
0.0
  0
VERTEX
  5
20F
  8
LAYER0128
  6
DIVIDE
 62
     3
 10
0.3826834323650898
 20
0.9238795325112867
 30
0.0
  0
VERTEX
  5
210
  8
LAYER0128
  6
DIVIDE
 62
     3
 10
0.1950903220161283
 20
0.9807852804032304
 30
0.0
  0
VERTEX
  5
211
  8
LAYER0128
  6
DIVIDE
 62
     3
 10
0.0000000000000001
 20
1.0
 30
0.0
  0
VERTEX
  5
212
  8
LAYER0128
  6
DIVIDE
 62
     3
 10
-0.1950903220161282
 20
0.9807852804032304
 30
0.0
  0
VERTEX
  5
213
  8
LAYER0128
  6
DIVIDE
 62
     3
 10
-0.3826834323650897
 20
0.9238795325112867
 30
0.0
  0
VERTEX
  5
214
  8
LAYER0128
  6
DIVIDE
 62
     3
 10
-0.555570233019602
 20
0.8314696123025453
 30
0.0
  0
VERTEX
  5
215
  8
LAYER0128
  6
DIVIDE
 62
     3
 10
-0.7071067811865475
 20
0.7071067811865476
 30
0.0
  0
VERTEX
  5
216
  8
LAYER0128
  6
DIVIDE
 62
     3
 10
-0.8314696123025453
 20
0.5555702330196022
 30
0.0
  0
VERTEX
  5
217
  8
LAYER0128
  6
DIVIDE
 62
     3
 10
-0.9238795325112868
 20
0.3826834323650894
 30
0.0
  0
VERTEX
  5
218
  8
LAYER0128
  6
DIVIDE
 62
     3
 10
-0.9807852804032305
 20
0.1950903220161277
 30
0.0
  0
VERTEX
  5
219
  8
LAYER0128
  6
DIVIDE
 62
     3
 10
-1.0
 20
-0.0000000000000008
 30
0.0
  0
VERTEX
  5
21A
  8
LAYER0128
  6
DIVIDE
 62
     3
 10
-0.9807852804032302
 20
-0.1950903220161292
 30
0.0
  0
VERTEX
  5
21B
  8
LAYER0128
  6
DIVIDE
 62
     3
 10
-0.9238795325112863
 20
-0.3826834323650909
 30
0.0
  0
VERTEX
  5
21C
  8
LAYER0128
  6
DIVIDE
 62
     3
 10
-0.8314696123025445
 20
-0.5555702330196034
 30
0.0
  0
VERTEX
  5
21D
  8
LAYER0128
  6
DIVIDE
 62
     3
 10
-0.7071067811865464
 20
-0.7071067811865487
 30
0.0
  0
VERTEX
  5
21E
  8
LAYER0128
  6
DIVIDE
 62
     3
 10
-0.5555702330196007
 20
-0.8314696123025462
 30
0.0
  0
VERTEX
  5
21F
  8
LAYER0128
  6
DIVIDE
 62
     3
 10
-0.3826834323650879
 20
-0.9238795325112875
 30
0.0
  0
VERTEX
  5
220
  8
LAYER0128
  6
DIVIDE
 62
     3
 10
-0.1950903220161261
 20
-0.9807852804032309
 30
0.0
  0
VERTEX
  5
221
  8
LAYER0128
  6
DIVIDE
 62
     3
 10
0.0000000000000025
 20
-1.0
 30
0.0
  0
VERTEX
  5
222
  8
LAYER0128
  6
DIVIDE
 62
     3
 10
0.1950903220161309
 20
-0.9807852804032299
 30
0.0
  0
VERTEX
  5
223
  8
LAYER0128
  6
DIVIDE
 62
     3
 10
0.3826834323650924
 20
-0.9238795325112856
 30
0.0
  0
VERTEX
  5
224
  8
LAYER0128
  6
DIVIDE
 62
     3
 10
0.5555702330196048
 20
-0.8314696123025435
 30
0.0
  0
VERTEX
  5
225
  8
LAYER0128
  6
DIVIDE
 62
     3
 10
0.7071067811865499
 20
-0.7071067811865451
 30
0.0
  0
VERTEX
  5
226
  8
LAYER0128
  6
DIVIDE
 62
     3
 10
0.8314696123025472
 20
-0.5555702330195993
 30
0.0
  0
VERTEX
  5
227
  8
LAYER0128
  6
DIVIDE
 62
     3
 10
0.9238795325112882
 20
-0.3826834323650863
 30
0.0
  0
VERTEX
  5
228
  8
LAYER0128
  6
DIVIDE
 62
     3
 10
0.9807852804032312
 20
-0.1950903220161244
 30
0.0
  0
SEQEND
  5
4E3
  8
LAYER0128
  6
DIVIDE
 62
     3
  0
POLYLINE
  5
12C
  8
LAYER0128
  6
DIVIDE
 62
     3
 66
     1
 10
0.0
 20
0.0
 30
0.0
 70
   129
  0
VERTEX
  5
229
  8
LAYER0128
  6
DIVIDE
 62
     3
 10
109.799187445
 20
-49.52454751
 30
0.0
  0
VERTEX
  5
22A
  8
LAYER0128
  6
DIVIDE
 62
     3
 10
109.68402939714
 20
-49.52706937346578
 30
0.0
  0
VERTEX
  5
22B
  8
LAYER0128
  6
DIVIDE
 62
     3
 10
109.5690733756269
 20
-49.53463053965767
 30
0.0
  0
VERTEX
  5
22C
  8
LAYER0128
  6
DIVIDE
 62
     3
 10
109.4545210523848
 20
-49.54721774372087
 30
0.0
  0
VERTEX
  5
22D
  8
LAYER0128
  6
DIVIDE
 62
     3
 10
109.3405733911138
 20
-49.5648089034223
 30
0.0
  0
VERTEX
  5
22E
  8
LAYER0128
  6
DIVIDE
 62
     3
 10
109.2274302947314
 20
-49.5873731578903
 30
0.0
  0
VERTEX
  5
22F
  8
LAYER0128
  6
DIVIDE
 62
     3
 10
109.1152902546749
 20
-49.61487092175518
 30
0.0
  0
VERTEX
  5
230
  8
LAYER0128
  6
DIVIDE
 62
     3
 10
109.0043500026801
 20
-49.64725395459531
 30
0.0
  0
VERTEX
  5
231
  8
LAYER0128
  6
DIVIDE
 62
     3
 10
108.8948041656467
 20
-49.68446544556724
 30
0.0
  0
VERTEX
  5
232
  8
LAYER0128
  6
DIVIDE
 62
     3
 10
108.7868449241968
 20
-49.72644011307128
 30
0.0
  0
VERTEX
  5
233
  8
LAYER0128
  6
DIVIDE
 62
     3
 10
108.6806616755247
 20
-49.77310431927752
 30
0.0
  0
VERTEX
  5
234
  8
LAYER0128
  6
DIVIDE
 62
     3
 10
108.5764407011299
 20
-49.82437619931169
 30
0.0
  0
VERTEX
  5
235
  8
LAYER0128
  6
DIVIDE
 62
     3
 10
108.4743648400159
 20
-49.88016580487389
 30
0.0
  0
VERTEX
  5
236
  8
LAYER0128
  6
DIVIDE
 62
     3
 10
108.3746131679288
 20
-49.94037526203854
 30
0.0
  0
VERTEX
  5
237
  8
LAYER0128
  6
DIVIDE
 62
     3
 10
108.2773606831973
 20
-50.00489894295846
 30
0.0
  0
VERTEX
  5
238
  8
LAYER0128
  6
DIVIDE
 62
     3
 10
108.1827779997262
 20
-50.07362365117202
 30
0.0
  0
VERTEX
  5
239
  8
LAYER0128
  6
DIVIDE
 62
     3
 10
108.0910310476818
 20
-50.14642882018821
 30
0.0
  0
VERTEX
  5
23A
  8
LAYER0128
  6
DIVIDE
 62
     3
 10
108.0022807823937
 20
-50.2231867250012
 30
0.0
  0
VERTEX
  5
23B
  8
LAYER0128
  6
DIVIDE
 62
     3
 10
107.9166829019847
 20
-50.30376270616344
 30
0.0
  0
VERTEX
  5
23C
  8
LAYER0128
  6
DIVIDE
 62
     3
 10
107.8343875742236
 20
-50.38801540602407
 30
0.0
  0
VERTEX
  5
23D
  8
LAYER0128
  6
DIVIDE
 62
     3
 10
107.7555391730793
 20
-50.47579701671828
 30
0.0
  0
VERTEX
  5
23E
  8
LAYER0128
  6
DIVIDE
 62
     3
 10
107.6802760254403
 20
-50.56695353947251
 30
0.0
  0
VERTEX
  5
23F
  8
LAYER0128
  6
DIVIDE
 62
     3
 10
107.6087301684421
 20
-50.66132505477067
 30
0.0
  0
VERTEX
  5
240
  8
LAYER0128
  6
DIVIDE
 62
     3
 10
107.5410271178294
 20
-50.75874600290725
 30
0.0
  0
VERTEX
  5
241
  8
LAYER0128
  6
DIVIDE
 62
     3
 10
107.4772856477586
 20
-50.85904547443538
 30
0.0
  0
VERTEX
  5
242
  8
LAYER0128
  6
DIVIDE
 62
     3
 10
107.4176175824277
 20
-50.96204751
 30
0.0
  0
VERTEX
  5
243
  8
LAYER0128
  6
DIVIDE
 62
     3
 10
107.3621275998987
 20
-51.06757140903039
 30
0.0
  0
VERTEX
  5
244
  8
LAYER0128
  6
DIVIDE
 62
     3
 10
107.3109130484564
 20
-51.17543204675042
 30
0.0
  0
VERTEX
  5
245
  8
LAYER0128
  6
DIVIDE
 62
     3
 10
107.264063775827
 20
-51.2854401989502
 30
0.0
  0
VERTEX
  5
246
  8
LAYER0128
  6
DIVIDE
 62
     3
 10
107.2216619715541
 20
-51.39740287394978
 30
0.0
  0
VERTEX
  5
247
  8
LAYER0128
  6
DIVIDE
 62
     3
 10
107.1837820228107
 20
-51.51112365117202
 30
0.0
  0
VERTEX
  5
248
  8
LAYER0128
  6
DIVIDE
 62
     3
 10
107.1504903838985
 20
-51.62640302573111
 30
0.0
  0
VERTEX
  5
249
  8
LAYER0128
  6
DIVIDE
 62
     3
 10
107.1218454596649
 20
-51.74303875843187
 30
0.0
  0
VERTEX
  5
24A
  8
LAYER0128
  6
DIVIDE
 62
     3
 10
107.0978975030404
 20
-51.86082623056604
 30
0.0
  0
VERTEX
  5
24B
  8
LAYER0128
  6
DIVIDE
 62
     3
 10
107.0786885268786
 20
-51.97955880288306
 30
0.0
  0
VERTEX
  5
24C
  8
LAYER0128
  6
DIVIDE
 62
     3
 10
107.0642522302509
 20
-52.09902817810549
 30
0.0
  0
VERTEX
  5
24D
  8
LAYER0128
  6
DIVIDE
 62
     3
 10
107.0546139393272
 20
-52.21902476635322
 30
0.0
  0
VERTEX
  5
24E
  8
LAYER0128
  6
DIVIDE
 62
     3
 10
107.0497905629447
 20
-52.33933805283534
 30
0.0
  0
VERTEX
  5
24F
  8
LAYER0128
  6
DIVIDE
 62
     3
 10
107.0497905629447
 20
-52.45975696716465
 30
0.0
  0
VERTEX
  5
250
  8
LAYER0128
  6
DIVIDE
 62
     3
 10
107.0546139393272
 20
-52.58007025364677
 30
0.0
  0
VERTEX
  5
251
  8
LAYER0128
  6
DIVIDE
 62
     3
 10
107.0642522302509
 20
-52.7000668418945
 30
0.0
  0
VERTEX
  5
252
  8
LAYER0128
  6
DIVIDE
 62
     3
 10
107.0786885268786
 20
-52.81953621711693
 30
0.0
  0
VERTEX
  5
253
  8
LAYER0128
  6
DIVIDE
 62
     3
 10
107.0978975030404
 20
-52.93826878943396
 30
0.0
  0
VERTEX
  5
254
  8
LAYER0128
  6
DIVIDE
 62
     3
 10
107.1218454596649
 20
-53.05605626156814
 30
0.0
  0
VERTEX
  5
255
  8
LAYER0128
  6
DIVIDE
 62
     3
 10
107.1504903838985
 20
-53.17269199426889
 30
0.0
  0
VERTEX
  5
256
  8
LAYER0128
  6
DIVIDE
 62
     3
 10
107.1837820228107
 20
-53.28797136882798
 30
0.0
  0
VERTEX
  5
257
  8
LAYER0128
  6
DIVIDE
 62
     3
 10
107.2216619715541
 20
-53.40169214605022
 30
0.0
  0
VERTEX
  5
258
  8
LAYER0128
  6
DIVIDE
 62
     3
 10
107.264063775827
 20
-53.5136548210498
 30
0.0
  0
VERTEX
  5
259
  8
LAYER0128
  6
DIVIDE
 62
     3
 10
107.3109130484564
 20
-53.62366297324958
 30
0.0
  0
VERTEX
  5
25A
  8
LAYER0128
  6
DIVIDE
 62
     3
 10
107.3621275998987
 20
-53.7315236109696
 30
0.0
  0
VERTEX
  5
25B
  8
LAYER0128
  6
DIVIDE
 62
     3
 10
107.4176175824277
 20
-53.83704751
 30
0.0
  0
VERTEX
  5
25C
  8
LAYER0128
  6
DIVIDE
 62
     3
 10
107.4772856477586
 20
-53.94004954556461
 30
0.0
  0
VERTEX
  5
25D
  8
LAYER0128
  6
DIVIDE
 62
     3
 10
107.5410271178294
 20
-54.04034901709274
 30
0.0
  0
VERTEX
  5
25E
  8
LAYER0128
  6
DIVIDE
 62
     3
 10
107.6087301684421
 20
-54.13776996522932
 30
0.0
  0
VERTEX
  5
25F
  8
LAYER0128
  6
DIVIDE
 62
     3
 10
107.6802760254403
 20
-54.23214148052748
 30
0.0
  0
VERTEX
  5
260
  8
LAYER0128
  6
DIVIDE
 62
     3
 10
107.7555391730793
 20
-54.32329800328171
 30
0.0
  0
VERTEX
  5
261
  8
LAYER0128
  6
DIVIDE
 62
     3
 10
107.8343875742236
 20
-54.41107961397593
 30
0.0
  0
VERTEX
  5
262
  8
LAYER0128
  6
DIVIDE
 62
     3
 10
107.9166829019847
 20
-54.49533231383656
 30
0.0
  0
VERTEX
  5
263
  8
LAYER0128
  6
DIVIDE
 62
     3
 10
108.0022807823937
 20
-54.5759082949988
 30
0.0
  0
VERTEX
  5
264
  8
LAYER0128
  6
DIVIDE
 62
     3
 10
108.0910310476818
 20
-54.65266619981179
 30
0.0
  0
VERTEX
  5
265
  8
LAYER0128
  6
DIVIDE
 62
     3
 10
108.1827779997262
 20
-54.72547136882798
 30
0.0
  0
VERTEX
  5
266
  8
LAYER0128
  6
DIVIDE
 62
     3
 10
108.2773606831973
 20
-54.79419607704153
 30
0.0
  0
VERTEX
  5
267
  8
LAYER0128
  6
DIVIDE
 62
     3
 10
108.3746131679288
 20
-54.85871975796146
 30
0.0
  0
VERTEX
  5
268
  8
LAYER0128
  6
DIVIDE
 62
     3
 10
108.4743648400159
 20
-54.91892921512611
 30
0.0
  0
VERTEX
  5
269
  8
LAYER0128
  6
DIVIDE
 62
     3
 10
108.5764407011299
 20
-54.97471882068831
 30
0.0
  0
VERTEX
  5
26A
  8
LAYER0128
  6
DIVIDE
 62
     3
 10
108.6806616755247
 20
-55.02599070072247
 30
0.0
  0
VERTEX
  5
26B
  8
LAYER0128
  6
DIVIDE
 62
     3
 10
108.7868449241968
 20
-55.07265490692872
 30
0.0
  0
VERTEX
  5
26C
  8
LAYER0128
  6
DIVIDE
 62
     3
 10
108.8948041656467
 20
-55.11462957443275
 30
0.0
  0
VERTEX
  5
26D
  8
LAYER0128
  6
DIVIDE
 62
     3
 10
109.0043500026801
 20
-55.1518410654047
 30
0.0
  0
VERTEX
  5
26E
  8
LAYER0128
  6
DIVIDE
 62
     3
 10
109.1152902546749
 20
-55.18422409824481
 30
0.0
  0
VERTEX
  5
26F
  8
LAYER0128
  6
DIVIDE
 62
     3
 10
109.2274302947314
 20
-55.21172186210969
 30
0.0
  0
VERTEX
  5
270
  8
LAYER0128
  6
DIVIDE
 62
     3
 10
109.3405733911138
 20
-55.2342861165777
 30
0.0
  0
VERTEX
  5
271
  8
LAYER0128
  6
DIVIDE
 62
     3
 10
109.4545210523848
 20
-55.25187727627912
 30
0.0
  0
VERTEX
  5
272
  8
LAYER0128
  6
DIVIDE
 62
     3
 10
109.5690733756269
 20
-55.26446448034233
 30
0.0
  0
VERTEX
  5
273
  8
LAYER0128
  6
DIVIDE
 62
     3
 10
109.68402939714
 20
-55.27202564653422
 30
0.0
  0
VERTEX
  5
274
  8
LAYER0128
  6
DIVIDE
 62
     3
 10
109.799187445
 20
-55.27454751
 30
0.0
  0
VERTEX
  5
275
  8
LAYER0128
  6
DIVIDE
 62
     3
 10
109.91434549286
 20
-55.27202564653422
 30
0.0
  0
VERTEX
  5
276
  8
LAYER0128
  6
DIVIDE
 62
     3
 10
110.0293015143731
 20
-55.26446448034232
 30
0.0
  0
VERTEX
  5
277
  8
LAYER0128
  6
DIVIDE
 62
     3
 10
110.1438538376152
 20
-55.25187727627912
 30
0.0
  0
VERTEX
  5
278
  8
LAYER0128
  6
DIVIDE
 62
     3
 10
110.2578014988862
 20
-55.2342861165777
 30
0.0
  0
VERTEX
  5
279
  8
LAYER0128
  6
DIVIDE
 62
     3
 10
110.3709445952686
 20
-55.21172186210968
 30
0.0
  0
VERTEX
  5
27A
  8
LAYER0128
  6
DIVIDE
 62
     3
 10
110.4830846353251
 20
-55.18422409824481
 30
0.0
  0
VERTEX
  5
27B
  8
LAYER0128
  6
DIVIDE
 62
     3
 10
110.5940248873199
 20
-55.15184106540469
 30
0.0
  0
VERTEX
  5
27C
  8
LAYER0128
  6
DIVIDE
 62
     3
 10
110.7035707243533
 20
-55.11462957443275
 30
0.0
  0
VERTEX
  5
27D
  8
LAYER0128
  6
DIVIDE
 62
     3
 10
110.8115299658032
 20
-55.07265490692872
 30
0.0
  0
VERTEX
  5
27E
  8
LAYER0128
  6
DIVIDE
 62
     3
 10
110.9177132144753
 20
-55.02599070072247
 30
0.0
  0
VERTEX
  5
27F
  8
LAYER0128
  6
DIVIDE
 62
     3
 10
111.0219341888701
 20
-54.97471882068831
 30
0.0
  0
VERTEX
  5
280
  8
LAYER0128
  6
DIVIDE
 62
     3
 10
111.1240100499841
 20
-54.9189292151261
 30
0.0
  0
VERTEX
  5
281
  8
LAYER0128
  6
DIVIDE
 62
     3
 10
111.2237617220712
 20
-54.85871975796145
 30
0.0
  0
VERTEX
  5
282
  8
LAYER0128
  6
DIVIDE
 62
     3
 10
111.3210142068027
 20
-54.79419607704153
 30
0.0
  0
VERTEX
  5
283
  8
LAYER0128
  6
DIVIDE
 62
     3
 10
111.4155968902738
 20
-54.72547136882797
 30
0.0
  0
VERTEX
  5
284
  8
LAYER0128
  6
DIVIDE
 62
     3
 10
111.5073438423182
 20
-54.65266619981178
 30
0.0
  0
VERTEX
  5
285
  8
LAYER0128
  6
DIVIDE
 62
     3
 10
111.5960941076063
 20
-54.57590829499879
 30
0.0
  0
VERTEX
  5
286
  8
LAYER0128
  6
DIVIDE
 62
     3
 10
111.6816919880153
 20
-54.49533231383655
 30
0.0
  0
VERTEX
  5
287
  8
LAYER0128
  6
DIVIDE
 62
     3
 10
111.7639873157764
 20
-54.41107961397591
 30
0.0
  0
VERTEX
  5
288
  8
LAYER0128
  6
DIVIDE
 62
     3
 10
111.8428357169207
 20
-54.32329800328171
 30
0.0
  0
VERTEX
  5
289
  8
LAYER0128
  6
DIVIDE
 62
     3
 10
111.9180988645597
 20
-54.23214148052747
 30
0.0
  0
VERTEX
  5
28A
  8
LAYER0128
  6
DIVIDE
 62
     3
 10
111.9896447215579
 20
-54.13776996522932
 30
0.0
  0
VERTEX
  5
28B
  8
LAYER0128
  6
DIVIDE
 62
     3
 10
112.0573477721706
 20
-54.04034901709273
 30
0.0
  0
VERTEX
  5
28C
  8
LAYER0128
  6
DIVIDE
 62
     3
 10
112.1210892422414
 20
-53.94004954556461
 30
0.0
  0
VERTEX
  5
28D
  8
LAYER0128
  6
DIVIDE
 62
     3
 10
112.1807573075723
 20
-53.83704750999999
 30
0.0
  0
VERTEX
  5
28E
  8
LAYER0128
  6
DIVIDE
 62
     3
 10
112.2362472901014
 20
-53.7315236109696
 30
0.0
  0
VERTEX
  5
28F
  8
LAYER0128
  6
DIVIDE
 62
     3
 10
112.2874618415436
 20
-53.62366297324957
 30
0.0
  0
VERTEX
  5
290
  8
LAYER0128
  6
DIVIDE
 62
     3
 10
112.334311114173
 20
-53.51365482104978
 30
0.0
  0
VERTEX
  5
291
  8
LAYER0128
  6
DIVIDE
 62
     3
 10
112.3767129184459
 20
-53.40169214605021
 30
0.0
  0
VERTEX
  5
292
  8
LAYER0128
  6
DIVIDE
 62
     3
 10
112.4145928671893
 20
-53.28797136882796
 30
0.0
  0
VERTEX
  5
293
  8
LAYER0128
  6
DIVIDE
 62
     3
 10
112.4478845061015
 20
-53.17269199426887
 30
0.0
  0
VERTEX
  5
294
  8
LAYER0128
  6
DIVIDE
 62
     3
 10
112.4765294303351
 20
-53.05605626156812
 30
0.0
  0
VERTEX
  5
295
  8
LAYER0128
  6
DIVIDE
 62
     3
 10
112.5004773869596
 20
-52.93826878943395
 30
0.0
  0
VERTEX
  5
296
  8
LAYER0128
  6
DIVIDE
 62
     3
 10
112.5196863631214
 20
-52.81953621711692
 30
0.0
  0
VERTEX
  5
297
  8
LAYER0128
  6
DIVIDE
 62
     3
 10
112.5341226597491
 20
-52.70006684189449
 30
0.0
  0
VERTEX
  5
298
  8
LAYER0128
  6
DIVIDE
 62
     3
 10
112.5437609506728
 20
-52.58007025364677
 30
0.0
  0
VERTEX
  5
299
  8
LAYER0128
  6
DIVIDE
 62
     3
 10
112.5485843270553
 20
-52.45975696716464
 30
0.0
  0
VERTEX
  5
29A
  8
LAYER0128
  6
DIVIDE
 62
     3
 10
112.5485843270553
 20
-52.33933805283534
 30
0.0
  0
VERTEX
  5
29B
  8
LAYER0128
  6
DIVIDE
 62
     3
 10
112.5437609506728
 20
-52.21902476635321
 30
0.0
  0
VERTEX
  5
29C
  8
LAYER0128
  6
DIVIDE
 62
     3
 10
112.5341226597491
 20
-52.09902817810548
 30
0.0
  0
VERTEX
  5
29D
  8
LAYER0128
  6
DIVIDE
 62
     3
 10
112.5196863631214
 20
-51.97955880288306
 30
0.0
  0
VERTEX
  5
29E
  8
LAYER0128
  6
DIVIDE
 62
     3
 10
112.5004773869596
 20
-51.86082623056603
 30
0.0
  0
VERTEX
  5
29F
  8
LAYER0128
  6
DIVIDE
 62
     3
 10
112.4765294303351
 20
-51.74303875843185
 30
0.0
  0
VERTEX
  5
2A0
  8
LAYER0128
  6
DIVIDE
 62
     3
 10
112.4478845061015
 20
-51.6264030257311
 30
0.0
  0
VERTEX
  5
2A1
  8
LAYER0128
  6
DIVIDE
 62
     3
 10
112.4145928671893
 20
-51.51112365117201
 30
0.0
  0
VERTEX
  5
2A2
  8
LAYER0128
  6
DIVIDE
 62
     3
 10
112.3767129184459
 20
-51.39740287394977
 30
0.0
  0
VERTEX
  5
2A3
  8
LAYER0128
  6
DIVIDE
 62
     3
 10
112.334311114173
 20
-51.28544019895019
 30
0.0
  0
VERTEX
  5
2A4
  8
LAYER0128
  6
DIVIDE
 62
     3
 10
112.2874618415436
 20
-51.1754320467504
 30
0.0
  0
VERTEX
  5
2A5
  8
LAYER0128
  6
DIVIDE
 62
     3
 10
112.2362472901013
 20
-51.06757140903039
 30
0.0
  0
VERTEX
  5
2A6
  8
LAYER0128
  6
DIVIDE
 62
     3
 10
112.1807573075723
 20
-50.96204750999998
 30
0.0
  0
VERTEX
  5
2A7
  8
LAYER0128
  6
DIVIDE
 62
     3
 10
112.1210892422414
 20
-50.85904547443537
 30
0.0
  0
VERTEX
  5
2A8
  8
LAYER0128
  6
DIVIDE
 62
     3
 10
112.0573477721706
 20
-50.75874600290724
 30
0.0
  0
VERTEX
  5
2A9
  8
LAYER0128
  6
DIVIDE
 62
     3
 10
111.9896447215579
 20
-50.66132505477066
 30
0.0
  0
VERTEX
  5
2AA
  8
LAYER0128
  6
DIVIDE
 62
     3
 10
111.9180988645597
 20
-50.56695353947251
 30
0.0
  0
VERTEX
  5
2AB
  8
LAYER0128
  6
DIVIDE
 62
     3
 10
111.8428357169207
 20
-50.47579701671827
 30
0.0
  0
VERTEX
  5
2AC
  8
LAYER0128
  6
DIVIDE
 62
     3
 10
111.7639873157764
 20
-50.38801540602406
 30
0.0
  0
VERTEX
  5
2AD
  8
LAYER0128
  6
DIVIDE
 62
     3
 10
111.6816919880153
 20
-50.30376270616343
 30
0.0
  0
VERTEX
  5
2AE
  8
LAYER0128
  6
DIVIDE
 62
     3
 10
111.5960941076063
 20
-50.22318672500119
 30
0.0
  0
VERTEX
  5
2AF
  8
LAYER0128
  6
DIVIDE
 62
     3
 10
111.5073438423182
 20
-50.1464288201882
 30
0.0
  0
VERTEX
  5
2B0
  8
LAYER0128
  6
DIVIDE
 62
     3
 10
111.4155968902738
 20
-50.07362365117201
 30
0.0
  0
VERTEX
  5
2B1
  8
LAYER0128
  6
DIVIDE
 62
     3
 10
111.3210142068027
 20
-50.00489894295846
 30
0.0
  0
VERTEX
  5
2B2
  8
LAYER0128
  6
DIVIDE
 62
     3
 10
111.2237617220712
 20
-49.94037526203854
 30
0.0
  0
VERTEX
  5
2B3
  8
LAYER0128
  6
DIVIDE
 62
     3
 10
111.1240100499841
 20
-49.88016580487388
 30
0.0
  0
VERTEX
  5
2B4
  8
LAYER0128
  6
DIVIDE
 62
     3
 10
111.0219341888701
 20
-49.82437619931168
 30
0.0
  0
VERTEX
  5
2B5
  8
LAYER0128
  6
DIVIDE
 62
     3
 10
110.9177132144753
 20
-49.77310431927751
 30
0.0
  0
VERTEX
  5
2B6
  8
LAYER0128
  6
DIVIDE
 62
     3
 10
110.8115299658032
 20
-49.72644011307127
 30
0.0
  0
VERTEX
  5
2B7
  8
LAYER0128
  6
DIVIDE
 62
     3
 10
110.7035707243533
 20
-49.68446544556723
 30
0.0
  0
VERTEX
  5
2B8
  8
LAYER0128
  6
DIVIDE
 62
     3
 10
110.5940248873199
 20
-49.6472539545953
 30
0.0
  0
VERTEX
  5
2B9
  8
LAYER0128
  6
DIVIDE
 62
     3
 10
110.4830846353251
 20
-49.61487092175518
 30
0.0
  0
VERTEX
  5
2BA
  8
LAYER0128
  6
DIVIDE
 62
     3
 10
110.3709445952686
 20
-49.5873731578903
 30
0.0
  0
VERTEX
  5
2BB
  8
LAYER0128
  6
DIVIDE
 62
     3
 10
110.2578014988862
 20
-49.5648089034223
 30
0.0
  0
VERTEX
  5
2BC
  8
LAYER0128
  6
DIVIDE
 62
     3
 10
110.1438538376152
 20
-49.54721774372087
 30
0.0
  0
VERTEX
  5
2BD
  8
LAYER0128
  6
DIVIDE
 62
     3
 10
110.029301514373
 20
-49.53463053965767
 30
0.0
  0
VERTEX
  5
2BE
  8
LAYER0128
  6
DIVIDE
 62
     3
 10
109.91434549286
 20
-49.52706937346578
 30
0.0
  0
SEQEND
  5
4E4
  8
LAYER0128
  6
DIVIDE
 62
     3
  0
POLYLINE
  5
12D
  8
LAYER0128
  6
DIVIDE
 62
     3
 66
     1
 10
0.0
 20
0.0
 30
0.0
 70
     1
  0
VERTEX
  5
2BF
  8
LAYER0128
  6
DIVIDE
 62
     3
 10
1.0
 20
0.0
 30
0.0
  0
VERTEX
  5
2C0
  8
LAYER0128
  6
DIVIDE
 62
     3
 10
0.9807852804032304
 20
0.1950903220161282
 30
0.0
  0
VERTEX
  5
2C1
  8
LAYER0128
  6
DIVIDE
 62
     3
 10
0.9238795325112867
 20
0.3826834323650898
 30
0.0
  0
VERTEX
  5
2C2
  8
LAYER0128
  6
DIVIDE
 62
     3
 10
0.8314696123025452
 20
0.5555702330196022
 30
0.0
  0
VERTEX
  5
2C3
  8
LAYER0128
  6
DIVIDE
 62
     3
 10
0.7071067811865476
 20
0.7071067811865476
 30
0.0
  0
VERTEX
  5
2C4
  8
LAYER0128
  6
DIVIDE
 62
     3
 10
0.5555702330196023
 20
0.8314696123025452
 30
0.0
  0
VERTEX
  5
2C5
  8
LAYER0128
  6
DIVIDE
 62
     3
 10
0.3826834323650898
 20
0.9238795325112867
 30
0.0
  0
VERTEX
  5
2C6
  8
LAYER0128
  6
DIVIDE
 62
     3
 10
0.1950903220161283
 20
0.9807852804032304
 30
0.0
  0
VERTEX
  5
2C7
  8
LAYER0128
  6
DIVIDE
 62
     3
 10
0.0000000000000001
 20
1.0
 30
0.0
  0
VERTEX
  5
2C8
  8
LAYER0128
  6
DIVIDE
 62
     3
 10
-0.1950903220161282
 20
0.9807852804032304
 30
0.0
  0
VERTEX
  5
2C9
  8
LAYER0128
  6
DIVIDE
 62
     3
 10
-0.3826834323650897
 20
0.9238795325112867
 30
0.0
  0
VERTEX
  5
2CA
  8
LAYER0128
  6
DIVIDE
 62
     3
 10
-0.555570233019602
 20
0.8314696123025453
 30
0.0
  0
VERTEX
  5
2CB
  8
LAYER0128
  6
DIVIDE
 62
     3
 10
-0.7071067811865475
 20
0.7071067811865476
 30
0.0
  0
VERTEX
  5
2CC
  8
LAYER0128
  6
DIVIDE
 62
     3
 10
-0.8314696123025453
 20
0.5555702330196022
 30
0.0
  0
VERTEX
  5
2CD
  8
LAYER0128
  6
DIVIDE
 62
     3
 10
-0.9238795325112868
 20
0.3826834323650894
 30
0.0
  0
VERTEX
  5
2CE
  8
LAYER0128
  6
DIVIDE
 62
     3
 10
-0.9807852804032305
 20
0.1950903220161277
 30
0.0
  0
VERTEX
  5
2CF
  8
LAYER0128
  6
DIVIDE
 62
     3
 10
-1.0
 20
-0.0000000000000008
 30
0.0
  0
VERTEX
  5
2D0
  8
LAYER0128
  6
DIVIDE
 62
     3
 10
-0.9807852804032302
 20
-0.1950903220161292
 30
0.0
  0
VERTEX
  5
2D1
  8
LAYER0128
  6
DIVIDE
 62
     3
 10
-0.9238795325112863
 20
-0.3826834323650909
 30
0.0
  0
VERTEX
  5
2D2
  8
LAYER0128
  6
DIVIDE
 62
     3
 10
-0.8314696123025445
 20
-0.5555702330196034
 30
0.0
  0
VERTEX
  5
2D3
  8
LAYER0128
  6
DIVIDE
 62
     3
 10
-0.7071067811865464
 20
-0.7071067811865487
 30
0.0
  0
VERTEX
  5
2D4
  8
LAYER0128
  6
DIVIDE
 62
     3
 10
-0.5555702330196007
 20
-0.8314696123025462
 30
0.0
  0
VERTEX
  5
2D5
  8
LAYER0128
  6
DIVIDE
 62
     3
 10
-0.3826834323650879
 20
-0.9238795325112875
 30
0.0
  0
VERTEX
  5
2D6
  8
LAYER0128
  6
DIVIDE
 62
     3
 10
-0.1950903220161261
 20
-0.9807852804032309
 30
0.0
  0
VERTEX
  5
2D7
  8
LAYER0128
  6
DIVIDE
 62
     3
 10
0.0000000000000025
 20
-1.0
 30
0.0
  0
VERTEX
  5
2D8
  8
LAYER0128
  6
DIVIDE
 62
     3
 10
0.1950903220161309
 20
-0.9807852804032299
 30
0.0
  0
VERTEX
  5
2D9
  8
LAYER0128
  6
DIVIDE
 62
     3
 10
0.3826834323650924
 20
-0.9238795325112856
 30
0.0
  0
VERTEX
  5
2DA
  8
LAYER0128
  6
DIVIDE
 62
     3
 10
0.5555702330196048
 20
-0.8314696123025435
 30
0.0
  0
VERTEX
  5
2DB
  8
LAYER0128
  6
DIVIDE
 62
     3
 10
0.7071067811865499
 20
-0.7071067811865451
 30
0.0
  0
VERTEX
  5
2DC
  8
LAYER0128
  6
DIVIDE
 62
     3
 10
0.8314696123025472
 20
-0.5555702330195993
 30
0.0
  0
VERTEX
  5
2DD
  8
LAYER0128
  6
DIVIDE
 62
     3
 10
0.9238795325112882
 20
-0.3826834323650863
 30
0.0
  0
VERTEX
  5
2DE
  8
LAYER0128
  6
DIVIDE
 62
     3
 10
0.9807852804032312
 20
-0.1950903220161244
 30
0.0
  0
SEQEND
  5
4E5
  8
LAYER0128
  6
DIVIDE
 62
     3
  0
POLYLINE
  5
12E
  8
LAYER0128
  6
DIVIDE
 62
     3
 66
     1
 10
0.0
 20
0.0
 30
0.0
 70
   128
  0
VERTEX
  5
2DF
  8
LAYER0128
  6
DIVIDE
 62
     3
 10
111.299187445
 20
74.89545249
 30
0.0
  0
VERTEX
  5
2E0
  8
LAYER0128
  6
DIVIDE
 62
     3
 10
111.3314023261248
 20
74.89563266855642
 30
0.0
  0
VERTEX
  5
2E1
  8
LAYER0128
  6
DIVIDE
 62
     3
 10
111.3636134924139
 20
74.89617318344852
 30
0.0
  0
VERTEX
  5
2E2
  8
LAYER0128
  6
DIVIDE
 62
     3
 10
111.39581722946
 20
74.89707397234724
 30
0.0
  0
VERTEX
  5
2E3
  8
LAYER0128
  6
DIVIDE
 62
     3
 10
111.4280098237124
 20
74.89833493137873
 30
0.0
  0
VERTEX
  5
2E4
  8
LAYER0128
  6
DIVIDE
 62
     3
 10
111.4601875629055
 20
74.89995591513643
 30
0.0
  0
VERTEX
  5
2E5
  8
LAYER0128
  6
DIVIDE
 62
     3
 10
111.4923467364866
 20
74.90193673669776
 30
0.0
  0
VERTEX
  5
2E6
  8
LAYER0128
  6
DIVIDE
 62
     3
 10
111.5244836360437
 20
74.90427716764573
 30
0.0
  0
VERTEX
  5
2E7
  8
LAYER0128
  6
DIVIDE
 62
     3
 10
111.5565945557337
 20
74.90697693809523
 30
0.0
  0
VERTEX
  5
2E8
  8
LAYER0128
  6
DIVIDE
 62
     3
 10
111.5886757927091
 20
74.91003573672418
 30
0.0
  0
VERTEX
  5
2E9
  8
LAYER0128
  6
DIVIDE
 62
     3
 10
111.6207236475452
 20
74.91345321080944
 30
0.0
  0
VERTEX
  5
2EA
  8
LAYER0128
  6
DIVIDE
 62
     3
 10
111.6527344246668
 20
74.91722896626744
 30
0.0
  0
VERTEX
  5
2EB
  8
LAYER0128
  6
DIVIDE
 62
     3
 10
111.6847044327744
 20
74.92136256769972
 30
0.0
  0
VERTEX
  5
2EC
  8
LAYER0128
  6
DIVIDE
 62
     3
 10
111.7166299852697
 20
74.92585353844296
 30
0.0
  0
VERTEX
  5
2ED
  8
LAYER0128
  6
DIVIDE
 62
     3
 10
111.7485074006806
 20
74.93070136062417
 30
0.0
  0
VERTEX
  5
2EE
  8
LAYER0128
  6
DIVIDE
 62
     3
 10
111.780333003086
 20
74.93590547522022
 30
0.0
  0
VERTEX
  5
2EF
  8
LAYER0128
  6
DIVIDE
 62
     3
 10
111.8121031225398
 20
74.94146528212241
 30
0.0
  0
VERTEX
  5
2F0
  8
LAYER0128
  6
DIVIDE
 62
     3
 10
111.8438140954934
 20
74.94738014020564
 30
0.0
  0
VERTEX
  5
2F1
  8
LAYER0128
  6
DIVIDE
 62
     3
 10
111.8754622652191
 20
74.9536493674023
 30
0.0
  0
VERTEX
  5
2F2
  8
LAYER0128
  6
DIVIDE
 62
     3
 10
111.9070439822311
 20
74.96027224078104
 30
0.0
  0
VERTEX
  5
2F3
  8
LAYER0128
  6
DIVIDE
 62
     3
 10
111.9385556047065
 20
74.96724799662996
 30
0.0
  0
VERTEX
  5
2F4
  8
LAYER0128
  6
DIVIDE
 62
     3
 10
111.9699934989055
 20
74.97457583054488
 30
0.0
  0
VERTEX
  5
2F5
  8
LAYER0128
  6
DIVIDE
 62
     3
 10
112.0013540395898
 20
74.98225489752188
 30
0.0
  0
VERTEX
  5
2F6
  8
LAYER0128
  6
DIVIDE
 62
     3
 10
112.0326336104417
 20
74.99028431205495
 30
0.0
  0
VERTEX
  5
2F7
  8
LAYER0128
  6
DIVIDE
 62
     3
 10
112.0638286044799
 20
74.99866314823797
 30
0.0
  0
VERTEX
  5
2F8
  8
LAYER0128
  6
DIVIDE
 62
     3
 10
112.0949354244763
 20
75.00739043987147
 30
0.0
  0
VERTEX
  5
2F9
  8
LAYER0128
  6
DIVIDE
 62
     3
 10
112.1259504833704
 20
75.01646518057416
 30
0.0
  0
VERTEX
  5
2FA
  8
LAYER0128
  6
DIVIDE
 62
     3
 10
112.1568702046833
 20
75.02588632389889
 30
0.0
  0
VERTEX
  5
2FB
  8
LAYER0128
  6
DIVIDE
 62
     3
 10
112.1876910229297
 20
75.03565278345332
 30
0.0
  0
VERTEX
  5
2FC
  8
LAYER0128
  6
DIVIDE
 62
     3
 10
112.2184093840291
 20
75.04576343302526
 30
0.0
  0
VERTEX
  5
2FD
  8
LAYER0128
  6
DIVIDE
 62
     3
 10
112.249021745716
 20
75.05621710671244
 30
0.0
  0
VERTEX
  5
2FE
  8
LAYER0128
  6
DIVIDE
 62
     3
 10
112.2795245779482
 20
75.06701259905708
 30
0.0
  0
VERTEX
  5
2FF
  8
LAYER0128
  6
DIVIDE
 62
     3
 10
112.3099143633135
 20
75.07814866518477
 30
0.0
  0
VERTEX
  5
300
  8
LAYER0128
  6
DIVIDE
 62
     3
 10
112.3401875974358
 20
75.08962402094812
 30
0.0
  0
VERTEX
  5
301
  8
LAYER0128
  6
DIVIDE
 62
     3
 10
112.3703407893792
 20
75.10143734307478
 30
0.0
  0
VERTEX
  5
302
  8
LAYER0128
  6
DIVIDE
 62
     3
 10
112.40037046205
 20
75.11358726932008
 30
0.0
  0
VERTEX
  5
303
  8
LAYER0128
  6
DIVIDE
 62
     3
 10
112.4302731525984
 20
75.12607239862403
 30
0.0
  0
VERTEX
  5
304
  8
LAYER0128
  6
DIVIDE
 62
     3
 10
112.4600454128172
 20
75.13889129127301
 30
0.0
  0
VERTEX
  5
305
  8
LAYER0128
  6
DIVIDE
 62
     3
 10
112.4896838095397
 20
75.1520424690657
 30
0.0
  0
VERTEX
  5
306
  8
LAYER0128
  6
DIVIDE
 62
     3
 10
112.5191849250358
 20
75.16552441548355
 30
0.0
  0
VERTEX
  5
307
  8
LAYER0128
  6
DIVIDE
 62
     3
 10
112.5485453574056
 20
75.17933557586564
 30
0.0
  0
VERTEX
  5
308
  8
LAYER0128
  6
DIVIDE
 62
     3
 10
112.5777617209721
 20
75.19347435758804
 30
0.0
  0
VERTEX
  5
309
  8
LAYER0128
  6
DIVIDE
 62
     3
 10
112.6068306466716
 20
75.20793913024735
 30
0.0
  0
VERTEX
  5
30A
  8
LAYER0128
  6
DIVIDE
 62
     3
 10
112.6357487824418
 20
75.22272822584881
 30
0.0
  0
VERTEX
  5
30B
  8
LAYER0128
  6
DIVIDE
 62
     3
 10
112.6645127936089
 20
75.23783993899853
 30
0.0
  0
VERTEX
  5
30C
  8
LAYER0128
  6
DIVIDE
 62
     3
 10
112.6931193632718
 20
75.25327252710028
 30
0.0
  0
VERTEX
  5
30D
  8
LAYER0128
  6
DIVIDE
 62
     3
 10
112.7215651926846
 20
75.26902421055631
 30
0.0
  0
VERTEX
  5
30E
  8
LAYER0128
  6
DIVIDE
 62
     3
 10
112.749847001637
 20
75.28509317297265
 30
0.0
  0
VERTEX
  5
30F
  8
LAYER0128
  6
DIVIDE
 62
     3
 10
112.7779615288328
 20
75.30147756136854
 30
0.0
  0
VERTEX
  5
310
  8
LAYER0128
  6
DIVIDE
 62
     3
 10
112.8059055322656
 20
75.31817548639009
 30
0.0
  0
VERTEX
  5
311
  8
LAYER0128
  6
DIVIDE
 62
     3
 10
112.8336757895929
 20
75.33518502252817
 30
0.0
  0
VERTEX
  5
312
  8
LAYER0128
  6
DIVIDE
 62
     3
 10
112.8612690985075
 20
75.3525042083404
 30
0.0
  0
VERTEX
  5
313
  8
LAYER0128
  6
DIVIDE
 62
     3
 10
112.888682277107
 20
75.37013104667746
 30
0.0
  0
VERTEX
  5
314
  8
LAYER0128
  6
DIVIDE
 62
     3
 10
112.9159121642605
 20
75.38806350491319
 30
0.0
  0
VERTEX
  5
315
  8
LAYER0128
  6
DIVIDE
 62
     3
 10
112.9429556199734
 20
75.4062995151792
 30
0.0
  0
VERTEX
  5
316
  8
LAYER0128
  6
DIVIDE
 62
     3
 10
112.9698095257491
 20
75.42483697460312
 30
0.0
  0
VERTEX
  5
317
  8
LAYER0128
  6
DIVIDE
 62
     3
 10
112.9964707849489
 20
75.44367374555128
 30
0.0
  0
VERTEX
  5
318
  8
LAYER0128
  6
DIVIDE
 62
     3
 10
113.022936323149
 20
75.46280765587504
 30
0.0
  0
VERTEX
  5
319
  8
LAYER0128
  6
DIVIDE
 62
     3
 10
113.049203088495
 20
75.4822364991614
 30
0.0
  0
VERTEX
  5
31A
  8
LAYER0128
  6
DIVIDE
 62
     3
 10
113.0752680520539
 20
75.50195803498735
 30
0.0
  0
VERTEX
  5
31B
  8
LAYER0128
  6
DIVIDE
 62
     3
 10
113.1011282081633
 20
75.52196998917829
 30
0.0
  0
VERTEX
  5
31C
  8
LAYER0128
  6
DIVIDE
 62
     3
 10
113.126780574778
 20
75.54227005407016
 30
0.0
  0
VERTEX
  5
31D
  8
LAYER0128
  6
DIVIDE
 62
     3
 10
113.1522221938139
 20
75.56285588877572
 30
0.0
  0
VERTEX
  5
31E
  8
LAYER0128
  6
DIVIDE
 62
     3
 10
113.1774501314892
 20
75.58372511945431
 30
0.0
  0
VERTEX
  5
31F
  8
LAYER0128
  6
DIVIDE
 62
     3
 10
113.2024614786623
 20
75.60487533958572
 30
0.0
  0
VERTEX
  5
320
  8
LAYER0128
  6
DIVIDE
 62
     3
 10
113.2272533511681
 20
75.62630411024762
 30
0.0
  0
VERTEX
  5
321
  8
LAYER0128
  6
DIVIDE
 62
     3
 10
113.2518228901496
 20
75.64800896039682
 30
0.0
  0
VERTEX
  5
322
  8
LAYER0128
  6
DIVIDE
 62
     3
 10
113.2761672623883
 20
75.66998738715425
 30
0.0
  0
VERTEX
  5
323
  8
LAYER0128
  6
DIVIDE
 62
     3
 10
113.3002836606304
 20
75.69223685609354
 30
0.0
  0
VERTEX
  5
324
  8
LAYER0128
  6
DIVIDE
 62
     3
 10
113.3241693039109
 20
75.7147548015333
 30
0.0
  0
VERTEX
  5
325
  8
LAYER0128
  6
DIVIDE
 62
     3
 10
113.3478214378743
 20
75.73753862683293
 30
0.0
  0
VERTEX
  5
326
  8
LAYER0128
  6
DIVIDE
 62
     3
 10
113.3712373350918
 20
75.7605857046921
 30
0.0
  0
VERTEX
  5
327
  8
LAYER0128
  6
DIVIDE
 62
     3
 10
113.3944142953761
 20
75.78389337745374
 30
0.0
  0
VERTEX
  5
328
  8
LAYER0128
  6
DIVIDE
 62
     3
 10
113.4173496460929
 20
75.8074589574104
 30
0.0
  0
VERTEX
  5
329
  8
LAYER0128
  6
DIVIDE
 62
     3
 10
113.4400407424688
 20
75.83127972711432
 30
0.0
  0
VERTEX
  5
32A
  8
LAYER0128
  6
DIVIDE
 62
     3
 10
113.4624849678965
 20
75.85535293969068
 30
0.0
  0
VERTEX
  5
32B
  8
LAYER0128
  6
DIVIDE
 62
     3
 10
113.4846797342362
 20
75.87967581915439
 30
0.0
  0
VERTEX
  5
32C
  8
LAYER0128
  6
DIVIDE
 62
     3
 10
113.5066224821147
 20
75.9042455607302
 30
0.0
  0
VERTEX
  5
32D
  8
LAYER0128
  6
DIVIDE
 62
     3
 10
113.5283106812198
 20
75.92905933117618
 30
0.0
  0
VERTEX
  5
32E
  8
LAYER0128
  6
DIVIDE
 62
     3
 10
113.5497418305926
 20
75.95411426911032
 30
0.0
  0
VERTEX
  5
32F
  8
LAYER0128
  6
DIVIDE
 62
     3
 10
113.5709134589156
 20
75.9794074853406
 30
0.0
  0
VERTEX
  5
330
  8
LAYER0128
  6
DIVIDE
 62
     3
 10
113.5918231247977
 20
76.0049360631981
 30
0.0
  0
VERTEX
  5
331
  8
LAYER0128
  6
DIVIDE
 62
     3
 10
113.6124684170561
 20
76.03069705887334
 30
0.0
  0
VERTEX
  5
332
  8
LAYER0128
  6
DIVIDE
 62
     3
 10
113.6328469549937
 20
76.05668750175577
 30
0.0
  0
VERTEX
  5
333
  8
LAYER0128
  6
DIVIDE
 62
     3
 10
113.6529563886742
 20
76.08290439477626
 30
0.0
  0
VERTEX
  5
334
  8
LAYER0128
  6
DIVIDE
 62
     3
 10
113.6727943991929
 20
76.1093447147528
 30
0.0
  0
VERTEX
  5
335
  8
LAYER0128
  6
DIVIDE
 62
     3
 10
113.6923586989438
 20
76.136005412739
 30
0.0
  0
VERTEX
  5
336
  8
LAYER0128
  6
DIVIDE
 62
     3
 10
113.711647031884
 20
76.16288341437577
 30
0.0
  0
VERTEX
  5
337
  8
LAYER0128
  6
DIVIDE
 62
     3
 10
113.7306571737933
 20
76.18997562024583
 30
0.0
  0
VERTEX
  5
338
  8
LAYER0128
  6
DIVIDE
 62
     3
 10
113.749386932531
 20
76.21727890623107
 30
0.0
  0
VERTEX
  5
339
  8
LAYER0128
  6
DIVIDE
 62
     3
 10
113.7678341482884
 20
76.24479012387282
 30
0.0
  0
VERTEX
  5
33A
  8
LAYER0128
  6
DIVIDE
 62
     3
 10
113.7859966938382
 20
76.27250610073493
 30
0.0
  0
VERTEX
  5
33B
  8
LAYER0128
  6
DIVIDE
 62
     3
 10
113.8038724747797
 20
76.30042364076961
 30
0.0
  0
VERTEX
  5
33C
  8
LAYER0128
  6
DIVIDE
 62
     3
 10
113.8214594297801
 20
76.32853952468592
 30
0.0
  0
VERTEX
  5
33D
  8
LAYER0128
  6
DIVIDE
 62
     3
 10
113.8387555308124
 20
76.35685051032107
 30
0.0
  0
VERTEX
  5
33E
  8
LAYER0128
  6
DIVIDE
 62
     3
 10
113.8557587833893
 20
76.38535333301424
 30
0.0
  0
VERTEX
  5
33F
  8
LAYER0128
  6
DIVIDE
 62
     3
 10
113.8724672267929
 20
76.41404470598307
 30
0.0
  0
VERTEX
  5
340
  8
LAYER0128
  6
DIVIDE
 62
     3
 10
113.8888789343013
 20
76.44292132070265
 30
0.0
  0
VERTEX
  5
341
  8
LAYER0128
  6
DIVIDE
 62
     3
 10
113.9049920134102
 20
76.47197984728706
 30
0.0
  0
VERTEX
  5
342
  8
LAYER0128
  6
DIVIDE
 62
     3
 10
113.9208046060517
 20
76.50121693487334
 30
0.0
  0
VERTEX
  5
343
  8
LAYER0128
  6
DIVIDE
 62
     3
 10
113.936314888808
 20
76.53062921200791
 30
0.0
  0
VERTEX
  5
344
  8
LAYER0128
  6
DIVIDE
 62
     3
 10
113.9515210731221
 20
76.56021328703531
 30
0.0
  0
VERTEX
  5
345
  8
LAYER0128
  6
DIVIDE
 62
     3
 10
113.9664214055039
 20
76.58996574848933
 30
0.0
  0
VERTEX
  5
346
  8
LAYER0128
  6
DIVIDE
 62
     3
 10
113.9810141677322
 20
76.61988316548646
 30
0.0
  0
VERTEX
  5
347
  8
LAYER0128
  6
DIVIDE
 62
     3
 10
113.9952976770534
 20
76.64996208812137
 30
0.0
  0
VERTEX
  5
348
  8
LAYER0128
  6
DIVIDE
 62
     3
 10
114.0092702863749
 20
76.6801990478649
 30
0.0
  0
VERTEX
  5
349
  8
LAYER0128
  6
DIVIDE
 62
     3
 10
114.0229303844553
 20
76.71059055796391
 30
0.0
  0
VERTEX
  5
34A
  8
LAYER0128
  6
DIVIDE
 62
     3
 10
114.0362763960904
 20
76.74113311384342
 30
0.0
  0
VERTEX
  5
34B
  8
LAYER0128
  6
DIVIDE
 62
     3
 10
114.0493067822944
 20
76.77182319351071
 30
0.0
  0
VERTEX
  5
34C
  8
LAYER0128
  6
DIVIDE
 62
     3
 10
114.0620200404778
 20
76.80265725796144
 30
0.0
  0
VERTEX
  5
34D
  8
LAYER0128
  6
DIVIDE
 62
     3
 10
114.0744147046205
 20
76.83363175158782
 30
0.0
  0
VERTEX
  5
34E
  8
LAYER0128
  6
DIVIDE
 62
     3
 10
114.0864893454406
 20
76.86474310258852
 30
0.0
  0
VERTEX
  5
34F
  8
LAYER0128
  6
DIVIDE
 62
     3
 10
114.0982425705599
 20
76.89598772338061
 30
0.0
  0
VERTEX
  5
350
  8
LAYER0128
  6
DIVIDE
 62
     3
 10
114.1096730246635
 20
76.92736201101329
 30
0.0
  0
VERTEX
  5
351
  8
LAYER0128
  6
DIVIDE
 62
     3
 10
114.1207793896569
 20
76.95886234758326
 30
0.0
  0
VERTEX
  5
352
  8
LAYER0128
  6
DIVIDE
 62
     3
 10
114.1315603848178
 20
76.99048510065205
 30
0.0
  0
VERTEX
  5
353
  8
LAYER0128
  6
DIVIDE
 62
     3
 10
114.1420147669435
 20
77.02222662366475
 30
0.0
  0
VERTEX
  5
354
  8
LAYER0128
  6
DIVIDE
 62
     3
 10
114.1521413304945
 20
77.05408325637062
 30
0.0
  0
VERTEX
  5
355
  8
LAYER0128
  6
DIVIDE
 62
     3
 10
114.1619389077333
 20
77.08605132524512
 30
0.0
  0
VERTEX
  5
356
  8
LAYER0128
  6
DIVIDE
 62
     3
 10
114.1714063688595
 20
77.11812714391354
 30
0.0
  0
VERTEX
  5
357
  8
LAYER0128
  6
DIVIDE
 62
     3
 10
114.1805426221397
 20
77.15030701357605
 30
0.0
  0
VERTEX
  5
358
  8
LAYER0128
  6
DIVIDE
 62
     3
 10
114.1893466140335
 20
77.1825872234343
 30
0.0
  0
VERTEX
  5
359
  8
LAYER0128
  6
DIVIDE
 62
     3
 10
114.1978173293148
 20
77.21496405111922
 30
0.0
  0
VERTEX
  5
35A
  8
LAYER0128
  6
DIVIDE
 62
     3
 10
114.2059537911893
 20
77.2474337631204
 30
0.0
  0
VERTEX
  5
35B
  8
LAYER0128
  6
DIVIDE
 62
     3
 10
114.2137550614067
 20
77.27999261521649
 30
0.0
  0
VERTEX
  5
35C
  8
LAYER0128
  6
DIVIDE
 62
     3
 10
114.2212202403693
 20
77.31263685290702
 30
0.0
  0
VERTEX
  5
35D
  8
LAYER0128
  6
DIVIDE
 62
     3
 10
114.2283484672354
 20
77.34536271184537
 30
0.0
  0
VERTEX
  5
35E
  8
LAYER0128
  6
DIVIDE
 62
     3
 10
114.2351389200185
 20
77.3781664182728
 30
0.0
  0
VERTEX
  5
35F
  8
LAYER0128
  6
DIVIDE
 62
     3
 10
114.2415908156826
 20
77.41104418945363
 30
0.0
  0
VERTEX
  5
360
  8
LAYER0128
  6
DIVIDE
 62
     3
 10
114.247703410232
 20
77.44399223411152
 30
0.0
  0
VERTEX
  5
361
  8
LAYER0128
  6
DIVIDE
 62
     3
 10
114.2534759987972
 20
77.4770067528665
 30
0.0
  0
VERTEX
  5
362
  8
LAYER0128
  6
DIVIDE
 62
     3
 10
114.2589079157165
 20
77.51008393867328
 30
0.0
  0
VERTEX
  5
363
  8
LAYER0128
  6
DIVIDE
 62
     3
 10
114.2639985346122
 20
77.5432199772601
 30
0.0
  0
VERTEX
  5
364
  8
LAYER0128
  6
DIVIDE
 62
     3
 10
114.2687472684632
 20
77.57641104756866
 30
0.0
  0
VERTEX
  5
365
  8
LAYER0128
  6
DIVIDE
 62
     3
 10
114.2731535696729
 20
77.60965332219472
 30
0.0
  0
VERTEX
  5
366
  8
LAYER0128
  6
DIVIDE
 62
     3
 10
114.2772169301317
 20
77.64294296782943
 30
0.0
  0
VERTEX
  5
367
  8
LAYER0128
  6
DIVIDE
 62
     3
 10
114.2809368812762
 20
77.67627614570142
 30
0.0
  0
VERTEX
  5
368
  8
LAYER0128
  6
DIVIDE
 62
     3
 10
114.284312994143
 20
77.70964901201941
 30
0.0
  0
VERTEX
  5
369
  8
LAYER0128
  6
DIVIDE
 62
     3
 10
114.2873448794179
 20
77.74305771841549
 30
0.0
  0
VERTEX
  5
36A
  8
LAYER0128
  6
DIVIDE
 62
     3
 10
114.2900321874814
 20
77.77649841238883
 30
0.0
  0
VERTEX
  5
36B
  8
LAYER0128
  6
DIVIDE
 62
     3
 10
114.2923746084484
 20
77.80996723775004
 30
0.0
  0
VERTEX
  5
36C
  8
LAYER0128
  6
DIVIDE
 62
     3
 10
114.2943718722044
 20
77.84346033506576
 30
0.0
  0
VERTEX
  5
36D
  8
LAYER0128
  6
DIVIDE
 62
     3
 10
114.2960237484364
 20
77.8769738421037
 30
0.0
  0
VERTEX
  5
36E
  8
LAYER0128
  6
DIVIDE
 62
     3
 10
114.2973300466594
 20
77.91050389427804
 30
0.0
  0
VERTEX
  5
36F
  8
LAYER0128
  6
DIVIDE
 62
     3
 10
114.2982906162386
 20
77.94404662509511
 30
0.0
  0
VERTEX
  5
370
  8
LAYER0128
  6
DIVIDE
 62
     3
 10
114.2989053464067
 20
77.9775981665992
 30
0.0
  0
VERTEX
  5
371
  8
LAYER0128
  6
DIVIDE
 62
     3
 10
114.2991741662764
 20
78.01115464981855
 30
0.0
  0
VERTEX
  5
372
  8
LAYER0128
  6
DIVIDE
 62
     3
 10
114.299097044849
 20
78.04471220521162
 30
0.0
  0
VERTEX
  5
373
  8
LAYER0128
  6
DIVIDE
 62
     3
 10
114.2986739910178
 20
78.0782669631132
 30
0.0
  0
VERTEX
  5
374
  8
LAYER0128
  6
DIVIDE
 62
     3
 10
114.2979050535667
 20
78.11181505418065
 30
0.0
  0
VERTEX
  5
375
  8
LAYER0128
  6
DIVIDE
 62
     3
 10
114.2967903211654
 20
78.14535260984016
 30
0.0
  0
SEQEND
  5
4E6
  8
LAYER0128
  6
DIVIDE
 62
     3
  0
POLYLINE
  5
12F
  8
LAYER0128
  6
DIVIDE
 62
     3
 66
     1
 10
0.0
 20
0.0
 30
0.0
 70
     1
  0
VERTEX
  5
376
  8
LAYER0128
  6
DIVIDE
 62
     3
 10
1.0
 20
0.0
 30
0.0
  0
VERTEX
  5
377
  8
LAYER0128
  6
DIVIDE
 62
     3
 10
0.9807852804032304
 20
0.1950903220161282
 30
0.0
  0
VERTEX
  5
378
  8
LAYER0128
  6
DIVIDE
 62
     3
 10
0.9238795325112867
 20
0.3826834323650898
 30
0.0
  0
VERTEX
  5
379
  8
LAYER0128
  6
DIVIDE
 62
     3
 10
0.8314696123025452
 20
0.5555702330196022
 30
0.0
  0
VERTEX
  5
37A
  8
LAYER0128
  6
DIVIDE
 62
     3
 10
0.7071067811865476
 20
0.7071067811865476
 30
0.0
  0
VERTEX
  5
37B
  8
LAYER0128
  6
DIVIDE
 62
     3
 10
0.5555702330196023
 20
0.8314696123025452
 30
0.0
  0
VERTEX
  5
37C
  8
LAYER0128
  6
DIVIDE
 62
     3
 10
0.3826834323650898
 20
0.9238795325112867
 30
0.0
  0
VERTEX
  5
37D
  8
LAYER0128
  6
DIVIDE
 62
     3
 10
0.1950903220161283
 20
0.9807852804032304
 30
0.0
  0
VERTEX
  5
37E
  8
LAYER0128
  6
DIVIDE
 62
     3
 10
0.0000000000000001
 20
1.0
 30
0.0
  0
VERTEX
  5
37F
  8
LAYER0128
  6
DIVIDE
 62
     3
 10
-0.1950903220161282
 20
0.9807852804032304
 30
0.0
  0
VERTEX
  5
380
  8
LAYER0128
  6
DIVIDE
 62
     3
 10
-0.3826834323650897
 20
0.9238795325112867
 30
0.0
  0
VERTEX
  5
381
  8
LAYER0128
  6
DIVIDE
 62
     3
 10
-0.555570233019602
 20
0.8314696123025453
 30
0.0
  0
VERTEX
  5
382
  8
LAYER0128
  6
DIVIDE
 62
     3
 10
-0.7071067811865475
 20
0.7071067811865476
 30
0.0
  0
VERTEX
  5
383
  8
LAYER0128
  6
DIVIDE
 62
     3
 10
-0.8314696123025453
 20
0.5555702330196022
 30
0.0
  0
VERTEX
  5
384
  8
LAYER0128
  6
DIVIDE
 62
     3
 10
-0.9238795325112868
 20
0.3826834323650894
 30
0.0
  0
VERTEX
  5
385
  8
LAYER0128
  6
DIVIDE
 62
     3
 10
-0.9807852804032305
 20
0.1950903220161277
 30
0.0
  0
VERTEX
  5
386
  8
LAYER0128
  6
DIVIDE
 62
     3
 10
-1.0
 20
-0.0000000000000008
 30
0.0
  0
VERTEX
  5
387
  8
LAYER0128
  6
DIVIDE
 62
     3
 10
-0.9807852804032302
 20
-0.1950903220161292
 30
0.0
  0
VERTEX
  5
388
  8
LAYER0128
  6
DIVIDE
 62
     3
 10
-0.9238795325112863
 20
-0.3826834323650909
 30
0.0
  0
VERTEX
  5
389
  8
LAYER0128
  6
DIVIDE
 62
     3
 10
-0.8314696123025445
 20
-0.5555702330196034
 30
0.0
  0
VERTEX
  5
38A
  8
LAYER0128
  6
DIVIDE
 62
     3
 10
-0.7071067811865464
 20
-0.7071067811865487
 30
0.0
  0
VERTEX
  5
38B
  8
LAYER0128
  6
DIVIDE
 62
     3
 10
-0.5555702330196007
 20
-0.8314696123025462
 30
0.0
  0
VERTEX
  5
38C
  8
LAYER0128
  6
DIVIDE
 62
     3
 10
-0.3826834323650879
 20
-0.9238795325112875
 30
0.0
  0
VERTEX
  5
38D
  8
LAYER0128
  6
DIVIDE
 62
     3
 10
-0.1950903220161261
 20
-0.9807852804032309
 30
0.0
  0
VERTEX
  5
38E
  8
LAYER0128
  6
DIVIDE
 62
     3
 10
0.0000000000000025
 20
-1.0
 30
0.0
  0
VERTEX
  5
38F
  8
LAYER0128
  6
DIVIDE
 62
     3
 10
0.1950903220161309
 20
-0.9807852804032299
 30
0.0
  0
VERTEX
  5
390
  8
LAYER0128
  6
DIVIDE
 62
     3
 10
0.3826834323650924
 20
-0.9238795325112856
 30
0.0
  0
VERTEX
  5
391
  8
LAYER0128
  6
DIVIDE
 62
     3
 10
0.5555702330196048
 20
-0.8314696123025435
 30
0.0
  0
VERTEX
  5
392
  8
LAYER0128
  6
DIVIDE
 62
     3
 10
0.7071067811865499
 20
-0.7071067811865451
 30
0.0
  0
VERTEX
  5
393
  8
LAYER0128
  6
DIVIDE
 62
     3
 10
0.8314696123025472
 20
-0.5555702330195993
 30
0.0
  0
VERTEX
  5
394
  8
LAYER0128
  6
DIVIDE
 62
     3
 10
0.9238795325112882
 20
-0.3826834323650863
 30
0.0
  0
VERTEX
  5
395
  8
LAYER0128
  6
DIVIDE
 62
     3
 10
0.9807852804032312
 20
-0.1950903220161244
 30
0.0
  0
SEQEND
  5
4E7
  8
LAYER0128
  6
DIVIDE
 62
     3
  0
POLYLINE
  5
130
  8
LAYER0128
  6
DIVIDE
 62
     3
 66
     1
 10
0.0
 20
0.0
 30
0.0
 70
   128
  0
VERTEX
  5
396
  8
LAYER0128
  6
DIVIDE
 62
     3
 10
105.3015845688346
 20
78.14535260984022
 30
0.0
  0
VERTEX
  5
397
  8
LAYER0128
  6
DIVIDE
 62
     3
 10
105.3004698364333
 20
78.11181505418071
 30
0.0
  0
VERTEX
  5
398
  8
LAYER0128
  6
DIVIDE
 62
     3
 10
105.2997008989823
 20
78.07826696311325
 30
0.0
  0
VERTEX
  5
399
  8
LAYER0128
  6
DIVIDE
 62
     3
 10
105.299277845151
 20
78.04471220521168
 30
0.0
  0
VERTEX
  5
39A
  8
LAYER0128
  6
DIVIDE
 62
     3
 10
105.2992007237236
 20
78.01115464981861
 30
0.0
  0
VERTEX
  5
39B
  8
LAYER0128
  6
DIVIDE
 62
     3
 10
105.2994695435933
 20
77.97759816659925
 30
0.0
  0
VERTEX
  5
39C
  8
LAYER0128
  6
DIVIDE
 62
     3
 10
105.3000842737614
 20
77.94404662509517
 30
0.0
  0
VERTEX
  5
39D
  8
LAYER0128
  6
DIVIDE
 62
     3
 10
105.3010448433406
 20
77.9105038942781
 30
0.0
  0
VERTEX
  5
39E
  8
LAYER0128
  6
DIVIDE
 62
     3
 10
105.3023511415636
 20
77.87697384210374
 30
0.0
  0
VERTEX
  5
39F
  8
LAYER0128
  6
DIVIDE
 62
     3
 10
105.3040030177956
 20
77.8434603350658
 30
0.0
  0
VERTEX
  5
3A0
  8
LAYER0128
  6
DIVIDE
 62
     3
 10
105.3060002815516
 20
77.80996723775009
 30
0.0
  0
VERTEX
  5
3A1
  8
LAYER0128
  6
DIVIDE
 62
     3
 10
105.3083427025186
 20
77.77649841238888
 30
0.0
  0
VERTEX
  5
3A2
  8
LAYER0128
  6
DIVIDE
 62
     3
 10
105.3110300105821
 20
77.74305771841553
 30
0.0
  0
VERTEX
  5
3A3
  8
LAYER0128
  6
DIVIDE
 62
     3
 10
105.314061895857
 20
77.70964901201945
 30
0.0
  0
VERTEX
  5
3A4
  8
LAYER0128
  6
DIVIDE
 62
     3
 10
105.3174380087238
 20
77.67627614570146
 30
0.0
  0
VERTEX
  5
3A5
  8
LAYER0128
  6
DIVIDE
 62
     3
 10
105.3211579598683
 20
77.64294296782947
 30
0.0
  0
VERTEX
  5
3A6
  8
LAYER0128
  6
DIVIDE
 62
     3
 10
105.3252213203271
 20
77.60965332219475
 30
0.0
  0
VERTEX
  5
3A7
  8
LAYER0128
  6
DIVIDE
 62
     3
 10
105.3296276215368
 20
77.57641104756868
 30
0.0
  0
VERTEX
  5
3A8
  8
LAYER0128
  6
DIVIDE
 62
     3
 10
105.3343763553878
 20
77.54321997726012
 30
0.0
  0
VERTEX
  5
3A9
  8
LAYER0128
  6
DIVIDE
 62
     3
 10
105.3394669742835
 20
77.5100839386733
 30
0.0
  0
VERTEX
  5
3AA
  8
LAYER0128
  6
DIVIDE
 62
     3
 10
105.3448988912028
 20
77.47700675286653
 30
0.0
  0
VERTEX
  5
3AB
  8
LAYER0128
  6
DIVIDE
 62
     3
 10
105.350671479768
 20
77.44399223411155
 30
0.0
  0
VERTEX
  5
3AC
  8
LAYER0128
  6
DIVIDE
 62
     3
 10
105.3567840743174
 20
77.41104418945366
 30
0.0
  0
VERTEX
  5
3AD
  8
LAYER0128
  6
DIVIDE
 62
     3
 10
105.3632359699815
 20
77.37816641827283
 30
0.0
  0
VERTEX
  5
3AE
  8
LAYER0128
  6
DIVIDE
 62
     3
 10
105.3700264227646
 20
77.3453627118454
 30
0.0
  0
VERTEX
  5
3AF
  8
LAYER0128
  6
DIVIDE
 62
     3
 10
105.3771546496307
 20
77.31263685290705
 30
0.0
  0
VERTEX
  5
3B0
  8
LAYER0128
  6
DIVIDE
 62
     3
 10
105.3846198285933
 20
77.27999261521651
 30
0.0
  0
VERTEX
  5
3B1
  8
LAYER0128
  6
DIVIDE
 62
     3
 10
105.3924210988107
 20
77.24743376312043
 30
0.0
  0
VERTEX
  5
3B2
  8
LAYER0128
  6
DIVIDE
 62
     3
 10
105.4005575606852
 20
77.21496405111924
 30
0.0
  0
VERTEX
  5
3B3
  8
LAYER0128
  6
DIVIDE
 62
     3
 10
105.4090282759665
 20
77.18258722343431
 30
0.0
  0
VERTEX
  5
3B4
  8
LAYER0128
  6
DIVIDE
 62
     3
 10
105.4178322678602
 20
77.15030701357607
 30
0.0
  0
VERTEX
  5
3B5
  8
LAYER0128
  6
DIVIDE
 62
     3
 10
105.4269685211405
 20
77.11812714391355
 30
0.0
  0
VERTEX
  5
3B6
  8
LAYER0128
  6
DIVIDE
 62
     3
 10
105.4364359822667
 20
77.08605132524514
 30
0.0
  0
VERTEX
  5
3B7
  8
LAYER0128
  6
DIVIDE
 62
     3
 10
105.4462335595055
 20
77.05408325637063
 30
0.0
  0
VERTEX
  5
3B8
  8
LAYER0128
  6
DIVIDE
 62
     3
 10
105.4563601230565
 20
77.02222662366476
 30
0.0
  0
VERTEX
  5
3B9
  8
LAYER0128
  6
DIVIDE
 62
     3
 10
105.4668145051821
 20
76.99048510065207
 30
0.0
  0
VERTEX
  5
3BA
  8
LAYER0128
  6
DIVIDE
 62
     3
 10
105.4775955003431
 20
76.95886234758328
 30
0.0
  0
VERTEX
  5
3BB
  8
LAYER0128
  6
DIVIDE
 62
     3
 10
105.4887018653365
 20
76.9273620110133
 30
0.0
  0
VERTEX
  5
3BC
  8
LAYER0128
  6
DIVIDE
 62
     3
 10
105.5001323194401
 20
76.89598772338061
 30
0.0
  0
VERTEX
  5
3BD
  8
LAYER0128
  6
DIVIDE
 62
     3
 10
105.5118855445594
 20
76.86474310258852
 30
0.0
  0
VERTEX
  5
3BE
  8
LAYER0128
  6
DIVIDE
 62
     3
 10
105.5239601853795
 20
76.83363175158782
 30
0.0
  0
VERTEX
  5
3BF
  8
LAYER0128
  6
DIVIDE
 62
     3
 10
105.5363548495222
 20
76.80265725796144
 30
0.0
  0
VERTEX
  5
3C0
  8
LAYER0128
  6
DIVIDE
 62
     3
 10
105.5490681077056
 20
76.77182319351071
 30
0.0
  0
VERTEX
  5
3C1
  8
LAYER0128
  6
DIVIDE
 62
     3
 10
105.5620984939096
 20
76.74113311384342
 30
0.0
  0
VERTEX
  5
3C2
  8
LAYER0128
  6
DIVIDE
 62
     3
 10
105.5754445055447
 20
76.71059055796391
 30
0.0
  0
VERTEX
  5
3C3
  8
LAYER0128
  6
DIVIDE
 62
     3
 10
105.5891046036251
 20
76.6801990478649
 30
0.0
  0
VERTEX
  5
3C4
  8
LAYER0128
  6
DIVIDE
 62
     3
 10
105.6030772129466
 20
76.64996208812137
 30
0.0
  0
VERTEX
  5
3C5
  8
LAYER0128
  6
DIVIDE
 62
     3
 10
105.6173607222678
 20
76.61988316548646
 30
0.0
  0
VERTEX
  5
3C6
  8
LAYER0128
  6
DIVIDE
 62
     3
 10
105.6319534844962
 20
76.58996574848933
 30
0.0
  0
VERTEX
  5
3C7
  8
LAYER0128
  6
DIVIDE
 62
     3
 10
105.6468538168779
 20
76.5602132870353
 30
0.0
  0
VERTEX
  5
3C8
  8
LAYER0128
  6
DIVIDE
 62
     3
 10
105.662060001192
 20
76.5306292120079
 30
0.0
  0
VERTEX
  5
3C9
  8
LAYER0128
  6
DIVIDE
 62
     3
 10
105.6775702839483
 20
76.50121693487334
 30
0.0
  0
VERTEX
  5
3CA
  8
LAYER0128
  6
DIVIDE
 62
     3
 10
105.6933828765898
 20
76.47197984728705
 30
0.0
  0
VERTEX
  5
3CB
  8
LAYER0128
  6
DIVIDE
 62
     3
 10
105.7094959556987
 20
76.44292132070264
 30
0.0
  0
VERTEX
  5
3CC
  8
LAYER0128
  6
DIVIDE
 62
     3
 10
105.7259076632071
 20
76.41404470598306
 30
0.0
  0
VERTEX
  5
3CD
  8
LAYER0128
  6
DIVIDE
 62
     3
 10
105.7426161066108
 20
76.38535333301422
 30
0.0
  0
VERTEX
  5
3CE
  8
LAYER0128
  6
DIVIDE
 62
     3
 10
105.7596193591876
 20
76.35685051032105
 30
0.0
  0
VERTEX
  5
3CF
  8
LAYER0128
  6
DIVIDE
 62
     3
 10
105.7769154602199
 20
76.32853952468591
 30
0.0
  0
VERTEX
  5
3D0
  8
LAYER0128
  6
DIVIDE
 62
     3
 10
105.7945024152203
 20
76.3004236407696
 30
0.0
  0
VERTEX
  5
3D1
  8
LAYER0128
  6
DIVIDE
 62
     3
 10
105.8123781961618
 20
76.27250610073492
 30
0.0
  0
VERTEX
  5
3D2
  8
LAYER0128
  6
DIVIDE
 62
     3
 10
105.8305407417117
 20
76.2447901238728
 30
0.0
  0
VERTEX
  5
3D3
  8
LAYER0128
  6
DIVIDE
 62
     3
 10
105.8489879574691
 20
76.21727890623104
 30
0.0
  0
VERTEX
  5
3D4
  8
LAYER0128
  6
DIVIDE
 62
     3
 10
105.8677177162067
 20
76.18997562024582
 30
0.0
  0
VERTEX
  5
3D5
  8
LAYER0128
  6
DIVIDE
 62
     3
 10
105.886727858116
 20
76.16288341437576
 30
0.0
  0
VERTEX
  5
3D6
  8
LAYER0128
  6
DIVIDE
 62
     3
 10
105.9060161910562
 20
76.13600541273897
 30
0.0
  0
VERTEX
  5
3D7
  8
LAYER0128
  6
DIVIDE
 62
     3
 10
105.9255804908071
 20
76.10934471475277
 30
0.0
  0
VERTEX
  5
3D8
  8
LAYER0128
  6
DIVIDE
 62
     3
 10
105.9454185013258
 20
76.08290439477624
 30
0.0
  0
VERTEX
  5
3D9
  8
LAYER0128
  6
DIVIDE
 62
     3
 10
105.9655279350063
 20
76.05668750175575
 30
0.0
  0
VERTEX
  5
3DA
  8
LAYER0128
  6
DIVIDE
 62
     3
 10
105.9859064729439
 20
76.03069705887332
 30
0.0
  0
VERTEX
  5
3DB
  8
LAYER0128
  6
DIVIDE
 62
     3
 10
106.0065517652023
 20
76.00493606319807
 30
0.0
  0
VERTEX
  5
3DC
  8
LAYER0128
  6
DIVIDE
 62
     3
 10
106.0274614310844
 20
75.97940748534057
 30
0.0
  0
VERTEX
  5
3DD
  8
LAYER0128
  6
DIVIDE
 62
     3
 10
106.0486330594074
 20
75.95411426911029
 30
0.0
  0
VERTEX
  5
3DE
  8
LAYER0128
  6
DIVIDE
 62
     3
 10
106.0700642087802
 20
75.92905933117615
 30
0.0
  0
VERTEX
  5
3DF
  8
LAYER0128
  6
DIVIDE
 62
     3
 10
106.0917524078853
 20
75.90424556073017
 30
0.0
  0
VERTEX
  5
3E0
  8
LAYER0128
  6
DIVIDE
 62
     3
 10
106.1136951557638
 20
75.87967581915436
 30
0.0
  0
VERTEX
  5
3E1
  8
LAYER0128
  6
DIVIDE
 62
     3
 10
106.1358899221036
 20
75.85535293969065
 30
0.0
  0
VERTEX
  5
3E2
  8
LAYER0128
  6
DIVIDE
 62
     3
 10
106.1583341475312
 20
75.83127972711429
 30
0.0
  0
VERTEX
  5
3E3
  8
LAYER0128
  6
DIVIDE
 62
     3
 10
106.1810252439071
 20
75.80745895741038
 30
0.0
  0
VERTEX
  5
3E4
  8
LAYER0128
  6
DIVIDE
 62
     3
 10
106.2039605946239
 20
75.78389337745371
 30
0.0
  0
VERTEX
  5
3E5
  8
LAYER0128
  6
DIVIDE
 62
     3
 10
106.2271375549082
 20
75.76058570469208
 30
0.0
  0
VERTEX
  5
3E6
  8
LAYER0128
  6
DIVIDE
 62
     3
 10
106.2505534521257
 20
75.7375386268329
 30
0.0
  0
VERTEX
  5
3E7
  8
LAYER0128
  6
DIVIDE
 62
     3
 10
106.2742055860891
 20
75.71475480153327
 30
0.0
  0
VERTEX
  5
3E8
  8
LAYER0128
  6
DIVIDE
 62
     3
 10
106.2980912293697
 20
75.69223685609353
 30
0.0
  0
VERTEX
  5
3E9
  8
LAYER0128
  6
DIVIDE
 62
     3
 10
106.3222076276118
 20
75.66998738715424
 30
0.0
  0
VERTEX
  5
3EA
  8
LAYER0128
  6
DIVIDE
 62
     3
 10
106.3465519998504
 20
75.6480089603968
 30
0.0
  0
VERTEX
  5
3EB
  8
LAYER0128
  6
DIVIDE
 62
     3
 10
106.3711215388319
 20
75.62630411024759
 30
0.0
  0
VERTEX
  5
3EC
  8
LAYER0128
  6
DIVIDE
 62
     3
 10
106.3959134113377
 20
75.60487533958569
 30
0.0
  0
VERTEX
  5
3ED
  8
LAYER0128
  6
DIVIDE
 62
     3
 10
106.4209247585109
 20
75.58372511945429
 30
0.0
  0
VERTEX
  5
3EE
  8
LAYER0128
  6
DIVIDE
 62
     3
 10
106.4461526961861
 20
75.56285588877569
 30
0.0
  0
VERTEX
  5
3EF
  8
LAYER0128
  6
DIVIDE
 62
     3
 10
106.471594315222
 20
75.54227005407014
 30
0.0
  0
VERTEX
  5
3F0
  8
LAYER0128
  6
DIVIDE
 62
     3
 10
106.4972466818367
 20
75.52196998917826
 30
0.0
  0
VERTEX
  5
3F1
  8
LAYER0128
  6
DIVIDE
 62
     3
 10
106.5231068379461
 20
75.50195803498734
 30
0.0
  0
VERTEX
  5
3F2
  8
LAYER0128
  6
DIVIDE
 62
     3
 10
106.549171801505
 20
75.48223649916137
 30
0.0
  0
VERTEX
  5
3F3
  8
LAYER0128
  6
DIVIDE
 62
     3
 10
106.575438566851
 20
75.46280765587503
 30
0.0
  0
VERTEX
  5
3F4
  8
LAYER0128
  6
DIVIDE
 62
     3
 10
106.6019041050511
 20
75.44367374555125
 30
0.0
  0
VERTEX
  5
3F5
  8
LAYER0128
  6
DIVIDE
 62
     3
 10
106.6285653642509
 20
75.42483697460311
 30
0.0
  0
VERTEX
  5
3F6
  8
LAYER0128
  6
DIVIDE
 62
     3
 10
106.6554192700266
 20
75.40629951517917
 30
0.0
  0
VERTEX
  5
3F7
  8
LAYER0128
  6
DIVIDE
 62
     3
 10
106.6824627257395
 20
75.38806350491318
 30
0.0
  0
VERTEX
  5
3F8
  8
LAYER0128
  6
DIVIDE
 62
     3
 10
106.709692612893
 20
75.37013104667743
 30
0.0
  0
VERTEX
  5
3F9
  8
LAYER0128
  6
DIVIDE
 62
     3
 10
106.7371057914925
 20
75.35250420834039
 30
0.0
  0
VERTEX
  5
3FA
  8
LAYER0128
  6
DIVIDE
 62
     3
 10
106.7646991004071
 20
75.33518502252814
 30
0.0
  0
VERTEX
  5
3FB
  8
LAYER0128
  6
DIVIDE
 62
     3
 10
106.7924693577344
 20
75.31817548639007
 30
0.0
  0
VERTEX
  5
3FC
  8
LAYER0128
  6
DIVIDE
 62
     3
 10
106.8204133611672
 20
75.30147756136853
 30
0.0
  0
VERTEX
  5
3FD
  8
LAYER0128
  6
DIVIDE
 62
     3
 10
106.848527888363
 20
75.28509317297264
 30
0.0
  0
VERTEX
  5
3FE
  8
LAYER0128
  6
DIVIDE
 62
     3
 10
106.8768096973155
 20
75.2690242105563
 30
0.0
  0
VERTEX
  5
3FF
  8
LAYER0128
  6
DIVIDE
 62
     3
 10
106.9052555267282
 20
75.25327252710026
 30
0.0
  0
VERTEX
  5
400
  8
LAYER0128
  6
DIVIDE
 62
     3
 10
106.9338620963911
 20
75.23783993899852
 30
0.0
  0
VERTEX
  5
401
  8
LAYER0128
  6
DIVIDE
 62
     3
 10
106.9626261075583
 20
75.2227282258488
 30
0.0
  0
VERTEX
  5
402
  8
LAYER0128
  6
DIVIDE
 62
     3
 10
106.9915442433285
 20
75.20793913024734
 30
0.0
  0
VERTEX
  5
403
  8
LAYER0128
  6
DIVIDE
 62
     3
 10
107.0206131690279
 20
75.19347435758803
 30
0.0
  0
VERTEX
  5
404
  8
LAYER0128
  6
DIVIDE
 62
     3
 10
107.0498295325944
 20
75.17933557586562
 30
0.0
  0
VERTEX
  5
405
  8
LAYER0128
  6
DIVIDE
 62
     3
 10
107.0791899649642
 20
75.16552441548353
 30
0.0
  0
VERTEX
  5
406
  8
LAYER0128
  6
DIVIDE
 62
     3
 10
107.1086910804603
 20
75.15204246906569
 30
0.0
  0
VERTEX
  5
407
  8
LAYER0128
  6
DIVIDE
 62
     3
 10
107.1383294771829
 20
75.138891291273
 30
0.0
  0
VERTEX
  5
408
  8
LAYER0128
  6
DIVIDE
 62
     3
 10
107.1681017374016
 20
75.12607239862402
 30
0.0
  0
VERTEX
  5
409
  8
LAYER0128
  6
DIVIDE
 62
     3
 10
107.19800442795
 20
75.11358726932005
 30
0.0
  0
VERTEX
  5
40A
  8
LAYER0128
  6
DIVIDE
 62
     3
 10
107.2280341006208
 20
75.10143734307476
 30
0.0
  0
VERTEX
  5
40B
  8
LAYER0128
  6
DIVIDE
 62
     3
 10
107.2581872925642
 20
75.08962402094811
 30
0.0
  0
VERTEX
  5
40C
  8
LAYER0128
  6
DIVIDE
 62
     3
 10
107.2884605266866
 20
75.07814866518476
 30
0.0
  0
VERTEX
  5
40D
  8
LAYER0128
  6
DIVIDE
 62
     3
 10
107.3188503120519
 20
75.06701259905707
 30
0.0
  0
VERTEX
  5
40E
  8
LAYER0128
  6
DIVIDE
 62
     3
 10
107.349353144284
 20
75.05621710671242
 30
0.0
  0
VERTEX
  5
40F
  8
LAYER0128
  6
DIVIDE
 62
     3
 10
107.3799655059709
 20
75.04576343302524
 30
0.0
  0
VERTEX
  5
410
  8
LAYER0128
  6
DIVIDE
 62
     3
 10
107.4106838670704
 20
75.03565278345332
 30
0.0
  0
VERTEX
  5
411
  8
LAYER0128
  6
DIVIDE
 62
     3
 10
107.4415046853167
 20
75.02588632389887
 30
0.0
  0
VERTEX
  5
412
  8
LAYER0128
  6
DIVIDE
 62
     3
 10
107.4724244066296
 20
75.01646518057414
 30
0.0
  0
VERTEX
  5
413
  8
LAYER0128
  6
DIVIDE
 62
     3
 10
107.5034394655238
 20
75.00739043987146
 30
0.0
  0
VERTEX
  5
414
  8
LAYER0128
  6
DIVIDE
 62
     3
 10
107.5345462855202
 20
74.99866314823795
 30
0.0
  0
VERTEX
  5
415
  8
LAYER0128
  6
DIVIDE
 62
     3
 10
107.5657412795584
 20
74.99028431205495
 30
0.0
  0
VERTEX
  5
416
  8
LAYER0128
  6
DIVIDE
 62
     3
 10
107.5970208504102
 20
74.98225489752188
 30
0.0
  0
VERTEX
  5
417
  8
LAYER0128
  6
DIVIDE
 62
     3
 10
107.6283813910946
 20
74.97457583054486
 30
0.0
  0
VERTEX
  5
418
  8
LAYER0128
  6
DIVIDE
 62
     3
 10
107.6598192852935
 20
74.96724799662996
 30
0.0
  0
VERTEX
  5
419
  8
LAYER0128
  6
DIVIDE
 62
     3
 10
107.6913309077689
 20
74.96027224078102
 30
0.0
  0
VERTEX
  5
41A
  8
LAYER0128
  6
DIVIDE
 62
     3
 10
107.7229126247809
 20
74.95364936740229
 30
0.0
  0
VERTEX
  5
41B
  8
LAYER0128
  6
DIVIDE
 62
     3
 10
107.7545607945066
 20
74.94738014020562
 30
0.0
  0
VERTEX
  5
41C
  8
LAYER0128
  6
DIVIDE
 62
     3
 10
107.7862717674603
 20
74.94146528212241
 30
0.0
  0
VERTEX
  5
41D
  8
LAYER0128
  6
DIVIDE
 62
     3
 10
107.818041886914
 20
74.93590547522022
 30
0.0
  0
VERTEX
  5
41E
  8
LAYER0128
  6
DIVIDE
 62
     3
 10
107.8498674893195
 20
74.93070136062417
 30
0.0
  0
VERTEX
  5
41F
  8
LAYER0128
  6
DIVIDE
 62
     3
 10
107.8817449047304
 20
74.92585353844296
 30
0.0
  0
VERTEX
  5
420
  8
LAYER0128
  6
DIVIDE
 62
     3
 10
107.9136704572256
 20
74.9213625676997
 30
0.0
  0
VERTEX
  5
421
  8
LAYER0128
  6
DIVIDE
 62
     3
 10
107.9456404653332
 20
74.91722896626744
 30
0.0
  0
VERTEX
  5
422
  8
LAYER0128
  6
DIVIDE
 62
     3
 10
107.9776512424549
 20
74.91345321080944
 30
0.0
  0
VERTEX
  5
423
  8
LAYER0128
  6
DIVIDE
 62
     3
 10
108.009699097291
 20
74.91003573672417
 30
0.0
  0
VERTEX
  5
424
  8
LAYER0128
  6
DIVIDE
 62
     3
 10
108.0417803342663
 20
74.90697693809523
 30
0.0
  0
VERTEX
  5
425
  8
LAYER0128
  6
DIVIDE
 62
     3
 10
108.0738912539563
 20
74.90427716764573
 30
0.0
  0
VERTEX
  5
426
  8
LAYER0128
  6
DIVIDE
 62
     3
 10
108.1060281535135
 20
74.90193673669776
 30
0.0
  0
VERTEX
  5
427
  8
LAYER0128
  6
DIVIDE
 62
     3
 10
108.1381873270945
 20
74.89995591513643
 30
0.0
  0
VERTEX
  5
428
  8
LAYER0128
  6
DIVIDE
 62
     3
 10
108.1703650662876
 20
74.89833493137873
 30
0.0
  0
VERTEX
  5
429
  8
LAYER0128
  6
DIVIDE
 62
     3
 10
108.2025576605401
 20
74.89707397234724
 30
0.0
  0
VERTEX
  5
42A
  8
LAYER0128
  6
DIVIDE
 62
     3
 10
108.2347613975861
 20
74.89617318344852
 30
0.0
  0
VERTEX
  5
42B
  8
LAYER0128
  6
DIVIDE
 62
     3
 10
108.2669725638752
 20
74.89563266855642
 30
0.0
  0
VERTEX
  5
42C
  8
LAYER0128
  6
DIVIDE
 62
     3
 10
108.299187445
 20
74.89545249
 30
0.0
  0
SEQEND
  5
4E8
  8
LAYER0128
  6
DIVIDE
 62
     3
  0
POLYLINE
  5
131
  8
LAYER0128
  6
DIVIDE
 62
     3
 66
     1
 10
0.0
 20
0.0
 30
0.0
 70
     1
  0
VERTEX
  5
42D
  8
LAYER0128
  6
DIVIDE
 62
     3
 10
1.0
 20
0.0
 30
0.0
  0
VERTEX
  5
42E
  8
LAYER0128
  6
DIVIDE
 62
     3
 10
0.9807852804032304
 20
0.1950903220161282
 30
0.0
  0
VERTEX
  5
42F
  8
LAYER0128
  6
DIVIDE
 62
     3
 10
0.9238795325112867
 20
0.3826834323650898
 30
0.0
  0
VERTEX
  5
430
  8
LAYER0128
  6
DIVIDE
 62
     3
 10
0.8314696123025452
 20
0.5555702330196022
 30
0.0
  0
VERTEX
  5
431
  8
LAYER0128
  6
DIVIDE
 62
     3
 10
0.7071067811865476
 20
0.7071067811865476
 30
0.0
  0
VERTEX
  5
432
  8
LAYER0128
  6
DIVIDE
 62
     3
 10
0.5555702330196023
 20
0.8314696123025452
 30
0.0
  0
VERTEX
  5
433
  8
LAYER0128
  6
DIVIDE
 62
     3
 10
0.3826834323650898
 20
0.9238795325112867
 30
0.0
  0
VERTEX
  5
434
  8
LAYER0128
  6
DIVIDE
 62
     3
 10
0.1950903220161283
 20
0.9807852804032304
 30
0.0
  0
VERTEX
  5
435
  8
LAYER0128
  6
DIVIDE
 62
     3
 10
0.0000000000000001
 20
1.0
 30
0.0
  0
VERTEX
  5
436
  8
LAYER0128
  6
DIVIDE
 62
     3
 10
-0.1950903220161282
 20
0.9807852804032304
 30
0.0
  0
VERTEX
  5
437
  8
LAYER0128
  6
DIVIDE
 62
     3
 10
-0.3826834323650897
 20
0.9238795325112867
 30
0.0
  0
VERTEX
  5
438
  8
LAYER0128
  6
DIVIDE
 62
     3
 10
-0.555570233019602
 20
0.8314696123025453
 30
0.0
  0
VERTEX
  5
439
  8
LAYER0128
  6
DIVIDE
 62
     3
 10
-0.7071067811865475
 20
0.7071067811865476
 30
0.0
  0
VERTEX
  5
43A
  8
LAYER0128
  6
DIVIDE
 62
     3
 10
-0.8314696123025453
 20
0.5555702330196022
 30
0.0
  0
VERTEX
  5
43B
  8
LAYER0128
  6
DIVIDE
 62
     3
 10
-0.9238795325112868
 20
0.3826834323650894
 30
0.0
  0
VERTEX
  5
43C
  8
LAYER0128
  6
DIVIDE
 62
     3
 10
-0.9807852804032305
 20
0.1950903220161277
 30
0.0
  0
VERTEX
  5
43D
  8
LAYER0128
  6
DIVIDE
 62
     3
 10
-1.0
 20
-0.0000000000000008
 30
0.0
  0
VERTEX
  5
43E
  8
LAYER0128
  6
DIVIDE
 62
     3
 10
-0.9807852804032302
 20
-0.1950903220161292
 30
0.0
  0
VERTEX
  5
43F
  8
LAYER0128
  6
DIVIDE
 62
     3
 10
-0.9238795325112863
 20
-0.3826834323650909
 30
0.0
  0
VERTEX
  5
440
  8
LAYER0128
  6
DIVIDE
 62
     3
 10
-0.8314696123025445
 20
-0.5555702330196034
 30
0.0
  0
VERTEX
  5
441
  8
LAYER0128
  6
DIVIDE
 62
     3
 10
-0.7071067811865464
 20
-0.7071067811865487
 30
0.0
  0
VERTEX
  5
442
  8
LAYER0128
  6
DIVIDE
 62
     3
 10
-0.5555702330196007
 20
-0.8314696123025462
 30
0.0
  0
VERTEX
  5
443
  8
LAYER0128
  6
DIVIDE
 62
     3
 10
-0.3826834323650879
 20
-0.9238795325112875
 30
0.0
  0
VERTEX
  5
444
  8
LAYER0128
  6
DIVIDE
 62
     3
 10
-0.1950903220161261
 20
-0.9807852804032309
 30
0.0
  0
VERTEX
  5
445
  8
LAYER0128
  6
DIVIDE
 62
     3
 10
0.0000000000000025
 20
-1.0
 30
0.0
  0
VERTEX
  5
446
  8
LAYER0128
  6
DIVIDE
 62
     3
 10
0.1950903220161309
 20
-0.9807852804032299
 30
0.0
  0
VERTEX
  5
447
  8
LAYER0128
  6
DIVIDE
 62
     3
 10
0.3826834323650924
 20
-0.9238795325112856
 30
0.0
  0
VERTEX
  5
448
  8
LAYER0128
  6
DIVIDE
 62
     3
 10
0.5555702330196048
 20
-0.8314696123025435
 30
0.0
  0
VERTEX
  5
449
  8
LAYER0128
  6
DIVIDE
 62
     3
 10
0.7071067811865499
 20
-0.7071067811865451
 30
0.0
  0
VERTEX
  5
44A
  8
LAYER0128
  6
DIVIDE
 62
     3
 10
0.8314696123025472
 20
-0.5555702330195993
 30
0.0
  0
VERTEX
  5
44B
  8
LAYER0128
  6
DIVIDE
 62
     3
 10
0.9238795325112882
 20
-0.3826834323650863
 30
0.0
  0
VERTEX
  5
44C
  8
LAYER0128
  6
DIVIDE
 62
     3
 10
0.9807852804032312
 20
-0.1950903220161244
 30
0.0
  0
SEQEND
  5
4E9
  8
LAYER0128
  6
DIVIDE
 62
     3
  0
POLYLINE
  5
132
  8
LAYER0128
  6
DIVIDE
 62
     3
 66
     1
 10
0.0
 20
0.0
 30
0.0
 70
   129
  0
VERTEX
  5
44D
  8
LAYER0128
  6
DIVIDE
 62
     3
 10
109.799187445
 20
81.72545249000002
 30
0.0
  0
VERTEX
  5
44E
  8
LAYER0128
  6
DIVIDE
 62
     3
 10
109.68402939714
 20
81.72293062653424
 30
0.0
  0
VERTEX
  5
44F
  8
LAYER0128
  6
DIVIDE
 62
     3
 10
109.5690733756269
 20
81.71536946034234
 30
0.0
  0
VERTEX
  5
450
  8
LAYER0128
  6
DIVIDE
 62
     3
 10
109.4545210523848
 20
81.70278225627915
 30
0.0
  0
VERTEX
  5
451
  8
LAYER0128
  6
DIVIDE
 62
     3
 10
109.3405733911138
 20
81.68519109657773
 30
0.0
  0
VERTEX
  5
452
  8
LAYER0128
  6
DIVIDE
 62
     3
 10
109.2274302947314
 20
81.66262684210972
 30
0.0
  0
VERTEX
  5
453
  8
LAYER0128
  6
DIVIDE
 62
     3
 10
109.1152902546749
 20
81.63512907824484
 30
0.0
  0
VERTEX
  5
454
  8
LAYER0128
  6
DIVIDE
 62
     3
 10
109.0043500026801
 20
81.60274604540471
 30
0.0
  0
VERTEX
  5
455
  8
LAYER0128
  6
DIVIDE
 62
     3
 10
108.8948041656467
 20
81.56553455443279
 30
0.0
  0
VERTEX
  5
456
  8
LAYER0128
  6
DIVIDE
 62
     3
 10
108.7868449241968
 20
81.52355988692875
 30
0.0
  0
VERTEX
  5
457
  8
LAYER0128
  6
DIVIDE
 62
     3
 10
108.6806616755247
 20
81.4768956807225
 30
0.0
  0
VERTEX
  5
458
  8
LAYER0128
  6
DIVIDE
 62
     3
 10
108.5764407011299
 20
81.42562380068834
 30
0.0
  0
VERTEX
  5
459
  8
LAYER0128
  6
DIVIDE
 62
     3
 10
108.4743648400159
 20
81.36983419512613
 30
0.0
  0
VERTEX
  5
45A
  8
LAYER0128
  6
DIVIDE
 62
     3
 10
108.3746131679288
 20
81.30962473796149
 30
0.0
  0
VERTEX
  5
45B
  8
LAYER0128
  6
DIVIDE
 62
     3
 10
108.2773606831973
 20
81.24510105704157
 30
0.0
  0
VERTEX
  5
45C
  8
LAYER0128
  6
DIVIDE
 62
     3
 10
108.1827779997262
 20
81.176376348828
 30
0.0
  0
VERTEX
  5
45D
  8
LAYER0128
  6
DIVIDE
 62
     3
 10
108.0910310476818
 20
81.10357117981181
 30
0.0
  0
VERTEX
  5
45E
  8
LAYER0128
  6
DIVIDE
 62
     3
 10
108.0022807823937
 20
81.02681327499883
 30
0.0
  0
VERTEX
  5
45F
  8
LAYER0128
  6
DIVIDE
 62
     3
 10
107.9166829019847
 20
80.94623729383659
 30
0.0
  0
VERTEX
  5
460
  8
LAYER0128
  6
DIVIDE
 62
     3
 10
107.8343875742236
 20
80.86198459397595
 30
0.0
  0
VERTEX
  5
461
  8
LAYER0128
  6
DIVIDE
 62
     3
 10
107.7555391730793
 20
80.77420298328174
 30
0.0
  0
VERTEX
  5
462
  8
LAYER0128
  6
DIVIDE
 62
     3
 10
107.6802760254403
 20
80.6830464605275
 30
0.0
  0
VERTEX
  5
463
  8
LAYER0128
  6
DIVIDE
 62
     3
 10
107.6087301684421
 20
80.58867494522936
 30
0.0
  0
VERTEX
  5
464
  8
LAYER0128
  6
DIVIDE
 62
     3
 10
107.5410271178294
 20
80.49125399709277
 30
0.0
  0
VERTEX
  5
465
  8
LAYER0128
  6
DIVIDE
 62
     3
 10
107.4772856477586
 20
80.39095452556464
 30
0.0
  0
VERTEX
  5
466
  8
LAYER0128
  6
DIVIDE
 62
     3
 10
107.4176175824277
 20
80.28795249000002
 30
0.0
  0
VERTEX
  5
467
  8
LAYER0128
  6
DIVIDE
 62
     3
 10
107.3621275998987
 20
80.18242859096962
 30
0.0
  0
VERTEX
  5
468
  8
LAYER0128
  6
DIVIDE
 62
     3
 10
107.3109130484564
 20
80.07456795324961
 30
0.0
  0
VERTEX
  5
469
  8
LAYER0128
  6
DIVIDE
 62
     3
 10
107.264063775827
 20
79.96455980104982
 30
0.0
  0
VERTEX
  5
46A
  8
LAYER0128
  6
DIVIDE
 62
     3
 10
107.2216619715541
 20
79.85259712605024
 30
0.0
  0
VERTEX
  5
46B
  8
LAYER0128
  6
DIVIDE
 62
     3
 10
107.1837820228107
 20
79.738876348828
 30
0.0
  0
VERTEX
  5
46C
  8
LAYER0128
  6
DIVIDE
 62
     3
 10
107.1504903838985
 20
79.6235969742689
 30
0.0
  0
VERTEX
  5
46D
  8
LAYER0128
  6
DIVIDE
 62
     3
 10
107.1218454596649
 20
79.50696124156816
 30
0.0
  0
VERTEX
  5
46E
  8
LAYER0128
  6
DIVIDE
 62
     3
 10
107.0978975030404
 20
79.38917376943398
 30
0.0
  0
VERTEX
  5
46F
  8
LAYER0128
  6
DIVIDE
 62
     3
 10
107.0786885268786
 20
79.27044119711695
 30
0.0
  0
VERTEX
  5
470
  8
LAYER0128
  6
DIVIDE
 62
     3
 10
107.0642522302509
 20
79.15097182189453
 30
0.0
  0
VERTEX
  5
471
  8
LAYER0128
  6
DIVIDE
 62
     3
 10
107.0546139393272
 20
79.0309752336468
 30
0.0
  0
VERTEX
  5
472
  8
LAYER0128
  6
DIVIDE
 62
     3
 10
107.0497905629447
 20
78.91066194716467
 30
0.0
  0
VERTEX
  5
473
  8
LAYER0128
  6
DIVIDE
 62
     3
 10
107.0497905629447
 20
78.79024303283538
 30
0.0
  0
VERTEX
  5
474
  8
LAYER0128
  6
DIVIDE
 62
     3
 10
107.0546139393272
 20
78.66992974635325
 30
0.0
  0
VERTEX
  5
475
  8
LAYER0128
  6
DIVIDE
 62
     3
 10
107.0642522302509
 20
78.54993315810552
 30
0.0
  0
VERTEX
  5
476
  8
LAYER0128
  6
DIVIDE
 62
     3
 10
107.0786885268786
 20
78.4304637828831
 30
0.0
  0
VERTEX
  5
477
  8
LAYER0128
  6
DIVIDE
 62
     3
 10
107.0978975030404
 20
78.31173121056607
 30
0.0
  0
VERTEX
  5
478
  8
LAYER0128
  6
DIVIDE
 62
     3
 10
107.1218454596649
 20
78.19394373843188
 30
0.0
  0
VERTEX
  5
479
  8
LAYER0128
  6
DIVIDE
 62
     3
 10
107.1504903838985
 20
78.07730800573113
 30
0.0
  0
VERTEX
  5
47A
  8
LAYER0128
  6
DIVIDE
 62
     3
 10
107.1837820228107
 20
77.96202863117205
 30
0.0
  0
VERTEX
  5
47B
  8
LAYER0128
  6
DIVIDE
 62
     3
 10
107.2216619715541
 20
77.8483078539498
 30
0.0
  0
VERTEX
  5
47C
  8
LAYER0128
  6
DIVIDE
 62
     3
 10
107.264063775827
 20
77.73634517895023
 30
0.0
  0
VERTEX
  5
47D
  8
LAYER0128
  6
DIVIDE
 62
     3
 10
107.3109130484564
 20
77.62633702675043
 30
0.0
  0
VERTEX
  5
47E
  8
LAYER0128
  6
DIVIDE
 62
     3
 10
107.3621275998987
 20
77.51847638903043
 30
0.0
  0
VERTEX
  5
47F
  8
LAYER0128
  6
DIVIDE
 62
     3
 10
107.4176175824277
 20
77.41295249000002
 30
0.0
  0
VERTEX
  5
480
  8
LAYER0128
  6
DIVIDE
 62
     3
 10
107.4772856477586
 20
77.30995045443541
 30
0.0
  0
VERTEX
  5
481
  8
LAYER0128
  6
DIVIDE
 62
     3
 10
107.5410271178294
 20
77.20965098290728
 30
0.0
  0
VERTEX
  5
482
  8
LAYER0128
  6
DIVIDE
 62
     3
 10
107.6087301684421
 20
77.11223003477069
 30
0.0
  0
VERTEX
  5
483
  8
LAYER0128
  6
DIVIDE
 62
     3
 10
107.6802760254403
 20
77.01785851947254
 30
0.0
  0
VERTEX
  5
484
  8
LAYER0128
  6
DIVIDE
 62
     3
 10
107.7555391730793
 20
76.92670199671831
 30
0.0
  0
VERTEX
  5
485
  8
LAYER0128
  6
DIVIDE
 62
     3
 10
107.8343875742236
 20
76.8389203860241
 30
0.0
  0
VERTEX
  5
486
  8
LAYER0128
  6
DIVIDE
 62
     3
 10
107.9166829019847
 20
76.75466768616346
 30
0.0
  0
VERTEX
  5
487
  8
LAYER0128
  6
DIVIDE
 62
     3
 10
108.0022807823937
 20
76.67409170500122
 30
0.0
  0
VERTEX
  5
488
  8
LAYER0128
  6
DIVIDE
 62
     3
 10
108.0910310476818
 20
76.59733380018824
 30
0.0
  0
VERTEX
  5
489
  8
LAYER0128
  6
DIVIDE
 62
     3
 10
108.1827779997262
 20
76.52452863117205
 30
0.0
  0
VERTEX
  5
48A
  8
LAYER0128
  6
DIVIDE
 62
     3
 10
108.2773606831973
 20
76.45580392295848
 30
0.0
  0
VERTEX
  5
48B
  8
LAYER0128
  6
DIVIDE
 62
     3
 10
108.3746131679288
 20
76.39128024203856
 30
0.0
  0
VERTEX
  5
48C
  8
LAYER0128
  6
DIVIDE
 62
     3
 10
108.4743648400159
 20
76.33107078487392
 30
0.0
  0
VERTEX
  5
48D
  8
LAYER0128
  6
DIVIDE
 62
     3
 10
108.5764407011299
 20
76.2752811793117
 30
0.0
  0
VERTEX
  5
48E
  8
LAYER0128
  6
DIVIDE
 62
     3
 10
108.6806616755247
 20
76.22400929927754
 30
0.0
  0
VERTEX
  5
48F
  8
LAYER0128
  6
DIVIDE
 62
     3
 10
108.7868449241968
 20
76.1773450930713
 30
0.0
  0
VERTEX
  5
490
  8
LAYER0128
  6
DIVIDE
 62
     3
 10
108.8948041656467
 20
76.13537042556726
 30
0.0
  0
VERTEX
  5
491
  8
LAYER0128
  6
DIVIDE
 62
     3
 10
109.0043500026801
 20
76.09815893459533
 30
0.0
  0
VERTEX
  5
492
  8
LAYER0128
  6
DIVIDE
 62
     3
 10
109.1152902546749
 20
76.0657759017552
 30
0.0
  0
VERTEX
  5
493
  8
LAYER0128
  6
DIVIDE
 62
     3
 10
109.2274302947314
 20
76.03827813789033
 30
0.0
  0
VERTEX
  5
494
  8
LAYER0128
  6
DIVIDE
 62
     3
 10
109.3405733911138
 20
76.01571388342232
 30
0.0
  0
VERTEX
  5
495
  8
LAYER0128
  6
DIVIDE
 62
     3
 10
109.4545210523848
 20
75.9981227237209
 30
0.0
  0
VERTEX
  5
496
  8
LAYER0128
  6
DIVIDE
 62
     3
 10
109.5690733756269
 20
75.9855355196577
 30
0.0
  0
VERTEX
  5
497
  8
LAYER0128
  6
DIVIDE
 62
     3
 10
109.68402939714
 20
75.97797435346581
 30
0.0
  0
VERTEX
  5
498
  8
LAYER0128
  6
DIVIDE
 62
     3
 10
109.799187445
 20
75.97545249000002
 30
0.0
  0
VERTEX
  5
499
  8
LAYER0128
  6
DIVIDE
 62
     3
 10
109.91434549286
 20
75.97797435346581
 30
0.0
  0
VERTEX
  5
49A
  8
LAYER0128
  6
DIVIDE
 62
     3
 10
110.0293015143731
 20
75.9855355196577
 30
0.0
  0
VERTEX
  5
49B
  8
LAYER0128
  6
DIVIDE
 62
     3
 10
110.1438538376152
 20
75.9981227237209
 30
0.0
  0
VERTEX
  5
49C
  8
LAYER0128
  6
DIVIDE
 62
     3
 10
110.2578014988862
 20
76.01571388342232
 30
0.0
  0
VERTEX
  5
49D
  8
LAYER0128
  6
DIVIDE
 62
     3
 10
110.3709445952686
 20
76.03827813789033
 30
0.0
  0
VERTEX
  5
49E
  8
LAYER0128
  6
DIVIDE
 62
     3
 10
110.4830846353251
 20
76.06577590175522
 30
0.0
  0
VERTEX
  5
49F
  8
LAYER0128
  6
DIVIDE
 62
     3
 10
110.5940248873199
 20
76.09815893459533
 30
0.0
  0
VERTEX
  5
4A0
  8
LAYER0128
  6
DIVIDE
 62
     3
 10
110.7035707243533
 20
76.13537042556727
 30
0.0
  0
VERTEX
  5
4A1
  8
LAYER0128
  6
DIVIDE
 62
     3
 10
110.8115299658032
 20
76.17734509307131
 30
0.0
  0
VERTEX
  5
4A2
  8
LAYER0128
  6
DIVIDE
 62
     3
 10
110.9177132144753
 20
76.22400929927755
 30
0.0
  0
VERTEX
  5
4A3
  8
LAYER0128
  6
DIVIDE
 62
     3
 10
111.0219341888701
 20
76.27528117931172
 30
0.0
  0
VERTEX
  5
4A4
  8
LAYER0128
  6
DIVIDE
 62
     3
 10
111.1240100499841
 20
76.33107078487392
 30
0.0
  0
VERTEX
  5
4A5
  8
LAYER0128
  6
DIVIDE
 62
     3
 10
111.2237617220712
 20
76.39128024203858
 30
0.0
  0
VERTEX
  5
4A6
  8
LAYER0128
  6
DIVIDE
 62
     3
 10
111.3210142068027
 20
76.4558039229585
 30
0.0
  0
VERTEX
  5
4A7
  8
LAYER0128
  6
DIVIDE
 62
     3
 10
111.4155968902738
 20
76.52452863117206
 30
0.0
  0
VERTEX
  5
4A8
  8
LAYER0128
  6
DIVIDE
 62
     3
 10
111.5073438423182
 20
76.59733380018824
 30
0.0
  0
VERTEX
  5
4A9
  8
LAYER0128
  6
DIVIDE
 62
     3
 10
111.5960941076063
 20
76.67409170500123
 30
0.0
  0
VERTEX
  5
4AA
  8
LAYER0128
  6
DIVIDE
 62
     3
 10
111.6816919880153
 20
76.75466768616347
 30
0.0
  0
VERTEX
  5
4AB
  8
LAYER0128
  6
DIVIDE
 62
     3
 10
111.7639873157764
 20
76.8389203860241
 30
0.0
  0
VERTEX
  5
4AC
  8
LAYER0128
  6
DIVIDE
 62
     3
 10
111.8428357169207
 20
76.92670199671831
 30
0.0
  0
VERTEX
  5
4AD
  8
LAYER0128
  6
DIVIDE
 62
     3
 10
111.9180988645597
 20
77.01785851947254
 30
0.0
  0
VERTEX
  5
4AE
  8
LAYER0128
  6
DIVIDE
 62
     3
 10
111.9896447215579
 20
77.1122300347707
 30
0.0
  0
VERTEX
  5
4AF
  8
LAYER0128
  6
DIVIDE
 62
     3
 10
112.0573477721706
 20
77.20965098290729
 30
0.0
  0
VERTEX
  5
4B0
  8
LAYER0128
  6
DIVIDE
 62
     3
 10
112.1210892422414
 20
77.30995045443541
 30
0.0
  0
VERTEX
  5
4B1
  8
LAYER0128
  6
DIVIDE
 62
     3
 10
112.1807573075723
 20
77.41295249000004
 30
0.0
  0
VERTEX
  5
4B2
  8
LAYER0128
  6
DIVIDE
 62
     3
 10
112.2362472901014
 20
77.51847638903043
 30
0.0
  0
VERTEX
  5
4B3
  8
LAYER0128
  6
DIVIDE
 62
     3
 10
112.2874618415436
 20
77.62633702675045
 30
0.0
  0
VERTEX
  5
4B4
  8
LAYER0128
  6
DIVIDE
 62
     3
 10
112.334311114173
 20
77.73634517895023
 30
0.0
  0
VERTEX
  5
4B5
  8
LAYER0128
  6
DIVIDE
 62
     3
 10
112.3767129184459
 20
77.84830785394982
 30
0.0
  0
VERTEX
  5
4B6
  8
LAYER0128
  6
DIVIDE
 62
     3
 10
112.4145928671893
 20
77.96202863117206
 30
0.0
  0
VERTEX
  5
4B7
  8
LAYER0128
  6
DIVIDE
 62
     3
 10
112.4478845061015
 20
78.07730800573114
 30
0.0
  0
VERTEX
  5
4B8
  8
LAYER0128
  6
DIVIDE
 62
     3
 10
112.4765294303351
 20
78.1939437384319
 30
0.0
  0
VERTEX
  5
4B9
  8
LAYER0128
  6
DIVIDE
 62
     3
 10
112.5004773869596
 20
78.31173121056608
 30
0.0
  0
VERTEX
  5
4BA
  8
LAYER0128
  6
DIVIDE
 62
     3
 10
112.5196863631214
 20
78.4304637828831
 30
0.0
  0
VERTEX
  5
4BB
  8
LAYER0128
  6
DIVIDE
 62
     3
 10
112.5341226597491
 20
78.54993315810553
 30
0.0
  0
VERTEX
  5
4BC
  8
LAYER0128
  6
DIVIDE
 62
     3
 10
112.5437609506728
 20
78.66992974635326
 30
0.0
  0
VERTEX
  5
4BD
  8
LAYER0128
  6
DIVIDE
 62
     3
 10
112.5485843270553
 20
78.79024303283538
 30
0.0
  0
VERTEX
  5
4BE
  8
LAYER0128
  6
DIVIDE
 62
     3
 10
112.5485843270553
 20
78.91066194716468
 30
0.0
  0
VERTEX
  5
4BF
  8
LAYER0128
  6
DIVIDE
 62
     3
 10
112.5437609506728
 20
79.03097523364681
 30
0.0
  0
VERTEX
  5
4C0
  8
LAYER0128
  6
DIVIDE
 62
     3
 10
112.5341226597491
 20
79.15097182189454
 30
0.0
  0
VERTEX
  5
4C1
  8
LAYER0128
  6
DIVIDE
 62
     3
 10
112.5196863631214
 20
79.27044119711697
 30
0.0
  0
VERTEX
  5
4C2
  8
LAYER0128
  6
DIVIDE
 62
     3
 10
112.5004773869596
 20
79.389173769434
 30
0.0
  0
VERTEX
  5
4C3
  8
LAYER0128
  6
DIVIDE
 62
     3
 10
112.4765294303351
 20
79.50696124156816
 30
0.0
  0
VERTEX
  5
4C4
  8
LAYER0128
  6
DIVIDE
 62
     3
 10
112.4478845061015
 20
79.62359697426892
 30
0.0
  0
VERTEX
  5
4C5
  8
LAYER0128
  6
DIVIDE
 62
     3
 10
112.4145928671893
 20
79.73887634882801
 30
0.0
  0
VERTEX
  5
4C6
  8
LAYER0128
  6
DIVIDE
 62
     3
 10
112.3767129184459
 20
79.85259712605026
 30
0.0
  0
VERTEX
  5
4C7
  8
LAYER0128
  6
DIVIDE
 62
     3
 10
112.334311114173
 20
79.96455980104983
 30
0.0
  0
VERTEX
  5
4C8
  8
LAYER0128
  6
DIVIDE
 62
     3
 10
112.2874618415436
 20
80.07456795324961
 30
0.0
  0
VERTEX
  5
4C9
  8
LAYER0128
  6
DIVIDE
 62
     3
 10
112.2362472901013
 20
80.18242859096964
 30
0.0
  0
VERTEX
  5
4CA
  8
LAYER0128
  6
DIVIDE
 62
     3
 10
112.1807573075723
 20
80.28795249000004
 30
0.0
  0
VERTEX
  5
4CB
  8
LAYER0128
  6
DIVIDE
 62
     3
 10
112.1210892422414
 20
80.39095452556465
 30
0.0
  0
VERTEX
  5
4CC
  8
LAYER0128
  6
DIVIDE
 62
     3
 10
112.0573477721706
 20
80.49125399709277
 30
0.0
  0
VERTEX
  5
4CD
  8
LAYER0128
  6
DIVIDE
 62
     3
 10
111.9896447215579
 20
80.58867494522936
 30
0.0
  0
VERTEX
  5
4CE
  8
LAYER0128
  6
DIVIDE
 62
     3
 10
111.9180988645597
 20
80.68304646052752
 30
0.0
  0
VERTEX
  5
4CF
  8
LAYER0128
  6
DIVIDE
 62
     3
 10
111.8428357169207
 20
80.77420298328175
 30
0.0
  0
VERTEX
  5
4D0
  8
LAYER0128
  6
DIVIDE
 62
     3
 10
111.7639873157764
 20
80.86198459397596
 30
0.0
  0
VERTEX
  5
4D1
  8
LAYER0128
  6
DIVIDE
 62
     3
 10
111.6816919880153
 20
80.94623729383659
 30
0.0
  0
VERTEX
  5
4D2
  8
LAYER0128
  6
DIVIDE
 62
     3
 10
111.5960941076063
 20
81.02681327499883
 30
0.0
  0
VERTEX
  5
4D3
  8
LAYER0128
  6
DIVIDE
 62
     3
 10
111.5073438423182
 20
81.10357117981182
 30
0.0
  0
VERTEX
  5
4D4
  8
LAYER0128
  6
DIVIDE
 62
     3
 10
111.4155968902738
 20
81.176376348828
 30
0.0
  0
VERTEX
  5
4D5
  8
LAYER0128
  6
DIVIDE
 62
     3
 10
111.3210142068027
 20
81.24510105704157
 30
0.0
  0
VERTEX
  5
4D6
  8
LAYER0128
  6
DIVIDE
 62
     3
 10
111.2237617220712
 20
81.30962473796149
 30
0.0
  0
VERTEX
  5
4D7
  8
LAYER0128
  6
DIVIDE
 62
     3
 10
111.1240100499841
 20
81.36983419512615
 30
0.0
  0
VERTEX
  5
4D8
  8
LAYER0128
  6
DIVIDE
 62
     3
 10
111.0219341888701
 20
81.42562380068834
 30
0.0
  0
VERTEX
  5
4D9
  8
LAYER0128
  6
DIVIDE
 62
     3
 10
110.9177132144753
 20
81.4768956807225
 30
0.0
  0
VERTEX
  5
4DA
  8
LAYER0128
  6
DIVIDE
 62
     3
 10
110.8115299658032
 20
81.52355988692875
 30
0.0
  0
VERTEX
  5
4DB
  8
LAYER0128
  6
DIVIDE
 62
     3
 10
110.7035707243533
 20
81.56553455443279
 30
0.0
  0
VERTEX
  5
4DC
  8
LAYER0128
  6
DIVIDE
 62
     3
 10
110.5940248873199
 20
81.60274604540473
 30
0.0
  0
VERTEX
  5
4DD
  8
LAYER0128
  6
DIVIDE
 62
     3
 10
110.4830846353251
 20
81.63512907824484
 30
0.0
  0
VERTEX
  5
4DE
  8
LAYER0128
  6
DIVIDE
 62
     3
 10
110.3709445952686
 20
81.66262684210972
 30
0.0
  0
VERTEX
  5
4DF
  8
LAYER0128
  6
DIVIDE
 62
     3
 10
110.2578014988862
 20
81.68519109657773
 30
0.0
  0
VERTEX
  5
4E0
  8
LAYER0128
  6
DIVIDE
 62
     3
 10
110.1438538376152
 20
81.70278225627915
 30
0.0
  0
VERTEX
  5
4E1
  8
LAYER0128
  6
DIVIDE
 62
     3
 10
110.029301514373
 20
81.71536946034234
 30
0.0
  0
VERTEX
  5
4E2
  8
LAYER0128
  6
DIVIDE
 62
     3
 10
109.91434549286
 20
81.72293062653424
 30
0.0
  0
SEQEND
  5
4EA
  8
LAYER0128
  6
DIVIDE
 62
     3
  0
LINE
  5
133
  8
LAYER0016
  6
CONTINUOUS
 62
     3
 10
-125.905762325
 20
84.72545249000002
 30
0.0
 11
-125.905762325
 21
-58.27454750999999
 31
0.0
  0
LINE
  5
134
  8
LAYER0016
  6
CONTINUOUS
 62
     3
 10
-89.905762325
 20
84.72545249000002
 30
0.0
 11
-89.905762325
 21
-58.27454750999999
 31
0.0
  0
LINE
  5
135
  8
LAYER0016
  6
CONTINUOUS
 62
     3
 10
-125.405762325
 20
85.22545249000002
 30
0.0
 11
-90.40576232499998
 21
85.22545249000002
 31
0.0
  0
LINE
  5
136
  8
LAYER0016
  6
CONTINUOUS
 62
     3
 10
-90.40576232499998
 20
-58.77454750999999
 30
0.0
 11
-125.405762325
 21
-58.77454750999999
 31
0.0
  0
LINE
  5
137
  8
LAYER0016
  6
CONTINUOUS
 62
     3
 10
-57.05960551499998
 20
85.22545249000002
 30
0.0
 11
-47.55960551499998
 21
85.22545249000002
 31
0.0
  0
LINE
  5
138
  8
LAYER0016
  6
CONTINUOUS
 62
     3
 10
-53.45960551499999
 20
85.22545249000002
 30
0.0
 11
-53.45960551499999
 21
-58.77454750999999
 31
0.0
  0
LINE
  5
139
  8
LAYER0016
  6
CONTINUOUS
 62
     3
 10
-57.05960551499998
 20
-58.77454750999999
 30
0.0
 11
-47.55960551499998
 21
-58.77454750999999
 31
0.0
  0
LINE
  5
13A
  8
LAYER0016
  6
CONTINUOUS
 62
     3
 10
-56.45960551499999
 20
84.72545249000002
 30
0.0
 11
-56.45960551499999
 21
-58.27454750999999
 31
0.0
  0
LINE
  5
13B
  8
LAYER0016
  6
CONTINUOUS
 62
     3
 10
-56.45960551499999
 20
78.22545249000002
 30
0.0
 11
-57.05960551499998
 21
78.22545249000002
 31
0.0
  0
LINE
  5
13C
  8
LAYER0016
  6
CONTINUOUS
 62
     3
 10
-57.55960551499999
 20
78.72545249000002
 30
0.0
 11
-57.55960551499999
 21
84.72545249000002
 31
0.0
  0
ARC
  5
13D
  8
LAYER0016
  6
CONTINUOUS
 62
     3
 10
-57.05960551499998
 20
78.72545249000002
 30
0.0
 40
0.5
 50
180.0
 51
270.0
  0
ARC
  5
13E
  8
LAYER0016
  6
CONTINUOUS
 62
     3
 10
-57.05960551499998
 20
84.72545249000002
 30
0.0
 40
0.5
 50
90.0
 51
180.0
  0
ARC
  5
13F
  8
LAYER0016
  6
CONTINUOUS
 62
     3
 10
-55.95960551499999
 20
84.72545249000002
 30
0.0
 40
0.5
 50
90.0
 51
180.0
  0
LINE
  5
140
  8
LAYER0016
  6
CONTINUOUS
 62
     3
 10
-56.45960551499999
 20
-52.07454751
 30
0.0
 11
-57.05960551499998
 21
-52.07454751
 31
0.0
  0
LINE
  5
141
  8
LAYER0016
  6
CONTINUOUS
 62
     3
 10
-57.55960551499999
 20
-52.57454751
 30
0.0
 11
-57.55960551499999
 21
-58.27454750999999
 31
0.0
  0
ARC
  5
142
  8
LAYER0016
  6
CONTINUOUS
 62
     3
 10
-57.05960551499998
 20
-58.27454750999999
 30
0.0
 40
0.5
 50
180.0
 51
270.0
  0
ARC
  5
143
  8
LAYER0016
  6
CONTINUOUS
 62
     3
 10
-57.05960551499998
 20
-52.57454751
 30
0.0
 40
0.5
 50
90.0
 51
180.0
  0
ARC
  5
144
  8
LAYER0016
  6
CONTINUOUS
 62
     3
 10
-55.95960551499999
 20
-58.27454750999999
 30
0.0
 40
0.5
 50
180.0
 51
270.0
  0
ARC
  5
145
  8
LAYER0016
  6
CONTINUOUS
 62
     3
 10
-125.405762325
 20
84.72545249000002
 30
0.0
 40
0.5
 50
90.0
 51
180.0
  0
ARC
  5
146
  8
LAYER0016
  6
CONTINUOUS
 62
     3
 10
-90.40576232499998
 20
84.72545249000002
 30
0.0
 40
0.5
 50
0.0
 51
90.0
  0
ARC
  5
147
  8
LAYER0016
  6
CONTINUOUS
 62
     3
 10
-90.40576232499998
 20
-58.27454750999999
 30
0.0
 40
0.5
 50
270.0
 51
0.0
  0
ARC
  5
148
  8
LAYER0016
  6
CONTINUOUS
 62
     3
 10
-125.405762325
 20
-58.27454750999999
 30
0.0
 40
0.5
 50
180.0
 51
270.0
  0
LINE
  5
149
  8
LAYER0016
  6
CONTINUOUS
 62
     3
 10
86.29918744500002
 20
-58.77454750999999
 30
0.0
 11
122.299187445
 21
-58.77454750999999
 31
0.0
  0
LINE
  5
14A
  8
LAYER0016
  6
CONTINUOUS
 62
     3
 10
122.299187445
 20
85.22545249000002
 30
0.0
 11
86.29918744500002
 21
85.22545249000002
 31
0.0
  0
LINE
  5
14B
  8
LAYER0016
  6
CONTINUOUS
 62
     3
 10
86.29918744500002
 20
85.22545249000002
 30
0.0
 11
86.29918744500002
 21
-58.77454750999999
 31
0.0
  0
LINE
  5
14C
  8
LAYER0016
  6
CONTINUOUS
 62
     3
 10
122.299187445
 20
-58.77454750999999
 30
0.0
 11
122.299187445
 21
85.22545249000002
 31
0.0
  0
LINE
  5
14D
  8
LAYER0016
  6
CONTINUOUS
 62
     3
 10
119.799187445
 20
-55.52454751
 30
0.0
 11
88.79918744500002
 21
-55.52454751
 31
0.0
  0
LINE
  5
14E
  8
LAYER0016
  6
CONTINUOUS
 62
     3
 10
88.79918744500002
 20
81.97545249000002
 30
0.0
 11
119.799187445
 21
81.97545249000002
 31
0.0
  0
LINE
  5
14F
  8
LAYER0016
  6
CONTINUOUS
 62
     3
 10
119.799187445
 20
81.97545249000002
 30
0.0
 11
119.799187445
 21
-55.52454751
 31
0.0
  0
LINE
  5
150
  8
LAYER0016
  6
CONTINUOUS
 62
     3
 10
88.79918744500002
 20
-55.52454751
 30
0.0
 11
88.79918744500002
 21
81.97545249000002
 31
0.0
  0
LINE
  5
151
  8
LAYER0016
  6
CONTINUOUS
 62
     3
 10
-125.905762325
 20
78.22545249000002
 30
0.0
 11
-89.905762325
 21
78.22545249000002
 31
0.0
  0
LINE
  5
152
  8
LAYER0016
  6
CONTINUOUS
 62
     3
 10
-89.905762325
 20
-52.07454751
 30
0.0
 11
-125.905762325
 21
-52.07454751
 31
0.0
  0
LINE
  5
153
  8
LAYER0192
  6
CONTINUOUS
 62
     3
 10
45.44039448500001
 20
75.14545249
 30
0.0
 11
34.59613239500001
 21
75.14545249
 31
0.0
  0
LINE
  5
154
  8
LAYER0192
  6
CONTINUOUS
 62
     3
 10
45.44039448500001
 20
-48.69454751
 30
0.0
 11
34.59613239500001
 21
-48.69454751
 31
0.0
  0
LINE
  5
155
  8
LAYER0192
  6
CONTINUOUS
 62
     3
 10
45.44039448500001
 20
73.47545249000002
 30
0.0
 11
36.44039448500001
 21
73.47545249000002
 31
0.0
  0
LINE
  5
156
  8
LAYER0192
  6
CONTINUOUS
 62
     3
 10
43.94039448500001
 20
67.27545248999999
 30
0.0
 11
36.44039448500001
 21
67.27545248999999
 31
0.0
  0
LINE
  5
157
  8
LAYER0192
  6
CONTINUOUS
 62
     3
 10
43.94039448500001
 20
65.85545249
 30
0.0
 11
36.44039448500001
 21
65.85545249
 31
0.0
  0
LINE
  5
158
  8
LAYER0192
  6
CONTINUOUS
 62
     3
 10
36.44039448500001
 20
-47.02454750999999
 30
0.0
 11
45.44039448500001
 21
-47.02454750999999
 31
0.0
  0
LINE
  5
159
  8
LAYER0192
  6
CONTINUOUS
 62
     3
 10
43.94039448500001
 20
59.65545249
 30
0.0
 11
36.44039448500001
 21
59.65545249
 31
0.0
  0
LINE
  5
15A
  8
LAYER0192
  6
CONTINUOUS
 62
     3
 10
43.94039448500001
 20
58.23545249
 30
0.0
 11
36.44039448500001
 21
58.23545249
 31
0.0
  0
LINE
  5
15B
  8
LAYER0192
  6
CONTINUOUS
 62
     3
 10
43.94039448500001
 20
52.03545248999999
 30
0.0
 11
36.44039448500001
 21
52.03545248999999
 31
0.0
  0
LINE
  5
15C
  8
LAYER0192
  6
CONTINUOUS
 62
     3
 10
43.94039448500001
 20
50.61545249
 30
0.0
 11
36.44039448500001
 21
50.61545249
 31
0.0
  0
LINE
  5
15D
  8
LAYER0192
  6
CONTINUOUS
 62
     3
 10
43.94039448500001
 20
44.41545249000001
 30
0.0
 11
36.44039448500001
 21
44.41545249000001
 31
0.0
  0
LINE
  5
15E
  8
LAYER0192
  6
CONTINUOUS
 62
     3
 10
43.94039448500001
 20
42.99545249000001
 30
0.0
 11
36.44039448500001
 21
42.99545249000001
 31
0.0
  0
LINE
  5
15F
  8
LAYER0192
  6
CONTINUOUS
 62
     3
 10
43.94039448500001
 20
36.79545249000001
 30
0.0
 11
36.44039448500001
 21
36.79545249000001
 31
0.0
  0
LINE
  5
160
  8
LAYER0192
  6
CONTINUOUS
 62
     3
 10
43.94039448500001
 20
35.37545249
 30
0.0
 11
36.44039448500001
 21
35.37545249
 31
0.0
  0
LINE
  5
161
  8
LAYER0192
  6
CONTINUOUS
 62
     3
 10
43.94039448500001
 20
29.17545249
 30
0.0
 11
36.44039448500001
 21
29.17545249
 31
0.0
  0
LINE
  5
162
  8
LAYER0192
  6
CONTINUOUS
 62
     3
 10
43.94039448500001
 20
27.75545249
 30
0.0
 11
36.44039448500001
 21
27.75545249
 31
0.0
  0
LINE
  5
163
  8
LAYER0192
  6
CONTINUOUS
 62
     3
 10
43.94039448500001
 20
21.55545249
 30
0.0
 11
36.44039448500001
 21
21.55545249
 31
0.0
  0
LINE
  5
164
  8
LAYER0192
  6
CONTINUOUS
 62
     3
 10
43.94039448500001
 20
20.13545249
 30
0.0
 11
36.44039448500001
 21
20.13545249
 31
0.0
  0
LINE
  5
165
  8
LAYER0192
  6
CONTINUOUS
 62
     3
 10
43.94039448500001
 20
13.93545249
 30
0.0
 11
36.44039448500001
 21
13.93545249
 31
0.0
  0
LINE
  5
166
  8
LAYER0192
  6
CONTINUOUS
 62
     3
 10
43.94039448500001
 20
12.51545249
 30
0.0
 11
36.44039448500001
 21
12.51545249
 31
0.0
  0
LINE
  5
167
  8
LAYER0192
  6
CONTINUOUS
 62
     3
 10
43.94039448500001
 20
6.315452490000001
 30
0.0
 11
36.44039448500001
 21
6.315452490000001
 31
0.0
  0
LINE
  5
168
  8
LAYER0192
  6
CONTINUOUS
 62
     3
 10
43.94039448500001
 20
4.895452490000002
 30
0.0
 11
36.44039448500001
 21
4.895452490000002
 31
0.0
  0
LINE
  5
169
  8
LAYER0192
  6
CONTINUOUS
 62
     3
 10
43.94039448500001
 20
-1.304547509999996
 30
0.0
 11
36.44039448500001
 21
-1.304547509999996
 31
0.0
  0
LINE
  5
16A
  8
LAYER0192
  6
CONTINUOUS
 62
     3
 10
43.94039448500001
 20
-2.724547509999997
 30
0.0
 11
36.44039448500001
 21
-2.724547509999997
 31
0.0
  0
LINE
  5
16B
  8
LAYER0192
  6
CONTINUOUS
 62
     3
 10
43.94039448500001
 20
-8.924547509999996
 30
0.0
 11
36.44039448500001
 21
-8.924547509999996
 31
0.0
  0
LINE
  5
16C
  8
LAYER0192
  6
CONTINUOUS
 62
     3
 10
43.94039448500001
 20
-10.34454751
 30
0.0
 11
36.44039448500001
 21
-10.34454751
 31
0.0
  0
LINE
  5
16D
  8
LAYER0192
  6
CONTINUOUS
 62
     3
 10
43.94039448500001
 20
-16.54454751
 30
0.0
 11
36.44039448500001
 21
-16.54454751
 31
0.0
  0
LINE
  5
16E
  8
LAYER0192
  6
CONTINUOUS
 62
     3
 10
43.94039448500001
 20
-17.96454751
 30
0.0
 11
36.44039448500001
 21
-17.96454751
 31
0.0
  0
LINE
  5
16F
  8
LAYER0192
  6
CONTINUOUS
 62
     3
 10
43.94039448500001
 20
-24.16454751
 30
0.0
 11
36.44039448500001
 21
-24.16454751
 31
0.0
  0
LINE
  5
170
  8
LAYER0192
  6
CONTINUOUS
 62
     3
 10
43.94039448500001
 20
-25.58454751
 30
0.0
 11
36.44039448500001
 21
-25.58454751
 31
0.0
  0
LINE
  5
171
  8
LAYER0192
  6
CONTINUOUS
 62
     3
 10
43.94039448500001
 20
-31.78454751
 30
0.0
 11
36.44039448500001
 21
-31.78454751
 31
0.0
  0
LINE
  5
172
  8
LAYER0192
  6
CONTINUOUS
 62
     3
 10
43.94039448500001
 20
-33.20454751
 30
0.0
 11
36.44039448500001
 21
-33.20454751
 31
0.0
  0
LINE
  5
173
  8
LAYER0192
  6
CONTINUOUS
 62
     3
 10
43.94039448500001
 20
-39.40454751
 30
0.0
 11
36.44039448500001
 21
-39.40454751
 31
0.0
  0
LINE
  5
174
  8
LAYER0192
  6
CONTINUOUS
 62
     3
 10
43.94039448500001
 20
-40.82454751
 30
0.0
 11
36.44039448500001
 21
-40.82454751
 31
0.0
  0
LINE
  5
175
  8
LAYER0192
  6
CONTINUOUS
 62
     3
 10
45.44039448500001
 20
75.14545249
 30
0.0
 11
45.44039448500001
 21
-48.69454751
 31
0.0
  0
LINE
  5
176
  8
LAYER0192
  6
CONTINUOUS
 62
     3
 10
29.44039448500001
 20
81.97545249000002
 30
0.0
 11
27.44039448500001
 21
81.97545249000002
 31
0.0
  0
LINE
  5
177
  8
LAYER0192
  6
CONTINUOUS
 62
     3
 10
29.44039448500001
 20
-55.52454751
 30
0.0
 11
27.44039448500001
 21
-55.52454751
 31
0.0
  0
LINE
  5
178
  8
LAYER0192
  6
CONTINUOUS
 62
     3
 10
36.44039448500001
 20
73.47545249000002
 30
0.0
 11
36.44039448500001
 21
-47.02454750999999
 31
0.0
  0
LINE
  5
179
  8
LAYER0192
  6
CONTINUOUS
 62
     3
 10
29.44039448500001
 20
81.97545249000002
 30
0.0
 11
32.86408158500001
 21
76.14545249
 31
0.0
  0
LINE
  5
17A
  8
LAYER0192
  6
CONTINUOUS
 62
     3
 10
29.44039448500001
 20
-55.52454751
 30
0.0
 11
32.86408158500001
 21
-49.69454751
 31
0.0
  0
ARC
  5
17B
  8
LAYER0192
  6
CONTINUOUS
 62
     3
 10
34.59613239500001
 20
77.14545249
 30
0.0
 40
2.0
 50
210.0
 51
270.0
  0
ARC
  5
17C
  8
LAYER0192
  6
CONTINUOUS
 62
     3
 10
34.59613239500001
 20
-50.69454750999999
 30
0.0
 40
2.0
 50
90.0
 51
150.0
  0
LINE
  5
17D
  8
LAYER0192
  6
CONTINUOUS
 62
     3
 10
27.44039448500001
 20
-55.52454751
 30
0.0
 11
27.44039448500001
 21
81.97545249000002
 31
0.0
  0
LINE
  5
17E
  8
LAYER0192
  6
CONTINUOUS
 62
     3
 10
42.44039448500001
 20
67.27545248999999
 30
0.0
 11
42.44039448500001
 21
73.47545249000002
 31
0.0
  0
LINE
  5
17F
  8
LAYER0192
  6
CONTINUOUS
 62
     3
 10
42.44039448500001
 20
59.65545249
 30
0.0
 11
42.44039448500001
 21
65.85545249
 31
0.0
  0
LINE
  5
180
  8
LAYER0192
  6
CONTINUOUS
 62
     3
 10
42.44039448500001
 20
52.03545248999999
 30
0.0
 11
42.44039448500001
 21
58.23545249
 31
0.0
  0
LINE
  5
181
  8
LAYER0192
  6
CONTINUOUS
 62
     3
 10
42.44039448500001
 20
44.41545249000001
 30
0.0
 11
42.44039448500001
 21
50.61545249
 31
0.0
  0
LINE
  5
182
  8
LAYER0192
  6
CONTINUOUS
 62
     3
 10
42.44039448500001
 20
36.79545249000001
 30
0.0
 11
42.44039448500001
 21
42.99545249000001
 31
0.0
  0
LINE
  5
183
  8
LAYER0192
  6
CONTINUOUS
 62
     3
 10
42.44039448500001
 20
29.17545249
 30
0.0
 11
42.44039448500001
 21
35.37545249
 31
0.0
  0
LINE
  5
184
  8
LAYER0192
  6
CONTINUOUS
 62
     3
 10
42.44039448500001
 20
21.55545249
 30
0.0
 11
42.44039448500001
 21
27.75545249
 31
0.0
  0
LINE
  5
185
  8
LAYER0192
  6
CONTINUOUS
 62
     3
 10
42.44039448500001
 20
13.93545249
 30
0.0
 11
42.44039448500001
 21
20.13545249
 31
0.0
  0
LINE
  5
186
  8
LAYER0192
  6
CONTINUOUS
 62
     3
 10
42.44039448500001
 20
6.315452490000001
 30
0.0
 11
42.44039448500001
 21
12.51545249
 31
0.0
  0
LINE
  5
187
  8
LAYER0192
  6
CONTINUOUS
 62
     3
 10
42.44039448500001
 20
-1.304547509999996
 30
0.0
 11
42.44039448500001
 21
4.895452490000002
 31
0.0
  0
LINE
  5
188
  8
LAYER0192
  6
CONTINUOUS
 62
     3
 10
42.44039448500001
 20
-8.924547509999996
 30
0.0
 11
42.44039448500001
 21
-2.724547509999997
 31
0.0
  0
LINE
  5
189
  8
LAYER0192
  6
CONTINUOUS
 62
     3
 10
42.44039448500001
 20
-16.54454751
 30
0.0
 11
42.44039448500001
 21
-10.34454751
 31
0.0
  0
LINE
  5
18A
  8
LAYER0192
  6
CONTINUOUS
 62
     3
 10
42.44039448500001
 20
-24.16454751
 30
0.0
 11
42.44039448500001
 21
-17.96454751
 31
0.0
  0
LINE
  5
18B
  8
LAYER0192
  6
CONTINUOUS
 62
     3
 10
42.44039448500001
 20
-31.78454751
 30
0.0
 11
42.44039448500001
 21
-25.58454751
 31
0.0
  0
LINE
  5
18C
  8
LAYER0192
  6
CONTINUOUS
 62
     3
 10
42.44039448500001
 20
-47.02454750999999
 30
0.0
 11
42.44039448500001
 21
-40.82454751
 31
0.0
  0
LINE
  5
18D
  8
LAYER0192
  6
CONTINUOUS
 62
     3
 10
42.44039448500001
 20
-39.40454751
 30
0.0
 11
42.44039448500001
 21
-33.20454751
 31
0.0
  0
LINE
  5
18E
  8
LAYER0192
  6
CONTINUOUS
 62
     3
 10
43.94039448500001
 20
-39.40454751
 30
0.0
 11
43.94039448500001
 21
-40.82454751
 31
0.0
  0
LINE
  5
18F
  8
LAYER0192
  6
CONTINUOUS
 62
     3
 10
43.94039448500001
 20
-24.16454751
 30
0.0
 11
43.94039448500001
 21
-25.58454751
 31
0.0
  0
LINE
  5
190
  8
LAYER0192
  6
CONTINUOUS
 62
     3
 10
43.94039448500001
 20
-31.78454751
 30
0.0
 11
43.94039448500001
 21
-33.20454751
 31
0.0
  0
LINE
  5
191
  8
LAYER0192
  6
CONTINUOUS
 62
     3
 10
43.94039448500001
 20
-16.54454751
 30
0.0
 11
43.94039448500001
 21
-17.96454751
 31
0.0
  0
LINE
  5
192
  8
LAYER0192
  6
CONTINUOUS
 62
     3
 10
43.94039448500001
 20
-8.924547509999996
 30
0.0
 11
43.94039448500001
 21
-10.34454751
 31
0.0
  0
LINE
  5
193
  8
LAYER0192
  6
CONTINUOUS
 62
     3
 10
43.94039448500001
 20
-1.304547509999996
 30
0.0
 11
43.94039448500001
 21
-2.724547509999997
 31
0.0
  0
LINE
  5
194
  8
LAYER0192
  6
CONTINUOUS
 62
     3
 10
43.94039448500001
 20
6.315452490000001
 30
0.0
 11
43.94039448500001
 21
4.895452490000002
 31
0.0
  0
LINE
  5
195
  8
LAYER0192
  6
CONTINUOUS
 62
     3
 10
43.94039448500001
 20
13.93545249
 30
0.0
 11
43.94039448500001
 21
12.51545249
 31
0.0
  0
LINE
  5
196
  8
LAYER0192
  6
CONTINUOUS
 62
     3
 10
43.94039448500001
 20
21.55545249
 30
0.0
 11
43.94039448500001
 21
20.13545249
 31
0.0
  0
LINE
  5
197
  8
LAYER0192
  6
CONTINUOUS
 62
     3
 10
43.94039448500001
 20
29.17545249
 30
0.0
 11
43.94039448500001
 21
27.75545249
 31
0.0
  0
LINE
  5
198
  8
LAYER0192
  6
CONTINUOUS
 62
     3
 10
43.94039448500001
 20
36.79545249000001
 30
0.0
 11
43.94039448500001
 21
35.37545249
 31
0.0
  0
LINE
  5
199
  8
LAYER0192
  6
CONTINUOUS
 62
     3
 10
43.94039448500001
 20
44.41545249000001
 30
0.0
 11
43.94039448500001
 21
42.99545249000001
 31
0.0
  0
LINE
  5
19A
  8
LAYER0192
  6
CONTINUOUS
 62
     3
 10
43.94039448500001
 20
52.03545248999999
 30
0.0
 11
43.94039448500001
 21
50.61545249
 31
0.0
  0
LINE
  5
19B
  8
LAYER0192
  6
CONTINUOUS
 62
     3
 10
43.94039448500001
 20
59.65545249
 30
0.0
 11
43.94039448500001
 21
58.23545249
 31
0.0
  0
LINE
  5
19C
  8
LAYER0192
  6
CONTINUOUS
 62
     3
 10
43.94039448500001
 20
67.27545248999999
 30
0.0
 11
43.94039448500001
 21
65.85545249
 31
0.0
  0
LINE
  5
19D
  8
LAYER0192
  6
CONTINUOUS
 62
     3
 10
33.44039448500002
 20
-49.06228837
 30
0.0
 11
33.44039448500002
 21
75.51319335
 31
0.0
  0
LINE
  5
19E
  8
LAYER0032
  6
CONTINUOUS
 62
     3
 10
27.44039448500001
 20
81.97545249000002
 30
0.0
 11
27.44039448500001
 21
-55.52454751
 31
0.0
  0
LINE
  5
19F
  8
LAYER0032
  6
CONTINUOUS
 62
     3
 10
-47.55960551499998
 20
81.97545249000002
 30
0.0
 11
27.44039448500001
 21
81.97545249000002
 31
0.0
  0
LINE
  5
1A0
  8
LAYER0032
  6
CONTINUOUS
 62
     3
 10
-47.55960551499998
 20
-55.52454751
 30
0.0
 11
27.44039448500001
 21
-55.52454751
 31
0.0
  0
LINE
  5
1A1
  8
LAYER0032
  6
CONTINUOUS
 62
     3
 10
-53.45960551499999
 20
84.92545248999998
 30
0.0
 11
-53.45960551499999
 21
-58.47454751
 31
0.0
  0
LINE
  5
1A2
  8
LAYER0032
  6
CONTINUOUS
 62
     3
 10
-47.55960551499998
 20
-58.77454750999999
 30
0.0
 11
-47.55960551499998
 21
85.22545249000002
 31
0.0
  0
LINE
  5
1A3
  8
LAYER0032
  6
CONTINUOUS
 62
     3
 10
-52.95960551499999
 20
85.22545249000002
 30
0.0
 11
-52.95960551499999
 21
-58.77454750999999
 31
0.0
  0
LINE
  5
1A4
  8
LAYER0176
  6
CONTINUOUS
 62
     3
 10
-19.459605515
 20
89.47545249000002
 30
0.0
 11
3.540394485000004
 21
89.47545249000002
 31
0.0
  0
LINE
  5
1A5
  8
LAYER0176
  6
CONTINUOUS
 62
     3
 10
3.540394485000004
 20
89.47545249000002
 30
0.0
 11
3.540394485000004
 21
83.57545249
 31
0.0
  0
LINE
  5
1A6
  8
LAYER0176
  6
CONTINUOUS
 62
     3
 10
1.940394485000004
 20
89.47545249000002
 30
0.0
 11
1.940394485000004
 21
83.57545249
 31
0.0
  0
LINE
  5
1A7
  8
LAYER0176
  6
CONTINUOUS
 62
     3
 10
5.040394485000004
 20
88.72545249000001
 30
0.0
 11
5.040394485000004
 21
83.22545249000002
 31
0.0
  0
LINE
  5
1A8
  8
LAYER0176
  6
CONTINUOUS
 62
     3
 10
3.540394485000004
 20
88.72545249000001
 30
0.0
 11
3.540394485000004
 21
83.22545249000002
 31
0.0
  0
LINE
  5
1A9
  8
LAYER0176
  6
CONTINUOUS
 62
     3
 10
5.040394485000004
 20
87.97545249000002
 30
0.0
 11
27.24039448500001
 21
87.97545249000002
 31
0.0
  0
LINE
  5
1AA
  8
LAYER0176
  6
CONTINUOUS
 62
     3
 10
5.040394485000004
 20
83.97545249000002
 30
0.0
 11
27.24039448500001
 21
83.97545249000002
 31
0.0
  0
ARC
  5
1AB
  8
LAYER0176
  6
CONTINUOUS
 62
     3
 10
4.290394485000004
 20
88.72545249000001
 30
0.0
 40
0.75
 50
0.0
 51
180.0
  0
ARC
  5
1AC
  8
LAYER0176
  6
CONTINUOUS
 62
     3
 10
4.290394485000004
 20
83.22545249000002
 30
0.0
 40
0.75
 50
180.0
 51
0.0
  0
LINE
  5
1AD
  8
LAYER0176
  6
CONTINUOUS
 62
     3
 10
-22.959605515
 20
83.97545249000002
 30
0.0
 11
-22.959605515
 21
87.97545249000002
 31
0.0
  0
LINE
  5
1AE
  8
LAYER0176
  6
CONTINUOUS
 62
     3
 10
-12.559605515
 20
89.47545249000002
 30
0.0
 11
-12.559605515
 21
85.27545248999996
 31
0.0
  0
LINE
  5
1AF
  8
LAYER0176
  6
CONTINUOUS
 62
     3
 10
-15.559605515
 20
88.74545248999998
 30
0.0
 11
-14.659605515
 21
88.74545248999998
 31
0.0
  0
ARC
  5
1B0
  8
LAYER0176
  6
CONTINUOUS
 62
     3
 10
-14.659605515
 20
89.24545248999998
 30
0.0
 40
0.5
 50
270.0
 51
0.0
  0
LINE
  5
1B1
  8
LAYER0176
  6
CONTINUOUS
 62
     3
 10
-6.159605514999996
 20
83.67545248999998
 30
0.0
 11
-6.159605514999996
 21
85.27545248999996
 31
0.0
  0
LINE
  5
1B2
  8
LAYER0176
  6
CONTINUOUS
 62
     3
 10
-12.559605515
 20
85.27545248999996
 30
0.0
 11
-6.159605514999996
 21
85.27545248999996
 31
0.0
  0
LINE
  5
1B3
  8
LAYER0176
  6
CONTINUOUS
 62
     3
 10
1.940394485000004
 20
83.97545249000002
 30
0.0
 11
-6.159605514999996
 21
83.97545249000002
 31
0.0
  0
LINE
  5
1B4
  8
LAYER0176
  6
CONTINUOUS
 62
     3
 10
-15.559605515
 20
83.97545249000002
 30
0.0
 11
-22.959605515
 21
83.97545249000002
 31
0.0
  0
LINE
  5
1B5
  8
LAYER0176
  6
CONTINUOUS
 62
     3
 10
1.940394485000004
 20
87.97545249000002
 30
0.0
 11
-12.559605515
 21
87.97545249000002
 31
0.0
  0
LINE
  5
1B6
  8
LAYER0176
  6
CONTINUOUS
 62
     3
 10
-15.559605515
 20
87.97545249000002
 30
0.0
 11
-22.959605515
 21
87.97545249000002
 31
0.0
  0
LINE
  5
1B7
  8
LAYER0176
  6
CONTINUOUS
 62
     3
 10
-7.959605514999995
 20
87.72545249000002
 30
0.0
 11
-12.559605515
 21
87.72545249000002
 31
0.0
  0
ARC
  5
1B8
  8
LAYER0176
  6
CONTINUOUS
 62
     3
 10
-12.559605515
 20
85.27545248999996
 30
0.0
 40
1.6
 50
180.0
 51
270.0
  0
ARC
  5
1B9
  8
LAYER0176
  6
CONTINUOUS
 62
     3
 10
1.940394485000004
 20
83.57545249
 30
0.0
 40
1.6
 50
270.0
 51
0.0
  0
LINE
  5
1BA
  8
LAYER0176
  6
CONTINUOUS
 62
     3
 10
-12.159605515
 20
85.27545248999996
 30
0.0
 11
-12.159605515
 21
83.67545248999998
 31
0.0
  0
LINE
  5
1BB
  8
LAYER0176
  6
CONTINUOUS
 62
     3
 10
-12.559605515
 20
83.67545248999998
 30
0.0
 11
-6.159605514999996
 21
83.67545248999998
 31
0.0
  0
LINE
  5
1BC
  8
LAYER0176
  6
CONTINUOUS
 62
     3
 10
-14.159605515
 20
89.47545249000002
 30
0.0
 11
-14.159605515
 21
83.57545249
 31
0.0
  0
LINE
  5
1BD
  8
LAYER0176
  6
CONTINUOUS
 62
     3
 10
-15.559605515
 20
88.74545248999998
 30
0.0
 11
-15.559605515
 21
83.20545249
 31
0.0
  0
LINE
  5
1BE
  8
LAYER0176
  6
CONTINUOUS
 62
     3
 10
-7.959605514999995
 20
85.27545248999996
 30
0.0
 11
-7.959605514999995
 21
87.97545249000002
 31
0.0
  0
LINE
  5
1BF
  8
LAYER0176
  6
CONTINUOUS
 62
     3
 10
26.340394485
 20
86.52545248999996
 30
0.0
 11
26.340394485
 21
85.42545249
 31
0.0
  0
LINE
  5
1C0
  8
LAYER0176
  6
CONTINUOUS
 62
     3
 10
26.340394485
 20
86.52545248999996
 30
0.0
 11
27.540394485
 21
86.52545248999996
 31
0.0
  0
LINE
  5
1C1
  8
LAYER0176
  6
CONTINUOUS
 62
     3
 10
26.340394485
 20
85.42545249
 30
0.0
 11
27.540394485
 21
85.42545249
 31
0.0
  0
LINE
  5
1C2
  8
LAYER0176
  6
CONTINUOUS
 62
     3
 10
27.540394485
 20
87.67545248999998
 30
0.0
 11
27.540394485
 21
86.52545248999996
 31
0.0
  0
LINE
  5
1C3
  8
LAYER0176
  6
CONTINUOUS
 62
     3
 10
27.540394485
 20
85.42545249
 30
0.0
 11
27.540394485
 21
84.27545248999998
 31
0.0
  0
LINE
  5
1C4
  8
LAYER0176
  6
CONTINUOUS
 62
     3
 10
-34.45960551499999
 20
81.97545249000002
 30
0.0
 11
-14.159605515
 21
81.97545249000002
 31
0.0
  0
LINE
  5
1C5
  8
LAYER0176
  6
CONTINUOUS
 62
     3
 10
-12.559605515
 20
81.97545249000002
 30
0.0
 11
1.940394485000004
 21
81.97545249000002
 31
0.0
  0
LINE
  5
1C6
  8
LAYER0176
  6
CONTINUOUS
 62
     3
 10
-34.45960551499999
 20
83.57545249
 30
0.0
 11
-15.559605515
 21
83.57545249
 31
0.0
  0
LINE
  5
1C7
  8
LAYER0176
  6
CONTINUOUS
 62
     3
 10
-12.559605515
 20
83.57545249
 30
0.0
 11
1.940394485000004
 21
83.57545249
 31
0.0
  0
LINE
  5
1C8
  8
LAYER0176
  6
CONTINUOUS
 62
     3
 10
-15.559605515
 20
83.20545249
 30
0.0
 11
-14.659605515
 21
83.20545249
 31
0.0
  0
ARC
  5
1C9
  8
LAYER0176
  6
CONTINUOUS
 62
     3
 10
-14.659605515
 20
82.70545248999998
 30
0.0
 40
0.5
 50
0.0
 51
90.0
  0
LINE
  5
1CA
  8
LAYER0176
  6
CONTINUOUS
 62
     3
 10
-34.45960551499999
 20
83.57545249
 30
0.0
 11
-34.45960551499999
 21
81.97545249000002
 31
0.0
  0
LINE
  5
1CB
  8
LAYER0176
  6
CONTINUOUS
 62
     3
 10
-19.459605515
 20
89.47545249000002
 30
0.0
 11
-19.459605515
 21
83.57545249
 31
0.0
  0
LINE
  5
1CC
  8
LAYER0176
  6
CONTINUOUS
 62
     3
 10
27.24039448500001
 20
87.97545249000002
 30
0.0
 11
27.540394485
 21
87.67545248999998
 31
0.0
  0
LINE
  5
1CD
  8
LAYER0176
  6
CONTINUOUS
 62
     3
 10
27.24039448500001
 20
83.97545249000002
 30
0.0
 11
27.540394485
 21
84.27545248999998
 31
0.0
  0
LINE
  5
1CE
  8
LAYER0176
  6
CONTINUOUS
 62
     3
 10
27.24039448500001
 20
83.97545249000002
 30
0.0
 11
27.24039448500001
 21
85.42545249
 31
0.0
  0
LINE
  5
1CF
  8
LAYER0176
  6
CONTINUOUS
 62
     3
 10
27.24039448500001
 20
87.97545249000002
 30
0.0
 11
27.24039448500001
 21
86.52545248999996
 31
0.0
  0
LINE
  5
1D0
  8
LAYER0176
  6
CONTINUOUS
 62
     3
 10
-12.559605515
 20
81.97545249000002
 30
0.0
 11
-12.559605515
 21
83.67545248999998
 31
0.0
  0
LINE
  5
1D1
  8
LAYER0176
  6
CONTINUOUS
 62
     3
 10
-14.159605515
 20
85.27545248999996
 30
0.0
 11
-14.159605515
 21
81.97545249000002
 31
0.0
  0
LINE
  5
1D2
  8
LAYER0176
  6
CONTINUOUS
 62
     3
 10
-19.459605515
 20
-63.02454750999999
 30
0.0
 11
3.540394485000004
 21
-63.02454750999999
 31
0.0
  0
LINE
  5
1D3
  8
LAYER0176
  6
CONTINUOUS
 62
     3
 10
3.540394485000004
 20
-63.02454750999999
 30
0.0
 11
3.540394485000004
 21
-57.12454750999999
 31
0.0
  0
LINE
  5
1D4
  8
LAYER0176
  6
CONTINUOUS
 62
     3
 10
1.940394485000004
 20
-63.02454750999999
 30
0.0
 11
1.940394485000004
 21
-57.12454750999999
 31
0.0
  0
LINE
  5
1D5
  8
LAYER0176
  6
CONTINUOUS
 62
     3
 10
5.040394485000004
 20
-62.27454751
 30
0.0
 11
5.040394485000004
 21
-56.77454751
 31
0.0
  0
LINE
  5
1D6
  8
LAYER0176
  6
CONTINUOUS
 62
     3
 10
3.540394485000004
 20
-62.27454751
 30
0.0
 11
3.540394485000004
 21
-56.77454751
 31
0.0
  0
LINE
  5
1D7
  8
LAYER0176
  6
CONTINUOUS
 62
     3
 10
5.040394485000004
 20
-61.52454751
 30
0.0
 11
27.24039448500001
 21
-61.52454751
 31
0.0
  0
LINE
  5
1D8
  8
LAYER0176
  6
CONTINUOUS
 62
     3
 10
5.040394485000004
 20
-57.52454750999999
 30
0.0
 11
27.24039448500001
 21
-57.52454750999999
 31
0.0
  0
ARC
  5
1D9
  8
LAYER0176
  6
CONTINUOUS
 62
     3
 10
4.290394485000004
 20
-62.27454751
 30
0.0
 40
0.75
 50
180.0
 51
0.0
  0
ARC
  5
1DA
  8
LAYER0176
  6
CONTINUOUS
 62
     3
 10
4.290394485000004
 20
-56.77454751
 30
0.0
 40
0.75
 50
0.0
 51
180.0
  0
LINE
  5
1DB
  8
LAYER0176
  6
CONTINUOUS
 62
     3
 10
-22.959605515
 20
-57.52454750999999
 30
0.0
 11
-22.959605515
 21
-61.52454751
 31
0.0
  0
LINE
  5
1DC
  8
LAYER0176
  6
CONTINUOUS
 62
     3
 10
-12.559605515
 20
-63.02454750999999
 30
0.0
 11
-12.559605515
 21
-58.82454751
 31
0.0
  0
LINE
  5
1DD
  8
LAYER0176
  6
CONTINUOUS
 62
     3
 10
-15.559605515
 20
-62.29454751
 30
0.0
 11
-14.659605515
 21
-62.29454751
 31
0.0
  0
ARC
  5
1DE
  8
LAYER0176
  6
CONTINUOUS
 62
     3
 10
-14.659605515
 20
-62.79454750999999
 30
0.0
 40
0.5
 50
0.0
 51
90.0
  0
LINE
  5
1DF
  8
LAYER0176
  6
CONTINUOUS
 62
     3
 10
-6.159605514999996
 20
-57.22454751
 30
0.0
 11
-6.159605514999996
 21
-58.82454751
 31
0.0
  0
LINE
  5
1E0
  8
LAYER0176
  6
CONTINUOUS
 62
     3
 10
-12.559605515
 20
-58.82454751
 30
0.0
 11
-6.159605514999996
 21
-58.82454751
 31
0.0
  0
LINE
  5
1E1
  8
LAYER0176
  6
CONTINUOUS
 62
     3
 10
1.940394485000004
 20
-57.52454750999999
 30
0.0
 11
-6.159605514999996
 21
-57.52454750999999
 31
0.0
  0
LINE
  5
1E2
  8
LAYER0176
  6
CONTINUOUS
 62
     3
 10
-15.559605515
 20
-57.52454750999999
 30
0.0
 11
-22.959605515
 21
-57.52454750999999
 31
0.0
  0
LINE
  5
1E3
  8
LAYER0176
  6
CONTINUOUS
 62
     3
 10
1.940394485000004
 20
-61.52454751
 30
0.0
 11
-12.559605515
 21
-61.52454751
 31
0.0
  0
LINE
  5
1E4
  8
LAYER0176
  6
CONTINUOUS
 62
     3
 10
-15.559605515
 20
-61.52454751
 30
0.0
 11
-22.959605515
 21
-61.52454751
 31
0.0
  0
LINE
  5
1E5
  8
LAYER0176
  6
CONTINUOUS
 62
     3
 10
-7.959605514999995
 20
-61.27454750999999
 30
0.0
 11
-12.559605515
 21
-61.27454750999999
 31
0.0
  0
ARC
  5
1E6
  8
LAYER0176
  6
CONTINUOUS
 62
     3
 10
-12.559605515
 20
-58.82454751
 30
0.0
 40
1.6
 50
90.0
 51
180.0
  0
ARC
  5
1E7
  8
LAYER0176
  6
CONTINUOUS
 62
     3
 10
1.940394485000004
 20
-57.12454750999999
 30
0.0
 40
1.6
 50
0.0
 51
90.0
  0
LINE
  5
1E8
  8
LAYER0176
  6
CONTINUOUS
 62
     3
 10
-12.159605515
 20
-58.82454751
 30
0.0
 11
-12.159605515
 21
-57.22454751
 31
0.0
  0
LINE
  5
1E9
  8
LAYER0176
  6
CONTINUOUS
 62
     3
 10
-12.559605515
 20
-57.22454751
 30
0.0
 11
-6.159605514999996
 21
-57.22454751
 31
0.0
  0
LINE
  5
1EA
  8
LAYER0176
  6
CONTINUOUS
 62
     3
 10
-14.159605515
 20
-63.02454750999999
 30
0.0
 11
-14.159605515
 21
-57.12454750999999
 31
0.0
  0
LINE
  5
1EB
  8
LAYER0176
  6
CONTINUOUS
 62
     3
 10
-15.559605515
 20
-62.29454751
 30
0.0
 11
-15.559605515
 21
-56.75454751
 31
0.0
  0
LINE
  5
1EC
  8
LAYER0176
  6
CONTINUOUS
 62
     3
 10
-7.959605514999995
 20
-58.82454751
 30
0.0
 11
-7.959605514999995
 21
-61.52454751
 31
0.0
  0
LINE
  5
1ED
  8
LAYER0176
  6
CONTINUOUS
 62
     3
 10
26.340394485
 20
-60.07454751
 30
0.0
 11
26.340394485
 21
-58.97454751
 31
0.0
  0
LINE
  5
1EE
  8
LAYER0176
  6
CONTINUOUS
 62
     3
 10
26.340394485
 20
-60.07454751
 30
0.0
 11
27.540394485
 21
-60.07454751
 31
0.0
  0
LINE
  5
1EF
  8
LAYER0176
  6
CONTINUOUS
 62
     3
 10
26.340394485
 20
-58.97454751
 30
0.0
 11
27.540394485
 21
-58.97454751
 31
0.0
  0
LINE
  5
1F0
  8
LAYER0176
  6
CONTINUOUS
 62
     3
 10
27.540394485
 20
-61.22454751
 30
0.0
 11
27.540394485
 21
-60.07454751
 31
0.0
  0
LINE
  5
1F1
  8
LAYER0176
  6
CONTINUOUS
 62
     3
 10
27.540394485
 20
-58.97454751
 30
0.0
 11
27.540394485
 21
-57.82454751
 31
0.0
  0
LINE
  5
1F2
  8
LAYER0176
  6
CONTINUOUS
 62
     3
 10
-34.45960551499999
 20
-55.52454751
 30
0.0
 11
-14.159605515
 21
-55.52454751
 31
0.0
  0
LINE
  5
1F3
  8
LAYER0176
  6
CONTINUOUS
 62
     3
 10
-12.559605515
 20
-55.52454751
 30
0.0
 11
1.940394485000004
 21
-55.52454751
 31
0.0
  0
LINE
  5
1F4
  8
LAYER0176
  6
CONTINUOUS
 62
     3
 10
-34.45960551499999
 20
-57.12454750999999
 30
0.0
 11
-15.559605515
 21
-57.12454750999999
 31
0.0
  0
LINE
  5
1F5
  8
LAYER0176
  6
CONTINUOUS
 62
     3
 10
-12.559605515
 20
-57.12454750999999
 30
0.0
 11
1.940394485000004
 21
-57.12454750999999
 31
0.0
  0
LINE
  5
1F6
  8
LAYER0176
  6
CONTINUOUS
 62
     3
 10
-15.559605515
 20
-56.75454751
 30
0.0
 11
-14.659605515
 21
-56.75454751
 31
0.0
  0
ARC
  5
1F7
  8
LAYER0176
  6
CONTINUOUS
 62
     3
 10
-14.659605515
 20
-56.25454751
 30
0.0
 40
0.5
 50
270.0
 51
0.0
  0
LINE
  5
1F8
  8
LAYER0176
  6
CONTINUOUS
 62
     3
 10
-34.45960551499999
 20
-57.12454750999999
 30
0.0
 11
-34.45960551499999
 21
-55.52454751
 31
0.0
  0
LINE
  5
1F9
  8
LAYER0176
  6
CONTINUOUS
 62
     3
 10
-19.459605515
 20
-63.02454750999999
 30
0.0
 11
-19.459605515
 21
-57.12454750999999
 31
0.0
  0
LINE
  5
1FA
  8
LAYER0176
  6
CONTINUOUS
 62
     3
 10
27.24039448500001
 20
-61.52454751
 30
0.0
 11
27.540394485
 21
-61.22454751
 31
0.0
  0
LINE
  5
1FB
  8
LAYER0176
  6
CONTINUOUS
 62
     3
 10
27.24039448500001
 20
-57.52454750999999
 30
0.0
 11
27.540394485
 21
-57.82454751
 31
0.0
  0
LINE
  5
1FC
  8
LAYER0176
  6
CONTINUOUS
 62
     3
 10
27.24039448500001
 20
-57.52454750999999
 30
0.0
 11
27.24039448500001
 21
-58.97454751
 31
0.0
  0
LINE
  5
1FD
  8
LAYER0176
  6
CONTINUOUS
 62
     3
 10
27.24039448500001
 20
-61.52454751
 30
0.0
 11
27.24039448500001
 21
-60.07454751
 31
0.0
  0
LINE
  5
1FE
  8
LAYER0176
  6
CONTINUOUS
 62
     3
 10
-12.559605515
 20
-55.52454751
 30
0.0
 11
-12.559605515
 21
-57.22454751
 31
0.0
  0
LINE
  5
1FF
  8
LAYER0176
  6
CONTINUOUS
 62
     3
 10
-14.159605515
 20
-58.82454751
 30
0.0
 11
-14.159605515
 21
-55.52454751
 31
0.0
  0
TEXT
  5
201
  8
0
 62
     7
 10
113.905762325
 20
-89.47545249000002
 30
0.0
 40
5.0
  1
001
 41
0.9882352941176471
  7
DCSTYLE0
 72
     5
 11
125.905762325
 21
-89.47545249000002
 31
0.0
  0
VIEWPORT
  5
B6
 67
     1
  8
0
 10
-1.803287439999991
 20
0.0
 30
0.0
 40
744.61484931
 41
536.8527149400002
 68
     1
 69
     1
1001
ACAD
1000
MVIEW
1002
{
1070
    16
1010
0.0
1020
0.0
1030
0.0
1010
0.0
1020
0.0
1030
1.0
1040
0.0
1040
536.8527149400002
1040
-1.803287439999991
1040
0.0
1040
50.0
1040
0.0
1040
0.0
1070
     0
1070
   100
1070
     0
1070
     3
1070
     0
1070
     0
1070
     0
1070
     0
1040
0.0
1040
0.0
1040
0.0
1040
0.5
1040
0.5
1040
0.0
1040
0.0
1070
     0
1002
{
1002
}
1002
}
  0
ENDSEC
  0
EOF
