  0
SECTION
  2
HEADER
  9
$ACADVER
  1
AC1014
  9
$ACADMAINTVER
 70
       0
  9
$DWGCODEPAGE
  3
ANSI_932
  9
$INSBASE
 10
0.0
 20
0.0
 30
0.0
  9
$EXTMIN
 10
-100.66042097
 20
-102.49328217
 30
0.0
  9
$EXTMAX
 10
117.73982371
 20
40.45150809
 30
0.0
  9
$LIMMIN
 10
-107.48542861
 20
-106.96030686
  9
$LIMMAX
 10
124.56483136
 20
44.91853279
  9
$ORTHOMODE
 70
       0
  9
$REGENMODE
 70
       1
  9
$FILLMODE
 70
       1
  9
$QTEXTMODE
 70
       0
  9
$MIRRTEXT
 70
       1
  9
$DRAGMODE
 70
       2
  9
$LTSCALE
 40
1.0
  9
$OSMODE
 70
       0
  9
$ATTMODE
 70
       1
  9
$TEXTSIZE
 40
0.2
  9
$TRACEWID
 40
0.05
  9
$TEXTSTYLE
  7
STANDARD
  9
$CLAYER
  8
0
  9
$CELTYPE
  6
CONTINUOUS
  9
$CECOLOR
 62
     256
  9
$CELTSCALE
 40
1.0
  9
$DELOBJ
 70
       1
  9
$DISPSILH
 70
       0
  9
$DIMSCALE
 40
1.0
  9
$DIMASZ
 40
0.18
  9
$DIMEXO
 40
0.0625
  9
$DIMDLI
 40
0.38
  9
$DIMRND
 40
0.0
  9
$DIMDLE
 40
0.0
  9
$DIMEXE
 40
0.18
  9
$DIMTP
 40
0.0
  9
$DIMTM
 40
0.0
  9
$DIMTXT
 40
0.18
  9
$DIMCEN
 40
0.09
  9
$DIMTSZ
 40
0.0
  9
$DIMTOL
 70
       0
  9
$DIMLIM
 70
       0
  9
$DIMTIH
 70
       1
  9
$DIMTOH
 70
       1
  9
$DIMSE1
 70
       0
  9
$DIMSE2
 70
       0
  9
$DIMTAD
 70
       0
  9
$DIMZIN
 70
       0
  9
$DIMBLK
  1

  9
$DIMASO
 70
       1
  9
$DIMSHO
 70
       1
  9
$DIMPOST
  1

  9
$DIMAPOST
  1

  9
$DIMALT
 70
       0
  9
$DIMALTD
 70
       2
  9
$DIMALTF
 40
25.4
  9
$DIMLFAC
 40
1.0
  9
$DIMTOFL
 70
       0
  9
$DIMTVP
 40
0.0
  9
$DIMTIX
 70
       0
  9
$DIMSOXD
 70
       0
  9
$DIMSAH
 70
       0
  9
$DIMBLK1
  1

  9
$DIMBLK2
  1

  9
$DIMSTYLE
  2
STANDARD
  9
$DIMCLRD
 70
       0
  9
$DIMCLRE
 70
       0
  9
$DIMCLRT
 70
       0
  9
$DIMTFAC
 40
1.0
  9
$DIMGAP
 40
0.09
  9
$DIMJUST
 70
       0
  9
$DIMSD1
 70
       0
  9
$DIMSD2
 70
       0
  9
$DIMTOLJ
 70
       1
  9
$DIMTZIN
 70
       0
  9
$DIMALTZ
 70
       0
  9
$DIMALTTZ
 70
       0
  9
$DIMFIT
 70
       3
  9
$DIMUPT
 70
       0
  9
$DIMUNIT
 70
       2
  9
$DIMDEC
 70
       4
  9
$DIMTDEC
 70
       4
  9
$DIMALTU
 70
       2
  9
$DIMALTTD
 70
       2
  9
$DIMTXSTY
  7
STANDARD
  9
$DIMAUNIT
 70
       0
  9
$LUNITS
 70
       2
  9
$LUPREC
 70
       4
  9
$SKETCHINC
 40
0.1
  9
$FILLETRAD
 40
0.0
  9
$AUNITS
 70
       0
  9
$AUPREC
 70
       0
  9
$MENU
  1
acad
  9
$ELEVATION
 40
0.0
  9
$PELEVATION
 40
0.0
  9
$THICKNESS
 40
0.0
  9
$LIMCHECK
 70
       0
  9
$BLIPMODE
 70
       1
  9
$CHAMFERA
 40
0.0
  9
$CHAMFERB
 40
0.0
  9
$CHAMFERC
 40
0.0
  9
$CHAMFERD
 40
0.0
  9
$SKPOLY
 70
       0
  9
$TDCREATE
 40
0.000000000
  9
$TDUPDATE
 40
0.000000000
  9
$TDINDWG
 40
0.0000000000
  9
$TDUSRTIMER
 40
0.0000000000
  9
$USRTIMER
 70
       1
  9
$ANGBASE
 50
0.0
  9
$ANGDIR
 70
       0
  9
$PDMODE
 70
       0
  9
$PDSIZE
 40
1.0
  9
$PLINEWID
 40
0.0
  9
$COORDS
 70
       1
  9
$SPLFRAME
 70
       0
  9
$SPLINETYPE
 70
       6
  9
$SPLINESEGS
 70
       8
  9
$ATTDIA
 70
       0
  9
$ATTREQ
 70
       1
  9
$HANDLING
 70
       1
  9
$HANDSEED
  5
1BC
  9
$SURFTAB1
 70
       6
  9
$SURFTAB2
 70
       6
  9
$SURFTYPE
 70
       6
  9
$SURFU
 70
       6
  9
$SURFV
 70
       6
  9
$UCSNAME
  2

  9
$UCSORG
 10
0.0
 20
0.0
 30
0.0
  9
$UCSXDIR
 10
1.0
 20
0.0
 30
0.0
  9
$UCSYDIR
 10
0.0
 20
1.0
 30
0.0
  9
$PUCSNAME
  2

  9
$PUCSORG
 10
0.0
 20
0.0
 30
0.0
  9
$PUCSXDIR
 10
1.0
 20
0.0
 30
0.0
  9
$PUCSYDIR
 10
0.0
 20
1.0
 30
0.0
  9
$USERI1
 70
       0
  9
$USERI2
 70
       0
  9
$USERI3
 70
       0
  9
$USERI4
 70
       0
  9
$USERI5
 70
       0
  9
$USERR1
 40
0.0
  9
$USERR2
 40
0.0
  9
$USERR3
 40
0.0
  9
$USERR4
 40
0.0
  9
$USERR5
 40
0.0
  9
$WORLDVIEW
 70
       1
  9
$SHADEDGE
 70
       3
  9
$SHADEDIF
 70
      70
  9
$TILEMODE
 70
       1
  9
$MAXACTVP
 70
      16
  9
$PINSBASE
 10
0.0
 20
0.0
 30
0.0
  9
$PLIMCHECK
 70
       0
  9
$PEXTMIN
 10
1.00000000E+20
 20
1.00000000E+20
 30
1.00000000E+20
  9
$PEXTMAX
 10
-1.00000000E+20
 20
-1.00000000E+20
 30
-1.00000000E+20
  9
$PLIMMIN
 10
0.0
 20
0.0
  9
$PLIMMAX
 10
12.0
 20
9.0
  9
$UNITMODE
 70
       0
  9
$VISRETAIN
 70
       0
  9
$PLINEGEN
 70
       1
  9
$PSLTSCALE
 70
       0
  9
$TREEDEPTH
 70
    3020
  9
$PICKSTYLE
 70
       1
  9
$CMLSTYLE
  2
STANDARD
  9
$CMLJUST
 70
       0
  9
$CMLSCALE
 40
1.0
  9
$PROXYGRAPHICS
 70
       0
  9
$MEASUREMENT
 70
       0
  0
ENDSEC
  0
SECTION
  2
CLASSES
  0
CLASS
  1
LWPOLYLINE
  2
AcDbPolyline
  3
"AutoCAD"
 90
        0
280
       0
281
       1
  0
CLASS
  1
IMAGE
  2
AcDbRasterImage
  3
ISM
 90
      127
280
       0
281
       1
  0
CLASS
  1
OLE2FRAME
  2
AcDbOle2Frame
  3
""
 90
        0
280
       0
281
       1
  0
CLASS
  1
HATCH
  2
AcDbHatch
  3
"ACAD_SEDONA"
 90
        0
280
       0
281
       1
  0
CLASS
  1
DICTIONARYVAR
  2
AcDbDictionaryVar
  3
"AutoCAD"
 90
        0
280
       0
281
       0
  0
CLASS
  1
RASTERVARIABLES
  2
AcDbRasterVariables
  3
ISM
 90
        0
280
       0
281
       0
  0
CLASS
  1
IMAGEDEF
  2
AcDbRasterImageDef
  3
ISM
 90
        0
280
       0
281
       0
  0
CLASS
  1
IMAGEDEF_REACTOR
  2
AcDbRasterImageDefReactor
  3
ISM
 90
        1
280
       0
281
       0
  0
CLASS
  1
IDBUFFER
  2
AcDbIdBuffer
  3
"Acad"
 90
        0
280
       0
281
       0
  0
CLASS
  1
SPATIAL_FILTER
  2
AcDbSpatialFilter
  3
"Acad"
 90
        0
280
       0
281
       0
  0
CLASS
  1
XRECORD
  2
AcDbXrecord
  3
"<Built In>"
 90
        0
280
       0
281
       0
  0
CLASS
  1
SORTENTSTABLE
  2
AcDbSortentsTable
  3
"AutoCAD"
 90
        0
280
       0
281
       0
  0
CLASS
  1
LAYER_INDEX
  2
AcDbLayerIndex
  3
"Acad"
 90
        0
280
       0
281
       0
  0
CLASS
  1
SPATIAL_INDEX
  2
AcDbSpatialIndex
  3
"Acad"
 90
        0
280
       0
281
       0
  0
CLASS
  1
OBJECT_PTR
  2
CAseDLPNTableRecord
  3
"ASE-LPNTableRecord"
 90
        1
280
       0
281
       0
  0
CLASS
  1
LAYOUT
  2
AcDbLayout
  3
"AutoCAD 2000"
 90
        1
280
       0
281
       0
  0
CLASS
  1
PLOTSETTINGS
  2
AcDbPlotSettings
  3
"AutoCAD 2000"
 90
        1
280
       0
281
       0
  0
CLASS
  1
ACDBDICTIONARYWDFLT
  2
AcDbDictionaryWithDefault
  3
"AutoCAD 2000"
 90
        1
280
       0
281
       0
  0
CLASS
  1
ACDBPLACEHOLDER
  2
AcDbPlaceHolder
  3
"AutoCAD 2000"
 90
        1
280
       0
281
       0
  0
CLASS
  1
VBA_PROJECT
  2
AcDbVbaProject
  3
"acadvba"
 90
        1
280
       0
281
       0
  0
CLASS
  1
WIPEOUT
  2
AcDbWipeout
  3
WipeOut|AutoCAD Express Tool|expresstools@autodesk.com
 90
      127
280
       0
281
       1
  0
CLASS
  1
WIPEOUTVARIABLES
  2
AcDbWipeoutVariables
  3
WipeOut|AutoCAD Express Tool|expresstools@autodesk.com
 90
        0
280
       0
281
       0
  0
CLASS
  1
RTEXT
  2
RText
  3
RText|AutoCAD Express Tool|expresstools@autodesk.com
 90
        0
280
       0
281
       1
  0
CLASS
  1
ARCALIGNEDTEXT
  2
AcDbArcAlignedText
  3
ATEXT|AutoCAD Express Tool|expresstools@autodesk.com
 90
        0
280
       0
281
       1
  0
ENDSEC
  0
SECTION
  2
TABLES
  0
TABLE
  2
VPORT
  5
7
100
AcDbSymbolTable
 70
       1
  0
VPORT
  5
15
100
AcDbSymbolTableRecord
100
AcDbViewportTableRecord
  2
*ACTIVE
 70
       0
 10
0.0
 20
0.0
 11
1.0
 21
1.0
 12
8.53970137
 22
-31.02088704
 13
0.0
 23
0.0
 14
1.0
 24
1.0
 15
0.0
 25
0.0
 16
0.0
 26
0.0
 36
1.0
 17
0.0
 27
0.0
 37
0.0
 40
151.87883965
 41
1.52786432
 42
50.0
 43
0.0
 44
0.0
 50
0.0
 51
0.0
 71
       0
 72
     100
 73
       1
 74
       1
 75
       0
 76
       0
 77
       0
 78
       0
  0
ENDTAB
  0
TABLE
  2
LTYPE
  5
4
100
AcDbSymbolTable
 70
      30
  0
LTYPE
  5
11
100
AcDbSymbolTableRecord
100
AcDbLinetypeTableRecord
  2
BYBLOCK
 70
      64
  3

 72
      65
 73
       0
 40
0.0
  0
LTYPE
  5
12
100
AcDbSymbolTableRecord
100
AcDbLinetypeTableRecord
  2
BYLAYER
 70
      64
  3

 72
      65
 73
       0
 40
0.0
  0
LTYPE
  5
13
100
AcDbSymbolTableRecord
100
AcDbLinetypeTableRecord
  2
CONTINUOUS
 70
      64
  3
Solid line
 72
      65
 73
       0
 40
0.0
  0
LTYPE
  5
1D
100
AcDbSymbolTableRecord
100
AcDbLinetypeTableRecord
  2
HIDDENX2
 70
      64
  3
CADPAC LINETYPE
 72
      65
 73
       2
 40
11.88
 49
8.91
 74
       0
 49
-2.97
 74
       0
  0
LTYPE
  5
1E
100
AcDbSymbolTableRecord
100
AcDbLinetypeTableRecord
  2
HIDDEN
 70
      64
  3
CADPAC LINETYPE
 72
      65
 73
       2
 40
8.91
 49
5.94
 74
       0
 49
-2.97
 74
       0
  0
LTYPE
  5
1F
100
AcDbSymbolTableRecord
100
AcDbLinetypeTableRecord
  2
HIDDEN2
 70
      64
  3
CADPAC LINETYPE
 72
      65
 73
       2
 40
7.425
 49
4.455
 74
       0
 49
-2.97
 74
       0
  0
LTYPE
  5
20
100
AcDbSymbolTableRecord
100
AcDbLinetypeTableRecord
  2
DASHED
 70
      64
  3
CADPAC LINETYPE
 72
      65
 73
       2
 40
8.91
 49
5.94
 74
       0
 49
-2.97
 74
       0
  0
LTYPE
  5
21
100
AcDbSymbolTableRecord
100
AcDbLinetypeTableRecord
  2
DASHED2
 70
      64
  3
CADPAC LINETYPE
 72
      65
 73
       2
 40
6.6825
 49
4.455
 74
       0
 49
-2.2275
 74
       0
  0
LTYPE
  5
22
100
AcDbSymbolTableRecord
100
AcDbLinetypeTableRecord
  2
DASHEDX2
 70
      64
  3
CADPAC LINETYPE
 72
      65
 73
       2
 40
13.365
 49
8.91
 74
       0
 49
-4.455
 74
       0
  0
LTYPE
  5
23
100
AcDbSymbolTableRecord
100
AcDbLinetypeTableRecord
  2
DOTX2
 70
      64
  3
CADPAC LINETYPE
 72
      65
 73
       2
 40
3.7125
 49
0.0
 74
       0
 49
-3.7125
 74
       0
  0
LTYPE
  5
24
100
AcDbSymbolTableRecord
100
AcDbLinetypeTableRecord
  2
DOT
 70
      64
  3
CADPAC LINETYPE
 72
      65
 73
       2
 40
2.97
 49
0.0
 74
       0
 49
-2.97
 74
       0
  0
LTYPE
  5
25
100
AcDbSymbolTableRecord
100
AcDbLinetypeTableRecord
  2
DOT2
 70
      64
  3
CADPAC LINETYPE
 72
      65
 73
       2
 40
2.2275
 49
0.0
 74
       0
 49
-2.2275
 74
       0
  0
LTYPE
  5
26
100
AcDbSymbolTableRecord
100
AcDbLinetypeTableRecord
  2
CENTERX2
 70
      64
  3
CADPAC LINETYPE
 72
      65
 73
       4
 40
17.82
 49
7.425
 74
       0
 49
-3.7125
 74
       0
 49
2.97
 74
       0
 49
-3.7125
 74
       0
  0
LTYPE
  5
27
100
AcDbSymbolTableRecord
100
AcDbLinetypeTableRecord
  2
CENTER
 70
      64
  3
CADPAC LINETYPE
 72
      65
 73
       4
 40
13.662
 49
5.94
 74
       0
 49
-2.97
 74
       0
 49
1.782
 74
       0
 49
-2.97
 74
       0
  0
LTYPE
  5
28
100
AcDbSymbolTableRecord
100
AcDbLinetypeTableRecord
  2
CENTER2
 70
      64
  3
CADPAC LINETYPE
 72
      65
 73
       4
 40
9.504
 49
4.455
 74
       0
 49
-2.2275
 74
       0
 49
0.594
 74
       0
 49
-2.2275
 74
       0
  0
LTYPE
  5
29
100
AcDbSymbolTableRecord
100
AcDbLinetypeTableRecord
  2
DASHDOTX2
 70
      64
  3
CADPAC LINETYPE
 72
      65
 73
       4
 40
14.85
 49
7.425
 74
       0
 49
-3.7125
 74
       0
 49
0.0
 74
       0
 49
-3.7125
 74
       0
  0
LTYPE
  5
2A
100
AcDbSymbolTableRecord
100
AcDbLinetypeTableRecord
  2
DASHDOT
 70
      64
  3
CADPAC LINETYPE
 72
      65
 73
       4
 40
11.88
 49
5.94
 74
       0
 49
-2.97
 74
       0
 49
0.0
 74
       0
 49
-2.97
 74
       0
  0
LTYPE
  5
2B
100
AcDbSymbolTableRecord
100
AcDbLinetypeTableRecord
  2
DASHDOT2
 70
      64
  3
CADPAC LINETYPE
 72
      65
 73
       4
 40
8.91
 49
4.455
 74
       0
 49
-2.2275
 74
       0
 49
0.0
 74
       0
 49
-2.2275
 74
       0
  0
LTYPE
  5
2C
100
AcDbSymbolTableRecord
100
AcDbLinetypeTableRecord
  2
DIVIDEX2
 70
      64
  3
CADPAC LINETYPE
 72
      65
 73
       6
 40
18.5625
 49
7.425
 74
       0
 49
-3.7125
 74
       0
 49
0.0
 74
       0
 49
-3.7125
 74
       0
 49
0.0
 74
       0
 49
-3.7125
 74
       0
  0
LTYPE
  5
2D
100
AcDbSymbolTableRecord
100
AcDbLinetypeTableRecord
  2
DIVIDE
 70
      64
  3
CADPAC LINETYPE
 72
      65
 73
       6
 40
14.85
 49
5.94
 74
       0
 49
-2.97
 74
       0
 49
0.0
 74
       0
 49
-2.97
 74
       0
 49
0.0
 74
       0
 49
-2.97
 74
       0
  0
LTYPE
  5
2E
100
AcDbSymbolTableRecord
100
AcDbLinetypeTableRecord
  2
DIVIDE2
 70
      64
  3
CADPAC LINETYPE
 72
      65
 73
       6
 40
11.1375
 49
4.455
 74
       0
 49
-2.2275
 74
       0
 49
0.0
 74
       0
 49
-2.2275
 74
       0
 49
0.0
 74
       0
 49
-2.2275
 74
       0
  0
LTYPE
  5
2F
100
AcDbSymbolTableRecord
100
AcDbLinetypeTableRecord
  2
BORDERX2
 70
      64
  3
CADPAC LINETYPE
 72
      65
 73
       6
 40
25.9875
 49
7.425
 74
       0
 49
-3.7125
 74
       0
 49
7.425
 74
       0
 49
-3.7125
 74
       0
 49
0.0
 74
       0
 49
-3.7125
 74
       0
  0
LTYPE
  5
30
100
AcDbSymbolTableRecord
100
AcDbLinetypeTableRecord
  2
BORDER
 70
      64
  3
CADPAC LINETYPE
 72
      65
 73
       6
 40
20.79
 49
5.94
 74
       0
 49
-2.97
 74
       0
 49
5.94
 74
       0
 49
-2.97
 74
       0
 49
0.0
 74
       0
 49
-2.97
 74
       0
  0
LTYPE
  5
31
100
AcDbSymbolTableRecord
100
AcDbLinetypeTableRecord
  2
BORDER2
 70
      64
  3
CADPAC LINETYPE
 72
      65
 73
       6
 40
15.5925
 49
4.455
 74
       0
 49
-2.2275
 74
       0
 49
4.455
 74
       0
 49
-2.2275
 74
       0
 49
0.0
 74
       0
 49
-2.2275
 74
       0
  0
LTYPE
  5
32
100
AcDbSymbolTableRecord
100
AcDbLinetypeTableRecord
  2
PHANTOMX2
 70
      64
  3
CADPAC LINETYPE
 72
      65
 73
       6
 40
22.275
 49
7.425
 74
       0
 49
-2.97
 74
       0
 49
2.97
 74
       0
 49
-2.97
 74
       0
 49
2.97
 74
       0
 49
-2.97
 74
       0
  0
LTYPE
  5
33
100
AcDbSymbolTableRecord
100
AcDbLinetypeTableRecord
  2
PHANTOM
 70
      64
  3
CADPAC LINETYPE
 72
      65
 73
       6
 40
18.414
 49
5.94
 74
       0
 49
-2.97
 74
       0
 49
1.782
 74
       0
 49
-2.97
 74
       0
 49
1.782
 74
       0
 49
-2.97
 74
       0
  0
LTYPE
  5
34
100
AcDbSymbolTableRecord
100
AcDbLinetypeTableRecord
  2
PHANTOM2
 70
      64
  3
CADPAC LINETYPE
 72
      65
 73
       6
 40
15.741
 49
4.455
 74
       0
 49
-2.97
 74
       0
 49
1.188
 74
       0
 49
-2.97
 74
       0
 49
1.188
 74
       0
 49
-2.97
 74
       0
  0
LTYPE
  5
35
100
AcDbSymbolTableRecord
100
AcDbLinetypeTableRecord
  2
ACAD_ISO06W100
 70
      64
  3
CADPAC LINETYPE
 72
      65
 73
       8
 40
20.0475
 49
7.425
 74
       0
 49
-3.7125
 74
       0
 49
0.0
 74
       0
 49
-2.97
 74
       0
 49
0.0
 74
       0
 49
-2.97
 74
       0
 49
0.0
 74
       0
 49
-2.97
 74
       0
  0
LTYPE
  5
36
100
AcDbSymbolTableRecord
100
AcDbLinetypeTableRecord
  2
ACAD_ISO13W100
 70
      64
  3
CADPAC LINETYPE
 72
      65
 73
       8
 40
23.76
 49
5.94
 74
       0
 49
-2.97
 74
       0
 49
5.94
 74
       0
 49
-2.97
 74
       0
 49
0.0
 74
       0
 49
-2.97
 74
       0
 49
0.0
 74
       0
 49
-2.97
 74
       0
  0
LTYPE
  5
37
100
AcDbSymbolTableRecord
100
AcDbLinetypeTableRecord
  2
ACAD_ISO14W100
 70
      64
  3
CADPAC LINETYPE
 72
      65
 73
       8
 40
17.82
 49
5.94
 74
       0
 49
-2.97
 74
       0
 49
0.0
 74
       0
 49
-2.97
 74
       0
 49
0.0
 74
       0
 49
-2.97
 74
       0
 49
0.0
 74
       0
 49
-2.97
 74
       0
  0
ENDTAB
  0
TABLE
  2
LAYER
  5
2
100
AcDbSymbolTable
 70
       2
  0
LAYER
  5
14
100
AcDbSymbolTableRecord
100
AcDbLayerTableRecord
  2
0
 70
       0
 62
       7
  6
CONTINUOUS
  0
LAYER
  5
38
100
AcDbSymbolTableRecord
100
AcDbLayerTableRecord
  2
レイヤー_1
 70
       0
 62
       7
  6
CONTINUOUS
  0
ENDTAB
  0
TABLE
  2
STYLE
  5
3
100
AcDbSymbolTable
 70
       1
  0
STYLE
  5
17
100
AcDbSymbolTableRecord
100
AcDbTextStyleTableRecord
  2
STANDARD
 70
       0
 40
0.0
 41
0.8
 50
0.0
 71
       0
 42
5.0
  3
txt.shx
  4
bigfont.shx
  0
ENDTAB
  0
TABLE
  2
VIEW
  5
5
100
AcDbSymbolTable
 70
       1
  0
VIEW
  5
39
100
AcDbSymbolTableRecord
100
AcDbViewTableRecord
  2
QQQQ
 70
       0
 40
151.87883965
 10
8.53970137
 20
-31.02088704
 41
232.05025997
 11
0.0
 21
0.0
 31
1.0
 12
100.0
 22
100.0
 32
0.0
 42
50.0
 43
0.0
 44
0.0
 50
0.0
 71
       0
  0
ENDTAB
  0
TABLE
  2
UCS
  5
6
100
AcDbSymbolTable
 70
       0
  0
ENDTAB
  0
TABLE
  2
APPID
  5
8
100
AcDbSymbolTable
 70
       1
  0
APPID
  5
16
100
AcDbSymbolTableRecord
100
AcDbRegAppTableRecord
  2
ACAD
 70
       0
  0
ENDTAB
  0
TABLE
  2
DIMSTYLE
  5
9
100
AcDbSymbolTable
 70
       1
  0
DIMSTYLE
105
18
100
AcDbSymbolTableRecord
100
AcDbDimStyleTableRecord
  2
STANDARD
 70
       0
  3

  4

  5

  6

  7

 40
1.0
 41
0.18
 42
0.0625
 43
0.38
 44
0.18
 45
0.0
 46
0.0
 47
0.0
 48
0.0
 71
       0
 72
       0
 73
       1
 74
       1
 75
       0
 76
       0
 77
       0
 78
       0
140
0.18
141
0.09
142
0.0
143
25.4
144
1.0
145
0.0
146
1.0
147
0.09
170
       0
171
       2
172
       0
173
       0
174
       0
175
       0
176
       0
177
       0
178
       0
270
       2
271
       4
272
       4
273
       2
274
       2
275
       0
280
       0
281
       0
282
       0
283
       1
284
       0
285
       0
286
       0
287
       0
288
       0
340
17
  0
ENDTAB
  0
TABLE
  2
BLOCK_RECORD
  5
1
100
AcDbSymbolTable
 70
       0
  0
BLOCK_RECORD
  5
A
100
AcDbSymbolTableRecord
100
AcDbBlockTableRecord
  2
*MODEL_SPACE
  0
BLOCK_RECORD
  5
B
100
AcDbSymbolTableRecord
100
AcDbBlockTableRecord
  2
*PAPER_SPACE
  0
ENDTAB
  0
ENDSEC
  0
SECTION
  2
BLOCKS
  0
BLOCK
  5
D
100
AcDbEntity
  8
0
100
AcDbBlockBegin
  2
*MODEL_SPACE
 70
       0
 10
0.0
 20
0.0
 30
0.0
  3
*MODEL_SPACE
  1

  0
ENDBLK
  5
E
100
AcDbEntity
  8
0
100
AcDbBlockEnd
  0
BLOCK
  5
F
100
AcDbEntity
 67
       1
  8
0
100
AcDbBlockBegin
  2
*PAPER_SPACE
 70
       0
 10
0.0
 20
0.0
 30
0.0
  3
*PAPER_SPACE
  1

  0
ENDBLK
  5
10
100
AcDbEntity
 67
       1
  8
0
100
AcDbBlockEnd
  0
ENDSEC
  0
SECTION
  2
ENTITIES
  0
LINE
  5
3A
100
AcDbEntity
  8
レイヤー_1
  6
CONTINUOUS
 62
       3
100
AcDbLine
 10
-47.52381367
 20
-34.47524468
 30
0.0
 11
-39.50284423
 21
-34.47524468
 31
0.0
  0
LINE
  5
3B
100
AcDbEntity
  8
レイヤー_1
  6
CONTINUOUS
 62
       3
100
AcDbLine
 10
-47.52381367
 20
34.52475968
 30
0.0
 11
-39.58481652
 21
34.52475968
 31
0.0
  0
LINE
  5
3C
100
AcDbEntity
  8
レイヤー_1
  6
CONTINUOUS
 62
       3
100
AcDbLine
 10
96.45674357
 20
36.02475968
 30
0.0
 11
96.46041626
 21
-35.97524468
 31
0.0
  0
LINE
  5
3D
100
AcDbEntity
  8
レイヤー_1
  6
CONTINUOUS
 62
       3
100
AcDbLine
 10
48.47618633
 20
-34.47524468
 30
0.0
 11
48.47618633
 21
34.52475968
 31
0.0
  0
LINE
  5
3E
100
AcDbEntity
  8
レイヤー_1
  6
CONTINUOUS
 62
       3
100
AcDbLine
 10
78.95689745
 20
36.02475968
 30
0.0
 11
78.9534085
 21
-35.97524468
 31
0.0
  0
LINE
  5
3F
100
AcDbEntity
  8
レイヤー_1
  6
CONTINUOUS
 62
       3
100
AcDbLine
 10
-51.52381367
 20
-32.49959106
 30
0.0
 11
-51.52381367
 21
32.49901669
 31
0.0
  0
LINE
  5
40
100
AcDbEntity
  8
レイヤー_1
  6
CONTINUOUS
 62
       3
100
AcDbLine
 10
-78.46041626
 20
-35.96447498
 30
0.0
 11
-78.46041626
 21
36.03552938
 31
0.0
  0
LINE
  5
41
100
AcDbEntity
  8
レイヤー_1
  6
CONTINUOUS
 62
       3
100
AcDbLine
 10
-96.46041626
 20
-35.95820879
 30
0.0
 11
-96.46041626
 21
36.04179558
 31
0.0
  0
LINE
  5
42
100
AcDbEntity
  8
レイヤー_1
  6
CONTINUOUS
 62
       3
100
AcDbLine
 10
78.95682477
 20
34.52475968
 30
0.0
 11
96.45674357
 21
34.52475968
 31
0.0
  0
LINE
  5
43
100
AcDbEntity
  8
レイヤー_1
  6
CONTINUOUS
 62
       3
100
AcDbLine
 10
78.95348119
 20
-34.47524468
 30
0.0
 11
96.46041626
 21
-34.47524468
 31
0.0
  0
LINE
  5
44
100
AcDbEntity
  8
レイヤー_1
  6
CONTINUOUS
 62
       3
100
AcDbLine
 10
-78.46041626
 20
-35.96447498
 30
0.0
 11
-96.46041626
 21
-35.95820879
 31
0.0
  0
LINE
  5
45
100
AcDbEntity
  8
レイヤー_1
  6
CONTINUOUS
 62
       3
100
AcDbLine
 10
-31.53636406
 20
-34.47524468
 30
0.0
 11
48.47618633
 21
-34.47524468
 31
0.0
  0
LINE
  5
46
100
AcDbEntity
  8
レイヤー_1
  6
CONTINUOUS
 62
       3
100
AcDbLine
 10
78.95689745
 20
36.02475968
 30
0.0
 11
84.70599867
 21
36.02475968
 31
0.0
  0
LINE
  5
47
100
AcDbEntity
  8
レイヤー_1
  6
CONTINUOUS
 62
       3
100
AcDbLine
 10
-31.64251064
 20
34.52475968
 30
0.0
 11
48.47618633
 21
34.52475968
 31
0.0
  0
LINE
  5
48
100
AcDbEntity
  8
レイヤー_1
  6
CONTINUOUS
 62
       3
100
AcDbLine
 10
78.9534085
 20
-35.97524468
 30
0.0
 11
84.70599867
 21
-35.97524468
 31
0.0
  0
LINE
  5
49
100
AcDbEntity
  8
レイヤー_1
  6
CONTINUOUS
 62
       3
100
AcDbLine
 10
90.70822067
 20
-35.97524468
 30
0.0
 11
96.46041626
 21
-35.97524468
 31
0.0
  0
LINE
  5
4A
100
AcDbEntity
  8
レイヤー_1
  6
CONTINUOUS
 62
       3
100
AcDbLine
 10
90.70822067
 20
36.02475968
 30
0.0
 11
96.45674357
 21
36.02475968
 31
0.0
  0
LINE
  5
4B
100
AcDbEntity
  8
レイヤー_1
  6
CONTINUOUS
 62
       3
100
AcDbLine
 10
-47.52381367
 20
36.02475968
 30
0.0
 11
-49.52465006
 21
36.02545621
 31
0.0
  0
LINE
  5
4C
100
AcDbEntity
  8
レイヤー_1
  6
CONTINUOUS
 62
       3
100
AcDbLine
 10
-47.52381367
 20
-35.97524468
 30
0.0
 11
-49.52465006
 21
-35.97454815
 31
0.0
  0
LINE
  5
4D
100
AcDbEntity
  8
レイヤー_1
  6
CONTINUOUS
 62
       3
100
AcDbLine
 10
-78.46041626
 20
36.03552938
 30
0.0
 11
-96.46041626
 21
36.04179558
 31
0.0
  0
LINE
  5
4E
100
AcDbEntity
  8
レイヤー_1
  6
CONTINUOUS
 62
       3
100
AcDbLine
 10
-39.54286871
 20
-34.49927871
 30
0.0
 11
-37.04634642
 21
-33.00015914
 31
0.0
  0
LINE
  5
4F
100
AcDbEntity
  8
レイヤー_1
  6
CONTINUOUS
 62
       3
100
AcDbLine
 10
-37.04634642
 20
-33.00015914
 30
0.0
 11
-31.53636406
 21
-33.00015914
 31
0.0
  0
LINE
  5
50
100
AcDbEntity
  8
レイヤー_1
  6
CONTINUOUS
 62
       3
100
AcDbLine
 10
-31.53636406
 20
-33.00015914
 30
0.0
 11
-31.53636406
 21
-34.49927871
 31
0.0
  0
LINE
  5
51
100
AcDbEntity
  8
レイヤー_1
  6
CONTINUOUS
 62
       3
100
AcDbLine
 10
-31.54038468
 20
34.4995659
 30
0.0
 11
-31.54182062
 21
33.00015915
 31
0.0
  0
LINE
  5
52
100
AcDbEntity
  8
レイヤー_1
  6
CONTINUOUS
 62
       3
100
AcDbLine
 10
-31.54182062
 20
33.00015915
 30
0.0
 11
-37.04634642
 21
33.00015915
 31
0.0
  0
LINE
  5
53
100
AcDbEntity
  8
レイヤー_1
  6
CONTINUOUS
 62
       3
100
AcDbLine
 10
-37.04634642
 20
33.00015915
 30
0.0
 11
-39.58481652
 21
34.52475968
 31
0.0
  0
LINE
  5
54
100
AcDbEntity
  8
レイヤー_1
  6
CONTINUOUS
 62
       3
100
AcDbLine
 10
-47.5462143
 20
34.4995659
 30
0.0
 11
-44.5241386
 21
37.70256982
 31
0.0
  0
LINE
  5
55
100
AcDbEntity
  8
レイヤー_1
  6
CONTINUOUS
 62
       3
100
AcDbLine
 10
-44.5241386
 20
37.70256982
 30
0.0
 11
-31.54038468
 21
34.4995659
 31
0.0
  0
LINE
  5
56
100
AcDbEntity
  8
レイヤー_1
  6
CONTINUOUS
 62
       3
100
AcDbLine
 10
-49.55279445
 20
32.49901669
 30
0.0
 11
-51.52381367
 21
32.49901669
 31
0.0
  0
LINE
  5
57
100
AcDbEntity
  8
レイヤー_1
  6
CONTINUOUS
 62
       3
100
AcDbLine
 10
-51.52381367
 20
-32.49959106
 30
0.0
 11
-49.55279445
 21
-32.49959106
 31
0.0
  0
LINE
  5
58
100
AcDbEntity
  8
レイヤー_1
  6
CONTINUOUS
 62
       3
100
AcDbLine
 10
-47.52381367
 20
-35.97524468
 30
0.0
 11
-47.52381367
 21
36.02475968
 31
0.0
  0
LINE
  5
59
100
AcDbEntity
  8
レイヤー_1
  6
CONTINUOUS
 62
       3
100
AcDbLine
 10
-49.52465006
 20
36.02545621
 30
0.0
 11
-49.52465006
 21
-35.99925983
 31
0.0
  0
LINE
  5
5A
100
AcDbEntity
  8
レイヤー_1
  6
CONTINUOUS
 62
       3
100
AcDbLine
 10
-46.22285358
 20
34.46941119
 30
0.0
 11
-44.5241386
 21
35.70288218
 31
0.0
  0
LINE
  5
5B
100
AcDbEntity
  8
レイヤー_1
  6
CONTINUOUS
 62
       3
100
AcDbLine
 10
-44.5241386
 20
35.70288218
 30
0.0
 11
-41.56471902
 21
34.52475968
 31
0.0
  0
LINE
  5
5C
100
AcDbEntity
  8
レイヤー_1
  6
CONTINUOUS
 62
       3
100
AcDbLine
 10
-47.5462143
 20
-34.49927871
 30
0.0
 11
-44.5241386
 21
-37.70256982
 31
0.0
  0
LINE
  5
5D
100
AcDbEntity
  8
レイヤー_1
  6
CONTINUOUS
 62
       3
100
AcDbLine
 10
-44.5241386
 20
-37.70256982
 30
0.0
 11
-31.54038468
 21
-34.49927871
 31
0.0
  0
LINE
  5
5E
100
AcDbEntity
  8
レイヤー_1
  6
CONTINUOUS
 62
       3
100
AcDbLine
 10
-95.40833463
 20
-32.49959106
 30
0.0
 11
-79.40135626
 21
-32.49959106
 31
0.0
  0
LINE
  5
5F
100
AcDbEntity
  8
レイヤー_1
  6
CONTINUOUS
 62
       3
100
AcDbLine
 10
-79.40135626
 20
-32.49959106
 30
0.0
 11
-79.40135626
 21
32.49901669
 31
0.0
  0
LINE
  5
60
100
AcDbEntity
  8
レイヤー_1
  6
CONTINUOUS
 62
       3
100
AcDbLine
 10
-79.40135626
 20
32.49901669
 30
0.0
 11
-95.40833463
 21
32.49901669
 31
0.0
  0
LINE
  5
61
100
AcDbEntity
  8
レイヤー_1
  6
CONTINUOUS
 62
       3
100
AcDbLine
 10
-95.40833463
 20
32.49901669
 30
0.0
 11
-95.40833463
 21
-32.49959106
 31
0.0
  0
LINE
  5
62
100
AcDbEntity
  8
レイヤー_1
  6
CONTINUOUS
 62
       3
100
AcDbLine
 10
-46.22285358
 20
-34.46941119
 30
0.0
 11
-44.5241386
 21
-35.70288217
 31
0.0
  0
LINE
  5
63
100
AcDbEntity
  8
レイヤー_1
  6
CONTINUOUS
 62
       3
100
AcDbLine
 10
-44.5241386
 20
-35.70288217
 30
0.0
 11
-41.42279911
 21
-34.46883682
 31
0.0
  0
LINE
  5
64
100
AcDbEntity
  8
レイヤー_1
  6
CONTINUOUS
 62
       3
100
AcDbLine
 10
-84.40387804
 20
-35.96623325
 30
0.0
 11
-84.40387804
 21
-37.69653888
 31
0.0
  0
LINE
  5
65
100
AcDbEntity
  8
レイヤー_1
  6
CONTINUOUS
 62
       3
100
AcDbLine
 10
-84.40387804
 20
-37.69653888
 30
0.0
 11
-90.40581286
 21
-37.69653888
 31
0.0
  0
LINE
  5
66
100
AcDbEntity
  8
レイヤー_1
  6
CONTINUOUS
 62
       3
100
AcDbLine
 10
-90.40581286
 20
-37.69653888
 30
0.0
 11
-90.40581286
 21
-35.96623325
 31
0.0
  0
LINE
  5
67
100
AcDbEntity
  8
レイヤー_1
  6
CONTINUOUS
 62
       3
100
AcDbLine
 10
-84.40387804
 20
35.96623326
 30
0.0
 11
-84.40387804
 21
37.69682607
 31
0.0
  0
LINE
  5
68
100
AcDbEntity
  8
レイヤー_1
  6
CONTINUOUS
 62
       3
100
AcDbLine
 10
-84.40387804
 20
37.69682607
 30
0.0
 11
-90.40581286
 21
37.69682607
 31
0.0
  0
LINE
  5
69
100
AcDbEntity
  8
レイヤー_1
  6
CONTINUOUS
 62
       3
100
AcDbLine
 10
-90.40581286
 20
37.69682607
 30
0.0
 11
-90.40581286
 21
35.96623326
 31
0.0
  0
LINE
  5
6A
100
AcDbEntity
  8
レイヤー_1
  6
CONTINUOUS
 62
       3
100
AcDbLine
 10
84.70599867
 20
-34.49640683
 30
0.0
 11
84.70599867
 21
-37.69653888
 31
0.0
  0
LINE
  5
6B
100
AcDbEntity
  8
レイヤー_1
  6
CONTINUOUS
 62
       3
100
AcDbLine
 10
84.70599867
 20
-37.69653888
 30
0.0
 11
90.70822067
 21
-37.69653888
 31
0.0
  0
LINE
  5
6C
100
AcDbEntity
  8
レイヤー_1
  6
CONTINUOUS
 62
       3
100
AcDbLine
 10
90.70822067
 20
-37.69653888
 30
0.0
 11
90.70822067
 21
-34.49640683
 31
0.0
  0
LINE
  5
6D
100
AcDbEntity
  8
レイヤー_1
  6
CONTINUOUS
 62
       3
100
AcDbLine
 10
84.70599867
 20
34.49640683
 30
0.0
 11
84.70599867
 21
37.69682607
 31
0.0
  0
LINE
  5
6E
100
AcDbEntity
  8
レイヤー_1
  6
CONTINUOUS
 62
       3
100
AcDbLine
 10
84.70599867
 20
37.69682607
 30
0.0
 11
90.70822067
 21
37.69682607
 31
0.0
  0
LINE
  5
6F
100
AcDbEntity
  8
レイヤー_1
  6
CONTINUOUS
 62
       3
100
AcDbLine
 10
90.70822067
 20
37.69682607
 30
0.0
 11
90.70822067
 21
34.49640683
 31
0.0
  0
LINE
  5
70
100
AcDbEntity
  8
レイヤー_1
  6
CONTINUOUS
 62
       3
100
AcDbLine
 10
90.46411117
 20
16.03253807
 30
0.0
 11
90.71596461
 21
16.04505299
 31
0.0
  0
LINE
  5
71
100
AcDbEntity
  8
レイヤー_1
  6
CONTINUOUS
 62
       3
100
AcDbLine
 10
90.71596461
 20
16.04505299
 30
0.0
 11
90.96067922
 21
16.0817981
 31
0.0
  0
LINE
  5
72
100
AcDbEntity
  8
レイヤー_1
  6
CONTINUOUS
 62
       3
100
AcDbLine
 10
90.96067922
 20
16.0817981
 30
0.0
 11
91.1970543
 21
16.14157393
 31
0.0
  0
LINE
  5
73
100
AcDbEntity
  8
レイヤー_1
  6
CONTINUOUS
 62
       3
100
AcDbLine
 10
91.1970543
 20
16.14157393
 30
0.0
 11
91.42388918
 21
16.22318099
 31
0.0
  0
LINE
  5
74
100
AcDbEntity
  8
レイヤー_1
  6
CONTINUOUS
 62
       3
100
AcDbLine
 10
91.42388918
 20
16.22318099
 30
0.0
 11
91.63998318
 21
16.32541981
 31
0.0
  0
LINE
  5
75
100
AcDbEntity
  8
レイヤー_1
  6
CONTINUOUS
 62
       3
100
AcDbLine
 10
91.63998318
 20
16.32541981
 30
0.0
 11
91.8441356
 21
16.4470909
 31
0.0
  0
LINE
  5
76
100
AcDbEntity
  8
レイヤー_1
  6
CONTINUOUS
 62
       3
100
AcDbLine
 10
91.8441356
 20
16.4470909
 30
0.0
 11
92.03514578
 21
16.58699481
 31
0.0
  0
LINE
  5
77
100
AcDbEntity
  8
レイヤー_1
  6
CONTINUOUS
 62
       3
100
AcDbLine
 10
92.03514578
 20
16.58699481
 30
0.0
 11
92.21181302
 21
16.74393203
 31
0.0
  0
LINE
  5
78
100
AcDbEntity
  8
レイヤー_1
  6
CONTINUOUS
 62
       3
100
AcDbLine
 10
92.21181302
 20
16.74393203
 30
0.0
 11
92.37293665
 21
16.9167031
 31
0.0
  0
LINE
  5
79
100
AcDbEntity
  8
レイヤー_1
  6
CONTINUOUS
 62
       3
100
AcDbLine
 10
92.37293665
 20
16.9167031
 30
0.0
 11
92.51731598
 21
17.10410855
 31
0.0
  0
LINE
  5
7A
100
AcDbEntity
  8
レイヤー_1
  6
CONTINUOUS
 62
       3
100
AcDbLine
 10
92.51731598
 20
17.10410855
 30
0.0
 11
92.64375033
 21
17.30494888
 31
0.0
  0
LINE
  5
7B
100
AcDbEntity
  8
レイヤー_1
  6
CONTINUOUS
 62
       3
100
AcDbLine
 10
92.64375033
 20
17.30494888
 30
0.0
 11
92.75103901
 21
17.51802463
 31
0.0
  0
LINE
  5
7C
100
AcDbEntity
  8
レイヤー_1
  6
CONTINUOUS
 62
       3
100
AcDbLine
 10
92.75103901
 20
17.51802463
 30
0.0
 11
92.83798135
 21
17.74213632
 31
0.0
  0
LINE
  5
7D
100
AcDbEntity
  8
レイヤー_1
  6
CONTINUOUS
 62
       3
100
AcDbLine
 10
92.83798135
 20
17.74213632
 30
0.0
 11
92.90337667
 21
17.97608446
 31
0.0
  0
LINE
  5
7E
100
AcDbEntity
  8
レイヤー_1
  6
CONTINUOUS
 62
       3
100
AcDbLine
 10
92.90337667
 20
17.97608446
 30
0.0
 11
92.94602427
 21
18.21866959
 31
0.0
  0
LINE
  5
7F
100
AcDbEntity
  8
レイヤー_1
  6
CONTINUOUS
 62
       3
100
AcDbLine
 10
92.94602427
 20
18.21866959
 30
0.0
 11
92.96472348
 21
18.46869222
 31
0.0
  0
LINE
  5
80
100
AcDbEntity
  8
レイヤー_1
  6
CONTINUOUS
 62
       3
100
AcDbLine
 10
92.96472348
 20
18.46869222
 30
0.0
 11
92.95844247
 21
18.7216524
 31
0.0
  0
LINE
  5
81
100
AcDbEntity
  8
レイヤー_1
  6
CONTINUOUS
 62
       3
100
AcDbLine
 10
92.95844247
 20
18.7216524
 30
0.0
 11
92.92761898
 21
18.96815891
 31
0.0
  0
LINE
  5
82
100
AcDbEntity
  8
レイヤー_1
  6
CONTINUOUS
 62
       3
100
AcDbLine
 10
92.92761898
 20
18.96815891
 30
0.0
 11
92.87344743
 21
19.20662746
 31
0.0
  0
LINE
  5
83
100
AcDbEntity
  8
レイヤー_1
  6
CONTINUOUS
 62
       3
100
AcDbLine
 10
92.87344743
 20
19.20662746
 30
0.0
 11
92.79712852
 21
19.4358582
 31
0.0
  0
LINE
  5
84
100
AcDbEntity
  8
レイヤー_1
  6
CONTINUOUS
 62
       3
100
AcDbLine
 10
92.79712852
 20
19.4358582
 30
0.0
 11
92.69986292
 21
19.65465122
 31
0.0
  0
LINE
  5
85
100
AcDbEntity
  8
レイヤー_1
  6
CONTINUOUS
 62
       3
100
AcDbLine
 10
92.69986292
 20
19.65465122
 30
0.0
 11
92.58285132
 21
19.86180667
 31
0.0
  0
LINE
  5
86
100
AcDbEntity
  8
レイヤー_1
  6
CONTINUOUS
 62
       3
100
AcDbLine
 10
92.58285132
 20
19.86180667
 30
0.0
 11
92.44729439
 21
20.05612465
 31
0.0
  0
LINE
  5
87
100
AcDbEntity
  8
レイヤー_1
  6
CONTINUOUS
 62
       3
100
AcDbLine
 10
92.44729439
 20
20.05612465
 30
0.0
 11
92.29439283
 21
20.23640529
 31
0.0
  0
LINE
  5
88
100
AcDbEntity
  8
レイヤー_1
  6
CONTINUOUS
 62
       3
100
AcDbLine
 10
92.29439283
 20
20.23640529
 30
0.0
 11
92.12534731
 21
20.40144871
 31
0.0
  0
LINE
  5
89
100
AcDbEntity
  8
レイヤー_1
  6
CONTINUOUS
 62
       3
100
AcDbLine
 10
92.12534731
 20
20.40144871
 30
0.0
 11
91.94135852
 21
20.55005504
 31
0.0
  0
LINE
  5
8A
100
AcDbEntity
  8
レイヤー_1
  6
CONTINUOUS
 62
       3
100
AcDbLine
 10
91.94135852
 20
20.55005504
 30
0.0
 11
91.74362713
 21
20.68102438
 31
0.0
  0
LINE
  5
8B
100
AcDbEntity
  8
レイヤー_1
  6
CONTINUOUS
 62
       3
100
AcDbLine
 10
91.74362713
 20
20.68102438
 30
0.0
 11
91.53335383
 21
20.79315686
 31
0.0
  0
LINE
  5
8C
100
AcDbEntity
  8
レイヤー_1
  6
CONTINUOUS
 62
       3
100
AcDbLine
 10
91.53335383
 20
20.79315686
 30
0.0
 11
91.31173931
 21
20.88525261
 31
0.0
  0
LINE
  5
8D
100
AcDbEntity
  8
レイヤー_1
  6
CONTINUOUS
 62
       3
100
AcDbLine
 10
91.31173931
 20
20.88525261
 30
0.0
 11
91.07998424
 21
20.95611174
 31
0.0
  0
LINE
  5
8E
100
AcDbEntity
  8
レイヤー_1
  6
CONTINUOUS
 62
       3
100
AcDbLine
 10
91.07998424
 20
20.95611174
 30
0.0
 11
90.83928931
 21
21.00453437
 31
0.0
  0
LINE
  5
8F
100
AcDbEntity
  8
レイヤー_1
  6
CONTINUOUS
 62
       3
100
AcDbLine
 10
90.83928931
 20
21.00453437
 30
0.0
 11
90.5908552
 21
21.02932063
 31
0.0
  0
LINE
  5
90
100
AcDbEntity
  8
レイヤー_1
  6
CONTINUOUS
 62
       3
100
AcDbLine
 10
90.5908552
 20
21.02932063
 30
0.0
 11
90.33736873
 21
21.02932063
 31
0.0
  0
LINE
  5
91
100
AcDbEntity
  8
レイヤー_1
  6
CONTINUOUS
 62
       3
100
AcDbLine
 10
90.33736873
 20
21.02932063
 30
0.0
 11
90.0889468
 21
21.00453437
 31
0.0
  0
LINE
  5
92
100
AcDbEntity
  8
レイヤー_1
  6
CONTINUOUS
 62
       3
100
AcDbLine
 10
90.0889468
 20
21.00453437
 30
0.0
 11
89.84827469
 21
20.95611174
 31
0.0
  0
LINE
  5
93
100
AcDbEntity
  8
レイヤー_1
  6
CONTINUOUS
 62
       3
100
AcDbLine
 10
89.84827469
 20
20.95611174
 30
0.0
 11
89.61655148
 21
20.88525261
 31
0.0
  0
LINE
  5
94
100
AcDbEntity
  8
レイヤー_1
  6
CONTINUOUS
 62
       3
100
AcDbLine
 10
89.61655148
 20
20.88525261
 30
0.0
 11
89.39497624
 21
20.79315686
 31
0.0
  0
LINE
  5
95
100
AcDbEntity
  8
レイヤー_1
  6
CONTINUOUS
 62
       3
100
AcDbLine
 10
89.39497624
 20
20.79315686
 30
0.0
 11
89.18474805
 21
20.68102438
 31
0.0
  0
LINE
  5
96
100
AcDbEntity
  8
レイヤー_1
  6
CONTINUOUS
 62
       3
100
AcDbLine
 10
89.18474805
 20
20.68102438
 30
0.0
 11
88.98706599
 21
20.55005504
 31
0.0
  0
LINE
  5
97
100
AcDbEntity
  8
レイヤー_1
  6
CONTINUOUS
 62
       3
100
AcDbLine
 10
88.98706599
 20
20.55005504
 30
0.0
 11
88.80312914
 21
20.40144871
 31
0.0
  0
LINE
  5
98
100
AcDbEntity
  8
レイヤー_1
  6
CONTINUOUS
 62
       3
100
AcDbLine
 10
88.80312914
 20
20.40144871
 30
0.0
 11
88.63413656
 21
20.23640529
 31
0.0
  0
LINE
  5
99
100
AcDbEntity
  8
レイヤー_1
  6
CONTINUOUS
 62
       3
100
AcDbLine
 10
88.63413656
 20
20.23640529
 30
0.0
 11
88.48128733
 21
20.05612465
 31
0.0
  0
LINE
  5
9A
100
AcDbEntity
  8
レイヤー_1
  6
CONTINUOUS
 62
       3
100
AcDbLine
 10
88.48128733
 20
20.05612465
 30
0.0
 11
88.34578054
 21
19.86180667
 31
0.0
  0
LINE
  5
9B
100
AcDbEntity
  8
レイヤー_1
  6
CONTINUOUS
 62
       3
100
AcDbLine
 10
88.34578054
 20
19.86180667
 30
0.0
 11
88.22881525
 21
19.65465122
 31
0.0
  0
LINE
  5
9C
100
AcDbEntity
  8
レイヤー_1
  6
CONTINUOUS
 62
       3
100
AcDbLine
 10
88.22881525
 20
19.65465122
 30
0.0
 11
88.13159054
 21
19.4358582
 31
0.0
  0
LINE
  5
9D
100
AcDbEntity
  8
レイヤー_1
  6
CONTINUOUS
 62
       3
100
AcDbLine
 10
88.13159054
 20
19.4358582
 30
0.0
 11
88.05530549
 21
19.20662746
 31
0.0
  0
LINE
  5
9E
100
AcDbEntity
  8
レイヤー_1
  6
CONTINUOUS
 62
       3
100
AcDbLine
 10
88.05530549
 20
19.20662746
 30
0.0
 11
88.00115918
 21
18.96815891
 31
0.0
  0
LINE
  5
9F
100
AcDbEntity
  8
レイヤー_1
  6
CONTINUOUS
 62
       3
100
AcDbLine
 10
88.00115918
 20
18.96815891
 30
0.0
 11
87.97035068
 21
18.7216524
 31
0.0
  0
LINE
  5
A0
100
AcDbEntity
  8
レイヤー_1
  6
CONTINUOUS
 62
       3
100
AcDbLine
 10
87.97035068
 20
18.7216524
 30
0.0
 11
87.96407282
 21
18.46869222
 31
0.0
  0
LINE
  5
A1
100
AcDbEntity
  8
レイヤー_1
  6
CONTINUOUS
 62
       3
100
AcDbLine
 10
87.96407282
 20
18.46869222
 30
0.0
 11
87.98276276
 21
18.21866959
 31
0.0
  0
LINE
  5
A2
100
AcDbEntity
  8
レイヤー_1
  6
CONTINUOUS
 62
       3
100
AcDbLine
 10
87.98276276
 20
18.21866959
 30
0.0
 11
88.02539005
 21
17.97608446
 31
0.0
  0
LINE
  5
A3
100
AcDbEntity
  8
レイヤー_1
  6
CONTINUOUS
 62
       3
100
AcDbLine
 10
88.02539005
 20
17.97608446
 30
0.0
 11
88.09075562
 21
17.74213632
 31
0.0
  0
LINE
  5
A4
100
AcDbEntity
  8
レイヤー_1
  6
CONTINUOUS
 62
       3
100
AcDbLine
 10
88.09075562
 20
17.74213632
 30
0.0
 11
88.17766038
 21
17.51802463
 31
0.0
  0
LINE
  5
A5
100
AcDbEntity
  8
レイヤー_1
  6
CONTINUOUS
 62
       3
100
AcDbLine
 10
88.17766038
 20
17.51802463
 30
0.0
 11
88.28490526
 21
17.30494888
 31
0.0
  0
LINE
  5
A6
100
AcDbEntity
  8
レイヤー_1
  6
CONTINUOUS
 62
       3
100
AcDbLine
 10
88.28490526
 20
17.30494888
 30
0.0
 11
88.41129119
 21
17.10410855
 31
0.0
  0
LINE
  5
A7
100
AcDbEntity
  8
レイヤー_1
  6
CONTINUOUS
 62
       3
100
AcDbLine
 10
88.41129119
 20
17.10410855
 30
0.0
 11
88.55561908
 21
16.9167031
 31
0.0
  0
LINE
  5
A8
100
AcDbEntity
  8
レイヤー_1
  6
CONTINUOUS
 62
       3
100
AcDbLine
 10
88.55561908
 20
16.9167031
 30
0.0
 11
88.71668987
 21
16.74393203
 31
0.0
  0
LINE
  5
A9
100
AcDbEntity
  8
レイヤー_1
  6
CONTINUOUS
 62
       3
100
AcDbLine
 10
88.71668987
 20
16.74393203
 30
0.0
 11
88.89330447
 21
16.58699481
 31
0.0
  0
LINE
  5
AA
100
AcDbEntity
  8
レイヤー_1
  6
CONTINUOUS
 62
       3
100
AcDbLine
 10
88.89330447
 20
16.58699481
 30
0.0
 11
89.08426382
 21
16.4470909
 31
0.0
  0
LINE
  5
AB
100
AcDbEntity
  8
レイヤー_1
  6
CONTINUOUS
 62
       3
100
AcDbLine
 10
89.08426382
 20
16.4470909
 30
0.0
 11
89.28836882
 21
16.32541981
 31
0.0
  0
LINE
  5
AC
100
AcDbEntity
  8
レイヤー_1
  6
CONTINUOUS
 62
       3
100
AcDbLine
 10
89.28836882
 20
16.32541981
 30
0.0
 11
89.50442042
 21
16.22318099
 31
0.0
  0
LINE
  5
AD
100
AcDbEntity
  8
レイヤー_1
  6
CONTINUOUS
 62
       3
100
AcDbLine
 10
89.50442042
 20
16.22318099
 30
0.0
 11
89.73121953
 21
16.14157393
 31
0.0
  0
LINE
  5
AE
100
AcDbEntity
  8
レイヤー_1
  6
CONTINUOUS
 62
       3
100
AcDbLine
 10
89.73121953
 20
16.14157393
 30
0.0
 11
89.96756707
 21
16.0817981
 31
0.0
  0
LINE
  5
AF
100
AcDbEntity
  8
レイヤー_1
  6
CONTINUOUS
 62
       3
100
AcDbLine
 10
89.96756707
 20
16.0817981
 30
0.0
 11
90.21226398
 21
16.04505299
 31
0.0
  0
LINE
  5
B0
100
AcDbEntity
  8
レイヤー_1
  6
CONTINUOUS
 62
       3
100
AcDbLine
 10
90.21226398
 20
16.04505299
 30
0.0
 11
90.46411117
 21
16.03253807
 31
0.0
  0
LINE
  5
B1
100
AcDbEntity
  8
レイヤー_1
  6
CONTINUOUS
 62
       3
100
AcDbLine
 10
90.46411117
 20
24.03128866
 30
0.0
 11
90.71596461
 21
24.04380678
 31
0.0
  0
LINE
  5
B2
100
AcDbEntity
  8
レイヤー_1
  6
CONTINUOUS
 62
       3
100
AcDbLine
 10
90.71596461
 20
24.04380678
 30
0.0
 11
90.96067922
 21
24.08056121
 31
0.0
  0
LINE
  5
B3
100
AcDbEntity
  8
レイヤー_1
  6
CONTINUOUS
 62
       3
100
AcDbLine
 10
90.96067922
 20
24.08056121
 30
0.0
 11
91.1970543
 21
24.14035207
 31
0.0
  0
LINE
  5
B4
100
AcDbEntity
  8
レイヤー_1
  6
CONTINUOUS
 62
       3
100
AcDbLine
 10
91.1970543
 20
24.14035207
 30
0.0
 11
91.42388918
 21
24.2219795
 31
0.0
  0
LINE
  5
B5
100
AcDbEntity
  8
レイヤー_1
  6
CONTINUOUS
 62
       3
100
AcDbLine
 10
91.42388918
 20
24.2219795
 30
0.0
 11
91.63998318
 21
24.3242436
 31
0.0
  0
LINE
  5
B6
100
AcDbEntity
  8
レイヤー_1
  6
CONTINUOUS
 62
       3
100
AcDbLine
 10
91.63998318
 20
24.3242436
 30
0.0
 11
91.8441356
 21
24.44594449
 31
0.0
  0
LINE
  5
B7
100
AcDbEntity
  8
レイヤー_1
  6
CONTINUOUS
 62
       3
100
AcDbLine
 10
91.8441356
 20
24.44594449
 30
0.0
 11
92.03514578
 21
24.58588231
 31
0.0
  0
LINE
  5
B8
100
AcDbEntity
  8
レイヤー_1
  6
CONTINUOUS
 62
       3
100
AcDbLine
 10
92.03514578
 20
24.58588231
 30
0.0
 11
92.21181302
 21
24.74285717
 31
0.0
  0
LINE
  5
B9
100
AcDbEntity
  8
レイヤー_1
  6
CONTINUOUS
 62
       3
100
AcDbLine
 10
92.21181302
 20
24.74285717
 30
0.0
 11
92.37293665
 21
24.91566918
 31
0.0
  0
LINE
  5
BA
100
AcDbEntity
  8
レイヤー_1
  6
CONTINUOUS
 62
       3
100
AcDbLine
 10
92.37293665
 20
24.91566918
 30
0.0
 11
92.51731598
 21
25.10311848
 31
0.0
  0
LINE
  5
BB
100
AcDbEntity
  8
レイヤー_1
  6
CONTINUOUS
 62
       3
100
AcDbLine
 10
92.51731598
 20
25.10311848
 30
0.0
 11
92.64375033
 21
25.30400518
 31
0.0
  0
LINE
  5
BC
100
AcDbEntity
  8
レイヤー_1
  6
CONTINUOUS
 62
       3
100
AcDbLine
 10
92.64375033
 20
25.30400518
 30
0.0
 11
92.75103901
 21
25.5171294
 31
0.0
  0
LINE
  5
BD
100
AcDbEntity
  8
レイヤー_1
  6
CONTINUOUS
 62
       3
100
AcDbLine
 10
92.75103901
 20
25.5171294
 30
0.0
 11
92.83798135
 21
25.74129127
 31
0.0
  0
LINE
  5
BE
100
AcDbEntity
  8
レイヤー_1
  6
CONTINUOUS
 62
       3
100
AcDbLine
 10
92.83798135
 20
25.74129127
 30
0.0
 11
92.90337667
 21
25.9752909
 31
0.0
  0
LINE
  5
BF
100
AcDbEntity
  8
レイヤー_1
  6
CONTINUOUS
 62
       3
100
AcDbLine
 10
92.90337667
 20
25.9752909
 30
0.0
 11
92.94602427
 21
26.21792841
 31
0.0
  0
LINE
  5
C0
100
AcDbEntity
  8
レイヤー_1
  6
CONTINUOUS
 62
       3
100
AcDbLine
 10
92.94602427
 20
26.21792841
 30
0.0
 11
92.96472348
 21
26.46800393
 31
0.0
  0
LINE
  5
C1
100
AcDbEntity
  8
レイヤー_1
  6
CONTINUOUS
 62
       3
100
AcDbLine
 10
92.96472348
 20
26.46800393
 30
0.0
 11
92.95844247
 21
26.72093763
 31
0.0
  0
LINE
  5
C2
100
AcDbEntity
  8
レイヤー_1
  6
CONTINUOUS
 62
       3
100
AcDbLine
 10
92.95844247
 20
26.72093763
 30
0.0
 11
92.92761898
 21
26.96739144
 31
0.0
  0
LINE
  5
C3
100
AcDbEntity
  8
レイヤー_1
  6
CONTINUOUS
 62
       3
100
AcDbLine
 10
92.92761898
 20
26.96739144
 30
0.0
 11
92.87344743
 21
27.20580801
 31
0.0
  0
LINE
  5
C4
100
AcDbEntity
  8
レイヤー_1
  6
CONTINUOUS
 62
       3
100
AcDbLine
 10
92.87344743
 20
27.20580801
 30
0.0
 11
92.79712852
 21
27.43498787
 31
0.0
  0
LINE
  5
C5
100
AcDbEntity
  8
レイヤー_1
  6
CONTINUOUS
 62
       3
100
AcDbLine
 10
92.79712852
 20
27.43498787
 30
0.0
 11
92.69986292
 21
27.65373152
 31
0.0
  0
LINE
  5
C6
100
AcDbEntity
  8
レイヤー_1
  6
CONTINUOUS
 62
       3
100
AcDbLine
 10
92.69986292
 20
27.65373152
 30
0.0
 11
92.58285132
 21
27.8608395
 31
0.0
  0
LINE
  5
C7
100
AcDbEntity
  8
レイヤー_1
  6
CONTINUOUS
 62
       3
100
AcDbLine
 10
92.58285132
 20
27.8608395
 30
0.0
 11
92.44729439
 21
28.05511232
 31
0.0
  0
LINE
  5
C8
100
AcDbEntity
  8
レイヤー_1
  6
CONTINUOUS
 62
       3
100
AcDbLine
 10
92.44729439
 20
28.05511232
 30
0.0
 11
92.29439283
 21
28.23535051
 31
0.0
  0
LINE
  5
C9
100
AcDbEntity
  8
レイヤー_1
  6
CONTINUOUS
 62
       3
100
AcDbLine
 10
92.29439283
 20
28.23535051
 30
0.0
 11
92.12534731
 21
28.4003546
 31
0.0
  0
LINE
  5
CA
100
AcDbEntity
  8
レイヤー_1
  6
CONTINUOUS
 62
       3
100
AcDbLine
 10
92.12534731
 20
28.4003546
 30
0.0
 11
91.94135852
 21
28.54892509
 31
0.0
  0
LINE
  5
CB
100
AcDbEntity
  8
レイヤー_1
  6
CONTINUOUS
 62
       3
100
AcDbLine
 10
91.94135852
 20
28.54892509
 30
0.0
 11
91.74362713
 21
28.67986253
 31
0.0
  0
LINE
  5
CC
100
AcDbEntity
  8
レイヤー_1
  6
CONTINUOUS
 62
       3
100
AcDbLine
 10
91.74362713
 20
28.67986253
 30
0.0
 11
91.53335383
 21
28.79196742
 31
0.0
  0
LINE
  5
CD
100
AcDbEntity
  8
レイヤー_1
  6
CONTINUOUS
 62
       3
100
AcDbLine
 10
91.53335383
 20
28.79196742
 30
0.0
 11
91.31173931
 21
28.88404029
 31
0.0
  0
LINE
  5
CE
100
AcDbEntity
  8
レイヤー_1
  6
CONTINUOUS
 62
       3
100
AcDbLine
 10
91.31173931
 20
28.88404029
 30
0.0
 11
91.07998424
 21
28.95488167
 31
0.0
  0
LINE
  5
CF
100
AcDbEntity
  8
レイヤー_1
  6
CONTINUOUS
 62
       3
100
AcDbLine
 10
91.07998424
 20
28.95488167
 30
0.0
 11
90.83928931
 21
29.00329207
 31
0.0
  0
LINE
  5
D0
100
AcDbEntity
  8
レイヤー_1
  6
CONTINUOUS
 62
       3
100
AcDbLine
 10
90.83928931
 20
29.00329207
 30
0.0
 11
90.5908552
 21
29.02807203
 31
0.0
  0
LINE
  5
D1
100
AcDbEntity
  8
レイヤー_1
  6
CONTINUOUS
 62
       3
100
AcDbLine
 10
90.5908552
 20
29.02807203
 30
0.0
 11
90.33736873
 21
29.02807203
 31
0.0
  0
LINE
  5
D2
100
AcDbEntity
  8
レイヤー_1
  6
CONTINUOUS
 62
       3
100
AcDbLine
 10
90.33736873
 20
29.02807203
 30
0.0
 11
90.0889468
 21
29.00329207
 31
0.0
  0
LINE
  5
D3
100
AcDbEntity
  8
レイヤー_1
  6
CONTINUOUS
 62
       3
100
AcDbLine
 10
90.0889468
 20
29.00329207
 30
0.0
 11
89.84827469
 21
28.95488167
 31
0.0
  0
LINE
  5
D4
100
AcDbEntity
  8
レイヤー_1
  6
CONTINUOUS
 62
       3
100
AcDbLine
 10
89.84827469
 20
28.95488167
 30
0.0
 11
89.61655148
 21
28.88404029
 31
0.0
  0
LINE
  5
D5
100
AcDbEntity
  8
レイヤー_1
  6
CONTINUOUS
 62
       3
100
AcDbLine
 10
89.61655148
 20
28.88404029
 30
0.0
 11
89.39497624
 21
28.79196742
 31
0.0
  0
LINE
  5
D6
100
AcDbEntity
  8
レイヤー_1
  6
CONTINUOUS
 62
       3
100
AcDbLine
 10
89.39497624
 20
28.79196742
 30
0.0
 11
89.18474805
 21
28.67986253
 31
0.0
  0
LINE
  5
D7
100
AcDbEntity
  8
レイヤー_1
  6
CONTINUOUS
 62
       3
100
AcDbLine
 10
89.18474805
 20
28.67986253
 30
0.0
 11
88.98706599
 21
28.54892509
 31
0.0
  0
LINE
  5
D8
100
AcDbEntity
  8
レイヤー_1
  6
CONTINUOUS
 62
       3
100
AcDbLine
 10
88.98706599
 20
28.54892509
 30
0.0
 11
88.80312914
 21
28.4003546
 31
0.0
  0
LINE
  5
D9
100
AcDbEntity
  8
レイヤー_1
  6
CONTINUOUS
 62
       3
100
AcDbLine
 10
88.80312914
 20
28.4003546
 30
0.0
 11
88.63413656
 21
28.23535051
 31
0.0
  0
LINE
  5
DA
100
AcDbEntity
  8
レイヤー_1
  6
CONTINUOUS
 62
       3
100
AcDbLine
 10
88.63413656
 20
28.23535051
 30
0.0
 11
88.48128733
 21
28.05511232
 31
0.0
  0
LINE
  5
DB
100
AcDbEntity
  8
レイヤー_1
  6
CONTINUOUS
 62
       3
100
AcDbLine
 10
88.48128733
 20
28.05511232
 30
0.0
 11
88.34578054
 21
27.8608395
 31
0.0
  0
LINE
  5
DC
100
AcDbEntity
  8
レイヤー_1
  6
CONTINUOUS
 62
       3
100
AcDbLine
 10
88.34578054
 20
27.8608395
 30
0.0
 11
88.22881525
 21
27.65373152
 31
0.0
  0
LINE
  5
DD
100
AcDbEntity
  8
レイヤー_1
  6
CONTINUOUS
 62
       3
100
AcDbLine
 10
88.22881525
 20
27.65373152
 30
0.0
 11
88.13159054
 21
27.43498787
 31
0.0
  0
LINE
  5
DE
100
AcDbEntity
  8
レイヤー_1
  6
CONTINUOUS
 62
       3
100
AcDbLine
 10
88.13159054
 20
27.43498787
 30
0.0
 11
88.05530549
 21
27.20580801
 31
0.0
  0
LINE
  5
DF
100
AcDbEntity
  8
レイヤー_1
  6
CONTINUOUS
 62
       3
100
AcDbLine
 10
88.05530549
 20
27.20580801
 30
0.0
 11
88.00115918
 21
26.96739144
 31
0.0
  0
LINE
  5
E0
100
AcDbEntity
  8
レイヤー_1
  6
CONTINUOUS
 62
       3
100
AcDbLine
 10
88.00115918
 20
26.96739144
 30
0.0
 11
87.97035068
 21
26.72093763
 31
0.0
  0
LINE
  5
E1
100
AcDbEntity
  8
レイヤー_1
  6
CONTINUOUS
 62
       3
100
AcDbLine
 10
87.97035068
 20
26.72093763
 30
0.0
 11
87.96407282
 21
26.46800393
 31
0.0
  0
LINE
  5
E2
100
AcDbEntity
  8
レイヤー_1
  6
CONTINUOUS
 62
       3
100
AcDbLine
 10
87.96407282
 20
26.46800393
 30
0.0
 11
87.98276276
 21
26.21792841
 31
0.0
  0
LINE
  5
E3
100
AcDbEntity
  8
レイヤー_1
  6
CONTINUOUS
 62
       3
100
AcDbLine
 10
87.98276276
 20
26.21792841
 30
0.0
 11
88.02539005
 21
25.9752909
 31
0.0
  0
LINE
  5
E4
100
AcDbEntity
  8
レイヤー_1
  6
CONTINUOUS
 62
       3
100
AcDbLine
 10
88.02539005
 20
25.9752909
 30
0.0
 11
88.09075562
 21
25.74129127
 31
0.0
  0
LINE
  5
E5
100
AcDbEntity
  8
レイヤー_1
  6
CONTINUOUS
 62
       3
100
AcDbLine
 10
88.09075562
 20
25.74129127
 30
0.0
 11
88.17766038
 21
25.5171294
 31
0.0
  0
LINE
  5
E6
100
AcDbEntity
  8
レイヤー_1
  6
CONTINUOUS
 62
       3
100
AcDbLine
 10
88.17766038
 20
25.5171294
 30
0.0
 11
88.28490526
 21
25.30400518
 31
0.0
  0
LINE
  5
E7
100
AcDbEntity
  8
レイヤー_1
  6
CONTINUOUS
 62
       3
100
AcDbLine
 10
88.28490526
 20
25.30400518
 30
0.0
 11
88.41129119
 21
25.10311848
 31
0.0
  0
LINE
  5
E8
100
AcDbEntity
  8
レイヤー_1
  6
CONTINUOUS
 62
       3
100
AcDbLine
 10
88.41129119
 20
25.10311848
 30
0.0
 11
88.55561908
 21
24.91566918
 31
0.0
  0
LINE
  5
E9
100
AcDbEntity
  8
レイヤー_1
  6
CONTINUOUS
 62
       3
100
AcDbLine
 10
88.55561908
 20
24.91566918
 30
0.0
 11
88.71668987
 21
24.74285717
 31
0.0
  0
LINE
  5
EA
100
AcDbEntity
  8
レイヤー_1
  6
CONTINUOUS
 62
       3
100
AcDbLine
 10
88.71668987
 20
24.74285717
 30
0.0
 11
88.89330447
 21
24.58588231
 31
0.0
  0
LINE
  5
EB
100
AcDbEntity
  8
レイヤー_1
  6
CONTINUOUS
 62
       3
100
AcDbLine
 10
88.89330447
 20
24.58588231
 30
0.0
 11
89.08426382
 21
24.44594449
 31
0.0
  0
LINE
  5
EC
100
AcDbEntity
  8
レイヤー_1
  6
CONTINUOUS
 62
       3
100
AcDbLine
 10
89.08426382
 20
24.44594449
 30
0.0
 11
89.28836882
 21
24.3242436
 31
0.0
  0
LINE
  5
ED
100
AcDbEntity
  8
レイヤー_1
  6
CONTINUOUS
 62
       3
100
AcDbLine
 10
89.28836882
 20
24.3242436
 30
0.0
 11
89.50442042
 21
24.2219795
 31
0.0
  0
LINE
  5
EE
100
AcDbEntity
  8
レイヤー_1
  6
CONTINUOUS
 62
       3
100
AcDbLine
 10
89.50442042
 20
24.2219795
 30
0.0
 11
89.73121953
 21
24.14035207
 31
0.0
  0
LINE
  5
EF
100
AcDbEntity
  8
レイヤー_1
  6
CONTINUOUS
 62
       3
100
AcDbLine
 10
89.73121953
 20
24.14035207
 30
0.0
 11
89.96756707
 21
24.08056121
 31
0.0
  0
LINE
  5
F0
100
AcDbEntity
  8
レイヤー_1
  6
CONTINUOUS
 62
       3
100
AcDbLine
 10
89.96756707
 20
24.08056121
 30
0.0
 11
90.21226398
 21
24.04380678
 31
0.0
  0
LINE
  5
F1
100
AcDbEntity
  8
レイヤー_1
  6
CONTINUOUS
 62
       3
100
AcDbLine
 10
90.21226398
 20
24.04380678
 30
0.0
 11
90.46411117
 21
24.03128866
 31
0.0
  0
LINE
  5
F2
100
AcDbEntity
  8
レイヤー_1
  6
DIVIDE
 62
       3
100
AcDbLine
 10
53.98725826
 20
-31.99213047
 30
0.0
 11
48.47268089
 21
-31.99213047
 31
0.0
  0
LINE
  5
F3
100
AcDbEntity
  8
レイヤー_1
  6
DIVIDE
 62
       3
100
AcDbLine
 10
48.47268089
 20
13.00873924
 30
0.0
 11
53.98725826
 21
13.00873924
 31
0.0
  0
LINE
  5
F4
100
AcDbEntity
  8
レイヤー_1
  6
DIVIDE
 62
       3
100
AcDbLine
 10
48.47268089
 20
6.98957317
 30
0.0
 11
53.98725826
 21
6.98957317
 31
0.0
  0
LINE
  5
F5
100
AcDbEntity
  8
レイヤー_1
  6
DIVIDE
 62
       3
100
AcDbLine
 10
53.98725826
 20
6.98957317
 30
0.0
 11
53.98725826
 21
13.00873924
 31
0.0
  0
LINE
  5
F6
100
AcDbEntity
  8
レイヤー_1
  6
DIVIDE
 62
       3
100
AcDbLine
 10
53.98725826
 20
13.00873924
 30
0.0
 11
60.49493054
 21
13.00873924
 31
0.0
  0
LINE
  5
F7
100
AcDbEntity
  8
レイヤー_1
  6
DIVIDE
 62
       3
100
AcDbLine
 10
60.49493054
 20
13.00873924
 30
0.0
 11
60.49493054
 21
2.49106573
 31
0.0
  0
LINE
  5
F8
100
AcDbEntity
  8
レイヤー_1
  6
DIVIDE
 62
       3
100
AcDbLine
 10
60.49493054
 20
2.49106573
 30
0.0
 11
60.00900902
 21
2.49106573
 31
0.0
  0
LINE
  5
F9
100
AcDbEntity
  8
レイヤー_1
  6
DIVIDE
 62
       3
100
AcDbLine
 10
60.00900902
 20
2.49106573
 30
0.0
 11
60.00900902
 21
-21.49685759
 31
0.0
  0
LINE
  5
FA
100
AcDbEntity
  8
レイヤー_1
  6
DIVIDE
 62
       3
100
AcDbLine
 10
60.00900902
 20
-21.49685759
 30
0.0
 11
60.49493054
 21
-21.49685759
 31
0.0
  0
LINE
  5
FB
100
AcDbEntity
  8
レイヤー_1
  6
DIVIDE
 62
       3
100
AcDbLine
 10
60.49493054
 20
-21.49685759
 30
0.0
 11
60.49493054
 21
-31.99213047
 31
0.0
  0
LINE
  5
FC
100
AcDbEntity
  8
レイヤー_1
  6
DIVIDE
 62
       3
100
AcDbLine
 10
60.49493054
 20
-31.99213047
 30
0.0
 11
53.98725826
 21
-31.99213047
 31
0.0
  0
LINE
  5
FD
100
AcDbEntity
  8
レイヤー_1
  6
DIVIDE
 62
       3
100
AcDbLine
 10
53.98725826
 20
-31.99213047
 30
0.0
 11
53.98725826
 21
-25.99507785
 31
0.0
  0
LINE
  5
FE
100
AcDbEntity
  8
レイヤー_1
  6
DIVIDE
 62
       3
100
AcDbLine
 10
53.98725826
 20
-25.99507785
 30
0.0
 11
48.47268089
 21
-25.99507785
 31
0.0
  0
LINE
  5
FF
100
AcDbEntity
  8
レイヤー_1
  6
DIVIDE
 62
       3
100
AcDbLine
 10
48.47268089
 20
8.75864913
 30
0.0
 11
53.98725826
 21
8.75864913
 31
0.0
  0
LINE
  5
100
100
AcDbEntity
  8
レイヤー_1
  6
DIVIDE
 62
       3
100
AcDbLine
 10
53.98725826
 20
-30.24229609
 30
0.0
 11
48.47268089
 21
-30.24229609
 31
0.0
  0
LINE
  5
101
100
AcDbEntity
  8
レイヤー_1
  6
DIVIDE
 62
       3
100
AcDbLine
 10
48.47268089
 20
11.25833048
 30
0.0
 11
53.98725826
 21
11.25833048
 31
0.0
  0
LINE
  5
102
100
AcDbEntity
  8
レイヤー_1
  6
DIVIDE
 62
       3
100
AcDbLine
 10
60.4771249
 20
8.50879587
 30
0.0
 11
62.99059127
 21
8.50879587
 31
0.0
  0
LINE
  5
103
100
AcDbEntity
  8
レイヤー_1
  6
DIVIDE
 62
       3
100
AcDbLine
 10
62.99059127
 20
8.50879587
 30
0.0
 11
62.99059127
 21
11.50818374
 31
0.0
  0
LINE
  5
104
100
AcDbEntity
  8
レイヤー_1
  6
DIVIDE
 62
       3
100
AcDbLine
 10
62.99059127
 20
11.50818374
 30
0.0
 11
60.4771249
 21
11.50818374
 31
0.0
  0
LINE
  5
105
100
AcDbEntity
  8
レイヤー_1
  6
DIVIDE
 62
       3
100
AcDbLine
 10
60.00900902
 20
-19.40957771
 30
0.0
 11
66.49428067
 21
-19.40957771
 31
0.0
  0
LINE
  5
106
100
AcDbEntity
  8
レイヤー_1
  6
DIVIDE
 62
       3
100
AcDbLine
 10
66.49428067
 20
-19.40957771
 30
0.0
 11
66.49428067
 21
-18.60976009
 31
0.0
  0
LINE
  5
107
100
AcDbEntity
  8
レイヤー_1
  6
DIVIDE
 62
       3
100
AcDbLine
 10
66.49428067
 20
-18.60976009
 30
0.0
 11
60.00900902
 21
-18.60976009
 31
0.0
  0
LINE
  5
108
100
AcDbEntity
  8
レイヤー_1
  6
DIVIDE
 62
       3
100
AcDbLine
 10
60.00900902
 20
-15.61008503
 30
0.0
 11
66.49428067
 21
-15.61008503
 31
0.0
  0
LINE
  5
109
100
AcDbEntity
  8
レイヤー_1
  6
DIVIDE
 62
       3
100
AcDbLine
 10
66.49428067
 20
-15.61008503
 30
0.0
 11
66.49428067
 21
-14.81026741
 31
0.0
  0
LINE
  5
10A
100
AcDbEntity
  8
レイヤー_1
  6
DIVIDE
 62
       3
100
AcDbLine
 10
66.49428067
 20
-14.81026741
 30
0.0
 11
60.00900902
 21
-14.81026741
 31
0.0
  0
LINE
  5
10B
100
AcDbEntity
  8
レイヤー_1
  6
DIVIDE
 62
       3
100
AcDbLine
 10
60.00900902
 20
-11.81001797
 30
0.0
 11
66.49428067
 21
-11.81001797
 31
0.0
  0
LINE
  5
10C
100
AcDbEntity
  8
レイヤー_1
  6
DIVIDE
 62
       3
100
AcDbLine
 10
66.49428067
 20
-11.81001797
 30
0.0
 11
66.49428067
 21
-11.00991316
 31
0.0
  0
LINE
  5
10D
100
AcDbEntity
  8
レイヤー_1
  6
DIVIDE
 62
       3
100
AcDbLine
 10
66.49428067
 20
-11.00991316
 30
0.0
 11
60.00900902
 21
-11.00991316
 31
0.0
  0
LINE
  5
10E
100
AcDbEntity
  8
レイヤー_1
  6
DIVIDE
 62
       3
100
AcDbLine
 10
60.00900902
 20
-8.01052528
 30
0.0
 11
66.49428067
 21
-8.01052528
 31
0.0
  0
LINE
  5
10F
100
AcDbEntity
  8
レイヤー_1
  6
DIVIDE
 62
       3
100
AcDbLine
 10
66.49428067
 20
-8.01052528
 30
0.0
 11
66.49428067
 21
-7.21042047
 31
0.0
  0
LINE
  5
110
100
AcDbEntity
  8
レイヤー_1
  6
DIVIDE
 62
       3
100
AcDbLine
 10
66.49428067
 20
-7.21042047
 30
0.0
 11
60.00900902
 21
-7.21042047
 31
0.0
  0
LINE
  5
111
100
AcDbEntity
  8
レイヤー_1
  6
DIVIDE
 62
       3
100
AcDbLine
 10
60.00900902
 20
-4.21017103
 30
0.0
 11
66.49428067
 21
-4.21017103
 31
0.0
  0
LINE
  5
112
100
AcDbEntity
  8
レイヤー_1
  6
DIVIDE
 62
       3
100
AcDbLine
 10
66.49428067
 20
-4.21017103
 30
0.0
 11
66.49428067
 21
-3.41035341
 31
0.0
  0
LINE
  5
113
100
AcDbEntity
  8
レイヤー_1
  6
DIVIDE
 62
       3
100
AcDbLine
 10
66.49428067
 20
-3.41035341
 30
0.0
 11
60.00900902
 21
-3.41035341
 31
0.0
  0
LINE
  5
114
100
AcDbEntity
  8
レイヤー_1
  6
DIVIDE
 62
       3
100
AcDbLine
 10
60.00900902
 20
-0.41067835
 30
0.0
 11
66.49428067
 21
-0.41067835
 31
0.0
  0
LINE
  5
115
100
AcDbEntity
  8
レイヤー_1
  6
DIVIDE
 62
       3
100
AcDbLine
 10
66.49428067
 20
-0.41067835
 30
0.0
 11
66.49428067
 21
0.38913927
 31
0.0
  0
LINE
  5
116
100
AcDbEntity
  8
レイヤー_1
  6
DIVIDE
 62
       3
100
AcDbLine
 10
66.49428067
 20
0.38913927
 30
0.0
 11
60.00900902
 21
0.38913927
 31
0.0
  0
LINE
  5
117
100
AcDbEntity
  8
レイヤー_1
  6
DIVIDE
 62
       3
100
AcDbLine
 10
53.98725826
 20
-27.74204036
 30
0.0
 11
48.47268089
 21
-27.74204036
 31
0.0
  0
LINE
  5
118
100
AcDbEntity
  8
レイヤー_1
  6
DIVIDE
 62
       3
100
AcDbLine
 10
80.95705101
 20
-31.99213047
 30
0.0
 11
89.95636339
 21
-31.99213047
 31
0.0
  0
LINE
  5
119
100
AcDbEntity
  8
レイヤー_1
  6
DIVIDE
 62
       3
100
AcDbLine
 10
89.95636339
 20
-31.99213047
 30
0.0
 11
89.95636339
 21
13.00873924
 31
0.0
  0
LINE
  5
11A
100
AcDbEntity
  8
レイヤー_1
  6
DIVIDE
 62
       3
100
AcDbLine
 10
89.95636339
 20
13.00873924
 30
0.0
 11
80.95705101
 21
13.00873924
 31
0.0
  0
LINE
  5
11B
100
AcDbEntity
  8
レイヤー_1
  6
DIVIDE
 62
       3
100
AcDbLine
 10
80.95705101
 20
13.00873924
 30
0.0
 11
80.95705101
 21
-31.99213047
 31
0.0
  0
LINE
  5
11C
100
AcDbEntity
  8
レイヤー_1
  6
DIVIDE
 62
       3
100
AcDbLine
 10
84.45671978
 20
-19.39895177
 30
0.0
 11
86.45726899
 21
-19.39895177
 31
0.0
  0
LINE
  5
11D
100
AcDbEntity
  8
レイヤー_1
  6
DIVIDE
 62
       3
100
AcDbLine
 10
86.45726899
 20
-19.39895177
 30
0.0
 11
86.45726899
 21
-18.59913415
 31
0.0
  0
LINE
  5
11E
100
AcDbEntity
  8
レイヤー_1
  6
DIVIDE
 62
       3
100
AcDbLine
 10
86.45726899
 20
-18.59913415
 30
0.0
 11
84.45671978
 21
-18.59913415
 31
0.0
  0
LINE
  5
11F
100
AcDbEntity
  8
レイヤー_1
  6
DIVIDE
 62
       3
100
AcDbLine
 10
84.45671978
 20
-18.59913415
 30
0.0
 11
84.45671978
 21
-19.39895177
 31
0.0
  0
LINE
  5
120
100
AcDbEntity
  8
レイヤー_1
  6
DIVIDE
 62
       3
100
AcDbLine
 10
84.45671978
 20
-15.59945908
 30
0.0
 11
86.45726899
 21
-15.59945908
 31
0.0
  0
LINE
  5
121
100
AcDbEntity
  8
レイヤー_1
  6
DIVIDE
 62
       3
100
AcDbLine
 10
86.45726899
 20
-15.59945908
 30
0.0
 11
86.45726899
 21
-14.79964146
 31
0.0
  0
LINE
  5
122
100
AcDbEntity
  8
レイヤー_1
  6
DIVIDE
 62
       3
100
AcDbLine
 10
86.45726899
 20
-14.79964146
 30
0.0
 11
84.45671978
 21
-14.79964146
 31
0.0
  0
LINE
  5
123
100
AcDbEntity
  8
レイヤー_1
  6
DIVIDE
 62
       3
100
AcDbLine
 10
84.45671978
 20
-14.79964146
 30
0.0
 11
84.45671978
 21
-15.59945908
 31
0.0
  0
LINE
  5
124
100
AcDbEntity
  8
レイヤー_1
  6
DIVIDE
 62
       3
100
AcDbLine
 10
84.45671978
 20
-11.79939202
 30
0.0
 11
86.45726899
 21
-11.79939202
 31
0.0
  0
LINE
  5
125
100
AcDbEntity
  8
レイヤー_1
  6
DIVIDE
 62
       3
100
AcDbLine
 10
86.45726899
 20
-11.79939202
 30
0.0
 11
86.45726899
 21
-10.9995744
 31
0.0
  0
LINE
  5
126
100
AcDbEntity
  8
レイヤー_1
  6
DIVIDE
 62
       3
100
AcDbLine
 10
86.45726899
 20
-10.9995744
 30
0.0
 11
84.45671978
 21
-10.9995744
 31
0.0
  0
LINE
  5
127
100
AcDbEntity
  8
レイヤー_1
  6
DIVIDE
 62
       3
100
AcDbLine
 10
84.45671978
 20
-10.9995744
 30
0.0
 11
84.45671978
 21
-11.79939202
 31
0.0
  0
LINE
  5
128
100
AcDbEntity
  8
レイヤー_1
  6
DIVIDE
 62
       3
100
AcDbLine
 10
84.45671978
 20
-7.99989934
 30
0.0
 11
86.45726899
 21
-7.99989934
 31
0.0
  0
LINE
  5
129
100
AcDbEntity
  8
レイヤー_1
  6
DIVIDE
 62
       3
100
AcDbLine
 10
86.45726899
 20
-7.99989934
 30
0.0
 11
86.45726899
 21
-7.19979453
 31
0.0
  0
LINE
  5
12A
100
AcDbEntity
  8
レイヤー_1
  6
DIVIDE
 62
       3
100
AcDbLine
 10
86.45726899
 20
-7.19979453
 30
0.0
 11
84.45671978
 21
-7.19979453
 31
0.0
  0
LINE
  5
12B
100
AcDbEntity
  8
レイヤー_1
  6
DIVIDE
 62
       3
100
AcDbLine
 10
84.45671978
 20
-7.19979453
 30
0.0
 11
84.45671978
 21
-7.99989934
 31
0.0
  0
LINE
  5
12C
100
AcDbEntity
  8
レイヤー_1
  6
DIVIDE
 62
       3
100
AcDbLine
 10
84.45671978
 20
-4.19983228
 30
0.0
 11
86.45726899
 21
-4.19983228
 31
0.0
  0
LINE
  5
12D
100
AcDbEntity
  8
レイヤー_1
  6
DIVIDE
 62
       3
100
AcDbLine
 10
86.45726899
 20
-4.19983228
 30
0.0
 11
86.45726899
 21
-3.39972747
 31
0.0
  0
LINE
  5
12E
100
AcDbEntity
  8
レイヤー_1
  6
DIVIDE
 62
       3
100
AcDbLine
 10
86.45726899
 20
-3.39972747
 30
0.0
 11
84.45671978
 21
-3.39972747
 31
0.0
  0
LINE
  5
12F
100
AcDbEntity
  8
レイヤー_1
  6
DIVIDE
 62
       3
100
AcDbLine
 10
84.45671978
 20
-3.39972747
 30
0.0
 11
84.45671978
 21
-4.19983228
 31
0.0
  0
LINE
  5
130
100
AcDbEntity
  8
レイヤー_1
  6
DIVIDE
 62
       3
100
AcDbLine
 10
84.45671978
 20
-0.40033959
 30
0.0
 11
86.45726899
 21
-0.40033959
 31
0.0
  0
LINE
  5
131
100
AcDbEntity
  8
レイヤー_1
  6
DIVIDE
 62
       3
100
AcDbLine
 10
86.45726899
 20
-0.40033959
 30
0.0
 11
86.45726899
 21
0.39976522
 31
0.0
  0
LINE
  5
132
100
AcDbEntity
  8
レイヤー_1
  6
DIVIDE
 62
       3
100
AcDbLine
 10
86.45726899
 20
0.39976522
 30
0.0
 11
84.45671978
 21
0.39976522
 31
0.0
  0
LINE
  5
133
100
AcDbEntity
  8
レイヤー_1
  6
DIVIDE
 62
       3
100
AcDbLine
 10
84.45671978
 20
0.39976522
 30
0.0
 11
84.45671978
 21
-0.40033959
 31
0.0
  0
LINE
  5
134
100
AcDbEntity
  8
レイヤー_1
  6
DIVIDE
 62
       3
100
AcDbLine
 10
89.95693777
 20
3.00943945
 30
0.0
 11
80.95705101
 21
3.00943945
 31
0.0
  0
LINE
  5
135
100
AcDbEntity
  8
レイヤー_1
  6
DIVIDE
 62
       3
100
AcDbLine
 10
80.95705101
 20
-21.99340505
 30
0.0
 11
89.95693777
 21
-21.99340505
 31
0.0
  0
LINE
  5
136
100
AcDbEntity
  8
レイヤー_1
  6
DIVIDE
 62
       3
100
AcDbLine
 10
60.4771249
 20
-30.49415966
 30
0.0
 11
62.99059127
 21
-30.49415966
 31
0.0
  0
LINE
  5
137
100
AcDbEntity
  8
レイヤー_1
  6
DIVIDE
 62
       3
100
AcDbLine
 10
62.99059127
 20
-30.49415966
 30
0.0
 11
62.99059127
 21
-27.4944846
 31
0.0
  0
LINE
  5
138
100
AcDbEntity
  8
レイヤー_1
  6
DIVIDE
 62
       3
100
AcDbLine
 10
62.99059127
 20
-27.4944846
 30
0.0
 11
60.4771249
 21
-27.4944846
 31
0.0
  0
LINE
  5
139
100
AcDbEntity
  8
レイヤー_1
  6
DIVIDE
 62
       3
100
AcDbLine
 10
85.4567072
 20
-27.55192213
 30
0.0
 11
85.63304818
 21
-27.56068303
 31
0.0
  0
LINE
  5
13A
100
AcDbEntity
  8
レイヤー_1
  6
DIVIDE
 62
       3
100
AcDbLine
 10
85.63304818
 20
-27.56068303
 30
0.0
 11
85.8043744
 21
-27.58640647
 31
0.0
  0
LINE
  5
13B
100
AcDbEntity
  8
レイヤー_1
  6
DIVIDE
 62
       3
100
AcDbLine
 10
85.8043744
 20
-27.58640647
 30
0.0
 11
85.9698474
 21
-27.6282536
 31
0.0
  0
LINE
  5
13C
100
AcDbEntity
  8
レイヤー_1
  6
DIVIDE
 62
       3
100
AcDbLine
 10
85.9698474
 20
-27.6282536
 30
0.0
 11
86.1286287
 21
-27.68538553
 31
0.0
  0
LINE
  5
13D
100
AcDbEntity
  8
レイヤー_1
  6
DIVIDE
 62
       3
100
AcDbLine
 10
86.1286287
 20
-27.68538553
 30
0.0
 11
86.27987983
 21
-27.75696339
 31
0.0
  0
LINE
  5
13E
100
AcDbEntity
  8
レイヤー_1
  6
DIVIDE
 62
       3
100
AcDbLine
 10
86.27987983
 20
-27.75696339
 30
0.0
 11
86.42276233
 21
-27.84214832
 31
0.0
  0
LINE
  5
13F
100
AcDbEntity
  8
レイヤー_1
  6
DIVIDE
 62
       3
100
AcDbLine
 10
86.42276233
 20
-27.84214832
 30
0.0
 11
86.55643773
 21
-27.94010145
 31
0.0
  0
LINE
  5
140
100
AcDbEntity
  8
レイヤー_1
  6
DIVIDE
 62
       3
100
AcDbLine
 10
86.55643773
 20
-27.94010145
 30
0.0
 11
86.68006755
 21
-28.04998389
 31
0.0
  0
LINE
  5
141
100
AcDbEntity
  8
レイヤー_1
  6
DIVIDE
 62
       3
100
AcDbLine
 10
86.68006755
 20
-28.04998389
 30
0.0
 11
86.79281332
 21
-28.17095678
 31
0.0
  0
LINE
  5
142
100
AcDbEntity
  8
レイヤー_1
  6
DIVIDE
 62
       3
100
AcDbLine
 10
86.79281332
 20
-28.17095678
 30
0.0
 11
86.89383658
 21
-28.30218125
 31
0.0
  0
LINE
  5
143
100
AcDbEntity
  8
レイヤー_1
  6
DIVIDE
 62
       3
100
AcDbLine
 10
86.89383658
 20
-28.30218125
 30
0.0
 11
86.98229886
 21
-28.44281843
 31
0.0
  0
LINE
  5
144
100
AcDbEntity
  8
レイヤー_1
  6
DIVIDE
 62
       3
100
AcDbLine
 10
86.98229886
 20
-28.44281843
 30
0.0
 11
87.05736168
 21
-28.59202944
 31
0.0
  0
LINE
  5
145
100
AcDbEntity
  8
レイヤー_1
  6
DIVIDE
 62
       3
100
AcDbLine
 10
87.05736168
 20
-28.59202944
 30
0.0
 11
87.11818658
 21
-28.74897542
 31
0.0
  0
LINE
  5
146
100
AcDbEntity
  8
レイヤー_1
  6
DIVIDE
 62
       3
100
AcDbLine
 10
87.11818658
 20
-28.74897542
 30
0.0
 11
87.16393509
 21
-28.91281749
 31
0.0
  0
LINE
  5
147
100
AcDbEntity
  8
レイヤー_1
  6
DIVIDE
 62
       3
100
AcDbLine
 10
87.16393509
 20
-28.91281749
 30
0.0
 11
87.19376873
 21
-29.08271678
 31
0.0
  0
LINE
  5
148
100
AcDbEntity
  8
レイヤー_1
  6
DIVIDE
 62
       3
100
AcDbLine
 10
87.19376873
 20
-29.08271678
 30
0.0
 11
87.20684904
 21
-29.25783442
 31
0.0
  0
LINE
  5
149
100
AcDbEntity
  8
レイヤー_1
  6
DIVIDE
 62
       3
100
AcDbLine
 10
87.20684904
 20
-29.25783442
 30
0.0
 11
87.20245545
 21
-29.43491013
 31
0.0
  0
LINE
  5
14A
100
AcDbEntity
  8
レイヤー_1
  6
DIVIDE
 62
       3
100
AcDbLine
 10
87.20245545
 20
-29.43491013
 30
0.0
 11
87.18089367
 21
-29.60743307
 31
0.0
  0
LINE
  5
14B
100
AcDbEntity
  8
レイヤー_1
  6
DIVIDE
 62
       3
100
AcDbLine
 10
87.18089367
 20
-29.60743307
 30
0.0
 11
87.14299779
 21
-29.77432987
 31
0.0
  0
LINE
  5
14C
100
AcDbEntity
  8
レイヤー_1
  6
DIVIDE
 62
       3
100
AcDbLine
 10
87.14299779
 20
-29.77432987
 30
0.0
 11
87.08960628
 21
-29.93476085
 31
0.0
  0
LINE
  5
14D
100
AcDbEntity
  8
レイヤー_1
  6
DIVIDE
 62
       3
100
AcDbLine
 10
87.08960628
 20
-29.93476085
 30
0.0
 11
87.02155761
 21
-30.08788635
 31
0.0
  0
LINE
  5
14E
100
AcDbEntity
  8
レイヤー_1
  6
DIVIDE
 62
       3
100
AcDbLine
 10
87.02155761
 20
-30.08788635
 30
0.0
 11
86.93969025
 21
-30.23286668
 31
0.0
  0
LINE
  5
14F
100
AcDbEntity
  8
レイヤー_1
  6
DIVIDE
 62
       3
100
AcDbLine
 10
86.93969025
 20
-30.23286668
 30
0.0
 11
86.84484267
 21
-30.36886217
 31
0.0
  0
LINE
  5
150
100
AcDbEntity
  8
レイヤー_1
  6
DIVIDE
 62
       3
100
AcDbLine
 10
86.84484267
 20
-30.36886217
 30
0.0
 11
86.73785334
 21
-30.49503315
 31
0.0
  0
LINE
  5
151
100
AcDbEntity
  8
レイヤー_1
  6
DIVIDE
 62
       3
100
AcDbLine
 10
86.73785334
 20
-30.49503315
 30
0.0
 11
86.61956074
 21
-30.61053994
 31
0.0
  0
LINE
  5
152
100
AcDbEntity
  8
レイヤー_1
  6
DIVIDE
 62
       3
100
AcDbLine
 10
86.61956074
 20
-30.61053994
 30
0.0
 11
86.49080332
 21
-30.71454287
 31
0.0
  0
LINE
  5
153
100
AcDbEntity
  8
レイヤー_1
  6
DIVIDE
 62
       3
100
AcDbLine
 10
86.49080332
 20
-30.71454287
 30
0.0
 11
86.35241956
 21
-30.80620227
 31
0.0
  0
LINE
  5
154
100
AcDbEntity
  8
レイヤー_1
  6
DIVIDE
 62
       3
100
AcDbLine
 10
86.35241956
 20
-30.80620227
 30
0.0
 11
86.20524794
 21
-30.88467845
 31
0.0
  0
LINE
  5
155
100
AcDbEntity
  8
レイヤー_1
  6
DIVIDE
 62
       3
100
AcDbLine
 10
86.20524794
 20
-30.88467845
 30
0.0
 11
86.05012691
 21
-30.94913175
 31
0.0
  0
LINE
  5
156
100
AcDbEntity
  8
レイヤー_1
  6
DIVIDE
 62
       3
100
AcDbLine
 10
86.05012691
 20
-30.94913175
 30
0.0
 11
85.88789496
 21
-30.99872249
 31
0.0
  0
LINE
  5
157
100
AcDbEntity
  8
レイヤー_1
  6
DIVIDE
 62
       3
100
AcDbLine
 10
85.88789496
 20
-30.99872249
 30
0.0
 11
85.71939054
 21
-31.03261099
 31
0.0
  0
LINE
  5
158
100
AcDbEntity
  8
レイヤー_1
  6
DIVIDE
 62
       3
100
AcDbLine
 10
85.71939054
 20
-31.03261099
 30
0.0
 11
85.54545213
 21
-31.04995759
 31
0.0
  0
LINE
  5
159
100
AcDbEntity
  8
レイヤー_1
  6
DIVIDE
 62
       3
100
AcDbLine
 10
85.54545213
 20
-31.04995759
 30
0.0
 11
85.36801208
 21
-31.04995759
 31
0.0
  0
LINE
  5
15A
100
AcDbEntity
  8
レイヤー_1
  6
DIVIDE
 62
       3
100
AcDbLine
 10
85.36801208
 20
-31.04995759
 30
0.0
 11
85.19415491
 21
-31.03261099
 31
0.0
  0
LINE
  5
15B
100
AcDbEntity
  8
レイヤー_1
  6
DIVIDE
 62
       3
100
AcDbLine
 10
85.19415491
 20
-31.03261099
 30
0.0
 11
85.02570925
 21
-30.99872249
 31
0.0
  0
LINE
  5
15C
100
AcDbEntity
  8
レイヤー_1
  6
DIVIDE
 62
       3
100
AcDbLine
 10
85.02570925
 20
-30.99872249
 30
0.0
 11
84.86351597
 21
-30.94913175
 31
0.0
  0
LINE
  5
15D
100
AcDbEntity
  8
レイヤー_1
  6
DIVIDE
 62
       3
100
AcDbLine
 10
84.86351597
 20
-30.94913175
 30
0.0
 11
84.70841595
 21
-30.88467845
 31
0.0
  0
LINE
  5
15E
100
AcDbEntity
  8
レイヤー_1
  6
DIVIDE
 62
       3
100
AcDbLine
 10
84.70841595
 20
-30.88467845
 30
0.0
 11
84.56125007
 21
-30.80620227
 31
0.0
  0
LINE
  5
15F
100
AcDbEntity
  8
レイヤー_1
  6
DIVIDE
 62
       3
100
AcDbLine
 10
84.56125007
 20
-30.80620227
 30
0.0
 11
84.42285921
 21
-30.71454287
 31
0.0
  0
LINE
  5
160
100
AcDbEntity
  8
レイヤー_1
  6
DIVIDE
 62
       3
100
AcDbLine
 10
84.42285921
 20
-30.71454287
 30
0.0
 11
84.29408425
 21
-30.61053994
 31
0.0
  0
LINE
  5
161
100
AcDbEntity
  8
レイヤー_1
  6
DIVIDE
 62
       3
100
AcDbLine
 10
84.29408425
 20
-30.61053994
 30
0.0
 11
84.17576607
 21
-30.49503315
 31
0.0
  0
LINE
  5
162
100
AcDbEntity
  8
レイヤー_1
  6
DIVIDE
 62
       3
100
AcDbLine
 10
84.17576607
 20
-30.49503315
 30
0.0
 11
84.06874555
 21
-30.36886217
 31
0.0
  0
LINE
  5
163
100
AcDbEntity
  8
レイヤー_1
  6
DIVIDE
 62
       3
100
AcDbLine
 10
84.06874555
 20
-30.36886217
 30
0.0
 11
83.97386356
 21
-30.23286668
 31
0.0
  0
LINE
  5
164
100
AcDbEntity
  8
レイヤー_1
  6
DIVIDE
 62
       3
100
AcDbLine
 10
83.97386356
 20
-30.23286668
 30
0.0
 11
83.89196099
 21
-30.08788635
 31
0.0
  0
LINE
  5
165
100
AcDbEntity
  8
レイヤー_1
  6
DIVIDE
 62
       3
100
AcDbLine
 10
83.89196099
 20
-30.08788635
 30
0.0
 11
83.82387871
 21
-29.93476085
 31
0.0
  0
LINE
  5
166
100
AcDbEntity
  8
レイヤー_1
  6
DIVIDE
 62
       3
100
AcDbLine
 10
83.82387871
 20
-29.93476085
 30
0.0
 11
83.77045761
 21
-29.77432987
 31
0.0
  0
LINE
  5
167
100
AcDbEntity
  8
レイヤー_1
  6
DIVIDE
 62
       3
100
AcDbLine
 10
83.77045761
 20
-29.77432987
 30
0.0
 11
83.73253856
 21
-29.60743307
 31
0.0
  0
LINE
  5
168
100
AcDbEntity
  8
レイヤー_1
  6
DIVIDE
 62
       3
100
AcDbLine
 10
83.73253856
 20
-29.60743307
 30
0.0
 11
83.71096245
 21
-29.43491013
 31
0.0
  0
LINE
  5
169
100
AcDbEntity
  8
レイヤー_1
  6
DIVIDE
 62
       3
100
AcDbLine
 10
83.71096245
 20
-29.43491013
 30
0.0
 11
83.70656576
 21
-29.25783442
 31
0.0
  0
LINE
  5
16A
100
AcDbEntity
  8
レイヤー_1
  6
DIVIDE
 62
       3
100
AcDbLine
 10
83.70656576
 20
-29.25783442
 30
0.0
 11
83.71965508
 21
-29.08271678
 31
0.0
  0
LINE
  5
16B
100
AcDbEntity
  8
レイヤー_1
  6
DIVIDE
 62
       3
100
AcDbLine
 10
83.71965508
 20
-29.08271678
 30
0.0
 11
83.74950777
 21
-28.91281749
 31
0.0
  0
LINE
  5
16C
100
AcDbEntity
  8
レイヤー_1
  6
DIVIDE
 62
       3
100
AcDbLine
 10
83.74950777
 20
-28.91281749
 30
0.0
 11
83.79528296
 21
-28.74897542
 31
0.0
  0
LINE
  5
16D
100
AcDbEntity
  8
レイヤー_1
  6
DIVIDE
 62
       3
100
AcDbLine
 10
83.79528296
 20
-28.74897542
 30
0.0
 11
83.85613976
 21
-28.59202944
 31
0.0
  0
LINE
  5
16E
100
AcDbEntity
  8
レイヤー_1
  6
DIVIDE
 62
       3
100
AcDbLine
 10
83.85613976
 20
-28.59202944
 30
0.0
 11
83.93123729
 21
-28.44281843
 31
0.0
  0
LINE
  5
16F
100
AcDbEntity
  8
レイヤー_1
  6
DIVIDE
 62
       3
100
AcDbLine
 10
83.93123729
 20
-28.44281843
 30
0.0
 11
84.01973468
 21
-28.30218125
 31
0.0
  0
LINE
  5
170
100
AcDbEntity
  8
レイヤー_1
  6
DIVIDE
 62
       3
100
AcDbLine
 10
84.01973468
 20
-28.30218125
 30
0.0
 11
84.12079104
 21
-28.17095678
 31
0.0
  0
LINE
  5
171
100
AcDbEntity
  8
レイヤー_1
  6
DIVIDE
 62
       3
100
AcDbLine
 10
84.12079104
 20
-28.17095678
 30
0.0
 11
84.23356551
 21
-28.04998389
 31
0.0
  0
LINE
  5
172
100
AcDbEntity
  8
レイヤー_1
  6
DIVIDE
 62
       3
100
AcDbLine
 10
84.23356551
 20
-28.04998389
 30
0.0
 11
84.35721719
 21
-27.94010145
 31
0.0
  0
LINE
  5
173
100
AcDbEntity
  8
レイヤー_1
  6
DIVIDE
 62
       3
100
AcDbLine
 10
84.35721719
 20
-27.94010145
 30
0.0
 11
84.49090521
 21
-27.84214832
 31
0.0
  0
LINE
  5
174
100
AcDbEntity
  8
レイヤー_1
  6
DIVIDE
 62
       3
100
AcDbLine
 10
84.49090521
 20
-27.84214832
 30
0.0
 11
84.63378868
 21
-27.75696339
 31
0.0
  0
LINE
  5
175
100
AcDbEntity
  8
レイヤー_1
  6
DIVIDE
 62
       3
100
AcDbLine
 10
84.63378868
 20
-27.75696339
 30
0.0
 11
84.78502674
 21
-27.68538553
 31
0.0
  0
LINE
  5
176
100
AcDbEntity
  8
レイヤー_1
  6
DIVIDE
 62
       3
100
AcDbLine
 10
84.78502674
 20
-27.68538553
 30
0.0
 11
84.9437785
 21
-27.6282536
 31
0.0
  0
LINE
  5
177
100
AcDbEntity
  8
レイヤー_1
  6
DIVIDE
 62
       3
100
AcDbLine
 10
84.9437785
 20
-27.6282536
 30
0.0
 11
85.10920309
 21
-27.58640647
 31
0.0
  0
LINE
  5
178
100
AcDbEntity
  8
レイヤー_1
  6
DIVIDE
 62
       3
100
AcDbLine
 10
85.10920309
 20
-27.58640647
 30
0.0
 11
85.28045961
 21
-27.56068303
 31
0.0
  0
LINE
  5
179
100
AcDbEntity
  8
レイヤー_1
  6
DIVIDE
 62
       3
100
AcDbLine
 10
85.28045961
 20
-27.56068303
 30
0.0
 11
85.4567072
 21
-27.55192213
 31
0.0
  0
LINE
  5
17A
100
AcDbEntity
  8
レイヤー_1
  6
DIVIDE
 62
       3
100
AcDbLine
 10
85.4567072
 20
8.50219055
 30
0.0
 11
85.63304818
 21
8.51095757
 31
0.0
  0
LINE
  5
17B
100
AcDbEntity
  8
レイヤー_1
  6
DIVIDE
 62
       3
100
AcDbLine
 10
85.63304818
 20
8.51095757
 30
0.0
 11
85.8043744
 21
8.53669778
 31
0.0
  0
LINE
  5
17C
100
AcDbEntity
  8
レイヤー_1
  6
DIVIDE
 62
       3
100
AcDbLine
 10
85.8043744
 20
8.53669778
 30
0.0
 11
85.9698474
 21
8.57856991
 31
0.0
  0
LINE
  5
17D
100
AcDbEntity
  8
レイヤー_1
  6
DIVIDE
 62
       3
100
AcDbLine
 10
85.9698474
 20
8.57856991
 30
0.0
 11
86.1286287
 21
8.63573266
 31
0.0
  0
LINE
  5
17E
100
AcDbEntity
  8
レイヤー_1
  6
DIVIDE
 62
       3
100
AcDbLine
 10
86.1286287
 20
8.63573266
 30
0.0
 11
86.27987983
 21
8.70734476
 31
0.0
  0
LINE
  5
17F
100
AcDbEntity
  8
レイヤー_1
  6
DIVIDE
 62
       3
100
AcDbLine
 10
86.27987983
 20
8.70734476
 30
0.0
 11
86.42276233
 21
8.79256492
 31
0.0
  0
LINE
  5
180
100
AcDbEntity
  8
レイヤー_1
  6
DIVIDE
 62
       3
100
AcDbLine
 10
86.42276233
 20
8.79256492
 30
0.0
 11
86.55643773
 21
8.89055188
 31
0.0
  0
LINE
  5
181
100
AcDbEntity
  8
レイヤー_1
  6
DIVIDE
 62
       3
100
AcDbLine
 10
86.55643773
 20
8.89055188
 30
0.0
 11
86.68006755
 21
9.00046434
 31
0.0
  0
LINE
  5
182
100
AcDbEntity
  8
レイヤー_1
  6
DIVIDE
 62
       3
100
AcDbLine
 10
86.68006755
 20
9.00046434
 30
0.0
 11
86.79281332
 21
9.12146102
 31
0.0
  0
LINE
  5
183
100
AcDbEntity
  8
レイヤー_1
  6
DIVIDE
 62
       3
100
AcDbLine
 10
86.79281332
 20
9.12146102
 30
0.0
 11
86.89383658
 21
9.25270065
 31
0.0
  0
LINE
  5
184
100
AcDbEntity
  8
レイヤー_1
  6
DIVIDE
 62
       3
100
AcDbLine
 10
86.89383658
 20
9.25270065
 30
0.0
 11
86.98229886
 21
9.39334194
 31
0.0
  0
LINE
  5
185
100
AcDbEntity
  8
レイヤー_1
  6
DIVIDE
 62
       3
100
AcDbLine
 10
86.98229886
 20
9.39334194
 30
0.0
 11
87.05736168
 21
9.54254362
 31
0.0
  0
LINE
  5
186
100
AcDbEntity
  8
レイヤー_1
  6
DIVIDE
 62
       3
100
AcDbLine
 10
87.05736168
 20
9.54254362
 30
0.0
 11
87.11818658
 21
9.6994644
 31
0.0
  0
LINE
  5
187
100
AcDbEntity
  8
レイヤー_1
  6
DIVIDE
 62
       3
100
AcDbLine
 10
87.11818658
 20
9.6994644
 30
0.0
 11
87.16393509
 21
9.863263
 31
0.0
  0
LINE
  5
188
100
AcDbEntity
  8
レイヤー_1
  6
DIVIDE
 62
       3
100
AcDbLine
 10
87.16393509
 20
9.863263
 30
0.0
 11
87.19376873
 21
10.03309814
 31
0.0
  0
LINE
  5
189
100
AcDbEntity
  8
レイヤー_1
  6
DIVIDE
 62
       3
100
AcDbLine
 10
87.19376873
 20
10.03309814
 30
0.0
 11
87.20684904
 21
10.20812854
 31
0.0
  0
LINE
  5
18A
100
AcDbEntity
  8
レイヤー_1
  6
DIVIDE
 62
       3
100
AcDbLine
 10
87.20684904
 20
10.20812854
 30
0.0
 11
87.20245545
 21
10.38517855
 31
0.0
  0
LINE
  5
18B
100
AcDbEntity
  8
レイヤー_1
  6
DIVIDE
 62
       3
100
AcDbLine
 10
87.20245545
 20
10.38517855
 30
0.0
 11
87.18089367
 21
10.55770149
 31
0.0
  0
LINE
  5
18C
100
AcDbEntity
  8
レイヤー_1
  6
DIVIDE
 62
       3
100
AcDbLine
 10
87.18089367
 20
10.55770149
 30
0.0
 11
87.14299779
 21
10.72459829
 31
0.0
  0
LINE
  5
18D
100
AcDbEntity
  8
レイヤー_1
  6
DIVIDE
 62
       3
100
AcDbLine
 10
87.14299779
 20
10.72459829
 30
0.0
 11
87.08960628
 21
10.88502927
 31
0.0
  0
LINE
  5
18E
100
AcDbEntity
  8
レイヤー_1
  6
DIVIDE
 62
       3
100
AcDbLine
 10
87.08960628
 20
10.88502927
 30
0.0
 11
87.02155761
 21
11.03815477
 31
0.0
  0
LINE
  5
18F
100
AcDbEntity
  8
レイヤー_1
  6
DIVIDE
 62
       3
100
AcDbLine
 10
87.02155761
 20
11.03815477
 30
0.0
 11
86.93969025
 21
11.1831351
 31
0.0
  0
LINE
  5
190
100
AcDbEntity
  8
レイヤー_1
  6
DIVIDE
 62
       3
100
AcDbLine
 10
86.93969025
 20
11.1831351
 30
0.0
 11
86.84484267
 21
11.31913059
 31
0.0
  0
LINE
  5
191
100
AcDbEntity
  8
レイヤー_1
  6
DIVIDE
 62
       3
100
AcDbLine
 10
86.84484267
 20
11.31913059
 30
0.0
 11
86.73785334
 21
11.44530157
 31
0.0
  0
LINE
  5
192
100
AcDbEntity
  8
レイヤー_1
  6
DIVIDE
 62
       3
100
AcDbLine
 10
86.73785334
 20
11.44530157
 30
0.0
 11
86.61956074
 21
11.56080836
 31
0.0
  0
LINE
  5
193
100
AcDbEntity
  8
レイヤー_1
  6
DIVIDE
 62
       3
100
AcDbLine
 10
86.61956074
 20
11.56080836
 30
0.0
 11
86.49080332
 21
11.66481129
 31
0.0
  0
LINE
  5
194
100
AcDbEntity
  8
レイヤー_1
  6
DIVIDE
 62
       3
100
AcDbLine
 10
86.49080332
 20
11.66481129
 30
0.0
 11
86.35241956
 21
11.75647069
 31
0.0
  0
LINE
  5
195
100
AcDbEntity
  8
レイヤー_1
  6
DIVIDE
 62
       3
100
AcDbLine
 10
86.35241956
 20
11.75647069
 30
0.0
 11
86.20524794
 21
11.83494687
 31
0.0
  0
LINE
  5
196
100
AcDbEntity
  8
レイヤー_1
  6
DIVIDE
 62
       3
100
AcDbLine
 10
86.20524794
 20
11.83494687
 30
0.0
 11
86.05012691
 21
11.89940017
 31
0.0
  0
LINE
  5
197
100
AcDbEntity
  8
レイヤー_1
  6
DIVIDE
 62
       3
100
AcDbLine
 10
86.05012691
 20
11.89940017
 30
0.0
 11
85.88789496
 21
11.94899091
 31
0.0
  0
LINE
  5
198
100
AcDbEntity
  8
レイヤー_1
  6
DIVIDE
 62
       3
100
AcDbLine
 10
85.88789496
 20
11.94899091
 30
0.0
 11
85.71939054
 21
11.98287942
 31
0.0
  0
LINE
  5
199
100
AcDbEntity
  8
レイヤー_1
  6
DIVIDE
 62
       3
100
AcDbLine
 10
85.71939054
 20
11.98287942
 30
0.0
 11
85.54545213
 21
12.00022601
 31
0.0
  0
LINE
  5
19A
100
AcDbEntity
  8
レイヤー_1
  6
DIVIDE
 62
       3
100
AcDbLine
 10
85.54545213
 20
12.00022601
 30
0.0
 11
85.36801208
 21
12.00022601
 31
0.0
  0
LINE
  5
19B
100
AcDbEntity
  8
レイヤー_1
  6
DIVIDE
 62
       3
100
AcDbLine
 10
85.36801208
 20
12.00022601
 30
0.0
 11
85.19415491
 21
11.98287942
 31
0.0
  0
LINE
  5
19C
100
AcDbEntity
  8
レイヤー_1
  6
DIVIDE
 62
       3
100
AcDbLine
 10
85.19415491
 20
11.98287942
 30
0.0
 11
85.02570925
 21
11.94899091
 31
0.0
  0
LINE
  5
19D
100
AcDbEntity
  8
レイヤー_1
  6
DIVIDE
 62
       3
100
AcDbLine
 10
85.02570925
 20
11.94899091
 30
0.0
 11
84.86351597
 21
11.89940017
 31
0.0
  0
LINE
  5
19E
100
AcDbEntity
  8
レイヤー_1
  6
DIVIDE
 62
       3
100
AcDbLine
 10
84.86351597
 20
11.89940017
 30
0.0
 11
84.70841595
 21
11.83494687
 31
0.0
  0
LINE
  5
19F
100
AcDbEntity
  8
レイヤー_1
  6
DIVIDE
 62
       3
100
AcDbLine
 10
84.70841595
 20
11.83494687
 30
0.0
 11
84.56125007
 21
11.75647069
 31
0.0
  0
LINE
  5
1A0
100
AcDbEntity
  8
レイヤー_1
  6
DIVIDE
 62
       3
100
AcDbLine
 10
84.56125007
 20
11.75647069
 30
0.0
 11
84.42285921
 21
11.66481129
 31
0.0
  0
LINE
  5
1A1
100
AcDbEntity
  8
レイヤー_1
  6
DIVIDE
 62
       3
100
AcDbLine
 10
84.42285921
 20
11.66481129
 30
0.0
 11
84.29408425
 21
11.56080836
 31
0.0
  0
LINE
  5
1A2
100
AcDbEntity
  8
レイヤー_1
  6
DIVIDE
 62
       3
100
AcDbLine
 10
84.29408425
 20
11.56080836
 30
0.0
 11
84.17576607
 21
11.44530157
 31
0.0
  0
LINE
  5
1A3
100
AcDbEntity
  8
レイヤー_1
  6
DIVIDE
 62
       3
100
AcDbLine
 10
84.17576607
 20
11.44530157
 30
0.0
 11
84.06874555
 21
11.31913059
 31
0.0
  0
LINE
  5
1A4
100
AcDbEntity
  8
レイヤー_1
  6
DIVIDE
 62
       3
100
AcDbLine
 10
84.06874555
 20
11.31913059
 30
0.0
 11
83.97386356
 21
11.1831351
 31
0.0
  0
LINE
  5
1A5
100
AcDbEntity
  8
レイヤー_1
  6
DIVIDE
 62
       3
100
AcDbLine
 10
83.97386356
 20
11.1831351
 30
0.0
 11
83.89196099
 21
11.03815477
 31
0.0
  0
LINE
  5
1A6
100
AcDbEntity
  8
レイヤー_1
  6
DIVIDE
 62
       3
100
AcDbLine
 10
83.89196099
 20
11.03815477
 30
0.0
 11
83.82387871
 21
10.88502927
 31
0.0
  0
LINE
  5
1A7
100
AcDbEntity
  8
レイヤー_1
  6
DIVIDE
 62
       3
100
AcDbLine
 10
83.82387871
 20
10.88502927
 30
0.0
 11
83.77045761
 21
10.72459829
 31
0.0
  0
LINE
  5
1A8
100
AcDbEntity
  8
レイヤー_1
  6
DIVIDE
 62
       3
100
AcDbLine
 10
83.77045761
 20
10.72459829
 30
0.0
 11
83.73253856
 21
10.55770149
 31
0.0
  0
LINE
  5
1A9
100
AcDbEntity
  8
レイヤー_1
  6
DIVIDE
 62
       3
100
AcDbLine
 10
83.73253856
 20
10.55770149
 30
0.0
 11
83.71096245
 21
10.38517855
 31
0.0
  0
LINE
  5
1AA
100
AcDbEntity
  8
レイヤー_1
  6
DIVIDE
 62
       3
100
AcDbLine
 10
83.71096245
 20
10.38517855
 30
0.0
 11
83.70656576
 21
10.20812854
 31
0.0
  0
LINE
  5
1AB
100
AcDbEntity
  8
レイヤー_1
  6
DIVIDE
 62
       3
100
AcDbLine
 10
83.70656576
 20
10.20812854
 30
0.0
 11
83.71965508
 21
10.03309814
 31
0.0
  0
LINE
  5
1AC
100
AcDbEntity
  8
レイヤー_1
  6
DIVIDE
 62
       3
100
AcDbLine
 10
83.71965508
 20
10.03309814
 30
0.0
 11
83.74950777
 21
9.863263
 31
0.0
  0
LINE
  5
1AD
100
AcDbEntity
  8
レイヤー_1
  6
DIVIDE
 62
       3
100
AcDbLine
 10
83.74950777
 20
9.863263
 30
0.0
 11
83.79528296
 21
9.6994644
 31
0.0
  0
LINE
  5
1AE
100
AcDbEntity
  8
レイヤー_1
  6
DIVIDE
 62
       3
100
AcDbLine
 10
83.79528296
 20
9.6994644
 30
0.0
 11
83.85613976
 21
9.54254362
 31
0.0
  0
LINE
  5
1AF
100
AcDbEntity
  8
レイヤー_1
  6
DIVIDE
 62
       3
100
AcDbLine
 10
83.85613976
 20
9.54254362
 30
0.0
 11
83.93123729
 21
9.39334194
 31
0.0
  0
LINE
  5
1B0
100
AcDbEntity
  8
レイヤー_1
  6
DIVIDE
 62
       3
100
AcDbLine
 10
83.93123729
 20
9.39334194
 30
0.0
 11
84.01973468
 21
9.25270065
 31
0.0
  0
LINE
  5
1B1
100
AcDbEntity
  8
レイヤー_1
  6
DIVIDE
 62
       3
100
AcDbLine
 10
84.01973468
 20
9.25270065
 30
0.0
 11
84.12079104
 21
9.12146102
 31
0.0
  0
LINE
  5
1B2
100
AcDbEntity
  8
レイヤー_1
  6
DIVIDE
 62
       3
100
AcDbLine
 10
84.12079104
 20
9.12146102
 30
0.0
 11
84.23356551
 21
9.00046434
 31
0.0
  0
LINE
  5
1B3
100
AcDbEntity
  8
レイヤー_1
  6
DIVIDE
 62
       3
100
AcDbLine
 10
84.23356551
 20
9.00046434
 30
0.0
 11
84.35721719
 21
8.89055188
 31
0.0
  0
LINE
  5
1B4
100
AcDbEntity
  8
レイヤー_1
  6
DIVIDE
 62
       3
100
AcDbLine
 10
84.35721719
 20
8.89055188
 30
0.0
 11
84.49090521
 21
8.79256492
 31
0.0
  0
LINE
  5
1B5
100
AcDbEntity
  8
レイヤー_1
  6
DIVIDE
 62
       3
100
AcDbLine
 10
84.49090521
 20
8.79256492
 30
0.0
 11
84.63378868
 21
8.70734476
 31
0.0
  0
LINE
  5
1B6
100
AcDbEntity
  8
レイヤー_1
  6
DIVIDE
 62
       3
100
AcDbLine
 10
84.63378868
 20
8.70734476
 30
0.0
 11
84.78502674
 21
8.63573266
 31
0.0
  0
LINE
  5
1B7
100
AcDbEntity
  8
レイヤー_1
  6
DIVIDE
 62
       3
100
AcDbLine
 10
84.78502674
 20
8.63573266
 30
0.0
 11
84.9437785
 21
8.57856991
 31
0.0
  0
LINE
  5
1B8
100
AcDbEntity
  8
レイヤー_1
  6
DIVIDE
 62
       3
100
AcDbLine
 10
84.9437785
 20
8.57856991
 30
0.0
 11
85.10920309
 21
8.53669778
 31
0.0
  0
LINE
  5
1B9
100
AcDbEntity
  8
レイヤー_1
  6
DIVIDE
 62
       3
100
AcDbLine
 10
85.10920309
 20
8.53669778
 30
0.0
 11
85.28045961
 21
8.51095757
 31
0.0
  0
LINE
  5
1BA
100
AcDbEntity
  8
レイヤー_1
  6
DIVIDE
 62
       3
100
AcDbLine
 10
85.28045961
 20
8.51095757
 30
0.0
 11
85.4567072
 21
8.50219055
 31
0.0
  0
TEXT
  5
1BB
100
AcDbEntity
  8
0
 62
       7
100
AcDbText
 10
111.139819
 20
-99.74434389
 30
0.0
 40
5.0
  1
000
 41
0.8
 72
       5
 11
123.139819
 21
-99.74434389
 31
0.0
100
AcDbText
  0
ENDSEC
  0
SECTION
  2
OBJECTS
  0
DICTIONARY
  5
19
100
AcDbDictionary
  3
ACAD_GROUP
350
1A
  3
ACAD_MLINESTYLE
350
1B
  0
DICTIONARY
  5
1A
102
{ACAD_REACTORS
330
19
102
}
100
AcDbDictionary
  0
DICTIONARY
  5
1B
102
{ACAD_REACTORS
330
19
102
}
100
AcDbDictionary
  3
STANDARD
350
1C
  0
MLINESTYLE
  5
1C
102
{ACAD_REACTORS
330
1B
102
}
100
AcDbMlineStyle
  2
STANDARD
 70
       0
  3

 62
       0
 51
90.0
 52
90.0
 71
       2
 49
0.5
 62
     256
  6
BYLAYER
 49
-0.5
 62
     256
  6
BYLAYER
  0
ENDSEC
  0
EOF
