  0
SECTION
  2
HEADER
  9
$ACADVER
  1
AC1014
  9
$ACADMAINTVER
 70
     9
  9
$DWGCODEPAGE
  3
ANSI_932
  9
$INSBASE
 10
0.0
 20
0.0
 30
0.0
  9
$EXTMIN
 10
-401.7556946148
 20
-336.89121529135
 30
0.0
  9
$EXTMAX
 10
400.4956946148
 20
328.09954862465
 30
0.0
  9
$LIMMIN
 10
-198.1666666666667
 20
-140.1666666666667
  9
$LIMMAX
 10
198.1666666666667
 20
140.1666666666667
  9
$ORTHOMODE
 70
     0
  9
$REGENMODE
 70
     1
  9
$FILLMODE
 70
     1
  9
$QTEXTMODE
 70
     0
  9
$MIRRTEXT
 70
     1
  9
$DRAGMODE
 70
     2
  9
$LTSCALE
 40
0.0833333333333333
  9
$OSMODE
 70
    37
  9
$ATTMODE
 70
     1
  9
$TEXTSIZE
 40
0.2
  9
$TRACEWID
 40
0.05
  9
$TEXTSTYLE
  7
STANDARD
  9
$CLAYER
  8
0
  9
$CELTYPE
  6
BYLAYER
  9
$CECOLOR
 62
   256
  9
$CELTSCALE
 40
1.0
  9
$DELOBJ
 70
     1
  9
$DISPSILH
 70
     0
  9
$DIMSCALE
 40
1.0
  9
$DIMASZ
 40
1.000000635782878
  9
$DIMEXO
 40
1.0
  9
$DIMDLI
 40
10.0
  9
$DIMRND
 40
0.0
  9
$DIMDLE
 40
0.0
  9
$DIMEXE
 40
1.0
  9
$DIMTP
 40
0.0
  9
$DIMTM
 40
0.0
  9
$DIMTXT
 40
1.166666666666667
  9
$DIMCEN
 40
0.0
  9
$DIMTSZ
 40
0.0
  9
$DIMTOL
 70
     0
  9
$DIMLIM
 70
     0
  9
$DIMTIH
 70
     0
  9
$DIMTOH
 70
     0
  9
$DIMSE1
 70
     0
  9
$DIMSE2
 70
     0
  9
$DIMTAD
 70
     1
  9
$DIMZIN
 70
     8
  9
$DIMBLK
  1

  9
$DIMASO
 70
     1
  9
$DIMSHO
 70
     1
  9
$DIMPOST
  1

  9
$DIMAPOST
  1

  9
$DIMALT
 70
     0
  9
$DIMALTD
 70
     2
  9
$DIMALTF
 40
25.4
  9
$DIMLFAC
 40
1.0
  9
$DIMTOFL
 70
     0
  9
$DIMTVP
 40
0.0
  9
$DIMTIX
 70
     0
  9
$DIMSOXD
 70
     0
  9
$DIMSAH
 70
     0
  9
$DIMBLK1
  1

  9
$DIMBLK2
  1

  9
$DIMSTYLE
  2
STANDARD
  9
$DIMCLRD
 70
     0
  9
$DIMCLRE
 70
     0
  9
$DIMCLRT
 70
     0
  9
$DIMTFAC
 40
0.65
  9
$DIMGAP
 40
0.09
  9
$DIMJUST
 70
     0
  9
$DIMSD1
 70
     0
  9
$DIMSD2
 70
     0
  9
$DIMTOLJ
 70
     0
  9
$DIMTZIN
 70
     0
  9
$DIMALTZ
 70
     0
  9
$DIMALTTZ
 70
     0
  9
$DIMFIT
 70
     3
  9
$DIMUPT
 70
     0
  9
$DIMUNIT
 70
     2
  9
$DIMDEC
 70
     2
  9
$DIMTDEC
 70
     2
  9
$DIMALTU
 70
     2
  9
$DIMALTTD
 70
     2
  9
$DIMTXSTY
  7
STANDARD
  9
$DIMAUNIT
 70
     0
  9
$LUNITS
 70
     2
  9
$LUPREC
 70
     4
  9
$SKETCHINC
 40
0.1
  9
$FILLETRAD
 40
0.5
  9
$AUNITS
 70
     0
  9
$AUPREC
 70
     0
  9
$MENU
  1
.
  9
$ELEVATION
 40
0.0
  9
$PELEVATION
 40
0.0
  9
$THICKNESS
 40
0.0
  9
$LIMCHECK
 70
     0
  9
$CHAMFERA
 40
0.0
  9
$CHAMFERB
 40
0.0
  9
$CHAMFERC
 40
0.0
  9
$CHAMFERD
 40
0.0
  9
$SKPOLY
 70
     0
  9
$TDCREATE
 40
2457120.664981007
  9
$TDUPDATE
 40
2457120.66498118
  9
$TDINDWG
 40
0.0000000116
  9
$TDUSRTIMER
 40
0.0000000116
  9
$USRTIMER
 70
     1
  9
$ANGBASE
 50
0.0
  9
$ANGDIR
 70
     0
  9
$PDMODE
 70
     0
  9
$PDSIZE
 40
1.0
  9
$PLINEWID
 40
0.0
  9
$COORDS
 70
     1
  9
$SPLFRAME
 70
     0
  9
$SPLINETYPE
 70
     6
  9
$SPLINESEGS
 70
     8
  9
$ATTDIA
 70
     0
  9
$ATTREQ
 70
     1
  9
$HANDLING
 70
     1
  9
$HANDSEED
  5
4F2
  9
$SURFTAB1
 70
     6
  9
$SURFTAB2
 70
     6
  9
$SURFTYPE
 70
     6
  9
$SURFU
 70
     6
  9
$SURFV
 70
     6
  9
$UCSNAME
  2

  9
$UCSORG
 10
0.0
 20
0.0
 30
0.0
  9
$UCSXDIR
 10
1.0
 20
0.0
 30
0.0
  9
$UCSYDIR
 10
0.0
 20
1.0
 30
0.0
  9
$PUCSNAME
  2

  9
$PUCSORG
 10
0.0
 20
0.0
 30
0.0
  9
$PUCSXDIR
 10
1.0
 20
0.0
 30
0.0
  9
$PUCSYDIR
 10
0.0
 20
1.0
 30
0.0
  9
$USERI1
 70
     0
  9
$USERI2
 70
     0
  9
$USERI3
 70
     0
  9
$USERI4
 70
     0
  9
$USERI5
 70
     0
  9
$USERR1
 40
0.0
  9
$USERR2
 40
0.0
  9
$USERR3
 40
0.0
  9
$USERR4
 40
0.0
  9
$USERR5
 40
0.0
  9
$WORLDVIEW
 70
     1
  9
$SHADEDGE
 70
     3
  9
$SHADEDIF
 70
    70
  9
$TILEMODE
 70
     1
  9
$MAXACTVP
 70
    64
  9
$PINSBASE
 10
0.0
 20
0.0
 30
0.0
  9
$PLIMCHECK
 70
     0
  9
$PEXTMIN
 10
1.000000000000000E+20
 20
1.000000000000000E+20
 30
1.000000000000000E+20
  9
$PEXTMAX
 10
-1.000000000000000E+20
 20
-1.000000000000000E+20
 30
-1.000000000000000E+20
  9
$PLIMMIN
 10
0.0
 20
0.0
  9
$PLIMMAX
 10
12.0
 20
9.0
  9
$UNITMODE
 70
     0
  9
$VISRETAIN
 70
     0
  9
$PLINEGEN
 70
     1
  9
$PSLTSCALE
 70
     0
  9
$TREEDEPTH
 70
  3020
  9
$PICKSTYLE
 70
     1
  9
$CMLSTYLE
  2
STANDARD
  9
$CMLJUST
 70
     0
  9
$CMLSCALE
 40
1.0
  9
$PROXYGRAPHICS
 70
     0
  9
$MEASUREMENT
 70
     1
  0
ENDSEC
  0
SECTION
  2
CLASSES
  0
CLASS
  1
ACDBDICTIONARYWDFLT
  2
AcDbDictionaryWithDefault
  3
ObjectDBX Classes
 90
        0
280
     0
281
     0
  0
CLASS
  1
VISUALSTYLE
  2
AcDbVisualStyle
  3
ObjectDBX Classes
 90
     4095
280
     0
281
     0
  0
CLASS
  1
MATERIAL
  2
AcDbMaterial
  3
ObjectDBX Classes
 90
     1153
280
     0
281
     0
  0
CLASS
  1
SCALE
  2
AcDbScale
  3
ObjectDBX Classes
 90
     1153
280
     0
281
     0
  0
CLASS
  1
SUN
  2
AcDbSun
  3
SCENEOE
 90
     1153
280
     0
281
     0
  0
CLASS
  1
DICTIONARYVAR
  2
AcDbDictionaryVar
  3
ObjectDBX Classes
 90
        0
280
     0
281
     0
  0
CLASS
  1
XRECORD
  2
AcDbXrecord
  3
ObjectDBX Classes
 90
        0
280
     0
281
     0
  0
CLASS
  1
LWPOLYLINE
  2
AcDbPolyline
  3
ObjectDBX Classes
 90
        0
280
     0
281
     1
  0
CLASS
  1
HATCH
  2
AcDbHatch
  3
ObjectDBX Classes
 90
        0
280
     0
281
     1
  0
CLASS
  1
ACDBPLACEHOLDER
  2
AcDbPlaceHolder
  3
ObjectDBX Classes
 90
        0
280
     0
281
     0
  0
CLASS
  1
LAYOUT
  2
AcDbLayout
  3
ObjectDBX Classes
 90
        0
280
     0
281
     0
  0
ENDSEC
  0
SECTION
  2
TABLES
  0
TABLE
  2
VPORT
  5
8
102
{ACAD_XDICTIONARY
360
4E8
102
}
330
0
100
AcDbSymbolTable
 70
     1
  0
VPORT
  5
29
330
8
100
AcDbSymbolTableRecord
100
AcDbViewportTableRecord
  2
*ACTIVE
 70
     0
 10
0.0
 20
0.0
 11
1.0
 21
1.0
 12
2.185395569641255
 22
-4.395833333349984
 13
0.0
 23
0.0
 14
0.5
 24
0.5
 15
0.5
 25
0.5
 16
0.0
 26
0.0
 36
1.0
 17
0.0
 27
0.0
 37
0.0
 40
226.09685973144
 41
1.229797555376735
 42
50.0
 43
0.0
 44
0.0
 50
0.0
 51
0.0
 71
     0
 72
  1000
 73
     1
 74
     1
 75
     0
 76
     0
 77
     0
 78
     0
  0
ENDTAB
  0
TABLE
  2
LTYPE
  5
5
330
0
100
AcDbSymbolTable
 70
    67
  0
LTYPE
  5
14
330
5
100
AcDbSymbolTableRecord
100
AcDbLinetypeTableRecord
  2
BYBLOCK
 70
     0
  3

 72
    65
 73
     0
 40
0.0
  0
LTYPE
  5
15
330
5
100
AcDbSymbolTableRecord
100
AcDbLinetypeTableRecord
  2
BYLAYER
 70
     0
  3

 72
    65
 73
     0
 40
0.0
  0
LTYPE
  5
16
330
5
100
AcDbSymbolTableRecord
100
AcDbLinetypeTableRecord
  2
CONTINUOUS
 70
     0
  3
Solid line
 72
    65
 73
     0
 40
0.0
  0
LTYPE
  5
6B
330
5
100
AcDbSymbolTableRecord
100
AcDbLinetypeTableRecord
  2
HIDDENX2
 70
     0
  3
Hidden (2x) ____ ____ ____ ____ ____ ____ ____ 
 72
    65
 73
     2
 40
19.05
 49
12.7
 74
     0
 49
-6.35
 74
     0
  0
LTYPE
  5
6C
330
5
100
AcDbSymbolTableRecord
100
AcDbLinetypeTableRecord
  2
HIDDEN
 70
     0
  3
Hidden __ __ __ __ __ __ __ __ __ __ __ __ __ __
 72
    65
 73
     2
 40
9.524999999999999
 49
6.35
 74
     0
 49
-3.175
 74
     0
  0
LTYPE
  5
6D
330
5
100
AcDbSymbolTableRecord
100
AcDbLinetypeTableRecord
  2
HIDDEN2
 70
     0
  3
Hidden (.5x) _ _ _ _ _ _ _ _ _ _ _ _ _ _ _ _ _ 
 72
    65
 73
     2
 40
4.762499999999999
 49
3.175
 74
     0
 49
-1.5875
 74
     0
  0
LTYPE
  5
6E
330
5
100
AcDbSymbolTableRecord
100
AcDbLinetypeTableRecord
  2
DASHED
 70
     0
  3
Dashed __ __ __ __ __ __ __ __ __ __ __ __ __ _
 72
    65
 73
     2
 40
19.05
 49
12.7
 74
     0
 49
-6.35
 74
     0
  0
LTYPE
  5
6F
330
5
100
AcDbSymbolTableRecord
100
AcDbLinetypeTableRecord
  2
DASHED2
 70
     0
  3
Dashed (.5x) _ _ _ _ _ _ _ _ _ _ _ _ _ _ _ _ _ 
 72
    65
 73
     2
 40
9.524999999999999
 49
6.35
 74
     0
 49
-3.175
 74
     0
  0
LTYPE
  5
70
330
5
100
AcDbSymbolTableRecord
100
AcDbLinetypeTableRecord
  2
DASHEDX2
 70
     0
  3
Dashed (2x) ____  ____  ____  ____  ____  ___
 72
    65
 73
     2
 40
38.09999999999999
 49
25.4
 74
     0
 49
-12.7
 74
     0
  0
LTYPE
  5
71
330
5
100
AcDbSymbolTableRecord
100
AcDbLinetypeTableRecord
  2
DOTX2
 70
     0
  3
Dot (2x) .  .  .  .  .  .  .  .  .  .  .  .  .  .
 72
    65
 73
     2
 40
12.7
 49
0.0
 74
     0
 49
-12.7
 74
     0
  0
LTYPE
  5
72
330
5
100
AcDbSymbolTableRecord
100
AcDbLinetypeTableRecord
  2
DOT
 70
     0
  3
Dot . . . . . . . . . . . . . . . . . . . . . . . .
 72
    65
 73
     2
 40
6.35
 49
0.0
 74
     0
 49
-6.35
 74
     0
  0
LTYPE
  5
73
330
5
100
AcDbSymbolTableRecord
100
AcDbLinetypeTableRecord
  2
DOT2
 70
     0
  3
Dot (.5x) ........................................
 72
    65
 73
     2
 40
3.175
 49
0.0
 74
     0
 49
-3.175
 74
     0
  0
LTYPE
  5
74
330
5
100
AcDbSymbolTableRecord
100
AcDbLinetypeTableRecord
  2
CENTERX2
 70
     0
  3
Center (2x) ________  __  ________  __  _____
 72
    65
 73
     4
 40
101.6
 49
63.5
 74
     0
 49
-12.7
 74
     0
 49
12.7
 74
     0
 49
-12.7
 74
     0
  0
LTYPE
  5
75
330
5
100
AcDbSymbolTableRecord
100
AcDbLinetypeTableRecord
  2
CENTER
 70
     0
  3
Center ____ _ ____ _ ____ _ ____ _ ____ _ ____
 72
    65
 73
     4
 40
50.8
 49
31.75
 74
     0
 49
-6.35
 74
     0
 49
6.35
 74
     0
 49
-6.35
 74
     0
  0
LTYPE
  5
76
330
5
100
AcDbSymbolTableRecord
100
AcDbLinetypeTableRecord
  2
CENTER2
 70
     0
  3
Center (.5x) ___ _ ___ _ ___ _ ___ _ ___ _ ___
 72
    65
 73
     4
 40
28.575
 49
19.05
 74
     0
 49
-3.175
 74
     0
 49
3.175
 74
     0
 49
-3.175
 74
     0
  0
LTYPE
  5
77
330
5
100
AcDbSymbolTableRecord
100
AcDbLinetypeTableRecord
  2
DASHDOTX2
 70
     0
  3
Dash dot (2x) ____  .  ____  .  ____  .  ___
 72
    65
 73
     4
 40
50.8
 49
25.4
 74
     0
 49
-12.7
 74
     0
 49
0.0
 74
     0
 49
-12.7
 74
     0
  0
LTYPE
  5
78
330
5
100
AcDbSymbolTableRecord
100
AcDbLinetypeTableRecord
  2
DASHDOT
 70
     0
  3
Dash dot __ . __ . __ . __ . __ . __ . __ . __
 72
    65
 73
     4
 40
25.4
 49
12.7
 74
     0
 49
-6.35
 74
     0
 49
0.0
 74
     0
 49
-6.35
 74
     0
  0
LTYPE
  5
79
330
5
100
AcDbSymbolTableRecord
100
AcDbLinetypeTableRecord
  2
DASHDOT2
 70
     0
  3
Dash dot (.5x) _._._._._._._._._._._._._._._.
 72
    65
 73
     4
 40
12.7
 49
6.35
 74
     0
 49
-3.175
 74
     0
 49
0.0
 74
     0
 49
-3.175
 74
     0
  0
LTYPE
  5
7A
330
5
100
AcDbSymbolTableRecord
100
AcDbLinetypeTableRecord
  2
DIVIDEX2
 70
     0
  3
Divide (2x) ________  .  .  ________  .  .  _
 72
    65
 73
     6
 40
63.5
 49
25.4
 74
     0
 49
-12.7
 74
     0
 49
0.0
 74
     0
 49
-12.7
 74
     0
 49
0.0
 74
     0
 49
-12.7
 74
     0
  0
LTYPE
  5
7B
330
5
100
AcDbSymbolTableRecord
100
AcDbLinetypeTableRecord
  2
DIVIDE
 70
     0
  3
Divide ____ . . ____ . . ____ . . ____ . . ____
 72
    65
 73
     6
 40
31.75
 49
12.7
 74
     0
 49
-6.35
 74
     0
 49
0.0
 74
     0
 49
-6.35
 74
     0
 49
0.0
 74
     0
 49
-6.35
 74
     0
  0
LTYPE
  5
7C
330
5
100
AcDbSymbolTableRecord
100
AcDbLinetypeTableRecord
  2
DIVIDE2
 70
     0
  3
Divide (.5x) __..__..__..__..__..__..__..__.._
 72
    65
 73
     6
 40
15.875
 49
6.35
 74
     0
 49
-3.175
 74
     0
 49
0.0
 74
     0
 49
-3.175
 74
     0
 49
0.0
 74
     0
 49
-3.175
 74
     0
  0
LTYPE
  5
7D
330
5
100
AcDbSymbolTableRecord
100
AcDbLinetypeTableRecord
  2
BORDERX2
 70
     0
  3
Border (2x) ____  ____  .  ____  ____  .  ___
 72
    65
 73
     6
 40
88.89999999999999
 49
25.4
 74
     0
 49
-12.7
 74
     0
 49
25.4
 74
     0
 49
-12.7
 74
     0
 49
0.0
 74
     0
 49
-12.7
 74
     0
  0
LTYPE
  5
7E
330
5
100
AcDbSymbolTableRecord
100
AcDbLinetypeTableRecord
  2
BORDER
 70
     0
  3
Border __ __ . __ __ . __ __ . __ __ . __ __ .
 72
    65
 73
     6
 40
44.45
 49
12.7
 74
     0
 49
-6.35
 74
     0
 49
12.7
 74
     0
 49
-6.35
 74
     0
 49
0.0
 74
     0
 49
-6.35
 74
     0
  0
LTYPE
  5
7F
330
5
100
AcDbSymbolTableRecord
100
AcDbLinetypeTableRecord
  2
BORDER2
 70
     0
  3
Border (.5x) __.__.__.__.__.__.__.__.__.__.__.
 72
    65
 73
     6
 40
22.225
 49
6.35
 74
     0
 49
-3.175
 74
     0
 49
6.35
 74
     0
 49
-3.175
 74
     0
 49
0.0
 74
     0
 49
-3.175
 74
     0
  0
LTYPE
  5
80
330
5
100
AcDbSymbolTableRecord
100
AcDbLinetypeTableRecord
  2
PHANTOMX2
 70
     0
  3
Phantom (2x) ____________    ____    ____   _
 72
    65
 73
     6
 40
127.0
 49
63.5
 74
     0
 49
-12.7
 74
     0
 49
12.7
 74
     0
 49
-12.7
 74
     0
 49
12.7
 74
     0
 49
-12.7
 74
     0
  0
LTYPE
  5
81
330
5
100
AcDbSymbolTableRecord
100
AcDbLinetypeTableRecord
  2
PHANTOM
 70
     0
  3
Phantom ______  __  __  ______  __  __  ______ 
 72
    65
 73
     6
 40
63.5
 49
31.75
 74
     0
 49
-6.35
 74
     0
 49
6.35
 74
     0
 49
-6.35
 74
     0
 49
6.35
 74
     0
 49
-6.35
 74
     0
  0
LTYPE
  5
82
330
5
100
AcDbSymbolTableRecord
100
AcDbLinetypeTableRecord
  2
PHANTOM2
 70
     0
  3
Phantom (.5x) ___ _ _ ___ _ _ ___ _ _ ___ _ _
 72
    65
 73
     6
 40
31.75
 49
15.875
 74
     0
 49
-3.175
 74
     0
 49
3.175
 74
     0
 49
-3.175
 74
     0
 49
3.175
 74
     0
 49
-3.175
 74
     0
  0
LTYPE
  5
83
330
5
100
AcDbSymbolTableRecord
100
AcDbLinetypeTableRecord
  2
ACAD_ISO06W100
 70
     0
  3
ISO long-dash triple-dot ____ ... ____ ... ____
 72
    65
 73
     8
 40
36.0
 49
24.0
 74
     0
 49
-3.0
 74
     0
 49
0.0
 74
     0
 49
-3.0
 74
     0
 49
0.0
 74
     0
 49
-3.0
 74
     0
 49
0.0
 74
     0
 49
-3.0
 74
     0
  0
LTYPE
  5
84
330
5
100
AcDbSymbolTableRecord
100
AcDbLinetypeTableRecord
  2
ACAD_ISO13W100
 70
     0
  3
ISO double-dash double-dot __ __ . . __ __ . . _
 72
    65
 73
     8
 40
36.0
 49
12.0
 74
     0
 49
-3.0
 74
     0
 49
12.0
 74
     0
 49
-3.0
 74
     0
 49
0.0
 74
     0
 49
-3.0
 74
     0
 49
0.0
 74
     0
 49
-3.0
 74
     0
  0
LTYPE
  5
85
330
5
100
AcDbSymbolTableRecord
100
AcDbLinetypeTableRecord
  2
ACAD_ISO14W100
 70
     0
  3
ISO dash triple-dot __ . . . __ . . . __ . . . _
 72
    65
 73
     8
 40
24.0
 49
12.0
 74
     0
 49
-3.0
 74
     0
 49
0.0
 74
     0
 49
-3.0
 74
     0
 49
0.0
 74
     0
 49
-3.0
 74
     0
 49
0.0
 74
     0
 49
-3.0
 74
     0
  0
LTYPE
  5
86
330
5
100
AcDbSymbolTableRecord
100
AcDbLinetypeTableRecord
  2
ACAD_ISO02W100
 70
     0
  3
ISO dash __ __ __ __ __ __ __ __ __ __ __ __ __
 72
    65
 73
     2
 40
15.0
 49
12.0
 74
     0
 49
-3.0
 74
     0
  0
LTYPE
  5
87
330
5
100
AcDbSymbolTableRecord
100
AcDbLinetypeTableRecord
  2
ACAD_ISO03W100
 70
     0
  3
ISO dash space __    __    __    __    __    __
 72
    65
 73
     2
 40
30.0
 49
12.0
 74
     0
 49
-18.0
 74
     0
  0
LTYPE
  5
88
330
5
100
AcDbSymbolTableRecord
100
AcDbLinetypeTableRecord
  2
ACAD_ISO04W100
 70
     0
  3
ISO long-dash dot ____ . ____ . ____ . ____ . _
 72
    65
 73
     4
 40
30.0
 49
24.0
 74
     0
 49
-3.0
 74
     0
 49
0.0
 74
     0
 49
-3.0
 74
     0
  0
LTYPE
  5
89
330
5
100
AcDbSymbolTableRecord
100
AcDbLinetypeTableRecord
  2
ACAD_ISO05W100
 70
     0
  3
ISO long-dash double-dot ____ .. ____ .. ____ . 
 72
    65
 73
     6
 40
33.0
 49
24.0
 74
     0
 49
-3.0
 74
     0
 49
0.0
 74
     0
 49
-3.0
 74
     0
 49
0.0
 74
     0
 49
-3.0
 74
     0
  0
LTYPE
  5
8A
330
5
100
AcDbSymbolTableRecord
100
AcDbLinetypeTableRecord
  2
ACAD_ISO07W100
 70
     0
  3
ISO dot . . . . . . . . . . . . . . . . . . . . 
 72
    65
 73
     2
 40
3.0
 49
0.0
 74
     0
 49
-3.0
 74
     0
  0
LTYPE
  5
8B
330
5
100
AcDbSymbolTableRecord
100
AcDbLinetypeTableRecord
  2
ACAD_ISO08W100
 70
     0
  3
ISO long-dash short-dash ____ __ ____ __ ____ _
 72
    65
 73
     4
 40
36.0
 49
24.0
 74
     0
 49
-3.0
 74
     0
 49
6.0
 74
     0
 49
-3.0
 74
     0
  0
LTYPE
  5
8C
330
5
100
AcDbSymbolTableRecord
100
AcDbLinetypeTableRecord
  2
ACAD_ISO09W100
 70
     0
  3
ISO long-dash double-short-dash ____ __ __ ____
 72
    65
 73
     6
 40
45.0
 49
24.0
 74
     0
 49
-3.0
 74
     0
 49
6.0
 74
     0
 49
-3.0
 74
     0
 49
6.0
 74
     0
 49
-3.0
 74
     0
  0
LTYPE
  5
8D
330
5
100
AcDbSymbolTableRecord
100
AcDbLinetypeTableRecord
  2
ACAD_ISO10W100
 70
     0
  3
ISO dash dot __ . __ . __ . __ . __ . __ . __ . 
 72
    65
 73
     4
 40
18.0
 49
12.0
 74
     0
 49
-3.0
 74
     0
 49
0.0
 74
     0
 49
-3.0
 74
     0
  0
LTYPE
  5
8E
330
5
100
AcDbSymbolTableRecord
100
AcDbLinetypeTableRecord
  2
ACAD_ISO11W100
 70
     0
  3
ISO double-dash dot __ __ . __ __ . __ __ . __ _
 72
    65
 73
     6
 40
33.0
 49
12.0
 74
     0
 49
-3.0
 74
     0
 49
12.0
 74
     0
 49
-3.0
 74
     0
 49
0.0
 74
     0
 49
-3.0
 74
     0
  0
LTYPE
  5
8F
330
5
100
AcDbSymbolTableRecord
100
AcDbLinetypeTableRecord
  2
ACAD_ISO12W100
 70
     0
  3
ISO dash double-dot __ . . __ . . __ . . __ . . 
 72
    65
 73
     6
 40
21.0
 49
12.0
 74
     0
 49
-3.0
 74
     0
 49
0.0
 74
     0
 49
-3.0
 74
     0
 49
0.0
 74
     0
 49
-3.0
 74
     0
  0
LTYPE
  5
90
330
5
100
AcDbSymbolTableRecord
100
AcDbLinetypeTableRecord
  2
ACAD_ISO15W100
 70
     0
  3
ISO double-dash triple-dot __ __ . . . __ __ . .
 72
    65
 73
    10
 40
39.0
 49
12.0
 74
     0
 49
-3.0
 74
     0
 49
12.0
 74
     0
 49
-3.0
 74
     0
 49
0.0
 74
     0
 49
-3.0
 74
     0
 49
0.0
 74
     0
 49
-3.0
 74
     0
 49
0.0
 74
     0
 49
-3.0
 74
     0
  0
LTYPE
  5
91
330
5
100
AcDbSymbolTableRecord
100
AcDbLinetypeTableRecord
  2
JIS_02_0_7
 70
     0
  3
HIDDEN0.75 _ _ _ _ _ _ _ _ _ _ _ _ _ _ _ _ _ 
 72
    65
 73
     2
 40
1.35
 49
0.75
 74
     0
 49
-0.6
 74
     0
  0
LTYPE
  5
92
330
5
100
AcDbSymbolTableRecord
100
AcDbLinetypeTableRecord
  2
JIS_02_1_0
 70
     0
  3
HIDDEN01 _ _ _ _ _ _ _ _ _ _ _ _ _ _ _ _ _ 
 72
    65
 73
     2
 40
2.0
 49
1.0
 74
     0
 49
-1.0
 74
     0
  0
LTYPE
  5
93
330
5
100
AcDbSymbolTableRecord
100
AcDbLinetypeTableRecord
  2
JIS_02_1_2
 70
     0
  3
HIDDEN01.25  _ _ _ _ _ _ _ _ _ _ _ _ _ _ _ _ _ 
 72
    65
 73
     2
 40
2.5
 49
1.25
 74
     0
 49
-1.25
 74
     0
  0
LTYPE
  5
94
330
5
100
AcDbSymbolTableRecord
100
AcDbLinetypeTableRecord
  2
JIS_02_2_0
 70
     0
  3
HIDDEN02 __ __ __ __ __ __ __ __ __ __ __ 
 72
    65
 73
     2
 40
3.0
 49
2.0
 74
     0
 49
-1.0
 74
     0
  0
LTYPE
  5
95
330
5
100
AcDbSymbolTableRecord
100
AcDbLinetypeTableRecord
  2
JIS_02_4_0
 70
     0
  3
HIDDEN04 ____ ____ ____ ____ ____ ____ ____ 
 72
    65
 73
     2
 40
5.5
 49
4.0
 74
     0
 49
-1.5
 74
     0
  0
LTYPE
  5
96
330
5
100
AcDbSymbolTableRecord
100
AcDbLinetypeTableRecord
  2
JIS_08_11
 70
     0
  3
1SASEN11 ___ _ ___ _ ___ _ ___ _ ___ _ ___
 72
    65
 73
     4
 40
12.8
 49
11.0
 74
     0
 49
-0.6
 74
     0
 49
0.6
 74
     0
 49
-0.6
 74
     0
  0
LTYPE
  5
97
330
5
100
AcDbSymbolTableRecord
100
AcDbLinetypeTableRecord
  2
JIS_08_15
 70
     0
  3
1SASEN15 ____ _ ____ _ ____ _ ____ _ ____ 
 72
    65
 73
     4
 40
17.25
 49
15.0
 74
     0
 49
-0.75
 74
     0
 49
0.75
 74
     0
 49
-0.75
 74
     0
  0
LTYPE
  5
98
330
5
100
AcDbSymbolTableRecord
100
AcDbLinetypeTableRecord
  2
JIS_08_25
 70
     0
  3
1SASEN25 ________  __  ________  __  _____
 72
    65
 73
     4
 40
28.0
 49
25.0
 74
     0
 49
-1.125
 74
     0
 49
0.75
 74
     0
 49
-1.125
 74
     0
  0
LTYPE
  5
99
330
5
100
AcDbSymbolTableRecord
100
AcDbLinetypeTableRecord
  2
JIS_08_37
 70
     0
  3
1SASEN37 ________  __  ________  __  _____
 72
    65
 73
     4
 40
40.5
 49
37.5
 74
     0
 49
-1.125
 74
     0
 49
0.75
 74
     0
 49
-1.125
 74
     0
  0
LTYPE
  5
9A
330
5
100
AcDbSymbolTableRecord
100
AcDbLinetypeTableRecord
  2
JIS_08_50
 70
     0
  3
1SASEN50 _______________  __  ____________
 72
    65
 73
     4
 40
53.0
 49
50.0
 74
     0
 49
-1.125
 74
     0
 49
0.75
 74
     0
 49
-1.125
 74
     0
  0
LTYPE
  5
9B
330
5
100
AcDbSymbolTableRecord
100
AcDbLinetypeTableRecord
  2
JIS_09_08
 70
     0
  3
2SASEN8 __ _ _ __ _ _ __ _ _ __ _ _ __ _ _ 
 72
    65
 73
     6
 40
10.75
 49
8.0
 74
     0
 49
-0.55
 74
     0
 49
0.55
 74
     0
 49
-0.55
 74
     0
 49
0.55
 74
     0
 49
-0.55
 74
     0
  0
LTYPE
  5
9C
330
5
100
AcDbSymbolTableRecord
100
AcDbLinetypeTableRecord
  2
JIS_09_15
 70
     0
  3
2SASEN15 ___ _ _ ___ _ _ ___ _ _ ___ _ _ ___ 
 72
    65
 73
     6
 40
18.9
 49
15.0
 74
     0
 49
-0.9
 74
     0
 49
0.6
 74
     0
 49
-0.9
 74
     0
 49
0.6
 74
     0
 49
-0.9
 74
     0
  0
LTYPE
  5
9D
330
5
100
AcDbSymbolTableRecord
100
AcDbLinetypeTableRecord
  2
JIS_09_29
 70
     0
  3
2SASEN29 ______　__  __  ______　__  __  ___
 72
    65
 73
     6
 40
34.0
 49
29.0
 74
     0
 49
-1.2
 74
     0
 49
0.7
 74
     0
 49
-1.2
 74
     0
 49
0.7
 74
     0
 49
-1.2
 74
     0
  0
LTYPE
  5
9E
330
5
100
AcDbSymbolTableRecord
100
AcDbLinetypeTableRecord
  2
JIS_09_50
 70
     0
  3
2SASEN50 ____________　__  __  _____________
 72
    65
 73
     6
 40
55.0
 49
50.0
 74
     0
 49
-1.2
 74
     0
 49
0.7
 74
     0
 49
-1.2
 74
     0
 49
0.7
 74
     0
 49
-1.2
 74
     0
  0
LTYPE
  5
9F
330
5
100
AcDbSymbolTableRecord
100
AcDbLinetypeTableRecord
  2
SXF_破線
 70
     0
  3
02 dashed -- -- -- -- -- --
 72
    65
 73
     2
 40
7.5
 49
6.0
 74
     0
 49
-1.5
 74
     0
  0
LTYPE
  5
A0
330
5
100
AcDbSymbolTableRecord
100
AcDbLinetypeTableRecord
  2
SXF_跳び破線
 70
     0
  3
03 dashed_spaced --  --  --  --
 72
    65
 73
     2
 40
12.0
 49
6.0
 74
     0
 49
-6.0
 74
     0
  0
LTYPE
  5
A1
330
5
100
AcDbSymbolTableRecord
100
AcDbLinetypeTableRecord
  2
SXF_一点長鎖線
 70
     0
  3
04 long_dashed_dotted ---- . ---- . ----
 72
    65
 73
     4
 40
15.25
 49
12.0
 74
     0
 49
-1.5
 74
     0
 49
0.25
 74
     0
 49
-1.5
 74
     0
  0
LTYPE
  5
A2
330
5
100
AcDbSymbolTableRecord
100
AcDbLinetypeTableRecord
  2
SXF_二点長鎖線
 70
     0
  3
05 long_dashed_double-dotted ---- . . ---- 
 72
    65
 73
     6
 40
17.0
 49
12.0
 74
     0
 49
-1.5
 74
     0
 49
0.25
 74
     0
 49
-1.5
 74
     0
 49
0.25
 74
     0
 49
-1.5
 74
     0
  0
LTYPE
  5
A3
330
5
100
AcDbSymbolTableRecord
100
AcDbLinetypeTableRecord
  2
SXF_三点長鎖線
 70
     0
  3
06 long_dashed_triplicate-dotted ---- ... ---- 
 72
    65
 73
     8
 40
18.75
 49
12.0
 74
     0
 49
-1.5
 74
     0
 49
0.25
 74
     0
 49
-1.5
 74
     0
 49
0.25
 74
     0
 49
-1.5
 74
     0
 49
0.25
 74
     0
 49
-1.5
 74
     0
  0
LTYPE
  5
A4
330
5
100
AcDbSymbolTableRecord
100
AcDbLinetypeTableRecord
  2
SXF_点線
 70
     0
  3
07 dotted . . . . . . . . . . . . 
 72
    65
 73
     2
 40
1.75
 49
0.25
 74
     0
 49
-1.5
 74
     0
  0
LTYPE
  5
A5
330
5
100
AcDbSymbolTableRecord
100
AcDbLinetypeTableRecord
  2
SXF_一点鎖線
 70
     0
  3
08 chain ---- - --- - --- - ---
 72
    65
 73
     4
 40
18.5
 49
12.0
 74
     0
 49
-1.5
 74
     0
 49
3.5
 74
     0
 49
-1.5
 74
     0
  0
LTYPE
  5
A6
330
5
100
AcDbSymbolTableRecord
100
AcDbLinetypeTableRecord
  2
SXF_二点鎖線
 70
     0
  3
09 chain_double_dash ---- - - ---- - - ----
 72
    65
 73
     6
 40
23.5
 49
12.0
 74
     0
 49
-1.5
 74
     0
 49
3.5
 74
     0
 49
-1.5
 74
     0
 49
3.5
 74
     0
 49
-1.5
 74
     0
  0
LTYPE
  5
A7
330
5
100
AcDbSymbolTableRecord
100
AcDbLinetypeTableRecord
  2
SXF_一点短鎖線
 70
     0
  3
10 dashed_dotted -- . -- . -- . --
 72
    65
 73
     4
 40
9.25
 49
6.0
 74
     0
 49
-1.5
 74
     0
 49
0.25
 74
     0
 49
-1.5
 74
     0
  0
LTYPE
  5
A8
330
5
100
AcDbSymbolTableRecord
100
AcDbLinetypeTableRecord
  2
SXF_一点二短鎖線
 70
     0
  3
11 double-dashed_dotted -- -- . -- --
 72
    65
 73
     6
 40
16.75
 49
6.0
 74
     0
 49
-1.5
 74
     0
 49
6.0
 74
     0
 49
-1.5
 74
     0
 49
0.25
 74
     0
 49
-1.5
 74
     0
  0
LTYPE
  5
A9
330
5
100
AcDbSymbolTableRecord
100
AcDbLinetypeTableRecord
  2
SXF_二点短鎖線
 70
     0
  3
12 dashed_double_dotted -- . . -- . . --
 72
    65
 73
     6
 40
11.0
 49
6.0
 74
     0
 49
-1.5
 74
     0
 49
0.25
 74
     0
 49
-1.5
 74
     0
 49
0.25
 74
     0
 49
-1.5
 74
     0
  0
LTYPE
  5
AA
330
5
100
AcDbSymbolTableRecord
100
AcDbLinetypeTableRecord
  2
SXF_二点二短鎖線
 70
     0
  3
13 double-dashed_double-dotted -- -- . . -- --
 72
    65
 73
     8
 40
18.5
 49
6.0
 74
     0
 49
-1.5
 74
     0
 49
6.0
 74
     0
 49
-1.5
 74
     0
 49
0.25
 74
     0
 49
-1.5
 74
     0
 49
0.25
 74
     0
 49
-1.5
 74
     0
  0
LTYPE
  5
AB
330
5
100
AcDbSymbolTableRecord
100
AcDbLinetypeTableRecord
  2
SXF_三点短鎖線
 70
     0
  3
14 dashed triplicate-dotted -- . . . -- . . . --
 72
    65
 73
     8
 40
12.75
 49
6.0
 74
     0
 49
-1.5
 74
     0
 49
0.25
 74
     0
 49
-1.5
 74
     0
 49
0.25
 74
     0
 49
-1.5
 74
     0
 49
0.25
 74
     0
 49
-1.5
 74
     0
  0
LTYPE
  5
AC
330
5
100
AcDbSymbolTableRecord
100
AcDbLinetypeTableRecord
  2
SXF_三点二短鎖線
 70
     0
  3
15 double-dashed triplicate-dotted -- -- . . . -- -- 
 72
    65
 73
    10
 40
20.25
 49
6.0
 74
     0
 49
-1.5
 74
     0
 49
6.0
 74
     0
 49
-1.5
 74
     0
 49
0.25
 74
     0
 49
-1.5
 74
     0
 49
0.25
 74
     0
 49
-1.5
 74
     0
 49
0.25
 74
     0
 49
-1.5
 74
     0
  0
ENDTAB
  0
TABLE
  2
LAYER
  5
2
330
0
100
AcDbSymbolTable
 70
     2
  0
LAYER
  5
10
330
2
100
AcDbSymbolTableRecord
100
AcDbLayerTableRecord
  2
0
 70
     0
 62
     7
  6
CONTINUOUS
  0
LAYER
  5
AD
330
2
100
AcDbSymbolTableRecord
100
AcDbLayerTableRecord
  2
SLD-0
 70
     0
 62
     7
  6
CONTINUOUS
  0
ENDTAB
  0
TABLE
  2
STYLE
  5
3
330
0
100
AcDbSymbolTable
 70
     2
  0
STYLE
  5
11
330
3
100
AcDbSymbolTableRecord
100
AcDbTextStyleTableRecord
  2
STANDARD
 70
     0
 40
0.0
 41
1.0
 50
0.0
 71
     0
 42
0.2
  3
txt.shx
  4
bigfont.shx
  0
STYLE
  5
4BC
330
3
100
AcDbSymbolTableRecord
100
AcDbTextStyleTableRecord
  2
DCSTYLE0
 70
     0
 40
0.0
 41
0.4199999999999998
 50
0.0
 71
     0
 42
0.2
  3
txt.shx
  4
bigfont
  0
ENDTAB
  0
TABLE
  2
VIEW
  5
6
330
0
100
AcDbSymbolTable
 70
     0
  0
ENDTAB
  0
TABLE
  2
UCS
  5
7
330
0
100
AcDbSymbolTable
 70
     0
  0
ENDTAB
  0
TABLE
  2
APPID
  5
9
330
0
100
AcDbSymbolTable
 70
     2
  0
APPID
  5
12
330
9
100
AcDbSymbolTableRecord
100
AcDbRegAppTableRecord
  2
ACAD
 70
     0
  0
APPID
  5
6A
330
9
100
AcDbSymbolTableRecord
100
AcDbRegAppTableRecord
  2
DAFUSIONOUT
 70
     0
  0
ENDTAB
  0
TABLE
  2
DIMSTYLE
  5
A
330
0
100
AcDbSymbolTable
 70
     1
  0
DIMSTYLE
105
27
330
A
100
AcDbSymbolTableRecord
100
AcDbDimStyleTableRecord
  2
STANDARD
 70
     0
  3

  4

  5

  6

  7

 40
1.0
 41
0.18
 42
0.0625
 43
0.38
 44
0.18
 45
0.0
 46
0.0
 47
0.0
 48
0.0
140
0.18
141
0.09
142
0.0
143
25.4
144
1.0
145
0.0
146
1.0
147
0.09
 71
     0
 72
     0
 73
     1
 74
     1
 75
     0
 76
     0
 77
     0
 78
     0
170
     0
171
     2
172
     0
173
     0
174
     0
175
     0
176
     0
177
     0
178
     0
270
     2
271
     4
272
     4
273
     2
274
     2
340
11
275
     0
280
     0
281
     0
282
     0
283
     1
284
     0
285
     0
286
     0
287
     3
288
     0
  0
ENDTAB
  0
TABLE
  2
BLOCK_RECORD
  5
1
330
0
100
AcDbSymbolTable
 70
     1
  0
BLOCK_RECORD
  5
1F
330
1
100
AcDbSymbolTableRecord
100
AcDbBlockTableRecord
  2
*MODEL_SPACE
  0
BLOCK_RECORD
  5
1B
330
1
100
AcDbSymbolTableRecord
100
AcDbBlockTableRecord
  2
*PAPER_SPACE
  0
ENDTAB
  0
ENDSEC
  0
SECTION
  2
BLOCKS
  0
BLOCK
  5
20
330
1F
100
AcDbEntity
  8
0
100
AcDbBlockBegin
  2
*MODEL_SPACE
 70
     0
 10
0.0
 20
0.0
 30
0.0
  3
*MODEL_SPACE
  1

  0
ENDBLK
  5
21
330
1F
100
AcDbEntity
  8
0
100
AcDbBlockEnd
  0
BLOCK
  5
1C
330
1B
100
AcDbEntity
 67
     1
  8
0
100
AcDbBlockBegin
  2
*PAPER_SPACE
 70
     0
 10
0.0
 20
0.0
 30
0.0
  3
*PAPER_SPACE
  1

  0
ENDBLK
  5
1D
330
1B
100
AcDbEntity
 67
     1
  8
0
100
AcDbBlockEnd
  0
ENDSEC
  0
SECTION
  2
ENTITIES
  0
LINE
  5
AF
330
1F
100
AcDbEntity
  8
SLD-0
  6
CONTINUOUS
 62
     7
100
AcDbLine
 10
-112.3431475772
 20
-78.54188398065
 30
0.0
 11
-112.3431475772
 21
-22.34188445454998
 31
0.0
  0
LINE
  5
B0
330
1F
100
AcDbEntity
  8
SLD-0
  6
CONTINUOUS
 62
     7
100
AcDbLine
 10
-112.3431475772
 20
-22.34188445454998
 30
0.0
 11
-116.0431475783
 21
-22.34188445454998
 31
0.0
  0
LINE
  5
B1
330
1F
100
AcDbEntity
  8
SLD-0
  6
CONTINUOUS
 62
     7
100
AcDbLine
 10
-116.0431475783
 20
-22.34188445454998
 30
0.0
 11
-116.0431475783
 21
-78.54188398065
 31
0.0
  0
LINE
  5
B2
330
1F
100
AcDbEntity
  8
SLD-0
  6
CONTINUOUS
 62
     7
100
AcDbLine
 10
-116.0431475783
 20
-78.54188398065
 30
0.0
 11
-112.3431475772
 21
-78.54188398065
 31
0.0
  0
LINE
  5
B3
330
1F
100
AcDbEntity
  8
SLD-0
  6
CONTINUOUS
 62
     7
100
AcDbLine
 10
-116.9859962002
 20
-17.09188440985
 30
0.0
 11
-111.4003001176
 21
-17.09188440985
 31
0.0
  0
LINE
  5
B4
330
1F
100
AcDbEntity
  8
SLD-0
  6
CONTINUOUS
 62
     7
100
AcDbLine
 10
-111.4002999954
 20
-89.19188358425
 30
0.0
 11
-116.985996078
 21
-89.19188358425
 31
0.0
  0
LINE
  5
B5
330
1F
100
AcDbEntity
  8
SLD-0
  6
CONTINUOUS
 62
     7
100
AcDbLine
 10
-105.1431478072
 20
-88.69188234155
 30
0.0
 11
-105.1431478072
 21
-17.59188577474998
 31
0.0
  0
LINE
  5
B6
330
1F
100
AcDbEntity
  8
SLD-0
  6
CONTINUOUS
 62
     7
100
AcDbLine
 10
-123.2431480367
 20
-17.59188600425
 30
0.0
 11
-123.2431480367
 21
-88.69188428765
 31
0.0
  0
LINE
  5
B7
330
1F
100
AcDbEntity
  8
SLD-0
  6
CONTINUOUS
 62
     7
100
AcDbLine
 10
-122.7431480367
 20
-89.19188428765
 30
0.0
 11
-116.985996078
 21
-89.19188358425
 31
0.0
  0
LINE
  5
B8
330
1F
100
AcDbEntity
  8
SLD-0
  6
CONTINUOUS
 62
     7
100
AcDbLine
 10
-111.4002999954
 20
-89.19188358425
 30
0.0
 11
-105.6431480367
 21
-89.19188428765
 31
0.0
  0
LINE
  5
B9
330
1F
100
AcDbEntity
  8
SLD-0
  6
CONTINUOUS
 62
     7
100
AcDbLine
 10
-105.6431477819
 20
-17.09188440985
 30
0.0
 11
-111.4003001176
 21
-17.09188440985
 31
0.0
  0
LINE
  5
BA
330
1F
100
AcDbEntity
  8
SLD-0
  6
CONTINUOUS
 62
     7
100
AcDbLine
 10
-116.9859962002
 20
-17.09188440985
 30
0.0
 11
-122.7431485359
 21
-17.09188440985
 31
0.0
  0
LINE
  5
BB
330
1F
100
AcDbEntity
  8
SLD-0
  6
CONTINUOUS
 62
     7
100
AcDbLine
 10
-110.6931474697
 20
-89.19188358425
 30
0.0
 11
-110.6931474697
 21
-89.39188324455
 31
0.0
  0
LINE
  5
BC
330
1F
100
AcDbEntity
  8
SLD-0
  6
CONTINUOUS
 62
     7
100
AcDbLine
 10
-117.6931476858
 20
-89.39188324455
 30
0.0
 11
-117.6931476858
 21
-89.19188358425
 31
0.0
  0
LINE
  5
BD
330
1F
100
AcDbEntity
  8
SLD-0
  6
CONTINUOUS
 62
     7
100
AcDbLine
 10
-110.6931474697
 20
-17.09188499095001
 30
0.0
 11
-110.6931474697
 21
-16.89188533064998
 31
0.0
  0
LINE
  5
BE
330
1F
100
AcDbEntity
  8
SLD-0
  6
CONTINUOUS
 62
     7
100
AcDbLine
 10
-117.6931476858
 20
-16.89188533064998
 30
0.0
 11
-117.6931476858
 21
-17.09188499095001
 31
0.0
  0
LINE
  5
BF
330
1F
100
AcDbEntity
  8
SLD-0
  6
CONTINUOUS
 62
     7
100
AcDbLine
 10
-110.6931474697
 20
-16.89188533064998
 30
0.0
 11
-110.6931474697
 21
-16.69188567045001
 31
0.0
  0
LINE
  5
C0
330
1F
100
AcDbEntity
  8
SLD-0
  6
CONTINUOUS
 62
     7
100
AcDbLine
 10
-117.6931476858
 20
-16.69188567045001
 30
0.0
 11
-117.6931476858
 21
-16.89188533064998
 31
0.0
  0
LINE
  5
C1
330
1F
100
AcDbEntity
  8
SLD-0
  6
CONTINUOUS
 62
     7
100
AcDbLine
 10
-110.6931474697
 20
-89.39188324455
 30
0.0
 11
-110.6931474697
 21
-89.59188290475
 31
0.0
  0
LINE
  5
C2
330
1F
100
AcDbEntity
  8
SLD-0
  6
CONTINUOUS
 62
     7
100
AcDbLine
 10
-117.6931476858
 20
-89.59188290475
 30
0.0
 11
-117.6931476858
 21
-89.39188324455
 31
0.0
  0
LINE
  5
C3
330
1F
100
AcDbEntity
  8
SLD-0
  6
CONTINUOUS
 62
     7
100
AcDbLine
 10
-110.6931474697
 20
-89.99188595055
 30
0.0
 11
-117.6931476858
 21
-89.99188595055
 31
0.0
  0
LINE
  5
C4
330
1F
100
AcDbEntity
  8
SLD-0
  6
CONTINUOUS
 62
     7
100
AcDbLine
 10
-110.6931474697
 20
-89.79188256505
 30
0.0
 11
-110.6931474697
 21
-89.99188595055
 31
0.0
  0
LINE
  5
C5
330
1F
100
AcDbEntity
  8
SLD-0
  6
CONTINUOUS
 62
     7
100
AcDbLine
 10
-117.6931476858
 20
-89.99188595055
 30
0.0
 11
-117.6931476858
 21
-89.79188256505
 31
0.0
  0
LINE
  5
C6
330
1F
100
AcDbEntity
  8
SLD-0
  6
CONTINUOUS
 62
     7
100
AcDbLine
 10
-117.6931476858
 20
-16.29188262464999
 30
0.0
 11
-110.6931474697
 21
-16.29188262464999
 31
0.0
  0
LINE
  5
C7
330
1F
100
AcDbEntity
  8
SLD-0
  6
CONTINUOUS
 62
     7
100
AcDbLine
 10
-110.6931474697
 20
-16.29188262464999
 30
0.0
 11
-110.6931474697
 21
-16.49188601014998
 31
0.0
  0
LINE
  5
C8
330
1F
100
AcDbEntity
  8
SLD-0
  6
CONTINUOUS
 62
     7
100
AcDbLine
 10
-117.6931476858
 20
-16.49188601014998
 30
0.0
 11
-117.6931476858
 21
-16.29188262464999
 31
0.0
  0
LINE
  5
C9
330
1F
100
AcDbEntity
  8
SLD-0
  6
CONTINUOUS
 62
     7
100
AcDbLine
 10
-110.6931474697
 20
-89.59188290475
 30
0.0
 11
-110.6931474697
 21
-89.79188256505
 31
0.0
  0
LINE
  5
CA
330
1F
100
AcDbEntity
  8
SLD-0
  6
CONTINUOUS
 62
     7
100
AcDbLine
 10
-117.6931476858
 20
-89.79188256505
 30
0.0
 11
-117.6931476858
 21
-89.59188290475
 31
0.0
  0
LINE
  5
CB
330
1F
100
AcDbEntity
  8
SLD-0
  6
CONTINUOUS
 62
     7
100
AcDbLine
 10
-110.6931474697
 20
-16.69188567045001
 30
0.0
 11
-110.6931474697
 21
-16.49188601014998
 31
0.0
  0
LINE
  5
CC
330
1F
100
AcDbEntity
  8
SLD-0
  6
CONTINUOUS
 62
     7
100
AcDbLine
 10
-117.6931476858
 20
-16.49188601014998
 30
0.0
 11
-117.6931476858
 21
-16.69188567045001
 31
0.0
  0
LINE
  5
CD
330
1F
100
AcDbEntity
  8
SLD-0
  6
CONTINUOUS
 62
     7
100
AcDbLine
 10
-52.56581697039999
 20
-22.49077313185001
 30
0.0
 11
-52.56581697039999
 21
-78.39299530324999
 31
0.0
  0
LINE
  5
CE
330
1F
100
AcDbEntity
  8
SLD-0
  6
CONTINUOUS
 62
     7
100
AcDbLine
 10
-51.3607132656
 20
-88.64188544985
 30
0.0
 11
-51.3607132656
 21
-17.64188312524999
 31
0.0
  0
LINE
  5
CF
330
1F
100
AcDbEntity
  8
SLD-0
  6
CONTINUOUS
 62
     7
100
AcDbLine
 10
-51.3607132656
 20
-89.13677909005
 30
0.0
 11
-51.3607132656
 21
-88.64188544985
 31
0.0
  0
LINE
  5
D0
330
1F
100
AcDbEntity
  8
SLD-0
  6
CONTINUOUS
 62
     7
100
AcDbLine
 10
-51.87890533710001
 20
-89.12321158284999
 30
0.0
 11
-51.3607132656
 21
-89.13677909005
 31
0.0
  0
LINE
  5
D1
330
1F
100
AcDbEntity
  8
SLD-0
  6
CONTINUOUS
 62
     7
100
AcDbLine
 10
-51.87890533710001
 20
-17.16055699235
 30
0.0
 11
-51.3607132656
 21
-17.14698948505
 31
0.0
  0
LINE
  5
D2
330
1F
100
AcDbEntity
  8
SLD-0
  6
CONTINUOUS
 62
     7
100
AcDbLine
 10
-51.3607132656
 20
-17.64188312524999
 30
0.0
 11
-51.3607132656
 21
-17.14698948505
 31
0.0
  0
LINE
  5
D3
330
1F
100
AcDbEntity
  8
SLD-0
  6
CONTINUOUS
 62
     7
100
AcDbLine
 10
-51.16581678739999
 20
-88.94188307754999
 30
0.0
 11
-51.3607132656
 21
-89.13677909005
 31
0.0
  0
LINE
  5
D4
330
1F
100
AcDbEntity
  8
SLD-0
  6
CONTINUOUS
 62
     7
100
AcDbLine
 10
-51.3607132656
 20
-17.14698948505
 30
0.0
 11
-51.16581678739999
 21
-17.34188549755001
 31
0.0
  0
LINE
  5
D5
330
1F
100
AcDbEntity
  8
SLD-0
  6
CONTINUOUS
 62
     7
100
AcDbLine
 10
-52.3658168444
 20
-88.62338193295
 30
0.0
 11
-52.3658168444
 21
-17.66038664224999
 31
0.0
  0
LINE
  5
D6
330
1F
100
AcDbEntity
  8
SLD-0
  6
CONTINUOUS
 62
     7
100
AcDbLine
 10
-52.56581697039999
 20
-22.49077313185001
 30
0.0
 11
-52.5627785305
 21
-22.49066696105001
 31
0.0
  0
LINE
  5
D7
330
1F
100
AcDbEntity
  8
SLD-0
  6
CONTINUOUS
 62
     7
100
AcDbLine
 10
-52.5627785305
 20
-22.49066696105001
 30
0.0
 11
-52.5537554117
 21
-22.49035217405
 31
0.0
  0
LINE
  5
D8
330
1F
100
AcDbEntity
  8
SLD-0
  6
CONTINUOUS
 62
     7
100
AcDbLine
 10
-52.5537554117
 20
-22.49035217405
 30
0.0
 11
-52.53902188859999
 21
-22.48983808405001
 31
0.0
  0
LINE
  5
D9
330
1F
100
AcDbEntity
  8
SLD-0
  6
CONTINUOUS
 62
     7
100
AcDbLine
 10
-52.53902188859999
 20
-22.48983808405001
 30
0.0
 11
-52.51902546159999
 21
-22.48913959205001
 31
0.0
  0
LINE
  5
DA
330
1F
100
AcDbEntity
  8
SLD-0
  6
CONTINUOUS
 62
     7
100
AcDbLine
 10
-52.51902546159999
 20
-22.48913959205001
 30
0.0
 11
-52.49437428429999
 21
-22.48827905005001
 31
0.0
  0
LINE
  5
DB
330
1F
100
AcDbEntity
  8
SLD-0
  6
CONTINUOUS
 62
     7
100
AcDbLine
 10
-52.49437428429999
 20
-22.48827905005001
 30
0.0
 11
-52.46581667460001
 21
-22.48728067224999
 31
0.0
  0
LINE
  5
DC
330
1F
100
AcDbEntity
  8
SLD-0
  6
CONTINUOUS
 62
     7
100
AcDbLine
 10
-52.46581667460001
 20
-22.48728067224999
 30
0.0
 11
-52.43422085770001
 21
-22.48617798625
 31
0.0
  0
LINE
  5
DD
330
1F
100
AcDbEntity
  8
SLD-0
  6
CONTINUOUS
 62
     7
100
AcDbLine
 10
-52.43422085770001
 20
-22.48617798625
 30
0.0
 11
-52.40054632889999
 21
-22.48500265715001
 31
0.0
  0
LINE
  5
DE
330
1F
100
AcDbEntity
  8
SLD-0
  6
CONTINUOUS
 62
     7
100
AcDbLine
 10
-52.40054632889999
 20
-22.48500265715001
 30
0.0
 11
-52.3658168444
 21
-22.48379007525
 31
0.0
  0
LINE
  5
DF
330
1F
100
AcDbEntity
  8
SLD-0
  6
CONTINUOUS
 62
     7
100
AcDbLine
 10
-52.3658168444
 20
-78.39998022265
 30
0.0
 11
-52.40256660040001
 21
-78.39869686005
 31
0.0
  0
LINE
  5
E0
330
1F
100
AcDbEntity
  8
SLD-0
  6
CONTINUOUS
 62
     7
100
AcDbLine
 10
-52.40256660040001
 20
-78.39869686005
 30
0.0
 11
-52.43806512450001
 21
-78.39745633845
 31
0.0
  0
LINE
  5
E1
330
1F
100
AcDbEntity
  8
SLD-0
  6
CONTINUOUS
 62
     7
100
AcDbLine
 10
-52.43806512450001
 20
-78.39745633845
 30
0.0
 11
-52.47110332720001
 21
-78.39630336105
 31
0.0
  0
LINE
  5
E2
330
1F
100
AcDbEntity
  8
SLD-0
  6
CONTINUOUS
 62
     7
100
AcDbLine
 10
-52.47110332720001
 20
-78.39630336105
 30
0.0
 11
-52.5005559379
 21
-78.39527331835
 31
0.0
  0
LINE
  5
E3
330
1F
100
AcDbEntity
  8
SLD-0
  6
CONTINUOUS
 62
     7
100
AcDbLine
 10
-52.5005559379
 20
-78.39527331835
 30
0.0
 11
-52.52542038800001
 21
-78.39440532565
 31
0.0
  0
LINE
  5
E4
330
1F
100
AcDbEntity
  8
SLD-0
  6
CONTINUOUS
 62
     7
100
AcDbLine
 10
-52.52542038800001
 20
-78.39440532565
 30
0.0
 11
-52.54484963960002
 21
-78.39372732285
 31
0.0
  0
LINE
  5
E5
330
1F
100
AcDbEntity
  8
SLD-0
  6
CONTINUOUS
 62
     7
100
AcDbLine
 10
-52.54484963960002
 20
-78.39372732285
 30
0.0
 11
-52.55818198790001
 21
-78.39326166155
 31
0.0
  0
LINE
  5
E6
330
1F
100
AcDbEntity
  8
SLD-0
  6
CONTINUOUS
 62
     7
100
AcDbLine
 10
-52.55818198790001
 20
-78.39326166155
 30
0.0
 11
-52.56496341319999
 21
-78.39302510565
 31
0.0
  0
LINE
  5
E7
330
1F
100
AcDbEntity
  8
SLD-0
  6
CONTINUOUS
 62
     7
100
AcDbLine
 10
57.5753429449
 20
-56.48188191305
 30
0.0
 11
57.5753429449
 21
-55.68188187505
 31
0.0
  0
LINE
  5
E8
330
1F
100
AcDbEntity
  8
SLD-0
  6
CONTINUOUS
 62
     7
100
AcDbLine
 10
59.13418321969999
 20
-56.98188176225
 30
0.0
 11
59.13418321969999
 21
-55.68188187505
 31
0.0
  0
LINE
  5
E9
330
1F
100
AcDbEntity
  8
SLD-0
  6
CONTINUOUS
 62
     7
100
AcDbLine
 10
57.5753429449
 20
-55.68188187505
 30
0.0
 11
59.13418321969999
 21
-55.68188187505
 31
0.0
  0
LINE
  5
EA
330
1F
100
AcDbEntity
  8
SLD-0
  6
CONTINUOUS
 62
     7
100
AcDbLine
 10
59.1341809427
 20
-83.14188292864999
 30
0.0
 11
59.13418321969999
 21
-81.84188359925
 31
0.0
  0
LINE
  5
EB
330
1F
100
AcDbEntity
  8
SLD-0
  6
CONTINUOUS
 62
     7
100
AcDbLine
 10
57.57534066790001
 20
-83.14188292864999
 30
0.0
 11
57.57534066790001
 21
-82.34188428765
 31
0.0
  0
LINE
  5
EC
330
1F
100
AcDbEntity
  8
SLD-0
  6
CONTINUOUS
 62
     7
100
AcDbLine
 10
59.1341809427
 20
-83.14188292864999
 30
0.0
 11
57.57534066790001
 21
-83.14188292864999
 31
0.0
  0
LINE
  5
ED
330
1F
100
AcDbEntity
  8
SLD-0
  6
CONTINUOUS
 62
     7
100
AcDbLine
 10
59.13418321969999
 20
-79.84188343825
 30
0.0
 11
59.13418321969999
 21
-78.03188409155
 31
0.0
  0
LINE
  5
EE
330
1F
100
AcDbEntity
  8
SLD-0
  6
CONTINUOUS
 62
     7
100
AcDbLine
 10
53.89302894650001
 20
-78.03188324275
 30
0.0
 11
53.89302894650001
 21
-76.03188291485
 31
0.0
  0
LINE
  5
EF
330
1F
100
AcDbEntity
  8
SLD-0
  6
CONTINUOUS
 62
     7
100
AcDbLine
 10
59.13418321969999
 20
-76.03188291485
 30
0.0
 11
59.13418321969999
 21
-74.22188356814999
 31
0.0
  0
LINE
  5
F0
330
1F
100
AcDbEntity
  8
SLD-0
  6
CONTINUOUS
 62
     7
100
AcDbLine
 10
53.89302894650001
 20
-74.22188304475
 30
0.0
 11
53.89302894650001
 21
-72.22188271694999
 31
0.0
  0
LINE
  5
F1
330
1F
100
AcDbEntity
  8
SLD-0
  6
CONTINUOUS
 62
     7
100
AcDbLine
 10
59.13418321969999
 20
-72.22188186945
 30
0.0
 11
59.13418321969999
 21
-70.41188252265
 31
0.0
  0
LINE
  5
F2
330
1F
100
AcDbEntity
  8
SLD-0
  6
CONTINUOUS
 62
     7
100
AcDbLine
 10
53.89302894650001
 20
-70.41188232475
 30
0.0
 11
53.89302894650001
 21
-68.41188199695
 31
0.0
  0
LINE
  5
F3
330
1F
100
AcDbEntity
  8
SLD-0
  6
CONTINUOUS
 62
     7
100
AcDbLine
 10
59.13418321969999
 20
-68.41188175525
 30
0.0
 11
59.13418321969999
 21
-66.60188147725
 31
0.0
  0
LINE
  5
F4
330
1F
100
AcDbEntity
  8
SLD-0
  6
CONTINUOUS
 62
     7
100
AcDbLine
 10
53.89302894650001
 20
-66.60188160474999
 30
0.0
 11
53.89302894650001
 21
-64.60188127685
 31
0.0
  0
LINE
  5
F5
330
1F
100
AcDbEntity
  8
SLD-0
  6
CONTINUOUS
 62
     7
100
AcDbLine
 10
59.13418321969999
 20
-64.60188127685
 30
0.0
 11
59.13418321969999
 21
-62.79188193015
 31
0.0
  0
LINE
  5
F6
330
1F
100
AcDbEntity
  8
SLD-0
  6
CONTINUOUS
 62
     7
100
AcDbLine
 10
53.89302894650001
 20
-62.79188238315
 30
0.0
 11
53.89302894650001
 21
-60.79188205535
 31
0.0
  0
LINE
  5
F7
330
1F
100
AcDbEntity
  8
SLD-0
  6
CONTINUOUS
 62
     7
100
AcDbLine
 10
59.13418321969999
 20
-60.79188205535
 30
0.0
 11
59.13418321969999
 21
-58.98188224294999
 31
0.0
  0
LINE
  5
F8
330
1F
100
AcDbEntity
  8
SLD-0
  6
CONTINUOUS
 62
     7
100
AcDbLine
 10
53.89302894650001
 20
-58.98188209004999
 30
0.0
 11
53.89302894650001
 21
-56.98188176225
 31
0.0
  0
LINE
  5
F9
330
1F
100
AcDbEntity
  8
SLD-0
  6
CONTINUOUS
 62
     7
100
AcDbLine
 10
61.63418600910001
 20
-83.14188292864999
 30
0.0
 11
61.63418600910001
 21
-55.68188187505
 31
0.0
  0
LINE
  5
FA
330
1F
100
AcDbEntity
  8
SLD-0
  6
CONTINUOUS
 62
     7
100
AcDbLine
 10
53.89302894650001
 20
-81.84188396275
 30
0.0
 11
53.89302894650001
 21
-79.84188363495
 31
0.0
  0
LINE
  5
FB
330
1F
100
AcDbEntity
  8
SLD-0
  6
CONTINUOUS
 62
     7
100
AcDbLine
 10
61.63418600910001
 20
-83.14188292864999
 30
0.0
 11
59.1341809427
 21
-83.14188292864999
 31
0.0
  0
LINE
  5
FC
330
1F
100
AcDbEntity
  8
SLD-0
  6
CONTINUOUS
 62
     7
100
AcDbLine
 10
59.13418321969999
 20
-55.68188187505
 30
0.0
 11
61.63418600910001
 21
-55.68188187505
 31
0.0
  0
LINE
  5
FD
330
1F
100
AcDbEntity
  8
SLD-0
  6
CONTINUOUS
 62
     7
100
AcDbLine
 10
53.02700708270001
 20
-59.48188185925
 30
0.0
 11
58.2681578159
 21
-59.48188201215
 31
0.0
  0
LINE
  5
FE
330
1F
100
AcDbEntity
  8
SLD-0
  6
CONTINUOUS
 62
     7
100
AcDbLine
 10
53.02700708270001
 20
-60.29188201215
 30
0.0
 11
58.26815525649999
 21
-60.29188201215
 31
0.0
  0
LINE
  5
FF
330
1F
100
AcDbEntity
  8
SLD-0
  6
CONTINUOUS
 62
     7
100
AcDbLine
 10
53.02700708270001
 20
-56.48188185925
 30
0.0
 11
58.2681578159
 21
-56.48188185925
 31
0.0
  0
LINE
  5
100
330
1F
100
AcDbEntity
  8
SLD-0
  6
CONTINUOUS
 62
     7
100
AcDbLine
 10
57.57534066790001
 20
-60.29188424885
 30
0.0
 11
57.57534066790001
 21
-59.48188413474999
 31
0.0
  0
LINE
  5
101
330
1F
100
AcDbEntity
  8
SLD-0
  6
CONTINUOUS
 62
     7
100
AcDbLine
 10
53.02700708270001
 20
-64.10188155915
 30
0.0
 11
58.26815525649999
 21
-64.10188155915
 31
0.0
  0
LINE
  5
102
330
1F
100
AcDbEntity
  8
SLD-0
  6
CONTINUOUS
 62
     7
100
AcDbLine
 10
57.57534066790001
 20
-71.72188513515
 30
0.0
 11
57.57534066790001
 21
-70.91188408975
 31
0.0
  0
LINE
  5
103
330
1F
100
AcDbEntity
  8
SLD-0
  6
CONTINUOUS
 62
     7
100
AcDbLine
 10
57.57534066790001
 20
-67.91188452934999
 30
0.0
 11
57.57534066790001
 21
-67.10188441515
 31
0.0
  0
LINE
  5
104
330
1F
100
AcDbEntity
  8
SLD-0
  6
CONTINUOUS
 62
     7
100
AcDbLine
 10
53.02700708270001
 20
-67.91188167335
 30
0.0
 11
58.2681578159
 21
-67.91188143165
 31
0.0
  0
LINE
  5
105
330
1F
100
AcDbEntity
  8
SLD-0
  6
CONTINUOUS
 62
     7
100
AcDbLine
 10
57.57534066790001
 20
-64.10188392345
 30
0.0
 11
57.57534066790001
 21
-63.29188474064999
 31
0.0
  0
LINE
  5
106
330
1F
100
AcDbEntity
  8
SLD-0
  6
CONTINUOUS
 62
     7
100
AcDbLine
 10
53.02700708270001
 20
-63.29188201215
 30
0.0
 11
58.2681578159
 21
-63.29188155915
 31
0.0
  0
LINE
  5
107
330
1F
100
AcDbEntity
  8
SLD-0
  6
CONTINUOUS
 62
     7
100
AcDbLine
 10
53.02700708270001
 20
-70.91188167335
 30
0.0
 11
58.2681578159
 21
-70.91188187125
 31
0.0
  0
LINE
  5
108
330
1F
100
AcDbEntity
  8
SLD-0
  6
CONTINUOUS
 62
     7
100
AcDbLine
 10
53.02700708270001
 20
-67.10188155915
 30
0.0
 11
58.2681578159
 21
-67.10188143165
 31
0.0
  0
LINE
  5
109
330
1F
100
AcDbEntity
  8
SLD-0
  6
CONTINUOUS
 62
     7
100
AcDbLine
 10
53.02700708270001
 20
-75.53188324215
 30
0.0
 11
58.26815525649999
 21
-75.53188324215
 31
0.0
  0
LINE
  5
10A
330
1F
100
AcDbEntity
  8
SLD-0
  6
CONTINUOUS
 62
     7
100
AcDbLine
 10
53.02700708270001
 20
-71.72188271875
 30
0.0
 11
58.2681578159
 21
-71.72188187124999
 31
0.0
  0
LINE
  5
10B
330
1F
100
AcDbEntity
  8
SLD-0
  6
CONTINUOUS
 62
     7
100
AcDbLine
 10
53.02700708270001
 20
-74.72188271875
 30
0.0
 11
58.2681578159
 21
-74.72188324215
 31
0.0
  0
LINE
  5
10C
330
1F
100
AcDbEntity
  8
SLD-0
  6
CONTINUOUS
 62
     7
100
AcDbLine
 10
57.57534066790001
 20
-75.53188480975
 30
0.0
 11
57.57534066790001
 21
-74.72188376425
 31
0.0
  0
LINE
  5
10D
330
1F
100
AcDbEntity
  8
SLD-0
  6
CONTINUOUS
 62
     7
100
AcDbLine
 10
57.57534066790001
 20
-79.34188448434999
 30
0.0
 11
57.57534066790001
 21
-78.53188343885
 31
0.0
  0
LINE
  5
10E
330
1F
100
AcDbEntity
  8
SLD-0
  6
CONTINUOUS
 62
     7
100
AcDbLine
 10
53.02700708270001
 20
-78.53188324215
 30
0.0
 11
58.2681578159
 21
-78.53188409095
 31
0.0
  0
LINE
  5
10F
330
1F
100
AcDbEntity
  8
SLD-0
  6
CONTINUOUS
 62
     7
100
AcDbLine
 10
53.02700708270001
 20
-82.34188428765
 30
0.0
 11
58.2681578159
 21
-82.34188359925
 31
0.0
  0
LINE
  5
110
330
1F
100
AcDbEntity
  8
SLD-0
  6
CONTINUOUS
 62
     7
100
AcDbLine
 10
53.02700708270001
 20
-79.34188428765
 30
0.0
 11
58.2681578159
 21
-79.34188409095
 31
0.0
  0
LINE
  5
111
330
1F
100
AcDbEntity
  8
SLD-0
  6
CONTINUOUS
 62
     7
100
AcDbLine
 10
53.02700708270001
 20
-63.29188201215
 30
0.0
 11
52.33418504349999
 21
-63.29188201215
 31
0.0
  0
LINE
  5
112
330
1F
100
AcDbEntity
  8
SLD-0
  6
CONTINUOUS
 62
     7
100
AcDbLine
 10
52.33418504349999
 20
-63.29188201215
 30
0.0
 11
52.33418504349999
 21
-60.29188201215
 31
0.0
  0
LINE
  5
113
330
1F
100
AcDbEntity
  8
SLD-0
  6
CONTINUOUS
 62
     7
100
AcDbLine
 10
53.02700708270001
 20
-60.29188201215
 30
0.0
 11
52.33418504349999
 21
-60.29188201215
 31
0.0
  0
LINE
  5
114
330
1F
100
AcDbEntity
  8
SLD-0
  6
CONTINUOUS
 62
     7
100
AcDbLine
 10
53.02700708270001
 20
-59.48188185925
 30
0.0
 11
52.33418504349999
 21
-59.48188185925
 31
0.0
  0
LINE
  5
115
330
1F
100
AcDbEntity
  8
SLD-0
  6
CONTINUOUS
 62
     7
100
AcDbLine
 10
52.33418504349999
 20
-59.48188185925
 30
0.0
 11
52.33418504349999
 21
-56.48188185925
 31
0.0
  0
LINE
  5
116
330
1F
100
AcDbEntity
  8
SLD-0
  6
CONTINUOUS
 62
     7
100
AcDbLine
 10
53.02700708270001
 20
-56.48188185925
 30
0.0
 11
52.33418504349999
 21
-56.48188185925
 31
0.0
  0
LINE
  5
117
330
1F
100
AcDbEntity
  8
SLD-0
  6
CONTINUOUS
 62
     7
100
AcDbLine
 10
53.02700708270001
 20
-70.91188167335
 30
0.0
 11
52.33418504349999
 21
-70.91188167335
 31
0.0
  0
LINE
  5
118
330
1F
100
AcDbEntity
  8
SLD-0
  6
CONTINUOUS
 62
     7
100
AcDbLine
 10
52.33418504349999
 20
-70.91188167335
 30
0.0
 11
52.33418504349999
 21
-67.91188167335
 31
0.0
  0
LINE
  5
119
330
1F
100
AcDbEntity
  8
SLD-0
  6
CONTINUOUS
 62
     7
100
AcDbLine
 10
53.02700708270001
 20
-67.91188167335
 30
0.0
 11
52.33418504349999
 21
-67.91188167335
 31
0.0
  0
LINE
  5
11A
330
1F
100
AcDbEntity
  8
SLD-0
  6
CONTINUOUS
 62
     7
100
AcDbLine
 10
53.02700708270001
 20
-67.10188155915
 30
0.0
 11
52.33418504349999
 21
-67.10188155915
 31
0.0
  0
LINE
  5
11B
330
1F
100
AcDbEntity
  8
SLD-0
  6
CONTINUOUS
 62
     7
100
AcDbLine
 10
52.33418504349999
 20
-67.10188155915
 30
0.0
 11
52.33418504349999
 21
-64.10188155915
 31
0.0
  0
LINE
  5
11C
330
1F
100
AcDbEntity
  8
SLD-0
  6
CONTINUOUS
 62
     7
100
AcDbLine
 10
53.02700708270001
 20
-64.10188155915
 30
0.0
 11
52.33418504349999
 21
-64.10188155915
 31
0.0
  0
LINE
  5
11D
330
1F
100
AcDbEntity
  8
SLD-0
  6
CONTINUOUS
 62
     7
100
AcDbLine
 10
53.02700708270001
 20
-78.53188324215
 30
0.0
 11
52.33418504349999
 21
-78.53188324215
 31
0.0
  0
LINE
  5
11E
330
1F
100
AcDbEntity
  8
SLD-0
  6
CONTINUOUS
 62
     7
100
AcDbLine
 10
52.33418504349999
 20
-78.53188324215
 30
0.0
 11
52.33418504349999
 21
-75.53188324215
 31
0.0
  0
LINE
  5
11F
330
1F
100
AcDbEntity
  8
SLD-0
  6
CONTINUOUS
 62
     7
100
AcDbLine
 10
53.02700708270001
 20
-75.53188324215
 30
0.0
 11
52.33418504349999
 21
-75.53188324215
 31
0.0
  0
LINE
  5
120
330
1F
100
AcDbEntity
  8
SLD-0
  6
CONTINUOUS
 62
     7
100
AcDbLine
 10
53.02700708270001
 20
-74.72188271875
 30
0.0
 11
52.33418504349999
 21
-74.72188271875
 31
0.0
  0
LINE
  5
121
330
1F
100
AcDbEntity
  8
SLD-0
  6
CONTINUOUS
 62
     7
100
AcDbLine
 10
52.33418504349999
 20
-74.72188271875
 30
0.0
 11
52.33418504349999
 21
-71.72188271875
 31
0.0
  0
LINE
  5
122
330
1F
100
AcDbEntity
  8
SLD-0
  6
CONTINUOUS
 62
     7
100
AcDbLine
 10
53.02700708270001
 20
-71.72188271875
 30
0.0
 11
52.33418504349999
 21
-71.72188271875
 31
0.0
  0
LINE
  5
123
330
1F
100
AcDbEntity
  8
SLD-0
  6
CONTINUOUS
 62
     7
100
AcDbLine
 10
53.02700708270001
 20
-82.34188428765
 30
0.0
 11
52.33418504349999
 21
-82.34188428765
 31
0.0
  0
LINE
  5
124
330
1F
100
AcDbEntity
  8
SLD-0
  6
CONTINUOUS
 62
     7
100
AcDbLine
 10
52.33418504349999
 20
-82.34188428765
 30
0.0
 11
52.33418504349999
 21
-79.34188428765
 31
0.0
  0
LINE
  5
125
330
1F
100
AcDbEntity
  8
SLD-0
  6
CONTINUOUS
 62
     7
100
AcDbLine
 10
53.02700708270001
 20
-79.34188428765
 30
0.0
 11
52.33418504349999
 21
-79.34188428765
 31
0.0
  0
LINE
  5
126
330
1F
100
AcDbEntity
  8
SLD-0
  6
CONTINUOUS
 62
     7
100
AcDbLine
 10
57.57534066790001
 20
-83.14188292864999
 30
0.0
 11
47.4341840541
 21
-83.14188292864999
 31
0.0
  0
LINE
  5
127
330
1F
100
AcDbEntity
  8
SLD-0
  6
CONTINUOUS
 62
     7
100
AcDbLine
 10
57.5753429449
 20
-55.68188187505
 30
0.0
 11
47.43418633109999
 21
-55.68188187505
 31
0.0
  0
LINE
  5
128
330
1F
100
AcDbEntity
  8
SLD-0
  6
CONTINUOUS
 62
     7
100
AcDbLine
 10
63.6341826117
 20
-56.48188434145
 30
0.0
 11
61.63418600910001
 21
-56.48188434145
 31
0.0
  0
LINE
  5
129
330
1F
100
AcDbEntity
  8
SLD-0
  6
CONTINUOUS
 62
     7
100
AcDbLine
 10
63.6341826117
 20
-56.48188434145
 30
0.0
 11
63.6341826117
 21
-59.48188413474999
 31
0.0
  0
LINE
  5
12A
330
1F
100
AcDbEntity
  8
SLD-0
  6
CONTINUOUS
 62
     7
100
AcDbLine
 10
63.6341826117
 20
-59.48188413474999
 30
0.0
 11
61.63418600910001
 21
-59.48188413474999
 31
0.0
  0
LINE
  5
12B
330
1F
100
AcDbEntity
  8
SLD-0
  6
CONTINUOUS
 62
     7
100
AcDbLine
 10
63.6341826117
 20
-60.29188424885
 30
0.0
 11
61.63418600910001
 21
-60.29188424885
 31
0.0
  0
LINE
  5
12C
330
1F
100
AcDbEntity
  8
SLD-0
  6
CONTINUOUS
 62
     7
100
AcDbLine
 10
63.6341826117
 20
-63.29188474064999
 30
0.0
 11
61.63418600910001
 21
-63.29188474064999
 31
0.0
  0
LINE
  5
12D
330
1F
100
AcDbEntity
  8
SLD-0
  6
CONTINUOUS
 62
     7
100
AcDbLine
 10
63.6341826117
 20
-60.29188424885
 30
0.0
 11
63.6341826117
 21
-63.29188474064999
 31
0.0
  0
LINE
  5
12E
330
1F
100
AcDbEntity
  8
SLD-0
  6
CONTINUOUS
 62
     7
100
AcDbLine
 10
63.6341826117
 20
-64.10188392345
 30
0.0
 11
61.63418600910001
 21
-64.10188392345
 31
0.0
  0
LINE
  5
12F
330
1F
100
AcDbEntity
  8
SLD-0
  6
CONTINUOUS
 62
     7
100
AcDbLine
 10
63.6341826117
 20
-64.10188392345
 30
0.0
 11
63.6341826117
 21
-67.10188441515
 31
0.0
  0
LINE
  5
130
330
1F
100
AcDbEntity
  8
SLD-0
  6
CONTINUOUS
 62
     7
100
AcDbLine
 10
63.6341826117
 20
-67.10188441515
 30
0.0
 11
61.63418600910001
 21
-67.10188441515
 31
0.0
  0
LINE
  5
131
330
1F
100
AcDbEntity
  8
SLD-0
  6
CONTINUOUS
 62
     7
100
AcDbLine
 10
63.6341826117
 20
-67.91188452934999
 30
0.0
 11
61.63418600910001
 21
-67.91188452934999
 31
0.0
  0
LINE
  5
132
330
1F
100
AcDbEntity
  8
SLD-0
  6
CONTINUOUS
 62
     7
100
AcDbLine
 10
63.6341826117
 20
-67.91188452934999
 30
0.0
 11
63.6341826117
 21
-70.91188408975
 31
0.0
  0
LINE
  5
133
330
1F
100
AcDbEntity
  8
SLD-0
  6
CONTINUOUS
 62
     7
100
AcDbLine
 10
63.6341826117
 20
-70.91188408975
 30
0.0
 11
61.63418600910001
 21
-70.91188408975
 31
0.0
  0
LINE
  5
134
330
1F
100
AcDbEntity
  8
SLD-0
  6
CONTINUOUS
 62
     7
100
AcDbLine
 10
63.6341826117
 20
-71.72188513515
 30
0.0
 11
61.63418600910001
 21
-71.72188513515
 31
0.0
  0
LINE
  5
135
330
1F
100
AcDbEntity
  8
SLD-0
  6
CONTINUOUS
 62
     7
100
AcDbLine
 10
63.6341826117
 20
-71.72188513515
 30
0.0
 11
63.6341826117
 21
-74.72188376425
 31
0.0
  0
LINE
  5
136
330
1F
100
AcDbEntity
  8
SLD-0
  6
CONTINUOUS
 62
     7
100
AcDbLine
 10
63.6341826117
 20
-74.72188376425
 30
0.0
 11
61.63418600910001
 21
-74.72188376425
 31
0.0
  0
LINE
  5
137
330
1F
100
AcDbEntity
  8
SLD-0
  6
CONTINUOUS
 62
     7
100
AcDbLine
 10
63.6341826117
 20
-79.34188448434999
 30
0.0
 11
61.63418600910001
 21
-79.34188448434999
 31
0.0
  0
LINE
  5
138
330
1F
100
AcDbEntity
  8
SLD-0
  6
CONTINUOUS
 62
     7
100
AcDbLine
 10
63.6341826117
 20
-82.34188497605
 30
0.0
 11
61.63418600910001
 21
-82.34188497605
 31
0.0
  0
LINE
  5
139
330
1F
100
AcDbEntity
  8
SLD-0
  6
CONTINUOUS
 62
     7
100
AcDbLine
 10
63.6341826117
 20
-79.34188448434999
 30
0.0
 11
63.6341826117
 21
-82.34188497605
 31
0.0
  0
LINE
  5
13A
330
1F
100
AcDbEntity
  8
SLD-0
  6
CONTINUOUS
 62
     7
100
AcDbLine
 10
63.6341826117
 20
-75.53188480975
 30
0.0
 11
61.63418600910001
 21
-75.53188480975
 31
0.0
  0
LINE
  5
13B
330
1F
100
AcDbEntity
  8
SLD-0
  6
CONTINUOUS
 62
     7
100
AcDbLine
 10
63.6341826117
 20
-78.53188343885
 30
0.0
 11
61.63418600910001
 21
-78.53188343885
 31
0.0
  0
LINE
  5
13C
330
1F
100
AcDbEntity
  8
SLD-0
  6
CONTINUOUS
 62
     7
100
AcDbLine
 10
63.6341826117
 20
-75.53188480975
 30
0.0
 11
63.6341826117
 21
-78.53188343885
 31
0.0
  0
LINE
  5
13D
330
1F
100
AcDbEntity
  8
SLD-0
  6
CONTINUOUS
 62
     7
100
AcDbLine
 10
-51.16581678739999
 20
-17.09188499095001
 30
0.0
 11
-48.56581678040001
 21
-17.09188499095001
 31
0.0
  0
LINE
  5
13E
330
1F
100
AcDbEntity
  8
SLD-0
  6
CONTINUOUS
 62
     7
100
AcDbLine
 10
-48.56581678040001
 20
-17.09188499095001
 30
0.0
 11
-48.56581678040001
 21
-17.59188600425
 31
0.0
  0
LINE
  5
13F
330
1F
100
AcDbEntity
  8
SLD-0
  6
CONTINUOUS
 62
     7
100
AcDbLine
 10
-51.16581678739999
 20
-17.59188600425
 30
0.0
 11
-51.16581678739999
 21
-17.09188499095001
 31
0.0
  0
LINE
  5
140
330
1F
100
AcDbEntity
  8
SLD-0
  6
CONTINUOUS
 62
     7
100
AcDbLine
 10
-48.56581678040001
 20
-88.69188257105
 30
0.0
 11
-48.56581678040001
 21
-89.19188358425
 31
0.0
  0
LINE
  5
141
330
1F
100
AcDbEntity
  8
SLD-0
  6
CONTINUOUS
 62
     7
100
AcDbLine
 10
-48.56581678040001
 20
-89.19188358425
 30
0.0
 11
-51.16581678739999
 21
-89.19188358425
 31
0.0
  0
LINE
  5
142
330
1F
100
AcDbEntity
  8
SLD-0
  6
CONTINUOUS
 62
     7
100
AcDbLine
 10
-51.16581678739999
 20
-89.19188358425
 30
0.0
 11
-51.16581678739999
 21
-88.69188257105
 31
0.0
  0
LINE
  5
143
330
1F
100
AcDbEntity
  8
SLD-0
  6
CONTINUOUS
 62
     7
100
AcDbLine
 10
-48.56581678040001
 20
-88.69188257105
 30
0.0
 11
-48.56581678040001
 21
-17.09188499095001
 31
0.0
  0
LINE
  5
144
330
1F
100
AcDbEntity
  8
SLD-0
  6
CONTINUOUS
 62
     7
100
AcDbLine
 10
-51.16581678739999
 20
-88.69188257105
 30
0.0
 11
-51.16581678739999
 21
-17.59188600425
 31
0.0
  0
LINE
  5
145
330
1F
100
AcDbEntity
  8
SLD-0
  6
CONTINUOUS
 62
     7
100
AcDbLine
 10
47.43418321959999
 20
-19.09188430545001
 30
0.0
 11
47.43418321959999
 21
-87.19188430545
 31
0.0
  0
LINE
  5
146
330
1F
100
AcDbEntity
  8
SLD-0
  6
CONTINUOUS
 62
     7
100
AcDbLine
 10
46.93418321959999
 20
-87.69188430545
 30
0.0
 11
-48.56581678040001
 21
-87.69188430545
 31
0.0
  0
LINE
  5
147
330
1F
100
AcDbEntity
  8
SLD-0
  6
CONTINUOUS
 62
     7
100
AcDbLine
 10
-48.56581678040001
 20
-18.59188430545001
 30
0.0
 11
46.93418321959999
 21
-18.59188430545001
 31
0.0
  0
LINE
  5
148
330
1F
100
AcDbEntity
  8
SLD-0
  6
CONTINUOUS
 62
     7
100
AcDbLine
 10
-48.3658167854
 20
-17.49188431145001
 30
0.0
 11
-48.3658167854
 21
-18.59188430545001
 31
0.0
  0
LINE
  5
149
330
1F
100
AcDbEntity
  8
SLD-0
  6
CONTINUOUS
 62
     7
100
AcDbLine
 10
-48.3658167854
 20
-17.49188431145001
 30
0.0
 11
-48.01581678330001
 21
-17.49188431145001
 31
0.0
  0
LINE
  5
14A
330
1F
100
AcDbEntity
  8
SLD-0
  6
CONTINUOUS
 62
     7
100
AcDbLine
 10
-48.01581678330001
 20
-17.49188431145001
 30
0.0
 11
-48.01581678330001
 21
-17.29188465125
 31
0.0
  0
LINE
  5
14B
330
1F
100
AcDbEntity
  8
SLD-0
  6
CONTINUOUS
 62
     7
100
AcDbLine
 10
-48.01581678330001
 20
-17.29188465125
 30
0.0
 11
-47.4658167863
 21
-17.29188465125
 31
0.0
  0
LINE
  5
14C
330
1F
100
AcDbEntity
  8
SLD-0
  6
CONTINUOUS
 62
     7
100
AcDbLine
 10
-47.4658167863
 20
-17.29188465125
 30
0.0
 11
-47.4658167863
 21
-17.09188499095001
 31
0.0
  0
LINE
  5
14D
330
1F
100
AcDbEntity
  8
SLD-0
  6
CONTINUOUS
 62
     7
100
AcDbLine
 10
-47.4658167863
 20
-17.09188499095001
 30
0.0
 11
-46.91581678930001
 21
-17.09188499095001
 31
0.0
  0
LINE
  5
14E
330
1F
100
AcDbEntity
  8
SLD-0
  6
CONTINUOUS
 62
     7
100
AcDbLine
 10
-46.91581678930001
 20
-17.09188499095001
 30
0.0
 11
-46.91581678930001
 21
-16.89188533064998
 31
0.0
  0
LINE
  5
14F
330
1F
100
AcDbEntity
  8
SLD-0
  6
CONTINUOUS
 62
     7
100
AcDbLine
 10
-46.91581678930001
 20
-16.89188533064998
 30
0.0
 11
-46.3658167923
 21
-16.89188533064998
 31
0.0
  0
LINE
  5
150
330
1F
100
AcDbEntity
  8
SLD-0
  6
CONTINUOUS
 62
     7
100
AcDbLine
 10
-46.3658167923
 20
-16.89188533064998
 30
0.0
 11
-46.3658167923
 21
-16.69188567045001
 31
0.0
  0
LINE
  5
151
330
1F
100
AcDbEntity
  8
SLD-0
  6
CONTINUOUS
 62
     7
100
AcDbLine
 10
-46.3658167923
 20
-16.69188567045001
 30
0.0
 11
-45.81581679530001
 21
-16.69188567045001
 31
0.0
  0
LINE
  5
152
330
1F
100
AcDbEntity
  8
SLD-0
  6
CONTINUOUS
 62
     7
100
AcDbLine
 10
-45.81581679530001
 20
-16.69188567045001
 30
0.0
 11
-45.81581679530001
 21
-16.49188601014998
 31
0.0
  0
LINE
  5
153
330
1F
100
AcDbEntity
  8
SLD-0
  6
CONTINUOUS
 62
     7
100
AcDbLine
 10
-45.56581678789999
 20
-16.29188428014999
 30
0.0
 11
-45.6158167879
 21
-16.29188428014999
 31
0.0
  0
LINE
  5
154
330
1F
100
AcDbEntity
  8
SLD-0
  6
CONTINUOUS
 62
     7
100
AcDbLine
 10
-46.3658167923
 20
-89.59188290475
 30
0.0
 11
-45.81581679530001
 21
-89.59188290475
 31
0.0
  0
LINE
  5
155
330
1F
100
AcDbEntity
  8
SLD-0
  6
CONTINUOUS
 62
     7
100
AcDbLine
 10
-46.3658167923
 20
-89.39188324455
 30
0.0
 11
-46.3658167923
 21
-89.59188290475
 31
0.0
  0
LINE
  5
156
330
1F
100
AcDbEntity
  8
SLD-0
  6
CONTINUOUS
 62
     7
100
AcDbLine
 10
-46.91581678930001
 20
-89.39188324455
 30
0.0
 11
-46.3658167923
 21
-89.39188324455
 31
0.0
  0
LINE
  5
157
330
1F
100
AcDbEntity
  8
SLD-0
  6
CONTINUOUS
 62
     7
100
AcDbLine
 10
-46.91581678930001
 20
-89.19188358425
 30
0.0
 11
-46.91581678930001
 21
-89.39188324455
 31
0.0
  0
LINE
  5
158
330
1F
100
AcDbEntity
  8
SLD-0
  6
CONTINUOUS
 62
     7
100
AcDbLine
 10
-47.4658167863
 20
-89.19188358425
 30
0.0
 11
-46.91581678930001
 21
-89.19188358425
 31
0.0
  0
LINE
  5
159
330
1F
100
AcDbEntity
  8
SLD-0
  6
CONTINUOUS
 62
     7
100
AcDbLine
 10
-47.4658167863
 20
-88.99188392405
 30
0.0
 11
-47.4658167863
 21
-89.19188358425
 31
0.0
  0
LINE
  5
15A
330
1F
100
AcDbEntity
  8
SLD-0
  6
CONTINUOUS
 62
     7
100
AcDbLine
 10
-48.01581678330001
 20
-88.99188392405
 30
0.0
 11
-47.4658167863
 21
-88.99188392405
 31
0.0
  0
LINE
  5
15B
330
1F
100
AcDbEntity
  8
SLD-0
  6
CONTINUOUS
 62
     7
100
AcDbLine
 10
-48.01581678330001
 20
-88.79188426375
 30
0.0
 11
-48.01581678330001
 21
-88.99188392405
 31
0.0
  0
LINE
  5
15C
330
1F
100
AcDbEntity
  8
SLD-0
  6
CONTINUOUS
 62
     7
100
AcDbLine
 10
-48.3658167854
 20
-88.79188426375
 30
0.0
 11
-48.01581678330001
 21
-88.79188426375
 31
0.0
  0
LINE
  5
15D
330
1F
100
AcDbEntity
  8
SLD-0
  6
CONTINUOUS
 62
     7
100
AcDbLine
 10
-48.3658167854
 20
-88.79188426375
 30
0.0
 11
-48.3658167854
 21
-87.69188426975
 31
0.0
  0
LINE
  5
15E
330
1F
100
AcDbEntity
  8
SLD-0
  6
CONTINUOUS
 62
     7
100
AcDbLine
 10
-45.56581596390001
 20
-89.99188345625
 30
0.0
 11
-45.61581585280001
 21
-89.99188511915
 31
0.0
  0
LINE
  5
15F
330
1F
100
AcDbEntity
  8
SLD-0
  6
CONTINUOUS
 62
     7
100
AcDbLine
 10
-45.81581679530001
 20
-89.59188290475
 30
0.0
 11
-45.81581679530001
 21
-89.79188428764999
 31
0.0
  0
LINE
  5
160
330
1F
100
AcDbEntity
  8
SLD-0
  6
CONTINUOUS
 62
     7
100
AcDbLine
 10
112.1639400651
 20
-55.39188419074999
 30
0.0
 11
112.1639400651
 21
-55.68188430344999
 31
0.0
  0
LINE
  5
161
330
1F
100
AcDbEntity
  8
SLD-0
  6
CONTINUOUS
 62
     7
100
AcDbLine
 10
112.1639400651
 20
-55.39188419074999
 30
0.0
 11
112.4139400479
 21
-55.39188419074999
 31
0.0
  0
LINE
  5
162
330
1F
100
AcDbEntity
  8
SLD-0
  6
CONTINUOUS
 62
     7
100
AcDbLine
 10
112.4139400479
 20
-55.39188419074999
 30
0.0
 11
112.6639400888
 21
-55.14188438264999
 31
0.0
  0
LINE
  5
163
330
1F
100
AcDbEntity
  8
SLD-0
  6
CONTINUOUS
 62
     7
100
AcDbLine
 10
112.6639400888
 20
-55.14188438264999
 30
0.0
 11
112.4139400479
 21
-54.89188434165
 31
0.0
  0
LINE
  5
164
330
1F
100
AcDbEntity
  8
SLD-0
  6
CONTINUOUS
 62
     7
100
AcDbLine
 10
112.4139400479
 20
-54.89188434165
 30
0.0
 11
112.1639400651
 21
-54.89188434165
 31
0.0
  0
LINE
  5
165
330
1F
100
AcDbEntity
  8
SLD-0
  6
CONTINUOUS
 62
     7
100
AcDbLine
 10
112.1639400651
 20
-54.64188430064999
 30
0.0
 11
112.1639400651
 21
-54.89188434165
 31
0.0
  0
LINE
  5
166
330
1F
100
AcDbEntity
  8
SLD-0
  6
CONTINUOUS
 62
     7
100
AcDbLine
 10
114.1139400705
 20
-54.94188425665
 30
0.0
 11
113.9139399445
 21
-55.14188438264999
 31
0.0
  0
LINE
  5
167
330
1F
100
AcDbEntity
  8
SLD-0
  6
CONTINUOUS
 62
     7
100
AcDbLine
 10
113.9139399445
 20
-55.14188438264999
 30
0.0
 11
114.1639399855
 21
-55.39188419074999
 31
0.0
  0
LINE
  5
168
330
1F
100
AcDbEntity
  8
SLD-0
  6
CONTINUOUS
 62
     7
100
AcDbLine
 10
113.6139399885
 20
-56.48188434145
 30
0.0
 11
112.9639400449
 21
-56.48188434145
 31
0.0
  0
LINE
  5
169
330
1F
100
AcDbEntity
  8
SLD-0
  6
CONTINUOUS
 62
     7
100
AcDbLine
 10
113.6139399885
 20
-59.48188413474999
 30
0.0
 11
113.6139399885
 21
-56.48188434145
 31
0.0
  0
LINE
  5
16A
330
1F
100
AcDbEntity
  8
SLD-0
  6
CONTINUOUS
 62
     7
100
AcDbLine
 10
112.9639400449
 20
-59.48188413474999
 30
0.0
 11
113.6139399885
 21
-59.48188413474999
 31
0.0
  0
LINE
  5
16B
330
1F
100
AcDbEntity
  8
SLD-0
  6
CONTINUOUS
 62
     7
100
AcDbLine
 10
112.9639400449
 20
-59.48188413474999
 30
0.0
 11
112.9639400449
 21
-56.48188434145
 31
0.0
  0
LINE
  5
16C
330
1F
100
AcDbEntity
  8
SLD-0
  6
CONTINUOUS
 62
     7
100
AcDbLine
 10
112.8322875872
 20
-70.91188408975
 30
0.0
 11
112.8322875872
 21
-67.91188452934999
 31
0.0
  0
LINE
  5
16D
330
1F
100
AcDbEntity
  8
SLD-0
  6
CONTINUOUS
 62
     7
100
AcDbLine
 10
112.9639400449
 20
-67.91188452934999
 30
0.0
 11
112.8322875872
 21
-67.91188452934999
 31
0.0
  0
LINE
  5
16E
330
1F
100
AcDbEntity
  8
SLD-0
  6
CONTINUOUS
 62
     7
100
AcDbLine
 10
112.9639400449
 20
-70.91188408975
 30
0.0
 11
112.9639400449
 21
-67.91188452934999
 31
0.0
  0
LINE
  5
16F
330
1F
100
AcDbEntity
  8
SLD-0
  6
CONTINUOUS
 62
     7
100
AcDbLine
 10
112.8322875872
 20
-70.91188408975
 30
0.0
 11
112.9639400449
 21
-70.91188408975
 31
0.0
  0
LINE
  5
170
330
1F
100
AcDbEntity
  8
SLD-0
  6
CONTINUOUS
 62
     7
100
AcDbLine
 10
112.8322875872
 20
-59.48188413474999
 30
0.0
 11
112.8322875872
 21
-56.48188434145
 31
0.0
  0
LINE
  5
171
330
1F
100
AcDbEntity
  8
SLD-0
  6
CONTINUOUS
 62
     7
100
AcDbLine
 10
112.9639400449
 20
-56.48188434145
 30
0.0
 11
112.8322875872
 21
-56.48188434145
 31
0.0
  0
LINE
  5
172
330
1F
100
AcDbEntity
  8
SLD-0
  6
CONTINUOUS
 62
     7
100
AcDbLine
 10
112.8322875872
 20
-59.48188413474999
 30
0.0
 11
112.9639400449
 21
-59.48188413474999
 31
0.0
  0
LINE
  5
173
330
1F
100
AcDbEntity
  8
SLD-0
  6
CONTINUOUS
 62
     7
100
AcDbLine
 10
113.6139399885
 20
-60.29188424885
 30
0.0
 11
112.9639400449
 21
-60.29188424885
 31
0.0
  0
LINE
  5
174
330
1F
100
AcDbEntity
  8
SLD-0
  6
CONTINUOUS
 62
     7
100
AcDbLine
 10
112.9639400449
 20
-63.29188474064999
 30
0.0
 11
112.9639400449
 21
-60.29188424885
 31
0.0
  0
LINE
  5
175
330
1F
100
AcDbEntity
  8
SLD-0
  6
CONTINUOUS
 62
     7
100
AcDbLine
 10
113.6139399885
 20
-63.29188474064999
 30
0.0
 11
113.6139399885
 21
-60.29188424885
 31
0.0
  0
LINE
  5
176
330
1F
100
AcDbEntity
  8
SLD-0
  6
CONTINUOUS
 62
     7
100
AcDbLine
 10
112.9639400449
 20
-63.29188474064999
 30
0.0
 11
113.6139399885
 21
-63.29188474064999
 31
0.0
  0
LINE
  5
177
330
1F
100
AcDbEntity
  8
SLD-0
  6
CONTINUOUS
 62
     7
100
AcDbLine
 10
112.8322875872
 20
-74.72188376425
 30
0.0
 11
112.8322875872
 21
-71.72188513515
 31
0.0
  0
LINE
  5
178
330
1F
100
AcDbEntity
  8
SLD-0
  6
CONTINUOUS
 62
     7
100
AcDbLine
 10
112.9639400449
 20
-71.72188513515
 30
0.0
 11
112.8322875872
 21
-71.72188513515
 31
0.0
  0
LINE
  5
179
330
1F
100
AcDbEntity
  8
SLD-0
  6
CONTINUOUS
 62
     7
100
AcDbLine
 10
112.9639400449
 20
-74.72188376425
 30
0.0
 11
112.9639400449
 21
-71.72188513515
 31
0.0
  0
LINE
  5
17A
330
1F
100
AcDbEntity
  8
SLD-0
  6
CONTINUOUS
 62
     7
100
AcDbLine
 10
112.8322875872
 20
-74.72188376425
 30
0.0
 11
112.9639400449
 21
-74.72188376425
 31
0.0
  0
LINE
  5
17B
330
1F
100
AcDbEntity
  8
SLD-0
  6
CONTINUOUS
 62
     7
100
AcDbLine
 10
112.8322875872
 20
-63.29188474064999
 30
0.0
 11
112.8322875872
 21
-60.29188424885
 31
0.0
  0
LINE
  5
17C
330
1F
100
AcDbEntity
  8
SLD-0
  6
CONTINUOUS
 62
     7
100
AcDbLine
 10
112.9639400449
 20
-60.29188424885
 30
0.0
 11
112.8322875872
 21
-60.29188424885
 31
0.0
  0
LINE
  5
17D
330
1F
100
AcDbEntity
  8
SLD-0
  6
CONTINUOUS
 62
     7
100
AcDbLine
 10
112.8322875872
 20
-63.29188474064999
 30
0.0
 11
112.9639400449
 21
-63.29188474064999
 31
0.0
  0
LINE
  5
17E
330
1F
100
AcDbEntity
  8
SLD-0
  6
CONTINUOUS
 62
     7
100
AcDbLine
 10
112.8322875872
 20
-67.10188441515
 30
0.0
 11
112.8322875872
 21
-64.10188392345
 31
0.0
  0
LINE
  5
17F
330
1F
100
AcDbEntity
  8
SLD-0
  6
CONTINUOUS
 62
     7
100
AcDbLine
 10
112.9639400449
 20
-64.10188392345
 30
0.0
 11
112.8322875872
 21
-64.10188392345
 31
0.0
  0
LINE
  5
180
330
1F
100
AcDbEntity
  8
SLD-0
  6
CONTINUOUS
 62
     7
100
AcDbLine
 10
112.9639400449
 20
-67.10188441515
 30
0.0
 11
112.9639400449
 21
-64.10188392345
 31
0.0
  0
LINE
  5
181
330
1F
100
AcDbEntity
  8
SLD-0
  6
CONTINUOUS
 62
     7
100
AcDbLine
 10
112.8322875872
 20
-67.10188441515
 30
0.0
 11
112.9639400449
 21
-67.10188441515
 31
0.0
  0
LINE
  5
182
330
1F
100
AcDbEntity
  8
SLD-0
  6
CONTINUOUS
 62
     7
100
AcDbLine
 10
113.6139399885
 20
-74.72188376425
 30
0.0
 11
113.6139399885
 21
-71.72188513515
 31
0.0
  0
LINE
  5
183
330
1F
100
AcDbEntity
  8
SLD-0
  6
CONTINUOUS
 62
     7
100
AcDbLine
 10
112.9639400449
 20
-74.72188376425
 30
0.0
 11
113.6139399885
 21
-74.72188376425
 31
0.0
  0
LINE
  5
184
330
1F
100
AcDbEntity
  8
SLD-0
  6
CONTINUOUS
 62
     7
100
AcDbLine
 10
113.6139399885
 20
-71.72188513515
 30
0.0
 11
112.9639400449
 21
-71.72188513515
 31
0.0
  0
LINE
  5
185
330
1F
100
AcDbEntity
  8
SLD-0
  6
CONTINUOUS
 62
     7
100
AcDbLine
 10
113.6139399885
 20
-67.10188441515
 30
0.0
 11
113.6139399885
 21
-64.10188392345
 31
0.0
  0
LINE
  5
186
330
1F
100
AcDbEntity
  8
SLD-0
  6
CONTINUOUS
 62
     7
100
AcDbLine
 10
112.9639400449
 20
-67.10188441515
 30
0.0
 11
113.6139399885
 21
-67.10188441515
 31
0.0
  0
LINE
  5
187
330
1F
100
AcDbEntity
  8
SLD-0
  6
CONTINUOUS
 62
     7
100
AcDbLine
 10
113.6139399885
 20
-64.10188392345
 30
0.0
 11
112.9639400449
 21
-64.10188392345
 31
0.0
  0
LINE
  5
188
330
1F
100
AcDbEntity
  8
SLD-0
  6
CONTINUOUS
 62
     7
100
AcDbLine
 10
113.6139399885
 20
-67.91188452934999
 30
0.0
 11
112.9639400449
 21
-67.91188452934999
 31
0.0
  0
LINE
  5
189
330
1F
100
AcDbEntity
  8
SLD-0
  6
CONTINUOUS
 62
     7
100
AcDbLine
 10
112.9639400449
 20
-70.91188408975
 30
0.0
 11
113.6139399885
 21
-70.91188408975
 31
0.0
  0
LINE
  5
18A
330
1F
100
AcDbEntity
  8
SLD-0
  6
CONTINUOUS
 62
     7
100
AcDbLine
 10
113.6139399885
 20
-70.91188408975
 30
0.0
 11
113.6139399885
 21
-67.91188452934999
 31
0.0
  0
LINE
  5
18B
330
1F
100
AcDbEntity
  8
SLD-0
  6
CONTINUOUS
 62
     7
100
AcDbLine
 10
113.6139399885
 20
-82.34188497605
 30
0.0
 11
113.6139399885
 21
-79.34188448434999
 31
0.0
  0
LINE
  5
18C
330
1F
100
AcDbEntity
  8
SLD-0
  6
CONTINUOUS
 62
     7
100
AcDbLine
 10
112.9639400449
 20
-82.34188497605
 30
0.0
 11
112.9639400449
 21
-79.34188448434999
 31
0.0
  0
LINE
  5
18D
330
1F
100
AcDbEntity
  8
SLD-0
  6
CONTINUOUS
 62
     7
100
AcDbLine
 10
112.9639400449
 20
-82.34188497605
 30
0.0
 11
113.6139399885
 21
-82.34188497605
 31
0.0
  0
LINE
  5
18E
330
1F
100
AcDbEntity
  8
SLD-0
  6
CONTINUOUS
 62
     7
100
AcDbLine
 10
113.6139399885
 20
-79.34188448434999
 30
0.0
 11
112.9639400449
 21
-79.34188448434999
 31
0.0
  0
LINE
  5
18F
330
1F
100
AcDbEntity
  8
SLD-0
  6
CONTINUOUS
 62
     7
100
AcDbLine
 10
113.6139399885
 20
-78.53188343885
 30
0.0
 11
113.6139399885
 21
-75.53188480975
 31
0.0
  0
LINE
  5
190
330
1F
100
AcDbEntity
  8
SLD-0
  6
CONTINUOUS
 62
     7
100
AcDbLine
 10
112.9639400449
 20
-78.53188343885
 30
0.0
 11
113.6139399885
 21
-78.53188343885
 31
0.0
  0
LINE
  5
191
330
1F
100
AcDbEntity
  8
SLD-0
  6
CONTINUOUS
 62
     7
100
AcDbLine
 10
112.9639400449
 20
-78.53188343885
 30
0.0
 11
112.9639400449
 21
-75.53188480975
 31
0.0
  0
LINE
  5
192
330
1F
100
AcDbEntity
  8
SLD-0
  6
CONTINUOUS
 62
     7
100
AcDbLine
 10
113.6139399885
 20
-75.53188480975
 30
0.0
 11
112.9639400449
 21
-75.53188480975
 31
0.0
  0
LINE
  5
193
330
1F
100
AcDbEntity
  8
SLD-0
  6
CONTINUOUS
 62
     7
100
AcDbLine
 10
112.8322875872
 20
-78.53188343885
 30
0.0
 11
112.8322875872
 21
-75.53188480975
 31
0.0
  0
LINE
  5
194
330
1F
100
AcDbEntity
  8
SLD-0
  6
CONTINUOUS
 62
     7
100
AcDbLine
 10
112.8322875872
 20
-78.53188343885
 30
0.0
 11
112.9639400449
 21
-78.53188343885
 31
0.0
  0
LINE
  5
195
330
1F
100
AcDbEntity
  8
SLD-0
  6
CONTINUOUS
 62
     7
100
AcDbLine
 10
112.9639400449
 20
-75.53188480975
 30
0.0
 11
112.8322875872
 21
-75.53188480975
 31
0.0
  0
LINE
  5
196
330
1F
100
AcDbEntity
  8
SLD-0
  6
CONTINUOUS
 62
     7
100
AcDbLine
 10
112.8322875872
 20
-82.34188497605
 30
0.0
 11
112.8322875872
 21
-79.34188448434999
 31
0.0
  0
LINE
  5
197
330
1F
100
AcDbEntity
  8
SLD-0
  6
CONTINUOUS
 62
     7
100
AcDbLine
 10
112.8322875872
 20
-82.34188497605
 30
0.0
 11
112.9639400449
 21
-82.34188497605
 31
0.0
  0
LINE
  5
198
330
1F
100
AcDbEntity
  8
SLD-0
  6
CONTINUOUS
 62
     7
100
AcDbLine
 10
112.9639400449
 20
-79.34188448434999
 30
0.0
 11
112.8322875872
 21
-79.34188448434999
 31
0.0
  0
LINE
  5
199
330
1F
100
AcDbEntity
  8
SLD-0
  6
CONTINUOUS
 62
     7
100
AcDbLine
 10
112.2639400698
 20
-67.10188441515
 30
0.0
 11
112.2639400698
 21
-64.10188392345
 31
0.0
  0
LINE
  5
19A
330
1F
100
AcDbEntity
  8
SLD-0
  6
CONTINUOUS
 62
     7
100
AcDbLine
 10
112.3955925275
 20
-67.10188441515
 30
0.0
 11
112.3955925275
 21
-64.10188392345
 31
0.0
  0
LINE
  5
19B
330
1F
100
AcDbEntity
  8
SLD-0
  6
CONTINUOUS
 62
     7
100
AcDbLine
 10
112.2639400698
 20
-67.10188441515
 30
0.0
 11
112.3955925275
 21
-67.10188441515
 31
0.0
  0
LINE
  5
19C
330
1F
100
AcDbEntity
  8
SLD-0
  6
CONTINUOUS
 62
     7
100
AcDbLine
 10
112.3955925275
 20
-64.10188392345
 30
0.0
 11
112.2639400698
 21
-64.10188392345
 31
0.0
  0
LINE
  5
19D
330
1F
100
AcDbEntity
  8
SLD-0
  6
CONTINUOUS
 62
     7
100
AcDbLine
 10
111.6139400426
 20
-64.10188392345
 30
0.0
 11
111.6139400426
 21
-67.10188441515
 31
0.0
  0
LINE
  5
19E
330
1F
100
AcDbEntity
  8
SLD-0
  6
CONTINUOUS
 62
     7
100
AcDbLine
 10
111.6139400426
 20
-67.10188441515
 30
0.0
 11
112.2639400698
 21
-67.10188441515
 31
0.0
  0
LINE
  5
19F
330
1F
100
AcDbEntity
  8
SLD-0
  6
CONTINUOUS
 62
     7
100
AcDbLine
 10
112.2639400698
 20
-64.10188392345
 30
0.0
 11
111.6139400426
 21
-64.10188392345
 31
0.0
  0
LINE
  5
1A0
330
1F
100
AcDbEntity
  8
SLD-0
  6
CONTINUOUS
 62
     7
100
AcDbLine
 10
112.2639400698
 20
-74.72188376425
 30
0.0
 11
112.2639400698
 21
-71.72188513515
 31
0.0
  0
LINE
  5
1A1
330
1F
100
AcDbEntity
  8
SLD-0
  6
CONTINUOUS
 62
     7
100
AcDbLine
 10
112.3955925275
 20
-74.72188376425
 30
0.0
 11
112.3955925275
 21
-71.72188513515
 31
0.0
  0
LINE
  5
1A2
330
1F
100
AcDbEntity
  8
SLD-0
  6
CONTINUOUS
 62
     7
100
AcDbLine
 10
112.2639400698
 20
-74.72188376425
 30
0.0
 11
112.3955925275
 21
-74.72188376425
 31
0.0
  0
LINE
  5
1A3
330
1F
100
AcDbEntity
  8
SLD-0
  6
CONTINUOUS
 62
     7
100
AcDbLine
 10
112.3955925275
 20
-71.72188513515
 30
0.0
 11
112.2639400698
 21
-71.72188513515
 31
0.0
  0
LINE
  5
1A4
330
1F
100
AcDbEntity
  8
SLD-0
  6
CONTINUOUS
 62
     7
100
AcDbLine
 10
112.2639400698
 20
-70.91188408975
 30
0.0
 11
112.2639400698
 21
-67.91188452934999
 31
0.0
  0
LINE
  5
1A5
330
1F
100
AcDbEntity
  8
SLD-0
  6
CONTINUOUS
 62
     7
100
AcDbLine
 10
112.3955925275
 20
-70.91188408975
 30
0.0
 11
112.3955925275
 21
-67.91188452934999
 31
0.0
  0
LINE
  5
1A6
330
1F
100
AcDbEntity
  8
SLD-0
  6
CONTINUOUS
 62
     7
100
AcDbLine
 10
112.3955925275
 20
-67.91188452934999
 30
0.0
 11
112.2639400698
 21
-67.91188452934999
 31
0.0
  0
LINE
  5
1A7
330
1F
100
AcDbEntity
  8
SLD-0
  6
CONTINUOUS
 62
     7
100
AcDbLine
 10
112.2639400698
 20
-70.91188408975
 30
0.0
 11
112.3955925275
 21
-70.91188408975
 31
0.0
  0
LINE
  5
1A8
330
1F
100
AcDbEntity
  8
SLD-0
  6
CONTINUOUS
 62
     7
100
AcDbLine
 10
111.6139400426
 20
-60.29188424885
 30
0.0
 11
111.6139400426
 21
-63.29188474064999
 31
0.0
  0
LINE
  5
1A9
330
1F
100
AcDbEntity
  8
SLD-0
  6
CONTINUOUS
 62
     7
100
AcDbLine
 10
112.2639400698
 20
-63.29188474064999
 30
0.0
 11
112.2639400698
 21
-60.29188424885
 31
0.0
  0
LINE
  5
1AA
330
1F
100
AcDbEntity
  8
SLD-0
  6
CONTINUOUS
 62
     7
100
AcDbLine
 10
112.2639400698
 20
-60.29188424885
 30
0.0
 11
111.6139400426
 21
-60.29188424885
 31
0.0
  0
LINE
  5
1AB
330
1F
100
AcDbEntity
  8
SLD-0
  6
CONTINUOUS
 62
     7
100
AcDbLine
 10
111.6139400426
 20
-63.29188474064999
 30
0.0
 11
112.2639400698
 21
-63.29188474064999
 31
0.0
  0
LINE
  5
1AC
330
1F
100
AcDbEntity
  8
SLD-0
  6
CONTINUOUS
 62
     7
100
AcDbLine
 10
112.3955925275
 20
-63.29188474064999
 30
0.0
 11
112.3955925275
 21
-60.29188424885
 31
0.0
  0
LINE
  5
1AD
330
1F
100
AcDbEntity
  8
SLD-0
  6
CONTINUOUS
 62
     7
100
AcDbLine
 10
112.3955925275
 20
-60.29188424885
 30
0.0
 11
112.2639400698
 21
-60.29188424885
 31
0.0
  0
LINE
  5
1AE
330
1F
100
AcDbEntity
  8
SLD-0
  6
CONTINUOUS
 62
     7
100
AcDbLine
 10
112.2639400698
 20
-63.29188474064999
 30
0.0
 11
112.3955925275
 21
-63.29188474064999
 31
0.0
  0
LINE
  5
1AF
330
1F
100
AcDbEntity
  8
SLD-0
  6
CONTINUOUS
 62
     7
100
AcDbLine
 10
112.2639400698
 20
-59.48188413474999
 30
0.0
 11
112.2639400698
 21
-56.48188434145
 31
0.0
  0
LINE
  5
1B0
330
1F
100
AcDbEntity
  8
SLD-0
  6
CONTINUOUS
 62
     7
100
AcDbLine
 10
112.3955925275
 20
-59.48188413474999
 30
0.0
 11
112.3955925275
 21
-56.48188434145
 31
0.0
  0
LINE
  5
1B1
330
1F
100
AcDbEntity
  8
SLD-0
  6
CONTINUOUS
 62
     7
100
AcDbLine
 10
112.2639400698
 20
-59.48188413474999
 30
0.0
 11
112.3955925275
 21
-59.48188413474999
 31
0.0
  0
LINE
  5
1B2
330
1F
100
AcDbEntity
  8
SLD-0
  6
CONTINUOUS
 62
     7
100
AcDbLine
 10
112.3955925275
 20
-56.48188434145
 30
0.0
 11
112.2639400698
 21
-56.48188434145
 31
0.0
  0
LINE
  5
1B3
330
1F
100
AcDbEntity
  8
SLD-0
  6
CONTINUOUS
 62
     7
100
AcDbLine
 10
112.2639400698
 20
-78.53188343885
 30
0.0
 11
112.2639400698
 21
-75.53188480975
 31
0.0
  0
LINE
  5
1B4
330
1F
100
AcDbEntity
  8
SLD-0
  6
CONTINUOUS
 62
     7
100
AcDbLine
 10
111.6139400426
 20
-75.53188480975
 30
0.0
 11
111.6139400426
 21
-78.53188343885
 31
0.0
  0
LINE
  5
1B5
330
1F
100
AcDbEntity
  8
SLD-0
  6
CONTINUOUS
 62
     7
100
AcDbLine
 10
111.6139400426
 20
-78.53188343885
 30
0.0
 11
112.2639400698
 21
-78.53188343885
 31
0.0
  0
LINE
  5
1B6
330
1F
100
AcDbEntity
  8
SLD-0
  6
CONTINUOUS
 62
     7
100
AcDbLine
 10
112.2639400698
 20
-75.53188480975
 30
0.0
 11
111.6139400426
 21
-75.53188480975
 31
0.0
  0
LINE
  5
1B7
330
1F
100
AcDbEntity
  8
SLD-0
  6
CONTINUOUS
 62
     7
100
AcDbLine
 10
111.6139400426
 20
-71.72188513515
 30
0.0
 11
111.6139400426
 21
-74.72188376425
 31
0.0
  0
LINE
  5
1B8
330
1F
100
AcDbEntity
  8
SLD-0
  6
CONTINUOUS
 62
     7
100
AcDbLine
 10
111.6139400426
 20
-74.72188376425
 30
0.0
 11
112.2639400698
 21
-74.72188376425
 31
0.0
  0
LINE
  5
1B9
330
1F
100
AcDbEntity
  8
SLD-0
  6
CONTINUOUS
 62
     7
100
AcDbLine
 10
112.2639400698
 20
-71.72188513515
 30
0.0
 11
111.6139400426
 21
-71.72188513515
 31
0.0
  0
LINE
  5
1BA
330
1F
100
AcDbEntity
  8
SLD-0
  6
CONTINUOUS
 62
     7
100
AcDbLine
 10
111.6139400426
 20
-67.91188452934999
 30
0.0
 11
111.6139400426
 21
-70.91188408975
 31
0.0
  0
LINE
  5
1BB
330
1F
100
AcDbEntity
  8
SLD-0
  6
CONTINUOUS
 62
     7
100
AcDbLine
 10
112.2639400698
 20
-67.91188452934999
 30
0.0
 11
111.6139400426
 21
-67.91188452934999
 31
0.0
  0
LINE
  5
1BC
330
1F
100
AcDbEntity
  8
SLD-0
  6
CONTINUOUS
 62
     7
100
AcDbLine
 10
111.6139400426
 20
-70.91188408975
 30
0.0
 11
112.2639400698
 21
-70.91188408975
 31
0.0
  0
LINE
  5
1BD
330
1F
100
AcDbEntity
  8
SLD-0
  6
CONTINUOUS
 62
     7
100
AcDbLine
 10
112.2639400698
 20
-82.34188497605
 30
0.0
 11
112.2639400698
 21
-79.34188448434999
 31
0.0
  0
LINE
  5
1BE
330
1F
100
AcDbEntity
  8
SLD-0
  6
CONTINUOUS
 62
     7
100
AcDbLine
 10
112.3955925275
 20
-82.34188497605
 30
0.0
 11
112.3955925275
 21
-79.34188448434999
 31
0.0
  0
LINE
  5
1BF
330
1F
100
AcDbEntity
  8
SLD-0
  6
CONTINUOUS
 62
     7
100
AcDbLine
 10
112.2639400698
 20
-82.34188497605
 30
0.0
 11
112.3955925275
 21
-82.34188497605
 31
0.0
  0
LINE
  5
1C0
330
1F
100
AcDbEntity
  8
SLD-0
  6
CONTINUOUS
 62
     7
100
AcDbLine
 10
112.3955925275
 20
-79.34188448434999
 30
0.0
 11
112.2639400698
 21
-79.34188448434999
 31
0.0
  0
LINE
  5
1C1
330
1F
100
AcDbEntity
  8
SLD-0
  6
CONTINUOUS
 62
     7
100
AcDbLine
 10
112.3955925275
 20
-78.53188343885
 30
0.0
 11
112.3955925275
 21
-75.53188480975
 31
0.0
  0
LINE
  5
1C2
330
1F
100
AcDbEntity
  8
SLD-0
  6
CONTINUOUS
 62
     7
100
AcDbLine
 10
112.2639400698
 20
-78.53188343885
 30
0.0
 11
112.3955925275
 21
-78.53188343885
 31
0.0
  0
LINE
  5
1C3
330
1F
100
AcDbEntity
  8
SLD-0
  6
CONTINUOUS
 62
     7
100
AcDbLine
 10
112.3955925275
 20
-75.53188480975
 30
0.0
 11
112.2639400698
 21
-75.53188480975
 31
0.0
  0
LINE
  5
1C4
330
1F
100
AcDbEntity
  8
SLD-0
  6
CONTINUOUS
 62
     7
100
AcDbLine
 10
111.6139400426
 20
-56.48188434145
 30
0.0
 11
111.6139400426
 21
-59.48188413474999
 31
0.0
  0
LINE
  5
1C5
330
1F
100
AcDbEntity
  8
SLD-0
  6
CONTINUOUS
 62
     7
100
AcDbLine
 10
111.6139400426
 20
-59.48188413474999
 30
0.0
 11
112.2639400698
 21
-59.48188413474999
 31
0.0
  0
LINE
  5
1C6
330
1F
100
AcDbEntity
  8
SLD-0
  6
CONTINUOUS
 62
     7
100
AcDbLine
 10
112.2639400698
 20
-56.48188434145
 30
0.0
 11
111.6139400426
 21
-56.48188434145
 31
0.0
  0
LINE
  5
1C7
330
1F
100
AcDbEntity
  8
SLD-0
  6
CONTINUOUS
 62
     7
100
AcDbLine
 10
111.6139400426
 20
-79.34188448434999
 30
0.0
 11
111.6139400426
 21
-82.34188497605
 31
0.0
  0
LINE
  5
1C8
330
1F
100
AcDbEntity
  8
SLD-0
  6
CONTINUOUS
 62
     7
100
AcDbLine
 10
111.6139400426
 20
-82.34188497605
 30
0.0
 11
112.2639400698
 21
-82.34188497605
 31
0.0
  0
LINE
  5
1C9
330
1F
100
AcDbEntity
  8
SLD-0
  6
CONTINUOUS
 62
     7
100
AcDbLine
 10
112.2639400698
 20
-79.34188448434999
 30
0.0
 11
111.6139400426
 21
-79.34188448434999
 31
0.0
  0
LINE
  5
1CA
330
1F
100
AcDbEntity
  8
SLD-0
  6
CONTINUOUS
 62
     7
100
AcDbLine
 10
112.3955925275
 20
-74.72188376425
 30
0.0
 11
112.8322875872
 21
-74.72188376425
 31
0.0
  0
LINE
  5
1CB
330
1F
100
AcDbEntity
  8
SLD-0
  6
CONTINUOUS
 62
     7
100
AcDbLine
 10
112.8322875872
 20
-71.72188513515
 30
0.0
 11
112.3955925275
 21
-71.72188513515
 31
0.0
  0
LINE
  5
1CC
330
1F
100
AcDbEntity
  8
SLD-0
  6
CONTINUOUS
 62
     7
100
AcDbLine
 10
112.3955925275
 20
-59.48188413474999
 30
0.0
 11
112.8322875872
 21
-59.48188413474999
 31
0.0
  0
LINE
  5
1CD
330
1F
100
AcDbEntity
  8
SLD-0
  6
CONTINUOUS
 62
     7
100
AcDbLine
 10
112.8322875872
 20
-56.48188434145
 30
0.0
 11
112.3955925275
 21
-56.48188434145
 31
0.0
  0
LINE
  5
1CE
330
1F
100
AcDbEntity
  8
SLD-0
  6
CONTINUOUS
 62
     7
100
AcDbLine
 10
112.3955925275
 20
-82.34188497605
 30
0.0
 11
112.8322875872
 21
-82.34188497605
 31
0.0
  0
LINE
  5
1CF
330
1F
100
AcDbEntity
  8
SLD-0
  6
CONTINUOUS
 62
     7
100
AcDbLine
 10
112.8322875872
 20
-79.34188448434999
 30
0.0
 11
112.3955925275
 21
-79.34188448434999
 31
0.0
  0
LINE
  5
1D0
330
1F
100
AcDbEntity
  8
SLD-0
  6
CONTINUOUS
 62
     7
100
AcDbLine
 10
112.8322875872
 20
-60.29188424885
 30
0.0
 11
112.3955925275
 21
-60.29188424885
 31
0.0
  0
LINE
  5
1D1
330
1F
100
AcDbEntity
  8
SLD-0
  6
CONTINUOUS
 62
     7
100
AcDbLine
 10
112.3955925275
 20
-63.29188474064999
 30
0.0
 11
112.8322875872
 21
-63.29188474064999
 31
0.0
  0
LINE
  5
1D2
330
1F
100
AcDbEntity
  8
SLD-0
  6
CONTINUOUS
 62
     7
100
AcDbLine
 10
112.3955925275
 20
-78.53188343885
 30
0.0
 11
112.8322875872
 21
-78.53188343885
 31
0.0
  0
LINE
  5
1D3
330
1F
100
AcDbEntity
  8
SLD-0
  6
CONTINUOUS
 62
     7
100
AcDbLine
 10
112.8322875872
 20
-75.53188480975
 30
0.0
 11
112.3955925275
 21
-75.53188480975
 31
0.0
  0
LINE
  5
1D4
330
1F
100
AcDbEntity
  8
SLD-0
  6
CONTINUOUS
 62
     7
100
AcDbLine
 10
112.3955925275
 20
-67.10188441515
 30
0.0
 11
112.8322875872
 21
-67.10188441515
 31
0.0
  0
LINE
  5
1D5
330
1F
100
AcDbEntity
  8
SLD-0
  6
CONTINUOUS
 62
     7
100
AcDbLine
 10
112.8322875872
 20
-64.10188392345
 30
0.0
 11
112.3955925275
 21
-64.10188392345
 31
0.0
  0
LINE
  5
1D6
330
1F
100
AcDbEntity
  8
SLD-0
  6
CONTINUOUS
 62
     7
100
AcDbLine
 10
112.8322875872
 20
-67.91188452934999
 30
0.0
 11
112.3955925275
 21
-67.91188452934999
 31
0.0
  0
LINE
  5
1D7
330
1F
100
AcDbEntity
  8
SLD-0
  6
CONTINUOUS
 62
     7
100
AcDbLine
 10
112.3955925275
 20
-70.91188408975
 30
0.0
 11
112.8322875872
 21
-70.91188408975
 31
0.0
  0
LINE
  5
1D8
330
1F
100
AcDbEntity
  8
SLD-0
  6
CONTINUOUS
 62
     7
100
AcDbLine
 10
108.1639399333
 20
-56.98188419064999
 30
0.0
 11
106.8639398134
 21
-56.98188419064999
 31
0.0
  0
LINE
  5
1D9
330
1F
100
AcDbEntity
  8
SLD-0
  6
CONTINUOUS
 62
     7
100
AcDbLine
 10
106.8639398134
 20
-56.98188419064999
 30
0.0
 11
106.8639398134
 21
-58.98188451845
 31
0.0
  0
LINE
  5
1DA
330
1F
100
AcDbEntity
  8
SLD-0
  6
CONTINUOUS
 62
     7
100
AcDbLine
 10
106.8639398134
 20
-58.98188451845
 30
0.0
 11
108.1639399333
 21
-58.98188451845
 31
0.0
  0
LINE
  5
1DB
330
1F
100
AcDbEntity
  8
SLD-0
  6
CONTINUOUS
 62
     7
100
AcDbLine
 10
108.1639399333
 20
-58.98188451845
 30
0.0
 11
108.1639399333
 21
-56.98188419064999
 31
0.0
  0
LINE
  5
1DC
330
1F
100
AcDbEntity
  8
SLD-0
  6
CONTINUOUS
 62
     7
100
AcDbLine
 10
117.9639400495
 20
-83.14188361705
 30
0.0
 11
117.9639400495
 21
-55.68188430344999
 31
0.0
  0
LINE
  5
1DD
330
1F
100
AcDbEntity
  8
SLD-0
  6
CONTINUOUS
 62
     7
100
AcDbLine
 10
106.2639399013
 20
-83.14188361705
 30
0.0
 11
117.9639400495
 21
-83.14188361705
 31
0.0
  0
LINE
  5
1DE
330
1F
100
AcDbEntity
  8
SLD-0
  6
CONTINUOUS
 62
     7
100
AcDbLine
 10
106.2639399013
 20
-83.14188361705
 30
0.0
 11
106.2639399013
 21
-55.68188430344999
 31
0.0
  0
LINE
  5
1DF
330
1F
100
AcDbEntity
  8
SLD-0
  6
CONTINUOUS
 62
     7
100
AcDbLine
 10
117.9639400495
 20
-55.68188430344999
 30
0.0
 11
106.2639399013
 21
-55.68188430344999
 31
0.0
  0
LINE
  5
1E0
330
1F
100
AcDbEntity
  8
SLD-0
  6
CONTINUOUS
 62
     7
100
AcDbLine
 10
108.1639399333
 20
-60.79188433085
 30
0.0
 11
106.8639398134
 21
-60.79188433085
 31
0.0
  0
LINE
  5
1E1
330
1F
100
AcDbEntity
  8
SLD-0
  6
CONTINUOUS
 62
     7
100
AcDbLine
 10
106.8639398134
 20
-60.79188433085
 30
0.0
 11
106.8639398134
 21
-62.79188465864999
 31
0.0
  0
LINE
  5
1E2
330
1F
100
AcDbEntity
  8
SLD-0
  6
CONTINUOUS
 62
     7
100
AcDbLine
 10
106.8639398134
 20
-62.79188465864999
 30
0.0
 11
108.1639399333
 21
-62.79188465864999
 31
0.0
  0
LINE
  5
1E3
330
1F
100
AcDbEntity
  8
SLD-0
  6
CONTINUOUS
 62
     7
100
AcDbLine
 10
108.1639399333
 20
-62.79188465864999
 30
0.0
 11
108.1639399333
 21
-60.79188433085
 31
0.0
  0
LINE
  5
1E4
330
1F
100
AcDbEntity
  8
SLD-0
  6
CONTINUOUS
 62
     7
100
AcDbLine
 10
108.1639399333
 20
-64.60188400535
 30
0.0
 11
106.8639398134
 21
-64.60188400535
 31
0.0
  0
LINE
  5
1E5
330
1F
100
AcDbEntity
  8
SLD-0
  6
CONTINUOUS
 62
     7
100
AcDbLine
 10
106.8639398134
 20
-64.60188400535
 30
0.0
 11
106.8639398134
 21
-66.60188433325
 31
0.0
  0
LINE
  5
1E6
330
1F
100
AcDbEntity
  8
SLD-0
  6
CONTINUOUS
 62
     7
100
AcDbLine
 10
106.8639398134
 20
-66.60188433325
 30
0.0
 11
108.1639399333
 21
-66.60188433325
 31
0.0
  0
LINE
  5
1E7
330
1F
100
AcDbEntity
  8
SLD-0
  6
CONTINUOUS
 62
     7
100
AcDbLine
 10
108.1639399333
 20
-66.60188433325
 30
0.0
 11
108.1639399333
 21
-64.60188400535
 31
0.0
  0
LINE
  5
1E8
330
1F
100
AcDbEntity
  8
SLD-0
  6
CONTINUOUS
 62
     7
100
AcDbLine
 10
108.1639399333
 20
-68.41188461125
 30
0.0
 11
106.8639398134
 21
-68.41188461125
 31
0.0
  0
LINE
  5
1E9
330
1F
100
AcDbEntity
  8
SLD-0
  6
CONTINUOUS
 62
     7
100
AcDbLine
 10
106.8639398134
 20
-68.41188461125
 30
0.0
 11
106.8639398134
 21
-70.41188493905
 31
0.0
  0
LINE
  5
1EA
330
1F
100
AcDbEntity
  8
SLD-0
  6
CONTINUOUS
 62
     7
100
AcDbLine
 10
106.8639398134
 20
-70.41188493905
 30
0.0
 11
108.1639399333
 21
-70.41188493905
 31
0.0
  0
LINE
  5
1EB
330
1F
100
AcDbEntity
  8
SLD-0
  6
CONTINUOUS
 62
     7
100
AcDbLine
 10
108.1639399333
 20
-70.41188493905
 30
0.0
 11
108.1639399333
 21
-68.41188461125
 31
0.0
  0
LINE
  5
1EC
330
1F
100
AcDbEntity
  8
SLD-0
  6
CONTINUOUS
 62
     7
100
AcDbLine
 10
108.1639399333
 20
-72.22188428585
 30
0.0
 11
106.8639398134
 21
-72.22188428585
 31
0.0
  0
LINE
  5
1ED
330
1F
100
AcDbEntity
  8
SLD-0
  6
CONTINUOUS
 62
     7
100
AcDbLine
 10
106.8639398134
 20
-72.22188428585
 30
0.0
 11
106.8639398134
 21
-74.22188461364999
 31
0.0
  0
LINE
  5
1EE
330
1F
100
AcDbEntity
  8
SLD-0
  6
CONTINUOUS
 62
     7
100
AcDbLine
 10
106.8639398134
 20
-74.22188461364999
 30
0.0
 11
108.1639399333
 21
-74.22188461364999
 31
0.0
  0
LINE
  5
1EF
330
1F
100
AcDbEntity
  8
SLD-0
  6
CONTINUOUS
 62
     7
100
AcDbLine
 10
108.1639399333
 20
-74.22188461364999
 30
0.0
 11
108.1639399333
 21
-72.22188428585
 31
0.0
  0
LINE
  5
1F0
330
1F
100
AcDbEntity
  8
SLD-0
  6
CONTINUOUS
 62
     7
100
AcDbLine
 10
108.1639399333
 20
-76.03188396035
 30
0.0
 11
106.8639398134
 21
-76.03188396035
 31
0.0
  0
LINE
  5
1F1
330
1F
100
AcDbEntity
  8
SLD-0
  6
CONTINUOUS
 62
     7
100
AcDbLine
 10
106.8639398134
 20
-76.03188396035
 30
0.0
 11
106.8639398134
 21
-78.03188428825
 31
0.0
  0
LINE
  5
1F2
330
1F
100
AcDbEntity
  8
SLD-0
  6
CONTINUOUS
 62
     7
100
AcDbLine
 10
106.8639398134
 20
-78.03188428825
 30
0.0
 11
108.1639399333
 21
-78.03188428825
 31
0.0
  0
LINE
  5
1F3
330
1F
100
AcDbEntity
  8
SLD-0
  6
CONTINUOUS
 62
     7
100
AcDbLine
 10
108.1639399333
 20
-78.03188428825
 30
0.0
 11
108.1639399333
 21
-76.03188396035
 31
0.0
  0
LINE
  5
1F4
330
1F
100
AcDbEntity
  8
SLD-0
  6
CONTINUOUS
 62
     7
100
AcDbLine
 10
108.1639399333
 20
-79.84188363495
 30
0.0
 11
106.8639398134
 21
-79.84188363495
 31
0.0
  0
LINE
  5
1F5
330
1F
100
AcDbEntity
  8
SLD-0
  6
CONTINUOUS
 62
     7
100
AcDbLine
 10
106.8639398134
 20
-79.84188363495
 30
0.0
 11
106.8639398134
 21
-81.84188396275
 31
0.0
  0
LINE
  5
1F6
330
1F
100
AcDbEntity
  8
SLD-0
  6
CONTINUOUS
 62
     7
100
AcDbLine
 10
106.8639398134
 20
-81.84188396275
 30
0.0
 11
108.1639399333
 21
-81.84188396275
 31
0.0
  0
LINE
  5
1F7
330
1F
100
AcDbEntity
  8
SLD-0
  6
CONTINUOUS
 62
     7
100
AcDbLine
 10
108.1639399333
 20
-81.84188396275
 30
0.0
 11
108.1639399333
 21
-79.84188363495
 31
0.0
  0
LINE
  5
1F8
330
1F
100
AcDbEntity
  8
SLD-0
  6
CONTINUOUS
 62
     7
100
AcDbLine
 10
114.1639399855
 20
-83.82879362045
 30
0.0
 11
114.1639399855
 21
-83.14188361705
 31
0.0
  0
LINE
  5
1F9
330
1F
100
AcDbEntity
  8
SLD-0
  6
CONTINUOUS
 62
     7
100
AcDbLine
 10
114.1639399855
 20
-55.68188430344999
 30
0.0
 11
114.1639399855
 21
-54.94188425665
 31
0.0
  0
LINE
  5
1FA
330
1F
100
AcDbEntity
  8
SLD-0
  6
CONTINUOUS
 62
     7
100
AcDbLine
 10
120.4639400325
 20
-19.09188530985
 30
0.0
 11
120.4639400325
 21
-87.19188427865
 31
0.0
  0
LINE
  5
1FB
330
1F
100
AcDbEntity
  8
SLD-0
  6
CONTINUOUS
 62
     7
100
AcDbLine
 10
103.3639401621
 20
-18.59188429655001
 30
0.0
 11
119.9639400325
 21
-18.59188429655001
 31
0.0
  0
LINE
  5
1FC
330
1F
100
AcDbEntity
  8
SLD-0
  6
CONTINUOUS
 62
     7
100
AcDbLine
 10
107.7056822828
 20
-54.94188376235
 30
0.0
 11
106.7639397941
 21
-54.94188376235
 31
0.0
  0
LINE
  5
1FD
330
1F
100
AcDbEntity
  8
SLD-0
  6
CONTINUOUS
 62
     7
100
AcDbLine
 10
106.4639398368
 20
-55.24188377784999
 30
0.0
 11
106.4639398368
 21
-55.68188379365
 31
0.0
  0
LINE
  5
1FE
330
1F
100
AcDbEntity
  8
SLD-0
  6
CONTINUOUS
 62
     7
100
AcDbLine
 10
106.4639400272
 20
-83.14188361705
 30
0.0
 11
106.4639400272
 21
-83.54188480025
 31
0.0
  0
LINE
  5
1FF
330
1F
100
AcDbEntity
  8
SLD-0
  6
CONTINUOUS
 62
     7
100
AcDbLine
 10
106.851591762
 20
-83.82879399275
 30
0.0
 11
114.4762883425
 21
-83.82879362725
 31
0.0
  0
LINE
  5
200
330
1F
100
AcDbEntity
  8
SLD-0
  6
CONTINUOUS
 62
     7
100
AcDbLine
 10
114.651591762
 20
-83.82879364955
 30
0.0
 11
118.3639398307
 21
-83.82879328405
 31
0.0
  0
LINE
  5
201
330
1F
100
AcDbEntity
  8
SLD-0
  6
CONTINUOUS
 62
     7
100
AcDbLine
 10
118.3639396324
 20
-54.94188375304999
 30
0.0
 11
113.6221973568
 21
-54.94188375304999
 31
0.0
  0
LINE
  5
202
330
1F
100
AcDbEntity
  8
SLD-0
  6
CONTINUOUS
 62
     7
100
AcDbLine
 10
113.1639398522
 20
-54.64188376234999
 30
0.0
 11
108.1639398523
 21
-54.64188376234999
 31
0.0
  0
LINE
  5
203
330
1F
100
AcDbEntity
  8
SLD-0
  6
CONTINUOUS
 62
     7
100
AcDbLine
 10
118.6639398536
 20
-83.52879346684999
 30
0.0
 11
118.6639398536
 21
-55.24188376855
 31
0.0
  0
LINE
  5
204
330
1F
100
AcDbEntity
  8
SLD-0
  6
CONTINUOUS
 62
     7
100
AcDbLine
 10
119.9639400325
 20
-87.69188427865
 30
0.0
 11
103.3639401621
 21
-87.69188427865
 31
0.0
  0
LINE
  5
205
330
1F
100
AcDbEntity
  8
SLD-0
  6
CONTINUOUS
 62
     7
100
AcDbLine
 10
102.8639400414
 20
-87.19188428765
 30
0.0
 11
102.8639400414
 21
-19.09188428765
 31
0.0
  0
LINE
  5
206
330
1F
100
AcDbEntity
  8
SLD-0
  6
CONTINUOUS
 62
     7
100
AcDbLine
 10
114.8639399094
 20
-83.54188463545
 30
0.0
 11
114.8639399094
 21
-83.14188345225
 31
0.0
  0
LINE
  5
207
330
1F
100
AcDbEntity
  8
SLD-0
  6
CONTINUOUS
 62
     7
100
AcDbLine
 10
114.8639399605
 20
-55.68188430344999
 30
0.0
 11
114.8639399605
 21
-55.24188428765
 31
0.0
  0
LINE
  5
208
330
1F
100
AcDbEntity
  8
SLD-0
  6
CONTINUOUS
 62
     7
100
AcDbLine
 10
108.1639399333
 20
-89.99188595055
 30
0.0
 11
115.1639401494
 21
-89.99188595055
 31
0.0
  0
LINE
  5
209
330
1F
100
AcDbEntity
  8
SLD-0
  6
CONTINUOUS
 62
     7
100
AcDbLine
 10
108.1639399333
 20
-87.69188426975
 30
0.0
 11
108.1639399333
 21
-89.99188595055
 31
0.0
  0
LINE
  5
20A
330
1F
100
AcDbEntity
  8
SLD-0
  6
CONTINUOUS
 62
     7
100
AcDbLine
 10
115.1639401494
 20
-87.69188426975
 30
0.0
 11
115.1639401494
 21
-89.99188595055
 31
0.0
  0
LINE
  5
20B
330
1F
100
AcDbEntity
  8
SLD-0
  6
CONTINUOUS
 62
     7
100
AcDbLine
 10
108.1639399333
 20
-16.29188262464999
 30
0.0
 11
115.1639401494
 21
-16.29188262464999
 31
0.0
  0
LINE
  5
20C
330
1F
100
AcDbEntity
  8
SLD-0
  6
CONTINUOUS
 62
     7
100
AcDbLine
 10
108.1639399333
 20
-18.59188430545001
 30
0.0
 11
108.1639399333
 21
-16.29188262464999
 31
0.0
  0
LINE
  5
20D
330
1F
100
AcDbEntity
  8
SLD-0
  6
CONTINUOUS
 62
     7
100
AcDbLine
 10
115.1639401494
 20
-18.59188430545001
 30
0.0
 11
115.1639401494
 21
-16.29188262464999
 31
0.0
  0
LINE
  5
20E
330
1F
100
AcDbEntity
  8
SLD-0
  6
CONTINUOUS
 62
     7
100
AcDbLine
 10
109.9639399464
 20
-17.49188428765001
 30
0.0
 11
113.3639399464
 21
-17.49188428765001
 31
0.0
  0
LINE
  5
20F
330
1F
100
AcDbEntity
  8
SLD-0
  6
CONTINUOUS
 62
     7
100
AcDbLine
 10
113.3639400414
 20
-88.79188428764999
 30
0.0
 11
109.9639400414
 21
-88.79188428764999
 31
0.0
  0
LINE
  5
210
330
1F
100
AcDbEntity
  8
SLD-0
  6
CONTINUOUS
 62
     7
100
AcDbLine
 10
113.6639399464
 20
-17.19188428765
 30
0.0
 11
113.6639399464
 21
-16.91751905325
 31
0.0
  0
LINE
  5
211
330
1F
100
AcDbEntity
  8
SLD-0
  6
CONTINUOUS
 62
     7
100
AcDbLine
 10
113.6639400414
 20
-89.36624952195
 30
0.0
 11
113.6639400414
 21
-89.09188428765
 31
0.0
  0
LINE
  5
212
330
1F
100
AcDbEntity
  8
SLD-0
  6
CONTINUOUS
 62
     7
100
AcDbLine
 10
109.6639400414
 20
-89.09188428765
 30
0.0
 11
109.6639400414
 21
-89.36624952195
 31
0.0
  0
LINE
  5
213
330
1F
100
AcDbEntity
  8
SLD-0
  6
CONTINUOUS
 62
     7
100
AcDbLine
 10
109.6639399464
 20
-16.91751905325
 30
0.0
 11
109.6639399464
 21
-17.19188428765
 31
0.0
  0
LINE
  5
214
330
1F
100
AcDbEntity
  8
SLD-0
  6
CONTINUOUS
 62
     7
100
AcDbLine
 10
120.7139402708
 20
-56.64188416614999
 30
0.0
 11
120.7139402708
 21
-88.69188234155
 31
0.0
  0
LINE
  5
215
330
1F
100
AcDbEntity
  8
SLD-0
  6
CONTINUOUS
 62
     7
100
AcDbLine
 10
120.2139400414
 20
-89.19188428765
 30
0.0
 11
116.1639398476
 21
-89.19188358425
 31
0.0
  0
LINE
  5
216
330
1F
100
AcDbEntity
  8
SLD-0
  6
CONTINUOUS
 62
     7
100
AcDbLine
 10
120.4639397642
 20
-56.64188416614999
 30
0.0
 11
120.7139402708
 21
-56.64188416614999
 31
0.0
  0
LINE
  5
217
330
1F
100
AcDbEntity
  8
SLD-0
  6
CONTINUOUS
 62
     7
100
AcDbLine
 10
116.1639398476
 20
-89.19188358425
 30
0.0
 11
116.1639398476
 21
-87.69188426975
 31
0.0
  0
LINE
  5
218
330
1F
100
AcDbEntity
  8
SLD-0
  6
CONTINUOUS
 62
     7
100
AcDbLine
 10
116.1639399698
 20
-17.09188440985
 30
0.0
 11
120.2139405405
 21
-17.09188440985
 31
0.0
  0
LINE
  5
219
330
1F
100
AcDbEntity
  8
SLD-0
  6
CONTINUOUS
 62
     7
100
AcDbLine
 10
120.4639397642
 20
-49.64188395005
 30
0.0
 11
120.7139402708
 21
-49.64188395005
 31
0.0
  0
LINE
  5
21A
330
1F
100
AcDbEntity
  8
SLD-0
  6
CONTINUOUS
 62
     7
100
AcDbLine
 10
120.7139398119
 20
-17.59188405814999
 30
0.0
 11
120.7139402708
 21
-49.64188395005
 31
0.0
  0
LINE
  5
21B
330
1F
100
AcDbEntity
  8
SLD-0
  6
CONTINUOUS
 62
     7
100
AcDbLine
 10
116.1639399698
 20
-17.09188440985
 30
0.0
 11
116.1639399698
 21
-18.59188372435
 31
0.0
  0
LINE
  5
21C
330
1F
100
AcDbEntity
  8
SLD-0
  6
CONTINUOUS
 62
     7
100
AcDbLine
 10
102.6139400414
 20
-88.69188428765
 30
0.0
 11
102.6139395824
 21
-72.64188468994999
 31
0.0
  0
LINE
  5
21D
330
1F
100
AcDbEntity
  8
SLD-0
  6
CONTINUOUS
 62
     7
100
AcDbLine
 10
102.863940089
 20
-72.64188468994999
 30
0.0
 11
102.6139395824
 21
-72.64188468994999
 31
0.0
  0
LINE
  5
21E
330
1F
100
AcDbEntity
  8
SLD-0
  6
CONTINUOUS
 62
     7
100
AcDbLine
 10
107.1639402351
 20
-89.19188358425
 30
0.0
 11
103.1139400414
 21
-89.19188428765
 31
0.0
  0
LINE
  5
21F
330
1F
100
AcDbEntity
  8
SLD-0
  6
CONTINUOUS
 62
     7
100
AcDbLine
 10
107.1639402351
 20
-87.69188426975
 30
0.0
 11
107.1639402351
 21
-89.19188358425
 31
0.0
  0
LINE
  5
220
330
1F
100
AcDbEntity
  8
SLD-0
  6
CONTINUOUS
 62
     7
100
AcDbLine
 10
102.6139395824
 20
-33.64188388525
 30
0.0
 11
102.6139395824
 21
-17.59188600425
 31
0.0
  0
LINE
  5
221
330
1F
100
AcDbEntity
  8
SLD-0
  6
CONTINUOUS
 62
     7
100
AcDbLine
 10
102.863940089
 20
-33.64188388525
 30
0.0
 11
102.6139395824
 21
-33.64188388525
 31
0.0
  0
LINE
  5
222
330
1F
100
AcDbEntity
  8
SLD-0
  6
CONTINUOUS
 62
     7
100
AcDbLine
 10
103.1139398119
 20
-17.09188405814999
 30
0.0
 11
107.1639400056
 21
-17.09188476144999
 31
0.0
  0
LINE
  5
223
330
1F
100
AcDbEntity
  8
SLD-0
  6
CONTINUOUS
 62
     7
100
AcDbLine
 10
107.1639400056
 20
-18.59188407594999
 30
0.0
 11
107.1639400056
 21
-17.09188476144999
 31
0.0
  0
LINE
  5
224
330
1F
100
AcDbEntity
  8
SLD-0
  6
CONTINUOUS
 62
     7
100
AcDbLine
 10
102.6139395824
 20
-67.64188387035
 30
0.0
 11
102.6139395824
 21
-38.64188470485
 31
0.0
  0
LINE
  5
225
330
1F
100
AcDbEntity
  8
SLD-0
  6
CONTINUOUS
 62
     7
100
AcDbLine
 10
102.863940089
 20
-67.64188387035
 30
0.0
 11
102.6139395824
 21
-67.64188387035
 31
0.0
  0
LINE
  5
226
330
1F
100
AcDbEntity
  8
SLD-0
  6
CONTINUOUS
 62
     7
100
AcDbLine
 10
102.863940089
 20
-38.64188470485
 30
0.0
 11
102.6139395824
 21
-38.64188470485
 31
0.0
  0
LINE
  5
227
330
1F
100
AcDbEntity
  8
SLD-0
  6
CONTINUOUS
 62
     7
100
AcDbLine
 10
107.1639402351
 20
-89.19188358425
 30
0.0
 11
108.1639399333
 21
-89.19188358425
 31
0.0
  0
LINE
  5
228
330
1F
100
AcDbEntity
  8
SLD-0
  6
CONTINUOUS
 62
     7
100
AcDbLine
 10
115.1639401494
 20
-89.19188358425
 30
0.0
 11
116.1639398476
 21
-89.19188358425
 31
0.0
  0
LINE
  5
229
330
1F
100
AcDbEntity
  8
SLD-0
  6
CONTINUOUS
 62
     7
100
AcDbLine
 10
107.1639400056
 20
-17.09188476144999
 30
0.0
 11
108.1639397038
 21
-17.09188476144999
 31
0.0
  0
LINE
  5
22A
330
1F
100
AcDbEntity
  8
SLD-0
  6
CONTINUOUS
 62
     7
100
AcDbLine
 10
115.1639402716
 20
-17.09188440985
 30
0.0
 11
116.1639399698
 21
-17.09188440985
 31
0.0
  0
LINE
  5
22B
330
1F
100
AcDbEntity
  8
SLD-0
  6
CONTINUOUS
 62
     7
100
AcDbLine
 10
120.7139402708
 20
-49.64188395005
 30
0.0
 11
120.7139402708
 21
-56.64188416614999
 31
0.0
  0
LINE
  5
22C
330
1F
100
AcDbEntity
  8
SLD-0
  6
CONTINUOUS
 62
     7
100
AcDbLine
 10
102.6139395824
 20
-38.64188470485
 30
0.0
 11
102.6139395824
 21
-33.64188388525
 31
0.0
  0
LINE
  5
22D
330
1F
100
AcDbEntity
  8
SLD-0
  6
CONTINUOUS
 62
     7
100
AcDbLine
 10
102.6139395824
 20
-72.64188468994999
 30
0.0
 11
102.6139395824
 21
-67.64188387035
 31
0.0
  0
LINE
  5
22E
330
1F
100
AcDbEntity
  8
SLD-0
  6
CONTINUOUS
 62
     7
100
AcDbLine
 10
47.81074020969999
 20
47.50343347945
 30
0.0
 11
47.81074020969999
 21
46.75211320685
 31
0.0
  0
LINE
  5
22F
330
1F
100
AcDbEntity
  8
SLD-0
  6
CONTINUOUS
 62
     7
100
AcDbLine
 10
47.81074020969999
 20
46.75211320685
 30
0.0
 11
47.51574192149999
 21
46.75211320685
 31
0.0
  0
LINE
  5
230
330
1F
100
AcDbEntity
  8
SLD-0
  6
CONTINUOUS
 62
     7
100
AcDbLine
 10
47.81074020969999
 20
49.43211312455
 30
0.0
 11
47.51574192149999
 21
49.43211312455
 31
0.0
  0
LINE
  5
231
330
1F
100
AcDbEntity
  8
SLD-0
  6
CONTINUOUS
 62
     7
100
AcDbLine
 10
47.81074020969999
 20
49.43211312455
 30
0.0
 11
47.81074020969999
 21
48.68079285185001
 31
0.0
  0
LINE
  5
232
330
1F
100
AcDbEntity
  8
SLD-0
  6
CONTINUOUS
 62
     7
100
AcDbLine
 10
47.51574192149999
 20
47.67375282065001
 30
0.0
 11
47.81074020969999
 21
47.50343347945
 31
0.0
  0
LINE
  5
233
330
1F
100
AcDbEntity
  8
SLD-0
  6
CONTINUOUS
 62
     7
100
AcDbLine
 10
47.81074020969999
 20
48.68079285185001
 30
0.0
 11
47.51574192149999
 21
48.51047351075002
 31
0.0
  0
LINE
  5
234
330
1F
100
AcDbEntity
  8
SLD-0
  6
CONTINUOUS
 62
     7
100
AcDbLine
 10
47.81074020969999
 20
54.50343322994999
 30
0.0
 11
47.81074020969999
 21
53.75211295725001
 31
0.0
  0
LINE
  5
235
330
1F
100
AcDbEntity
  8
SLD-0
  6
CONTINUOUS
 62
     7
100
AcDbLine
 10
47.81074020969999
 20
53.75211295725001
 30
0.0
 11
47.51574192149999
 21
53.75211295725001
 31
0.0
  0
LINE
  5
236
330
1F
100
AcDbEntity
  8
SLD-0
  6
CONTINUOUS
 62
     7
100
AcDbLine
 10
47.81074020969999
 20
56.43211334065001
 30
0.0
 11
47.81074020969999
 21
55.68079306794999
 31
0.0
  0
LINE
  5
237
330
1F
100
AcDbEntity
  8
SLD-0
  6
CONTINUOUS
 62
     7
100
AcDbLine
 10
47.81074020969999
 20
55.68079306794999
 30
0.0
 11
47.51574192149999
 21
55.51047372684999
 31
0.0
  0
LINE
  5
238
330
1F
100
AcDbEntity
  8
SLD-0
  6
CONTINUOUS
 62
     7
100
AcDbLine
 10
47.51574192149999
 20
54.67375257105002
 30
0.0
 11
47.81074020969999
 21
54.50343322994999
 31
0.0
  0
LINE
  5
239
330
1F
100
AcDbEntity
  8
SLD-0
  6
CONTINUOUS
 62
     7
100
AcDbLine
 10
47.81074020969999
 20
56.43211334065001
 30
0.0
 11
47.51574192149999
 21
56.43211334065001
 31
0.0
  0
LINE
  5
23A
330
1F
100
AcDbEntity
  8
SLD-0
  6
CONTINUOUS
 62
     7
100
AcDbLine
 10
47.81074020969999
 20
32.75211370594999
 30
0.0
 11
47.51574192149999
 21
32.75211370594999
 31
0.0
  0
LINE
  5
23B
330
1F
100
AcDbEntity
  8
SLD-0
  6
CONTINUOUS
 62
     7
100
AcDbLine
 10
47.81074020969999
 20
34.68079335105
 30
0.0
 11
47.51574192149999
 21
34.51047307864999
 31
0.0
  0
LINE
  5
23C
330
1F
100
AcDbEntity
  8
SLD-0
  6
CONTINUOUS
 62
     7
100
AcDbLine
 10
47.51574192149999
 20
33.67375238845
 30
0.0
 11
47.81074020969999
 21
33.50343397865001
 31
0.0
  0
LINE
  5
23D
330
1F
100
AcDbEntity
  8
SLD-0
  6
CONTINUOUS
 62
     7
100
AcDbLine
 10
47.81074020969999
 20
35.43211362375001
 30
0.0
 11
47.51574192149999
 21
35.43211362375001
 31
0.0
  0
LINE
  5
23E
330
1F
100
AcDbEntity
  8
SLD-0
  6
CONTINUOUS
 62
     7
100
AcDbLine
 10
47.81074020969999
 20
35.43211362375001
 30
0.0
 11
47.81074020969999
 21
34.68079335105
 31
0.0
  0
LINE
  5
23F
330
1F
100
AcDbEntity
  8
SLD-0
  6
CONTINUOUS
 62
     7
100
AcDbLine
 10
47.81074020969999
 20
33.50343397865001
 30
0.0
 11
47.81074020969999
 21
32.75211370594999
 31
0.0
  0
LINE
  5
240
330
1F
100
AcDbEntity
  8
SLD-0
  6
CONTINUOUS
 62
     7
100
AcDbLine
 10
47.81074020969999
 20
39.75211299074999
 30
0.0
 11
47.51574192149999
 21
39.75211299074999
 31
0.0
  0
LINE
  5
241
330
1F
100
AcDbEntity
  8
SLD-0
  6
CONTINUOUS
 62
     7
100
AcDbLine
 10
47.81074020969999
 20
42.43211290844999
 30
0.0
 11
47.51574192149999
 21
42.43211290844999
 31
0.0
  0
LINE
  5
242
330
1F
100
AcDbEntity
  8
SLD-0
  6
CONTINUOUS
 62
     7
100
AcDbLine
 10
47.81074020969999
 20
42.43211290844999
 30
0.0
 11
47.81074020969999
 21
41.68079263585
 31
0.0
  0
LINE
  5
243
330
1F
100
AcDbEntity
  8
SLD-0
  6
CONTINUOUS
 62
     7
100
AcDbLine
 10
47.81074020969999
 20
40.50343326345001
 30
0.0
 11
47.81074020969999
 21
39.75211299074999
 31
0.0
  0
LINE
  5
244
330
1F
100
AcDbEntity
  8
SLD-0
  6
CONTINUOUS
 62
     7
100
AcDbLine
 10
47.81074020969999
 20
41.68079263585
 30
0.0
 11
47.51574192149999
 21
41.51047422605001
 31
0.0
  0
LINE
  5
245
330
1F
100
AcDbEntity
  8
SLD-0
  6
CONTINUOUS
 62
     7
100
AcDbLine
 10
47.51574192149999
 20
40.67375353585001
 30
0.0
 11
47.81074020969999
 21
40.50343326345001
 31
0.0
  0
LINE
  5
246
330
1F
100
AcDbEntity
  8
SLD-0
  6
CONTINUOUS
 62
     7
100
AcDbLine
 10
47.81074020969999
 20
52.18079342555001
 30
0.0
 11
47.51574192149999
 21
52.01047408445001
 31
0.0
  0
LINE
  5
247
330
1F
100
AcDbEntity
  8
SLD-0
  6
CONTINUOUS
 62
     7
100
AcDbLine
 10
47.51574192149999
 20
51.17375246295001
 30
0.0
 11
47.81074020969999
 21
51.00343312185001
 31
0.0
  0
LINE
  5
248
330
1F
100
AcDbEntity
  8
SLD-0
  6
CONTINUOUS
 62
     7
100
AcDbLine
 10
47.81074020969999
 20
50.25211284915
 30
0.0
 11
47.51574192149999
 21
50.25211284915
 31
0.0
  0
LINE
  5
249
330
1F
100
AcDbEntity
  8
SLD-0
  6
CONTINUOUS
 62
     7
100
AcDbLine
 10
47.81074020969999
 20
52.93211323254999
 30
0.0
 11
47.81074020969999
 21
52.18079342555001
 31
0.0
  0
LINE
  5
24A
330
1F
100
AcDbEntity
  8
SLD-0
  6
CONTINUOUS
 62
     7
100
AcDbLine
 10
47.81074020969999
 20
51.00343312185001
 30
0.0
 11
47.81074020969999
 21
50.25211284915
 31
0.0
  0
LINE
  5
24B
330
1F
100
AcDbEntity
  8
SLD-0
  6
CONTINUOUS
 62
     7
100
AcDbLine
 10
47.81074020969999
 20
52.93211323254999
 30
0.0
 11
47.51574192149999
 21
52.93211323254999
 31
0.0
  0
LINE
  5
24C
330
1F
100
AcDbEntity
  8
SLD-0
  6
CONTINUOUS
 62
     7
100
AcDbLine
 10
47.81074020969999
 20
37.00343362104999
 30
0.0
 11
47.81074020969999
 21
36.25211334835001
 31
0.0
  0
LINE
  5
24D
330
1F
100
AcDbEntity
  8
SLD-0
  6
CONTINUOUS
 62
     7
100
AcDbLine
 10
47.81074020969999
 20
36.25211334835001
 30
0.0
 11
47.51574192149999
 21
36.25211334835001
 31
0.0
  0
LINE
  5
24E
330
1F
100
AcDbEntity
  8
SLD-0
  6
CONTINUOUS
 62
     7
100
AcDbLine
 10
47.81074020969999
 20
38.93211326615
 30
0.0
 11
47.51574192149999
 21
38.93211326615
 31
0.0
  0
LINE
  5
24F
330
1F
100
AcDbEntity
  8
SLD-0
  6
CONTINUOUS
 62
     7
100
AcDbLine
 10
47.81074020969999
 20
38.93211326615
 30
0.0
 11
47.81074020969999
 21
38.18079299345001
 31
0.0
  0
LINE
  5
250
330
1F
100
AcDbEntity
  8
SLD-0
  6
CONTINUOUS
 62
     7
100
AcDbLine
 10
47.81074020969999
 20
38.18079299345001
 30
0.0
 11
47.51574192149999
 21
38.01047458364999
 31
0.0
  0
LINE
  5
251
330
1F
100
AcDbEntity
  8
SLD-0
  6
CONTINUOUS
 62
     7
100
AcDbLine
 10
47.51574192149999
 20
37.17375203085001
 30
0.0
 11
47.81074020969999
 21
37.00343362104999
 31
0.0
  0
LINE
  5
252
330
1F
100
AcDbEntity
  8
SLD-0
  6
CONTINUOUS
 62
     7
100
AcDbLine
 10
47.81074020969999
 20
44.00343290575
 30
0.0
 11
47.81074020969999
 21
43.25211263315001
 31
0.0
  0
LINE
  5
253
330
1F
100
AcDbEntity
  8
SLD-0
  6
CONTINUOUS
 62
     7
100
AcDbLine
 10
47.81074020969999
 20
43.25211263315001
 30
0.0
 11
47.51574192149999
 21
43.25211263315001
 31
0.0
  0
LINE
  5
254
330
1F
100
AcDbEntity
  8
SLD-0
  6
CONTINUOUS
 62
     7
100
AcDbLine
 10
47.81074020969999
 20
45.93211348215002
 30
0.0
 11
47.51574192149999
 21
45.93211348215002
 31
0.0
  0
LINE
  5
255
330
1F
100
AcDbEntity
  8
SLD-0
  6
CONTINUOUS
 62
     7
100
AcDbLine
 10
47.81074020969999
 20
45.93211348215002
 30
0.0
 11
47.81074020969999
 21
45.18079320945
 31
0.0
  0
LINE
  5
256
330
1F
100
AcDbEntity
  8
SLD-0
  6
CONTINUOUS
 62
     7
100
AcDbLine
 10
47.51574192149999
 20
44.17375317825
 30
0.0
 11
47.81074020969999
 21
44.00343290575
 31
0.0
  0
LINE
  5
257
330
1F
100
AcDbEntity
  8
SLD-0
  6
CONTINUOUS
 62
     7
100
AcDbLine
 10
47.81074020969999
 20
45.18079320945
 30
0.0
 11
47.51574192149999
 21
45.01047386835
 31
0.0
  0
LINE
  5
258
330
1F
100
AcDbEntity
  8
SLD-0
  6
CONTINUOUS
 62
     7
100
AcDbLine
 10
47.81074020969999
 20
37.00343362104999
 30
0.0
 11
47.81074020969999
 21
38.18079299345001
 31
0.0
  0
LINE
  5
259
330
1F
100
AcDbEntity
  8
SLD-0
  6
CONTINUOUS
 62
     7
100
AcDbLine
 10
47.81074020969999
 20
54.50343322994999
 30
0.0
 11
47.81074020969999
 21
55.68079306794999
 31
0.0
  0
LINE
  5
25A
330
1F
100
AcDbEntity
  8
SLD-0
  6
CONTINUOUS
 62
     7
100
AcDbLine
 10
47.81074020969999
 20
47.50343347945
 30
0.0
 11
47.81074020969999
 21
48.68079285185001
 31
0.0
  0
LINE
  5
25B
330
1F
100
AcDbEntity
  8
SLD-0
  6
CONTINUOUS
 62
     7
100
AcDbLine
 10
47.81074020969999
 20
33.50343397865001
 30
0.0
 11
47.81074020969999
 21
34.68079335105
 31
0.0
  0
LINE
  5
25C
330
1F
100
AcDbEntity
  8
SLD-0
  6
CONTINUOUS
 62
     7
100
AcDbLine
 10
47.81074020969999
 20
40.50343326345001
 30
0.0
 11
47.81074020969999
 21
41.68079263585
 31
0.0
  0
LINE
  5
25D
330
1F
100
AcDbEntity
  8
SLD-0
  6
CONTINUOUS
 62
     7
100
AcDbLine
 10
47.81074020969999
 20
44.00343290575
 30
0.0
 11
47.81074020969999
 21
45.18079320945
 31
0.0
  0
LINE
  5
25E
330
1F
100
AcDbEntity
  8
SLD-0
  6
CONTINUOUS
 62
     7
100
AcDbLine
 10
47.81074020969999
 20
51.00343312185001
 30
0.0
 11
47.81074020969999
 21
52.18079342555001
 31
0.0
  0
LINE
  5
25F
330
1F
100
AcDbEntity
  8
SLD-0
  6
CONTINUOUS
 62
     7
100
AcDbLine
 10
47.51574108700001
 20
94.74211316415
 30
0.0
 11
47.51574108700001
 21
26.64211316415
 31
0.0
  0
LINE
  5
260
330
1F
100
AcDbEntity
  8
SLD-0
  6
CONTINUOUS
 62
     7
100
AcDbLine
 10
47.01574108700001
 20
26.14211316415
 30
0.0
 11
-48.48425891299999
 21
26.14211316415
 31
0.0
  0
LINE
  5
261
330
1F
100
AcDbEntity
  8
SLD-0
  6
CONTINUOUS
 62
     7
100
AcDbLine
 10
-48.48425891299999
 20
95.24211316415
 30
0.0
 11
47.01574108700001
 21
95.24211316415
 31
0.0
  0
LINE
  5
262
330
1F
100
AcDbEntity
  8
SLD-0
  6
CONTINUOUS
 62
     7
100
AcDbLine
 10
108.5901023782
 20
58.44211327894999
 30
0.0
 11
108.5901023782
 21
57.19211307405001
 31
0.0
  0
LINE
  5
263
330
1F
100
AcDbEntity
  8
SLD-0
  6
CONTINUOUS
 62
     7
100
AcDbLine
 10
108.5901023782
 20
58.44211327894999
 30
0.0
 11
108.840102361
 21
58.44211327894999
 31
0.0
  0
LINE
  5
264
330
1F
100
AcDbEntity
  8
SLD-0
  6
CONTINUOUS
 62
     7
100
AcDbLine
 10
108.840102361
 20
58.44211327894999
 30
0.0
 11
109.0901024019
 21
58.69211308704999
 31
0.0
  0
LINE
  5
265
330
1F
100
AcDbEntity
  8
SLD-0
  6
CONTINUOUS
 62
     7
100
AcDbLine
 10
109.0901024019
 20
58.69211308704999
 30
0.0
 11
108.8401023609
 21
58.94211312805001
 31
0.0
  0
LINE
  5
266
330
1F
100
AcDbEntity
  8
SLD-0
  6
CONTINUOUS
 62
     7
100
AcDbLine
 10
108.8401023609
 20
58.94211312805001
 30
0.0
 11
108.5901023781
 21
58.94211312805001
 31
0.0
  0
LINE
  5
267
330
1F
100
AcDbEntity
  8
SLD-0
  6
CONTINUOUS
 62
     7
100
AcDbLine
 10
108.5901023781
 20
59.19211316895002
 30
0.0
 11
108.5901023781
 21
58.94211312805001
 31
0.0
  0
LINE
  5
268
330
1F
100
AcDbEntity
  8
SLD-0
  6
CONTINUOUS
 62
     7
100
AcDbLine
 10
110.5401023835
 20
58.89211321294999
 30
0.0
 11
110.3401022576
 21
58.69211308704999
 31
0.0
  0
LINE
  5
269
330
1F
100
AcDbEntity
  8
SLD-0
  6
CONTINUOUS
 62
     7
100
AcDbLine
 10
110.3401022576
 20
58.69211308704999
 30
0.0
 11
110.5901022986
 21
58.44211327894999
 31
0.0
  0
LINE
  5
26A
330
1F
100
AcDbEntity
  8
SLD-0
  6
CONTINUOUS
 62
     7
100
AcDbLine
 10
107.9401023473
 20
57.94211319695
 30
0.0
 11
108.5901023782
 21
57.94211319695
 31
0.0
  0
LINE
  5
26B
330
1F
100
AcDbEntity
  8
SLD-0
  6
CONTINUOUS
 62
     7
100
AcDbLine
 10
107.9401023473
 20
57.44211311505001
 30
0.0
 11
108.5901023782
 21
57.44211311505001
 31
0.0
  0
LINE
  5
26C
330
1F
100
AcDbEntity
  8
SLD-0
  6
CONTINUOUS
 62
     7
100
AcDbLine
 10
107.3401023479
 20
57.94211319695
 30
0.0
 11
107.3401023479
 21
57.44211311505001
 31
0.0
  0
LINE
  5
26D
330
1F
100
AcDbEntity
  8
SLD-0
  6
CONTINUOUS
 62
     7
100
AcDbLine
 10
107.3401023479
 20
57.94211319695
 30
0.0
 11
107.9401023473
 21
57.94211319695
 31
0.0
  0
LINE
  5
26E
330
1F
100
AcDbEntity
  8
SLD-0
  6
CONTINUOUS
 62
     7
100
AcDbLine
 10
107.3401023479
 20
57.44211311505001
 30
0.0
 11
107.9401023473
 21
57.44211311505001
 31
0.0
  0
LINE
  5
26F
330
1F
100
AcDbEntity
  8
SLD-0
  6
CONTINUOUS
 62
     7
100
AcDbLine
 10
106.5601023223
 20
51.00343314015001
 30
0.0
 11
106.5601023223
 21
52.18079306215
 31
0.0
  0
LINE
  5
270
330
1F
100
AcDbEntity
  8
SLD-0
  6
CONTINUOUS
 62
     7
100
AcDbLine
 10
105.3561017211
 20
52.18079306215
 30
0.0
 11
106.5601023223
 21
52.18079306215
 31
0.0
  0
LINE
  5
271
330
1F
100
AcDbEntity
  8
SLD-0
  6
CONTINUOUS
 62
     7
100
AcDbLine
 10
104.0601024017
 20
52.18079330645
 30
0.0
 11
105.1241029599
 21
52.18079306295002
 31
0.0
  0
LINE
  5
272
330
1F
100
AcDbEntity
  8
SLD-0
  6
CONTINUOUS
 62
     7
100
AcDbLine
 10
104.0601024017
 20
52.93211311345001
 30
0.0
 11
104.0601024017
 21
52.18079330645
 31
0.0
  0
LINE
  5
273
330
1F
100
AcDbEntity
  8
SLD-0
  6
CONTINUOUS
 62
     7
100
AcDbLine
 10
107.1401023384
 20
52.93211311345001
 30
0.0
 11
104.0601024017
 21
52.93211311345001
 31
0.0
  0
LINE
  5
274
330
1F
100
AcDbEntity
  8
SLD-0
  6
CONTINUOUS
 62
     7
100
AcDbLine
 10
107.1401023384
 20
50.25211284915
 30
0.0
 11
107.1401023384
 21
52.93211311345001
 31
0.0
  0
LINE
  5
275
330
1F
100
AcDbEntity
  8
SLD-0
  6
CONTINUOUS
 62
     7
100
AcDbLine
 10
104.0601024017
 20
50.25211284915
 30
0.0
 11
107.1401023384
 21
50.25211284915
 31
0.0
  0
LINE
  5
276
330
1F
100
AcDbEntity
  8
SLD-0
  6
CONTINUOUS
 62
     7
100
AcDbLine
 10
104.0601024017
 20
51.00343312185001
 30
0.0
 11
104.0601024017
 21
50.25211284915
 31
0.0
  0
LINE
  5
277
330
1F
100
AcDbEntity
  8
SLD-0
  6
CONTINUOUS
 62
     7
100
AcDbLine
 10
105.1241030529
 20
51.00343312185001
 30
0.0
 11
104.0601024017
 21
51.00343312185001
 31
0.0
  0
LINE
  5
278
330
1F
100
AcDbEntity
  8
SLD-0
  6
CONTINUOUS
 62
     7
100
AcDbLine
 10
106.5601023223
 20
51.00343314015001
 30
0.0
 11
105.3561017171
 21
51.00343314015001
 31
0.0
  0
LINE
  5
279
330
1F
100
AcDbEntity
  8
SLD-0
  6
CONTINUOUS
 62
     7
100
AcDbLine
 10
106.5601023458
 20
47.50343378184999
 30
0.0
 11
106.5601023458
 21
48.68079315985
 31
0.0
  0
LINE
  5
27A
330
1F
100
AcDbEntity
  8
SLD-0
  6
CONTINUOUS
 62
     7
100
AcDbLine
 10
105.3561018534
 20
48.68079315985
 30
0.0
 11
106.5601023458
 21
48.68079315985
 31
0.0
  0
LINE
  5
27B
330
1F
100
AcDbEntity
  8
SLD-0
  6
CONTINUOUS
 62
     7
100
AcDbLine
 10
104.0601024017
 20
48.68079285185001
 30
0.0
 11
105.1241030278
 21
48.68079318205
 31
0.0
  0
LINE
  5
27C
330
1F
100
AcDbEntity
  8
SLD-0
  6
CONTINUOUS
 62
     7
100
AcDbLine
 10
104.0601024017
 20
49.43211312455
 30
0.0
 11
104.0601024017
 21
48.68079285185001
 31
0.0
  0
LINE
  5
27D
330
1F
100
AcDbEntity
  8
SLD-0
  6
CONTINUOUS
 62
     7
100
AcDbLine
 10
104.0601024017
 20
46.75211320685
 30
0.0
 11
107.1401023384
 21
46.75211320685
 31
0.0
  0
LINE
  5
27E
330
1F
100
AcDbEntity
  8
SLD-0
  6
CONTINUOUS
 62
     7
100
AcDbLine
 10
104.0601024017
 20
47.50343347945
 30
0.0
 11
104.0601024017
 21
46.75211320685
 31
0.0
  0
LINE
  5
27F
330
1F
100
AcDbEntity
  8
SLD-0
  6
CONTINUOUS
 62
     7
100
AcDbLine
 10
105.1241030529
 20
47.50343347945
 30
0.0
 11
104.0601024017
 21
47.50343347945
 31
0.0
  0
LINE
  5
280
330
1F
100
AcDbEntity
  8
SLD-0
  6
CONTINUOUS
 62
     7
100
AcDbLine
 10
106.5601023458
 20
47.50343378184999
 30
0.0
 11
105.3561017406
 21
47.50343348445
 31
0.0
  0
LINE
  5
281
330
1F
100
AcDbEntity
  8
SLD-0
  6
CONTINUOUS
 62
     7
100
AcDbLine
 10
107.1401023384
 20
49.43211312455
 30
0.0
 11
104.0601024017
 21
49.43211312455
 31
0.0
  0
LINE
  5
282
330
1F
100
AcDbEntity
  8
SLD-0
  6
CONTINUOUS
 62
     7
100
AcDbLine
 10
107.1401023384
 20
46.75211320685
 30
0.0
 11
107.1401023384
 21
49.43211312455
 31
0.0
  0
LINE
  5
283
330
1F
100
AcDbEntity
  8
SLD-0
  6
CONTINUOUS
 62
     7
100
AcDbLine
 10
106.5601023432
 20
44.00343265584999
 30
0.0
 11
106.5601023432
 21
45.18079316005
 31
0.0
  0
LINE
  5
284
330
1F
100
AcDbEntity
  8
SLD-0
  6
CONTINUOUS
 62
     7
100
AcDbLine
 10
105.356101783
 20
45.18079316005
 30
0.0
 11
106.5601023432
 21
45.18079316005
 31
0.0
  0
LINE
  5
285
330
1F
100
AcDbEntity
  8
SLD-0
  6
CONTINUOUS
 62
     7
100
AcDbLine
 10
104.0601024017
 20
45.18079316895
 30
0.0
 11
105.124102919
 21
45.18079316895
 31
0.0
  0
LINE
  5
286
330
1F
100
AcDbEntity
  8
SLD-0
  6
CONTINUOUS
 62
     7
100
AcDbLine
 10
104.0601024017
 20
45.93211344165002
 30
0.0
 11
104.0601024017
 21
45.18079316895
 31
0.0
  0
LINE
  5
287
330
1F
100
AcDbEntity
  8
SLD-0
  6
CONTINUOUS
 62
     7
100
AcDbLine
 10
104.0601024017
 20
44.00343290575
 30
0.0
 11
104.0601024017
 21
43.25211263315001
 31
0.0
  0
LINE
  5
288
330
1F
100
AcDbEntity
  8
SLD-0
  6
CONTINUOUS
 62
     7
100
AcDbLine
 10
105.1241030529
 20
44.00343290575
 30
0.0
 11
104.0601024017
 21
44.00343290575
 31
0.0
  0
LINE
  5
289
330
1F
100
AcDbEntity
  8
SLD-0
  6
CONTINUOUS
 62
     7
100
AcDbLine
 10
106.5601023432
 20
44.00343265584999
 30
0.0
 11
105.356101738
 21
44.00343293214999
 31
0.0
  0
LINE
  5
28A
330
1F
100
AcDbEntity
  8
SLD-0
  6
CONTINUOUS
 62
     7
100
AcDbLine
 10
107.1401023384
 20
45.93211344165002
 30
0.0
 11
104.0601024017
 21
45.93211344165002
 31
0.0
  0
LINE
  5
28B
330
1F
100
AcDbEntity
  8
SLD-0
  6
CONTINUOUS
 62
     7
100
AcDbLine
 10
107.1401023384
 20
43.25211263315001
 30
0.0
 11
107.1401023384
 21
45.93211344165002
 31
0.0
  0
LINE
  5
28C
330
1F
100
AcDbEntity
  8
SLD-0
  6
CONTINUOUS
 62
     7
100
AcDbLine
 10
104.0601024017
 20
43.25211263315001
 30
0.0
 11
107.1401023384
 21
43.25211263315001
 31
0.0
  0
LINE
  5
28D
330
1F
100
AcDbEntity
  8
SLD-0
  6
CONTINUOUS
 62
     7
100
AcDbLine
 10
106.5601023569
 20
54.50343324425
 30
0.0
 11
106.5601023569
 21
55.68079322425001
 31
0.0
  0
LINE
  5
28E
330
1F
100
AcDbEntity
  8
SLD-0
  6
CONTINUOUS
 62
     7
100
AcDbLine
 10
105.3561018235
 20
55.68079322425001
 30
0.0
 11
106.5601023569
 21
55.68079322425001
 31
0.0
  0
LINE
  5
28F
330
1F
100
AcDbEntity
  8
SLD-0
  6
CONTINUOUS
 62
     7
100
AcDbLine
 10
104.0601024017
 20
55.68079312425002
 30
0.0
 11
105.1241029804
 21
55.68079323834999
 31
0.0
  0
LINE
  5
290
330
1F
100
AcDbEntity
  8
SLD-0
  6
CONTINUOUS
 62
     7
100
AcDbLine
 10
104.0601024017
 20
56.43211339695
 30
0.0
 11
104.0601024017
 21
55.68079312425002
 31
0.0
  0
LINE
  5
291
330
1F
100
AcDbEntity
  8
SLD-0
  6
CONTINUOUS
 62
     7
100
AcDbLine
 10
107.1401023384
 20
53.75211295725001
 30
0.0
 11
107.1401023384
 21
56.43211339695
 31
0.0
  0
LINE
  5
292
330
1F
100
AcDbEntity
  8
SLD-0
  6
CONTINUOUS
 62
     7
100
AcDbLine
 10
104.0601024017
 20
54.50343322994999
 30
0.0
 11
104.0601024017
 21
53.75211295725001
 31
0.0
  0
LINE
  5
293
330
1F
100
AcDbEntity
  8
SLD-0
  6
CONTINUOUS
 62
     7
100
AcDbLine
 10
105.1241030529
 20
54.50343322994999
 30
0.0
 11
104.0601024017
 21
54.50343322994999
 31
0.0
  0
LINE
  5
294
330
1F
100
AcDbEntity
  8
SLD-0
  6
CONTINUOUS
 62
     7
100
AcDbLine
 10
106.5601023569
 20
54.50343324425
 30
0.0
 11
105.3561017517
 21
54.50343324425
 31
0.0
  0
LINE
  5
295
330
1F
100
AcDbEntity
  8
SLD-0
  6
CONTINUOUS
 62
     7
100
AcDbLine
 10
107.1401023384
 20
56.43211339695
 30
0.0
 11
104.0601024017
 21
56.43211339695
 31
0.0
  0
LINE
  5
296
330
1F
100
AcDbEntity
  8
SLD-0
  6
CONTINUOUS
 62
     7
100
AcDbLine
 10
104.0601024017
 20
53.75211295725001
 30
0.0
 11
107.1401023384
 21
53.75211295725001
 31
0.0
  0
LINE
  5
297
330
1F
100
AcDbEntity
  8
SLD-0
  6
CONTINUOUS
 62
     7
100
AcDbLine
 10
106.5601022741
 20
37.00343405974999
 30
0.0
 11
106.5601022741
 21
38.18079280115001
 31
0.0
  0
LINE
  5
298
330
1F
100
AcDbEntity
  8
SLD-0
  6
CONTINUOUS
 62
     7
100
AcDbLine
 10
105.3561017548
 20
38.18079280115001
 30
0.0
 11
106.5601022741
 21
38.18079280115001
 31
0.0
  0
LINE
  5
299
330
1F
100
AcDbEntity
  8
SLD-0
  6
CONTINUOUS
 62
     7
100
AcDbLine
 10
104.0601024017
 20
38.18079262945
 30
0.0
 11
105.1241030546
 21
38.18079281805001
 31
0.0
  0
LINE
  5
29A
330
1F
100
AcDbEntity
  8
SLD-0
  6
CONTINUOUS
 62
     7
100
AcDbLine
 10
104.0601024017
 20
38.93211290215001
 30
0.0
 11
104.0601024017
 21
38.18079262945
 31
0.0
  0
LINE
  5
29B
330
1F
100
AcDbEntity
  8
SLD-0
  6
CONTINUOUS
 62
     7
100
AcDbLine
 10
104.0601024017
 20
37.00343362104999
 30
0.0
 11
104.0601024017
 21
36.25211334835001
 31
0.0
  0
LINE
  5
29C
330
1F
100
AcDbEntity
  8
SLD-0
  6
CONTINUOUS
 62
     7
100
AcDbLine
 10
105.1241030529
 20
37.00343362104999
 30
0.0
 11
104.0601024017
 21
37.00343362104999
 31
0.0
  0
LINE
  5
29D
330
1F
100
AcDbEntity
  8
SLD-0
  6
CONTINUOUS
 62
     7
100
AcDbLine
 10
106.5601022741
 20
37.00343405974999
 30
0.0
 11
105.3561016689
 21
37.00343362075
 31
0.0
  0
LINE
  5
29E
330
1F
100
AcDbEntity
  8
SLD-0
  6
CONTINUOUS
 62
     7
100
AcDbLine
 10
107.1401023384
 20
38.93211290215001
 30
0.0
 11
104.0601024017
 21
38.93211290215001
 31
0.0
  0
LINE
  5
29F
330
1F
100
AcDbEntity
  8
SLD-0
  6
CONTINUOUS
 62
     7
100
AcDbLine
 10
107.1401023384
 20
36.25211334835001
 30
0.0
 11
107.1401023384
 21
38.93211290215001
 31
0.0
  0
LINE
  5
2A0
330
1F
100
AcDbEntity
  8
SLD-0
  6
CONTINUOUS
 62
     7
100
AcDbLine
 10
104.0601024017
 20
36.25211334835001
 30
0.0
 11
107.1401023384
 21
36.25211334835001
 31
0.0
  0
LINE
  5
2A1
330
1F
100
AcDbEntity
  8
SLD-0
  6
CONTINUOUS
 62
     7
100
AcDbLine
 10
106.5601024196
 20
33.50343476155001
 30
0.0
 11
106.5601024196
 21
34.68079355284999
 31
0.0
  0
LINE
  5
2A2
330
1F
100
AcDbEntity
  8
SLD-0
  6
CONTINUOUS
 62
     7
100
AcDbLine
 10
105.3561018325
 20
34.68079355284999
 30
0.0
 11
106.5601024196
 21
34.68079355284999
 31
0.0
  0
LINE
  5
2A3
330
1F
100
AcDbEntity
  8
SLD-0
  6
CONTINUOUS
 62
     7
100
AcDbLine
 10
104.0601024017
 20
34.68079372535001
 30
0.0
 11
105.1241031225
 21
34.68079355635001
 31
0.0
  0
LINE
  5
2A4
330
1F
100
AcDbEntity
  8
SLD-0
  6
CONTINUOUS
 62
     7
100
AcDbLine
 10
104.0601024017
 20
35.43211399805
 30
0.0
 11
104.0601024017
 21
34.68079372535001
 31
0.0
  0
LINE
  5
2A5
330
1F
100
AcDbEntity
  8
SLD-0
  6
CONTINUOUS
 62
     7
100
AcDbLine
 10
104.0601024017
 20
33.50343397865001
 30
0.0
 11
104.0601024017
 21
32.75211370594999
 31
0.0
  0
LINE
  5
2A6
330
1F
100
AcDbEntity
  8
SLD-0
  6
CONTINUOUS
 62
     7
100
AcDbLine
 10
105.1241030529
 20
33.50343397865001
 30
0.0
 11
104.0601024017
 21
33.50343397865001
 31
0.0
  0
LINE
  5
2A7
330
1F
100
AcDbEntity
  8
SLD-0
  6
CONTINUOUS
 62
     7
100
AcDbLine
 10
106.5601024196
 20
33.50343476155001
 30
0.0
 11
105.3561018144
 21
33.50343396495001
 31
0.0
  0
LINE
  5
2A8
330
1F
100
AcDbEntity
  8
SLD-0
  6
CONTINUOUS
 62
     7
100
AcDbLine
 10
107.1401023384
 20
35.43211399805
 30
0.0
 11
104.0601024017
 21
35.43211399805
 31
0.0
  0
LINE
  5
2A9
330
1F
100
AcDbEntity
  8
SLD-0
  6
CONTINUOUS
 62
     7
100
AcDbLine
 10
107.1401023384
 20
32.75211370594999
 30
0.0
 11
107.1401023384
 21
35.43211399805
 31
0.0
  0
LINE
  5
2AA
330
1F
100
AcDbEntity
  8
SLD-0
  6
CONTINUOUS
 62
     7
100
AcDbLine
 10
104.0601024017
 20
32.75211370594999
 30
0.0
 11
107.1401023384
 21
32.75211370594999
 31
0.0
  0
LINE
  5
2AB
330
1F
100
AcDbEntity
  8
SLD-0
  6
CONTINUOUS
 62
     7
100
AcDbLine
 10
106.5601023086
 20
40.50343327645001
 30
0.0
 11
106.5601023086
 21
41.68079296315
 31
0.0
  0
LINE
  5
2AC
330
1F
100
AcDbEntity
  8
SLD-0
  6
CONTINUOUS
 62
     7
100
AcDbLine
 10
105.3561018572
 20
41.68079296315
 30
0.0
 11
106.5601023086
 21
41.68079296315
 31
0.0
  0
LINE
  5
2AD
330
1F
100
AcDbEntity
  8
SLD-0
  6
CONTINUOUS
 62
     7
100
AcDbLine
 10
104.0601024017
 20
41.68079244725001
 30
0.0
 11
105.1241029868
 21
41.68079299345001
 31
0.0
  0
LINE
  5
2AE
330
1F
100
AcDbEntity
  8
SLD-0
  6
CONTINUOUS
 62
     7
100
AcDbLine
 10
104.0601024017
 20
42.43211271985001
 30
0.0
 11
104.0601024017
 21
41.68079244725001
 31
0.0
  0
LINE
  5
2AF
330
1F
100
AcDbEntity
  8
SLD-0
  6
CONTINUOUS
 62
     7
100
AcDbLine
 10
104.0601024017
 20
40.50343326345001
 30
0.0
 11
104.0601024017
 21
39.75211299074999
 31
0.0
  0
LINE
  5
2B0
330
1F
100
AcDbEntity
  8
SLD-0
  6
CONTINUOUS
 62
     7
100
AcDbLine
 10
105.1241030529
 20
40.50343326345001
 30
0.0
 11
104.0601024017
 21
40.50343326345001
 31
0.0
  0
LINE
  5
2B1
330
1F
100
AcDbEntity
  8
SLD-0
  6
CONTINUOUS
 62
     7
100
AcDbLine
 10
106.5601023086
 20
40.50343327645001
 30
0.0
 11
105.3561017035
 21
40.50343327645001
 31
0.0
  0
LINE
  5
2B2
330
1F
100
AcDbEntity
  8
SLD-0
  6
CONTINUOUS
 62
     7
100
AcDbLine
 10
104.0601024017
 20
39.75211299074999
 30
0.0
 11
107.1401023384
 21
39.75211299074999
 31
0.0
  0
LINE
  5
2B3
330
1F
100
AcDbEntity
  8
SLD-0
  6
CONTINUOUS
 62
     7
100
AcDbLine
 10
107.1401023384
 20
42.43211271985001
 30
0.0
 11
104.0601024017
 21
42.43211271985001
 31
0.0
  0
LINE
  5
2B4
330
1F
100
AcDbEntity
  8
SLD-0
  6
CONTINUOUS
 62
     7
100
AcDbLine
 10
107.1401023384
 20
39.75211299074999
 30
0.0
 11
107.1401023384
 21
42.43211271985001
 31
0.0
  0
LINE
  5
2B5
330
1F
100
AcDbEntity
  8
SLD-0
  6
CONTINUOUS
 62
     7
100
AcDbLine
 10
105.7597175467
 20
51.29211312125
 30
0.0
 11
106.5601022959
 21
51.29211325685
 31
0.0
  0
LINE
  5
2B6
330
1F
100
AcDbEntity
  8
SLD-0
  6
CONTINUOUS
 62
     7
100
AcDbLine
 10
105.7597175571
 20
55.39211332415002
 30
0.0
 11
106.5601022313
 21
55.39211332415002
 31
0.0
  0
LINE
  5
2B7
330
1F
100
AcDbEntity
  8
SLD-0
  6
CONTINUOUS
 62
     7
100
AcDbLine
 10
105.7597175304
 20
33.79211386475001
 30
0.0
 11
106.5601022795
 21
33.79211299455
 31
0.0
  0
LINE
  5
2B8
330
1F
100
AcDbEntity
  8
SLD-0
  6
CONTINUOUS
 62
     7
100
AcDbLine
 10
105.7597176058
 20
54.79211324274999
 30
0.0
 11
106.5601023549
 21
54.79211302075001
 31
0.0
  0
LINE
  5
2B9
330
1F
100
AcDbEntity
  8
SLD-0
  6
CONTINUOUS
 62
     7
100
AcDbLine
 10
104.0601024017
 20
54.79211304955001
 30
0.0
 11
104.0601024017
 21
54.50343322994999
 31
0.0
  0
LINE
  5
2BA
330
1F
100
AcDbEntity
  8
SLD-0
  6
CONTINUOUS
 62
     7
100
AcDbLine
 10
104.0601024017
 20
54.79211304955001
 30
0.0
 11
104.720487238
 21
54.79211304955001
 31
0.0
  0
LINE
  5
2BB
330
1F
100
AcDbEntity
  8
SLD-0
  6
CONTINUOUS
 62
     7
100
AcDbLine
 10
104.0601024017
 20
55.68079312425002
 30
0.0
 11
104.0601024017
 21
55.39211339555001
 31
0.0
  0
LINE
  5
2BC
330
1F
100
AcDbEntity
  8
SLD-0
  6
CONTINUOUS
 62
     7
100
AcDbLine
 10
104.0601024017
 20
55.39211339555001
 30
0.0
 11
104.7204871264
 21
55.39211323985
 31
0.0
  0
LINE
  5
2BD
330
1F
100
AcDbEntity
  8
SLD-0
  6
CONTINUOUS
 62
     7
100
AcDbLine
 10
105.7597172498
 20
37.29211342395001
 30
0.0
 11
106.5601019989
 21
37.29211405875
 31
0.0
  0
LINE
  5
2BE
330
1F
100
AcDbEntity
  8
SLD-0
  6
CONTINUOUS
 62
     7
100
AcDbLine
 10
104.0601024017
 20
37.29211387325
 30
0.0
 11
104.0601024017
 21
37.00343362104999
 31
0.0
  0
LINE
  5
2BF
330
1F
100
AcDbEntity
  8
SLD-0
  6
CONTINUOUS
 62
     7
100
AcDbLine
 10
104.0601024017
 20
37.29211387325
 30
0.0
 11
104.7204872143
 21
37.29211387325
 31
0.0
  0
LINE
  5
2C0
330
1F
100
AcDbEntity
  8
SLD-0
  6
CONTINUOUS
 62
     7
100
AcDbLine
 10
104.0601024017
 20
38.18079262945
 30
0.0
 11
104.0601024017
 21
37.89211263045001
 31
0.0
  0
LINE
  5
2C1
330
1F
100
AcDbEntity
  8
SLD-0
  6
CONTINUOUS
 62
     7
100
AcDbLine
 10
104.0601024017
 20
37.89211263045001
 30
0.0
 11
104.7204874737
 21
37.89211301485
 31
0.0
  0
LINE
  5
2C2
330
1F
100
AcDbEntity
  8
SLD-0
  6
CONTINUOUS
 62
     7
100
AcDbLine
 10
105.759717435
 20
37.89211269415
 30
0.0
 11
106.5601021092
 21
37.89211269415
 31
0.0
  0
LINE
  5
2C3
330
1F
100
AcDbEntity
  8
SLD-0
  6
CONTINUOUS
 62
     7
100
AcDbLine
 10
104.0601024017
 20
51.29211319615001
 30
0.0
 11
104.0601024017
 21
51.00343312185001
 31
0.0
  0
LINE
  5
2C4
330
1F
100
AcDbEntity
  8
SLD-0
  6
CONTINUOUS
 62
     7
100
AcDbLine
 10
104.0601024017
 20
51.29211319615001
 30
0.0
 11
104.7204870871
 21
51.29211319615001
 31
0.0
  0
LINE
  5
2C5
330
1F
100
AcDbEntity
  8
SLD-0
  6
CONTINUOUS
 62
     7
100
AcDbLine
 10
104.0601024017
 20
52.18079330645
 30
0.0
 11
104.0601024017
 21
51.89211308185
 31
0.0
  0
LINE
  5
2C6
330
1F
100
AcDbEntity
  8
SLD-0
  6
CONTINUOUS
 62
     7
100
AcDbLine
 10
104.0601024017
 20
51.89211308185
 30
0.0
 11
104.7204871303
 21
51.89211308185
 31
0.0
  0
LINE
  5
2C7
330
1F
100
AcDbEntity
  8
SLD-0
  6
CONTINUOUS
 62
     7
100
AcDbLine
 10
105.7597175448
 20
51.89211308525
 30
0.0
 11
106.560102219
 21
51.89211308525
 31
0.0
  0
LINE
  5
2C8
330
1F
100
AcDbEntity
  8
SLD-0
  6
CONTINUOUS
 62
     7
100
AcDbLine
 10
104.0601024017
 20
41.68079244725001
 30
0.0
 11
104.0601024017
 21
41.39211232075002
 31
0.0
  0
LINE
  5
2C9
330
1F
100
AcDbEntity
  8
SLD-0
  6
CONTINUOUS
 62
     7
100
AcDbLine
 10
104.0601024017
 20
41.39211232075002
 30
0.0
 11
104.7204872277
 21
41.39211306285
 31
0.0
  0
LINE
  5
2CA
330
1F
100
AcDbEntity
  8
SLD-0
  6
CONTINUOUS
 62
     7
100
AcDbLine
 10
104.0601024017
 20
33.79211318534999
 30
0.0
 11
104.0601024017
 21
33.50343397865001
 31
0.0
  0
LINE
  5
2CB
330
1F
100
AcDbEntity
  8
SLD-0
  6
CONTINUOUS
 62
     7
100
AcDbLine
 10
104.0601024017
 20
33.79211318534999
 30
0.0
 11
104.7204877987
 21
33.79211318534999
 31
0.0
  0
LINE
  5
2CC
330
1F
100
AcDbEntity
  8
SLD-0
  6
CONTINUOUS
 62
     7
100
AcDbLine
 10
104.0601024017
 20
34.68079372535001
 30
0.0
 11
104.0601024017
 21
34.39211365655001
 31
0.0
  0
LINE
  5
2CD
330
1F
100
AcDbEntity
  8
SLD-0
  6
CONTINUOUS
 62
     7
100
AcDbLine
 10
104.0601024017
 20
34.39211365655001
 30
0.0
 11
104.7204874065
 21
34.39211365655001
 31
0.0
  0
LINE
  5
2CE
330
1F
100
AcDbEntity
  8
SLD-0
  6
CONTINUOUS
 62
     7
100
AcDbLine
 10
105.7597175607
 20
34.39211360405
 30
0.0
 11
106.5601022349
 21
34.39211360405
 31
0.0
  0
LINE
  5
2CF
330
1F
100
AcDbEntity
  8
SLD-0
  6
CONTINUOUS
 62
     7
100
AcDbLine
 10
105.7597173636
 20
44.89211365065
 30
0.0
 11
106.5601020378
 21
44.89211365065
 31
0.0
  0
LINE
  5
2D0
330
1F
100
AcDbEntity
  8
SLD-0
  6
CONTINUOUS
 62
     7
100
AcDbLine
 10
104.0601024017
 20
47.79211305494999
 30
0.0
 11
104.0601024017
 21
47.50343347945
 31
0.0
  0
LINE
  5
2D1
330
1F
100
AcDbEntity
  8
SLD-0
  6
CONTINUOUS
 62
     7
100
AcDbLine
 10
104.0601024017
 20
47.79211305494999
 30
0.0
 11
104.7204874805
 21
47.79211305494999
 31
0.0
  0
LINE
  5
2D2
330
1F
100
AcDbEntity
  8
SLD-0
  6
CONTINUOUS
 62
     7
100
AcDbLine
 10
104.0601024017
 20
48.68079285185001
 30
0.0
 11
104.0601024017
 21
48.39211358694999
 31
0.0
  0
LINE
  5
2D3
330
1F
100
AcDbEntity
  8
SLD-0
  6
CONTINUOUS
 62
     7
100
AcDbLine
 10
104.0601024017
 20
48.39211358694999
 30
0.0
 11
104.7204874663
 21
48.39211358694999
 31
0.0
  0
LINE
  5
2D4
330
1F
100
AcDbEntity
  8
SLD-0
  6
CONTINUOUS
 62
     7
100
AcDbLine
 10
105.7597174625
 20
40.79211320704999
 30
0.0
 11
106.5601022116
 21
40.79211348425
 31
0.0
  0
LINE
  5
2D5
330
1F
100
AcDbEntity
  8
SLD-0
  6
CONTINUOUS
 62
     7
100
AcDbLine
 10
105.7597176592
 20
44.29211296234999
 30
0.0
 11
106.5601023334
 21
44.29211296234999
 31
0.0
  0
LINE
  5
2D6
330
1F
100
AcDbEntity
  8
SLD-0
  6
CONTINUOUS
 62
     7
100
AcDbLine
 10
104.0601024017
 20
44.29211290315001
 30
0.0
 11
104.0601024017
 21
44.00343290575
 31
0.0
  0
LINE
  5
2D7
330
1F
100
AcDbEntity
  8
SLD-0
  6
CONTINUOUS
 62
     7
100
AcDbLine
 10
104.0601024017
 20
44.29211290315001
 30
0.0
 11
104.720487032
 21
44.29211290315001
 31
0.0
  0
LINE
  5
2D8
330
1F
100
AcDbEntity
  8
SLD-0
  6
CONTINUOUS
 62
     7
100
AcDbLine
 10
104.0601024017
 20
45.18079316895
 30
0.0
 11
104.0601024017
 21
44.89211370995
 31
0.0
  0
LINE
  5
2D9
330
1F
100
AcDbEntity
  8
SLD-0
  6
CONTINUOUS
 62
     7
100
AcDbLine
 10
104.0601024017
 20
44.89211370995
 30
0.0
 11
104.7204873276
 21
44.89211370995
 31
0.0
  0
LINE
  5
2DA
330
1F
100
AcDbEntity
  8
SLD-0
  6
CONTINUOUS
 62
     7
100
AcDbLine
 10
105.759717322
 20
47.79211311415
 30
0.0
 11
106.5601019962
 21
47.79211311415
 31
0.0
  0
LINE
  5
2DB
330
1F
100
AcDbEntity
  8
SLD-0
  6
CONTINUOUS
 62
     7
100
AcDbLine
 10
105.7597173363
 20
48.39211352775001
 30
0.0
 11
106.5601020105
 21
48.39211352775001
 31
0.0
  0
LINE
  5
2DC
330
1F
100
AcDbEntity
  8
SLD-0
  6
CONTINUOUS
 62
     7
100
AcDbLine
 10
104.0601024017
 20
40.79211338815
 30
0.0
 11
104.0601024017
 21
40.50343326345001
 31
0.0
  0
LINE
  5
2DD
330
1F
100
AcDbEntity
  8
SLD-0
  6
CONTINUOUS
 62
     7
100
AcDbLine
 10
104.0601024017
 20
40.79211338815
 30
0.0
 11
104.7204871232
 21
40.79211338815
 31
0.0
  0
LINE
  5
2DE
330
1F
100
AcDbEntity
  8
SLD-0
  6
CONTINUOUS
 62
     7
100
AcDbLine
 10
105.7597178026
 20
41.39211247385001
 30
0.0
 11
106.5601024768
 21
41.39211247385001
 31
0.0
  0
LINE
  5
2DF
330
1F
100
AcDbEntity
  8
SLD-0
  6
CONTINUOUS
 62
     7
100
AcDbLine
 10
104.0601024017
 20
48.39211358694999
 30
0.0
 11
104.0601024017
 21
47.79211305494999
 31
0.0
  0
LINE
  5
2E0
330
1F
100
AcDbEntity
  8
SLD-0
  6
CONTINUOUS
 62
     7
100
AcDbLine
 10
104.0601024017
 20
44.89211370995
 30
0.0
 11
104.0601024017
 21
44.29211290315001
 31
0.0
  0
LINE
  5
2E1
330
1F
100
AcDbEntity
  8
SLD-0
  6
CONTINUOUS
 62
     7
100
AcDbLine
 10
104.0601024017
 20
34.39211365655001
 30
0.0
 11
104.0601024017
 21
33.79211318534999
 31
0.0
  0
LINE
  5
2E2
330
1F
100
AcDbEntity
  8
SLD-0
  6
CONTINUOUS
 62
     7
100
AcDbLine
 10
104.0601024017
 20
37.89211263045001
 30
0.0
 11
104.0601024017
 21
37.29211387325
 31
0.0
  0
LINE
  5
2E3
330
1F
100
AcDbEntity
  8
SLD-0
  6
CONTINUOUS
 62
     7
100
AcDbLine
 10
104.0601024017
 20
51.89211308185
 30
0.0
 11
104.0601024017
 21
51.29211319615001
 31
0.0
  0
LINE
  5
2E4
330
1F
100
AcDbEntity
  8
SLD-0
  6
CONTINUOUS
 62
     7
100
AcDbLine
 10
104.0601024017
 20
55.39211339555001
 30
0.0
 11
104.0601024017
 21
54.79211304955001
 31
0.0
  0
LINE
  5
2E5
330
1F
100
AcDbEntity
  8
SLD-0
  6
CONTINUOUS
 62
     7
100
AcDbLine
 10
104.0601024017
 20
41.39211232075002
 30
0.0
 11
104.0601024017
 21
40.79211338815
 31
0.0
  0
LINE
  5
2E6
330
1F
100
AcDbEntity
  8
SLD-0
  6
CONTINUOUS
 62
     7
100
AcDbLine
 10
108.5713221579
 20
57.19211287675
 30
0.0
 11
109.6404682208
 21
57.19211287675
 31
0.0
  0
LINE
  5
2E7
330
1F
100
AcDbEntity
  8
SLD-0
  6
CONTINUOUS
 62
     7
100
AcDbLine
 10
108.5713221579
 20
31.99211330964999
 30
0.0
 11
109.6404682208
 21
31.99211330964999
 31
0.0
  0
LINE
  5
2E8
330
1F
100
AcDbEntity
  8
SLD-0
  6
CONTINUOUS
 62
     7
100
AcDbLine
 10
107.3901022482
 20
56.09211321785
 30
0.0
 11
107.1901022387
 21
56.09211321785
 31
0.0
  0
LINE
  5
2E9
330
1F
100
AcDbEntity
  8
SLD-0
  6
CONTINUOUS
 62
     7
100
AcDbLine
 10
103.9901021464
 20
57.19211287675
 30
0.0
 11
103.9901021464
 21
56.49211313455001
 31
0.0
  0
LINE
  5
2EA
330
1F
100
AcDbEntity
  8
SLD-0
  6
CONTINUOUS
 62
     7
100
AcDbLine
 10
107.1901022387
 20
56.49211313455001
 30
0.0
 11
103.9901021464
 21
56.49211313455001
 31
0.0
  0
LINE
  5
2EB
330
1F
100
AcDbEntity
  8
SLD-0
  6
CONTINUOUS
 62
     7
100
AcDbLine
 10
107.1901022387
 20
56.09211321785
 30
0.0
 11
107.1901022387
 21
56.49211313455001
 31
0.0
  0
LINE
  5
2EC
330
1F
100
AcDbEntity
  8
SLD-0
  6
CONTINUOUS
 62
     7
100
AcDbLine
 10
103.9901021464
 20
57.19211287675
 30
0.0
 11
108.5713221579
 21
57.19211287675
 31
0.0
  0
LINE
  5
2ED
330
1F
100
AcDbEntity
  8
SLD-0
  6
CONTINUOUS
 62
     7
100
AcDbLine
 10
107.3901019733
 20
45.59211318235
 30
0.0
 11
107.1901019638
 21
45.59211318235
 31
0.0
  0
LINE
  5
2EE
330
1F
100
AcDbEntity
  8
SLD-0
  6
CONTINUOUS
 62
     7
100
AcDbLine
 10
107.1901019638
 20
45.59211318235
 30
0.0
 11
107.1901019638
 21
45.99211281045001
 31
0.0
  0
LINE
  5
2EF
330
1F
100
AcDbEntity
  8
SLD-0
  6
CONTINUOUS
 62
     7
100
AcDbLine
 10
107.1901019638
 20
45.99211281045001
 30
0.0
 11
103.9901021464
 21
45.99211281045001
 31
0.0
  0
LINE
  5
2F0
330
1F
100
AcDbEntity
  8
SLD-0
  6
CONTINUOUS
 62
     7
100
AcDbLine
 10
103.9901021464
 20
46.69211255265
 30
0.0
 11
103.9901021464
 21
45.99211281045001
 31
0.0
  0
LINE
  5
2F1
330
1F
100
AcDbEntity
  8
SLD-0
  6
CONTINUOUS
 62
     7
100
AcDbLine
 10
107.190102182
 20
46.69211255265
 30
0.0
 11
107.190102182
 21
47.09211299175001
 31
0.0
  0
LINE
  5
2F2
330
1F
100
AcDbEntity
  8
SLD-0
  6
CONTINUOUS
 62
     7
100
AcDbLine
 10
107.190102182
 20
47.09211299175001
 30
0.0
 11
107.3901020766
 21
47.09211299175001
 31
0.0
  0
LINE
  5
2F3
330
1F
100
AcDbEntity
  8
SLD-0
  6
CONTINUOUS
 62
     7
100
AcDbLine
 10
103.9901021464
 20
46.69211255265
 30
0.0
 11
107.190102182
 21
46.69211255265
 31
0.0
  0
LINE
  5
2F4
330
1F
100
AcDbEntity
  8
SLD-0
  6
CONTINUOUS
 62
     7
100
AcDbLine
 10
103.9901021464
 20
32.69211212055001
 30
0.0
 11
103.9901021464
 21
31.99211330964999
 31
0.0
  0
LINE
  5
2F5
330
1F
100
AcDbEntity
  8
SLD-0
  6
CONTINUOUS
 62
     7
100
AcDbLine
 10
107.190102182
 20
33.09211330365
 30
0.0
 11
107.3901021915
 21
33.09211330365
 31
0.0
  0
LINE
  5
2F6
330
1F
100
AcDbEntity
  8
SLD-0
  6
CONTINUOUS
 62
     7
100
AcDbLine
 10
103.9901021464
 20
32.69211212055001
 30
0.0
 11
107.190102182
 21
32.69211212055001
 31
0.0
  0
LINE
  5
2F7
330
1F
100
AcDbEntity
  8
SLD-0
  6
CONTINUOUS
 62
     7
100
AcDbLine
 10
107.190102182
 20
32.69211212055001
 30
0.0
 11
107.190102182
 21
33.09211330365
 31
0.0
  0
LINE
  5
2F8
330
1F
100
AcDbEntity
  8
SLD-0
  6
CONTINUOUS
 62
     7
100
AcDbLine
 10
103.9901021464
 20
31.99211330964999
 30
0.0
 11
108.5713221579
 21
31.99211330964999
 31
0.0
  0
LINE
  5
2F9
330
1F
100
AcDbEntity
  8
SLD-0
  6
CONTINUOUS
 62
     7
100
AcDbLine
 10
103.9901021464
 20
50.19211312634999
 30
0.0
 11
103.9901021464
 21
49.49211338415
 31
0.0
  0
LINE
  5
2FA
330
1F
100
AcDbEntity
  8
SLD-0
  6
CONTINUOUS
 62
     7
100
AcDbLine
 10
107.190102182
 20
50.19211312634999
 30
0.0
 11
107.190102182
 21
50.59211294395001
 31
0.0
  0
LINE
  5
2FB
330
1F
100
AcDbEntity
  8
SLD-0
  6
CONTINUOUS
 62
     7
100
AcDbLine
 10
107.190102182
 20
50.59211294395001
 30
0.0
 11
107.3901019602
 21
50.59211294395001
 31
0.0
  0
LINE
  5
2FC
330
1F
100
AcDbEntity
  8
SLD-0
  6
CONTINUOUS
 62
     7
100
AcDbLine
 10
107.1901025241
 20
49.49211338415
 30
0.0
 11
103.9901021464
 21
49.49211338415
 31
0.0
  0
LINE
  5
2FD
330
1F
100
AcDbEntity
  8
SLD-0
  6
CONTINUOUS
 62
     7
100
AcDbLine
 10
107.1901025241
 20
49.09211316755
 30
0.0
 11
107.1901025241
 21
49.49211338415
 31
0.0
  0
LINE
  5
2FE
330
1F
100
AcDbEntity
  8
SLD-0
  6
CONTINUOUS
 62
     7
100
AcDbLine
 10
103.9901021464
 20
50.19211312634999
 30
0.0
 11
107.190102182
 21
50.19211312634999
 31
0.0
  0
LINE
  5
2FF
330
1F
100
AcDbEntity
  8
SLD-0
  6
CONTINUOUS
 62
     7
100
AcDbLine
 10
107.3901025336
 20
49.09211316755
 30
0.0
 11
107.1901025241
 21
49.09211316755
 31
0.0
  0
LINE
  5
300
330
1F
100
AcDbEntity
  8
SLD-0
  6
CONTINUOUS
 62
     7
100
AcDbLine
 10
103.9901021464
 20
36.19211362555001
 30
0.0
 11
103.9901021464
 21
35.49211295194999
 31
0.0
  0
LINE
  5
301
330
1F
100
AcDbEntity
  8
SLD-0
  6
CONTINUOUS
 62
     7
100
AcDbLine
 10
107.190102182
 20
36.19211362555001
 30
0.0
 11
107.190102182
 21
36.59211274115
 31
0.0
  0
LINE
  5
302
330
1F
100
AcDbEntity
  8
SLD-0
  6
CONTINUOUS
 62
     7
100
AcDbLine
 10
107.190102182
 20
36.59211274115
 30
0.0
 11
107.3901016644
 21
36.59211274115
 31
0.0
  0
LINE
  5
303
330
1F
100
AcDbEntity
  8
SLD-0
  6
CONTINUOUS
 62
     7
100
AcDbLine
 10
107.3901028712
 20
35.09211331234999
 30
0.0
 11
107.1901028617
 21
35.09211331234999
 31
0.0
  0
LINE
  5
304
330
1F
100
AcDbEntity
  8
SLD-0
  6
CONTINUOUS
 62
     7
100
AcDbLine
 10
103.9901021464
 20
36.19211362555001
 30
0.0
 11
107.190102182
 21
36.19211362555001
 31
0.0
  0
LINE
  5
305
330
1F
100
AcDbEntity
  8
SLD-0
  6
CONTINUOUS
 62
     7
100
AcDbLine
 10
107.1901028617
 20
35.49211295194999
 30
0.0
 11
103.9901021464
 21
35.49211295194999
 31
0.0
  0
LINE
  5
306
330
1F
100
AcDbEntity
  8
SLD-0
  6
CONTINUOUS
 62
     7
100
AcDbLine
 10
107.1901028617
 20
35.09211331234999
 30
0.0
 11
107.1901028617
 21
35.49211295194999
 31
0.0
  0
LINE
  5
307
330
1F
100
AcDbEntity
  8
SLD-0
  6
CONTINUOUS
 62
     7
100
AcDbLine
 10
107.3901022635
 20
52.59211309365
 30
0.0
 11
107.190102254
 21
52.59211309365
 31
0.0
  0
LINE
  5
308
330
1F
100
AcDbEntity
  8
SLD-0
  6
CONTINUOUS
 62
     7
100
AcDbLine
 10
103.9901021464
 20
53.69211276875001
 30
0.0
 11
103.9901021464
 21
52.99211302645
 31
0.0
  0
LINE
  5
309
330
1F
100
AcDbEntity
  8
SLD-0
  6
CONTINUOUS
 62
     7
100
AcDbLine
 10
107.190102254
 20
52.99211302645
 30
0.0
 11
103.9901021464
 21
52.99211302645
 31
0.0
  0
LINE
  5
30A
330
1F
100
AcDbEntity
  8
SLD-0
  6
CONTINUOUS
 62
     7
100
AcDbLine
 10
107.190102182
 20
53.69211276875001
 30
0.0
 11
107.190102182
 21
54.09211322345001
 31
0.0
  0
LINE
  5
30B
330
1F
100
AcDbEntity
  8
SLD-0
  6
CONTINUOUS
 62
     7
100
AcDbLine
 10
107.190102182
 20
54.09211322345001
 30
0.0
 11
107.3901023315
 21
54.09211322345001
 31
0.0
  0
LINE
  5
30C
330
1F
100
AcDbEntity
  8
SLD-0
  6
CONTINUOUS
 62
     7
100
AcDbLine
 10
107.190102254
 20
52.59211309365
 30
0.0
 11
107.190102254
 21
52.99211302645
 31
0.0
  0
LINE
  5
30D
330
1F
100
AcDbEntity
  8
SLD-0
  6
CONTINUOUS
 62
     7
100
AcDbLine
 10
103.9901021464
 20
53.69211276875001
 30
0.0
 11
107.190102182
 21
53.69211276875001
 31
0.0
  0
LINE
  5
30E
330
1F
100
AcDbEntity
  8
SLD-0
  6
CONTINUOUS
 62
     7
100
AcDbLine
 10
103.9901021464
 20
43.19211291025002
 30
0.0
 11
103.9901021464
 21
42.49211223675002
 31
0.0
  0
LINE
  5
30F
330
1F
100
AcDbEntity
  8
SLD-0
  6
CONTINUOUS
 62
     7
100
AcDbLine
 10
103.9901021464
 20
43.19211291025002
 30
0.0
 11
107.190102182
 21
43.19211291025002
 31
0.0
  0
LINE
  5
310
330
1F
100
AcDbEntity
  8
SLD-0
  6
CONTINUOUS
 62
     7
100
AcDbLine
 10
107.1901016796
 20
42.09211383844999
 30
0.0
 11
107.1901016796
 21
42.49211223675002
 31
0.0
  0
LINE
  5
311
330
1F
100
AcDbEntity
  8
SLD-0
  6
CONTINUOUS
 62
     7
100
AcDbLine
 10
107.190102182
 20
43.59211326715001
 30
0.0
 11
107.3901028687
 21
43.59211326715001
 31
0.0
  0
LINE
  5
312
330
1F
100
AcDbEntity
  8
SLD-0
  6
CONTINUOUS
 62
     7
100
AcDbLine
 10
107.3901016891
 20
42.09211383844999
 30
0.0
 11
107.1901016796
 21
42.09211383844999
 31
0.0
  0
LINE
  5
313
330
1F
100
AcDbEntity
  8
SLD-0
  6
CONTINUOUS
 62
     7
100
AcDbLine
 10
107.1901016796
 20
42.49211223675002
 30
0.0
 11
103.9901021464
 21
42.49211223675002
 31
0.0
  0
LINE
  5
314
330
1F
100
AcDbEntity
  8
SLD-0
  6
CONTINUOUS
 62
     7
100
AcDbLine
 10
107.190102182
 20
43.19211291025002
 30
0.0
 11
107.190102182
 21
43.59211326715001
 31
0.0
  0
LINE
  5
315
330
1F
100
AcDbEntity
  8
SLD-0
  6
CONTINUOUS
 62
     7
100
AcDbLine
 10
103.9901021464
 20
39.69211326785
 30
0.0
 11
103.9901021464
 21
38.99211259435
 31
0.0
  0
LINE
  5
316
330
1F
100
AcDbEntity
  8
SLD-0
  6
CONTINUOUS
 62
     7
100
AcDbLine
 10
107.190102182
 20
40.09211367805
 30
0.0
 11
107.3901029084
 21
40.09211367805
 31
0.0
  0
LINE
  5
317
330
1F
100
AcDbEntity
  8
SLD-0
  6
CONTINUOUS
 62
     7
100
AcDbLine
 10
107.1901029125
 20
38.99211259435
 30
0.0
 11
103.9901021464
 21
38.99211259435
 31
0.0
  0
LINE
  5
318
330
1F
100
AcDbEntity
  8
SLD-0
  6
CONTINUOUS
 62
     7
100
AcDbLine
 10
107.390102922
 20
38.59211290145001
 30
0.0
 11
107.1901029125
 21
38.59211290145001
 31
0.0
  0
LINE
  5
319
330
1F
100
AcDbEntity
  8
SLD-0
  6
CONTINUOUS
 62
     7
100
AcDbLine
 10
107.190102182
 20
39.69211326785
 30
0.0
 11
107.190102182
 21
40.09211367805
 31
0.0
  0
LINE
  5
31A
330
1F
100
AcDbEntity
  8
SLD-0
  6
CONTINUOUS
 62
     7
100
AcDbLine
 10
103.9901021464
 20
39.69211326785
 30
0.0
 11
107.190102182
 21
39.69211326785
 31
0.0
  0
LINE
  5
31B
330
1F
100
AcDbEntity
  8
SLD-0
  6
CONTINUOUS
 62
     7
100
AcDbLine
 10
107.1901029125
 20
38.59211290145001
 30
0.0
 11
107.1901029125
 21
38.99211259435
 31
0.0
  0
LINE
  5
31C
330
1F
100
AcDbEntity
  8
SLD-0
  6
CONTINUOUS
 62
     7
100
AcDbLine
 10
109.7901022962
 20
54.00366494875001
 30
0.0
 11
109.7901022962
 21
52.68056150974999
 31
0.0
  0
LINE
  5
31D
330
1F
100
AcDbEntity
  8
SLD-0
  6
CONTINUOUS
 62
     7
100
AcDbLine
 10
109.7901022906
 20
50.50366483405
 30
0.0
 11
109.7901022906
 21
49.18056186065002
 31
0.0
  0
LINE
  5
31E
330
1F
100
AcDbEntity
  8
SLD-0
  6
CONTINUOUS
 62
     7
100
AcDbLine
 10
109.7901025113
 20
36.50366560205001
 30
0.0
 11
109.7901025113
 21
35.18056169725
 31
0.0
  0
LINE
  5
31F
330
1F
100
AcDbEntity
  8
SLD-0
  6
CONTINUOUS
 62
     7
100
AcDbLine
 10
109.7901022995
 20
47.00366520245001
 30
0.0
 11
109.7901022995
 21
45.68056129775002
 31
0.0
  0
LINE
  5
320
330
1F
100
AcDbEntity
  8
SLD-0
  6
CONTINUOUS
 62
     7
100
AcDbLine
 10
109.7901020695
 20
33.00366430804999
 30
0.0
 11
109.7901020695
 21
31.99211330964999
 31
0.0
  0
LINE
  5
321
330
1F
100
AcDbEntity
  8
SLD-0
  6
CONTINUOUS
 62
     7
100
AcDbLine
 10
109.6404682208
 20
31.99211330964999
 30
0.0
 11
109.7901020695
 21
31.99211330964999
 31
0.0
  0
LINE
  5
322
330
1F
100
AcDbEntity
  8
SLD-0
  6
CONTINUOUS
 62
     7
100
AcDbLine
 10
109.7901025224
 20
43.50366490025002
 30
0.0
 11
109.7901025224
 21
42.18056099555
 31
0.0
  0
LINE
  5
323
330
1F
100
AcDbEntity
  8
SLD-0
  6
CONTINUOUS
 62
     7
100
AcDbLine
 10
109.7901022945
 20
57.19211287675
 30
0.0
 11
109.7901022945
 21
56.18056161575001
 31
0.0
  0
LINE
  5
324
330
1F
100
AcDbEntity
  8
SLD-0
  6
CONTINUOUS
 62
     7
100
AcDbLine
 10
109.6404682208
 20
57.19211287675
 30
0.0
 11
109.7901022945
 21
57.19211287675
 31
0.0
  0
LINE
  5
325
330
1F
100
AcDbEntity
  8
SLD-0
  6
CONTINUOUS
 62
     7
100
AcDbLine
 10
109.7901025168
 20
40.00366525104999
 30
0.0
 11
109.7901025168
 21
38.68056134635
 31
0.0
  0
LINE
  5
326
330
1F
100
AcDbEntity
  8
SLD-0
  6
CONTINUOUS
 62
     7
100
AcDbLine
 10
109.8901026577
 20
33.09211315005001
 30
0.0
 11
110.0901027836
 21
33.09211315005001
 31
0.0
  0
LINE
  5
327
330
1F
100
AcDbEntity
  8
SLD-0
  6
CONTINUOUS
 62
     7
100
AcDbLine
 10
110.0901027836
 20
33.09211315005001
 30
0.0
 11
110.0901027836
 21
35.09211367545001
 31
0.0
  0
LINE
  5
328
330
1F
100
AcDbEntity
  8
SLD-0
  6
CONTINUOUS
 62
     7
100
AcDbLine
 10
110.0901027836
 20
35.09211367545001
 30
0.0
 11
109.8901021775
 21
35.09211367545001
 31
0.0
  0
LINE
  5
329
330
1F
100
AcDbEntity
  8
SLD-0
  6
CONTINUOUS
 62
     7
100
AcDbLine
 10
110.0901022838
 20
36.59211364605
 30
0.0
 11
110.0901022838
 21
38.59211331155001
 31
0.0
  0
LINE
  5
32A
330
1F
100
AcDbEntity
  8
SLD-0
  6
CONTINUOUS
 62
     7
100
AcDbLine
 10
110.0901022838
 20
38.59211331155001
 30
0.0
 11
109.8901021715
 21
38.59211331155001
 31
0.0
  0
LINE
  5
32B
330
1F
100
AcDbEntity
  8
SLD-0
  6
CONTINUOUS
 62
     7
100
AcDbLine
 10
109.890102175
 20
40.09211328205001
 30
0.0
 11
110.0901023009
 21
40.09211328205001
 31
0.0
  0
LINE
  5
32C
330
1F
100
AcDbEntity
  8
SLD-0
  6
CONTINUOUS
 62
     7
100
AcDbLine
 10
110.0901023009
 20
40.09211328205001
 30
0.0
 11
110.0901023009
 21
42.09211294765001
 31
0.0
  0
LINE
  5
32D
330
1F
100
AcDbEntity
  8
SLD-0
  6
CONTINUOUS
 62
     7
100
AcDbLine
 10
109.8901021921
 20
43.59211291804999
 30
0.0
 11
110.090102318
 21
43.59211291804999
 31
0.0
  0
LINE
  5
32E
330
1F
100
AcDbEntity
  8
SLD-0
  6
CONTINUOUS
 62
     7
100
AcDbLine
 10
110.090102318
 20
43.59211291804999
 30
0.0
 11
110.090102318
 21
45.59211284435
 31
0.0
  0
LINE
  5
32F
330
1F
100
AcDbEntity
  8
SLD-0
  6
CONTINUOUS
 62
     7
100
AcDbLine
 10
109.8901019507
 20
47.09211324124999
 30
0.0
 11
110.0901020766
 21
47.09211324124999
 31
0.0
  0
LINE
  5
330
330
1F
100
AcDbEntity
  8
SLD-0
  6
CONTINUOUS
 62
     7
100
AcDbLine
 10
110.0901025257
 20
50.59211328625
 30
0.0
 11
110.0901025257
 21
52.59211306425001
 31
0.0
  0
LINE
  5
331
330
1F
100
AcDbEntity
  8
SLD-0
  6
CONTINUOUS
 62
     7
100
AcDbLine
 10
109.8901021787
 20
54.09211319175
 30
0.0
 11
110.0901023046
 21
54.09211319175
 31
0.0
  0
LINE
  5
332
330
1F
100
AcDbEntity
  8
SLD-0
  6
CONTINUOUS
 62
     7
100
AcDbLine
 10
110.0901023046
 20
54.09211319175
 30
0.0
 11
110.0901023046
 21
56.09211317415
 31
0.0
  0
LINE
  5
333
330
1F
100
AcDbEntity
  8
SLD-0
  6
CONTINUOUS
 62
     7
100
AcDbLine
 10
110.0901025257
 20
52.59211306425001
 30
0.0
 11
109.8901024114
 21
52.59211306425001
 31
0.0
  0
LINE
  5
334
330
1F
100
AcDbEntity
  8
SLD-0
  6
CONTINUOUS
 62
     7
100
AcDbLine
 10
110.0901023046
 20
56.09211317415
 30
0.0
 11
109.8901024132
 21
56.09211317415
 31
0.0
  0
LINE
  5
335
330
1F
100
AcDbEntity
  8
SLD-0
  6
CONTINUOUS
 62
     7
100
AcDbLine
 10
110.5901019911
 20
31.99211330964999
 30
0.0
 11
110.5901019911
 21
57.19211287675
 31
0.0
  0
LINE
  5
336
330
1F
100
AcDbEntity
  8
SLD-0
  6
CONTINUOUS
 62
     7
100
AcDbLine
 10
109.8901021579
 20
36.59211364605
 30
0.0
 11
110.0901022838
 21
36.59211364605
 31
0.0
  0
LINE
  5
337
330
1F
100
AcDbEntity
  8
SLD-0
  6
CONTINUOUS
 62
     7
100
AcDbLine
 10
109.8901023998
 20
50.59211328625
 30
0.0
 11
110.0901025257
 21
50.59211328625
 31
0.0
  0
LINE
  5
338
330
1F
100
AcDbEntity
  8
SLD-0
  6
CONTINUOUS
 62
     7
100
AcDbLine
 10
110.0901020766
 20
47.09211324124999
 30
0.0
 11
110.0901020766
 21
49.09211342815001
 31
0.0
  0
LINE
  5
339
330
1F
100
AcDbEntity
  8
SLD-0
  6
CONTINUOUS
 62
     7
100
AcDbLine
 10
110.0901023009
 20
42.09211294765001
 30
0.0
 11
109.8901021655
 21
42.09211294765001
 31
0.0
  0
LINE
  5
33A
330
1F
100
AcDbEntity
  8
SLD-0
  6
CONTINUOUS
 62
     7
100
AcDbLine
 10
110.090102318
 20
45.59211284435
 30
0.0
 11
109.8901024077
 21
45.59211284435
 31
0.0
  0
LINE
  5
33B
330
1F
100
AcDbEntity
  8
SLD-0
  6
CONTINUOUS
 62
     7
100
AcDbLine
 10
110.0901020766
 20
49.09211342815001
 30
0.0
 11
109.8901024174
 21
49.09211342815001
 31
0.0
  0
LINE
  5
33C
330
1F
100
AcDbEntity
  8
SLD-0
  6
CONTINUOUS
 62
     7
100
AcDbLine
 10
109.7901020695
 20
31.99211330964999
 30
0.0
 11
110.5901019911
 21
31.99211330964999
 31
0.0
  0
LINE
  5
33D
330
1F
100
AcDbEntity
  8
SLD-0
  6
CONTINUOUS
 62
     7
100
AcDbLine
 10
109.7901022945
 20
57.19211287675
 30
0.0
 11
110.5901019911
 21
57.19211287675
 31
0.0
  0
LINE
  5
33E
330
1F
100
AcDbEntity
  8
SLD-0
  6
CONTINUOUS
 62
     7
100
AcDbLine
 10
103.9901021464
 20
52.99211302645
 30
0.0
 11
103.9901021464
 21
50.19211312634999
 31
0.0
  0
LINE
  5
33F
330
1F
100
AcDbEntity
  8
SLD-0
  6
CONTINUOUS
 62
     7
100
AcDbLine
 10
103.9901021464
 20
49.49211338415
 30
0.0
 11
103.9901021464
 21
46.69211255265
 31
0.0
  0
LINE
  5
340
330
1F
100
AcDbEntity
  8
SLD-0
  6
CONTINUOUS
 62
     7
100
AcDbLine
 10
103.9901021464
 20
42.49211223675002
 30
0.0
 11
103.9901021464
 21
39.69211326785
 31
0.0
  0
LINE
  5
341
330
1F
100
AcDbEntity
  8
SLD-0
  6
CONTINUOUS
 62
     7
100
AcDbLine
 10
103.9901021464
 20
35.49211295194999
 30
0.0
 11
103.9901021464
 21
32.69211212055001
 31
0.0
  0
LINE
  5
342
330
1F
100
AcDbEntity
  8
SLD-0
  6
CONTINUOUS
 62
     7
100
AcDbLine
 10
103.9901021464
 20
38.99211259435
 30
0.0
 11
103.9901021464
 21
36.19211362555001
 31
0.0
  0
LINE
  5
343
330
1F
100
AcDbEntity
  8
SLD-0
  6
CONTINUOUS
 62
     7
100
AcDbLine
 10
103.9901021464
 20
56.49211313455001
 30
0.0
 11
103.9901021464
 21
53.69211276875001
 31
0.0
  0
LINE
  5
344
330
1F
100
AcDbEntity
  8
SLD-0
  6
CONTINUOUS
 62
     7
100
AcDbLine
 10
103.9901021464
 20
45.99211281045001
 30
0.0
 11
103.9901021464
 21
43.19211291025002
 31
0.0
  0
LINE
  5
345
330
1F
100
AcDbEntity
  8
SLD-0
  6
CONTINUOUS
 62
     7
100
AcDbLine
 10
102.8901021524
 20
31.99211330964999
 30
0.0
 11
103.9901021464
 21
31.99211330964999
 31
0.0
  0
LINE
  5
346
330
1F
100
AcDbEntity
  8
SLD-0
  6
CONTINUOUS
 62
     7
100
AcDbLine
 10
102.8901021524
 20
57.19211287675
 30
0.0
 11
103.9901021464
 21
57.19211287675
 31
0.0
  0
LINE
  5
347
330
1F
100
AcDbEntity
  8
SLD-0
  6
CONTINUOUS
 62
     7
100
AcDbLine
 10
110.5901019911
 20
30.00520365195001
 30
0.0
 11
110.5901019911
 21
31.99211330964999
 31
0.0
  0
LINE
  5
348
330
1F
100
AcDbEntity
  8
SLD-0
  6
CONTINUOUS
 62
     7
100
AcDbLine
 10
110.5901019911
 20
57.19211287675
 30
0.0
 11
110.5901019911
 21
58.89211301565001
 31
0.0
  0
LINE
  5
349
330
1F
100
AcDbEntity
  8
SLD-0
  6
CONTINUOUS
 62
     7
100
AcDbLine
 10
104.1318448004
 20
58.89211319745002
 30
0.0
 11
103.1901023118
 21
58.89211319745002
 31
0.0
  0
LINE
  5
34A
330
1F
100
AcDbEntity
  8
SLD-0
  6
CONTINUOUS
 62
     7
100
AcDbLine
 10
102.8901023544
 20
58.59211318205001
 30
0.0
 11
102.8901023544
 21
30.29211266945001
 31
0.0
  0
LINE
  5
34B
330
1F
100
AcDbEntity
  8
SLD-0
  6
CONTINUOUS
 62
     7
100
AcDbLine
 10
103.2777540892
 20
30.00520347695002
 30
0.0
 11
110.9024506697
 21
30.00520384255
 31
0.0
  0
LINE
  5
34C
330
1F
100
AcDbEntity
  8
SLD-0
  6
CONTINUOUS
 62
     7
100
AcDbLine
 10
111.0777540892
 20
30.00520382025002
 30
0.0
 11
114.7901021579
 21
30.00520418575002
 31
0.0
  0
LINE
  5
34D
330
1F
100
AcDbEntity
  8
SLD-0
  6
CONTINUOUS
 62
     7
100
AcDbLine
 10
115.0901021808
 20
30.30520400295001
 30
0.0
 11
115.0901021808
 21
58.59211377615
 31
0.0
  0
LINE
  5
34E
330
1F
100
AcDbEntity
  8
SLD-0
  6
CONTINUOUS
 62
     7
100
AcDbLine
 10
114.7901021501
 20
58.89211320675
 30
0.0
 11
110.0483598744
 21
58.89211320675
 31
0.0
  0
LINE
  5
34F
330
1F
100
AcDbEntity
  8
SLD-0
  6
CONTINUOUS
 62
     7
100
AcDbLine
 10
109.5901023699
 20
59.19211319745
 30
0.0
 11
104.5901023698
 21
59.19211319745
 31
0.0
  0
LINE
  5
350
330
1F
100
AcDbEntity
  8
SLD-0
  6
CONTINUOUS
 62
     7
100
AcDbLine
 10
99.7901025228
 20
95.24211317305
 30
0.0
 11
116.3901022636
 21
95.24211317305
 31
0.0
  0
LINE
  5
351
330
1F
100
AcDbEntity
  8
SLD-0
  6
CONTINUOUS
 62
     7
100
AcDbLine
 10
116.8901023693
 20
94.74211218375001
 30
0.0
 11
116.8901023693
 21
26.64211321485001
 31
0.0
  0
LINE
  5
352
330
1F
100
AcDbEntity
  8
SLD-0
  6
CONTINUOUS
 62
     7
100
AcDbLine
 10
116.3901023693
 20
26.14211321485001
 30
0.0
 11
99.790102499
 21
26.14211321485001
 31
0.0
  0
LINE
  5
353
330
1F
100
AcDbEntity
  8
SLD-0
  6
CONTINUOUS
 62
     7
100
AcDbLine
 10
99.29010240209999
 20
26.64211421325001
 30
0.0
 11
99.29010240209999
 21
94.74211318204999
 31
0.0
  0
LINE
  5
354
330
1F
100
AcDbEntity
  8
SLD-0
  6
CONTINUOUS
 62
     7
100
AcDbLine
 10
111.2901022365
 20
30.29211283435001
 30
0.0
 11
111.2901022365
 21
58.59211334695001
 31
0.0
  0
LINE
  5
355
330
1F
100
AcDbEntity
  8
SLD-0
  6
CONTINUOUS
 62
     7
100
AcDbLine
 10
104.5901022464
 20
23.84211151915
 30
0.0
 11
111.5901024625
 21
23.84211151915
 31
0.0
  0
LINE
  5
356
330
1F
100
AcDbEntity
  8
SLD-0
  6
CONTINUOUS
 62
     7
100
AcDbLine
 10
104.5901022464
 20
26.14211319994999
 30
0.0
 11
104.5901022464
 21
23.84211151915
 31
0.0
  0
LINE
  5
357
330
1F
100
AcDbEntity
  8
SLD-0
  6
CONTINUOUS
 62
     7
100
AcDbLine
 10
111.5901024625
 20
26.14211319994999
 30
0.0
 11
111.5901024625
 21
23.84211151915
 31
0.0
  0
LINE
  5
358
330
1F
100
AcDbEntity
  8
SLD-0
  6
CONTINUOUS
 62
     7
100
AcDbLine
 10
104.5901022464
 20
97.54211484505001
 30
0.0
 11
111.5901024625
 21
97.54211484505001
 31
0.0
  0
LINE
  5
359
330
1F
100
AcDbEntity
  8
SLD-0
  6
CONTINUOUS
 62
     7
100
AcDbLine
 10
104.5901022464
 20
95.24211316415
 30
0.0
 11
104.5901022464
 21
97.54211484505001
 31
0.0
  0
LINE
  5
35A
330
1F
100
AcDbEntity
  8
SLD-0
  6
CONTINUOUS
 62
     7
100
AcDbLine
 10
111.5901024625
 20
95.24211316415
 30
0.0
 11
111.5901024625
 21
97.54211484505001
 31
0.0
  0
LINE
  5
35B
330
1F
100
AcDbEntity
  8
SLD-0
  6
CONTINUOUS
 62
     7
100
AcDbLine
 10
109.7901023544
 20
25.04211318205
 30
0.0
 11
106.3901023544
 21
25.04211318205
 31
0.0
  0
LINE
  5
35C
330
1F
100
AcDbEntity
  8
SLD-0
  6
CONTINUOUS
 62
     7
100
AcDbLine
 10
106.3901022594
 20
96.34211318205001
 30
0.0
 11
109.7901022594
 21
96.34211318205001
 31
0.0
  0
LINE
  5
35D
330
1F
100
AcDbEntity
  8
SLD-0
  6
CONTINUOUS
 62
     7
100
AcDbLine
 10
110.0901022594
 20
96.64211318205
 30
0.0
 11
110.0901022594
 21
96.91647841644999
 31
0.0
  0
LINE
  5
35E
330
1F
100
AcDbEntity
  8
SLD-0
  6
CONTINUOUS
 62
     7
100
AcDbLine
 10
110.0901023544
 20
24.46774794765
 30
0.0
 11
110.0901023544
 21
24.74211318204999
 31
0.0
  0
LINE
  5
35F
330
1F
100
AcDbEntity
  8
SLD-0
  6
CONTINUOUS
 62
     7
100
AcDbLine
 10
106.0901023544
 20
24.74211318204999
 30
0.0
 11
106.0901023544
 21
24.46774794765
 31
0.0
  0
LINE
  5
360
330
1F
100
AcDbEntity
  8
SLD-0
  6
CONTINUOUS
 62
     7
100
AcDbLine
 10
106.0901022594
 20
96.91647841644999
 30
0.0
 11
106.0901022594
 21
96.64211318205
 31
0.0
  0
LINE
  5
361
330
1F
100
AcDbEntity
  8
SLD-0
  6
CONTINUOUS
 62
     7
100
AcDbLine
 10
117.1401025839
 20
57.19211330355
 30
0.0
 11
117.1401025839
 21
25.14211512815001
 31
0.0
  0
LINE
  5
362
330
1F
100
AcDbEntity
  8
SLD-0
  6
CONTINUOUS
 62
     7
100
AcDbLine
 10
116.6401023544
 20
24.64211318205
 30
0.0
 11
112.5901021607
 21
24.64211388545002
 31
0.0
  0
LINE
  5
363
330
1F
100
AcDbEntity
  8
SLD-0
  6
CONTINUOUS
 62
     7
100
AcDbLine
 10
116.8901020773
 20
57.19211330355
 30
0.0
 11
117.1401025839
 21
57.19211330355
 31
0.0
  0
LINE
  5
364
330
1F
100
AcDbEntity
  8
SLD-0
  6
CONTINUOUS
 62
     7
100
AcDbLine
 10
112.5901021607
 20
24.64211388545002
 30
0.0
 11
112.5901021607
 21
26.14211319994999
 31
0.0
  0
LINE
  5
365
330
1F
100
AcDbEntity
  8
SLD-0
  6
CONTINUOUS
 62
     7
100
AcDbLine
 10
112.5901022828
 20
96.74211305995001
 30
0.0
 11
116.6401028535
 21
96.74211305995001
 31
0.0
  0
LINE
  5
366
330
1F
100
AcDbEntity
  8
SLD-0
  6
CONTINUOUS
 62
     7
100
AcDbLine
 10
116.8901020773
 20
64.19211351965001
 30
0.0
 11
117.1401025839
 21
64.19211351965001
 31
0.0
  0
LINE
  5
367
330
1F
100
AcDbEntity
  8
SLD-0
  6
CONTINUOUS
 62
     7
100
AcDbLine
 10
117.1401021249
 20
96.24211341155001
 30
0.0
 11
117.1401025839
 21
64.19211351965001
 31
0.0
  0
LINE
  5
368
330
1F
100
AcDbEntity
  8
SLD-0
  6
CONTINUOUS
 62
     7
100
AcDbLine
 10
112.5901022828
 20
96.74211305995001
 30
0.0
 11
112.5901022828
 21
95.24211374535
 31
0.0
  0
LINE
  5
369
330
1F
100
AcDbEntity
  8
SLD-0
  6
CONTINUOUS
 62
     7
100
AcDbLine
 10
99.0401023544
 20
25.14211318205
 30
0.0
 11
99.04010189550002
 21
41.19211277975
 31
0.0
  0
LINE
  5
36A
330
1F
100
AcDbEntity
  8
SLD-0
  6
CONTINUOUS
 62
     7
100
AcDbLine
 10
99.29010240209999
 20
41.19211277975
 30
0.0
 11
99.04010189550002
 21
41.19211277975
 31
0.0
  0
LINE
  5
36B
330
1F
100
AcDbEntity
  8
SLD-0
  6
CONTINUOUS
 62
     7
100
AcDbLine
 10
103.5901025482
 20
24.64211388545002
 30
0.0
 11
99.5401023544
 21
24.64211318205
 31
0.0
  0
LINE
  5
36C
330
1F
100
AcDbEntity
  8
SLD-0
  6
CONTINUOUS
 62
     7
100
AcDbLine
 10
103.5901025482
 20
26.14211319994999
 30
0.0
 11
103.5901025482
 21
24.64211388545002
 31
0.0
  0
LINE
  5
36D
330
1F
100
AcDbEntity
  8
SLD-0
  6
CONTINUOUS
 62
     7
100
AcDbLine
 10
99.04010189550002
 20
80.19211358445
 30
0.0
 11
99.04010189550002
 21
96.24211146545
 31
0.0
  0
LINE
  5
36E
330
1F
100
AcDbEntity
  8
SLD-0
  6
CONTINUOUS
 62
     7
100
AcDbLine
 10
99.29010240209999
 20
80.19211358445
 30
0.0
 11
99.04010189550002
 21
80.19211358445
 31
0.0
  0
LINE
  5
36F
330
1F
100
AcDbEntity
  8
SLD-0
  6
CONTINUOUS
 62
     7
100
AcDbLine
 10
99.54010212489999
 20
96.74211341155001
 30
0.0
 11
103.5901023187
 21
96.74211270825
 31
0.0
  0
LINE
  5
370
330
1F
100
AcDbEntity
  8
SLD-0
  6
CONTINUOUS
 62
     7
100
AcDbLine
 10
103.5901023187
 20
95.24211339365002
 30
0.0
 11
103.5901023187
 21
96.74211270825
 31
0.0
  0
LINE
  5
371
330
1F
100
AcDbEntity
  8
SLD-0
  6
CONTINUOUS
 62
     7
100
AcDbLine
 10
99.04010189550002
 20
46.19211359934999
 30
0.0
 11
99.04010189550002
 21
75.19211276485001
 31
0.0
  0
LINE
  5
372
330
1F
100
AcDbEntity
  8
SLD-0
  6
CONTINUOUS
 62
     7
100
AcDbLine
 10
99.29010240209999
 20
46.19211359934999
 30
0.0
 11
99.04010189550002
 21
46.19211359934999
 31
0.0
  0
LINE
  5
373
330
1F
100
AcDbEntity
  8
SLD-0
  6
CONTINUOUS
 62
     7
100
AcDbLine
 10
99.29010240209999
 20
75.19211276485001
 30
0.0
 11
99.04010189550002
 21
75.19211276485001
 31
0.0
  0
LINE
  5
374
330
1F
100
AcDbEntity
  8
SLD-0
  6
CONTINUOUS
 62
     7
100
AcDbLine
 10
103.5901025482
 20
24.64211388545002
 30
0.0
 11
104.5901022464
 21
24.64211388545002
 31
0.0
  0
LINE
  5
375
330
1F
100
AcDbEntity
  8
SLD-0
  6
CONTINUOUS
 62
     7
100
AcDbLine
 10
111.5901024625
 20
24.64211388545002
 30
0.0
 11
112.5901021607
 21
24.64211388545002
 31
0.0
  0
LINE
  5
376
330
1F
100
AcDbEntity
  8
SLD-0
  6
CONTINUOUS
 62
     7
100
AcDbLine
 10
103.5901023187
 20
96.74211270825
 30
0.0
 11
104.5901020169
 21
96.74211270825
 31
0.0
  0
LINE
  5
377
330
1F
100
AcDbEntity
  8
SLD-0
  6
CONTINUOUS
 62
     7
100
AcDbLine
 10
111.5901025846
 20
96.74211305995001
 30
0.0
 11
112.5901022828
 21
96.74211305995001
 31
0.0
  0
LINE
  5
378
330
1F
100
AcDbEntity
  8
SLD-0
  6
CONTINUOUS
 62
     7
100
AcDbLine
 10
117.1401025839
 20
64.19211351965001
 30
0.0
 11
117.1401025839
 21
57.19211330355
 31
0.0
  0
LINE
  5
379
330
1F
100
AcDbEntity
  8
SLD-0
  6
CONTINUOUS
 62
     7
100
AcDbLine
 10
99.04010189550002
 20
75.19211276485001
 30
0.0
 11
99.04010189550002
 21
80.19211358445
 31
0.0
  0
LINE
  5
37A
330
1F
100
AcDbEntity
  8
SLD-0
  6
CONTINUOUS
 62
     7
100
AcDbLine
 10
99.04010189550002
 20
41.19211277975
 30
0.0
 11
99.04010189550002
 21
46.19211359934999
 31
0.0
  0
CIRCLE
  5
37B
330
1F
100
AcDbEntity
  8
SLD-0
  6
CONTINUOUS
 62
     7
100
AcDbCircle
 10
-119.1931475778
 20
-82.94188428765
 30
0.0
 40
1.399999999999977
  0
CIRCLE
  5
37C
330
1F
100
AcDbEntity
  8
SLD-0
  6
CONTINUOUS
 62
     7
100
AcDbCircle
 10
-109.1931475778
 20
-82.94188428765
 30
0.0
 40
1.400000000000006
  0
CIRCLE
  5
37D
330
1F
100
AcDbEntity
  8
SLD-0
  6
CONTINUOUS
 62
     7
100
AcDbCircle
 10
-112.6931475778
 20
-82.94188428765
 30
0.0
 40
0.9000000000000199
  0
CIRCLE
  5
37E
330
1F
100
AcDbEntity
  8
SLD-0
  6
CONTINUOUS
 62
     7
100
AcDbCircle
 10
-115.6931475778
 20
-82.94188428765
 30
0.0
 40
0.9000000000000057
  0
ARC
  5
37F
330
1F
100
AcDbEntity
  8
SLD-0
  6
CONTINUOUS
 62
     7
100
AcDbCircle
 10
-122.7431480367
 20
-88.69188428765
 30
0.0
 40
0.5
100
AcDbArc
 50
180.0
 51
270.0
  0
ARC
  5
380
330
1F
100
AcDbEntity
  8
SLD-0
  6
CONTINUOUS
 62
     7
100
AcDbCircle
 10
-105.6431480367
 20
-88.69188405815
 30
0.0
 40
0.5000002295014809
100
AcDbArc
 50
270.0
 51
0.0001967076997378
  0
ARC
  5
381
330
1F
100
AcDbEntity
  8
SLD-0
  6
CONTINUOUS
 62
     7
100
AcDbCircle
 10
-122.7431481589
 20
-17.59188428765
 30
0.0
 40
0.4999998778015475
100
AcDbArc
 50
90.0000432011007
 51
180.0001967076996
  0
ARC
  5
382
330
1F
100
AcDbEntity
  8
SLD-0
  6
CONTINUOUS
 62
     7
100
AcDbCircle
 10
-105.6431476851
 20
-17.59188428774999
 30
0.0
 40
0.4999998778515456
100
AcDbArc
 50
359.9998295969013
 51
90.00001109829962
  0
ARC
  5
383
330
1F
100
AcDbEntity
  8
SLD-0
  6
CONTINUOUS
 62
     7
100
AcDbCircle
 10
46.93418321959999
 20
-87.19188430545
 30
0.0
 40
0.5
100
AcDbArc
 50
270.0
 51
0.0
  0
ARC
  5
384
330
1F
100
AcDbEntity
  8
SLD-0
  6
CONTINUOUS
 62
     7
100
AcDbCircle
 10
46.93418321959999
 20
-19.09188430545001
 30
0.0
 40
0.4999999999999716
100
AcDbArc
 50
0.0
 51
90.0
  0
ARC
  5
385
330
1F
100
AcDbEntity
  8
SLD-0
  6
CONTINUOUS
 62
     7
100
AcDbCircle
 10
-33.56581678789999
 20
13.86246354585001
 30
0.0
 40
32.45434782608692
100
AcDbArc
 50
248.2997907404
 51
270.0
  0
ARC
  5
386
330
1F
100
AcDbEntity
  8
SLD-0
  6
CONTINUOUS
 62
     7
100
AcDbCircle
 10
-45.6158167879
 20
-16.49188428765001
 30
0.0
 40
0.200000007453724
100
AcDbArc
 50
90.0
 51
180.0004934598996
  0
ARC
  5
387
330
1F
100
AcDbEntity
  8
SLD-0
  6
CONTINUOUS
 62
     7
100
AcDbCircle
 10
-33.56581596390001
 20
-120.14623128235
 30
0.0
 40
32.4543478260869
100
AcDbArc
 50
90.0
 51
111.7002092596
  0
ARC
  5
388
330
1F
100
AcDbEntity
  8
SLD-0
  6
CONTINUOUS
 62
     7
100
AcDbCircle
 10
-45.6158159638
 20
-89.79188428764999
 30
0.0
 40
0.2000008314500288
100
AcDbArc
 50
180.0
 51
270.0000318274962
  0
CIRCLE
  5
389
330
1F
100
AcDbEntity
  8
SLD-0
  6
CONTINUOUS
 62
     7
100
AcDbCircle
 10
116.1639400414
 20
-57.98188428764999
 30
0.0
 40
1.399999999999977
  0
CIRCLE
  5
38A
330
1F
100
AcDbEntity
  8
SLD-0
  6
CONTINUOUS
 62
     7
100
AcDbCircle
 10
116.1639400414
 20
-69.41188428765
 30
0.0
 40
1.399999999999977
  0
CIRCLE
  5
38B
330
1F
100
AcDbEntity
  8
SLD-0
  6
CONTINUOUS
 62
     7
100
AcDbCircle
 10
116.1639400414
 20
-73.22188428765
 30
0.0
 40
1.39999999999992
  0
CIRCLE
  5
38C
330
1F
100
AcDbEntity
  8
SLD-0
  6
CONTINUOUS
 62
     7
100
AcDbCircle
 10
116.1639400414
 20
-77.03188428765
 30
0.0
 40
1.399999999999977
  0
CIRCLE
  5
38D
330
1F
100
AcDbEntity
  8
SLD-0
  6
CONTINUOUS
 62
     7
100
AcDbCircle
 10
116.1639400414
 20
-61.79188428764999
 30
0.0
 40
1.39999999999992
  0
CIRCLE
  5
38E
330
1F
100
AcDbEntity
  8
SLD-0
  6
CONTINUOUS
 62
     7
100
AcDbCircle
 10
116.1639400414
 20
-65.60188428765
 30
0.0
 40
1.399999999999977
  0
CIRCLE
  5
38F
330
1F
100
AcDbEntity
  8
SLD-0
  6
CONTINUOUS
 62
     7
100
AcDbCircle
 10
116.1639400414
 20
-80.84188428765
 30
0.0
 40
1.39999999999992
  0
ARC
  5
390
330
1F
100
AcDbEntity
  8
SLD-0
  6
CONTINUOUS
 62
     7
100
AcDbCircle
 10
119.9639400325
 20
-87.19188427865
 30
0.0
 40
0.5
100
AcDbArc
 50
270.0
 51
0.0
  0
ARC
  5
391
330
1F
100
AcDbEntity
  8
SLD-0
  6
CONTINUOUS
 62
     7
100
AcDbCircle
 10
119.9639400563
 20
-19.09188427275001
 30
0.0
 40
0.4999999761505768
100
AcDbArc
 50
359.9998811572002
 51
90.00000272729862
  0
ARC
  5
392
330
1F
100
AcDbEntity
  8
SLD-0
  6
CONTINUOUS
 62
     7
100
AcDbCircle
 10
107.7056822828
 20
-54.44188376235
 30
0.0
 40
0.4999999999999858
100
AcDbArc
 50
270.0
 51
336.4218215218003
  0
ARC
  5
393
330
1F
100
AcDbEntity
  8
SLD-0
  6
CONTINUOUS
 62
     7
100
AcDbCircle
 10
106.7639398523
 20
-55.24188377784999
 30
0.0
 40
0.3000000154999952
100
AcDbArc
 50
90.0000111153999
 51
180.0
  0
ARC
  5
394
330
1F
100
AcDbEntity
  8
SLD-0
  6
CONTINUOUS
 62
     7
100
AcDbCircle
 10
106.7639400343
 20
-83.54188428764999
 30
0.0
 40
0.3000000071002492
100
AcDbArc
 50
180.0000978993991
 51
286.9880604249966
  0
ARC
  5
395
330
1F
100
AcDbEntity
  8
SLD-0
  6
CONTINUOUS
 62
     7
100
AcDbCircle
 10
114.5639400888
 20
-83.54188412284999
 30
0.0
 40
0.2999998205759907
100
AcDbArc
 50
253.0119249823969
 51
286.9880604250039
  0
ARC
  5
396
330
1F
100
AcDbEntity
  8
SLD-0
  6
CONTINUOUS
 62
     7
100
AcDbCircle
 10
113.6221974075
 20
-54.44188376855
 30
0.0
 40
0.4999999845000606
100
AcDbArc
 50
203.5781784781995
 51
269.9999941902001
  0
ARC
  5
397
330
1F
100
AcDbEntity
  8
SLD-0
  6
CONTINUOUS
 62
     7
100
AcDbCircle
 10
118.3639400364
 20
-83.52879346684999
 30
0.0
 40
0.2999998172500818
100
AcDbArc
 50
269.9999607141989
 51
0.0
  0
ARC
  5
398
330
1F
100
AcDbEntity
  8
SLD-0
  6
CONTINUOUS
 62
     7
100
AcDbCircle
 10
118.3639398381
 20
-55.24188376855
 30
0.0
 40
0.3000000155000748
100
AcDbArc
 50
0.0
 51
90.00003928579686
  0
ARC
  5
399
330
1F
100
AcDbEntity
  8
SLD-0
  6
CONTINUOUS
 62
     7
100
AcDbCircle
 10
103.3639400324
 20
-87.19188428765
 30
0.0
 40
0.4999999910500134
100
AcDbArc
 50
180.0
 51
270.0000148510968
  0
ARC
  5
39A
330
1F
100
AcDbEntity
  8
SLD-0
  6
CONTINUOUS
 62
     7
100
AcDbCircle
 10
103.3639400325
 20
-19.09188428765
 30
0.0
 40
0.4999999911000259
100
AcDbArc
 50
89.99998514890314
 51
180.0
  0
ARC
  5
39B
330
1F
100
AcDbEntity
  8
SLD-0
  6
CONTINUOUS
 62
     7
100
AcDbCircle
 10
114.5639399605
 20
-55.24188428765
 30
0.0
 40
0.3000000000000114
100
AcDbArc
 50
0.0
 51
90.0
  0
ARC
  5
39C
330
1F
100
AcDbEntity
  8
SLD-0
  6
CONTINUOUS
 62
     7
100
AcDbCircle
 10
114.5639400888
 20
-83.54188412284999
 30
0.0
 40
0.2999998205760167
100
AcDbArc
 50
286.9880604250023
 51
359.9999021005997
  0
ARC
  5
39D
330
1F
100
AcDbEntity
  8
SLD-0
  6
CONTINUOUS
 62
     7
100
AcDbCircle
 10
120.2139400414
 20
-88.69188405815
 30
0.0
 40
0.5000002294514637
100
AcDbArc
 50
270.0
 51
0.0001967076997378
  0
ARC
  5
39E
330
1F
100
AcDbEntity
  8
SLD-0
  6
CONTINUOUS
 62
     7
100
AcDbCircle
 10
120.2139401636
 20
-17.59188405814999
 30
0.0
 40
0.4999996483500695
100
AcDbArc
 50
0.0
 51
89.99995681039749
  0
ARC
  5
39F
330
1F
100
AcDbEntity
  8
SLD-0
  6
CONTINUOUS
 62
     7
100
AcDbCircle
 10
103.1139400414
 20
-88.69188428765
 30
0.0
 40
0.5
100
AcDbArc
 50
180.0
 51
270.0
  0
ARC
  5
3A0
330
1F
100
AcDbEntity
  8
SLD-0
  6
CONTINUOUS
 62
     7
100
AcDbCircle
 10
103.1139398119
 20
-17.59188428765
 30
0.0
 40
0.5000002295014383
100
AcDbArc
 50
90.0
 51
180.0001967077013
  0
ARC
  5
3A1
330
1F
100
AcDbEntity
  8
SLD-0
  6
CONTINUOUS
 62
     7
100
AcDbCircle
 10
47.01574108700001
 20
26.64211316415
 30
0.0
 40
0.5
100
AcDbArc
 50
270.0
 51
0.0
  0
ARC
  5
3A2
330
1F
100
AcDbEntity
  8
SLD-0
  6
CONTINUOUS
 62
     7
100
AcDbCircle
 10
47.01574108700001
 20
94.74211316415
 30
0.0
 40
0.5
100
AcDbArc
 50
0.0
 51
90.0
  0
ARC
  5
3A3
330
1F
100
AcDbEntity
  8
SLD-0
  6
CONTINUOUS
 62
     7
100
AcDbCircle
 10
105.2401023385
 20
51.59211310155001
 30
0.0
 40
0.5999999606532409
100
AcDbArc
 50
78.85268136870026
 51
101.1473182458986
  0
ARC
  5
3A4
330
1F
100
AcDbEntity
  8
SLD-0
  6
CONTINUOUS
 62
     7
100
AcDbCircle
 10
105.2401023385
 20
51.59211310155001
 30
0.0
 40
0.5999999606532578
100
AcDbArc
 50
258.8526908015985
 51
281.1473182458985
  0
ARC
  5
3A5
330
1F
100
AcDbEntity
  8
SLD-0
  6
CONTINUOUS
 62
     7
100
AcDbCircle
 10
105.2401023842
 20
48.09211333325001
 30
0.0
 40
0.5999998459173352
100
AcDbArc
 50
78.8526707771018
 51
101.1473182459021
  0
ARC
  5
3A6
330
1F
100
AcDbEntity
  8
SLD-0
  6
CONTINUOUS
 62
     7
100
AcDbCircle
 10
105.2401023842
 20
48.09211333325001
 30
0.0
 40
0.5999998459173521
100
AcDbArc
 50
258.8526841997026
 51
281.1473182459016
  0
ARC
  5
3A7
330
1F
100
AcDbEntity
  8
SLD-0
  6
CONTINUOUS
 62
     7
100
AcDbCircle
 10
105.2401023285
 20
44.59211305055001
 30
0.0
 40
0.6000001206646947
100
AcDbArc
 50
78.85267737910164
 51
101.1473182458984
  0
ARC
  5
3A8
330
1F
100
AcDbEntity
  8
SLD-0
  6
CONTINUOUS
 62
     7
100
AcDbCircle
 10
105.2401023285
 20
44.59211305055001
 30
0.0
 40
0.6000001206647213
100
AcDbArc
 50
258.8526947912005
 51
281.1473182458979
  0
ARC
  5
3A9
330
1F
100
AcDbEntity
  8
SLD-0
  6
CONTINUOUS
 62
     7
100
AcDbCircle
 10
105.2401023661
 20
55.09211324135001
 30
0.0
 40
0.5999999970230586
100
AcDbArc
 50
78.85267476670103
 51
101.1473182459
  0
ARC
  5
3AA
330
1F
100
AcDbEntity
  8
SLD-0
  6
CONTINUOUS
 62
     7
100
AcDbCircle
 10
105.2401023661
 20
55.09211324135001
 30
0.0
 40
0.5999999970230088
100
AcDbArc
 50
258.8526888059021
 51
281.1473182459006
  0
ARC
  5
3AB
330
1F
100
AcDbEntity
  8
SLD-0
  6
CONTINUOUS
 62
     7
100
AcDbCircle
 10
105.2401023618
 20
37.59211321935001
 30
0.0
 40
0.5999995909624374
100
AcDbArc
 50
78.85267339130246
 51
101.147318245901
  0
ARC
  5
3AC
330
1F
100
AcDbEntity
  8
SLD-0
  6
CONTINUOUS
 62
     7
100
AcDbCircle
 10
105.2401023618
 20
37.59211321935001
 30
0.0
 40
0.5999995909624776
100
AcDbArc
 50
258.8526815855016
 51
281.1473182459
  0
ARC
  5
3AD
330
1F
100
AcDbEntity
  8
SLD-0
  6
CONTINUOUS
 62
     7
100
AcDbCircle
 10
105.2401024684
 20
34.09211376064999
 30
0.0
 40
0.5999997917859743
100
AcDbArc
 50
78.8526799932976
 51
101.1473182458981
  0
ARC
  5
3AE
330
1F
100
AcDbEntity
  8
SLD-0
  6
CONTINUOUS
 62
     7
100
AcDbCircle
 10
105.2401024684
 20
34.09211376064999
 30
0.0
 40
0.5999997917859573
100
AcDbArc
 50
258.8526749834982
 51
281.147318245898
  0
ARC
  5
3AF
330
1F
100
AcDbEntity
  8
SLD-0
  6
CONTINUOUS
 62
     7
100
AcDbCircle
 10
105.2401023451
 20
41.09211313495001
 30
0.0
 40
0.5999998557890179
100
AcDbArc
 50
78.85266678939918
 51
101.1473182459024
  0
ARC
  5
3B0
330
1F
100
AcDbEntity
  8
SLD-0
  6
CONTINUOUS
 62
     7
100
AcDbCircle
 10
105.2401023451
 20
41.09211313495001
 30
0.0
 40
0.5999998557890066
100
AcDbArc
 50
258.852688187399
 51
281.1473182459023
  0
ARC
  5
3B1
330
1F
100
AcDbEntity
  8
SLD-0
  6
CONTINUOUS
 62
     7
100
AcDbCircle
 10
105.2401023385
 20
51.59211310155001
 30
0.0
 40
0.5999999606532578
100
AcDbArc
 50
281.1473182458985
 51
330.0000000000005
  0
ARC
  5
3B2
330
1F
100
AcDbEntity
  8
SLD-0
  6
CONTINUOUS
 62
     7
100
AcDbCircle
 10
105.2401023661
 20
55.09211324135001
 30
0.0
 40
0.5999999970230272
100
AcDbArc
 50
30.00000929870145
 51
78.85267476670052
  0
ARC
  5
3B3
330
1F
100
AcDbEntity
  8
SLD-0
  6
CONTINUOUS
 62
     7
100
AcDbCircle
 10
105.2401024684
 20
34.09211376064999
 30
0.0
 40
0.5999997917859732
100
AcDbArc
 50
281.147318245898
 51
329.9999999999998
  0
ARC
  5
3B4
330
1F
100
AcDbEntity
  8
SLD-0
  6
CONTINUOUS
 62
     7
100
AcDbCircle
 10
105.2401023661
 20
55.09211324135001
 30
0.0
 40
0.5999999970230088
100
AcDbArc
 50
281.1473182459006
 51
330.0000000000009
  0
ARC
  5
3B5
330
1F
100
AcDbEntity
  8
SLD-0
  6
CONTINUOUS
 62
     7
100
AcDbCircle
 10
105.2401023661
 20
55.09211324135001
 30
0.0
 40
0.5999999970229946
100
AcDbArc
 50
210.0000213133998
 51
258.8526888059021
  0
ARC
  5
3B6
330
1F
100
AcDbEntity
  8
SLD-0
  6
CONTINUOUS
 62
     7
100
AcDbCircle
 10
105.2401023661
 20
55.09211324135001
 30
0.0
 40
0.5999999970230586
100
AcDbArc
 50
101.1473182459
 51
149.9999999999986
  0
ARC
  5
3B7
330
1F
100
AcDbEntity
  8
SLD-0
  6
CONTINUOUS
 62
     7
100
AcDbCircle
 10
105.2401023618
 20
37.59211321935001
 30
0.0
 40
0.5999995909624776
100
AcDbArc
 50
281.1473182459
 51
330.000000000002
  0
ARC
  5
3B8
330
1F
100
AcDbEntity
  8
SLD-0
  6
CONTINUOUS
 62
     7
100
AcDbCircle
 10
105.2401023618
 20
37.59211321935001
 30
0.0
 40
0.5999995909624799
100
AcDbArc
 50
209.9999504565019
 51
258.8526815855016
  0
ARC
  5
3B9
330
1F
100
AcDbEntity
  8
SLD-0
  6
CONTINUOUS
 62
     7
100
AcDbCircle
 10
105.2401023618
 20
37.59211321935001
 30
0.0
 40
0.599999590962442
100
AcDbArc
 50
101.147318245901
 51
149.9999999999993
  0
ARC
  5
3BA
330
1F
100
AcDbEntity
  8
SLD-0
  6
CONTINUOUS
 62
     7
100
AcDbCircle
 10
105.2401023618
 20
37.59211321935001
 30
0.0
 40
0.599999590962473
100
AcDbArc
 50
29.99996463279996
 51
78.85267339129766
  0
ARC
  5
3BB
330
1F
100
AcDbEntity
  8
SLD-0
  6
CONTINUOUS
 62
     7
100
AcDbCircle
 10
105.2401023385
 20
51.59211310155001
 30
0.0
 40
0.5999999606532505
100
AcDbArc
 50
209.9999917400993
 51
258.8526908015985
  0
ARC
  5
3BC
330
1F
100
AcDbEntity
  8
SLD-0
  6
CONTINUOUS
 62
     7
100
AcDbCircle
 10
105.2401023385
 20
51.59211310155001
 30
0.0
 40
0.5999999606532441
100
AcDbArc
 50
101.1473182458986
 51
150.0000000000005
  0
ARC
  5
3BD
330
1F
100
AcDbEntity
  8
SLD-0
  6
CONTINUOUS
 62
     7
100
AcDbCircle
 10
105.2401023385
 20
51.59211310155001
 30
0.0
 40
0.59999996065323
100
AcDbArc
 50
30.00000036710136
 51
78.85268136869973
  0
ARC
  5
3BE
330
1F
100
AcDbEntity
  8
SLD-0
  6
CONTINUOUS
 62
     7
100
AcDbCircle
 10
105.2401023451
 20
41.09211313495001
 30
0.0
 40
0.5999998557890179
100
AcDbArc
 50
101.1473182459024
 51
150.0000000000001
  0
ARC
  5
3BF
330
1F
100
AcDbEntity
  8
SLD-0
  6
CONTINUOUS
 62
     7
100
AcDbCircle
 10
105.2401024684
 20
34.09211376064999
 30
0.0
 40
0.5999997917859573
100
AcDbArc
 50
210.0000749189999
 51
258.8526749834982
  0
ARC
  5
3C0
330
1F
100
AcDbEntity
  8
SLD-0
  6
CONTINUOUS
 62
     7
100
AcDbCircle
 10
105.2401024684
 20
34.09211376064999
 30
0.0
 40
0.5999997917859874
100
AcDbArc
 50
101.1473182458975
 51
149.9999999999999
  0
ARC
  5
3C1
330
1F
100
AcDbEntity
  8
SLD-0
  6
CONTINUOUS
 62
     7
100
AcDbCircle
 10
105.2401024684
 20
34.09211376064999
 30
0.0
 40
0.5999997917859722
100
AcDbArc
 50
29.99999420599953
 51
78.8526799932976
  0
ARC
  5
3C2
330
1F
100
AcDbEntity
  8
SLD-0
  6
CONTINUOUS
 62
     7
100
AcDbCircle
 10
105.2401023285
 20
44.59211305055001
 30
0.0
 40
0.6000001206647005
100
AcDbArc
 50
30.00005952190087
 51
78.85267737910164
  0
ARC
  5
3C3
330
1F
100
AcDbEntity
  8
SLD-0
  6
CONTINUOUS
 62
     7
100
AcDbCircle
 10
105.2401023842
 20
48.09211333325001
 30
0.0
 40
0.5999998459173413
100
AcDbArc
 50
210.0000391846992
 51
258.8526841997021
  0
ARC
  5
3C4
330
1F
100
AcDbEntity
  8
SLD-0
  6
CONTINUOUS
 62
     7
100
AcDbCircle
 10
105.2401023842
 20
48.09211333325001
 30
0.0
 40
0.5999998459173423
100
AcDbArc
 50
101.1473182459021
 51
149.9999635279
  0
ARC
  5
3C5
330
1F
100
AcDbEntity
  8
SLD-0
  6
CONTINUOUS
 62
     7
100
AcDbCircle
 10
105.2401023451
 20
41.09211313495001
 30
0.0
 40
0.5999998557890595
100
AcDbArc
 50
281.1473182459014
 51
330.0000000000005
  0
ARC
  5
3C6
330
1F
100
AcDbEntity
  8
SLD-0
  6
CONTINUOUS
 62
     7
100
AcDbCircle
 10
105.2401023285
 20
44.59211305055001
 30
0.0
 40
0.6000001206647213
100
AcDbArc
 50
281.1473182458979
 51
329.9999969285984
  0
ARC
  5
3C7
330
1F
100
AcDbEntity
  8
SLD-0
  6
CONTINUOUS
 62
     7
100
AcDbCircle
 10
105.2401023285
 20
44.59211305055001
 30
0.0
 40
0.6000001206647098
100
AcDbArc
 50
210.0000096030995
 51
258.8526947911999
  0
ARC
  5
3C8
330
1F
100
AcDbEntity
  8
SLD-0
  6
CONTINUOUS
 62
     7
100
AcDbCircle
 10
105.2401023285
 20
44.59211305055001
 30
0.0
 40
0.6000001206646934
100
AcDbArc
 50
101.1473182458984
 51
149.9999339462985
  0
ARC
  5
3C9
330
1F
100
AcDbEntity
  8
SLD-0
  6
CONTINUOUS
 62
     7
100
AcDbCircle
 10
105.2401023842
 20
48.09211333325001
 30
0.0
 40
0.5999998459173556
100
AcDbArc
 50
281.1473182459016
 51
329.9999673471017
  0
ARC
  5
3CA
330
1F
100
AcDbEntity
  8
SLD-0
  6
CONTINUOUS
 62
     7
100
AcDbCircle
 10
105.2401023842
 20
48.09211333325001
 30
0.0
 40
0.5999998459173679
100
AcDbArc
 50
30.00002994040104
 51
78.85267077710284
  0
ARC
  5
3CB
330
1F
100
AcDbEntity
  8
SLD-0
  6
CONTINUOUS
 62
     7
100
AcDbCircle
 10
105.2401023451
 20
41.09211313495001
 30
0.0
 40
0.5999998557890066
100
AcDbArc
 50
209.9999800297999
 51
258.852688187399
  0
ARC
  5
3CC
330
1F
100
AcDbEntity
  8
SLD-0
  6
CONTINUOUS
 62
     7
100
AcDbCircle
 10
105.2401023451
 20
41.09211313495001
 30
0.0
 40
0.5999998557890168
100
AcDbArc
 50
29.99993505119989
 51
78.85266678939918
  0
ARC
  5
3CD
330
1F
100
AcDbEntity
  8
SLD-0
  6
CONTINUOUS
 62
     7
100
AcDbCircle
 10
105.2401023451
 20
41.09211313495001
 30
0.0
 40
0.5999998557890595
100
AcDbArc
 50
330.0000000000005
 51
29.99993505119954
  0
ARC
  5
3CE
330
1F
100
AcDbEntity
  8
SLD-0
  6
CONTINUOUS
 62
     7
100
AcDbCircle
 10
105.2401023661
 20
55.09211324135001
 30
0.0
 40
0.599999997023027
100
AcDbArc
 50
330.0000000000009
 51
30.00000929870144
  0
ARC
  5
3CF
330
1F
100
AcDbEntity
  8
SLD-0
  6
CONTINUOUS
 62
     7
100
AcDbCircle
 10
105.2401023842
 20
48.09211333325001
 30
0.0
 40
0.5999998459173679
100
AcDbArc
 50
329.9999673471017
 51
30.00002994040102
  0
ARC
  5
3D0
330
1F
100
AcDbEntity
  8
SLD-0
  6
CONTINUOUS
 62
     7
100
AcDbCircle
 10
105.2401023618
 20
37.59211321935001
 30
0.0
 40
0.599999590962473
100
AcDbArc
 50
330.000000000002
 51
29.99996463279998
  0
ARC
  5
3D1
330
1F
100
AcDbEntity
  8
SLD-0
  6
CONTINUOUS
 62
     7
100
AcDbCircle
 10
105.2401023285
 20
44.59211305055001
 30
0.0
 40
0.6000001206647182
100
AcDbArc
 50
329.9999969285984
 51
30.00005952190085
  0
ARC
  5
3D2
330
1F
100
AcDbEntity
  8
SLD-0
  6
CONTINUOUS
 62
     7
100
AcDbCircle
 10
105.2401023385
 20
51.59211310155001
 30
0.0
 40
0.5999999606532441
100
AcDbArc
 50
330.0000000000005
 51
30.00000036710137
  0
ARC
  5
3D3
330
1F
100
AcDbEntity
  8
SLD-0
  6
CONTINUOUS
 62
     7
100
AcDbCircle
 10
105.2401024684
 20
34.09211376064999
 30
0.0
 40
0.5999997917859732
100
AcDbArc
 50
329.9999999999998
 51
29.99999420599953
  0
ARC
  5
3D4
330
1F
100
AcDbEntity
  8
SLD-0
  6
CONTINUOUS
 62
     7
100
AcDbCircle
 10
105.2401023842
 20
48.09211333325001
 30
0.0
 40
0.5999998459173423
100
AcDbArc
 50
149.9999635279
 51
210.0000391846992
  0
ARC
  5
3D5
330
1F
100
AcDbEntity
  8
SLD-0
  6
CONTINUOUS
 62
     7
100
AcDbCircle
 10
105.2401023285
 20
44.59211305055001
 30
0.0
 40
0.6000001206647098
100
AcDbArc
 50
149.9999339463012
 51
210.0000096030995
  0
ARC
  5
3D6
330
1F
100
AcDbEntity
  8
SLD-0
  6
CONTINUOUS
 62
     7
100
AcDbCircle
 10
105.2401024684
 20
34.09211376064999
 30
0.0
 40
0.5999997917859874
100
AcDbArc
 50
149.9999999999999
 51
210.0000749189999
  0
ARC
  5
3D7
330
1F
100
AcDbEntity
  8
SLD-0
  6
CONTINUOUS
 62
     7
100
AcDbCircle
 10
105.2401023618
 20
37.59211321935001
 30
0.0
 40
0.5999995909624799
100
AcDbArc
 50
150.000000000002
 51
209.9999504565019
  0
ARC
  5
3D8
330
1F
100
AcDbEntity
  8
SLD-0
  6
CONTINUOUS
 62
     7
100
AcDbCircle
 10
105.2401023385
 20
51.59211310155001
 30
0.0
 40
0.5999999606532505
100
AcDbArc
 50
150.0000000000005
 51
209.9999917400993
  0
ARC
  5
3D9
330
1F
100
AcDbEntity
  8
SLD-0
  6
CONTINUOUS
 62
     7
100
AcDbCircle
 10
105.2401023661
 20
55.09211324135001
 30
0.0
 40
0.5999999970230357
100
AcDbArc
 50
150.0000000000009
 51
210.0000213134021
  0
ARC
  5
3DA
330
1F
100
AcDbEntity
  8
SLD-0
  6
CONTINUOUS
 62
     7
100
AcDbCircle
 10
105.2401023451
 20
41.09211313495001
 30
0.0
 40
0.5999998557890103
100
AcDbArc
 50
150.0000000000001
 51
209.9999800298023
  0
ARC
  5
3DB
330
1F
100
AcDbEntity
  8
SLD-0
  6
CONTINUOUS
 62
     7
100
AcDbCircle
 10
108.6401023544
 20
54.77961318205001
 30
0.0
 40
1.812500099150393
100
AcDbArc
 50
92.17476142689985
 51
133.6028206240999
  0
ARC
  5
3DC
330
1F
100
AcDbEntity
  8
SLD-0
  6
CONTINUOUS
 62
     7
100
AcDbCircle
 10
108.6401021354
 20
48.40461326005001
 30
0.0
 40
1.812500234865787
100
AcDbArc
 50
226.3971855303003
 51
267.8252455905006
  0
ARC
  5
3DD
330
1F
100
AcDbEntity
  8
SLD-0
  6
CONTINUOUS
 62
     7
100
AcDbCircle
 10
108.6401023544
 20
44.27961318205001
 30
0.0
 40
1.812500263082151
100
AcDbArc
 50
92.17476074710007
 51
133.6028276897999
  0
ARC
  5
3DE
330
1F
100
AcDbEntity
  8
SLD-0
  6
CONTINUOUS
 62
     7
100
AcDbCircle
 10
108.6401023544
 20
34.40461318205001
 30
0.0
 40
1.812500024274734
100
AcDbArc
 50
226.3971746472007
 51
267.8252315303002
  0
ARC
  5
3DF
330
1F
100
AcDbEntity
  8
SLD-0
  6
CONTINUOUS
 62
     7
100
AcDbCircle
 10
108.640102346
 20
51.90461298184999
 30
0.0
 40
1.812500293502109
100
AcDbArc
 50
226.3971730230994
 51
267.8252392402007
  0
ARC
  5
3E0
330
1F
100
AcDbEntity
  8
SLD-0
  6
CONTINUOUS
 62
     7
100
AcDbCircle
 10
108.6401023544
 20
47.77961318205001
 30
0.0
 40
1.812499865906543
100
AcDbArc
 50
92.1747620794004
 51
133.6028151847993
  0
ARC
  5
3E1
330
1F
100
AcDbEntity
  8
SLD-0
  6
CONTINUOUS
 62
     7
100
AcDbCircle
 10
108.640102345
 20
37.90461352074999
 30
0.0
 40
1.812501033850323
100
AcDbArc
 50
226.3971824433001
 51
267.8252467601004
  0
ARC
  5
3E2
330
1F
100
AcDbEntity
  8
SLD-0
  6
CONTINUOUS
 62
     7
100
AcDbCircle
 10
108.6401023544
 20
33.77961318205001
 30
0.0
 40
1.812499737956426
100
AcDbArc
 50
92.1747557019004
 51
133.6028043016994
  0
ARC
  5
3E3
330
1F
100
AcDbEntity
  8
SLD-0
  6
CONTINUOUS
 62
     7
100
AcDbCircle
 10
108.6401023544
 20
51.27961318205001
 30
0.0
 40
1.812499998676628
100
AcDbArc
 50
92.17476138670013
 51
133.6028229807999
  0
ARC
  5
3E4
330
1F
100
AcDbEntity
  8
SLD-0
  6
CONTINUOUS
 62
     7
100
AcDbCircle
 10
108.6401022429
 20
55.40461312095002
 30
0.0
 40
1.812499864676928
100
AcDbArc
 50
226.3971808190997
 51
267.8252418301992
  0
ARC
  5
3E5
330
1F
100
AcDbEntity
  8
SLD-0
  6
CONTINUOUS
 62
     7
100
AcDbCircle
 10
108.6401023671
 20
44.90461352074999
 30
0.0
 40
1.812499837719686
100
AcDbArc
 50
226.3971980374998
 51
267.8252442589006
  0
ARC
  5
3E6
330
1F
100
AcDbEntity
  8
SLD-0
  6
CONTINUOUS
 62
     7
100
AcDbCircle
 10
108.6401023544
 20
40.77961318205001
 30
0.0
 40
1.812500934147925
100
AcDbArc
 50
92.1747531993004
 51
133.6028198938006
  0
ARC
  5
3E7
330
1F
100
AcDbEntity
  8
SLD-0
  6
CONTINUOUS
 62
     7
100
AcDbCircle
 10
108.6401023561
 20
41.40461352065
 30
0.0
 40
1.812499505134173
100
AcDbArc
 50
226.3971902393002
 51
267.8252443922992
  0
ARC
  5
3E8
330
1F
100
AcDbEntity
  8
SLD-0
  6
CONTINUOUS
 62
     7
100
AcDbCircle
 10
108.6401023544
 20
37.27961318205001
 30
0.0
 40
1.812499405400361
100
AcDbArc
 50
92.17475556779932
 51
133.6028120978
  0
ARC
  5
3E9
330
1F
100
AcDbEntity
  8
SLD-0
  6
CONTINUOUS
 62
     7
100
AcDbCircle
 10
108.6401023544
 20
51.27961318205001
 30
0.0
 40
1.812499953943448
100
AcDbArc
 50
50.61836899620038
 51
56.5007499264993
  0
ARC
  5
3EA
330
1F
100
AcDbEntity
  8
SLD-0
  6
CONTINUOUS
 62
     7
100
AcDbCircle
 10
108.6401022429
 20
55.40461312095002
 30
0.0
 40
1.812499904435136
100
AcDbArc
 50
303.4992551569997
 51
309.3816368482996
  0
ARC
  5
3EB
330
1F
100
AcDbEntity
  8
SLD-0
  6
CONTINUOUS
 62
     7
100
AcDbCircle
 10
108.640102346
 20
51.90461298184999
 30
0.0
 40
1.812499816697881
100
AcDbArc
 50
303.4992532720997
 51
309.3816346822002
  0
ARC
  5
3EC
330
1F
100
AcDbEntity
  8
SLD-0
  6
CONTINUOUS
 62
     7
100
AcDbCircle
 10
108.6401023544
 20
47.77961318205001
 30
0.0
 40
1.812500221620427
100
AcDbArc
 50
50.61837616860019
 51
56.50075616609981
  0
ARC
  5
3ED
330
1F
100
AcDbEntity
  8
SLD-0
  6
CONTINUOUS
 62
     7
100
AcDbCircle
 10
108.640102345
 20
37.90461352074999
 30
0.0
 40
1.812499780222832
100
AcDbArc
 50
303.4992619815993
 51
309.3816446945996
  0
ARC
  5
3EE
330
1F
100
AcDbEntity
  8
SLD-0
  6
CONTINUOUS
 62
     7
100
AcDbCircle
 10
108.6401023544
 20
33.77961318205001
 30
0.0
 40
1.812500235333597
100
AcDbArc
 50
50.61836750000017
 51
56.50074862659994
  0
ARC
  5
3EF
330
1F
100
AcDbEntity
  8
SLD-0
  6
CONTINUOUS
 62
     7
100
AcDbCircle
 10
108.6401021354
 20
48.40461326005001
 30
0.0
 40
1.812499886215693
100
AcDbArc
 50
303.4992595117001
 51
309.3816418545996
  0
ARC
  5
3F0
330
1F
100
AcDbEntity
  8
SLD-0
  6
CONTINUOUS
 62
     7
100
AcDbCircle
 10
108.6401023544
 20
44.27961318205001
 30
0.0
 40
1.812499792220675
100
AcDbArc
 50
50.61836466189996
 51
56.50074615680005
  0
ARC
  5
3F1
330
1F
100
AcDbEntity
  8
SLD-0
  6
CONTINUOUS
 62
     7
100
AcDbCircle
 10
108.6401023544
 20
34.40461318205001
 30
0.0
 40
1.812500232382083
100
AcDbArc
 50
303.4992357232996
 51
309.3816145088998
  0
ARC
  5
3F2
330
1F
100
AcDbEntity
  8
SLD-0
  6
CONTINUOUS
 62
     7
100
AcDbCircle
 10
108.6401023671
 20
44.90461352074999
 30
0.0
 40
1.812500315651743
100
AcDbArc
 50
303.4992495024004
 51
309.3816303478999
  0
ARC
  5
3F3
330
1F
100
AcDbEntity
  8
SLD-0
  6
CONTINUOUS
 62
     7
100
AcDbCircle
 10
108.6401023544
 20
40.77961318205001
 30
0.0
 40
1.812499699979623
100
AcDbArc
 50
50.61835315530034
 51
56.50073614739944
  0
ARC
  5
3F4
330
1F
100
AcDbEntity
  8
SLD-0
  6
CONTINUOUS
 62
     7
100
AcDbCircle
 10
108.6401023544
 20
54.77961318205001
 30
0.0
 40
1.812500034821689
100
AcDbArc
 50
50.61837116239931
 51
56.50075181140022
  0
ARC
  5
3F5
330
1F
100
AcDbEntity
  8
SLD-0
  6
CONTINUOUS
 62
     7
100
AcDbCircle
 10
108.6401023561
 20
41.40461352065
 30
0.0
 40
1.812500047938465
100
AcDbArc
 50
303.4992557420006
 51
309.3816375201994
  0
ARC
  5
3F6
330
1F
100
AcDbEntity
  8
SLD-0
  6
CONTINUOUS
 62
     7
100
AcDbCircle
 10
108.6401023544
 20
37.27961318205001
 30
0.0
 40
1.812499967656574
100
AcDbArc
 50
50.61836032759995
 51
56.50074238700086
  0
ARC
  5
3F7
330
1F
100
AcDbEntity
  8
SLD-0
  6
CONTINUOUS
 62
     7
100
AcDbCircle
 10
108.6401023561
 20
41.40461352065
 30
0.0
 40
1.812500047938452
100
AcDbArc
 50
309.3816375202
 51
313.6028096255996
  0
ARC
  5
3F8
330
1F
100
AcDbEntity
  8
SLD-0
  6
CONTINUOUS
 62
     7
100
AcDbCircle
 10
108.6401023544
 20
34.40461318205001
 30
0.0
 40
1.812500232382096
100
AcDbArc
 50
309.3816145088991
 51
313.6028252177005
  0
ARC
  5
3F9
330
1F
100
AcDbEntity
  8
SLD-0
  6
CONTINUOUS
 62
     7
100
AcDbCircle
 10
108.640102345
 20
37.90461352074999
 30
0.0
 40
1.812499780222862
100
AcDbArc
 50
309.3816446946005
 51
313.6028174217006
  0
ARC
  5
3FA
330
1F
100
AcDbEntity
  8
SLD-0
  6
CONTINUOUS
 62
     7
100
AcDbCircle
 10
108.6401023671
 20
44.90461352074999
 30
0.0
 40
1.812500315651743
100
AcDbArc
 50
309.3816303478999
 51
313.6028018274008
  0
ARC
  5
3FB
330
1F
100
AcDbEntity
  8
SLD-0
  6
CONTINUOUS
 62
     7
100
AcDbCircle
 10
108.640102346
 20
51.90461298184999
 30
0.0
 40
1.812499816697881
100
AcDbArc
 50
309.3816346822002
 51
313.6028268418993
  0
ARC
  5
3FC
330
1F
100
AcDbEntity
  8
SLD-0
  6
CONTINUOUS
 62
     7
100
AcDbCircle
 10
108.6401021354
 20
48.40461326005001
 30
0.0
 40
1.812499886215693
100
AcDbArc
 50
309.3816418545996
 51
313.6028143345998
  0
ARC
  5
3FD
330
1F
100
AcDbEntity
  8
SLD-0
  6
CONTINUOUS
 62
     7
100
AcDbCircle
 10
108.6401023544
 20
40.77961318205001
 30
0.0
 40
1.812499699979626
100
AcDbArc
 50
46.39718024130082
 51
50.61835315530034
  0
ARC
  5
3FE
330
1F
100
AcDbEntity
  8
SLD-0
  6
CONTINUOUS
 62
     7
100
AcDbCircle
 10
108.6401023544
 20
51.27961318205001
 30
0.0
 40
1.812499953943448
100
AcDbArc
 50
46.39717715420018
 51
50.61836899620038
  0
ARC
  5
3FF
330
1F
100
AcDbEntity
  8
SLD-0
  6
CONTINUOUS
 62
     7
100
AcDbCircle
 10
108.6401023544
 20
37.27961318205001
 30
0.0
 40
1.812499967656588
100
AcDbArc
 50
46.39718803730009
 51
50.61836032759995
  0
ARC
  5
400
330
1F
100
AcDbEntity
  8
SLD-0
  6
CONTINUOUS
 62
     7
100
AcDbCircle
 10
108.6401022429
 20
55.40461312095002
 30
0.0
 40
1.812499904435136
100
AcDbArc
 50
309.3816368482996
 51
313.6028190458006
  0
ARC
  5
401
330
1F
100
AcDbEntity
  8
SLD-0
  6
CONTINUOUS
 62
     7
100
AcDbCircle
 10
108.6401023544
 20
33.77961318205001
 30
0.0
 40
1.812500235333597
100
AcDbArc
 50
46.39719583330022
 51
50.61836750000017
  0
ARC
  5
402
330
1F
100
AcDbEntity
  8
SLD-0
  6
CONTINUOUS
 62
     7
100
AcDbCircle
 10
108.6401023544
 20
44.27961318205001
 30
0.0
 40
1.812499792220694
100
AcDbArc
 50
46.39717244519989
 51
50.61836466189996
  0
ARC
  5
403
330
1F
100
AcDbEntity
  8
SLD-0
  6
CONTINUOUS
 62
     7
100
AcDbCircle
 10
108.6401023544
 20
47.77961318205001
 30
0.0
 40
1.812500221620425
100
AcDbArc
 50
46.39718495029919
 51
50.61837616860019
  0
ARC
  5
404
330
1F
100
AcDbEntity
  8
SLD-0
  6
CONTINUOUS
 62
     7
100
AcDbCircle
 10
108.6401023544
 20
54.77961318205001
 30
0.0
 40
1.812500034821675
100
AcDbArc
 50
46.39717951090044
 51
50.6183711624007
  0
ARC
  5
405
330
1F
100
AcDbEntity
  8
SLD-0
  6
CONTINUOUS
 62
     7
100
AcDbCircle
 10
104.2801023544
 20
57.04211318205
 30
0.0
 40
0.2500000000000455
100
AcDbArc
 50
36.86989764579712
 51
143.1301023542029
  0
ARC
  5
406
330
1F
100
AcDbEntity
  8
SLD-0
  6
CONTINUOUS
 62
     7
100
AcDbCircle
 10
107.5901023544
 20
57.69211318205001
 30
0.0
 40
0.4000000000000341
100
AcDbArc
 50
180.0
 51
321.3178125464984
  0
ARC
  5
407
330
1F
100
AcDbEntity
  8
SLD-0
  6
CONTINUOUS
 62
     7
100
AcDbCircle
 10
107.5901023544
 20
57.69211318205001
 30
0.0
 40
0.4000000000000341
100
AcDbArc
 50
38.68218745350156
 51
180.0
  0
ARC
  5
408
330
1F
100
AcDbEntity
  8
SLD-0
  6
CONTINUOUS
 62
     7
100
AcDbCircle
 10
104.2801023544
 20
57.04211318205
 30
0.0
 40
0.3000000000000078
100
AcDbArc
 50
30.0000000000004
 51
149.9999999999996
  0
ARC
  5
409
330
1F
100
AcDbEntity
  8
SLD-0
  6
CONTINUOUS
 62
     7
100
AcDbCircle
 10
116.3901023693
 20
26.64211321485001
 30
0.0
 40
0.5
100
AcDbArc
 50
270.0
 51
0.0
  0
ARC
  5
40A
330
1F
100
AcDbEntity
  8
SLD-0
  6
CONTINUOUS
 62
     7
100
AcDbCircle
 10
104.1318448004
 20
59.39211319745002
 30
0.0
 40
0.5
100
AcDbArc
 50
270.0
 51
336.4218215217988
  0
ARC
  5
40B
330
1F
100
AcDbEntity
  8
SLD-0
  6
CONTINUOUS
 62
     7
100
AcDbCircle
 10
103.1901023699
 20
58.59211318205001
 30
0.0
 40
0.3000000154499958
100
AcDbArc
 50
90.00001109630368
 51
180.0
  0
ARC
  5
40C
330
1F
100
AcDbEntity
  8
SLD-0
  6
CONTINUOUS
 62
     7
100
AcDbCircle
 10
103.1901023614
 20
30.29211318205
 30
0.0
 40
0.3000000070502197
100
AcDbArc
 50
180.0000978994019
 51
286.9880604249983
  0
ARC
  5
40D
330
1F
100
AcDbEntity
  8
SLD-0
  6
CONTINUOUS
 62
     7
100
AcDbCircle
 10
110.9901024159
 20
30.29211334695
 30
0.0
 40
0.2999998205613636
100
AcDbArc
 50
253.0119250007046
 51
286.9880604249951
  0
ARC
  5
40E
330
1F
100
AcDbEntity
  8
SLD-0
  6
CONTINUOUS
 62
     7
100
AcDbCircle
 10
114.7901023635
 20
30.30520400295001
 30
0.0
 40
0.2999998172500682
100
AcDbArc
 50
269.9999607331974
 51
0.0
  0
ARC
  5
40F
330
1F
100
AcDbEntity
  8
SLD-0
  6
CONTINUOUS
 62
     7
100
AcDbCircle
 10
110.0483599252
 20
59.39211319135001
 30
0.0
 40
0.4999999845499972
100
AcDbArc
 50
203.578178478199
 51
269.9999941786968
  0
ARC
  5
410
330
1F
100
AcDbEntity
  8
SLD-0
  6
CONTINUOUS
 62
     7
100
AcDbCircle
 10
114.7901020573
 20
58.59211308325001
 30
0.0
 40
0.3000001235000739
100
AcDbArc
 50
0.0001323350995296
 51
89.99998227089867
  0
ARC
  5
411
330
1F
100
AcDbEntity
  8
SLD-0
  6
CONTINUOUS
 62
     7
100
AcDbCircle
 10
116.390102402
 20
94.74211320584999
 30
0.0
 40
0.4999999672505953
100
AcDbArc
 50
359.9998828760012
 51
90.0000158709009
  0
ARC
  5
412
330
1F
100
AcDbEntity
  8
SLD-0
  6
CONTINUOUS
 62
     7
100
AcDbCircle
 10
99.79010239309997
 20
94.74211318204999
 30
0.0
 40
0.4999999910500205
100
AcDbArc
 50
89.99998513749752
 51
180.0
  0
ARC
  5
413
330
1F
100
AcDbEntity
  8
SLD-0
  6
CONTINUOUS
 62
     7
100
AcDbCircle
 10
99.79010236929997
 20
26.64211318205
 30
0.0
 40
0.4999999672005399
100
AcDbArc
 50
179.999881833201
 51
270.0000148625032
  0
ARC
  5
414
330
1F
100
AcDbEntity
  8
SLD-0
  6
CONTINUOUS
 62
     7
100
AcDbCircle
 10
110.9901022365
 20
58.59211334695001
 30
0.0
 40
0.3000000000000398
100
AcDbArc
 50
0.0
 51
90.0
  0
ARC
  5
415
330
1F
100
AcDbEntity
  8
SLD-0
  6
CONTINUOUS
 62
     7
100
AcDbCircle
 10
110.9901024159
 20
30.29211334695
 30
0.0
 40
0.2999998205613552
100
AcDbArc
 50
286.9880604249951
 51
359.9999021006025
  0
ARC
  5
416
330
1F
100
AcDbEntity
  8
SLD-0
  6
CONTINUOUS
 62
     7
100
AcDbCircle
 10
116.6401023544
 20
25.14211341155001
 30
0.0
 40
0.500000229501486
100
AcDbArc
 50
270.0
 51
0.0001967077013663
  0
ARC
  5
417
330
1F
100
AcDbEntity
  8
SLD-0
  6
CONTINUOUS
 62
     7
100
AcDbCircle
 10
116.6401024765
 20
96.24211341155001
 30
0.0
 40
0.4999996483500695
100
AcDbArc
 50
0.0
 51
89.99995679890066
  0
ARC
  5
418
330
1F
100
AcDbEntity
  8
SLD-0
  6
CONTINUOUS
 62
     7
100
AcDbCircle
 10
99.5401023544
 20
25.14211318205
 30
0.0
 40
0.5
100
AcDbArc
 50
180.0
 51
270.0
  0
ARC
  5
419
330
1F
100
AcDbEntity
  8
SLD-0
  6
CONTINUOUS
 62
     7
100
AcDbCircle
 10
99.54010212489999
 20
96.24211318204999
 30
0.0
 40
0.5000002294514729
100
AcDbArc
 50
90.0
 51
180.0001967077014
  0
SPLINE
  5
41A
330
1F
100
AcDbEntity
  8
SLD-0
  6
CONTINUOUS
 62
     7
100
AcDbSpline
210
0.0
220
0.0
230
1.0
 70
     8
 71
     3
 72
    12
 73
     8
 74
     0
 42
0.000000001
 43
0.0000000001
 40
0.0
 40
0.0
 40
0.0
 40
0.0
 40
0.1553669487095816
 40
0.2907760565624678
 40
0.500900885727591
 40
0.7574703270562523
 40
1.0
 40
1.0
 40
1.0
 40
1.0
 10
-52.3658168444
 20
-17.66038664224999
 30
0.0
 10
-52.36306128893631
 20
-17.6204935101934
 30
0.0
 10
-52.3579041460689
 20
-17.54583176443811
 30
0.0
 10
-52.3128831248724
 20
-17.42407692603101
 30
0.0
 10
-52.22363202315751
 20
-17.29614258717569
 30
0.0
 10
-52.06940877538909
 20
-17.18652664588959
 30
0.0
 10
-51.9412043435135
 20
-17.16904966641471
 30
0.0
 10
-51.87890533707662
 20
-17.1605569923247
 30
0.0
  0
SPLINE
  5
41B
330
1F
100
AcDbEntity
  8
SLD-0
  6
CONTINUOUS
 62
     7
100
AcDbSpline
210
0.0
220
0.0
230
1.0
 70
     8
 71
     3
 72
    12
 73
     8
 74
     0
 42
0.000000001
 43
0.0000000001
 40
0.0
 40
0.0
 40
0.0
 40
0.0
 40
0.242508230639879
 40
0.4990992169681452
 40
0.7091915669784127
 40
0.8446035447476459
 40
0.9999999999999999
 40
0.9999999999999999
 40
0.9999999999999999
 40
0.9999999999999999
 10
-51.87890533707662
 20
-89.12321158287523
 30
0.0
 10
-51.94119888786491
 20
-89.11472070083431
 30
0.0
 10
-52.06940345369981
 20
-89.09724586063277
 30
0.0
 10
-52.223622285174
 20
-88.9876354436048
 30
0.0
 10
-52.31287308286329
 20
-88.85970506845844
 30
0.0
 10
-52.3579030567314
 20
-88.73795318149013
 30
0.0
 10
-52.36306076847239
 20
-88.66328280890376
 30
0.0
 10
-52.3658168444
 20
-88.62338193295
 30
0.0
  0
SPLINE
  5
41C
330
1F
100
AcDbEntity
  8
SLD-0
  6
CONTINUOUS
 62
     7
100
AcDbSpline
210
0.0
220
0.0
230
1.0
 70
     8
 71
     3
 72
    18
 73
    14
 74
     0
 42
0.000000001
 43
0.0000000001
 40
0.0
 40
0.0
 40
0.0
 40
0.0
 40
0.03125
 40
0.03125
 40
0.0625
 40
0.0625
 40
0.1250000000000001
 40
0.1250000000000001
 40
0.2500000000000003
 40
0.2500000000000003
 40
0.5000000000000007
 40
0.5000000000000007
 40
1.0
 40
1.0
 40
1.0
 40
1.0
 10
113.3639400413503
 20
-88.79188428761655
 30
0.0
 10
113.3862310193022
 20
-88.79188428761657
 30
0.0
 10
113.4036666818729
 20
-88.79423705803251
 30
0.0
 10
113.4294954233852
 20
-88.7988406541206
 30
0.0
 10
113.4396230291341
 20
-88.8014379729041
 30
0.0
 10
113.4664650172459
 20
-88.80933069128956
 30
0.0
 10
113.4799444242505
 20
-88.81490508913899
 30
0.0
 10
113.5157880107382
 20
-88.83180705458093
 30
0.0
 10
113.5331980911716
 20
-88.843439392582
 30
0.0
 10
113.5788958530679
 20
-88.87907777408887
 30
0.0
 10
113.5996494165113
 20
-88.90383658577372
 30
0.0
 10
113.648973631419
 20
-88.98035293166157
 30
0.0
 10
113.6639400413503
 20
-89.03458352734548
 30
0.0
 10
113.6639400413503
 20
-89.09188428761654
 30
0.0
  0
SPLINE
  5
41D
330
1F
100
AcDbEntity
  8
SLD-0
  6
CONTINUOUS
 62
     7
100
AcDbSpline
210
0.0
220
0.0
230
1.0
 70
     8
 71
     3
 72
    18
 73
    14
 74
     0
 42
0.000000001
 43
0.0000000001
 40
0.0
 40
0.0
 40
0.0
 40
0.0
 40
0.03125
 40
0.03125
 40
0.0625
 40
0.0625
 40
0.1250000000000001
 40
0.1250000000000001
 40
0.2500000000000003
 40
0.2500000000000003
 40
0.5000000000000007
 40
0.5000000000000007
 40
1.0
 40
1.0
 40
1.0
 40
1.0
 10
109.9639399463999
 20
-17.4918842876165
 30
0.0
 10
109.9416489684481
 20
-17.4918842876165
 30
0.0
 10
109.9242133058773
 20
-17.48953151720059
 30
0.0
 10
109.898384564365
 20
-17.4849279211125
 30
0.0
 10
109.8882569586162
 20
-17.482330602329
 30
0.0
 10
109.8614149705045
 20
-17.47443788394361
 30
0.0
 10
109.8479355634998
 20
-17.46886348609411
 30
0.0
 10
109.8120919770121
 20
-17.45196152065219
 30
0.0
 10
109.7946818965787
 20
-17.44032918265108
 30
0.0
 10
109.7489841346824
 20
-17.40469080114428
 30
0.0
 10
109.7282305712391
 20
-17.37993198945941
 30
0.0
 10
109.6789063563313
 20
-17.3034156435715
 30
0.0
 10
109.6639399464
 20
-17.24918504788761
 30
0.0
 10
109.6639399464
 20
-17.19188428761649
 30
0.0
  0
SPLINE
  5
41E
330
1F
100
AcDbEntity
  8
SLD-0
  6
CONTINUOUS
 62
     7
100
AcDbSpline
210
0.0
220
0.0
230
1.0
 70
     8
 71
     3
 72
    18
 73
    14
 74
     0
 42
0.000000001
 43
0.0000000001
 40
0.0
 40
0.0
 40
0.0
 40
0.0
 40
0.4999999999999999
 40
0.4999999999999999
 40
0.7500000000000006
 40
0.7500000000000006
 40
0.8750000000000003
 40
0.8750000000000003
 40
0.9375000000000003
 40
0.9375000000000003
 40
0.9687500000000002
 40
0.9687500000000002
 40
1.0
 40
1.0
 40
1.0
 40
1.0
 10
113.6639399464
 20
-17.1918842876166
 30
0.0
 10
113.6639399464
 20
-17.2491978585663
 30
0.0
 10
113.6490114855168
 20
-17.3033256136363
 30
0.0
 10
113.5996980939869
 20
-17.37987187693111
 30
0.0
 10
113.5789797220369
 20
-17.404606794937
 30
0.0
 10
113.5332899537248
 20
-17.44026668952088
 30
0.0
 10
113.5157815209553
 20
-17.4519641685861
 30
0.0
 10
113.4799526497438
 20
-17.46885974632178
 30
0.0
 10
113.4665636431928
 20
-17.4744058429871
 30
0.0
 10
113.4396401838252
 20
-17.4823270309445
 30
0.0
 10
113.4297051651011
 20
-17.4848799641513
 30
0.0
 10
113.4039212652124
 20
-17.4894964926836
 30
0.0
 10
113.3862166109694
 20
-17.4918842876165
 30
0.0
 10
113.3639399463999
 20
-17.4918842876165
 30
0.0
  0
SPLINE
  5
41F
330
1F
100
AcDbEntity
  8
SLD-0
  6
CONTINUOUS
 62
     7
100
AcDbSpline
210
0.0
220
0.0
230
1.0
 70
     8
 71
     3
 72
    18
 73
    14
 74
     0
 42
0.000000001
 43
0.0000000001
 40
0.0
 40
0.0
 40
0.0
 40
0.0
 40
0.4999999999999999
 40
0.4999999999999999
 40
0.7500000000000006
 40
0.7500000000000006
 40
0.8750000000000003
 40
0.8750000000000003
 40
0.9375000000000003
 40
0.9375000000000003
 40
0.9687500000000002
 40
0.9687500000000002
 40
1.0
 40
1.0
 40
1.0
 40
1.0
 10
109.6639400413503
 20
-89.09188428761654
 30
0.0
 10
109.6639400413503
 20
-89.03457071666676
 30
0.0
 10
109.6788685022336
 20
-88.98044296159678
 30
0.0
 10
109.7281818937634
 20
-88.90389669830202
 30
0.0
 10
109.7489002657134
 20
-88.87916178029607
 30
0.0
 10
109.7945900340255
 20
-88.84350188571224
 30
0.0
 10
109.8120984667949
 20
-88.83180440664702
 30
0.0
 10
109.8479273380064
 20
-88.81490882891131
 30
0.0
 10
109.8613163445575
 20
-88.809362732246
 30
0.0
 10
109.888239803925
 20
-88.80144154428862
 30
0.0
 10
109.8981748226491
 20
-88.79888861108184
 30
0.0
 10
109.9239587225379
 20
-88.79427208254948
 30
0.0
 10
109.9416633767808
 20
-88.79188428761657
 30
0.0
 10
109.9639400413503
 20
-88.79188428761655
 30
0.0
  0
SPLINE
  5
420
330
1F
100
AcDbEntity
  8
SLD-0
  6
CONTINUOUS
 62
     7
100
AcDbSpline
210
0.0
220
0.0
230
1.0
 70
     8
 71
     3
 72
    10
 73
     6
 74
     0
 42
0.000000001
 43
0.0000000001
 40
0.0
 40
0.0
 40
0.0
 40
0.0
 40
0.4099421814814271
 40
0.7576581878244251
 40
1.0
 40
1.0
 40
1.0
 40
1.0
 10
109.6404683272116
 20
56.29104439010061
 30
0.0
 10
109.522195927649
 20
56.3594453011797
 30
0.0
 10
109.3036039993959
 20
56.48586437361189
 30
0.0
 10
108.9145449548483
 20
56.58663083842731
 30
0.0
 10
108.6712468746913
 20
56.5895917276024
 30
0.0
 10
108.5713222642656
 20
56.5908077902082
 30
0.0
  0
SPLINE
  5
421
330
1F
100
AcDbEntity
  8
SLD-0
  6
CONTINUOUS
 62
     7
100
AcDbSpline
210
0.0
220
0.0
230
1.0
 70
     8
 71
     3
 72
    10
 73
     6
 74
     0
 42
0.000000001
 43
0.0000000001
 40
0.0
 40
0.0
 40
0.0
 40
0.0
 40
0.4099421814814271
 40
0.7576581878244251
 40
1.0
 40
1.0
 40
1.0
 40
1.0
 10
109.640468332295
 20
52.7910442897473
 30
0.0
 10
109.5221959327323
 20
52.85944520082651
 30
0.0
 10
109.3036040044793
 20
52.98586427325881
 30
0.0
 10
108.9145449599316
 20
53.08663073807409
 30
0.0
 10
108.6712468797746
 20
53.08959162724921
 30
0.0
 10
108.571322269349
 20
53.09080768985501
 30
0.0
  0
SPLINE
  5
422
330
1F
100
AcDbEntity
  8
SLD-0
  6
CONTINUOUS
 62
     7
100
AcDbSpline
210
0.0
220
0.0
230
1.0
 70
     8
 71
     3
 72
    10
 73
     6
 74
     0
 42
0.000000001
 43
0.0000000001
 40
0.0
 40
0.0
 40
0.0
 40
0.0
 40
0.3414993077142353
 40
0.6817115498865916
 40
1.0
 40
1.0
 40
1.0
 40
1.0
 10
108.5713222646299
 20
53.5934187431744
 30
0.0
 10
108.7125692550497
 20
53.5979788361486
 30
0.0
 10
108.9945308947389
 20
53.60708183571219
 30
0.0
 10
109.3646149330274
 20
53.7293996502635
 30
0.0
 10
109.5505810165911
 20
53.83981333153369
 30
0.0
 10
109.6404683275759
 20
53.89318214328199
 30
0.0
  0
SPLINE
  5
423
330
1F
100
AcDbEntity
  8
SLD-0
  6
CONTINUOUS
 62
     7
100
AcDbSpline
210
0.0
220
0.0
230
1.0
 70
     8
 71
     3
 72
    10
 73
     6
 74
     0
 42
0.000000001
 43
0.0000000001
 40
0.0
 40
0.0
 40
0.0
 40
0.0
 40
0.3414993418802261
 40
0.6817116919110938
 40
1.0
 40
1.0
 40
1.0
 40
1.0
 10
108.5713222695799
 20
50.0934181786852
 30
0.0
 10
108.7125692721086
 20
50.0979784101836
 30
0.0
 10
108.994530966503
 20
50.1070816872593
 30
0.0
 10
109.3646147861638
 20
50.22940019980069
 30
0.0
 10
109.5505809959678
 20
50.33981345816392
 30
0.0
 10
109.6404683325259
 20
50.39318204445399
 30
0.0
  0
SPLINE
  5
424
330
1F
100
AcDbEntity
  8
SLD-0
  6
CONTINUOUS
 62
     7
100
AcDbSpline
210
0.0
220
0.0
230
1.0
 70
     8
 71
     3
 72
    10
 73
     6
 74
     0
 42
0.000000001
 43
0.0000000001
 40
0.0
 40
0.0
 40
0.0
 40
0.0
 40
0.4099422160636111
 40
0.7576581673807878
 40
1.0
 40
1.0
 40
1.0
 40
1.0
 10
109.6404683154356
 20
49.29104462190281
 30
0.0
 10
109.5221959308152
 20
49.3594455990044
 30
0.0
 10
109.303604054517
 20
49.48586477938431
 30
0.0
 10
108.9145448883348
 20
49.5866305111316
 30
0.0
 10
108.6712468571059
 20
49.5895914664172
 30
0.0
 10
108.5713222524896
 20
49.59080755634909
 30
0.0
  0
SPLINE
  5
425
330
1F
100
AcDbEntity
  8
SLD-0
  6
CONTINUOUS
 62
     7
100
AcDbSpline
210
0.0
220
0.0
230
1.0
 70
     8
 71
     3
 72
    10
 73
     6
 74
     0
 42
0.000000001
 43
0.0000000001
 40
0.0
 40
0.0
 40
0.0
 40
0.0
 40
0.3414993116156036
 40
0.6817114262620736
 40
1.0
 40
1.0
 40
1.0
 40
1.0
 10
108.57132226197
 20
46.59341850787811
 30
0.0
 10
108.7125692346072
 20
46.59797885385461
 30
0.0
 10
108.994530784445
 20
46.60708235671379
 30
0.0
 10
109.3646150866671
 20
46.7293991749743
 30
0.0
 10
109.5505810409665
 20
46.83981331777261
 30
0.0
 10
109.640468324916
 20
46.89318237364711
 30
0.0
  0
SPLINE
  5
426
330
1F
100
AcDbEntity
  8
SLD-0
  6
CONTINUOUS
 62
     7
100
AcDbSpline
210
0.0
220
0.0
230
1.0
 70
     8
 71
     3
 72
    10
 73
     6
 74
     0
 42
0.000000001
 43
0.0000000001
 40
0.0
 40
0.0
 40
0.0
 40
0.0
 40
0.4099421468990896
 40
0.7576582082681528
 40
1.0
 40
1.0
 40
1.0
 40
1.0
 10
109.6404683424801
 20
45.79104408906909
 30
0.0
 10
109.522195927975
 20
45.8594449341258
 30
0.0
 10
109.3036039477669
 20
45.9858638986106
 30
0.0
 10
108.9145450248546
 20
46.0866310964937
 30
0.0
 10
108.6712468957691
 20
46.0895919195583
 30
0.0
 10
108.5713222795341
 20
46.090807954838
 30
0.0
  0
SPLINE
  5
427
330
1F
100
AcDbEntity
  8
SLD-0
  6
CONTINUOUS
 62
     7
100
AcDbSpline
210
0.0
220
0.0
230
1.0
 70
     8
 71
     3
 72
    10
 73
     6
 74
     0
 42
0.000000001
 43
0.0000000001
 40
0.0
 40
0.0
 40
0.0
 40
0.0
 40
0.3414993038128775
 40
0.6817116735111244
 40
1.0
 40
1.0
 40
1.0
 40
1.0
 10
108.5713224666528
 20
43.0934191669671
 30
0.0
 10
108.7125694748551
 20
43.0979790069392
 30
0.0
 10
108.9945312043958
 20
43.10708150320681
 30
0.0
 10
109.3646149787507
 20
43.22940031404931
 30
0.0
 10
109.5505811915788
 20
43.3398135337911
 30
0.0
 10
109.6404685295988
 20
43.39318210141352
 30
0.0
  0
SPLINE
  5
428
330
1F
100
AcDbEntity
  8
SLD-0
  6
CONTINUOUS
 62
     7
100
AcDbSpline
210
0.0
220
0.0
230
1.0
 70
     8
 71
     3
 72
    10
 73
     6
 74
     0
 42
0.000000001
 43
0.0000000001
 40
0.0
 40
0.0
 40
0.0
 40
0.0
 40
0.4099423144302365
 40
0.7576582770746233
 40
1.0
 40
1.0
 40
1.0
 40
1.0
 10
109.6404685556113
 20
42.29104383738959
 30
0.0
 10
109.5221961736775
 20
42.3594450750023
 30
0.0
 10
109.3036043231485
 20
42.4858647248291
 30
0.0
 10
108.9145452301081
 20
42.58663174948779
 30
0.0
 10
108.6712471066068
 20
42.58959259144279
 30
0.0
 10
108.5713224926653
 20
42.59080863448099
 30
0.0
  0
SPLINE
  5
429
330
1F
100
AcDbEntity
  8
SLD-0
  6
CONTINUOUS
 62
     7
100
AcDbSpline
210
0.0
220
0.0
230
1.0
 70
     8
 71
     3
 72
    10
 73
     6
 74
     0
 42
0.000000001
 43
0.0000000001
 40
0.0
 40
0.0
 40
0.0
 40
0.0
 40
0.3414995201226466
 40
0.6817115796649726
 40
1.0
 40
1.0
 40
1.0
 40
1.0
 10
108.5713220444754
 20
32.593418657168
 30
0.0
 10
108.7125689932474
 20
32.5979794707078
 30
0.0
 10
108.9945303867383
 20
32.60708390342171
 30
0.0
 10
109.3646148284074
 20
32.72939921876551
 30
0.0
 10
109.5505808202065
 20
32.83981281078411
 30
0.0
 10
109.6404681074214
 20
32.89318159161431
 30
0.0
  0
SPLINE
  5
42A
330
1F
100
AcDbEntity
  8
SLD-0
  6
CONTINUOUS
 62
     7
100
AcDbSpline
210
0.0
220
0.0
230
1.0
 70
     8
 71
     3
 72
    10
 73
     6
 74
     0
 42
0.000000001
 43
0.0000000001
 40
0.0
 40
0.0
 40
0.0
 40
0.0
 40
0.3414993799486607
 40
0.6817117103115882
 40
1.0
 40
1.0
 40
1.0
 40
1.0
 10
108.5713224781845
 20
36.09341796869731
 30
0.0
 10
108.7125694750392
 20
36.09797859172201
 30
0.0
 10
108.9945311342864
 20
36.1070826496055
 30
0.0
 10
109.3646149992543
 20
36.22940086384639
 30
0.0
 10
109.5505812060339
 20
36.33981416083091
 30
0.0
 10
109.6404685411305
 20
36.39318276578879
 30
0.0
  0
SPLINE
  5
42B
330
1F
100
AcDbEntity
  8
SLD-0
  6
CONTINUOUS
 62
     7
100
AcDbSpline
210
0.0
220
0.0
230
1.0
 70
     8
 71
     3
 72
    10
 73
     6
 74
     0
 42
0.000000001
 43
0.0000000001
 40
0.0
 40
0.0
 40
0.0
 40
0.0
 40
0.4099424527586833
 40
0.7576581953003031
 40
1.0
 40
1.0
 40
1.0
 40
1.0
 10
109.6404685218926
 20
35.2910445017005
 30
0.0
 10
109.5221961997279
 20
35.35944600340369
 30
0.0
 10
109.3036045570177
 20
35.48586608502131
 30
0.0
 10
108.9145449774395
 20
35.5866301774069
 30
0.0
 10
108.6712470496508
 20
35.5895912838044
 30
0.0
 10
108.5713224589466
 20
35.59080743614692
 30
0.0
  0
SPLINE
  5
42C
330
1F
100
AcDbEntity
  8
SLD-0
  6
CONTINUOUS
 62
     7
100
AcDbSpline
210
0.0
220
0.0
230
1.0
 70
     8
 71
     3
 72
    10
 73
     6
 74
     0
 42
0.000000001
 43
0.0000000001
 40
0.0
 40
0.0
 40
0.0
 40
0.0
 40
0.3414993038128775
 40
0.6817116735111244
 40
1.0
 40
1.0
 40
1.0
 40
1.0
 10
108.5713224724431
 20
39.59341949912491
 30
0.0
 10
108.7125694806454
 20
39.59797933909701
 30
0.0
 10
108.994531210186
 20
39.6070818353646
 30
0.0
 10
109.3646149845409
 20
39.72940064620701
 30
0.0
 10
109.5505811973691
 20
39.8398138659488
 30
0.0
 10
109.6404685353891
 20
39.89318243357121
 30
0.0
  0
SPLINE
  5
42D
330
1F
100
AcDbEntity
  8
SLD-0
  6
CONTINUOUS
 62
     7
100
AcDbSpline
210
0.0
220
0.0
230
1.0
 70
     8
 71
     3
 72
    10
 73
     6
 74
     0
 42
0.000000001
 43
0.0000000001
 40
0.0
 40
0.0
 40
0.0
 40
0.0
 40
0.4099424527586833
 40
0.7576581953003031
 40
1.0
 40
1.0
 40
1.0
 40
1.0
 10
109.6404685387519
 20
38.79104416954502
 30
0.0
 10
109.5221962165873
 20
38.8594456712481
 30
0.0
 10
109.303604573877
 20
38.98586575286569
 30
0.0
 10
108.9145449942987
 20
39.08662984525139
 30
0.0
 10
108.6712470665101
 20
39.0895909516488
 30
0.0
 10
108.5713224758059
 20
39.0908071039913
 30
0.0
  0
SPLINE
  5
42E
330
1F
100
AcDbEntity
  8
SLD-0
  6
CONTINUOUS
 62
     7
100
AcDbSpline
210
0.0
220
0.0
230
1.0
 70
     8
 71
     3
 72
    18
 73
    14
 74
     0
 42
0.000000001
 43
0.0000000001
 40
0.0
 40
0.0
 40
0.0
 40
0.0
 40
0.03125
 40
0.03125
 40
0.0625
 40
0.0625
 40
0.1250000000000001
 40
0.1250000000000001
 40
0.2500000000000003
 40
0.2500000000000003
 40
0.5000000000000007
 40
0.5000000000000007
 40
1.0
 40
1.0
 40
1.0
 40
1.0
 10
109.790102354439
 20
25.0421131820745
 30
0.0
 10
109.8123933323909
 20
25.0421131820745
 30
0.0
 10
109.8298289949616
 20
25.03976041165851
 30
0.0
 10
109.8556577364739
 20
25.03515681557042
 30
0.0
 10
109.8657853422228
 20
25.03255949678692
 30
0.0
 10
109.8926273303344
 20
25.0246667784015
 30
0.0
 10
109.9061067373391
 20
25.019092380552
 30
0.0
 10
109.9419503238269
 20
25.00219041511011
 30
0.0
 10
109.9593604042603
 20
24.990558077109
 30
0.0
 10
110.0050581661565
 20
24.9549196956022
 30
0.0
 10
110.0258117296
 20
24.9301608839173
 30
0.0
 10
110.0751359445076
 20
24.85364453802941
 30
0.0
 10
110.090102354439
 20
24.7994139423455
 30
0.0
 10
110.090102354439
 20
24.74211318207449
 30
0.0
  0
SPLINE
  5
42F
330
1F
100
AcDbEntity
  8
SLD-0
  6
CONTINUOUS
 62
     7
100
AcDbSpline
210
0.0
220
0.0
230
1.0
 70
     8
 71
     3
 72
    18
 73
    14
 74
     0
 42
0.000000001
 43
0.0000000001
 40
0.0
 40
0.0
 40
0.0
 40
0.0
 40
0.03125
 40
0.03125
 40
0.0625
 40
0.0625
 40
0.1250000000000001
 40
0.1250000000000001
 40
0.2500000000000003
 40
0.2500000000000003
 40
0.5000000000000007
 40
0.5000000000000007
 40
1.0
 40
1.0
 40
1.0
 40
1.0
 10
106.3901022594001
 20
96.34211318207451
 30
0.0
 10
106.3678112814482
 20
96.34211318207451
 30
0.0
 10
106.3503756188774
 20
96.3444659524904
 30
0.0
 10
106.3245468773652
 20
96.34906954857851
 30
0.0
 10
106.3144192716163
 20
96.35166686736201
 30
0.0
 10
106.2875772835046
 20
96.35955958574749
 30
0.0
 10
106.2740978764999
 20
96.3651339835969
 30
0.0
 10
106.2382542900121
 20
96.38203594903891
 30
0.0
 10
106.2208442095787
 20
96.3936682870399
 30
0.0
 10
106.1751464476825
 20
96.42930666854681
 30
0.0
 10
106.154392884239
 20
96.45406548023169
 30
0.0
 10
106.1050686693314
 20
96.53058182611952
 30
0.0
 10
106.0901022594001
 20
96.5848124218034
 30
0.0
 10
106.0901022594001
 20
96.6421131820745
 30
0.0
  0
SPLINE
  5
430
330
1F
100
AcDbEntity
  8
SLD-0
  6
CONTINUOUS
 62
     7
100
AcDbSpline
210
0.0
220
0.0
230
1.0
 70
     8
 71
     3
 72
    18
 73
    14
 74
     0
 42
0.000000001
 43
0.0000000001
 40
0.0
 40
0.0
 40
0.0
 40
0.0
 40
0.4999999999999999
 40
0.4999999999999999
 40
0.7500000000000006
 40
0.7500000000000006
 40
0.8750000000000003
 40
0.8750000000000003
 40
0.9375000000000003
 40
0.9375000000000003
 40
0.9687500000000002
 40
0.9687500000000002
 40
1.0
 40
1.0
 40
1.0
 40
1.0
 10
110.0901022594001
 20
96.6421131820745
 30
0.0
 10
110.0901022594001
 20
96.58479961112471
 30
0.0
 10
110.0751737985169
 20
96.53067185605471
 30
0.0
 10
110.025860406987
 20
96.45412559276
 30
0.0
 10
110.0051420350371
 20
96.42939067475399
 30
0.0
 10
109.959452266725
 20
96.39373078017022
 30
0.0
 10
109.9419438339555
 20
96.382033301105
 30
0.0
 10
109.9061149627439
 20
96.3651377233692
 30
0.0
 10
109.8927259561929
 20
96.35959162670392
 30
0.0
 10
109.8658024968253
 20
96.3516704387466
 30
0.0
 10
109.8558674781011
 20
96.3491175055398
 30
0.0
 10
109.8300835782125
 20
96.34450097700741
 30
0.0
 10
109.8123789239696
 20
96.34211318207451
 30
0.0
 10
109.7901022594
 20
96.34211318207451
 30
0.0
  0
SPLINE
  5
431
330
1F
100
AcDbEntity
  8
SLD-0
  6
CONTINUOUS
 62
     7
100
AcDbSpline
210
0.0
220
0.0
230
1.0
 70
     8
 71
     3
 72
    18
 73
    14
 74
     0
 42
0.000000001
 43
0.0000000001
 40
0.0
 40
0.0
 40
0.0
 40
0.0
 40
0.4999999999999999
 40
0.4999999999999999
 40
0.7500000000000006
 40
0.7500000000000006
 40
0.8750000000000003
 40
0.8750000000000003
 40
0.9375000000000003
 40
0.9375000000000003
 40
0.9687500000000002
 40
0.9687500000000002
 40
1.0
 40
1.0
 40
1.0
 40
1.0
 10
106.090102354439
 20
24.74211318207449
 30
0.0
 10
106.090102354439
 20
24.79942675302431
 30
0.0
 10
106.1050308153222
 20
24.85355450809419
 30
0.0
 10
106.154344206852
 20
24.93010077138899
 30
0.0
 10
106.1750625788019
 20
24.954835689395
 30
0.0
 10
106.2207523471141
 20
24.9904955839788
 30
0.0
 10
106.2382607798836
 20
25.00219306304399
 30
0.0
 10
106.2740896510951
 20
25.0190886407797
 30
0.0
 10
106.287478657646
 20
25.02463473744501
 30
0.0
 10
106.3144021170137
 20
25.03255592540239
 30
0.0
 10
106.3243371357378
 20
25.03510885860919
 30
0.0
 10
106.3501210356266
 20
25.03972538714152
 30
0.0
 10
106.3678256898695
 20
25.0421131820745
 30
0.0
 10
106.390102354439
 20
25.0421131820745
 30
0.0
  0
ELLIPSE
  5
432
330
1F
100
AcDbEntity
  8
SLD-0
  6
CONTINUOUS
 62
     7
100
AcDbEllipse
 10
58.2681578159
 20
-56.98188185925
 30
0.0
 11
0.8660254037844481
 21
0.0
 31
0.0
210
0.0
220
0.0
230
1.0
 40
0.5773502692000065
 41
0.0000001940005063
 42
1.570796326794319
  0
ELLIPSE
  5
433
330
1F
100
AcDbEntity
  8
SLD-0
  6
CONTINUOUS
 62
     7
100
AcDbEllipse
 10
58.2681578159
 20
-81.84188359925
 30
0.0
 11
0.8660254037844481
 21
0.0
 31
0.0
210
0.0
220
0.0
230
1.0
 40
0.5773502692000065
 41
4.712388980385267
 42
6.283185307179586
  0
ELLIPSE
  5
434
330
1F
100
AcDbEntity
  8
SLD-0
  6
CONTINUOUS
 62
     7
100
AcDbEllipse
 10
58.2681578159
 20
-58.98188201215
 30
0.0
 11
0.8660254037844197
 21
0.0
 31
0.0
210
0.0
220
0.0
230
1.0
 40
0.5773502691999927
 41
4.712388980385267
 42
6.283184845578398
  0
ELLIPSE
  5
435
330
1F
100
AcDbEntity
  8
SLD-0
  6
CONTINUOUS
 62
     7
100
AcDbEllipse
 10
53.02700354269999
 20
-58.98188185925
 30
0.0
 11
0.8660254037844197
 21
0.0
 31
0.0
210
0.0
220
0.0
230
1.0
 40
0.5773502691999927
 41
4.712393068025869
 42
6.283184845577658
  0
ELLIPSE
  5
436
330
1F
100
AcDbEntity
  8
SLD-0
  6
CONTINUOUS
 62
     7
100
AcDbEllipse
 10
53.02700354269999
 20
-56.98188185925
 30
0.0
 11
0.8660254037844197
 21
0.0
 31
0.0
210
0.0
220
0.0
230
1.0
 40
0.5773502691999927
 41
0.000000194000819
 42
1.570792239154505
  0
ELLIPSE
  5
437
330
1F
100
AcDbEntity
  8
SLD-0
  6
CONTINUOUS
 62
     7
100
AcDbEllipse
 10
58.2681578159
 20
-64.60188155915
 30
0.0
 11
0.8660254037844481
 21
0.0
 31
0.0
210
0.0
220
0.0
230
1.0
 40
0.5773502692000065
 41
0.0000005646014642
 42
1.570799282133357
  0
ELLIPSE
  5
438
330
1F
100
AcDbEntity
  8
SLD-0
  6
CONTINUOUS
 62
     7
100
AcDbEllipse
 10
53.02700354269999
 20
-64.60188155915
 30
0.0
 11
0.8660254037844197
 21
0.0
 31
0.0
210
0.0
220
0.0
230
1.0
 40
0.5773502691999927
 41
0.0000005646023453
 42
1.570792239157951
  0
ELLIPSE
  5
439
330
1F
100
AcDbEntity
  8
SLD-0
  6
CONTINUOUS
 62
     7
100
AcDbEllipse
 10
58.2681578159
 20
-70.41188187125
 30
0.0
 11
0.8660254037844197
 21
0.0
 31
0.0
210
0.0
220
0.0
230
1.0
 40
0.5773502691999927
 41
4.712388980385267
 42
6.283184004369325
  0
ELLIPSE
  5
43A
330
1F
100
AcDbEntity
  8
SLD-0
  6
CONTINUOUS
 62
     7
100
AcDbEllipse
 10
58.2681578159
 20
-72.22188187124999
 30
0.0
 11
0.8660254037844481
 21
0.0
 31
0.0
210
0.0
220
0.0
230
1.0
 40
0.5773502692000065
 41
0.0000000036000074
 42
1.570796326794319
  0
ELLIPSE
  5
43B
330
1F
100
AcDbEntity
  8
SLD-0
  6
CONTINUOUS
 62
     7
100
AcDbEllipse
 10
58.2681578159
 20
-66.60188143165
 30
0.0
 11
0.8660254037844481
 21
0.0
 31
0.0
210
0.0
220
0.0
230
1.0
 40
0.5773502692000065
 41
4.712388980385267
 42
6.28318521597938
  0
ELLIPSE
  5
43C
330
1F
100
AcDbEntity
  8
SLD-0
  6
CONTINUOUS
 62
     7
100
AcDbEllipse
 10
58.2681578159
 20
-68.41188143165
 30
0.0
 11
0.8660254037844481
 21
0.0
 31
0.0
210
0.0
220
0.0
230
1.0
 40
0.5773502692000065
 41
6.283184659977927
 42
7.853981633973905
  0
ELLIPSE
  5
43D
330
1F
100
AcDbEntity
  8
SLD-0
  6
CONTINUOUS
 62
     7
100
AcDbEllipse
 10
53.02700354269999
 20
-68.41188167335
 30
0.0
 11
0.8660254037844197
 21
0.0
 31
0.0
210
0.0
220
0.0
230
1.0
 40
0.5773502691999927
 41
6.283184659976904
 42
7.853977546332581
  0
ELLIPSE
  5
43E
330
1F
100
AcDbEntity
  8
SLD-0
  6
CONTINUOUS
 62
     7
100
AcDbEllipse
 10
58.2681578159
 20
-62.79188155915
 30
0.0
 11
0.8660254037844481
 21
0.0
 31
0.0
210
0.0
220
0.0
230
1.0
 40
0.5773502692000065
 41
4.712388980385267
 42
6.283184565177685
  0
ELLIPSE
  5
43F
330
1F
100
AcDbEntity
  8
SLD-0
  6
CONTINUOUS
 62
     7
100
AcDbEllipse
 10
53.02700354269999
 20
-62.79188201215
 30
0.0
 11
0.8660254037844197
 21
0.0
 31
0.0
210
0.0
220
0.0
230
1.0
 40
0.5773502691999927
 41
4.712393068020881
 42
6.283184565170323
  0
ELLIPSE
  5
440
330
1F
100
AcDbEntity
  8
SLD-0
  6
CONTINUOUS
 62
     7
100
AcDbEllipse
 10
53.02700354269999
 20
-70.41188167335
 30
0.0
 11
0.8660254037843913
 21
0.0
 31
0.0
210
0.0
220
0.0
230
1.0
 40
0.5773502691999952
 41
4.712393068026198
 42
6.283184004363243
  0
ELLIPSE
  5
441
330
1F
100
AcDbEntity
  8
SLD-0
  6
CONTINUOUS
 62
     7
100
AcDbEllipse
 10
53.02700354269999
 20
-66.60188155915
 30
0.0
 11
0.8660254037844197
 21
0.0
 31
0.0
210
0.0
220
0.0
230
1.0
 40
0.5773502691999927
 41
4.712393068023572
 42
6.283185215979238
  0
ELLIPSE
  5
442
330
1F
100
AcDbEntity
  8
SLD-0
  6
CONTINUOUS
 62
     7
100
AcDbEllipse
 10
58.2681578159
 20
-76.03188324215
 30
0.0
 11
0.8660254037844197
 21
0.0
 31
0.0
210
0.0
220
0.0
230
1.0
 40
0.5773502691999927
 41
0.0000006546017346
 42
1.570799282138575
  0
ELLIPSE
  5
443
330
1F
100
AcDbEntity
  8
SLD-0
  6
CONTINUOUS
 62
     7
100
AcDbEllipse
 10
53.02700354269999
 20
-76.03188324215
 30
0.0
 11
0.8660254037844197
 21
0.0
 31
0.0
210
0.0
220
0.0
230
1.0
 40
0.5773502691999927
 41
0.0000006546027578
 42
1.570792239150731
  0
ELLIPSE
  5
444
330
1F
100
AcDbEntity
  8
SLD-0
  6
CONTINUOUS
 62
     7
100
AcDbEllipse
 10
53.02700354269999
 20
-72.22188271875
 30
0.0
 11
0.8660254037844197
 21
0.0
 31
0.0
210
0.0
220
0.0
230
1.0
 40
0.5773502691999927
 41
0.0000000036000358
 42
1.570792239152667
  0
ELLIPSE
  5
445
330
1F
100
AcDbEntity
  8
SLD-0
  6
CONTINUOUS
 62
     7
100
AcDbEllipse
 10
58.2681578159
 20
-74.22188324215
 30
0.0
 11
0.8660254037844197
 21
0.0
 31
0.0
210
0.0
220
0.0
230
1.0
 40
0.5773502691999927
 41
4.712388980385267
 42
6.283184655177927
  0
ELLIPSE
  5
446
330
1F
100
AcDbEntity
  8
SLD-0
  6
CONTINUOUS
 62
     7
100
AcDbEllipse
 10
53.02700354269999
 20
-74.22188271875
 30
0.0
 11
0.8660254037843913
 21
0.0
 31
0.0
210
0.0
220
0.0
230
1.0
 40
0.5773502691999952
 41
4.712393068028889
 42
6.283184655176902
  0
ELLIPSE
  5
447
330
1F
100
AcDbEntity
  8
SLD-0
  6
CONTINUOUS
 62
     7
100
AcDbEllipse
 10
58.2681578159
 20
-78.03188409095
 30
0.0
 11
0.8660254037844197
 21
0.0
 31
0.0
210
0.0
220
0.0
230
1.0
 40
0.5773502691999927
 41
4.712388980385267
 42
6.283185305979623
  0
ELLIPSE
  5
448
330
1F
100
AcDbEntity
  8
SLD-0
  6
CONTINUOUS
 62
     7
100
AcDbEllipse
 10
58.2681578159
 20
-79.84188409095
 30
0.0
 11
0.8660254037844481
 21
0.0
 31
0.0
210
0.0
220
0.0
230
1.0
 40
0.5773502692000065
 41
0.0000013054103079
 42
1.570796326794319
  0
ELLIPSE
  5
449
330
1F
100
AcDbEntity
  8
SLD-0
  6
CONTINUOUS
 62
     7
100
AcDbEllipse
 10
53.02700354269999
 20
-78.03188324215
 30
0.0
 11
0.8660254037844197
 21
0.0
 31
0.0
210
0.0
220
0.0
230
1.0
 40
0.5773502691999927
 41
4.71239306802692
 42
6.283185305979623
  0
ELLIPSE
  5
44A
330
1F
100
AcDbEntity
  8
SLD-0
  6
CONTINUOUS
 62
     7
100
AcDbEllipse
 10
53.02700354269999
 20
-81.84188428765
 30
0.0
 11
0.8660254037844197
 21
0.0
 31
0.0
210
0.0
220
0.0
230
1.0
 40
0.5773502691999927
 41
4.712393068022719
 42
6.283185956982315
  0
ELLIPSE
  5
44B
330
1F
100
AcDbEntity
  8
SLD-0
  6
CONTINUOUS
 62
     7
100
AcDbEllipse
 10
53.02700354269999
 20
-79.84188428765
 30
0.0
 11
0.8660254037844197
 21
0.0
 31
0.0
210
0.0
220
0.0
230
1.0
 40
0.5773502691999927
 41
0.0000013054164185
 42
1.570792239153389
  0
LINE
  5
44C
330
1F
100
AcDbEntity
  8
SLD-0
  6
CENTER
 62
     7
100
AcDbLine
 10
-114.1931475778
 20
-90.64188428764999
 30
0.0
 11
-114.1931475778
 21
-15.64188428764999
 31
0.0
  0
LINE
  5
44D
330
1F
100
AcDbEntity
  8
SLD-0
  6
CENTER
 62
     7
100
AcDbLine
 10
-124.6931475778
 20
-53.14866895534999
 30
0.0
 11
-103.6931475778
 21
-53.14866895534999
 31
0.0
  0
LINE
  5
44E
330
1F
100
AcDbEntity
  8
SLD-0
  6
CENTER
 62
     7
100
AcDbLine
 10
49.1341832196
 20
-53.14188428765
 30
0.0
 11
-56.5259634814
 21
-53.14188428765
 31
0.0
  0
LINE
  5
44F
330
1F
100
AcDbEntity
  8
SLD-0
  6
CENTER
 62
     7
100
AcDbLine
 10
101.1139400414
 20
-53.14188428765
 30
0.0
 11
122.2139400414
 21
-53.14188428765
 31
0.0
  0
LINE
  5
450
330
1F
100
AcDbEntity
  8
SLD-0
  6
CENTER
 62
     7
100
AcDbLine
 10
111.7889400413
 20
-16.34188428765
 30
0.0
 11
111.7889400413
 21
-70.41688428764999
 31
0.0
  0
LINE
  5
451
330
1F
100
AcDbEntity
  8
SLD-0
  6
CENTER
 62
     7
100
AcDbLine
 10
49.01574108700001
 20
60.69211318205001
 30
0.0
 11
-56.68931613960001
 21
60.69211318205001
 31
0.0
  0
LINE
  5
452
330
1F
100
AcDbEntity
  8
SLD-0
  6
CENTER
 62
     7
100
AcDbLine
 10
108.0901023544
 20
21.55032938225
 30
0.0
 11
108.0901023544
 21
98.24211318204999
 31
0.0
  0
LINE
  5
453
330
1F
100
AcDbEntity
  8
SLD-0
  6
CENTER
 62
     7
100
AcDbLine
 10
118.6401023544
 20
60.69211318205001
 30
0.0
 11
97.5401023544
 21
60.69211318205001
 31
0.0
  0
LINE
  5
454
330
1F
100
AcDbEntity
  8
0
  6
CONTINUOUS
 62
     7
100
AcDbLine
 10
-111.318742128
 20
24.64211388535
 30
0.0
 11
-116.9044382106
 21
24.64211388535
 31
0.0
  0
LINE
  5
455
330
1F
100
AcDbEntity
  8
0
  6
CONTINUOUS
 62
     7
100
AcDbLine
 10
-110.6115896023
 20
24.44211422505001
 30
0.0
 11
-110.6115896023
 21
24.24211456485
 31
0.0
  0
LINE
  5
456
330
1F
100
AcDbEntity
  8
0
  6
CONTINUOUS
 62
     7
100
AcDbLine
 10
-117.6115898184
 20
97.34211145945
 30
0.0
 11
-117.6115898184
 21
97.54211484494999
 31
0.0
  0
LINE
  5
457
330
1F
100
AcDbEntity
  8
0
  6
CONTINUOUS
 62
     7
100
AcDbLine
 10
-115.9615897109
 20
91.49211301505
 30
0.0
 11
-115.9615897109
 21
35.29211348895001
 31
0.0
  0
LINE
  5
458
330
1F
100
AcDbEntity
  8
0
  6
CONTINUOUS
 62
     7
100
AcDbLine
 10
-51.79734746970001
 20
96.67344047725001
 30
0.0
 11
-51.2791553982
 21
96.68700798455001
 31
0.0
  0
LINE
  5
459
330
1F
100
AcDbEntity
  8
0
  6
CONTINUOUS
 62
     7
100
AcDbLine
 10
-52.38954545979999
 20
35.43769410855001
 30
0.0
 11
-52.41899807050001
 21
35.43872415125
 31
0.0
  0
LINE
  5
45A
330
1F
100
AcDbEntity
  8
0
  6
CONTINUOUS
 62
     7
100
AcDbLine
 10
-47.93425891590002
 20
96.54211281835
 30
0.0
 11
-47.3842589189
 21
96.54211281835
 31
0.0
  0
LINE
  5
45B
330
1F
100
AcDbEntity
  8
0
  6
CONTINUOUS
 62
     7
100
AcDbLine
 10
-48.28425891800001
 20
25.04211320585
 30
0.0
 11
-47.93425891590002
 21
25.04211320585
 31
0.0
  0
LINE
  5
45C
330
1F
100
AcDbEntity
  8
0
  6
CONTINUOUS
 62
     7
100
AcDbLine
 10
-52.4128164169
 20
91.34571841955
 30
0.0
 11
-52.38425880720001
 21
91.34671679735001
 31
0.0
  0
LINE
  5
45D
330
1F
100
AcDbEntity
  8
0
  6
CONTINUOUS
 62
     7
100
AcDbLine
 10
-48.48425891299999
 20
24.64211388535
 30
0.0
 11
-51.08425892
 21
24.64211388535
 31
0.0
  0
LINE
  5
45E
330
1F
100
AcDbEntity
  8
0
  6
CONTINUOUS
 62
     7
100
AcDbLine
 10
-46.2842589249
 20
24.44211422505001
 30
0.0
 11
-46.2842589249
 21
24.24211456485
 31
0.0
  0
LINE
  5
45F
330
1F
100
AcDbEntity
  8
0
  6
CONTINUOUS
 62
     7
100
AcDbLine
 10
-51.2791553982
 20
96.68700798455001
 30
0.0
 11
-51.08425892
 21
96.49211197205
 31
0.0
  0
LINE
  5
460
330
1F
100
AcDbEntity
  8
0
  6
CONTINUOUS
 62
     7
100
AcDbLine
 10
-52.46329177219999
 20
35.44027014675001
 30
0.0
 11
-52.47662412049999
 21
35.44073580804999
 31
0.0
  0
LINE
  5
461
330
1F
100
AcDbEntity
  8
0
  6
CONTINUOUS
 62
     7
100
AcDbLine
 10
-46.83425892190002
 20
96.74211247865
 30
0.0
 11
-46.83425892190002
 21
96.94211213895
 31
0.0
  0
LINE
  5
462
330
1F
100
AcDbEntity
  8
0
  6
CONTINUOUS
 62
     7
100
AcDbLine
 10
-45.73425892790002
 20
24.24211456485
 30
0.0
 11
-45.73425892790002
 21
24.04211318195001
 31
0.0
  0
LINE
  5
463
330
1F
100
AcDbEntity
  8
0
  6
CONTINUOUS
 62
     7
100
AcDbLine
 10
-52.3189884615
 20
91.34899481245
 30
0.0
 11
-52.28425897700001
 21
91.35020739435001
 31
0.0
  0
LINE
  5
464
330
1F
100
AcDbEntity
  8
0
  6
CONTINUOUS
 62
     7
100
AcDbLine
 10
-51.08425892
 20
25.14211489855001
 30
0.0
 11
-51.08425892
 21
96.24211146535
 31
0.0
  0
LINE
  5
465
330
1F
100
AcDbEntity
  8
0
  6
CONTINUOUS
 62
     7
100
AcDbLine
 10
-47.3842589189
 20
24.64211388535
 30
0.0
 11
-46.83425892190002
 21
24.64211388535
 31
0.0
  0
LINE
  5
466
330
1F
100
AcDbEntity
  8
0
  6
CONTINUOUS
 62
     7
100
AcDbLine
 10
-52.4812206631
 20
91.34333050855
 30
0.0
 11
-52.4721975443
 21
91.34364529555
 31
0.0
  0
LINE
  5
467
330
1F
100
AcDbEntity
  8
0
  6
CONTINUOUS
 62
     7
100
AcDbLine
 10
-51.08425892
 20
96.74211247865
 30
0.0
 11
-48.48425891299999
 21
96.74211247865
 31
0.0
  0
LINE
  5
468
330
1F
100
AcDbEntity
  8
0
  6
CONTINUOUS
 62
     7
100
AcDbLine
 10
-46.2842589249
 20
97.14211179915
 30
0.0
 11
-45.73425892790002
 21
97.14211179915
 31
0.0
  0
LINE
  5
469
330
1F
100
AcDbEntity
  8
0
  6
CONTINUOUS
 62
     7
100
AcDbLine
 10
-51.79734746970001
 20
24.71078588675002
 30
0.0
 11
-51.2791553982
 21
24.69721837955001
 31
0.0
  0
LINE
  5
46A
330
1F
100
AcDbEntity
  8
0
  6
CONTINUOUS
 62
     7
100
AcDbLine
 10
-52.35650725709999
 20
35.43654113114999
 30
0.0
 11
-52.38954545979999
 21
35.43769410855001
 31
0.0
  0
LINE
  5
46B
330
1F
100
AcDbEntity
  8
0
  6
CONTINUOUS
 62
     7
100
AcDbLine
 10
-47.93425891590002
 20
96.34211315815
 30
0.0
 11
-47.93425891590002
 21
96.54211281835
 31
0.0
  0
LINE
  5
46C
330
1F
100
AcDbEntity
  8
0
  6
CONTINUOUS
 62
     7
100
AcDbLine
 10
-47.93425891590002
 20
25.04211320585
 30
0.0
 11
-47.93425891590002
 21
24.84211354555001
 31
0.0
  0
LINE
  5
46D
330
1F
100
AcDbEntity
  8
0
  6
CONTINUOUS
 62
     7
100
AcDbLine
 10
-52.4374675942
 20
91.34485787755
 30
0.0
 11
-52.4128164169
 21
91.34571841955
 31
0.0
  0
LINE
  5
46E
330
1F
100
AcDbEntity
  8
0
  6
CONTINUOUS
 62
     7
100
AcDbLine
 10
-48.48425891299999
 20
25.14211489855001
 30
0.0
 11
-48.48425891299999
 21
24.64211388535
 31
0.0
  0
LINE
  5
46F
330
1F
100
AcDbEntity
  8
0
  6
CONTINUOUS
 62
     7
100
AcDbLine
 10
-46.2842589249
 20
24.24211456485
 30
0.0
 11
-45.73425892790002
 21
24.24211456485
 31
0.0
  0
LINE
  5
470
330
1F
100
AcDbEntity
  8
0
  6
CONTINUOUS
 62
     7
100
AcDbLine
 10
-51.08425892
 20
24.89211439204999
 30
0.0
 11
-51.2791553982
 21
24.69721837955001
 31
0.0
  0
LINE
  5
471
330
1F
100
AcDbEntity
  8
0
  6
CONTINUOUS
 62
     7
100
AcDbLine
 10
-52.44386252059999
 20
35.43959214394999
 30
0.0
 11
-52.46329177219999
 21
35.44027014675001
 31
0.0
  0
LINE
  5
472
330
1F
100
AcDbEntity
  8
0
  6
CONTINUOUS
 62
     7
100
AcDbLine
 10
-47.3842589189
 20
96.74211247865
 30
0.0
 11
-46.83425892190002
 21
96.74211247865
 31
0.0
  0
LINE
  5
473
330
1F
100
AcDbEntity
  8
0
  6
CONTINUOUS
 62
     7
100
AcDbLine
 10
-45.48425809650001
 20
23.84211401335
 30
0.0
 11
-45.53425798540002
 21
23.84211235045001
 31
0.0
  0
LINE
  5
474
330
1F
100
AcDbEntity
  8
0
  6
CONTINUOUS
 62
     7
100
AcDbLine
 10
-52.35266299029999
 20
91.34781948335001
 30
0.0
 11
-52.3189884615
 21
91.34899481245
 31
0.0
  0
LINE
  5
475
330
1F
100
AcDbEntity
  8
0
  6
CONTINUOUS
 62
     7
100
AcDbLine
 10
-48.48425891299999
 20
25.14211489855001
 30
0.0
 11
-48.48425891299999
 21
96.74211247865
 31
0.0
  0
LINE
  5
476
330
1F
100
AcDbEntity
  8
0
  6
CONTINUOUS
 62
     7
100
AcDbLine
 10
-46.83425892190002
 20
24.64211388535
 30
0.0
 11
-46.83425892190002
 21
24.44211422505001
 31
0.0
  0
LINE
  5
477
330
1F
100
AcDbEntity
  8
0
  6
CONTINUOUS
 62
     7
100
AcDbLine
 10
-52.484259103
 20
91.34322433775
 30
0.0
 11
-52.4812206631
 21
91.34333050855
 31
0.0
  0
LINE
  5
478
330
1F
100
AcDbEntity
  8
0
  6
CONTINUOUS
 62
     7
100
AcDbLine
 10
-46.2842589249
 20
96.94211213895
 30
0.0
 11
-46.2842589249
 21
97.14211179915
 31
0.0
  0
LINE
  5
479
330
1F
100
AcDbEntity
  8
0
  6
CONTINUOUS
 62
     7
100
AcDbLine
 10
-51.2791553982
 20
24.69721837955001
 30
0.0
 11
-51.2791553982
 21
25.19211201975
 31
0.0
  0
LINE
  5
47A
330
1F
100
AcDbEntity
  8
0
  6
CONTINUOUS
 62
     7
100
AcDbLine
 10
-52.32100873300001
 20
35.43530060955001
 30
0.0
 11
-52.35650725709999
 21
35.43654113114999
 31
0.0
  0
LINE
  5
47B
330
1F
100
AcDbEntity
  8
0
  6
CONTINUOUS
 62
     7
100
AcDbLine
 10
-48.28425891800001
 20
96.34211315815
 30
0.0
 11
-47.93425891590002
 21
96.34211315815
 31
0.0
  0
LINE
  5
47C
330
1F
100
AcDbEntity
  8
0
  6
CONTINUOUS
 62
     7
100
AcDbLine
 10
-47.93425891590002
 20
24.84211354555001
 30
0.0
 11
-47.3842589189
 21
24.84211354555001
 31
0.0
  0
LINE
  5
47D
330
1F
100
AcDbEntity
  8
0
  6
CONTINUOUS
 62
     7
100
AcDbLine
 10
-52.484259103
 20
91.34322433775
 30
0.0
 11
-52.484259103
 21
35.44100216635002
 31
0.0
  0
LINE
  5
47E
330
1F
100
AcDbEntity
  8
0
  6
CONTINUOUS
 62
     7
100
AcDbLine
 10
-52.4574640212
 20
91.34415938555
 30
0.0
 11
-52.4374675942
 21
91.34485787755
 31
0.0
  0
LINE
  5
47F
330
1F
100
AcDbEntity
  8
0
  6
CONTINUOUS
 62
     7
100
AcDbLine
 10
-51.08425892
 20
96.24211146535
 30
0.0
 11
-51.08425892
 21
96.74211247865
 31
0.0
  0
LINE
  5
480
330
1F
100
AcDbEntity
  8
0
  6
CONTINUOUS
 62
     7
100
AcDbLine
 10
-45.4842589205
 20
97.54211318944999
 30
0.0
 11
-45.53425892050001
 21
97.54211318944999
 31
0.0
  0
LINE
  5
481
330
1F
100
AcDbEntity
  8
0
  6
CONTINUOUS
 62
     7
100
AcDbLine
 10
-51.2791553982
 20
96.19211434435002
 30
0.0
 11
-51.2791553982
 21
96.68700798455001
 31
0.0
  0
LINE
  5
482
330
1F
100
AcDbEntity
  8
0
  6
CONTINUOUS
 62
     7
100
AcDbLine
 10
-52.41899807050001
 20
35.43872415125
 30
0.0
 11
-52.44386252059999
 21
35.43959214394999
 31
0.0
  0
LINE
  5
483
330
1F
100
AcDbEntity
  8
0
  6
CONTINUOUS
 62
     7
100
AcDbLine
 10
-47.3842589189
 20
96.54211281835
 30
0.0
 11
-47.3842589189
 21
96.74211247865
 31
0.0
  0
LINE
  5
484
330
1F
100
AcDbEntity
  8
0
  6
CONTINUOUS
 62
     7
100
AcDbLine
 10
-48.28425891800001
 20
25.04211320585
 30
0.0
 11
-48.28425891800001
 21
26.14211319985
 31
0.0
  0
LINE
  5
485
330
1F
100
AcDbEntity
  8
0
  6
CONTINUOUS
 62
     7
100
AcDbLine
 10
-52.38425880720001
 20
91.34671679735001
 30
0.0
 11
-52.35266299029999
 21
91.34781948335001
 31
0.0
  0
LINE
  5
486
330
1F
100
AcDbEntity
  8
0
  6
CONTINUOUS
 62
     7
100
AcDbLine
 10
-51.08425892
 20
24.64211388535
 30
0.0
 11
-51.08425892
 21
25.14211489855001
 31
0.0
  0
LINE
  5
487
330
1F
100
AcDbEntity
  8
0
  6
CONTINUOUS
 62
     7
100
AcDbLine
 10
-46.83425892190002
 20
24.44211422505001
 30
0.0
 11
-46.2842589249
 21
24.44211422505001
 31
0.0
  0
LINE
  5
488
330
1F
100
AcDbEntity
  8
0
  6
CONTINUOUS
 62
     7
100
AcDbLine
 10
-52.28425897700001
 20
25.21061553665001
 30
0.0
 11
-52.28425897700001
 21
96.17361082734999
 31
0.0
  0
LINE
  5
489
330
1F
100
AcDbEntity
  8
0
  6
CONTINUOUS
 62
     7
100
AcDbLine
 10
-52.47662412049999
 20
35.44073580804999
 30
0.0
 11
-52.4834055458
 21
35.44097236395001
 31
0.0
  0
LINE
  5
48A
330
1F
100
AcDbEntity
  8
0
  6
CONTINUOUS
 62
     7
100
AcDbLine
 10
-46.83425892190002
 20
96.94211213895
 30
0.0
 11
-46.2842589249
 21
96.94211213895
 31
0.0
  0
LINE
  5
48B
330
1F
100
AcDbEntity
  8
0
  6
CONTINUOUS
 62
     7
100
AcDbLine
 10
-51.2791553982
 20
25.19211201975
 30
0.0
 11
-51.2791553982
 21
96.19211434435002
 31
0.0
  0
LINE
  5
48C
330
1F
100
AcDbEntity
  8
0
  6
CONTINUOUS
 62
     7
100
AcDbLine
 10
-52.28425897700001
 20
35.43401724694999
 30
0.0
 11
-52.32100873300001
 21
35.43530060955001
 31
0.0
  0
LINE
  5
48D
330
1F
100
AcDbEntity
  8
0
  6
CONTINUOUS
 62
     7
100
AcDbLine
 10
-48.28425891800001
 20
96.34211315815
 30
0.0
 11
-48.28425891800001
 21
95.24211316415
 31
0.0
  0
LINE
  5
48E
330
1F
100
AcDbEntity
  8
0
  6
CONTINUOUS
 62
     7
100
AcDbLine
 10
-47.3842589189
 20
24.84211354555001
 30
0.0
 11
-47.3842589189
 21
24.64211388535
 31
0.0
  0
LINE
  5
48F
330
1F
100
AcDbEntity
  8
0
  6
CONTINUOUS
 62
     7
100
AcDbLine
 10
-52.4721975443
 20
91.34364529555
 30
0.0
 11
-52.4574640212
 21
91.34415938555
 31
0.0
  0
LINE
  5
490
330
1F
100
AcDbEntity
  8
0
  6
CONTINUOUS
 62
     7
100
AcDbLine
 10
-48.48425891299999
 20
96.74211247865
 30
0.0
 11
-48.48425891299999
 21
96.24211146535
 31
0.0
  0
LINE
  5
491
330
1F
100
AcDbEntity
  8
0
  6
CONTINUOUS
 62
     7
100
AcDbLine
 10
-45.73425892790002
 20
97.14211179915
 30
0.0
 11
-45.73425892790002
 21
97.34211145945
 31
0.0
  0
LINE
  5
492
330
1F
100
AcDbEntity
  8
0
  6
CONTINUOUS
 62
     7
100
AcDbLine
 10
-116.9044383328
 20
96.74211305975001
 30
0.0
 11
-122.6615906685
 21
96.74211305975001
 31
0.0
  0
LINE
  5
493
330
1F
100
AcDbEntity
  8
0
  6
CONTINUOUS
 62
     7
100
AcDbLine
 10
-110.6115896023
 20
24.64211388535
 30
0.0
 11
-110.6115896023
 21
24.44211422505001
 31
0.0
  0
LINE
  5
494
330
1F
100
AcDbEntity
  8
0
  6
CONTINUOUS
 62
     7
100
AcDbLine
 10
-117.6115898184
 20
96.94211213895
 30
0.0
 11
-117.6115898184
 21
96.74211247865
 31
0.0
  0
LINE
  5
495
330
1F
100
AcDbEntity
  8
0
  6
CONTINUOUS
 62
     7
100
AcDbLine
 10
-111.318742128
 20
24.64211388535
 30
0.0
 11
-105.5615901693
 21
24.64211318195001
 31
0.0
  0
LINE
  5
496
330
1F
100
AcDbEntity
  8
0
  6
CONTINUOUS
 62
     7
100
AcDbLine
 10
-117.6115898184
 20
23.84211151905001
 30
0.0
 11
-117.6115898184
 21
24.04211490455
 31
0.0
  0
LINE
  5
497
330
1F
100
AcDbEntity
  8
0
  6
CONTINUOUS
 62
     7
100
AcDbLine
 10
-117.6115898184
 20
97.34211145945
 30
0.0
 11
-117.6115898184
 21
97.14211179915
 31
0.0
  0
LINE
  5
498
330
1F
100
AcDbEntity
  8
0
  6
CONTINUOUS
 62
     7
100
AcDbLine
 10
-105.0615899398
 20
25.14211512804999
 30
0.0
 11
-105.0615899398
 21
96.24211169485
 31
0.0
  0
LINE
  5
499
330
1F
100
AcDbEntity
  8
0
  6
CONTINUOUS
 62
     7
100
AcDbLine
 10
-117.6115898184
 20
24.24211456485
 30
0.0
 11
-117.6115898184
 21
24.44211422505001
 31
0.0
  0
LINE
  5
49A
330
1F
100
AcDbEntity
  8
0
  6
CONTINUOUS
 62
     7
100
AcDbLine
 10
-117.6115898184
 20
24.44211422505001
 30
0.0
 11
-117.6115898184
 21
24.64211388535
 31
0.0
  0
LINE
  5
49B
330
1F
100
AcDbEntity
  8
0
  6
CONTINUOUS
 62
     7
100
AcDbLine
 10
-110.6115896023
 20
24.24211456485
 30
0.0
 11
-110.6115896023
 21
24.04211490455
 31
0.0
  0
LINE
  5
49C
330
1F
100
AcDbEntity
  8
0
  6
CONTINUOUS
 62
     7
100
AcDbLine
 10
-115.9615897109
 20
35.29211348895001
 30
0.0
 11
-112.2615897098
 21
35.29211348895001
 31
0.0
  0
LINE
  5
49D
330
1F
100
AcDbEntity
  8
0
  6
CONTINUOUS
 62
     7
100
AcDbLine
 10
-110.6115896023
 20
96.94211213895
 30
0.0
 11
-110.6115896023
 21
97.14211179915
 31
0.0
  0
LINE
  5
49E
330
1F
100
AcDbEntity
  8
0
  6
CONTINUOUS
 62
     7
100
AcDbLine
 10
-117.6115898184
 20
97.54211484494999
 30
0.0
 11
-110.6115896023
 21
97.54211484494999
 31
0.0
  0
LINE
  5
49F
330
1F
100
AcDbEntity
  8
0
  6
CONTINUOUS
 62
     7
100
AcDbLine
 10
-112.2615897098
 20
35.29211348895001
 30
0.0
 11
-112.2615897098
 21
91.49211301505
 31
0.0
  0
LINE
  5
4A0
330
1F
100
AcDbEntity
  8
0
  6
CONTINUOUS
 62
     7
100
AcDbLine
 10
-123.1615901693
 20
96.24211146535
 30
0.0
 11
-123.1615901693
 21
25.14211318195001
 31
0.0
  0
LINE
  5
4A1
330
1F
100
AcDbEntity
  8
0
  6
CONTINUOUS
 62
     7
100
AcDbLine
 10
-110.6115896023
 20
23.84211151905001
 30
0.0
 11
-117.6115898184
 21
23.84211151905001
 31
0.0
  0
LINE
  5
4A2
330
1F
100
AcDbEntity
  8
0
  6
CONTINUOUS
 62
     7
100
AcDbLine
 10
-117.6115898184
 20
24.04211490455
 30
0.0
 11
-117.6115898184
 21
24.24211456485
 31
0.0
  0
LINE
  5
4A3
330
1F
100
AcDbEntity
  8
0
  6
CONTINUOUS
 62
     7
100
AcDbLine
 10
-116.9044383328
 20
96.74211305975001
 30
0.0
 11
-111.3187422502
 21
96.74211305975001
 31
0.0
  0
LINE
  5
4A4
330
1F
100
AcDbEntity
  8
0
  6
CONTINUOUS
 62
     7
100
AcDbLine
 10
-117.6115898184
 20
97.14211179915
 30
0.0
 11
-117.6115898184
 21
96.94211213895
 31
0.0
  0
LINE
  5
4A5
330
1F
100
AcDbEntity
  8
0
  6
CONTINUOUS
 62
     7
100
AcDbLine
 10
-110.6115896023
 20
97.54211484494999
 30
0.0
 11
-110.6115896023
 21
97.34211145945
 31
0.0
  0
LINE
  5
4A6
330
1F
100
AcDbEntity
  8
0
  6
CONTINUOUS
 62
     7
100
AcDbLine
 10
-112.2615897098
 20
91.49211301505
 30
0.0
 11
-115.9615897109
 21
91.49211301505
 31
0.0
  0
LINE
  5
4A7
330
1F
100
AcDbEntity
  8
0
  6
CONTINUOUS
 62
     7
100
AcDbLine
 10
-105.5615899145
 20
96.74211305975001
 30
0.0
 11
-111.3187422502
 21
96.74211305975001
 31
0.0
  0
LINE
  5
4A8
330
1F
100
AcDbEntity
  8
0
  6
CONTINUOUS
 62
     7
100
AcDbLine
 10
-110.6115896023
 20
96.74211247865
 30
0.0
 11
-110.6115896023
 21
96.94211213895
 31
0.0
  0
LINE
  5
4A9
330
1F
100
AcDbEntity
  8
0
  6
CONTINUOUS
 62
     7
100
AcDbLine
 10
-122.6615901693
 20
24.64211318195001
 30
0.0
 11
-116.9044382106
 21
24.64211388535
 31
0.0
  0
LINE
  5
4AA
330
1F
100
AcDbEntity
  8
0
  6
CONTINUOUS
 62
     7
100
AcDbLine
 10
-110.6115896023
 20
24.04211490455
 30
0.0
 11
-110.6115896023
 21
23.84211151905001
 31
0.0
  0
LINE
  5
4AB
330
1F
100
AcDbEntity
  8
0
  6
CONTINUOUS
 62
     7
100
AcDbLine
 10
-110.6115896023
 20
97.14211179915
 30
0.0
 11
-110.6115896023
 21
97.34211145945
 31
0.0
  0
CIRCLE
  5
4AC
330
1F
100
AcDbEntity
  8
0
  6
CONTINUOUS
 62
     7
100
AcDbCircle
 10
-115.6115897104
 20
30.89211318195001
 30
0.0
 40
0.9000000000000057
  0
CIRCLE
  5
4AD
330
1F
100
AcDbEntity
  8
0
  6
CONTINUOUS
 62
     7
100
AcDbCircle
 10
-119.1115897104
 20
30.89211318195001
 30
0.0
 40
1.399999999999991
  0
ARC
  5
4AE
330
1F
100
AcDbEntity
  8
0
  6
CONTINUOUS
 62
     7
100
AcDbCircle
 10
-105.5615898177
 20
96.24211318185002
 30
0.0
 40
0.4999998778515456
100
AcDbArc
 50
359.9998295969013
 51
90.00001109829962
  0
ARC
  5
4AF
330
1F
100
AcDbEntity
  8
0
  6
CONTINUOUS
 62
     7
100
AcDbCircle
 10
-122.6615901693
 20
25.14211318195001
 30
0.0
 40
0.5
100
AcDbArc
 50
180.0
 51
270.0
  0
CIRCLE
  5
4B0
330
1F
100
AcDbEntity
  8
0
  6
CONTINUOUS
 62
     7
100
AcDbCircle
 10
-109.1115897104
 20
30.89211318195001
 30
0.0
 40
1.400000000000006
  0
ARC
  5
4B1
330
1F
100
AcDbEntity
  8
0
  6
CONTINUOUS
 62
     7
100
AcDbCircle
 10
-105.5615901693
 20
25.14211341145
 30
0.0
 40
0.5000002295014718
100
AcDbArc
 50
270.0
 51
0.0001967077013663
  0
CIRCLE
  5
4B2
330
1F
100
AcDbEntity
  8
0
  6
CONTINUOUS
 62
     7
100
AcDbCircle
 10
-112.6115897104
 20
30.89211318195001
 30
0.0
 40
0.9000000000000199
  0
ARC
  5
4B3
330
1F
100
AcDbEntity
  8
0
  6
CONTINUOUS
 62
     7
100
AcDbCircle
 10
-122.6615902915
 20
96.24211318195
 30
0.0
 40
0.4999998778015709
100
AcDbArc
 50
90.0000432011007
 51
180.0001967076996
  0
ARC
  5
4B4
330
1F
100
AcDbEntity
  8
0
  6
CONTINUOUS
 62
     7
100
AcDbCircle
 10
-33.48425809650001
 20
-6.312233812750009
 30
0.0
 40
32.45434782608692
100
AcDbArc
 50
90.0
 51
111.7002092596
  0
ARC
  5
4B5
330
1F
100
AcDbEntity
  8
0
  6
CONTINUOUS
 62
     7
100
AcDbCircle
 10
-45.53425892050001
 20
97.34211318195
 30
0.0
 40
0.200000007453724
100
AcDbArc
 50
90.0
 51
180.0004934598996
  0
ARC
  5
4B6
330
1F
100
AcDbEntity
  8
0
  6
CONTINUOUS
 62
     7
100
AcDbCircle
 10
-33.4842589205
 20
127.69646101545
 30
0.0
 40
32.4543478260869
100
AcDbArc
 50
248.2997907404
 51
270.0
  0
ARC
  5
4B7
330
1F
100
AcDbEntity
  8
0
  6
CONTINUOUS
 62
     7
100
AcDbCircle
 10
-45.53425809640001
 20
24.04211318195001
 30
0.0
 40
0.200000831450043
100
AcDbArc
 50
180.0
 51
270.0000318274962
  0
SPLINE
  5
4B8
330
1F
100
AcDbEntity
  8
0
  6
CONTINUOUS
 62
     7
100
AcDbSpline
210
0.0
220
0.0
230
1.0
 70
     8
 71
     3
 72
    12
 73
     8
 74
     0
 42
0.000000001
 43
0.0000000001
 40
0.0
 40
0.0
 40
0.0
 40
0.0
 40
0.242508230639879
 40
0.4990992169681452
 40
0.7091915669784127
 40
0.8446035447476459
 40
0.9999999999999999
 40
0.9999999999999999
 40
0.9999999999999999
 40
0.9999999999999999
 10
-51.79734746967659
 20
24.71078588672469
 30
0.0
 10
-51.85964102046489
 20
24.7192767687657
 30
0.0
 10
-51.98784558629981
 20
24.73675160896721
 30
0.0
 10
-52.1420644177739
 20
24.84636202599521
 30
0.0
 10
-52.23131521546321
 20
24.9742924011415
 30
0.0
 10
-52.27634518933141
 20
25.09604428810991
 30
0.0
 10
-52.28150290107232
 20
25.17071466069621
 30
0.0
 10
-52.28425897700001
 20
25.21061553665001
 30
0.0
  0
SPLINE
  5
4B9
330
1F
100
AcDbEntity
  8
0
  6
CONTINUOUS
 62
     7
100
AcDbSpline
210
0.0
220
0.0
230
1.0
 70
     8
 71
     3
 72
    12
 73
     8
 74
     0
 42
0.000000001
 43
0.0000000001
 40
0.0
 40
0.0
 40
0.0
 40
0.0
 40
0.1553669487095816
 40
0.2907760565624678
 40
0.500900885727591
 40
0.7574703270562523
 40
1.0
 40
1.0
 40
1.0
 40
1.0
 10
-52.28425897700001
 20
96.17361082734999
 30
0.0
 10
-52.28150342153631
 20
96.21350395940661
 30
0.0
 10
-52.27634627866891
 20
96.2881657051619
 30
0.0
 10
-52.23132525747229
 20
96.409920543569
 30
0.0
 10
-52.14207415575751
 20
96.53785488242431
 30
0.0
 10
-51.9878509079891
 20
96.64747082371039
 30
0.0
 10
-51.85964647611351
 20
96.6649478031853
 30
0.0
 10
-51.79734746967659
 20
96.6734404772753
 30
0.0
  0
LINE
  5
4BA
330
1F
100
AcDbEntity
  8
0
  6
CENTER
 62
     7
100
AcDbLine
 10
-114.1115897104
 20
23.19211318194999
 30
0.0
 11
-114.1115897104
 21
98.19211318194999
 31
0.0
  0
LINE
  5
4BB
330
1F
100
AcDbEntity
  8
0
  6
CENTER
 62
     7
100
AcDbLine
 10
-124.6115897104
 20
60.68532851425002
 30
0.0
 11
-103.6115897104
 21
60.68532851425002
 31
0.0
  0
TEXT
  5
4BD
330
1F
100
AcDbEntity
  8
SLD-0
 62
     7
100
AcDbText
 10
131.8185648716
 20
-115.22762731935
 30
0.0
 40
5.2916666667
  1
000
 41
0.4642105263157891
  7
DCSTYLE0
 72
     5
 11
138.486064871642
 21
-115.22762731935
 31
0.0
100
AcDbText
  0
TEXT
  5
4BE
330
1F
100
AcDbEntity
  8
SLD-0
 62
     7
100
AcDbText
 10
-134.3385648716
 20
-8.064882400449989
 30
0.0
 40
3.5
  1
2PCS
 41
0.4465822784810124
  7
DCSTYLE0
 72
     5
 11
-128.4585648716
 21
-8.064882400449989
 31
0.0
100
AcDbText
  0
TEXT
  5
4BF
330
1F
100
AcDbEntity
  8
SLD-0
 62
     7
100
AcDbText
 10
-133.9429064142
 20
102.93596065265
 30
0.0
 40
3.5
  1
1PC
 41
0.4484745762711861
  7
DCSTYLE0
 72
     5
 11
-129.5329064142
 21
102.93596065265
 31
0.0
100
AcDbText
  0
VIEWPORT
  5
AE
330
1B
100
AcDbEntity
 67
     1
  8
0
100
AcDbViewport
 10
-0.6299999999999955
 20
-4.395833333349998
 30
0.0
 40
802.2513892296
 41
664.9907639160001
 68
     1
 69
     1
1001
ACAD
1000
MVIEW
1002
{
1070
    16
1010
0.0
1020
0.0
1030
0.0
1010
0.0
1020
0.0
1030
1.0
1040
0.0
1040
664.9907639160001
1040
-0.6299999999999955
1040
-4.395833333349998
1040
50.0
1040
0.0
1040
0.0
1070
     0
1070
   100
1070
     0
1070
     3
1070
     0
1070
     0
1070
     0
1070
     0
1040
0.0
1040
0.0
1040
0.0
1040
0.5
1040
0.5
1040
0.0
1040
0.0
1070
     0
1002
{
1002
}
1002
}
  0
ENDSEC
  0
SECTION
  2
OBJECTS
  0
DICTIONARY
  5
C
330
0
100
AcDbDictionary
  3
ACAD_GROUP
350
D
  3
ACAD_LAYOUT
350
1A
  3
ACAD_MATERIAL
350
43
  3
ACAD_MLEADERSTYLE
350
4E3
  3
ACAD_MLINESTYLE
350
17
  3
ACAD_PLOTSETTINGS
350
19
  3
ACAD_SCALELIST
350
47
  3
ACAD_VISUALSTYLE
350
2A
  3
ACDBHEADERROUNDTRIPXREC
350
4C0
  3
ACDBVARIABLEDICTIONARY
350
4E1
  0
DICTIONARY
  5
4E8
330
8
100
AcDbDictionary
280
     1
  3
ACAD_XREC_ROUNDTRIP
360
4E9
  0
DICTIONARY
  5
D
102
{ACAD_REACTORS
330
C
102
}
330
C
100
AcDbDictionary
  0
DICTIONARY
  5
1A
102
{ACAD_REACTORS
330
C
102
}
330
C
100
AcDbDictionary
  0
DICTIONARY
  5
43
102
{ACAD_REACTORS
330
C
102
}
330
C
100
AcDbDictionary
  3
BYBLOCK
350
45
  3
BYLAYER
350
44
  3
GLOBAL
350
46
  0
DICTIONARY
  5
4E3
102
{ACAD_REACTORS
330
C
102
}
330
C
100
AcDbDictionary
  0
DICTIONARY
  5
17
102
{ACAD_REACTORS
330
C
102
}
330
C
100
AcDbDictionary
  3
STANDARD
350
18
  0
DICTIONARY
  5
19
102
{ACAD_REACTORS
330
C
102
}
330
C
100
AcDbDictionary
  0
DICTIONARY
  5
47
102
{ACAD_REACTORS
330
C
102
}
330
C
100
AcDbDictionary
  3
A0
350
48
  3
A1
350
49
  3
A2
350
4A
  3
A3
350
4B
  3
A4
350
4C
  3
A5
350
4D
  3
A6
350
4E
  3
A7
350
4F
  3
A8
350
50
  3
A9
350
51
  3
B0
350
52
  3
B1
350
53
  3
B2
350
54
  3
B3
350
55
  3
B4
350
56
  3
B5
350
57
  3
B6
350
58
  3
B7
350
59
  3
B8
350
5A
  3
B9
350
5B
  3
C0
350
5C
  3
C1
350
5D
  3
C2
350
5E
  3
C3
350
5F
  3
C4
350
60
  3
C5
350
61
  3
C6
350
62
  3
C7
350
63
  3
C8
350
64
  3
C9
350
65
  3
D0
350
66
  3
D1
350
67
  3
D2
350
68
  0
DICTIONARY
  5
2A
102
{ACAD_REACTORS
330
C
102
}
330
C
100
AcDbDictionary
  3
2DWIREFRAME
350
2F
  3
BASIC
350
32
  3
BRIGHTEN
350
36
  3
COLORCHANGE
350
3A
  3
CONCEPTUAL
350
34
  3
DIM
350
35
  3
EDGECOLOROFF
350
3D
  3
FACEPATTERN
350
39
  3
FLAT
350
2B
  3
FLATWITHEDGES
350
2C
  3
GOURAUD
350
2D
  3
GOURAUDWITHEDGES
350
2E
  3
HIDDEN
350
31
  3
JITTEROFF
350
3B
  3
LINEPATTERN
350
38
  3
OVERHANGOFF
350
3C
  3
REALISTIC
350
33
  3
SHADED
350
42
  3
SHADED_WITH_EDGES
350
41
  3
SHADES_OF_GRAY
350
3E
  3
SKETCHY
350
3F
  3
THICKEN
350
37
  3
WIREFRAME
350
30
  3
X-RAY
350
40
  0
DICTIONARY
  5
4C0
102
{ACAD_REACTORS
330
C
102
}
330
C
100
AcDbDictionary
  3
CEPSNID
350
4CA
  3
CEPSNTYPE
350
4C9
  3
DIMSTYLEDATA
350
4E0
  3
FINGERPRINTGUID
350
4CB
  3
HYPERLINKBASE
350
4C3
  3
INSUNITS
350
4C8
  3
LAYOUTDICT
350
4C5
  3
LWETCUNION
350
4C7
  3
PLOTSETDICT
350
4C6
  3
PSVPSCALE
350
4CD
  3
PUCSBASE
350
4D0
  3
PUCSORGBACK
350
4D6
  3
PUCSORGBOTTOM
350
4D2
  3
PUCSORGFRONT
350
4D5
  3
PUCSORGLEFT
350
4D3
  3
PUCSORGRIGHT
350
4D4
  3
PUCSORGTOP
350
4D1
  3
PUCSORTHOREF
350
4CE
  3
PUCSORTHOVIEW
350
4CF
  3
STYLESHEET
350
4C4
  3
TSTACKALIGN
350
4C1
  3
TSTACKSIZE
350
4C2
  3
UCSBASE
350
4D9
  3
UCSORGBACK
350
4DF
  3
UCSORGBOTTOM
350
4DB
  3
UCSORGFRONT
350
4DE
  3
UCSORGLEFT
350
4DC
  3
UCSORGRIGHT
350
4DD
  3
UCSORGTOP
350
4DA
  3
UCSORTHOREF
350
4D7
  3
UCSORTHOVIEW
350
4D8
  3
VERSIONGUID
350
4CC
  0
DICTIONARY
  5
4E1
102
{ACAD_REACTORS
330
C
102
}
330
C
100
AcDbDictionary
  3
CANNOSCALE
350
4EA
  3
DIMASSOC
350
4E6
  3
HIDETEXT
350
4E7
  3
MSLTSCALE
350
4EB
  0
XRECORD
  5
4E9
102
{ACAD_REACTORS
330
4E8
102
}
330
4E8
100
AcDbXrecord
102
VTR_0.000_0.000_1.000_1.000_GRIDDISPLAY
 70
     3
102
VTR_0.000_0.000_1.000_1.000_GRIDMAJOR
 70
     5
102
VTR_0.000_0.000_1.000_1.000_DEFAULTLIGHTING
280
     1
102
VTR_0.000_0.000_1.000_1.000_DEFAULTLIGHTINGTYPE
 70
     1
102
VTR_0.000_0.000_1.000_1.000_BRIGHTNESS
141
0.0
102
VTR_0.000_0.000_1.000_1.000_CONTRAST
142
0.0
  0
MATERIAL
  5
45
102
{ACAD_REACTORS
330
43
102
}
102
{ACAD_XDICTIONARY
360
4EE
102
}
330
43
100
AcDbMaterial
  1
BYBLOCK
  0
MATERIAL
  5
44
102
{ACAD_REACTORS
330
43
102
}
102
{ACAD_XDICTIONARY
360
4EC
102
}
330
43
100
AcDbMaterial
  1
BYLAYER
  0
MATERIAL
  5
46
102
{ACAD_REACTORS
330
43
102
}
102
{ACAD_XDICTIONARY
360
4F0
102
}
330
43
100
AcDbMaterial
  1
GLOBAL
  0
MLINESTYLE
  5
18
102
{ACAD_REACTORS
330
17
102
}
330
17
100
AcDbMlineStyle
  2
Standard
 70
     0
  3

 62
   256
 51
90.0
 52
90.0
 71
     2
 49
0.5
 62
   256
  6
BYLAYER
 49
-0.5
 62
   256
  6
BYLAYER
  0
ACAD_PROXY_OBJECT
  5
48
102
{ACAD_REACTORS
330
47
102
}
330
47
100
AcDbProxyObject
 90
      499
 91
      503
 93
       41
310
903313A31580
  0
ACAD_PROXY_OBJECT
  5
49
102
{ACAD_REACTORS
330
47
102
}
330
47
100
AcDbProxyObject
 90
      499
 91
      503
 93
      105
310
903313A324000000000000004000
  0
ACAD_PROXY_OBJECT
  5
4A
102
{ACAD_REACTORS
330
47
102
}
330
47
100
AcDbProxyObject
 90
      499
 91
      503
 93
      105
310
903313A344000000000000104000
  0
ACAD_PROXY_OBJECT
  5
4B
102
{ACAD_REACTORS
330
47
102
}
330
47
100
AcDbProxyObject
 90
      499
 91
      503
 93
      105
310
903313A354000000000000144000
  0
ACAD_PROXY_OBJECT
  5
4C
102
{ACAD_REACTORS
330
47
102
}
330
47
100
AcDbProxyObject
 90
      499
 91
      503
 93
      105
310
903313A384000000000000204000
  0
ACAD_PROXY_OBJECT
  5
4D
102
{ACAD_REACTORS
330
47
102
}
330
47
100
AcDbProxyObject
 90
      499
 91
      503
 93
      113
310
904313A31304000000000000244000
  0
ACAD_PROXY_OBJECT
  5
4E
102
{ACAD_REACTORS
330
47
102
}
330
47
100
AcDbProxyObject
 90
      499
 91
      503
 93
      113
310
904313A31364000000000000304000
  0
ACAD_PROXY_OBJECT
  5
4F
102
{ACAD_REACTORS
330
47
102
}
330
47
100
AcDbProxyObject
 90
      499
 91
      503
 93
      113
310
904313A32304000000000000344000
  0
ACAD_PROXY_OBJECT
  5
50
102
{ACAD_REACTORS
330
47
102
}
330
47
100
AcDbProxyObject
 90
      499
 91
      503
 93
      113
310
904313A333040000000000003E4000
  0
ACAD_PROXY_OBJECT
  5
51
102
{ACAD_REACTORS
330
47
102
}
330
47
100
AcDbProxyObject
 90
      499
 91
      503
 93
      113
310
904313A34304000000000000444000
  0
ACAD_PROXY_OBJECT
  5
52
102
{ACAD_REACTORS
330
47
102
}
330
47
100
AcDbProxyObject
 90
      499
 91
      503
 93
      113
310
904313A35304000000000000494000
  0
ACAD_PROXY_OBJECT
  5
53
102
{ACAD_REACTORS
330
47
102
}
330
47
100
AcDbProxyObject
 90
      499
 91
      503
 93
      121
310
905313A3130304000000000000594000
  0
ACAD_PROXY_OBJECT
  5
54
102
{ACAD_REACTORS
330
47
102
}
330
47
100
AcDbProxyObject
 90
      499
 91
      503
 93
      105
310
903323A310000000000000010100
  0
ACAD_PROXY_OBJECT
  5
55
102
{ACAD_REACTORS
330
47
102
}
330
47
100
AcDbProxyObject
 90
      499
 91
      503
 93
      105
310
903343A310000000000000410100
  0
ACAD_PROXY_OBJECT
  5
56
102
{ACAD_REACTORS
330
47
102
}
330
47
100
AcDbProxyObject
 90
      499
 91
      503
 93
      105
310
903383A310000000000000810100
  0
ACAD_PROXY_OBJECT
  5
57
102
{ACAD_REACTORS
330
47
102
}
330
47
100
AcDbProxyObject
 90
      499
 91
      503
 93
      113
310
90431303A310000000000000910100
  0
ACAD_PROXY_OBJECT
  5
58
102
{ACAD_REACTORS
330
47
102
}
330
47
100
AcDbProxyObject
 90
      499
 91
      503
 93
      121
310
9053130303A310000000000001650100
  0
ACAD_PROXY_OBJECT
  5
59
102
{ACAD_REACTORS
330
47
102
}
330
47
100
AcDbProxyObject
 90
      499
 91
      503
 93
      257
310
90E312F31323822203D2031272D3022000000000000200FC000000000000284000
  0
ACAD_PROXY_OBJECT
  5
5A
102
{ACAD_REACTORS
330
47
102
}
330
47
100
AcDbProxyObject
 90
      499
 91
      503
 93
      249
310
90D312F363422203D2031272D3022000000000000240FC000000000000284000
  0
ACAD_PROXY_OBJECT
  5
5B
102
{ACAD_REACTORS
330
47
102
}
330
47
100
AcDbProxyObject
 90
      499
 91
      503
 93
      249
310
90D312F333222203D2031272D3022000000000000280FC000000000000284000
  0
ACAD_PROXY_OBJECT
  5
5C
102
{ACAD_REACTORS
330
47
102
}
330
47
100
AcDbProxyObject
 90
      499
 91
      503
 93
      249
310
90D312F313622203D2031272D30220000000000002C0FC000000000000284000
  0
ACAD_PROXY_OBJECT
  5
5D
102
{ACAD_REACTORS
330
47
102
}
330
47
100
AcDbProxyObject
 90
      499
 91
      503
 93
      249
310
90D332F333222203D2031272D30220000000000002E0FC000000000000284000
  0
ACAD_PROXY_OBJECT
  5
5E
102
{ACAD_REACTORS
330
47
102
}
330
47
100
AcDbProxyObject
 90
      499
 91
      503
 93
      241
310
90C312F3822203D2031272D3022000000000000300FC000000000000284000
  0
ACAD_PROXY_OBJECT
  5
5F
102
{ACAD_REACTORS
330
47
102
}
330
47
100
AcDbProxyObject
 90
      499
 91
      503
 93
      249
310
90D332F313622203D2031272D3022000000000000320FC000000000000284000
  0
ACAD_PROXY_OBJECT
  5
60
102
{ACAD_REACTORS
330
47
102
}
330
47
100
AcDbProxyObject
 90
      499
 91
      503
 93
      241
310
90C312F3422203D2031272D3022000000000000340FC000000000000284000
  0
ACAD_PROXY_OBJECT
  5
61
102
{ACAD_REACTORS
330
47
102
}
330
47
100
AcDbProxyObject
 90
      499
 91
      503
 93
      241
310
90C332F3822203D2031272D3022000000000000360FC000000000000284000
  0
ACAD_PROXY_OBJECT
  5
62
102
{ACAD_REACTORS
330
47
102
}
330
47
100
AcDbProxyObject
 90
      499
 91
      503
 93
      241
310
90C312F3222203D2031272D3022000000000000380FC000000000000284000
  0
ACAD_PROXY_OBJECT
  5
63
102
{ACAD_REACTORS
330
47
102
}
330
47
100
AcDbProxyObject
 90
      499
 91
      503
 93
      241
310
90C332F3422203D2031272D30220000000000003A0FC000000000000284000
  0
ACAD_PROXY_OBJECT
  5
64
102
{ACAD_REACTORS
330
47
102
}
330
47
100
AcDbProxyObject
 90
      499
 91
      503
 93
      161
310
90A3122203D2031272D30224000000000000284000
  0
ACAD_PROXY_OBJECT
  5
65
102
{ACAD_REACTORS
330
47
102
}
330
47
100
AcDbProxyObject
 90
      499
 91
      503
 93
      257
310
90E312D312F3222203D2031272D30220000000000003E0FC000000000000284000
  0
ACAD_PROXY_OBJECT
  5
66
102
{ACAD_REACTORS
330
47
102
}
330
47
100
AcDbProxyObject
 90
      499
 91
      503
 93
      225
310
90A3322203D2031272D302200000000000002100000000000000284000
  0
ACAD_PROXY_OBJECT
  5
67
102
{ACAD_REACTORS
330
47
102
}
330
47
100
AcDbProxyObject
 90
      499
 91
      503
 93
      225
310
90A3622203D2031272D302200000000000006100000000000000284000
  0
ACAD_PROXY_OBJECT
  5
68
102
{ACAD_REACTORS
330
47
102
}
330
47
100
AcDbProxyObject
 90
      499
 91
      503
 93
      249
310
90D31272D3022203D2031272D30220000000000000A100000000000000284000
  0
ACAD_PROXY_OBJECT
  5
2F
102
{ACAD_REACTORS
330
2A
102
}
330
2A
100
AcDbProxyObject
 90
      499
 91
      501
 93
      436
310
42CC9915DA5C99599C985B595049028333333333333E33F0000000000000F90107901411070040501600405405064090741402480A0340
1001
ACAD
1000
AcDbSavedByObjectVersion
1070
     0
  0
ACAD_PROXY_OBJECT
  5
32
102
{ACAD_REACTORS
330
2A
102
}
330
2A
100
AcDbProxyObject
 90
      499
 91
      501
 93
      388
310
4150985CDA58D07406404333333333333E33F0000000000000F90107A41107004050150841D405064090741402480A0350
1001
ACAD
1000
AcDbSavedByObjectVersion
1070
     0
  0
ACAD_PROXY_OBJECT
  5
36
102
{ACAD_REACTORS
330
2A
102
}
330
2A
100
AcDbProxyObject
 90
      499
 91
      501
 93
      428
310
42109C9A59DA1D195B90C409028333333333333E33F0000000000000F9010790141107004050150841D405064090741402480A029950
1001
ACAD
1000
AcDbSavedByObjectVersion
1070
     0
  0
ACAD_PROXY_OBJECT
  5
3A
102
{ACAD_REACTORS
330
2A
102
}
330
2A
100
AcDbProxyObject
 90
      499
 91
      501
 93
      452
310
42D0DBDB1BDC90DA185B99D95104090240C333333333333E33F0000000000000F90108901411070040501508421405064090741402480A0350
1001
ACAD
1000
AcDbSavedByObjectVersion
1070
     0
  0
ACAD_PROXY_OBJECT
  5
34
102
{ACAD_REACTORS
330
2A
102
}
330
2A
100
AcDbProxyObject
 90
      499
 91
      501
 93
      500
310
4290DBDB98D95C1D1D585B10940D028333333333333E33F0000000000000F90107902409070040501000000000018199010841D405064090740C02480A0340
1001
ACAD
1000
AcDbSavedByObjectVersion
1070
     0
  0
ACAD_PROXY_OBJECT
  5
35
102
{ACAD_REACTORS
330
2A
102
}
330
2A
100
AcDbProxyObject
 90
      499
 91
      501
 93
      412
310
40D11A5B50B409028333333333333E33F0000000000000F9010790141107004050150841D405064090741402480A02677FFFFFD0
1001
ACAD
1000
AcDbSavedByObjectVersion
1070
     0
  0
ACAD_PROXY_OBJECT
  5
3D
102
{ACAD_REACTORS
330
2A
102
}
330
2A
100
AcDbProxyObject
 90
      499
 91
      501
 93
      452
310
43115919D950DBDB1BDC93D999916409028333333333333E33F0000000000000F9010790141107004050150841D405064090741402480A0350
1001
ACAD
1000
AcDbSavedByObjectVersion
1070
     0
  0
ACAD_PROXY_OBJECT
  5
39
102
{ACAD_REACTORS
330
2A
102
}
330
2A
100
AcDbProxyObject
 90
      499
 91
      501
 93
      444
310
42D19858D95C185D1D195C9B90F409028333333333333E33F0000000000000F9010790141107004050150841D405064090741402480A0350
1001
ACAD
1000
AcDbSavedByObjectVersion
1070
     0
  0
ACAD_PROXY_OBJECT
  5
2B
102
{ACAD_REACTORS
330
2A
102
}
330
2A
100
AcDbProxyObject
 90
      499
 91
      501
 93
      380
310
41119B185D240901404333333333333E33F0000000000000F9010740A907004050150841D405064090741402480A1B50
1001
ACAD
1000
AcDbSavedByObjectVersion
1070
     0
  0
ACAD_PROXY_OBJECT
  5
2C
102
{ACAD_REACTORS
330
2A
102
}
330
2A
100
AcDbProxyObject
 90
      499
 91
      501
 93
      468
310
43519B185D15DA5D1A115919D95CD0140901404333333333333E33F0000000000000F90107409019070040501600405405064090741402480A1B50
1001
ACAD
1000
AcDbSavedByObjectVersion
1070
     0
  0
ACAD_PROXY_OBJECT
  5
2D
102
{ACAD_REACTORS
330
2A
102
}
330
2A
100
AcDbProxyObject
 90
      499
 91
      501
 93
      404
310
41D1DBDD5C985D5910240902404333333333333E33F0000000000000F9010740A9070040501641D405064090741402480A1B50
1001
ACAD
1000
AcDbSavedByObjectVersion
1070
     0
  0
ACAD_PROXY_OBJECT
  5
2E
102
{ACAD_REACTORS
330
2A
102
}
330
2A
100
AcDbProxyObject
 90
      499
 91
      501
 93
      492
310
4411DBDD5C985D5915DA5D1A115919D95CD0340902404333333333333E33F0000000000000F90107409019070040501600405405064090741402480A1B50
1001
ACAD
1000
AcDbSavedByObjectVersion
1070
     0
  0
ACAD_PROXY_OBJECT
  5
31
102
{ACAD_REACTORS
330
2A
102
}
330
2A
100
AcDbProxyObject
 90
      499
 91
      501
 93
      476
310
41921A5919195B90640502408333333333333E33F0000000000000F901079024090700405020000000000001110200405405064090740C02480A0340
1001
ACAD
1000
AcDbSavedByObjectVersion
1070
     0
  0
ACAD_PROXY_OBJECT
  5
3B
102
{ACAD_REACTORS
330
2A
102
}
330
2A
100
AcDbProxyObject
 90
      499
 91
      501
 93
      428
310
42529A5D1D195C93D999914409028333333333333E33F0000000000000F9010790141107004050150A41D405064090741402480A0350
1001
ACAD
1000
AcDbSavedByObjectVersion
1070
     0
  0
ACAD_PROXY_OBJECT
  5
38
102
{ACAD_REACTORS
330
2A
102
}
330
2A
100
AcDbProxyObject
 90
      499
 91
      501
 93
      444
310
42D31A5B995C185D1D195C9B90E409028333333333333E33F0000000000000F9010790141107004050750841D405064090741402483A0350
1001
ACAD
1000
AcDbSavedByObjectVersion
1070
     0
  0
ACAD_PROXY_OBJECT
  5
3C
102
{ACAD_REACTORS
330
2A
102
}
330
2A
100
AcDbProxyObject
 90
      499
 91
      501
 93
      444
310
42D3DD995C9A185B99D3D999915409028333333333333E33F0000000000000F9010790141107004050150941D405064090741402480A0350
1001
ACAD
1000
AcDbSavedByObjectVersion
1070
     0
  0
ACAD_PROXY_OBJECT
  5
33
102
{ACAD_REACTORS
330
2A
102
}
330
2A
100
AcDbProxyObject
 90
      499
 91
      501
 93
      428
310
425499585B1A5CDD1A58D08409038333333333333E33F0000000000000F9010740A907004050150800405405064090740C02480A1B40
1001
ACAD
1000
AcDbSavedByObjectVersion
1070
     0
  0
ACAD_PROXY_OBJECT
  5
42
102
{ACAD_REACTORS
330
2A
102
}
330
2A
100
AcDbProxyObject
 90
      499
 91
      501
 93
      420
310
4194DA1859195911B40902404333333333333E33F0000000000000F9010740A41107004050150800405405064090840C02480A0B40
1001
ACAD
1000
AcDbSavedByObjectVersion
1070
     0
  0
ACAD_PROXY_OBJECT
  5
41
102
{ACAD_REACTORS
330
2A
102
}
330
2A
100
AcDbProxyObject
 90
      499
 91
      501
 93
      516
310
4454DA18591959081DDA5D1A08195919D95CD1A40902404333333333333E33F0000000000000F901074090142907004050250800405405064090740C02480A0B40
1001
ACAD
1000
AcDbSavedByObjectVersion
1070
     0
  0
ACAD_PROXY_OBJECT
  5
3E
102
{ACAD_REACTORS
330
2A
102
}
330
2A
100
AcDbProxyObject
 90
      499
 91
      501
 93
      532
310
4394DA1859195CC81BD98811DC985E5174090240C333333333333E33F0000000000000F901079024090741D01000000000000111010841D405064090740C02480A0340
1001
ACAD
1000
AcDbSavedByObjectVersion
1070
     0
  0
ACAD_PROXY_OBJECT
  5
3F
102
{ACAD_REACTORS
330
2A
102
}
330
2A
100
AcDbProxyObject
 90
      499
 91
      501
 93
      476
310
41D4DAD95D18DA1E51840502408333333333333E33F0000000000000F901079024090741D01000000000000111010B41D405064090741802480A0340
1001
ACAD
1000
AcDbSavedByObjectVersion
1070
     0
  0
ACAD_PROXY_OBJECT
  5
37
102
{ACAD_REACTORS
330
2A
102
}
330
2A
100
AcDbProxyObject
 90
      499
 91
      501
 93
      412
310
41D51A1A58DAD95B90D409028333333333333E33F0000000000000F9010790141107004050150C41D405064090741402480A0350
1001
ACAD
1000
AcDbSavedByObjectVersion
1070
     0
  0
ACAD_PROXY_OBJECT
  5
30
102
{ACAD_REACTORS
330
2A
102
}
330
2A
100
AcDbProxyObject
 90
      499
 91
      501
 93
      420
310
4255DA5C99599C985B595059028333333333333E33F0000000000000F90107901411070040501600405405064090740C02480A0340
1001
ACAD
1000
AcDbSavedByObjectVersion
1070
     0
  0
ACAD_PROXY_OBJECT
  5
40
102
{ACAD_REACTORS
330
2A
102
}
330
2A
100
AcDbProxyObject
 90
      499
 91
      501
 93
      404
310
41560B54985E51940902404000000000000E03F0000000000000F9010740501907004050150841D405064090740C02480A1B40
1001
ACAD
1000
AcDbSavedByObjectVersion
1070
     0
  0
XRECORD
  5
4CA
102
{ACAD_REACTORS
330
4C0
102
}
330
4C0
100
AcDbXrecord
340
0
  0
XRECORD
  5
4C9
102
{ACAD_REACTORS
330
4C0
102
}
330
4C0
100
AcDbXrecord
 90
        0
  0
XRECORD
  5
4E0
102
{ACAD_REACTORS
330
4C0
102
}
330
4C0
100
AcDbXrecord
1000
DSTYLE
1002
{
1070
   179
 70
     2
1070
   171
 70
     2
1070
   143
 40
25.4
1070
   274
 70
     2
1070
    41
 40
1.000000635782878
1070
    79
 70
     2
1070
   141
 40
0.0
1070
    43
 40
10.0
1070
   278
 70
    46
1070
    44
 40
1.0
1070
    42
 40
1.0
1070
   147
 40
0.09
1070
   146
 40
0.65
1070
   172
 70
     0
1070
   340
340
11
1070
   140
 40
1.166666666666667
1070
   284
 70
     0
1070
    90
 70
     1
1002
}
  0
XRECORD
  5
4CB
102
{ACAD_REACTORS
330
4C0
102
}
330
4C0
100
AcDbXrecord
  1
{96D6C695-28D9-4FB0-B8D2-F3BC37A45712}
  0
XRECORD
  5
4C3
102
{ACAD_REACTORS
330
4C0
102
}
330
4C0
100
AcDbXrecord
  1

  0
XRECORD
  5
4C8
102
{ACAD_REACTORS
330
4C0
102
}
330
4C0
100
AcDbXrecord
 90
        4
  0
XRECORD
  5
4C5
102
{ACAD_REACTORS
330
4C0
102
}
330
4C0
100
AcDbXrecord
340
1A
  0
XRECORD
  5
4C7
102
{ACAD_REACTORS
330
4C0
102
}
330
4C0
100
AcDbXrecord
 90
    10781
  0
XRECORD
  5
4C6
102
{ACAD_REACTORS
330
4C0
102
}
330
4C0
100
AcDbXrecord
340
19
  0
XRECORD
  5
4CD
102
{ACAD_REACTORS
330
4C0
102
}
330
4C0
100
AcDbXrecord
 40
0.0
  0
XRECORD
  5
4D0
102
{ACAD_REACTORS
330
4C0
102
}
330
4C0
100
AcDbXrecord
340
0
  0
XRECORD
  5
4D6
102
{ACAD_REACTORS
330
4C0
102
}
330
4C0
100
AcDbXrecord
 10
0.0
 20
0.0
 30
0.0
  0
XRECORD
  5
4D2
102
{ACAD_REACTORS
330
4C0
102
}
330
4C0
100
AcDbXrecord
 10
0.0
 20
0.0
 30
0.0
  0
XRECORD
  5
4D5
102
{ACAD_REACTORS
330
4C0
102
}
330
4C0
100
AcDbXrecord
 10
0.0
 20
0.0
 30
0.0
  0
XRECORD
  5
4D3
102
{ACAD_REACTORS
330
4C0
102
}
330
4C0
100
AcDbXrecord
 10
0.0
 20
0.0
 30
0.0
  0
XRECORD
  5
4D4
102
{ACAD_REACTORS
330
4C0
102
}
330
4C0
100
AcDbXrecord
 10
0.0
 20
0.0
 30
0.0
  0
XRECORD
  5
4D1
102
{ACAD_REACTORS
330
4C0
102
}
330
4C0
100
AcDbXrecord
 10
0.0
 20
0.0
 30
0.0
  0
XRECORD
  5
4CE
102
{ACAD_REACTORS
330
4C0
102
}
330
4C0
100
AcDbXrecord
340
0
  0
XRECORD
  5
4CF
102
{ACAD_REACTORS
330
4C0
102
}
330
4C0
100
AcDbXrecord
 70
     0
  0
XRECORD
  5
4C4
102
{ACAD_REACTORS
330
4C0
102
}
330
4C0
100
AcDbXrecord
  1

  0
XRECORD
  5
4C1
102
{ACAD_REACTORS
330
4C0
102
}
330
4C0
100
AcDbXrecord
 90
        1
  0
XRECORD
  5
4C2
102
{ACAD_REACTORS
330
4C0
102
}
330
4C0
100
AcDbXrecord
 90
       70
  0
XRECORD
  5
4D9
102
{ACAD_REACTORS
330
4C0
102
}
330
4C0
100
AcDbXrecord
340
0
  0
XRECORD
  5
4DF
102
{ACAD_REACTORS
330
4C0
102
}
330
4C0
100
AcDbXrecord
 10
0.0
 20
0.0
 30
0.0
  0
XRECORD
  5
4DB
102
{ACAD_REACTORS
330
4C0
102
}
330
4C0
100
AcDbXrecord
 10
0.0
 20
0.0
 30
0.0
  0
XRECORD
  5
4DE
102
{ACAD_REACTORS
330
4C0
102
}
330
4C0
100
AcDbXrecord
 10
0.0
 20
0.0
 30
0.0
  0
XRECORD
  5
4DC
102
{ACAD_REACTORS
330
4C0
102
}
330
4C0
100
AcDbXrecord
 10
0.0
 20
0.0
 30
0.0
  0
XRECORD
  5
4DD
102
{ACAD_REACTORS
330
4C0
102
}
330
4C0
100
AcDbXrecord
 10
0.0
 20
0.0
 30
0.0
  0
XRECORD
  5
4DA
102
{ACAD_REACTORS
330
4C0
102
}
330
4C0
100
AcDbXrecord
 10
0.0
 20
0.0
 30
0.0
  0
XRECORD
  5
4D7
102
{ACAD_REACTORS
330
4C0
102
}
330
4C0
100
AcDbXrecord
340
0
  0
XRECORD
  5
4D8
102
{ACAD_REACTORS
330
4C0
102
}
330
4C0
100
AcDbXrecord
 70
     0
  0
XRECORD
  5
4CC
102
{ACAD_REACTORS
330
4C0
102
}
330
4C0
100
AcDbXrecord
  1
{FAEB1C32-E019-11D5-929B-00C0DF256EC4}
  0
DICTIONARYVAR
  5
4EA
102
{ACAD_REACTORS
330
4E1
102
}
330
4E1
100
DictionaryVariables
280
     0
  1
1:1
  0
DICTIONARYVAR
  5
4E6
102
{ACAD_REACTORS
330
4E1
102
}
330
4E1
100
DictionaryVariables
280
     0
  1
2
  0
DICTIONARYVAR
  5
4E7
102
{ACAD_REACTORS
330
4E1
102
}
330
4E1
100
DictionaryVariables
280
     0
  1
1
  0
DICTIONARYVAR
  5
4EB
102
{ACAD_REACTORS
330
4E1
102
}
330
4E1
100
DictionaryVariables
280
     0
  1
1
  0
DICTIONARY
  5
4EE
330
45
100
AcDbDictionary
280
     1
  3
ACAD_XREC_ROUNDTRIP
360
4EF
  0
DICTIONARY
  5
4EC
330
44
100
AcDbDictionary
280
     1
  3
ACAD_XREC_ROUNDTRIP
360
4ED
  0
DICTIONARY
  5
4F0
330
46
100
AcDbDictionary
280
     1
  3
ACAD_XREC_ROUNDTRIP
360
4F1
  0
XRECORD
  5
4EF
102
{ACAD_REACTORS
330
4EE
102
}
330
4EE
100
AcDbXrecord
102
MATERIAL
148
0.0
149
0.0
149
0.0
 93
        0
 94
      127
282
     0
 72
     1
 77
     1
171
     1
175
     1
179
     1
273
     0
  0
XRECORD
  5
4ED
102
{ACAD_REACTORS
330
4EC
102
}
330
4EC
100
AcDbXrecord
102
MATERIAL
148
0.0
149
0.0
149
0.0
 93
        0
 94
      127
282
     0
 72
     1
 77
     1
171
     1
175
     1
179
     1
273
     0
  0
XRECORD
  5
4F1
102
{ACAD_REACTORS
330
4F0
102
}
330
4F0
100
AcDbXrecord
102
MATERIAL
148
0.0
149
0.0
149
0.0
 93
        0
 94
      127
282
     0
 72
     1
 77
     1
171
     1
175
     1
179
     1
273
     0
  0
ENDSEC
  0
EOF
