  0
SECTION
  2
HEADER
  9
$ACADVER
  1
AC1014
  9
$ACADMAINTVER
 70
     9
  9
$DWGCODEPAGE
  3
DOS932
  9
$INSBASE
 10
0.0
 20
0.0
 30
0.0
  9
$EXTMIN
 10
0.0
 20
0.0
 30
0.0
  9
$EXTMAX
 10
420.0
 20
297.0
 30
0.0
  9
$LIMMIN
 10
0.0
 20
0.0
  9
$LIMMAX
 10
420.0
 20
297.0
  9
$ORTHOMODE
 70
     0
  9
$REGENMODE
 70
     1
  9
$FILLMODE
 70
     1
  9
$QTEXTMODE
 70
     0
  9
$MIRRTEXT
 70
     1
  9
$DRAGMODE
 70
     2
  9
$LTSCALE
 40
1.0
  9
$OSMODE
 70
    37
  9
$ATTMODE
 70
     1
  9
$TEXTSIZE
 40
3.5
  9
$TRACEWID
 40
1.0
  9
$TEXTSTYLE
  7
STANDARD
  9
$CLAYER
  8
0
  9
$CELTYPE
  6
BYLAYER
  9
$CECOLOR
 62
   256
  9
$CELTSCALE
 40
1.0
  9
$DELOBJ
 70
     1
  9
$DISPSILH
 70
     0
  9
$DIMSCALE
 40
1.0
  9
$DIMASZ
 40
4.0
  9
$DIMEXO
 40
1.0
  9
$DIMDLI
 40
3.75
  9
$DIMRND
 40
0.0
  9
$DIMDLE
 40
0.0
  9
$DIMEXE
 40
1.0
  9
$DIMTP
 40
0.0
  9
$DIMTM
 40
0.0
  9
$DIMTXT
 40
3.5
  9
$DIMCEN
 40
2.5
  9
$DIMTSZ
 40
0.0
  9
$DIMTOL
 70
     0
  9
$DIMLIM
 70
     0
  9
$DIMTIH
 70
     1
  9
$DIMTOH
 70
     1
  9
$DIMSE1
 70
     0
  9
$DIMSE2
 70
     0
  9
$DIMTAD
 70
     1
  9
$DIMZIN
 70
     1
  9
$DIMBLK
  1

  9
$DIMASO
 70
     1
  9
$DIMSHO
 70
     1
  9
$DIMPOST
  1

  9
$DIMAPOST
  1

  9
$DIMALT
 70
     0
  9
$DIMALTD
 70
     3
  9
$DIMALTF
 40
0.0393700787
  9
$DIMLFAC
 40
1.0
  9
$DIMTOFL
 70
     1
  9
$DIMTVP
 40
0.0
  9
$DIMTIX
 70
     0
  9
$DIMSOXD
 70
     0
  9
$DIMSAH
 70
     0
  9
$DIMBLK1
  1

  9
$DIMBLK2
  1

  9
$DIMSTYLE
  2
ISO-25
  9
$DIMCLRD
 70
     0
  9
$DIMCLRE
 70
     0
  9
$DIMCLRT
 70
     0
  9
$DIMTFAC
 40
1.0
  9
$DIMGAP
 40
1.524
  9
$DIMJUST
 70
     0
  9
$DIMSD1
 70
     0
  9
$DIMSD2
 70
     0
  9
$DIMTOLJ
 70
     0
  9
$DIMTZIN
 70
     1
  9
$DIMALTZ
 70
     0
  9
$DIMALTTZ
 70
     0
  9
$DIMFIT
 70
     3
  9
$DIMUPT
 70
     0
  9
$DIMUNIT
 70
     2
  9
$DIMDEC
 70
     0
  9
$DIMTDEC
 70
     4
  9
$DIMALTU
 70
     2
  9
$DIMALTTD
 70
     3
  9
$DIMTXSTY
  7
STANDARD
  9
$DIMAUNIT
 70
     0
  9
$LUNITS
 70
     2
  9
$LUPREC
 70
     4
  9
$SKETCHINC
 40
1.0
  9
$FILLETRAD
 40
0.0
  9
$AUNITS
 70
     0
  9
$AUPREC
 70
     0
  9
$MENU
  1
.
  9
$ELEVATION
 40
0.0
  9
$PELEVATION
 40
0.0
  9
$THICKNESS
 40
0.0
  9
$LIMCHECK
 70
     0
  9
$CHAMFERA
 40
0.0
  9
$CHAMFERB
 40
0.0
  9
$CHAMFERC
 40
0.0
  9
$CHAMFERD
 40
0.0
  9
$SKPOLY
 70
     0
  9
$TDCREATE
 40
2460873.434485208
  9
$TDUPDATE
 40
2460873.434485973
  9
$TDINDWG
 40
0.0000000116
  9
$TDUSRTIMER
 40
0.0000000116
  9
$USRTIMER
 70
     1
  9
$ANGBASE
 50
0.0
  9
$ANGDIR
 70
     0
  9
$PDMODE
 70
     0
  9
$PDSIZE
 40
-1.0
  9
$PLINEWID
 40
0.0
  9
$COORDS
 70
     1
  9
$SPLFRAME
 70
     0
  9
$SPLINETYPE
 70
     6
  9
$SPLINESEGS
 70
     8
  9
$ATTDIA
 70
     0
  9
$ATTREQ
 70
     1
  9
$HANDLING
 70
     1
  9
$HANDSEED
  5
32F
  9
$SURFTAB1
 70
     6
  9
$SURFTAB2
 70
     6
  9
$SURFTYPE
 70
     6
  9
$SURFU
 70
     6
  9
$SURFV
 70
     6
  9
$UCSNAME
  2

  9
$UCSORG
 10
0.0
 20
0.0
 30
0.0
  9
$UCSXDIR
 10
1.0
 20
0.0
 30
0.0
  9
$UCSYDIR
 10
0.0
 20
1.0
 30
0.0
  9
$PUCSNAME
  2

  9
$PUCSORG
 10
0.0
 20
0.0
 30
0.0
  9
$PUCSXDIR
 10
1.0
 20
0.0
 30
0.0
  9
$PUCSYDIR
 10
0.0
 20
1.0
 30
0.0
  9
$USERI1
 70
     0
  9
$USERI2
 70
     0
  9
$USERI3
 70
     0
  9
$USERI4
 70
     0
  9
$USERI5
 70
     0
  9
$USERR1
 40
0.0
  9
$USERR2
 40
0.0
  9
$USERR3
 40
0.0
  9
$USERR4
 40
0.0
  9
$USERR5
 40
0.0
  9
$WORLDVIEW
 70
     1
  9
$SHADEDGE
 70
     3
  9
$SHADEDIF
 70
    70
  9
$TILEMODE
 70
     1
  9
$MAXACTVP
 70
    64
  9
$PINSBASE
 10
0.0
 20
0.0
 30
0.0
  9
$PLIMCHECK
 70
     0
  9
$PEXTMIN
 10
1.0000000000E+20
 20
1.0000000000E+20
 30
1.0000000000E+20
  9
$PEXTMAX
 10
-1.0000000000E+20
 20
-1.0000000000E+20
 30
-1.0000000000E+20
  9
$PLIMMIN
 10
0.0
 20
0.0
  9
$PLIMMAX
 10
420.0
 20
297.0
  9
$UNITMODE
 70
     0
  9
$VISRETAIN
 70
     1
  9
$PLINEGEN
 70
     0
  9
$PSLTSCALE
 70
     1
  9
$TREEDEPTH
 70
  3020
  9
$PICKSTYLE
 70
     1
  9
$CMLSTYLE
  2
STANDARD
  9
$CMLJUST
 70
     0
  9
$CMLSCALE
 40
20.0
  9
$PROXYGRAPHICS
 70
     1
  9
$MEASUREMENT
 70
     1
  0
ENDSEC
  0
SECTION
  2
CLASSES
  0
CLASS
  1
ACDBDICTIONARYWDFLT
  2
AcDbDictionaryWithDefault
  3
ObjectDBX Classes
 90
        0
280
     0
281
     0
  0
CLASS
  1
VISUALSTYLE
  2
AcDbVisualStyle
  3
ObjectDBX Classes
 90
     4095
280
     0
281
     0
  0
CLASS
  1
MATERIAL
  2
AcDbMaterial
  3
ObjectDBX Classes
 90
     1153
280
     0
281
     0
  0
CLASS
  1
SCALE
  2
AcDbScale
  3
ObjectDBX Classes
 90
     1153
280
     0
281
     0
  0
CLASS
  1
TABLESTYLE
  2
AcDbTableStyle
  3
ObjectDBX Classes
 90
     4095
280
     0
281
     0
  0
CLASS
  1
MLEADERSTYLE
  2
AcDbMLeaderStyle
  3
ACDB_MLEADERSTYLE_CLASS
 90
     4095
280
     0
281
     0
  0
CLASS
  1
SUN
  2
AcDbSun
  3
SCENEOE
 90
     1153
280
     0
281
     0
  0
CLASS
  1
XRECORD
  2
AcDbXrecord
  3
ObjectDBX Classes
 90
        0
280
     0
281
     0
  0
CLASS
  1
LWPOLYLINE
  2
AcDbPolyline
  3
ObjectDBX Classes
 90
        0
280
     0
281
     1
  0
CLASS
  1
HATCH
  2
AcDbHatch
  3
ObjectDBX Classes
 90
        0
280
     0
281
     1
  0
ENDSEC
  0
SECTION
  2
TABLES
  0
TABLE
  2
VPORT
  5
8
330
0
100
AcDbSymbolTable
 70
     1
  0
VPORT
  5
29
330
8
100
AcDbSymbolTableRecord
100
AcDbViewportTableRecord
  2
*ACTIVE
 70
     0
 10
0.0
 20
0.0
 11
1.0
 21
1.0
 12
210.0
 22
148.5
 13
0.0
 23
0.0
 14
10.0
 24
10.0
 15
10.0
 25
10.0
 16
0.0
 26
0.0
 36
1.0
 17
0.0
 27
0.0
 37
0.0
 40
297.0
 41
1.4141414141
 42
50.0
 43
0.0
 44
0.0
 50
0.0
 51
0.0
 71
     0
 72
  2000
 73
     1
 74
     3
 75
     0
 76
     0
 77
     0
 78
     0
  0
ENDTAB
  0
TABLE
  2
LTYPE
  5
5
330
0
100
AcDbSymbolTable
 70
     6
  0
LTYPE
  5
14
330
5
100
AcDbSymbolTableRecord
100
AcDbLinetypeTableRecord
  2
BYBLOCK
 70
     0
  3

 72
    65
 73
     0
 40
0.0
  0
LTYPE
  5
15
330
5
100
AcDbSymbolTableRecord
100
AcDbLinetypeTableRecord
  2
BYLAYER
 70
     0
  3

 72
    65
 73
     0
 40
0.0
  0
LTYPE
  5
16
330
5
100
AcDbSymbolTableRecord
100
AcDbLinetypeTableRecord
  2
CONTINUOUS
 70
     0
  3
Solid line
 72
    65
 73
     0
 40
0.0
  0
LTYPE
  5
5E
330
5
100
AcDbSymbolTableRecord
100
AcDbLinetypeTableRecord
  2
HIDDEN
 70
     0
  3
Hidden __ __ __ __ __ __ __ __ __ __ __ __ __ __
 72
    65
 73
     2
 40
1.905
 49
1.27
 74
     0
 49
-0.635
 74
     0
  0
LTYPE
  5
5F
330
5
100
AcDbSymbolTableRecord
100
AcDbLinetypeTableRecord
  2
PHANTOM
 70
     0
  3
Phantom ______  __  __  ______  __  __  ______
 72
    65
 73
     6
 40
12.7
 49
6.35
 74
     0
 49
-1.27
 74
     0
 49
1.27
 74
     0
 49
-1.27
 74
     0
 49
1.27
 74
     0
 49
-1.27
 74
     0
  0
LTYPE
  5
60
330
5
100
AcDbSymbolTableRecord
100
AcDbLinetypeTableRecord
  2
CENTER
 70
     0
  3
Center ____ _ ____ _ ____ _ ____ _ ____ _ ____
 72
    65
 73
     4
 40
10.16
 49
6.35
 74
     0
 49
-1.27
 74
     0
 49
1.27
 74
     0
 49
-1.27
 74
     0
  0
LTYPE
  5
61
330
5
100
AcDbSymbolTableRecord
100
AcDbLinetypeTableRecord
  2
CENTERX2
 70
     0
  3
Center (2x) ________  __  ________  __  _____
 72
    65
 73
     4
 40
20.32
 49
12.7
 74
     0
 49
-2.54
 74
     0
 49
2.54
 74
     0
 49
-2.54
 74
     0
  0
LTYPE
  5
62
330
5
100
AcDbSymbolTableRecord
100
AcDbLinetypeTableRecord
  2
DOT2
 70
     0
  3
Dot (.5x) ........................................
 72
    65
 73
     2
 40
0.635
 49
0.0
 74
     0
 49
-0.635
 74
     0
  0
ENDTAB
  0
TABLE
  2
LAYER
  5
2
330
0
100
AcDbSymbolTable
 70
     2
  0
LAYER
  5
10
330
2
100
AcDbSymbolTableRecord
100
AcDbLayerTableRecord
  2
0
 70
     0
 62
     7
  6
CONTINUOUS
  0
LAYER
  5
63
330
2
100
AcDbSymbolTableRecord
100
AcDbLayerTableRecord
  2
SLD-0
 70
     0
 62
   179
  6
CONTINUOUS
  0
ENDTAB
  0
TABLE
  2
STYLE
  5
3
330
0
100
AcDbSymbolTable
 70
     2
  0
STYLE
  5
11
330
3
100
AcDbSymbolTableRecord
100
AcDbTextStyleTableRecord
  2
STANDARD
 70
     0
 40
0.0
 41
1.0
 50
0.0
 71
     0
 42
3.5
  3
txt
  4
bigfont
  0
STYLE
  5
32C
330
3
100
AcDbSymbolTableRecord
100
AcDbTextStyleTableRecord
  2
SLDTEXTSTYLE0
 70
     0
 40
0.0
 41
1.1815384615
 50
0.0
 71
     0
 42
3.5
  3
TXT
  4
bigfont
  0
ENDTAB
  0
TABLE
  2
VIEW
  5
6
330
0
100
AcDbSymbolTable
 70
     0
  0
ENDTAB
  0
TABLE
  2
UCS
  5
7
330
0
100
AcDbSymbolTable
 70
     0
  0
ENDTAB
  0
TABLE
  2
APPID
  5
9
330
0
100
AcDbSymbolTable
 70
     1
  0
APPID
  5
12
330
9
100
AcDbSymbolTableRecord
100
AcDbRegAppTableRecord
  2
ACAD
 70
     0
  0
ENDTAB
  0
TABLE
  2
DIMSTYLE
  5
A
330
0
100
AcDbSymbolTable
 70
     1
  0
DIMSTYLE
105
27
330
A
100
AcDbSymbolTableRecord
100
AcDbDimStyleTableRecord
  2
ISO-25
 70
     0
  3

  4

  5

  6

  7

 40
1.0
 41
2.5
 42
0.625
 43
3.75
 44
1.25
 45
0.0
 46
0.0
 47
0.0
 48
0.0
140
2.5
141
2.5
142
0.0
143
0.0393700787
144
1.0
145
0.0
146
1.0
147
0.625
 71
     0
 72
     0
 73
     0
 74
     0
 75
     0
 76
     0
 77
     1
 78
     8
170
     0
171
     3
172
     1
173
     0
174
     0
175
     0
176
     0
177
     0
178
     0
270
     2
271
     2
272
     2
273
     2
274
     3
340
11
275
     0
280
     0
281
     0
282
     0
283
     0
284
     8
285
     0
286
     0
287
     3
288
     0
  0
ENDTAB
  0
TABLE
  2
BLOCK_RECORD
  5
1
330
0
100
AcDbSymbolTable
 70
     1
  0
BLOCK_RECORD
  5
1F
330
1
100
AcDbSymbolTableRecord
100
AcDbBlockTableRecord
  2
*MODEL_SPACE
  0
BLOCK_RECORD
  5
1B
330
1
100
AcDbSymbolTableRecord
100
AcDbBlockTableRecord
  2
*PAPER_SPACE
  0
BLOCK_RECORD
  5
23
330
1
100
AcDbSymbolTableRecord
100
AcDbBlockTableRecord
  2
*PAPER_SPACE0
  0
ENDTAB
  0
ENDSEC
  0
SECTION
  2
BLOCKS
  0
BLOCK
  5
20
330
1F
100
AcDbEntity
  8
0
100
AcDbBlockBegin
  2
*MODEL_SPACE
 70
     0
 10
0.0
 20
0.0
 30
0.0
  3
*MODEL_SPACE
  1

  0
ENDBLK
  5
21
330
1F
100
AcDbEntity
  8
0
100
AcDbBlockEnd
  0
BLOCK
  5
1C
330
1B
100
AcDbEntity
 67
     1
  8
0
100
AcDbBlockBegin
  2
*PAPER_SPACE
 70
     0
 10
0.0
 20
0.0
 30
0.0
  3
*PAPER_SPACE
  1

  0
ENDBLK
  5
1D
330
1B
100
AcDbEntity
 67
     1
  8
0
100
AcDbBlockEnd
  0
BLOCK
  5
24
330
23
100
AcDbEntity
  8
0
100
AcDbBlockBegin
  2
*PAPER_SPACE0
 70
     0
 10
0.0
 20
0.0
 30
0.0
  3
*PAPER_SPACE0
  1

  0
ENDBLK
  5
25
330
23
100
AcDbEntity
  8
0
100
AcDbBlockEnd
  0
ENDSEC
  0
SECTION
  2
ENTITIES
  0
LINE
  5
64
330
1F
100
AcDbEntity
  8
SLD-0
 62
     7
100
AcDbLine
 10
162.89190392
 20
113.70392449
 30
0.0
 11
162.89190392
 21
208.70392435
 31
0.0
  0
LINE
  5
65
330
1F
100
AcDbEntity
  8
SLD-0
  6
CONTINUOUS
 62
     7
100
AcDbLine
 10
269.89190392
 20
122.40392328
 30
0.0
 11
269.89190392
 21
200.00392557
 31
0.0
  0
LINE
  5
66
330
1F
100
AcDbEntity
  8
SLD-0
  6
CONTINUOUS
 62
     7
100
AcDbLine
 10
396.24097102
 20
207.20392294
 30
0.0
 11
305.74097185
 21
207.20392401
 31
0.0
  0
LINE
  5
67
330
1F
100
AcDbEntity
  8
SLD-0
  6
CONTINUOUS
 62
     7
100
AcDbLine
 10
304.99097185
 20
115.95392442
 30
0.0
 11
304.99097185
 21
206.45392401
 31
0.0
  0
LINE
  5
68
330
1F
100
AcDbEntity
  8
SLD-0
  6
CONTINUOUS
 62
     7
100
AcDbLine
 10
305.74097185
 20
115.20392442
 30
0.0
 11
396.24097102
 21
115.20392548
 31
0.0
  0
LINE
  5
69
330
1F
100
AcDbEntity
  8
SLD-0
  6
CONTINUOUS
 62
     7
100
AcDbLine
 10
396.99097101
 20
115.95392548
 30
0.0
 11
396.99097101
 21
206.45392294
 31
0.0
  0
LINE
  5
6A
330
1F
100
AcDbEntity
  8
SLD-0
  6
CONTINUOUS
 62
     7
100
AcDbLine
 10
309.19097166
 20
190.62392334
 30
0.0
 11
309.19097166
 21
185.12392337
 31
0.0
  0
LINE
  5
6B
330
1F
100
AcDbEntity
  8
SLD-0
  6
CONTINUOUS
 62
     7
100
AcDbLine
 10
309.19097166
 20
185.12392337
 30
0.0
 11
316.69097195
 21
185.12392337
 31
0.0
  0
LINE
  5
6C
330
1F
100
AcDbEntity
  8
SLD-0
  6
CONTINUOUS
 62
     7
100
AcDbLine
 10
316.69097195
 20
185.12392337
 30
0.0
 11
316.69097195
 21
190.62392334
 31
0.0
  0
LINE
  5
6D
330
1F
100
AcDbEntity
  8
SLD-0
  6
CONTINUOUS
 62
     7
100
AcDbLine
 10
316.69097195
 20
190.62392334
 30
0.0
 11
309.19097166
 21
190.62392334
 31
0.0
  0
LINE
  5
6E
330
1F
100
AcDbEntity
  8
SLD-0
  6
CONTINUOUS
 62
     7
100
AcDbLine
 10
392.7909712
 20
185.12392337
 30
0.0
 11
392.7909712
 21
190.62392334
 31
0.0
  0
LINE
  5
6F
330
1F
100
AcDbEntity
  8
SLD-0
  6
CONTINUOUS
 62
     7
100
AcDbLine
 10
392.7909712
 20
190.62392334
 30
0.0
 11
385.2909709
 21
190.62392334
 31
0.0
  0
LINE
  5
70
330
1F
100
AcDbEntity
  8
SLD-0
  6
CONTINUOUS
 62
     7
100
AcDbLine
 10
385.2909709
 20
190.62392334
 30
0.0
 11
385.2909709
 21
185.12392337
 31
0.0
  0
LINE
  5
71
330
1F
100
AcDbEntity
  8
SLD-0
  6
CONTINUOUS
 62
     7
100
AcDbLine
 10
385.2909709
 20
185.12392337
 30
0.0
 11
392.7909712
 21
185.12392337
 31
0.0
  0
LINE
  5
72
330
1F
100
AcDbEntity
  8
SLD-0
  6
CONTINUOUS
 62
     7
100
AcDbLine
 10
309.19097166
 20
183.00392334
 30
0.0
 11
309.19097166
 21
177.50392337
 31
0.0
  0
LINE
  5
73
330
1F
100
AcDbEntity
  8
SLD-0
  6
CONTINUOUS
 62
     7
100
AcDbLine
 10
309.19097166
 20
177.50392337
 30
0.0
 11
316.69097195
 21
177.50392337
 31
0.0
  0
LINE
  5
74
330
1F
100
AcDbEntity
  8
SLD-0
  6
CONTINUOUS
 62
     7
100
AcDbLine
 10
108.25902857
 20
163.55392442
 30
0.0
 11
104.75902857
 21
163.55392442
 31
0.0
  0
LINE
  5
75
330
1F
100
AcDbEntity
  8
SLD-0
  6
CONTINUOUS
 62
     7
100
AcDbLine
 10
76.00902857
 20
156.20392442
 30
0.0
 11
76.00902857
 21
144.20392442
 31
0.0
  0
LINE
  5
76
330
1F
100
AcDbEntity
  8
SLD-0
  6
CONTINUOUS
 62
     7
100
AcDbLine
 10
87.25902857
 20
163.55392442
 30
0.0
 11
83.75902857
 21
163.55392442
 31
0.0
  0
LINE
  5
77
330
1F
100
AcDbEntity
  8
SLD-0
  6
CONTINUOUS
 62
     7
100
AcDbLine
 10
112.3758766576
 20
179.1762930849
 30
0.0
 11
114.4282835272
 21
184.3866314656
 31
0.0
  0
LINE
  5
78
330
1F
100
AcDbEntity
  8
SLD-0
  6
CONTINUOUS
 62
     7
100
AcDbLine
 10
31.00902857
 20
115.20392442
 30
0.0
 11
31.00902857
 21
207.20392442
 31
0.0
  0
LINE
  5
79
330
1F
100
AcDbEntity
  8
SLD-0
  6
CONTINUOUS
 62
     7
100
AcDbLine
 10
125.00902866
 20
113.20392442
 30
0.0
 11
33.00902857
 21
113.20392442
 31
0.0
  0
LINE
  5
7A
330
1F
100
AcDbEntity
  8
SLD-0
  6
CONTINUOUS
 62
     7
100
AcDbLine
 10
33.00902857
 20
209.20392442
 30
0.0
 11
125.00902857
 21
209.20392442
 31
0.0
  0
LINE
  5
7B
330
1F
100
AcDbEntity
  8
SLD-0
  6
CONTINUOUS
 62
     7
100
AcDbLine
 10
127.00902853
 20
207.20392446
 30
0.0
 11
127.00902853
 21
115.20392438
 31
0.0
  0
LINE
  5
7C
330
1F
100
AcDbEntity
  8
SLD-0
  6
CONTINUOUS
 62
     7
100
AcDbLine
 10
316.69097195
 20
177.50392337
 30
0.0
 11
316.69097195
 21
183.00392334
 31
0.0
  0
LINE
  5
7D
330
1F
100
AcDbEntity
  8
SLD-0
  6
CONTINUOUS
 62
     7
100
AcDbLine
 10
316.69097195
 20
183.00392334
 30
0.0
 11
309.19097166
 21
183.00392334
 31
0.0
  0
LINE
  5
7E
330
1F
100
AcDbEntity
  8
SLD-0
  6
CONTINUOUS
 62
     7
100
AcDbLine
 10
58.80902936
 20
216.20392565
 30
0.0
 11
78.80902858
 21
216.20392565
 31
0.0
  0
LINE
  5
7F
330
1F
100
AcDbEntity
  8
SLD-0
  6
CONTINUOUS
 62
     7
100
AcDbLine
 10
78.80902858
 20
216.20392565
 30
0.0
 11
78.80902858
 21
209.20392442
 31
0.0
  0
LINE
  5
80
330
1F
100
AcDbEntity
  8
SLD-0
  6
CONTINUOUS
 62
     7
100
AcDbLine
 10
58.80902936
 20
209.20392442
 30
0.0
 11
58.80902936
 21
216.20392565
 31
0.0
  0
LINE
  5
81
330
1F
100
AcDbEntity
  8
SLD-0
  6
CONTINUOUS
 62
     7
100
AcDbLine
 10
99.20902778
 20
113.20392442
 30
0.0
 11
99.20902778
 21
106.20392319
 31
0.0
  0
LINE
  5
82
330
1F
100
AcDbEntity
  8
SLD-0
  6
CONTINUOUS
 62
     7
100
AcDbLine
 10
99.20902778
 20
106.20392319
 30
0.0
 11
79.20902857
 21
106.20392319
 31
0.0
  0
LINE
  5
83
330
1F
100
AcDbEntity
  8
SLD-0
  6
CONTINUOUS
 62
     7
100
AcDbLine
 10
79.20902857
 20
106.20392319
 30
0.0
 11
79.20902857
 21
113.20392442
 31
0.0
  0
LINE
  5
84
330
1F
100
AcDbEntity
  8
SLD-0
  6
CONTINUOUS
 62
     7
100
AcDbLine
 10
392.7909712
 20
177.50392337
 30
0.0
 11
392.7909712
 21
183.00392334
 31
0.0
  0
LINE
  5
85
330
1F
100
AcDbEntity
  8
SLD-0
  6
CONTINUOUS
 62
     7
100
AcDbLine
 10
392.7909712
 20
183.00392334
 30
0.0
 11
385.2909709
 21
183.00392334
 31
0.0
  0
LINE
  5
86
330
1F
100
AcDbEntity
  8
SLD-0
  6
CONTINUOUS
 62
     7
100
AcDbLine
 10
105.40902843
 20
113.20392442
 30
0.0
 11
105.40902843
 21
108.90392419
 31
0.0
  0
LINE
  5
87
330
1F
100
AcDbEntity
  8
SLD-0
  6
CONTINUOUS
 62
     7
100
AcDbLine
 10
105.40902843
 20
108.90392419
 30
0.0
 11
104.2090286
 21
108.90392419
 31
0.0
  0
LINE
  5
88
330
1F
100
AcDbEntity
  8
SLD-0
  6
CONTINUOUS
 62
     7
100
AcDbLine
 10
104.2090286
 20
108.90392419
 30
0.0
 11
104.2090286
 21
113.20392442
 31
0.0
  0
LINE
  5
89
330
1F
100
AcDbEntity
  8
SLD-0
  6
CONTINUOUS
 62
     7
100
AcDbLine
 10
74.20902834
 20
108.90392419
 30
0.0
 11
73.00902852
 21
108.90392419
 31
0.0
  0
LINE
  5
8A
330
1F
100
AcDbEntity
  8
SLD-0
  6
CONTINUOUS
 62
     7
100
AcDbLine
 10
74.20902834
 20
113.20392442
 30
0.0
 11
74.20902834
 21
108.90392419
 31
0.0
  0
LINE
  5
8B
330
1F
100
AcDbEntity
  8
SLD-0
  6
CONTINUOUS
 62
     7
100
AcDbLine
 10
73.00902852
 20
108.90392419
 30
0.0
 11
73.00902852
 21
113.20392442
 31
0.0
  0
LINE
  5
8C
330
1F
100
AcDbEntity
  8
SLD-0
  6
CONTINUOUS
 62
     7
100
AcDbLine
 10
83.8090288
 20
209.20392442
 30
0.0
 11
83.8090288
 21
213.50392464
 31
0.0
  0
LINE
  5
8D
330
1F
100
AcDbEntity
  8
SLD-0
  6
CONTINUOUS
 62
     7
100
AcDbLine
 10
83.8090288
 20
213.50392464
 30
0.0
 11
85.00902862
 21
213.50392464
 31
0.0
  0
LINE
  5
8E
330
1F
100
AcDbEntity
  8
SLD-0
  6
CONTINUOUS
 62
     7
100
AcDbLine
 10
85.00902862
 20
213.50392464
 30
0.0
 11
85.00902862
 21
209.20392442
 31
0.0
  0
LINE
  5
8F
330
1F
100
AcDbEntity
  8
SLD-0
  6
CONTINUOUS
 62
     7
100
AcDbLine
 10
52.60902871
 20
209.20392442
 30
0.0
 11
52.60902871
 21
213.50392464
 31
0.0
  0
LINE
  5
90
330
1F
100
AcDbEntity
  8
SLD-0
  6
CONTINUOUS
 62
     7
100
AcDbLine
 10
52.60902871
 20
213.50392464
 30
0.0
 11
53.80902854
 21
213.50392464
 31
0.0
  0
LINE
  5
91
330
1F
100
AcDbEntity
  8
SLD-0
  6
CONTINUOUS
 62
     7
100
AcDbLine
 10
53.80902854
 20
213.50392464
 30
0.0
 11
53.80902854
 21
209.20392442
 31
0.0
  0
LINE
  5
92
330
1F
100
AcDbEntity
  8
SLD-0
  6
CONTINUOUS
 62
     7
100
AcDbLine
 10
385.2909709
 20
183.00392334
 30
0.0
 11
385.2909709
 21
177.50392337
 31
0.0
  0
LINE
  5
93
330
1F
100
AcDbEntity
  8
SLD-0
  6
CONTINUOUS
 62
     7
100
AcDbLine
 10
385.2909709
 20
177.50392337
 30
0.0
 11
392.7909712
 21
177.50392337
 31
0.0
  0
LINE
  5
94
330
1F
100
AcDbEntity
  8
SLD-0
  6
CONTINUOUS
 62
     7
100
AcDbLine
 10
309.19097166
 20
175.38392334
 30
0.0
 11
309.19097166
 21
169.88392337
 31
0.0
  0
LINE
  5
95
330
1F
100
AcDbEntity
  8
SLD-0
  6
CONTINUOUS
 62
     7
100
AcDbLine
 10
309.19097166
 20
169.88392337
 30
0.0
 11
316.69097195
 21
169.88392337
 31
0.0
  0
LINE
  5
96
330
1F
100
AcDbEntity
  8
SLD-0
  6
CONTINUOUS
 62
     7
100
AcDbLine
 10
316.69097195
 20
169.88392337
 30
0.0
 11
316.69097195
 21
175.38392334
 31
0.0
  0
LINE
  5
97
330
1F
100
AcDbEntity
  8
SLD-0
  6
CONTINUOUS
 62
     7
100
AcDbLine
 10
316.69097195
 20
175.38392334
 30
0.0
 11
309.19097166
 21
175.38392334
 31
0.0
  0
LINE
  5
98
330
1F
100
AcDbEntity
  8
SLD-0
  6
CONTINUOUS
 62
     7
100
AcDbLine
 10
392.7909712
 20
169.88392337
 30
0.0
 11
392.7909712
 21
175.38392334
 31
0.0
  0
LINE
  5
99
330
1F
100
AcDbEntity
  8
SLD-0
  6
CONTINUOUS
 62
     7
100
AcDbLine
 10
392.7909712
 20
175.38392334
 30
0.0
 11
385.2909709
 21
175.38392334
 31
0.0
  0
LINE
  5
9A
330
1F
100
AcDbEntity
  8
SLD-0
  6
CONTINUOUS
 62
     7
100
AcDbLine
 10
385.2909709
 20
175.38392334
 30
0.0
 11
385.2909709
 21
169.88392337
 31
0.0
  0
LINE
  5
9B
330
1F
100
AcDbEntity
  8
SLD-0
  6
CONTINUOUS
 62
     7
100
AcDbLine
 10
385.2909709
 20
169.88392337
 30
0.0
 11
392.7909712
 21
169.88392337
 31
0.0
  0
LINE
  5
9C
330
1F
100
AcDbEntity
  8
SLD-0
  6
CONTINUOUS
 62
     7
100
AcDbLine
 10
309.19097166
 20
167.76392334
 30
0.0
 11
309.19097166
 21
162.26392337
 31
0.0
  0
LINE
  5
9D
330
1F
100
AcDbEntity
  8
SLD-0
  6
CONTINUOUS
 62
     7
100
AcDbLine
 10
309.19097166
 20
162.26392337
 30
0.0
 11
316.69097195
 21
162.26392337
 31
0.0
  0
LINE
  5
9E
330
1F
100
AcDbEntity
  8
SLD-0
  6
CONTINUOUS
 62
     7
100
AcDbLine
 10
316.69097195
 20
162.26392337
 30
0.0
 11
316.69097195
 21
167.76392334
 31
0.0
  0
LINE
  5
9F
330
1F
100
AcDbEntity
  8
SLD-0
  6
CONTINUOUS
 62
     7
100
AcDbLine
 10
316.69097195
 20
167.76392334
 30
0.0
 11
309.19097166
 21
167.76392334
 31
0.0
  0
LINE
  5
A0
330
1F
100
AcDbEntity
  8
SLD-0
  6
CONTINUOUS
 62
     7
100
AcDbLine
 10
229.4919060148
 20
107.4039246886
 30
0.0
 11
230.4709289548
 21
107.4039242286
 31
0.0
  0
LINE
  5
A1
330
1F
100
AcDbEntity
  8
SLD-0
  6
CONTINUOUS
 62
     7
100
AcDbLine
 10
230.4709282915
 20
114.4039244175
 30
0.0
 11
229.4919060148
 21
114.4039241575
 31
0.0
  0
LINE
  5
A2
330
1F
100
AcDbEntity
  8
SLD-0
  6
CONTINUOUS
 62
     7
100
AcDbLine
 10
229.49190537
 20
112.90392485
 30
0.0
 11
229.39190367
 21
112.90392485
 31
0.0
  0
LINE
  5
A3
330
1F
100
AcDbEntity
  8
SLD-0
  6
CONTINUOUS
 62
     7
100
AcDbLine
 10
225.191903465
 20
108.903924305
 30
0.0
 11
227.191903795
 21
108.903924305
 31
0.0
  0
LINE
  5
A4
330
1F
100
AcDbEntity
  8
SLD-0
  6
CONTINUOUS
 62
     7
100
AcDbLine
 10
229.39190367
 20
108.90392419
 30
0.0
 11
229.49190537
 21
108.90392419
 31
0.0
  0
LINE
  5
A5
330
1F
100
AcDbEntity
  8
SLD-0
  6
CONTINUOUS
 62
     7
100
AcDbLine
 10
229.4919060304
 20
208.0039244207
 30
0.0
 11
230.4709289703
 21
208.0039241607
 31
0.0
  0
LINE
  5
A6
330
1F
100
AcDbEntity
  8
SLD-0
  6
CONTINUOUS
 62
     7
100
AcDbLine
 10
230.4709278438
 20
215.003924358
 30
0.0
 11
229.4919060304
 21
215.003923908
 31
0.0
  0
LINE
  5
A7
330
1F
100
AcDbEntity
  8
SLD-0
  6
CONTINUOUS
 62
     7
100
AcDbLine
 10
229.49190537
 20
213.50392464
 30
0.0
 11
229.39190367
 21
213.50392464
 31
0.0
  0
LINE
  5
A8
330
1F
100
AcDbEntity
  8
SLD-0
  6
CONTINUOUS
 62
     7
100
AcDbLine
 10
227.19190368
 20
213.50392442
 30
0.0
 11
225.19190336
 21
213.50392442
 31
0.0
  0
LINE
  5
A9
330
1F
100
AcDbEntity
  8
SLD-0
  6
CONTINUOUS
 62
     7
100
AcDbLine
 10
229.39190367
 20
209.50392399
 30
0.0
 11
229.49190537
 21
209.50392399
 31
0.0
  0
LINE
  5
AA
330
1F
100
AcDbEntity
  8
SLD-0
  6
CONTINUOUS
 62
     7
100
AcDbLine
 10
229.391903895
 20
114.403924155
 30
0.0
 11
228.391905595
 21
114.403924155
 31
0.0
  0
LINE
  5
AB
330
1F
100
AcDbEntity
  8
SLD-0
  6
CONTINUOUS
 62
     7
100
AcDbLine
 10
228.391905595
 20
107.403924875
 30
0.0
 11
229.391903895
 21
107.403924875
 31
0.0
  0
LINE
  5
AC
330
1F
100
AcDbEntity
  8
SLD-0
  6
CONTINUOUS
 62
     7
100
AcDbLine
 10
229.391903785
 20
215.003923835
 30
0.0
 11
228.391905485
 21
215.003923835
 31
0.0
  0
LINE
  5
AD
330
1F
100
AcDbEntity
  8
SLD-0
  6
CONTINUOUS
 62
     7
100
AcDbLine
 10
228.391905485
 20
208.003924555
 30
0.0
 11
229.391903785
 21
208.003924555
 31
0.0
  0
LINE
  5
AE
330
1F
100
AcDbEntity
  8
SLD-0
  6
CONTINUOUS
 62
     7
100
AcDbLine
 10
392.7909712
 20
162.26392337
 30
0.0
 11
392.7909712
 21
167.76392334
 31
0.0
  0
LINE
  5
AF
330
1F
100
AcDbEntity
  8
SLD-0
  6
CONTINUOUS
 62
     7
100
AcDbLine
 10
392.7909712
 20
167.76392334
 30
0.0
 11
385.2909709
 21
167.76392334
 31
0.0
  0
LINE
  5
B0
330
1F
100
AcDbEntity
  8
SLD-0
  6
CONTINUOUS
 62
     7
100
AcDbLine
 10
385.2909709
 20
167.76392334
 30
0.0
 11
385.2909709
 21
162.26392337
 31
0.0
  0
LINE
  5
B1
330
1F
100
AcDbEntity
  8
SLD-0
  6
CONTINUOUS
 62
     7
100
AcDbLine
 10
385.2909709
 20
162.26392337
 30
0.0
 11
392.7909712
 21
162.26392337
 31
0.0
  0
LINE
  5
B2
330
1F
100
AcDbEntity
  8
SLD-0
  6
CONTINUOUS
 62
     7
100
AcDbLine
 10
309.19097166
 20
160.14392334
 30
0.0
 11
309.19097166
 21
154.64392337
 31
0.0
  0
LINE
  5
B3
330
1F
100
AcDbEntity
  8
SLD-0
  6
CONTINUOUS
 62
     7
100
AcDbLine
 10
309.19097166
 20
154.64392337
 30
0.0
 11
316.69097195
 21
154.64392337
 31
0.0
  0
LINE
  5
B4
330
1F
100
AcDbEntity
  8
SLD-0
  6
CONTINUOUS
 62
     7
100
AcDbLine
 10
316.69097195
 20
154.64392337
 30
0.0
 11
316.69097195
 21
160.14392334
 31
0.0
  0
LINE
  5
B5
330
1F
100
AcDbEntity
  8
SLD-0
  6
CONTINUOUS
 62
     7
100
AcDbLine
 10
171.89190392
 20
113.20392449
 30
0.0
 11
163.39190392
 21
113.20392449
 31
0.0
  0
LINE
  5
B6
330
1F
100
AcDbEntity
  8
SLD-0
  6
CONTINUOUS
 62
     7
100
AcDbLine
 10
316.69097195
 20
160.14392334
 30
0.0
 11
309.19097166
 21
160.14392334
 31
0.0
  0
LINE
  5
B7
330
1F
100
AcDbEntity
  8
SLD-0
  6
CONTINUOUS
 62
     7
100
AcDbLine
 10
53.2243804111
 20
141.5311971358
 30
0.0
 11
58.822461431
 21
141.6777880463
 31
0.0
  0
LINE
  5
B8
330
1F
100
AcDbEntity
  8
SLD-0
  6
CONTINUOUS
 62
     7
100
AcDbLine
 10
104.75902857
 20
161.45392442
 30
0.0
 11
108.25902857
 21
161.45392442
 31
0.0
  0
LINE
  5
B9
330
1F
100
AcDbEntity
  8
SLD-0
  6
CONTINUOUS
 62
     7
100
AcDbLine
 10
163.39190392
 20
209.20392435
 30
0.0
 11
171.89190392
 21
209.20392435
 31
0.0
  0
LINE
  5
BA
330
1F
100
AcDbEntity
  8
SLD-0
  6
CONTINUOUS
 62
     7
100
AcDbLine
 10
114.50902857
 20
157.70392442
 30
0.0
 11
77.50902857
 21
157.70392442
 31
0.0
  0
LINE
  5
BB
330
1F
100
AcDbEntity
  8
SLD-0
  6
CONTINUOUS
 62
     7
100
AcDbLine
 10
97.75902857
 20
163.55392442
 30
0.0
 11
94.25902857
 21
163.55392442
 31
0.0
  0
LINE
  5
BC
330
1F
100
AcDbEntity
  8
SLD-0
  6
CONTINUOUS
 62
     7
100
AcDbLine
 10
83.75902857
 20
161.45392442
 30
0.0
 11
87.25902857
 21
161.45392442
 31
0.0
  0
LINE
  5
BD
330
1F
100
AcDbEntity
  8
SLD-0
  6
CONTINUOUS
 62
     7
100
AcDbLine
 10
392.7909712
 20
154.64392337
 30
0.0
 11
392.7909712
 21
160.14392334
 31
0.0
  0
LINE
  5
BE
330
1F
100
AcDbEntity
  8
SLD-0
  6
CONTINUOUS
 62
     7
100
AcDbLine
 10
392.7909712
 20
160.14392334
 30
0.0
 11
385.2909709
 21
160.14392334
 31
0.0
  0
LINE
  5
BF
330
1F
100
AcDbEntity
  8
SLD-0
  6
CONTINUOUS
 62
     7
100
AcDbLine
 10
385.2909709
 20
160.14392334
 30
0.0
 11
385.2909709
 21
154.64392337
 31
0.0
  0
LINE
  5
C0
330
1F
100
AcDbEntity
  8
SLD-0
  6
CONTINUOUS
 62
     7
100
AcDbLine
 10
385.2909709
 20
154.64392337
 30
0.0
 11
392.7909712
 21
154.64392337
 31
0.0
  0
LINE
  5
C1
330
1F
100
AcDbEntity
  8
SLD-0
  6
CONTINUOUS
 62
     7
100
AcDbLine
 10
309.19097166
 20
152.52392334
 30
0.0
 11
309.19097166
 21
147.02392337
 31
0.0
  0
LINE
  5
C2
330
1F
100
AcDbEntity
  8
SLD-0
  6
CONTINUOUS
 62
     7
100
AcDbLine
 10
309.19097166
 20
147.02392337
 30
0.0
 11
316.69097195
 21
147.02392337
 31
0.0
  0
LINE
  5
C3
330
1F
100
AcDbEntity
  8
SLD-0
  6
CONTINUOUS
 62
     7
100
AcDbLine
 10
316.69097195
 20
147.02392337
 30
0.0
 11
316.69097195
 21
152.52392334
 31
0.0
  0
LINE
  5
C4
330
1F
100
AcDbEntity
  8
SLD-0
  6
CONTINUOUS
 62
     7
100
AcDbLine
 10
316.69097195
 20
152.52392334
 30
0.0
 11
309.19097166
 21
152.52392334
 31
0.0
  0
LINE
  5
C5
330
1F
100
AcDbEntity
  8
SLD-0
  6
CONTINUOUS
 62
     7
100
AcDbLine
 10
392.7909712
 20
147.02392337
 30
0.0
 11
392.7909712
 21
152.52392334
 31
0.0
  0
LINE
  5
C6
330
1F
100
AcDbEntity
  8
SLD-0
  6
CONTINUOUS
 62
     7
100
AcDbLine
 10
392.7909712
 20
152.52392334
 30
0.0
 11
385.2909709
 21
152.52392334
 31
0.0
  0
LINE
  5
C7
330
1F
100
AcDbEntity
  8
SLD-0
  6
CONTINUOUS
 62
     7
100
AcDbLine
 10
385.2909709
 20
152.52392334
 30
0.0
 11
385.2909709
 21
147.02392337
 31
0.0
  0
LINE
  5
C8
330
1F
100
AcDbEntity
  8
SLD-0
  6
CONTINUOUS
 62
     7
100
AcDbLine
 10
385.2909709
 20
147.02392337
 30
0.0
 11
392.7909712
 21
147.02392337
 31
0.0
  0
LINE
  5
C9
330
1F
100
AcDbEntity
  8
SLD-0
  6
CONTINUOUS
 62
     7
100
AcDbLine
 10
173.89190378
 20
113.3039262
 30
0.0
 11
171.89190392
 21
113.3039262
 31
0.0
  0
LINE
  5
CA
330
1F
100
AcDbEntity
  8
SLD-0
  6
CONTINUOUS
 62
     7
100
AcDbLine
 10
77.50902857
 20
142.70392442
 30
0.0
 11
114.50902857
 21
142.70392442
 31
0.0
  0
LINE
  5
CB
330
1F
100
AcDbEntity
  8
SLD-0
  6
CONTINUOUS
 62
     7
100
AcDbLine
 10
171.89190392
 20
209.10392264
 30
0.0
 11
173.89190378
 21
209.10392264
 31
0.0
  0
LINE
  5
CC
330
1F
100
AcDbEntity
  8
SLD-0
  6
CONTINUOUS
 62
     7
100
AcDbLine
 10
94.25902857
 20
161.45392442
 30
0.0
 11
97.75902857
 21
161.45392442
 31
0.0
  0
LINE
  5
CD
330
1F
100
AcDbEntity
  8
SLD-0
  6
CONTINUOUS
 62
     7
100
AcDbLine
 10
173.89190378
 20
113.3039262
 30
0.0
 11
173.89190378
 21
209.10392264
 31
0.0
  0
LINE
  5
CE
330
1F
100
AcDbEntity
  8
SLD-0
  6
CONTINUOUS
 62
     7
100
AcDbLine
 10
229.4919060148
 20
107.4039246886
 30
0.0
 11
229.4919060148
 21
114.4039241575
 31
0.0
  0
LINE
  5
CF
330
1F
100
AcDbEntity
  8
SLD-0
  6
CONTINUOUS
 62
     7
100
AcDbLine
 10
231.93950253
 20
110.50392442
 30
0.0
 11
232.00257221
 21
110.5039252
 31
0.0
  0
LINE
  5
D0
330
1F
100
AcDbEntity
  8
SLD-0
  6
CONTINUOUS
 62
     7
100
AcDbLine
 10
231.9395031863
 20
109.3039243007
 30
0.0
 11
231.9485405763
 21
109.3039243007
 31
0.0
  0
LINE
  5
D1
330
1F
100
AcDbEntity
  8
SLD-0
  6
CONTINUOUS
 62
     7
100
AcDbLine
 10
231.9485398958
 20
112.5039244192
 30
0.0
 11
231.9395030358
 21
112.5039255292
 31
0.0
  0
LINE
  5
D2
330
1F
100
AcDbEntity
  8
SLD-0
  6
CONTINUOUS
 62
     7
100
AcDbLine
 10
232.00257221
 20
111.30392383
 30
0.0
 11
231.93950253
 21
111.30392442
 31
0.0
  0
LINE
  5
D3
330
1F
100
AcDbEntity
  8
SLD-0
  6
CONTINUOUS
 62
     7
100
AcDbLine
 10
229.4919060304
 20
211.5039240607
 30
0.0
 11
229.4919060304
 21
215.003923908
 31
0.0
  0
LINE
  5
D4
330
1F
100
AcDbEntity
  8
SLD-0
  6
CONTINUOUS
 62
     7
100
AcDbLine
 10
229.4919060304
 20
208.0039244207
 30
0.0
 11
229.4919060304
 21
211.5039240607
 31
0.0
  0
LINE
  5
D5
330
1F
100
AcDbEntity
  8
SLD-0
  6
CONTINUOUS
 62
     7
100
AcDbLine
 10
231.9485394367
 20
213.1039243905
 30
0.0
 11
231.9395025767
 21
213.1039252905
 31
0.0
  0
LINE
  5
D6
330
1F
100
AcDbEntity
  8
SLD-0
  6
CONTINUOUS
 62
     7
100
AcDbLine
 10
232.0025717362
 20
211.90392364
 30
0.0
 11
231.9395025662
 21
211.90392364
 31
0.0
  0
LINE
  5
D7
330
1F
100
AcDbEntity
  8
SLD-0
  6
CONTINUOUS
 62
     7
100
AcDbLine
 10
231.93950253
 20
211.10392442
 30
0.0
 11
232.00257221
 21
211.103925
 31
0.0
  0
LINE
  5
D8
330
1F
100
AcDbEntity
  8
SLD-0
  6
CONTINUOUS
 62
     7
100
AcDbLine
 10
231.9395032088
 20
209.9039242606
 30
0.0
 11
231.9485405988
 21
209.9039242606
 31
0.0
  0
LINE
  5
D9
330
1F
100
AcDbEntity
  8
SLD-0
  6
CONTINUOUS
 62
     7
100
AcDbLine
 10
228.391905595
 20
114.403924155
 30
0.0
 11
228.391905595
 21
113.903923145
 31
0.0
  0
LINE
  5
DA
330
1F
100
AcDbEntity
  8
SLD-0
  6
CONTINUOUS
 62
     7
100
AcDbLine
 10
229.391903895
 20
110.903924515
 30
0.0
 11
229.391903895
 21
107.403924875
 31
0.0
  0
LINE
  5
DB
330
1F
100
AcDbEntity
  8
SLD-0
  6
CONTINUOUS
 62
     7
100
AcDbLine
 10
229.391903895
 20
114.403924155
 30
0.0
 11
229.391903895
 21
110.903924515
 31
0.0
  0
LINE
  5
DC
330
1F
100
AcDbEntity
  8
SLD-0
  6
CONTINUOUS
 62
     7
100
AcDbLine
 10
228.391905485
 20
208.503925575
 30
0.0
 11
228.391905485
 21
208.003924555
 31
0.0
  0
LINE
  5
DD
330
1F
100
AcDbEntity
  8
SLD-0
  6
CONTINUOUS
 62
     7
100
AcDbLine
 10
229.391903785
 20
215.003923835
 30
0.0
 11
229.391903785
 21
208.003924555
 31
0.0
  0
LINE
  5
DE
330
1F
100
AcDbEntity
  8
SLD-0
  6
CONTINUOUS
 62
     7
100
AcDbLine
 10
222.19190473
 20
214.60392464
 30
0.0
 11
222.19190473
 21
213.50392464
 31
0.0
  0
LINE
  5
DF
330
1F
100
AcDbEntity
  8
SLD-0
  6
CONTINUOUS
 62
     7
100
AcDbLine
 10
201.09190332
 20
214.60392464
 30
0.0
 11
222.19190473
 21
214.60392464
 31
0.0
  0
LINE
  5
E0
330
1F
100
AcDbEntity
  8
SLD-0
  6
CONTINUOUS
 62
     7
100
AcDbLine
 10
201.09190332
 20
213.50392464
 30
0.0
 11
201.09190332
 21
214.60392464
 31
0.0
  0
LINE
  5
E1
330
1F
100
AcDbEntity
  8
SLD-0
  6
CONTINUOUS
 62
     7
100
AcDbLine
 10
199.49190386
 20
214.60392464
 30
0.0
 11
199.49190386
 21
213.50392464
 31
0.0
  0
LINE
  5
E2
330
1F
100
AcDbEntity
  8
SLD-0
  6
CONTINUOUS
 62
     7
100
AcDbLine
 10
222.19190473
 20
216.20392533
 30
0.0
 11
201.09190398
 21
216.2039241
 31
0.0
  0
LINE
  5
E3
330
1F
100
AcDbEntity
  8
SLD-0
  6
CONTINUOUS
 62
     7
100
AcDbLine
 10
223.79190717
 20
213.50392464
 30
0.0
 11
223.79190542
 21
214.60392442
 31
0.0
  0
LINE
  5
E4
330
1F
100
AcDbEntity
  8
SLD-0
  6
CONTINUOUS
 62
     7
100
AcDbLine
 10
199.49190398
 20
107.80392442
 30
0.0
 11
199.49190417
 21
108.90392419
 31
0.0
  0
LINE
  5
E5
330
1F
100
AcDbEntity
  8
SLD-0
  6
CONTINUOUS
 62
     7
100
AcDbLine
 10
201.09190332
 20
108.90392419
 30
0.0
 11
201.09190398
 21
107.80392442
 31
0.0
  0
LINE
  5
E6
330
1F
100
AcDbEntity
  8
SLD-0
  6
CONTINUOUS
 62
     7
100
AcDbLine
 10
201.09190398
 20
107.80392442
 30
0.0
 11
222.19190473
 21
107.8039242
 31
0.0
  0
LINE
  5
E7
330
1F
100
AcDbEntity
  8
SLD-0
  6
CONTINUOUS
 62
     7
100
AcDbLine
 10
222.19190473
 20
107.8039242
 30
0.0
 11
222.19190473
 21
108.90392419
 31
0.0
  0
LINE
  5
E8
330
1F
100
AcDbEntity
  8
SLD-0
  6
CONTINUOUS
 62
     7
100
AcDbLine
 10
222.19190473
 20
106.20392319
 30
0.0
 11
201.09190398
 21
106.20392442
 31
0.0
  0
LINE
  5
E9
330
1F
100
AcDbEntity
  8
SLD-0
  6
CONTINUOUS
 62
     7
100
AcDbLine
 10
223.79190749
 20
108.90392419
 30
0.0
 11
223.79190574
 21
107.80392442
 31
0.0
  0
LINE
  5
EA
330
1F
100
AcDbEntity
  8
SLD-0
  6
CONTINUOUS
 62
     7
100
AcDbLine
 10
227.191903905
 20
115.103924835
 30
0.0
 11
227.191903905
 21
113.903923145
 31
0.0
  0
LINE
  5
EB
330
1F
100
AcDbEntity
  8
SLD-0
  6
CONTINUOUS
 62
     7
100
AcDbLine
 10
179.191904305
 20
108.903924305
 30
0.0
 11
225.191903465
 21
108.903924305
 31
0.0
  0
LINE
  5
EC
330
1F
100
AcDbEntity
  8
SLD-0
  6
CONTINUOUS
 62
     7
100
AcDbLine
 10
177.19190398
 20
110.90392442
 30
0.0
 11
177.1919037744
 21
115.20382522
 31
0.0
  0
LINE
  5
ED
330
1F
100
AcDbEntity
  8
SLD-0
  6
CONTINUOUS
 62
     7
100
AcDbLine
 10
227.191904205
 20
110.903924415
 30
0.0
 11
227.191903905
 21
113.903923145
 31
0.0
  0
LINE
  5
EE
330
1F
100
AcDbEntity
  8
SLD-0
  6
CONTINUOUS
 62
     7
100
AcDbLine
 10
227.191903905
 20
109.903926215
 30
0.0
 11
227.191904205
 21
110.903924415
 31
0.0
  0
LINE
  5
EF
330
1F
100
AcDbEntity
  8
SLD-0
  6
CONTINUOUS
 62
     7
100
AcDbLine
 10
228.391905595
 20
113.903923145
 30
0.0
 11
228.391905595
 21
109.903926215
 31
0.0
  0
LINE
  5
F0
330
1F
100
AcDbEntity
  8
SLD-0
  6
CONTINUOUS
 62
     7
100
AcDbLine
 10
228.391905595
 20
106.903923865
 30
0.0
 11
227.191903905
 21
106.903923865
 31
0.0
  0
LINE
  5
F1
330
1F
100
AcDbEntity
  8
SLD-0
  6
CONTINUOUS
 62
     7
100
AcDbLine
 10
227.191903905
 20
106.903923865
 30
0.0
 11
227.191903905
 21
109.903926215
 31
0.0
  0
LINE
  5
F2
330
1F
100
AcDbEntity
  8
SLD-0
  6
CONTINUOUS
 62
     7
100
AcDbLine
 10
228.391905595
 20
109.903926215
 30
0.0
 11
228.391905595
 21
106.903923865
 31
0.0
  0
LINE
  5
F3
330
1F
100
AcDbEntity
  8
SLD-0
  6
CONTINUOUS
 62
     7
100
AcDbLine
 10
179.19190398
 20
213.50392442
 30
0.0
 11
225.19190336
 21
213.50392442
 31
0.0
  0
LINE
  5
F4
330
1F
100
AcDbEntity
  8
SLD-0
  6
CONTINUOUS
 62
     7
100
AcDbLine
 10
227.191903795
 20
208.503925575
 30
0.0
 11
227.191904095
 21
211.503924305
 31
0.0
  0
LINE
  5
F5
330
1F
100
AcDbEntity
  8
SLD-0
  6
CONTINUOUS
 62
     7
100
AcDbLine
 10
177.1919037744
 20
207.20402006
 30
0.0
 11
177.19190398
 21
211.50392442
 31
0.0
  0
LINE
  5
F6
330
1F
100
AcDbEntity
  8
SLD-0
  6
CONTINUOUS
 62
     7
100
AcDbLine
 10
227.191903795
 20
208.503925575
 30
0.0
 11
227.191903795
 21
207.303923885
 31
0.0
  0
LINE
  5
F7
330
1F
100
AcDbEntity
  8
SLD-0
  6
CONTINUOUS
 62
     7
100
AcDbLine
 10
227.191903795
 20
212.503922505
 30
0.0
 11
227.191904095
 21
211.503924305
 31
0.0
  0
LINE
  5
F8
330
1F
100
AcDbEntity
  8
SLD-0
  6
CONTINUOUS
 62
     7
100
AcDbLine
 10
228.391905485
 20
208.503925575
 30
0.0
 11
228.391905485
 21
212.503922505
 31
0.0
  0
LINE
  5
F9
330
1F
100
AcDbEntity
  8
SLD-0
  6
CONTINUOUS
 62
     7
100
AcDbLine
 10
227.191903795
 20
212.503922505
 30
0.0
 11
227.191903795
 21
215.503924845
 31
0.0
  0
LINE
  5
FA
330
1F
100
AcDbEntity
  8
SLD-0
  6
CONTINUOUS
 62
     7
100
AcDbLine
 10
227.191903795
 20
215.503924845
 30
0.0
 11
228.391905485
 21
215.503924845
 31
0.0
  0
LINE
  5
FB
330
1F
100
AcDbEntity
  8
SLD-0
  6
CONTINUOUS
 62
     7
100
AcDbLine
 10
228.391905485
 20
215.503924845
 30
0.0
 11
228.391905485
 21
212.503922505
 31
0.0
  0
LINE
  5
FC
330
1F
100
AcDbEntity
  8
SLD-0
  6
CONTINUOUS
 62
     7
100
AcDbLine
 10
261.2919027109
 20
122.4039229087
 30
0.0
 11
259.0365151109
 21
116.4496982887
 31
0.0
  0
LINE
  5
FD
330
1F
100
AcDbEntity
  8
SLD-0
  6
CONTINUOUS
 62
     7
100
AcDbLine
 10
258.1013555
 20
115.80392442
 30
0.0
 11
254.29190317
 21
115.80392331
 31
0.0
  0
LINE
  5
FE
330
1F
100
AcDbEntity
  8
SLD-0
  6
CONTINUOUS
 62
     7
100
AcDbLine
 10
258.10135523
 20
206.60392553
 30
0.0
 11
254.29190317
 21
206.60392553
 31
0.0
  0
LINE
  5
FF
330
1F
100
AcDbEntity
  8
SLD-0
  6
CONTINUOUS
 62
     7
100
AcDbLine
 10
261.2919029811
 20
200.0039263215
 30
0.0
 11
259.0365154611
 21
205.9581522315
 31
0.0
  0
LINE
  5
100
330
1F
100
AcDbEntity
  8
SLD-0
  6
CONTINUOUS
 62
     7
100
AcDbLine
 10
261.89190516
 20
161.7139244
 30
0.0
 11
269.89190392
 21
161.7139244
 31
0.0
  0
LINE
  5
101
330
1F
100
AcDbEntity
  8
SLD-0
  6
CONTINUOUS
 62
     7
100
AcDbLine
 10
261.89190516
 20
160.69392444
 30
0.0
 11
269.89190392
 21
160.69392444
 31
0.0
  0
LINE
  5
102
330
1F
100
AcDbEntity
  8
SLD-0
  6
CONTINUOUS
 62
     7
100
AcDbLine
 10
261.89190516
 20
154.0939243
 30
0.0
 11
269.89190392
 21
154.0939243
 31
0.0
  0
LINE
  5
103
330
1F
100
AcDbEntity
  8
SLD-0
  6
CONTINUOUS
 62
     7
100
AcDbLine
 10
261.89190516
 20
153.07392445
 30
0.0
 11
269.89190392
 21
153.07392445
 31
0.0
  0
LINE
  5
104
330
1F
100
AcDbEntity
  8
SLD-0
  6
CONTINUOUS
 62
     7
100
AcDbLine
 10
261.89190516
 20
168.31392454
 30
0.0
 11
269.89190392
 21
168.31392454
 31
0.0
  0
LINE
  5
105
330
1F
100
AcDbEntity
  8
SLD-0
  6
CONTINUOUS
 62
     7
100
AcDbLine
 10
261.89190516
 20
169.33392439
 30
0.0
 11
269.89190392
 21
169.33392439
 31
0.0
  0
LINE
  5
106
330
1F
100
AcDbEntity
  8
SLD-0
  6
CONTINUOUS
 62
     7
100
AcDbLine
 10
261.89190516
 20
146.47392448
 30
0.0
 11
269.89190392
 21
146.47392448
 31
0.0
  0
LINE
  5
107
330
1F
100
AcDbEntity
  8
SLD-0
  6
CONTINUOUS
 62
     7
100
AcDbLine
 10
261.89190516
 20
145.45392417
 30
0.0
 11
269.89190392
 21
145.45392417
 31
0.0
  0
LINE
  5
108
330
1F
100
AcDbEntity
  8
SLD-0
  6
CONTINUOUS
 62
     7
100
AcDbLine
 10
261.89190516
 20
175.93392436
 30
0.0
 11
269.89190392
 21
175.93392436
 31
0.0
  0
LINE
  5
109
330
1F
100
AcDbEntity
  8
SLD-0
  6
CONTINUOUS
 62
     7
100
AcDbLine
 10
261.89190516
 20
176.95392467
 30
0.0
 11
269.89190392
 21
176.95392467
 31
0.0
  0
LINE
  5
10A
330
1F
100
AcDbEntity
  8
SLD-0
  6
CONTINUOUS
 62
     7
100
AcDbLine
 10
261.89190516
 20
138.8539242
 30
0.0
 11
269.89190392
 21
138.8539242
 31
0.0
  0
LINE
  5
10B
330
1F
100
AcDbEntity
  8
SLD-0
  6
CONTINUOUS
 62
     7
100
AcDbLine
 10
261.89190516
 20
137.83392482
 30
0.0
 11
269.89190392
 21
137.83392482
 31
0.0
  0
LINE
  5
10C
330
1F
100
AcDbEntity
  8
SLD-0
  6
CONTINUOUS
 62
     7
100
AcDbLine
 10
261.89190516
 20
183.55392464
 30
0.0
 11
269.89190392
 21
183.55392464
 31
0.0
  0
LINE
  5
10D
330
1F
100
AcDbEntity
  8
SLD-0
  6
CONTINUOUS
 62
     7
100
AcDbLine
 10
261.89190516
 20
184.57392402
 30
0.0
 11
269.89190392
 21
184.57392402
 31
0.0
  0
LINE
  5
10E
330
1F
100
AcDbEntity
  8
SLD-0
  6
CONTINUOUS
 62
     7
100
AcDbLine
 10
261.89190516
 20
131.23392485
 30
0.0
 11
269.89190392
 21
131.23392485
 31
0.0
  0
LINE
  5
10F
330
1F
100
AcDbEntity
  8
SLD-0
  6
CONTINUOUS
 62
     7
100
AcDbLine
 10
261.89190516
 20
130.21392361
 30
0.0
 11
269.89190392
 21
130.21392361
 31
0.0
  0
LINE
  5
110
330
1F
100
AcDbEntity
  8
SLD-0
  6
CONTINUOUS
 62
     7
100
AcDbLine
 10
261.89190516
 20
191.17392399
 30
0.0
 11
269.89190392
 21
191.17392399
 31
0.0
  0
LINE
  5
111
330
1F
100
AcDbEntity
  8
SLD-0
  6
CONTINUOUS
 62
     7
100
AcDbLine
 10
261.89190516
 20
192.19392523
 30
0.0
 11
269.89190392
 21
192.19392523
 31
0.0
  0
LINE
  5
112
330
1F
100
AcDbEntity
  8
SLD-0
  6
CONTINUOUS
 62
     7
100
AcDbLine
 10
261.89190516
 20
200.00392557
 30
0.0
 11
269.89190392
 21
200.00392557
 31
0.0
  0
LINE
  5
113
330
1F
100
AcDbEntity
  8
SLD-0
  6
CONTINUOUS
 62
     7
100
AcDbLine
 10
261.89190516
 20
198.7939252
 30
0.0
 11
269.89190392
 21
198.7939252
 31
0.0
  0
LINE
  5
114
330
1F
100
AcDbEntity
  8
SLD-0
  6
CONTINUOUS
 62
     7
100
AcDbLine
 10
269.89190392
 20
122.40392328
 30
0.0
 11
261.89190516
 21
122.40392328
 31
0.0
  0
LINE
  5
115
330
1F
100
AcDbEntity
  8
SLD-0
  6
CONTINUOUS
 62
     7
100
AcDbLine
 10
269.89190392
 20
123.61392364
 30
0.0
 11
261.89190516
 21
123.61392364
 31
0.0
  0
LINE
  5
116
330
1F
100
AcDbEntity
  8
SLD-0
  6
CONTINUOUS
 62
     7
100
AcDbLine
 10
309.19097166
 20
144.90392334
 30
0.0
 11
309.19097166
 21
139.40392337
 31
0.0
  0
LINE
  5
117
330
1F
100
AcDbEntity
  8
SLD-0
  6
CONTINUOUS
 62
     7
100
AcDbLine
 10
309.19097166
 20
139.40392337
 30
0.0
 11
316.69097195
 21
139.40392337
 31
0.0
  0
LINE
  5
118
330
1F
100
AcDbEntity
  8
SLD-0
  6
CONTINUOUS
 62
     7
100
AcDbLine
 10
316.69097195
 20
139.40392337
 30
0.0
 11
316.69097195
 21
144.90392334
 31
0.0
  0
LINE
  5
119
330
1F
100
AcDbEntity
  8
SLD-0
  6
CONTINUOUS
 62
     7
100
AcDbLine
 10
316.69097195
 20
144.90392334
 30
0.0
 11
309.19097166
 21
144.90392334
 31
0.0
  0
LINE
  5
11A
330
1F
100
AcDbEntity
  8
SLD-0
  6
CONTINUOUS
 62
     7
100
AcDbLine
 10
392.7909712
 20
139.40392337
 30
0.0
 11
392.7909712
 21
144.90392334
 31
0.0
  0
LINE
  5
11B
330
1F
100
AcDbEntity
  8
SLD-0
  6
CONTINUOUS
 62
     7
100
AcDbLine
 10
392.7909712
 20
144.90392334
 30
0.0
 11
385.2909709
 21
144.90392334
 31
0.0
  0
LINE
  5
11C
330
1F
100
AcDbEntity
  8
SLD-0
  6
CONTINUOUS
 62
     7
100
AcDbLine
 10
385.2909709
 20
144.90392334
 30
0.0
 11
385.2909709
 21
139.40392337
 31
0.0
  0
LINE
  5
11D
330
1F
100
AcDbEntity
  8
SLD-0
  6
CONTINUOUS
 62
     7
100
AcDbLine
 10
385.2909709
 20
139.40392337
 30
0.0
 11
392.7909712
 21
139.40392337
 31
0.0
  0
LINE
  5
11E
330
1F
100
AcDbEntity
  8
SLD-0
  6
CONTINUOUS
 62
     7
100
AcDbLine
 10
309.19097166
 20
137.28392334
 30
0.0
 11
309.19097166
 21
131.78392337
 31
0.0
  0
LINE
  5
11F
330
1F
100
AcDbEntity
  8
SLD-0
  6
CONTINUOUS
 62
     7
100
AcDbLine
 10
309.19097166
 20
131.78392337
 30
0.0
 11
316.69097195
 21
131.78392337
 31
0.0
  0
LINE
  5
120
330
1F
100
AcDbEntity
  8
SLD-0
  6
CONTINUOUS
 62
     7
100
AcDbLine
 10
316.69097195
 20
131.78392337
 30
0.0
 11
316.69097195
 21
137.28392334
 31
0.0
  0
LINE
  5
121
330
1F
100
AcDbEntity
  8
SLD-0
  6
CONTINUOUS
 62
     7
100
AcDbLine
 10
316.69097195
 20
137.28392334
 30
0.0
 11
309.19097166
 21
137.28392334
 31
0.0
  0
LINE
  5
122
330
1F
100
AcDbEntity
  8
SLD-0
  6
CONTINUOUS
 62
     7
100
AcDbLine
 10
392.7909712
 20
131.78392337
 30
0.0
 11
392.7909712
 21
137.28392334
 31
0.0
  0
LINE
  5
123
330
1F
100
AcDbEntity
  8
SLD-0
  6
CONTINUOUS
 62
     7
100
AcDbLine
 10
392.7909712
 20
137.28392334
 30
0.0
 11
385.2909709
 21
137.28392334
 31
0.0
  0
LINE
  5
124
330
1F
100
AcDbEntity
  8
SLD-0
  6
CONTINUOUS
 62
     7
100
AcDbLine
 10
385.2909709
 20
137.28392334
 30
0.0
 11
385.2909709
 21
131.78392337
 31
0.0
  0
LINE
  5
125
330
1F
100
AcDbEntity
  8
SLD-0
  6
CONTINUOUS
 62
     7
100
AcDbLine
 10
385.2909709
 20
131.78392337
 30
0.0
 11
392.7909712
 21
131.78392337
 31
0.0
  0
LINE
  5
126
330
1F
100
AcDbEntity
  8
SLD-0
  6
CONTINUOUS
 62
     7
100
AcDbLine
 10
309.19097166
 20
129.66392334
 30
0.0
 11
309.19097166
 21
124.16392337
 31
0.0
  0
LINE
  5
127
330
1F
100
AcDbEntity
  8
SLD-0
  6
CONTINUOUS
 62
     7
100
AcDbLine
 10
309.19097166
 20
124.16392337
 30
0.0
 11
316.69097195
 21
124.16392337
 31
0.0
  0
LINE
  5
128
330
1F
100
AcDbEntity
  8
SLD-0
  6
CONTINUOUS
 62
     7
100
AcDbLine
 10
316.69097195
 20
124.16392337
 30
0.0
 11
316.69097195
 21
129.66392334
 31
0.0
  0
LINE
  5
129
330
1F
100
AcDbEntity
  8
SLD-0
  6
CONTINUOUS
 62
     7
100
AcDbLine
 10
316.69097195
 20
129.66392334
 30
0.0
 11
309.19097166
 21
129.66392334
 31
0.0
  0
LINE
  5
12A
330
1F
100
AcDbEntity
  8
SLD-0
  6
CONTINUOUS
 62
     7
100
AcDbLine
 10
392.7909712
 20
124.16392337
 30
0.0
 11
392.7909712
 21
129.66392334
 31
0.0
  0
LINE
  5
12B
330
1F
100
AcDbEntity
  8
SLD-0
  6
CONTINUOUS
 62
     7
100
AcDbLine
 10
392.7909712
 20
129.66392334
 30
0.0
 11
385.2909709
 21
129.66392334
 31
0.0
  0
LINE
  5
12C
330
1F
100
AcDbEntity
  8
SLD-0
  6
CONTINUOUS
 62
     7
100
AcDbLine
 10
385.2909709
 20
129.66392334
 30
0.0
 11
385.2909709
 21
124.16392337
 31
0.0
  0
LINE
  5
12D
330
1F
100
AcDbEntity
  8
SLD-0
  6
CONTINUOUS
 62
     7
100
AcDbLine
 10
385.2909709
 20
124.16392337
 30
0.0
 11
392.7909712
 21
124.16392337
 31
0.0
  0
LINE
  5
12E
330
1F
100
AcDbEntity
  8
SLD-0
  6
CONTINUOUS
 62
     7
100
AcDbLine
 10
253.29190115
 20
200.00392557
 30
0.0
 11
261.89190516
 21
200.00392557
 31
0.0
  0
LINE
  5
12F
330
1F
100
AcDbEntity
  8
SLD-0
  6
CONTINUOUS
 62
     7
100
AcDbLine
 10
261.89190516
 20
200.00392557
 30
0.0
 11
261.89190516
 21
122.40392328
 31
0.0
  0
LINE
  5
130
330
1F
100
AcDbEntity
  8
SLD-0
  6
CONTINUOUS
 62
     7
100
AcDbLine
 10
253.29190115
 20
122.40392328
 30
0.0
 11
261.89190516
 21
122.40392328
 31
0.0
  0
LINE
  5
131
330
1F
100
AcDbEntity
  8
SLD-0
  6
CONTINUOUS
 62
     7
100
AcDbLine
 10
253.29190115
 20
200.00392557
 30
0.0
 11
253.29190115
 21
122.40392328
 31
0.0
  0
LINE
  5
132
330
1F
100
AcDbEntity
  8
SLD-0
  6
CONTINUOUS
 62
     7
100
AcDbLine
 10
253.29190115
 20
122.40392328
 30
0.0
 11
252.29190657
 21
122.40392328
 31
0.0
  0
LINE
  5
133
330
1F
100
AcDbEntity
  8
SLD-0
  6
CONTINUOUS
 62
     7
100
AcDbLine
 10
252.29190657
 20
200.00392557
 30
0.0
 11
252.29190657
 21
122.40392328
 31
0.0
  0
LINE
  5
134
330
1F
100
AcDbEntity
  8
SLD-0
  6
CONTINUOUS
 62
     7
100
AcDbLine
 10
252.29190657
 20
200.00392557
 30
0.0
 11
253.29190115
 21
200.00392557
 31
0.0
  0
LINE
  5
135
330
1F
100
AcDbEntity
  8
SLD-0
  6
CONTINUOUS
 62
     7
100
AcDbLine
 10
252.29190657
 20
122.40392328
 30
0.0
 11
247.29190389
 21
122.40392328
 31
0.0
  0
LINE
  5
136
330
1F
100
AcDbEntity
  8
SLD-0
  6
CONTINUOUS
 62
     7
100
AcDbLine
 10
247.29190389
 20
200.00392557
 30
0.0
 11
252.29190657
 21
200.00392557
 31
0.0
  0
LINE
  5
137
330
1F
100
AcDbEntity
  8
SLD-0
  6
CONTINUOUS
 62
     7
100
AcDbLine
 10
254.2919031684
 20
200.0039259776
 30
0.0
 11
252.0365149484
 21
205.9581518976
 31
0.0
  0
LINE
  5
138
330
1F
100
AcDbEntity
  8
SLD-0
  6
CONTINUOUS
 62
     7
100
AcDbLine
 10
247.29190389
 20
206.60392595
 30
0.0
 11
251.1013555
 21
206.60392484
 31
0.0
  0
LINE
  5
139
330
1F
100
AcDbEntity
  8
SLD-0
  6
CONTINUOUS
 62
     7
100
AcDbLine
 10
251.1013554973
 20
115.803924424
 30
0.0
 11
247.2919038873
 21
115.803923314
 31
0.0
  0
LINE
  5
13A
330
1F
100
AcDbEntity
  8
SLD-0
  6
CONTINUOUS
 62
     7
100
AcDbLine
 10
254.29190317
 20
122.40392328
 30
0.0
 11
252.03651494
 21
116.44969736
 31
0.0
  0
LINE
  5
13B
330
1F
100
AcDbEntity
  8
SLD-0
  6
CONTINUOUS
 62
     7
100
AcDbLine
 10
116.00902857
 20
144.20392442
 30
0.0
 11
116.00902857
 21
156.20392442
 31
0.0
  0
LINE
  5
13C
330
1F
100
AcDbEntity
  8
SLD-0
  6
CONTINUOUS
 62
     7
100
AcDbLine
 10
171.89190392
 20
113.20392449
 30
0.0
 11
171.89190392
 21
209.20392435
 31
0.0
  0
LINE
  5
13D
330
1F
100
AcDbEntity
  8
SLD-0
  6
CONTINUOUS
 62
     7
100
AcDbLine
 10
173.89190378
 20
207.20402006
 30
0.0
 11
247.29190389
 21
207.20402006
 31
0.0
  0
LINE
  5
13E
330
1F
100
AcDbEntity
  8
SLD-0
  6
CONTINUOUS
 62
     7
100
AcDbLine
 10
247.29190389
 20
115.20382522
 30
0.0
 11
173.89190349
 21
115.20382522
 31
0.0
  0
LINE
  5
13F
330
1F
100
AcDbEntity
  8
SLD-0
  6
CONTINUOUS
 62
     7
100
AcDbLine
 10
247.29190389
 20
115.20382522
 30
0.0
 11
247.29190389
 21
207.20402006
 31
0.0
  0
LINE
  5
140
330
1F
100
AcDbEntity
  8
SLD-0
  6
CONTINUOUS
 62
     7
100
AcDbLine
 10
254.2919031684
 20
206.9539244176
 30
0.0
 11
254.2919031684
 21
200.0039259776
 31
0.0
  0
LINE
  5
141
330
1F
100
AcDbEntity
  8
SLD-0
  6
CONTINUOUS
 62
     7
100
AcDbLine
 10
254.29190317
 20
122.40392328
 30
0.0
 11
254.29190317
 21
115.45392484
 31
0.0
  0
LINE
  5
142
330
1F
100
AcDbEntity
  8
SLD-0
  6
CONTINUOUS
 62
     7
100
AcDbLine
 10
247.29190389
 20
115.45392484
 30
0.0
 11
254.29190317
 21
115.45392484
 31
0.0
  0
LINE
  5
143
330
1F
100
AcDbEntity
  8
SLD-0
  6
CONTINUOUS
 62
     7
100
AcDbLine
 10
254.2919031684
 20
206.9539244176
 30
0.0
 11
247.2919038884
 21
206.9539244176
 31
0.0
  0
LINE
  5
144
330
1F
100
AcDbEntity
  8
SLD-0
  6
CONTINUOUS
 62
     7
100
AcDbLine
 10
302.99097143
 20
115.203924235
 30
0.0
 11
302.99097143
 21
207.203924185
 31
0.0
  0
LINE
  5
145
330
1F
100
AcDbEntity
  8
SLD-0
  6
CONTINUOUS
 62
     7
100
AcDbLine
 10
398.99097143
 20
207.203924185
 30
0.0
 11
398.99097143
 21
115.203924235
 31
0.0
  0
LINE
  5
146
330
1F
100
AcDbEntity
  8
SLD-0
  6
CONTINUOUS
 62
     7
100
AcDbLine
 10
307.79097031
 20
123.61392364
 30
0.0
 11
307.79097031
 21
130.21392361
 31
0.0
  0
LINE
  5
147
330
1F
100
AcDbEntity
  8
SLD-0
  6
CONTINUOUS
 62
     7
100
AcDbLine
 10
306.69097031
 20
122.40392328
 30
0.0
 11
317.39097263
 21
122.40392328
 31
0.0
  0
LINE
  5
148
330
1F
100
AcDbEntity
  8
SLD-0
  6
CONTINUOUS
 62
     7
100
AcDbLine
 10
306.69097031
 20
200.00392557
 30
0.0
 11
306.69097031
 21
122.40392328
 31
0.0
  0
LINE
  5
149
330
1F
100
AcDbEntity
  8
SLD-0
  6
CONTINUOUS
 62
     7
100
AcDbLine
 10
306.69097031
 20
200.00392557
 30
0.0
 11
317.39097263
 21
200.00392557
 31
0.0
  0
LINE
  5
14A
330
1F
100
AcDbEntity
  8
SLD-0
  6
CONTINUOUS
 62
     7
100
AcDbLine
 10
307.79097031
 20
198.7939252
 30
0.0
 11
317.39097263
 21
198.7939252
 31
0.0
  0
LINE
  5
14B
330
1F
100
AcDbEntity
  8
SLD-0
  6
CONTINUOUS
 62
     7
100
AcDbLine
 10
307.79097031
 20
192.19392523
 30
0.0
 11
307.79097031
 21
198.7939252
 31
0.0
  0
LINE
  5
14C
330
1F
100
AcDbEntity
  8
SLD-0
  6
CONTINUOUS
 62
     7
100
AcDbLine
 10
317.39097263
 20
192.19392523
 30
0.0
 11
307.79097031
 21
192.19392523
 31
0.0
  0
LINE
  5
14D
330
1F
100
AcDbEntity
  8
SLD-0
  6
CONTINUOUS
 62
     7
100
AcDbLine
 10
307.79097031
 20
191.17392399
 30
0.0
 11
317.39097263
 21
191.17392399
 31
0.0
  0
LINE
  5
14E
330
1F
100
AcDbEntity
  8
SLD-0
  6
CONTINUOUS
 62
     7
100
AcDbLine
 10
307.79097031
 20
184.57392402
 30
0.0
 11
307.79097031
 21
191.17392399
 31
0.0
  0
LINE
  5
14F
330
1F
100
AcDbEntity
  8
SLD-0
  6
CONTINUOUS
 62
     7
100
AcDbLine
 10
317.39097263
 20
184.57392402
 30
0.0
 11
307.79097031
 21
184.57392402
 31
0.0
  0
LINE
  5
150
330
1F
100
AcDbEntity
  8
SLD-0
  6
CONTINUOUS
 62
     7
100
AcDbLine
 10
307.79097031
 20
183.55392464
 30
0.0
 11
317.39097263
 21
183.55392464
 31
0.0
  0
LINE
  5
151
330
1F
100
AcDbEntity
  8
SLD-0
  6
CONTINUOUS
 62
     7
100
AcDbLine
 10
307.79097031
 20
176.95392467
 30
0.0
 11
307.79097031
 21
183.55392464
 31
0.0
  0
LINE
  5
152
330
1F
100
AcDbEntity
  8
SLD-0
  6
CONTINUOUS
 62
     7
100
AcDbLine
 10
317.39097263
 20
176.95392467
 30
0.0
 11
307.79097031
 21
176.95392467
 31
0.0
  0
LINE
  5
153
330
1F
100
AcDbEntity
  8
SLD-0
  6
CONTINUOUS
 62
     7
100
AcDbLine
 10
307.79097031
 20
175.93392436
 30
0.0
 11
317.39097263
 21
175.93392436
 31
0.0
  0
LINE
  5
154
330
1F
100
AcDbEntity
  8
SLD-0
  6
CONTINUOUS
 62
     7
100
AcDbLine
 10
307.79097031
 20
169.33392439
 30
0.0
 11
307.79097031
 21
175.93392436
 31
0.0
  0
LINE
  5
155
330
1F
100
AcDbEntity
  8
SLD-0
  6
CONTINUOUS
 62
     7
100
AcDbLine
 10
317.39097263
 20
169.33392439
 30
0.0
 11
307.79097031
 21
169.33392439
 31
0.0
  0
LINE
  5
156
330
1F
100
AcDbEntity
  8
SLD-0
  6
CONTINUOUS
 62
     7
100
AcDbLine
 10
307.79097031
 20
168.31392454
 30
0.0
 11
317.39097263
 21
168.31392454
 31
0.0
  0
LINE
  5
157
330
1F
100
AcDbEntity
  8
SLD-0
  6
CONTINUOUS
 62
     7
100
AcDbLine
 10
307.79097031
 20
161.7139244
 30
0.0
 11
307.79097031
 21
168.31392454
 31
0.0
  0
LINE
  5
158
330
1F
100
AcDbEntity
  8
SLD-0
  6
CONTINUOUS
 62
     7
100
AcDbLine
 10
317.39097263
 20
161.7139244
 30
0.0
 11
307.79097031
 21
161.7139244
 31
0.0
  0
LINE
  5
159
330
1F
100
AcDbEntity
  8
SLD-0
  6
CONTINUOUS
 62
     7
100
AcDbLine
 10
307.79097031
 20
160.69392444
 30
0.0
 11
317.39097263
 21
160.69392444
 31
0.0
  0
LINE
  5
15A
330
1F
100
AcDbEntity
  8
SLD-0
  6
CONTINUOUS
 62
     7
100
AcDbLine
 10
307.79097031
 20
154.0939243
 30
0.0
 11
307.79097031
 21
160.69392444
 31
0.0
  0
LINE
  5
15B
330
1F
100
AcDbEntity
  8
SLD-0
  6
CONTINUOUS
 62
     7
100
AcDbLine
 10
317.39097263
 20
154.0939243
 30
0.0
 11
307.79097031
 21
154.0939243
 31
0.0
  0
LINE
  5
15C
330
1F
100
AcDbEntity
  8
SLD-0
  6
CONTINUOUS
 62
     7
100
AcDbLine
 10
307.79097031
 20
153.07392445
 30
0.0
 11
317.39097263
 21
153.07392445
 31
0.0
  0
LINE
  5
15D
330
1F
100
AcDbEntity
  8
SLD-0
  6
CONTINUOUS
 62
     7
100
AcDbLine
 10
307.79097031
 20
146.47392448
 30
0.0
 11
307.79097031
 21
153.07392445
 31
0.0
  0
LINE
  5
15E
330
1F
100
AcDbEntity
  8
SLD-0
  6
CONTINUOUS
 62
     7
100
AcDbLine
 10
317.39097263
 20
146.47392448
 30
0.0
 11
307.79097031
 21
146.47392448
 31
0.0
  0
LINE
  5
15F
330
1F
100
AcDbEntity
  8
SLD-0
  6
CONTINUOUS
 62
     7
100
AcDbLine
 10
307.79097031
 20
145.45392417
 30
0.0
 11
317.39097263
 21
145.45392417
 31
0.0
  0
LINE
  5
160
330
1F
100
AcDbEntity
  8
SLD-0
  6
CONTINUOUS
 62
     7
100
AcDbLine
 10
307.79097031
 20
138.8539242
 30
0.0
 11
307.79097031
 21
145.45392417
 31
0.0
  0
LINE
  5
161
330
1F
100
AcDbEntity
  8
SLD-0
  6
CONTINUOUS
 62
     7
100
AcDbLine
 10
317.39097263
 20
138.8539242
 30
0.0
 11
307.79097031
 21
138.8539242
 31
0.0
  0
LINE
  5
162
330
1F
100
AcDbEntity
  8
SLD-0
  6
CONTINUOUS
 62
     7
100
AcDbLine
 10
307.79097031
 20
137.83392482
 30
0.0
 11
317.39097263
 21
137.83392482
 31
0.0
  0
LINE
  5
163
330
1F
100
AcDbEntity
  8
SLD-0
  6
CONTINUOUS
 62
     7
100
AcDbLine
 10
307.79097031
 20
131.23392485
 30
0.0
 11
307.79097031
 21
137.83392482
 31
0.0
  0
LINE
  5
164
330
1F
100
AcDbEntity
  8
SLD-0
  6
CONTINUOUS
 62
     7
100
AcDbLine
 10
317.39097263
 20
131.23392485
 30
0.0
 11
307.79097031
 21
131.23392485
 31
0.0
  0
LINE
  5
165
330
1F
100
AcDbEntity
  8
SLD-0
  6
CONTINUOUS
 62
     7
100
AcDbLine
 10
307.79097031
 20
130.21392361
 30
0.0
 11
317.39097263
 21
130.21392361
 31
0.0
  0
LINE
  5
166
330
1F
100
AcDbEntity
  8
SLD-0
  6
CONTINUOUS
 62
     7
100
AcDbLine
 10
317.39097263
 20
123.61392364
 30
0.0
 11
307.79097031
 21
123.61392364
 31
0.0
  0
LINE
  5
167
330
1F
100
AcDbEntity
  8
SLD-0
  6
CONTINUOUS
 62
     7
100
AcDbLine
 10
318.39097093
 20
192.19392523
 30
0.0
 11
318.39097093
 21
191.17392399
 31
0.0
  0
LINE
  5
168
330
1F
100
AcDbEntity
  8
SLD-0
  6
CONTINUOUS
 62
     7
100
AcDbLine
 10
318.39097093
 20
192.19392523
 30
0.0
 11
317.39097263
 21
192.19392523
 31
0.0
  0
LINE
  5
169
330
1F
100
AcDbEntity
  8
SLD-0
  6
CONTINUOUS
 62
     7
100
AcDbLine
 10
318.39097093
 20
191.17392399
 30
0.0
 11
317.39097263
 21
191.17392399
 31
0.0
  0
LINE
  5
16A
330
1F
100
AcDbEntity
  8
SLD-0
  6
CONTINUOUS
 62
     7
100
AcDbLine
 10
318.39097093
 20
123.61392364
 30
0.0
 11
318.39097093
 21
122.40392328
 31
0.0
  0
LINE
  5
16B
330
1F
100
AcDbEntity
  8
SLD-0
  6
CONTINUOUS
 62
     7
100
AcDbLine
 10
318.39097093
 20
122.40392328
 30
0.0
 11
317.39097263
 21
122.40392328
 31
0.0
  0
LINE
  5
16C
330
1F
100
AcDbEntity
  8
SLD-0
  6
CONTINUOUS
 62
     7
100
AcDbLine
 10
318.39097093
 20
123.61392364
 30
0.0
 11
317.39097263
 21
123.61392364
 31
0.0
  0
LINE
  5
16D
330
1F
100
AcDbEntity
  8
SLD-0
  6
CONTINUOUS
 62
     7
100
AcDbLine
 10
318.39097093
 20
131.23392485
 30
0.0
 11
318.39097093
 21
130.21392361
 31
0.0
  0
LINE
  5
16E
330
1F
100
AcDbEntity
  8
SLD-0
  6
CONTINUOUS
 62
     7
100
AcDbLine
 10
318.39097093
 20
130.21392361
 30
0.0
 11
317.39097263
 21
130.21392361
 31
0.0
  0
LINE
  5
16F
330
1F
100
AcDbEntity
  8
SLD-0
  6
CONTINUOUS
 62
     7
100
AcDbLine
 10
317.39097263
 20
131.23392485
 30
0.0
 11
318.39097093
 21
131.23392485
 31
0.0
  0
LINE
  5
170
330
1F
100
AcDbEntity
  8
SLD-0
  6
CONTINUOUS
 62
     7
100
AcDbLine
 10
318.39097093
 20
154.0939243
 30
0.0
 11
318.39097093
 21
153.07392445
 31
0.0
  0
LINE
  5
171
330
1F
100
AcDbEntity
  8
SLD-0
  6
CONTINUOUS
 62
     7
100
AcDbLine
 10
318.39097093
 20
153.07392445
 30
0.0
 11
317.39097263
 21
153.07392445
 31
0.0
  0
LINE
  5
172
330
1F
100
AcDbEntity
  8
SLD-0
  6
CONTINUOUS
 62
     7
100
AcDbLine
 10
318.39097093
 20
154.0939243
 30
0.0
 11
317.39097263
 21
154.0939243
 31
0.0
  0
LINE
  5
173
330
1F
100
AcDbEntity
  8
SLD-0
  6
CONTINUOUS
 62
     7
100
AcDbLine
 10
318.39097093
 20
200.00392557
 30
0.0
 11
318.39097093
 21
198.7939252
 31
0.0
  0
LINE
  5
174
330
1F
100
AcDbEntity
  8
SLD-0
  6
CONTINUOUS
 62
     7
100
AcDbLine
 10
317.39097263
 20
200.00392557
 30
0.0
 11
318.39097093
 21
200.00392557
 31
0.0
  0
LINE
  5
175
330
1F
100
AcDbEntity
  8
SLD-0
  6
CONTINUOUS
 62
     7
100
AcDbLine
 10
318.39097093
 20
198.7939252
 30
0.0
 11
317.39097263
 21
198.7939252
 31
0.0
  0
LINE
  5
176
330
1F
100
AcDbEntity
  8
SLD-0
  6
CONTINUOUS
 62
     7
100
AcDbLine
 10
318.39097093
 20
146.47392448
 30
0.0
 11
318.39097093
 21
145.45392417
 31
0.0
  0
LINE
  5
177
330
1F
100
AcDbEntity
  8
SLD-0
  6
CONTINUOUS
 62
     7
100
AcDbLine
 10
318.39097093
 20
146.47392448
 30
0.0
 11
317.39097263
 21
146.47392448
 31
0.0
  0
LINE
  5
178
330
1F
100
AcDbEntity
  8
SLD-0
  6
CONTINUOUS
 62
     7
100
AcDbLine
 10
318.39097093
 20
145.45392417
 30
0.0
 11
317.39097263
 21
145.45392417
 31
0.0
  0
LINE
  5
179
330
1F
100
AcDbEntity
  8
SLD-0
  6
CONTINUOUS
 62
     7
100
AcDbLine
 10
318.39097093
 20
176.95392467
 30
0.0
 11
318.39097093
 21
175.93392436
 31
0.0
  0
LINE
  5
17A
330
1F
100
AcDbEntity
  8
SLD-0
  6
CONTINUOUS
 62
     7
100
AcDbLine
 10
318.39097093
 20
175.93392436
 30
0.0
 11
317.39097263
 21
175.93392436
 31
0.0
  0
LINE
  5
17B
330
1F
100
AcDbEntity
  8
SLD-0
  6
CONTINUOUS
 62
     7
100
AcDbLine
 10
318.39097093
 20
176.95392467
 30
0.0
 11
317.39097263
 21
176.95392467
 31
0.0
  0
LINE
  5
17C
330
1F
100
AcDbEntity
  8
SLD-0
  6
CONTINUOUS
 62
     7
100
AcDbLine
 10
318.39097093
 20
169.33392439
 30
0.0
 11
318.39097093
 21
168.31392454
 31
0.0
  0
LINE
  5
17D
330
1F
100
AcDbEntity
  8
SLD-0
  6
CONTINUOUS
 62
     7
100
AcDbLine
 10
318.39097093
 20
169.33392439
 30
0.0
 11
317.39097263
 21
169.33392439
 31
0.0
  0
LINE
  5
17E
330
1F
100
AcDbEntity
  8
SLD-0
  6
CONTINUOUS
 62
     7
100
AcDbLine
 10
318.39097093
 20
168.31392454
 30
0.0
 11
317.39097263
 21
168.31392454
 31
0.0
  0
LINE
  5
17F
330
1F
100
AcDbEntity
  8
SLD-0
  6
CONTINUOUS
 62
     7
100
AcDbLine
 10
318.39097093
 20
161.7139244
 30
0.0
 11
318.39097093
 21
160.69392444
 31
0.0
  0
LINE
  5
180
330
1F
100
AcDbEntity
  8
SLD-0
  6
CONTINUOUS
 62
     7
100
AcDbLine
 10
318.39097093
 20
160.69392444
 30
0.0
 11
317.39097263
 21
160.69392444
 31
0.0
  0
LINE
  5
181
330
1F
100
AcDbEntity
  8
SLD-0
  6
CONTINUOUS
 62
     7
100
AcDbLine
 10
318.39097093
 20
161.7139244
 30
0.0
 11
317.39097263
 21
161.7139244
 31
0.0
  0
LINE
  5
182
330
1F
100
AcDbEntity
  8
SLD-0
  6
CONTINUOUS
 62
     7
100
AcDbLine
 10
318.39097093
 20
138.8539242
 30
0.0
 11
318.39097093
 21
137.83392482
 31
0.0
  0
LINE
  5
183
330
1F
100
AcDbEntity
  8
SLD-0
  6
CONTINUOUS
 62
     7
100
AcDbLine
 10
318.39097093
 20
138.8539242
 30
0.0
 11
317.39097263
 21
138.8539242
 31
0.0
  0
LINE
  5
184
330
1F
100
AcDbEntity
  8
SLD-0
  6
CONTINUOUS
 62
     7
100
AcDbLine
 10
318.39097093
 20
137.83392482
 30
0.0
 11
317.39097263
 21
137.83392482
 31
0.0
  0
LINE
  5
185
330
1F
100
AcDbEntity
  8
SLD-0
  6
CONTINUOUS
 62
     7
100
AcDbLine
 10
318.39097093
 20
184.57392402
 30
0.0
 11
318.39097093
 21
183.55392464
 31
0.0
  0
LINE
  5
186
330
1F
100
AcDbEntity
  8
SLD-0
  6
CONTINUOUS
 62
     7
100
AcDbLine
 10
318.39097093
 20
183.55392464
 30
0.0
 11
317.39097263
 21
183.55392464
 31
0.0
  0
LINE
  5
187
330
1F
100
AcDbEntity
  8
SLD-0
  6
CONTINUOUS
 62
     7
100
AcDbLine
 10
318.39097093
 20
184.57392402
 30
0.0
 11
317.39097263
 21
184.57392402
 31
0.0
  0
LINE
  5
188
330
1F
100
AcDbEntity
  8
SLD-0
  6
CONTINUOUS
 62
     7
100
AcDbLine
 10
322.49097141
 20
122.40392328
 30
0.0
 11
323.69097124
 21
122.40392328
 31
0.0
  0
LINE
  5
189
330
1F
100
AcDbEntity
  8
SLD-0
  6
CONTINUOUS
 62
     7
100
AcDbLine
 10
323.69097124
 20
123.61392364
 30
0.0
 11
323.69097124
 21
122.40392328
 31
0.0
  0
LINE
  5
18A
330
1F
100
AcDbEntity
  8
SLD-0
  6
CONTINUOUS
 62
     7
100
AcDbLine
 10
322.49097141
 20
122.40392328
 30
0.0
 11
318.39097093
 21
122.40392328
 31
0.0
  0
LINE
  5
18B
330
1F
100
AcDbEntity
  8
SLD-0
  6
CONTINUOUS
 62
     7
100
AcDbLine
 10
323.69097124
 20
123.61392364
 30
0.0
 11
318.39097093
 21
123.61392364
 31
0.0
  0
LINE
  5
18C
330
1F
100
AcDbEntity
  8
SLD-0
  6
CONTINUOUS
 62
     7
100
AcDbLine
 10
322.49097141
 20
200.00392557
 30
0.0
 11
323.69097124
 21
200.00392557
 31
0.0
  0
LINE
  5
18D
330
1F
100
AcDbEntity
  8
SLD-0
  6
CONTINUOUS
 62
     7
100
AcDbLine
 10
323.69097124
 20
198.7939252
 30
0.0
 11
323.69097124
 21
200.00392557
 31
0.0
  0
LINE
  5
18E
330
1F
100
AcDbEntity
  8
SLD-0
  6
CONTINUOUS
 62
     7
100
AcDbLine
 10
318.39097093
 20
200.00392557
 30
0.0
 11
322.49097141
 21
200.00392557
 31
0.0
  0
LINE
  5
18F
330
1F
100
AcDbEntity
  8
SLD-0
  6
CONTINUOUS
 62
     7
100
AcDbLine
 10
318.39097093
 20
198.7939252
 30
0.0
 11
323.69097124
 21
198.7939252
 31
0.0
  0
LINE
  5
190
330
1F
100
AcDbEntity
  8
SLD-0
  6
CONTINUOUS
 62
     7
100
AcDbLine
 10
322.49097141
 20
116.44969866
 30
0.0
 11
322.49097141
 21
122.40392328
 31
0.0
  0
LINE
  5
191
330
1F
100
AcDbEntity
  8
SLD-0
  6
CONTINUOUS
 62
     7
100
AcDbLine
 10
323.69097124
 20
122.40392328
 30
0.0
 11
323.69097124
 21
116.44969866
 31
0.0
  0
LINE
  5
192
330
1F
100
AcDbEntity
  8
SLD-0
  6
CONTINUOUS
 62
     7
100
AcDbLine
 10
322.49097141
 20
200.00392557
 30
0.0
 11
322.49097141
 21
205.95815018
 31
0.0
  0
LINE
  5
193
330
1F
100
AcDbEntity
  8
SLD-0
  6
CONTINUOUS
 62
     7
100
AcDbLine
 10
323.69097124
 20
200.00392557
 30
0.0
 11
323.69097124
 21
205.95815018
 31
0.0
  0
LINE
  5
194
330
1F
100
AcDbEntity
  8
SLD-0
  6
CONTINUOUS
 62
     7
100
AcDbLine
 10
311.09097029
 20
205.95815018
 30
0.0
 11
311.09097029
 21
200.00392557
 31
0.0
  0
LINE
  5
195
330
1F
100
AcDbEntity
  8
SLD-0
  6
CONTINUOUS
 62
     7
100
AcDbLine
 10
309.89097233
 20
200.00392557
 30
0.0
 11
309.89097233
 21
205.95815018
 31
0.0
  0
LINE
  5
196
330
1F
100
AcDbEntity
  8
SLD-0
  6
CONTINUOUS
 62
     7
100
AcDbLine
 10
309.89097233
 20
122.40392328
 30
0.0
 11
309.89097233
 21
115.80392331
 31
0.0
  0
LINE
  5
197
330
1F
100
AcDbEntity
  8
SLD-0
  6
CONTINUOUS
 62
     7
100
AcDbLine
 10
311.09097029
 20
116.44969866
 30
0.0
 11
311.09097029
 21
122.40392328
 31
0.0
  0
LINE
  5
198
330
1F
100
AcDbEntity
  8
SLD-0
  6
CONTINUOUS
 62
     7
100
AcDbLine
 10
309.19097166
 20
198.24392334
 30
0.0
 11
309.19097166
 21
192.74392337
 31
0.0
  0
LINE
  5
199
330
1F
100
AcDbEntity
  8
SLD-0
  6
CONTINUOUS
 62
     7
100
AcDbLine
 10
309.19097166
 20
192.74392337
 30
0.0
 11
316.69097195
 21
192.74392337
 31
0.0
  0
LINE
  5
19A
330
1F
100
AcDbEntity
  8
SLD-0
  6
CONTINUOUS
 62
     7
100
AcDbLine
 10
316.69097195
 20
192.74392337
 30
0.0
 11
316.69097195
 21
198.24392334
 31
0.0
  0
LINE
  5
19B
330
1F
100
AcDbEntity
  8
SLD-0
  6
CONTINUOUS
 62
     7
100
AcDbLine
 10
316.69097195
 20
198.24392334
 30
0.0
 11
309.19097166
 21
198.24392334
 31
0.0
  0
LINE
  5
19C
330
1F
100
AcDbEntity
  8
SLD-0
  6
CONTINUOUS
 62
     7
100
AcDbLine
 10
317.89096991
 20
192.19392523
 30
0.0
 11
317.89096991
 21
198.7939252
 31
0.0
  0
LINE
  5
19D
330
1F
100
AcDbEntity
  8
SLD-0
  6
CONTINUOUS
 62
     7
100
AcDbLine
 10
317.89096991
 20
131.23392485
 30
0.0
 11
317.89096991
 21
137.83392482
 31
0.0
  0
LINE
  5
19E
330
1F
100
AcDbEntity
  8
SLD-0
  6
CONTINUOUS
 62
     7
100
AcDbLine
 10
317.89096991
 20
184.57392402
 30
0.0
 11
317.89096991
 21
191.17392399
 31
0.0
  0
LINE
  5
19F
330
1F
100
AcDbEntity
  8
SLD-0
  6
CONTINUOUS
 62
     7
100
AcDbLine
 10
317.89096991
 20
154.0939243
 30
0.0
 11
317.89096991
 21
160.69392444
 31
0.0
  0
LINE
  5
1A0
330
1F
100
AcDbEntity
  8
SLD-0
  6
CONTINUOUS
 62
     7
100
AcDbLine
 10
317.89096991
 20
138.8539242
 30
0.0
 11
317.89096991
 21
145.45392417
 31
0.0
  0
LINE
  5
1A1
330
1F
100
AcDbEntity
  8
SLD-0
  6
CONTINUOUS
 62
     7
100
AcDbLine
 10
317.89096991
 20
176.95392467
 30
0.0
 11
317.89096991
 21
183.55392464
 31
0.0
  0
LINE
  5
1A2
330
1F
100
AcDbEntity
  8
SLD-0
  6
CONTINUOUS
 62
     7
100
AcDbLine
 10
317.89096991
 20
169.33392439
 30
0.0
 11
317.89096991
 21
175.93392436
 31
0.0
  0
LINE
  5
1A3
330
1F
100
AcDbEntity
  8
SLD-0
  6
CONTINUOUS
 62
     7
100
AcDbLine
 10
317.89096991
 20
123.61392364
 30
0.0
 11
317.89096991
 21
130.21392361
 31
0.0
  0
LINE
  5
1A4
330
1F
100
AcDbEntity
  8
SLD-0
  6
CONTINUOUS
 62
     7
100
AcDbLine
 10
317.89096991
 20
146.47392448
 30
0.0
 11
317.89096991
 21
153.07392445
 31
0.0
  0
LINE
  5
1A5
330
1F
100
AcDbEntity
  8
SLD-0
  6
CONTINUOUS
 62
     7
100
AcDbLine
 10
317.89096991
 20
161.7139244
 30
0.0
 11
317.89096991
 21
168.31392454
 31
0.0
  0
LINE
  5
1A6
330
1F
100
AcDbEntity
  8
SLD-0
  6
CONTINUOUS
 62
     7
100
AcDbLine
 10
309.89097233
 20
206.60392553
 30
0.0
 11
311.09097029
 21
206.60392553
 31
0.0
  0
LINE
  5
1A7
330
1F
100
AcDbEntity
  8
SLD-0
  6
CONTINUOUS
 62
     7
100
AcDbLine
 10
311.09097029
 20
206.60392553
 30
0.0
 11
311.09097029
 21
205.95815018
 31
0.0
  0
LINE
  5
1A8
330
1F
100
AcDbEntity
  8
SLD-0
  6
CONTINUOUS
 62
     7
100
AcDbLine
 10
309.89097233
 20
205.95815018
 30
0.0
 11
309.89097233
 21
206.60392553
 31
0.0
  0
LINE
  5
1A9
330
1F
100
AcDbEntity
  8
SLD-0
  6
CONTINUOUS
 62
     7
100
AcDbLine
 10
322.49097141
 20
206.60392553
 30
0.0
 11
323.69097124
 21
206.60392553
 31
0.0
  0
LINE
  5
1AA
330
1F
100
AcDbEntity
  8
SLD-0
  6
CONTINUOUS
 62
     7
100
AcDbLine
 10
322.49097141
 20
205.95815018
 30
0.0
 11
322.49097141
 21
206.60392553
 31
0.0
  0
LINE
  5
1AB
330
1F
100
AcDbEntity
  8
SLD-0
  6
CONTINUOUS
 62
     7
100
AcDbLine
 10
323.69097124
 20
206.60392553
 30
0.0
 11
323.69097124
 21
205.95815018
 31
0.0
  0
LINE
  5
1AC
330
1F
100
AcDbEntity
  8
SLD-0
  6
CONTINUOUS
 62
     7
100
AcDbLine
 10
311.09097029
 20
115.80392331
 30
0.0
 11
309.89097233
 21
115.80392331
 31
0.0
  0
LINE
  5
1AD
330
1F
100
AcDbEntity
  8
SLD-0
  6
CONTINUOUS
 62
     7
100
AcDbLine
 10
311.09097029
 20
115.80392331
 30
0.0
 11
311.09097029
 21
116.44969866
 31
0.0
  0
LINE
  5
1AE
330
1F
100
AcDbEntity
  8
SLD-0
  6
CONTINUOUS
 62
     7
100
AcDbLine
 10
323.69097124
 20
115.80392331
 30
0.0
 11
322.49097141
 21
115.80392331
 31
0.0
  0
LINE
  5
1AF
330
1F
100
AcDbEntity
  8
SLD-0
  6
CONTINUOUS
 62
     7
100
AcDbLine
 10
322.49097141
 20
115.80392331
 30
0.0
 11
322.49097141
 21
116.44969866
 31
0.0
  0
LINE
  5
1B0
330
1F
100
AcDbEntity
  8
SLD-0
  6
CONTINUOUS
 62
     7
100
AcDbLine
 10
323.69097124
 20
116.44969866
 30
0.0
 11
323.69097124
 21
115.80392331
 31
0.0
  0
LINE
  5
1B1
330
1F
100
AcDbEntity
  8
SLD-0
  6
CONTINUOUS
 62
     7
100
AcDbLine
 10
322.49097141
 20
115.80392331
 30
0.0
 11
311.09097029
 21
115.80392331
 31
0.0
  0
LINE
  5
1B2
330
1F
100
AcDbEntity
  8
SLD-0
  6
CONTINUOUS
 62
     7
100
AcDbLine
 10
322.49097141
 20
206.60392553
 30
0.0
 11
311.09097029
 21
206.60392553
 31
0.0
  0
LINE
  5
1B3
330
1F
100
AcDbEntity
  8
SLD-0
  6
CONTINUOUS
 62
     7
100
AcDbLine
 10
323.69097124
 20
198.29392419
 30
0.0
 11
323.69097124
 21
198.7939252
 31
0.0
  0
LINE
  5
1B4
330
1F
100
AcDbEntity
  8
SLD-0
  6
CONTINUOUS
 62
     7
100
AcDbLine
 10
323.69097124
 20
123.61392364
 30
0.0
 11
323.69097124
 21
124.11392466
 31
0.0
  0
LINE
  5
1B5
330
1F
100
AcDbEntity
  8
SLD-0
  6
CONTINUOUS
 62
     7
100
AcDbLine
 10
323.69097124
 20
198.29392419
 30
0.0
 11
323.69097124
 21
124.11392466
 31
0.0
  0
LINE
  5
1B6
330
1F
100
AcDbEntity
  8
SLD-0
  6
CONTINUOUS
 62
     7
100
AcDbLine
 10
395.29097254
 20
200.00392557
 30
0.0
 11
384.59097023
 21
200.00392557
 31
0.0
  0
LINE
  5
1B7
330
1F
100
AcDbEntity
  8
SLD-0
  6
CONTINUOUS
 62
     7
100
AcDbLine
 10
395.29097254
 20
122.40392328
 30
0.0
 11
395.29097254
 21
200.00392557
 31
0.0
  0
LINE
  5
1B8
330
1F
100
AcDbEntity
  8
SLD-0
  6
CONTINUOUS
 62
     7
100
AcDbLine
 10
395.29097254
 20
122.40392328
 30
0.0
 11
384.59097023
 21
122.40392328
 31
0.0
  0
LINE
  5
1B9
330
1F
100
AcDbEntity
  8
SLD-0
  6
CONTINUOUS
 62
     7
100
AcDbLine
 10
394.19097255
 20
123.61392364
 30
0.0
 11
384.59097023
 21
123.61392364
 31
0.0
  0
LINE
  5
1BA
330
1F
100
AcDbEntity
  8
SLD-0
  6
CONTINUOUS
 62
     7
100
AcDbLine
 10
394.19097255
 20
130.21392361
 30
0.0
 11
394.19097255
 21
123.61392364
 31
0.0
  0
LINE
  5
1BB
330
1F
100
AcDbEntity
  8
SLD-0
  6
CONTINUOUS
 62
     7
100
AcDbLine
 10
384.59097023
 20
130.21392361
 30
0.0
 11
394.19097255
 21
130.21392361
 31
0.0
  0
LINE
  5
1BC
330
1F
100
AcDbEntity
  8
SLD-0
  6
CONTINUOUS
 62
     7
100
AcDbLine
 10
394.19097255
 20
131.23392485
 30
0.0
 11
384.59097023
 21
131.23392485
 31
0.0
  0
LINE
  5
1BD
330
1F
100
AcDbEntity
  8
SLD-0
  6
CONTINUOUS
 62
     7
100
AcDbLine
 10
394.19097255
 20
137.83392482
 30
0.0
 11
394.19097255
 21
131.23392485
 31
0.0
  0
LINE
  5
1BE
330
1F
100
AcDbEntity
  8
SLD-0
  6
CONTINUOUS
 62
     7
100
AcDbLine
 10
384.59097023
 20
137.83392482
 30
0.0
 11
394.19097255
 21
137.83392482
 31
0.0
  0
LINE
  5
1BF
330
1F
100
AcDbEntity
  8
SLD-0
  6
CONTINUOUS
 62
     7
100
AcDbLine
 10
394.19097255
 20
138.8539242
 30
0.0
 11
384.59097023
 21
138.8539242
 31
0.0
  0
LINE
  5
1C0
330
1F
100
AcDbEntity
  8
SLD-0
  6
CONTINUOUS
 62
     7
100
AcDbLine
 10
394.19097255
 20
145.45392417
 30
0.0
 11
394.19097255
 21
138.8539242
 31
0.0
  0
LINE
  5
1C1
330
1F
100
AcDbEntity
  8
SLD-0
  6
CONTINUOUS
 62
     7
100
AcDbLine
 10
384.59097023
 20
145.45392417
 30
0.0
 11
394.19097255
 21
145.45392417
 31
0.0
  0
LINE
  5
1C2
330
1F
100
AcDbEntity
  8
SLD-0
  6
CONTINUOUS
 62
     7
100
AcDbLine
 10
394.19097255
 20
146.47392448
 30
0.0
 11
384.59097023
 21
146.47392448
 31
0.0
  0
LINE
  5
1C3
330
1F
100
AcDbEntity
  8
SLD-0
  6
CONTINUOUS
 62
     7
100
AcDbLine
 10
394.19097255
 20
153.07392445
 30
0.0
 11
394.19097255
 21
146.47392448
 31
0.0
  0
LINE
  5
1C4
330
1F
100
AcDbEntity
  8
SLD-0
  6
CONTINUOUS
 62
     7
100
AcDbLine
 10
384.59097023
 20
153.07392445
 30
0.0
 11
394.19097255
 21
153.07392445
 31
0.0
  0
LINE
  5
1C5
330
1F
100
AcDbEntity
  8
SLD-0
  6
CONTINUOUS
 62
     7
100
AcDbLine
 10
394.19097255
 20
154.0939243
 30
0.0
 11
384.59097023
 21
154.0939243
 31
0.0
  0
LINE
  5
1C6
330
1F
100
AcDbEntity
  8
SLD-0
  6
CONTINUOUS
 62
     7
100
AcDbLine
 10
394.19097255
 20
160.69392444
 30
0.0
 11
394.19097255
 21
154.0939243
 31
0.0
  0
LINE
  5
1C7
330
1F
100
AcDbEntity
  8
SLD-0
  6
CONTINUOUS
 62
     7
100
AcDbLine
 10
384.59097023
 20
160.69392444
 30
0.0
 11
394.19097255
 21
160.69392444
 31
0.0
  0
LINE
  5
1C8
330
1F
100
AcDbEntity
  8
SLD-0
  6
CONTINUOUS
 62
     7
100
AcDbLine
 10
394.19097255
 20
161.7139244
 30
0.0
 11
384.59097023
 21
161.7139244
 31
0.0
  0
LINE
  5
1C9
330
1F
100
AcDbEntity
  8
SLD-0
  6
CONTINUOUS
 62
     7
100
AcDbLine
 10
394.19097255
 20
168.31392454
 30
0.0
 11
394.19097255
 21
161.7139244
 31
0.0
  0
LINE
  5
1CA
330
1F
100
AcDbEntity
  8
SLD-0
  6
CONTINUOUS
 62
     7
100
AcDbLine
 10
384.59097023
 20
168.31392454
 30
0.0
 11
394.19097255
 21
168.31392454
 31
0.0
  0
LINE
  5
1CB
330
1F
100
AcDbEntity
  8
SLD-0
  6
CONTINUOUS
 62
     7
100
AcDbLine
 10
394.19097255
 20
169.33392439
 30
0.0
 11
384.59097023
 21
169.33392439
 31
0.0
  0
LINE
  5
1CC
330
1F
100
AcDbEntity
  8
SLD-0
  6
CONTINUOUS
 62
     7
100
AcDbLine
 10
394.19097255
 20
175.93392436
 30
0.0
 11
394.19097255
 21
169.33392439
 31
0.0
  0
LINE
  5
1CD
330
1F
100
AcDbEntity
  8
SLD-0
  6
CONTINUOUS
 62
     7
100
AcDbLine
 10
384.59097023
 20
175.93392436
 30
0.0
 11
394.19097255
 21
175.93392436
 31
0.0
  0
LINE
  5
1CE
330
1F
100
AcDbEntity
  8
SLD-0
  6
CONTINUOUS
 62
     7
100
AcDbLine
 10
394.19097255
 20
176.95392467
 30
0.0
 11
384.59097023
 21
176.95392467
 31
0.0
  0
LINE
  5
1CF
330
1F
100
AcDbEntity
  8
SLD-0
  6
CONTINUOUS
 62
     7
100
AcDbLine
 10
394.19097255
 20
183.55392464
 30
0.0
 11
394.19097255
 21
176.95392467
 31
0.0
  0
LINE
  5
1D0
330
1F
100
AcDbEntity
  8
SLD-0
  6
CONTINUOUS
 62
     7
100
AcDbLine
 10
384.59097023
 20
183.55392464
 30
0.0
 11
394.19097255
 21
183.55392464
 31
0.0
  0
LINE
  5
1D1
330
1F
100
AcDbEntity
  8
SLD-0
  6
CONTINUOUS
 62
     7
100
AcDbLine
 10
394.19097255
 20
184.57392402
 30
0.0
 11
384.59097023
 21
184.57392402
 31
0.0
  0
LINE
  5
1D2
330
1F
100
AcDbEntity
  8
SLD-0
  6
CONTINUOUS
 62
     7
100
AcDbLine
 10
394.19097255
 20
191.17392399
 30
0.0
 11
394.19097255
 21
184.57392402
 31
0.0
  0
LINE
  5
1D3
330
1F
100
AcDbEntity
  8
SLD-0
  6
CONTINUOUS
 62
     7
100
AcDbLine
 10
384.59097023
 20
191.17392399
 30
0.0
 11
394.19097255
 21
191.17392399
 31
0.0
  0
LINE
  5
1D4
330
1F
100
AcDbEntity
  8
SLD-0
  6
CONTINUOUS
 62
     7
100
AcDbLine
 10
394.19097255
 20
192.19392523
 30
0.0
 11
384.59097023
 21
192.19392523
 31
0.0
  0
LINE
  5
1D5
330
1F
100
AcDbEntity
  8
SLD-0
  6
CONTINUOUS
 62
     7
100
AcDbLine
 10
384.59097023
 20
198.7939252
 30
0.0
 11
394.19097255
 21
198.7939252
 31
0.0
  0
LINE
  5
1D6
330
1F
100
AcDbEntity
  8
SLD-0
  6
CONTINUOUS
 62
     7
100
AcDbLine
 10
394.19097255
 20
198.7939252
 30
0.0
 11
394.19097255
 21
192.19392523
 31
0.0
  0
LINE
  5
1D7
330
1F
100
AcDbEntity
  8
SLD-0
  6
CONTINUOUS
 62
     7
100
AcDbLine
 10
383.59097193
 20
198.7939252
 30
0.0
 11
383.59097193
 21
200.00392557
 31
0.0
  0
LINE
  5
1D8
330
1F
100
AcDbEntity
  8
SLD-0
  6
CONTINUOUS
 62
     7
100
AcDbLine
 10
383.59097193
 20
200.00392557
 30
0.0
 11
384.59097023
 21
200.00392557
 31
0.0
  0
LINE
  5
1D9
330
1F
100
AcDbEntity
  8
SLD-0
  6
CONTINUOUS
 62
     7
100
AcDbLine
 10
383.59097193
 20
198.7939252
 30
0.0
 11
384.59097023
 21
198.7939252
 31
0.0
  0
LINE
  5
1DA
330
1F
100
AcDbEntity
  8
SLD-0
  6
CONTINUOUS
 62
     7
100
AcDbLine
 10
383.59097193
 20
168.31392454
 30
0.0
 11
383.59097193
 21
169.33392439
 31
0.0
  0
LINE
  5
1DB
330
1F
100
AcDbEntity
  8
SLD-0
  6
CONTINUOUS
 62
     7
100
AcDbLine
 10
383.59097193
 20
169.33392439
 30
0.0
 11
384.59097023
 21
169.33392439
 31
0.0
  0
LINE
  5
1DC
330
1F
100
AcDbEntity
  8
SLD-0
  6
CONTINUOUS
 62
     7
100
AcDbLine
 10
383.59097193
 20
168.31392454
 30
0.0
 11
384.59097023
 21
168.31392454
 31
0.0
  0
LINE
  5
1DD
330
1F
100
AcDbEntity
  8
SLD-0
  6
CONTINUOUS
 62
     7
100
AcDbLine
 10
383.59097193
 20
175.93392436
 30
0.0
 11
383.59097193
 21
176.95392467
 31
0.0
  0
LINE
  5
1DE
330
1F
100
AcDbEntity
  8
SLD-0
  6
CONTINUOUS
 62
     7
100
AcDbLine
 10
383.59097193
 20
175.93392436
 30
0.0
 11
384.59097023
 21
175.93392436
 31
0.0
  0
LINE
  5
1DF
330
1F
100
AcDbEntity
  8
SLD-0
  6
CONTINUOUS
 62
     7
100
AcDbLine
 10
383.59097193
 20
176.95392467
 30
0.0
 11
384.59097023
 21
176.95392467
 31
0.0
  0
LINE
  5
1E0
330
1F
100
AcDbEntity
  8
SLD-0
  6
CONTINUOUS
 62
     7
100
AcDbLine
 10
383.59097193
 20
130.21392361
 30
0.0
 11
383.59097193
 21
131.23392485
 31
0.0
  0
LINE
  5
1E1
330
1F
100
AcDbEntity
  8
SLD-0
  6
CONTINUOUS
 62
     7
100
AcDbLine
 10
383.59097193
 20
130.21392361
 30
0.0
 11
384.59097023
 21
130.21392361
 31
0.0
  0
LINE
  5
1E2
330
1F
100
AcDbEntity
  8
SLD-0
  6
CONTINUOUS
 62
     7
100
AcDbLine
 10
383.59097193
 20
131.23392485
 30
0.0
 11
384.59097023
 21
131.23392485
 31
0.0
  0
LINE
  5
1E3
330
1F
100
AcDbEntity
  8
SLD-0
  6
CONTINUOUS
 62
     7
100
AcDbLine
 10
383.59097193
 20
191.17392399
 30
0.0
 11
383.59097193
 21
192.19392523
 31
0.0
  0
LINE
  5
1E4
330
1F
100
AcDbEntity
  8
SLD-0
  6
CONTINUOUS
 62
     7
100
AcDbLine
 10
383.59097193
 20
192.19392523
 30
0.0
 11
384.59097023
 21
192.19392523
 31
0.0
  0
LINE
  5
1E5
330
1F
100
AcDbEntity
  8
SLD-0
  6
CONTINUOUS
 62
     7
100
AcDbLine
 10
384.59097023
 20
191.17392399
 30
0.0
 11
383.59097193
 21
191.17392399
 31
0.0
  0
LINE
  5
1E6
330
1F
100
AcDbEntity
  8
SLD-0
  6
CONTINUOUS
 62
     7
100
AcDbLine
 10
383.59097193
 20
183.55392464
 30
0.0
 11
383.59097193
 21
184.57392402
 31
0.0
  0
LINE
  5
1E7
330
1F
100
AcDbEntity
  8
SLD-0
  6
CONTINUOUS
 62
     7
100
AcDbLine
 10
383.59097193
 20
183.55392464
 30
0.0
 11
384.59097023
 21
183.55392464
 31
0.0
  0
LINE
  5
1E8
330
1F
100
AcDbEntity
  8
SLD-0
  6
CONTINUOUS
 62
     7
100
AcDbLine
 10
383.59097193
 20
184.57392402
 30
0.0
 11
384.59097023
 21
184.57392402
 31
0.0
  0
LINE
  5
1E9
330
1F
100
AcDbEntity
  8
SLD-0
  6
CONTINUOUS
 62
     7
100
AcDbLine
 10
383.59097193
 20
122.40392328
 30
0.0
 11
383.59097193
 21
123.61392364
 31
0.0
  0
LINE
  5
1EA
330
1F
100
AcDbEntity
  8
SLD-0
  6
CONTINUOUS
 62
     7
100
AcDbLine
 10
384.59097023
 20
122.40392328
 30
0.0
 11
383.59097193
 21
122.40392328
 31
0.0
  0
LINE
  5
1EB
330
1F
100
AcDbEntity
  8
SLD-0
  6
CONTINUOUS
 62
     7
100
AcDbLine
 10
383.59097193
 20
123.61392364
 30
0.0
 11
384.59097023
 21
123.61392364
 31
0.0
  0
LINE
  5
1EC
330
1F
100
AcDbEntity
  8
SLD-0
  6
CONTINUOUS
 62
     7
100
AcDbLine
 10
383.59097193
 20
160.69392444
 30
0.0
 11
383.59097193
 21
161.7139244
 31
0.0
  0
LINE
  5
1ED
330
1F
100
AcDbEntity
  8
SLD-0
  6
CONTINUOUS
 62
     7
100
AcDbLine
 10
383.59097193
 20
161.7139244
 30
0.0
 11
384.59097023
 21
161.7139244
 31
0.0
  0
LINE
  5
1EE
330
1F
100
AcDbEntity
  8
SLD-0
  6
CONTINUOUS
 62
     7
100
AcDbLine
 10
383.59097193
 20
160.69392444
 30
0.0
 11
384.59097023
 21
160.69392444
 31
0.0
  0
LINE
  5
1EF
330
1F
100
AcDbEntity
  8
SLD-0
  6
CONTINUOUS
 62
     7
100
AcDbLine
 10
383.59097193
 20
145.45392417
 30
0.0
 11
383.59097193
 21
146.47392448
 31
0.0
  0
LINE
  5
1F0
330
1F
100
AcDbEntity
  8
SLD-0
  6
CONTINUOUS
 62
     7
100
AcDbLine
 10
383.59097193
 20
146.47392448
 30
0.0
 11
384.59097023
 21
146.47392448
 31
0.0
  0
LINE
  5
1F1
330
1F
100
AcDbEntity
  8
SLD-0
  6
CONTINUOUS
 62
     7
100
AcDbLine
 10
383.59097193
 20
145.45392417
 30
0.0
 11
384.59097023
 21
145.45392417
 31
0.0
  0
LINE
  5
1F2
330
1F
100
AcDbEntity
  8
SLD-0
  6
CONTINUOUS
 62
     7
100
AcDbLine
 10
383.59097193
 20
137.83392482
 30
0.0
 11
383.59097193
 21
138.8539242
 31
0.0
  0
LINE
  5
1F3
330
1F
100
AcDbEntity
  8
SLD-0
  6
CONTINUOUS
 62
     7
100
AcDbLine
 10
383.59097193
 20
138.8539242
 30
0.0
 11
384.59097023
 21
138.8539242
 31
0.0
  0
LINE
  5
1F4
330
1F
100
AcDbEntity
  8
SLD-0
  6
CONTINUOUS
 62
     7
100
AcDbLine
 10
383.59097193
 20
137.83392482
 30
0.0
 11
384.59097023
 21
137.83392482
 31
0.0
  0
LINE
  5
1F5
330
1F
100
AcDbEntity
  8
SLD-0
  6
CONTINUOUS
 62
     7
100
AcDbLine
 10
383.59097193
 20
153.07392445
 30
0.0
 11
383.59097193
 21
154.0939243
 31
0.0
  0
LINE
  5
1F6
330
1F
100
AcDbEntity
  8
SLD-0
  6
CONTINUOUS
 62
     7
100
AcDbLine
 10
383.59097193
 20
153.07392445
 30
0.0
 11
384.59097023
 21
153.07392445
 31
0.0
  0
LINE
  5
1F7
330
1F
100
AcDbEntity
  8
SLD-0
  6
CONTINUOUS
 62
     7
100
AcDbLine
 10
383.59097193
 20
154.0939243
 30
0.0
 11
384.59097023
 21
154.0939243
 31
0.0
  0
LINE
  5
1F8
330
1F
100
AcDbEntity
  8
SLD-0
  6
CONTINUOUS
 62
     7
100
AcDbLine
 10
378.29097162
 20
198.7939252
 30
0.0
 11
378.29097162
 21
200.00392557
 31
0.0
  0
LINE
  5
1F9
330
1F
100
AcDbEntity
  8
SLD-0
  6
CONTINUOUS
 62
     7
100
AcDbLine
 10
379.49097144
 20
200.00392557
 30
0.0
 11
378.29097162
 21
200.00392557
 31
0.0
  0
LINE
  5
1FA
330
1F
100
AcDbEntity
  8
SLD-0
  6
CONTINUOUS
 62
     7
100
AcDbLine
 10
379.49097144
 20
200.00392557
 30
0.0
 11
383.59097193
 21
200.00392557
 31
0.0
  0
LINE
  5
1FB
330
1F
100
AcDbEntity
  8
SLD-0
  6
CONTINUOUS
 62
     7
100
AcDbLine
 10
378.29097162
 20
198.7939252
 30
0.0
 11
383.59097193
 21
198.7939252
 31
0.0
  0
LINE
  5
1FC
330
1F
100
AcDbEntity
  8
SLD-0
  6
CONTINUOUS
 62
     7
100
AcDbLine
 10
379.49097144
 20
122.40392328
 30
0.0
 11
378.29097162
 21
122.40392328
 31
0.0
  0
LINE
  5
1FD
330
1F
100
AcDbEntity
  8
SLD-0
  6
CONTINUOUS
 62
     7
100
AcDbLine
 10
378.29097162
 20
123.61392364
 30
0.0
 11
378.29097162
 21
122.40392328
 31
0.0
  0
LINE
  5
1FE
330
1F
100
AcDbEntity
  8
SLD-0
  6
CONTINUOUS
 62
     7
100
AcDbLine
 10
383.59097193
 20
122.40392328
 30
0.0
 11
379.49097144
 21
122.40392328
 31
0.0
  0
LINE
  5
1FF
330
1F
100
AcDbEntity
  8
SLD-0
  6
CONTINUOUS
 62
     7
100
AcDbLine
 10
383.59097193
 20
123.61392364
 30
0.0
 11
378.29097162
 21
123.61392364
 31
0.0
  0
LINE
  5
200
330
1F
100
AcDbEntity
  8
SLD-0
  6
CONTINUOUS
 62
     7
100
AcDbLine
 10
379.49097144
 20
205.95815018
 30
0.0
 11
379.49097144
 21
200.00392557
 31
0.0
  0
LINE
  5
201
330
1F
100
AcDbEntity
  8
SLD-0
  6
CONTINUOUS
 62
     7
100
AcDbLine
 10
378.29097162
 20
200.00392557
 30
0.0
 11
378.29097162
 21
205.95815018
 31
0.0
  0
LINE
  5
202
330
1F
100
AcDbEntity
  8
SLD-0
  6
CONTINUOUS
 62
     7
100
AcDbLine
 10
379.49097144
 20
122.40392328
 30
0.0
 11
379.49097144
 21
116.44969866
 31
0.0
  0
LINE
  5
203
330
1F
100
AcDbEntity
  8
SLD-0
  6
CONTINUOUS
 62
     7
100
AcDbLine
 10
378.29097162
 20
122.40392328
 30
0.0
 11
378.29097162
 21
116.44969866
 31
0.0
  0
LINE
  5
204
330
1F
100
AcDbEntity
  8
SLD-0
  6
CONTINUOUS
 62
     7
100
AcDbLine
 10
390.89097257
 20
116.44969866
 30
0.0
 11
390.89097257
 21
122.40392328
 31
0.0
  0
LINE
  5
205
330
1F
100
AcDbEntity
  8
SLD-0
  6
CONTINUOUS
 62
     7
100
AcDbLine
 10
392.09097053
 20
122.40392328
 30
0.0
 11
392.09097053
 21
116.44969866
 31
0.0
  0
LINE
  5
206
330
1F
100
AcDbEntity
  8
SLD-0
  6
CONTINUOUS
 62
     7
100
AcDbLine
 10
392.09097053
 20
200.00392557
 30
0.0
 11
392.09097053
 21
206.60392553
 31
0.0
  0
LINE
  5
207
330
1F
100
AcDbEntity
  8
SLD-0
  6
CONTINUOUS
 62
     7
100
AcDbLine
 10
390.89097257
 20
205.95815018
 30
0.0
 11
390.89097257
 21
200.00392557
 31
0.0
  0
LINE
  5
208
330
1F
100
AcDbEntity
  8
SLD-0
  6
CONTINUOUS
 62
     7
100
AcDbLine
 10
384.09097294
 20
130.21392361
 30
0.0
 11
384.09097294
 21
123.61392364
 31
0.0
  0
LINE
  5
209
330
1F
100
AcDbEntity
  8
SLD-0
  6
CONTINUOUS
 62
     7
100
AcDbLine
 10
384.09097294
 20
191.17392399
 30
0.0
 11
384.09097294
 21
184.57392402
 31
0.0
  0
LINE
  5
20A
330
1F
100
AcDbEntity
  8
SLD-0
  6
CONTINUOUS
 62
     7
100
AcDbLine
 10
384.09097294
 20
137.83392482
 30
0.0
 11
384.09097294
 21
131.23392485
 31
0.0
  0
LINE
  5
20B
330
1F
100
AcDbEntity
  8
SLD-0
  6
CONTINUOUS
 62
     7
100
AcDbLine
 10
384.09097294
 20
183.55392464
 30
0.0
 11
384.09097294
 21
176.95392467
 31
0.0
  0
LINE
  5
20C
330
1F
100
AcDbEntity
  8
SLD-0
  6
CONTINUOUS
 62
     7
100
AcDbLine
 10
384.09097294
 20
160.69392444
 30
0.0
 11
384.09097294
 21
154.0939243
 31
0.0
  0
LINE
  5
20D
330
1F
100
AcDbEntity
  8
SLD-0
  6
CONTINUOUS
 62
     7
100
AcDbLine
 10
384.09097294
 20
198.7939252
 30
0.0
 11
384.09097294
 21
192.19392523
 31
0.0
  0
LINE
  5
20E
330
1F
100
AcDbEntity
  8
SLD-0
  6
CONTINUOUS
 62
     7
100
AcDbLine
 10
392.7909712
 20
192.74392337
 30
0.0
 11
392.7909712
 21
198.24392334
 31
0.0
  0
LINE
  5
20F
330
1F
100
AcDbEntity
  8
SLD-0
  6
CONTINUOUS
 62
     7
100
AcDbLine
 10
392.7909712
 20
198.24392334
 30
0.0
 11
385.2909709
 21
198.24392334
 31
0.0
  0
LINE
  5
210
330
1F
100
AcDbEntity
  8
SLD-0
  6
CONTINUOUS
 62
     7
100
AcDbLine
 10
385.2909709
 20
198.24392334
 30
0.0
 11
385.2909709
 21
192.74392337
 31
0.0
  0
LINE
  5
211
330
1F
100
AcDbEntity
  8
SLD-0
  6
CONTINUOUS
 62
     7
100
AcDbLine
 10
385.2909709
 20
192.74392337
 30
0.0
 11
392.7909712
 21
192.74392337
 31
0.0
  0
LINE
  5
212
330
1F
100
AcDbEntity
  8
SLD-0
  6
CONTINUOUS
 62
     7
100
AcDbLine
 10
384.09097294
 20
145.45392417
 30
0.0
 11
384.09097294
 21
138.8539242
 31
0.0
  0
LINE
  5
213
330
1F
100
AcDbEntity
  8
SLD-0
  6
CONTINUOUS
 62
     7
100
AcDbLine
 10
384.09097294
 20
153.07392445
 30
0.0
 11
384.09097294
 21
146.47392448
 31
0.0
  0
LINE
  5
214
330
1F
100
AcDbEntity
  8
SLD-0
  6
CONTINUOUS
 62
     7
100
AcDbLine
 10
384.09097294
 20
168.31392454
 30
0.0
 11
384.09097294
 21
161.7139244
 31
0.0
  0
LINE
  5
215
330
1F
100
AcDbEntity
  8
SLD-0
  6
CONTINUOUS
 62
     7
100
AcDbLine
 10
384.09097294
 20
175.93392436
 30
0.0
 11
384.09097294
 21
169.33392439
 31
0.0
  0
LINE
  5
216
330
1F
100
AcDbEntity
  8
SLD-0
  6
CONTINUOUS
 62
     7
100
AcDbLine
 10
392.09097053
 20
115.80392331
 30
0.0
 11
390.89097257
 21
115.80392331
 31
0.0
  0
LINE
  5
217
330
1F
100
AcDbEntity
  8
SLD-0
  6
CONTINUOUS
 62
     7
100
AcDbLine
 10
390.89097257
 20
115.80392331
 30
0.0
 11
390.89097257
 21
116.44969866
 31
0.0
  0
LINE
  5
218
330
1F
100
AcDbEntity
  8
SLD-0
  6
CONTINUOUS
 62
     7
100
AcDbLine
 10
392.09097053
 20
116.44969866
 30
0.0
 11
392.09097053
 21
115.80392331
 31
0.0
  0
LINE
  5
219
330
1F
100
AcDbEntity
  8
SLD-0
  6
CONTINUOUS
 62
     7
100
AcDbLine
 10
379.49097144
 20
115.80392331
 30
0.0
 11
378.29097162
 21
115.80392331
 31
0.0
  0
LINE
  5
21A
330
1F
100
AcDbEntity
  8
SLD-0
  6
CONTINUOUS
 62
     7
100
AcDbLine
 10
379.49097144
 20
116.44969866
 30
0.0
 11
379.49097144
 21
115.80392331
 31
0.0
  0
LINE
  5
21B
330
1F
100
AcDbEntity
  8
SLD-0
  6
CONTINUOUS
 62
     7
100
AcDbLine
 10
378.29097162
 20
115.80392331
 30
0.0
 11
378.29097162
 21
116.44969866
 31
0.0
  0
LINE
  5
21C
330
1F
100
AcDbEntity
  8
SLD-0
  6
CONTINUOUS
 62
     7
100
AcDbLine
 10
390.89097257
 20
206.60392553
 30
0.0
 11
392.09097053
 21
206.60392553
 31
0.0
  0
LINE
  5
21D
330
1F
100
AcDbEntity
  8
SLD-0
  6
CONTINUOUS
 62
     7
100
AcDbLine
 10
390.89097257
 20
206.60392553
 30
0.0
 11
390.89097257
 21
205.95815018
 31
0.0
  0
LINE
  5
21E
330
1F
100
AcDbEntity
  8
SLD-0
  6
CONTINUOUS
 62
     7
100
AcDbLine
 10
378.29097162
 20
206.60392553
 30
0.0
 11
379.49097144
 21
206.60392553
 31
0.0
  0
LINE
  5
21F
330
1F
100
AcDbEntity
  8
SLD-0
  6
CONTINUOUS
 62
     7
100
AcDbLine
 10
379.49097144
 20
206.60392553
 30
0.0
 11
379.49097144
 21
205.95815018
 31
0.0
  0
LINE
  5
220
330
1F
100
AcDbEntity
  8
SLD-0
  6
CONTINUOUS
 62
     7
100
AcDbLine
 10
378.29097162
 20
205.95815018
 30
0.0
 11
378.29097162
 21
206.60392553
 31
0.0
  0
LINE
  5
221
330
1F
100
AcDbEntity
  8
SLD-0
  6
CONTINUOUS
 62
     7
100
AcDbLine
 10
379.49097144
 20
206.60392553
 30
0.0
 11
390.89097257
 21
206.60392553
 31
0.0
  0
LINE
  5
222
330
1F
100
AcDbEntity
  8
SLD-0
  6
CONTINUOUS
 62
     7
100
AcDbLine
 10
379.49097144
 20
115.80392331
 30
0.0
 11
390.89097257
 21
115.80392331
 31
0.0
  0
LINE
  5
223
330
1F
100
AcDbEntity
  8
SLD-0
  6
CONTINUOUS
 62
     7
100
AcDbLine
 10
378.29097162
 20
124.11392466
 30
0.0
 11
378.29097162
 21
123.61392364
 31
0.0
  0
LINE
  5
224
330
1F
100
AcDbEntity
  8
SLD-0
  6
CONTINUOUS
 62
     7
100
AcDbLine
 10
378.29097162
 20
198.7939252
 30
0.0
 11
378.29097162
 21
198.29392419
 31
0.0
  0
LINE
  5
225
330
1F
100
AcDbEntity
  8
SLD-0
  6
CONTINUOUS
 62
     7
100
AcDbLine
 10
378.29097162
 20
124.11392466
 30
0.0
 11
378.29097162
 21
198.29392419
 31
0.0
  0
LINE
  5
226
330
1F
100
AcDbEntity
  8
SLD-0
  6
CONTINUOUS
 62
     7
100
AcDbLine
 10
304.99097143
 20
209.203924185
 30
0.0
 11
396.99097143
 21
209.203924185
 31
0.0
  0
LINE
  5
227
330
1F
100
AcDbEntity
  8
SLD-0
  6
CONTINUOUS
 62
     7
100
AcDbLine
 10
396.99097143
 20
113.203924235
 30
0.0
 11
304.99097143
 21
113.203924235
 31
0.0
  0
LINE
  5
228
330
1F
100
AcDbEntity
  8
SLD-0
  6
CONTINUOUS
 62
     7
100
AcDbLine
 10
232.00257221
 20
109.70392284
 30
0.0
 11
232.00636842
 21
109.73521132
 31
0.0
  0
LINE
  5
229
330
1F
100
AcDbEntity
  8
SLD-0
  6
CONTINUOUS
 62
     7
100
AcDbLine
 10
232.00636842
 20
109.73521132
 30
0.0
 11
232.01013468
 21
109.76645541
 31
0.0
  0
LINE
  5
22A
330
1F
100
AcDbEntity
  8
SLD-0
  6
CONTINUOUS
 62
     7
100
AcDbLine
 10
232.01013468
 20
109.76645541
 30
0.0
 11
232.01384101
 21
109.79761069
 31
0.0
  0
LINE
  5
22B
330
1F
100
AcDbEntity
  8
SLD-0
  6
CONTINUOUS
 62
     7
100
AcDbLine
 10
232.01384101
 20
109.79761069
 30
0.0
 11
232.01745746
 21
109.82863276
 31
0.0
  0
LINE
  5
22C
330
1F
100
AcDbEntity
  8
SLD-0
  6
CONTINUOUS
 62
     7
100
AcDbLine
 10
232.01745746
 20
109.82863276
 30
0.0
 11
232.02095407
 21
109.85947723
 31
0.0
  0
LINE
  5
22D
330
1F
100
AcDbEntity
  8
SLD-0
  6
CONTINUOUS
 62
     7
100
AcDbLine
 10
232.02095407
 20
109.85947723
 30
0.0
 11
232.02430088
 21
109.89009968
 31
0.0
  0
LINE
  5
22E
330
1F
100
AcDbEntity
  8
SLD-0
  6
CONTINUOUS
 62
     7
100
AcDbLine
 10
232.02430088
 20
109.89009968
 30
0.0
 11
232.02746792
 21
109.92045571
 31
0.0
  0
LINE
  5
22F
330
1F
100
AcDbEntity
  8
SLD-0
  6
CONTINUOUS
 62
     7
100
AcDbLine
 10
232.02746792
 20
109.92045571
 30
0.0
 11
232.03042525
 21
109.95050092
 31
0.0
  0
LINE
  5
230
330
1F
100
AcDbEntity
  8
SLD-0
  6
CONTINUOUS
 62
     7
100
AcDbLine
 10
232.03042525
 20
109.95050092
 30
0.0
 11
232.03314348
 21
109.98019084
 31
0.0
  0
LINE
  5
231
330
1F
100
AcDbEntity
  8
SLD-0
  6
CONTINUOUS
 62
     7
100
AcDbLine
 10
232.03314348
 20
109.98019084
 30
0.0
 11
232.03560859
 21
110.00947884
 31
0.0
  0
LINE
  5
232
330
1F
100
AcDbEntity
  8
SLD-0
  6
CONTINUOUS
 62
     7
100
AcDbLine
 10
232.03560859
 20
110.00947884
 30
0.0
 11
232.03782311
 21
110.03831603
 31
0.0
  0
LINE
  5
233
330
1F
100
AcDbEntity
  8
SLD-0
  6
CONTINUOUS
 62
     7
100
AcDbLine
 10
232.03782311
 20
110.03831603
 30
0.0
 11
232.03979039
 21
110.0666534
 31
0.0
  0
LINE
  5
234
330
1F
100
AcDbEntity
  8
SLD-0
  6
CONTINUOUS
 62
     7
100
AcDbLine
 10
232.03979039
 20
110.0666534
 30
0.0
 11
232.0415138
 21
110.09444193
 31
0.0
  0
LINE
  5
235
330
1F
100
AcDbEntity
  8
SLD-0
  6
CONTINUOUS
 62
     7
100
AcDbLine
 10
232.0415138
 20
110.09444193
 30
0.0
 11
232.04299669
 21
110.12163261
 31
0.0
  0
LINE
  5
236
330
1F
100
AcDbEntity
  8
SLD-0
  6
CONTINUOUS
 62
     7
100
AcDbLine
 10
232.04299669
 20
110.12163261
 30
0.0
 11
232.04424241
 21
110.14817643
 31
0.0
  0
LINE
  5
237
330
1F
100
AcDbEntity
  8
SLD-0
  6
CONTINUOUS
 62
     7
100
AcDbLine
 10
232.04424241
 20
110.14817643
 30
0.0
 11
232.04525431
 21
110.17402438
 31
0.0
  0
LINE
  5
238
330
1F
100
AcDbEntity
  8
SLD-0
  6
CONTINUOUS
 62
     7
100
AcDbLine
 10
232.04525431
 20
110.17402438
 30
0.0
 11
232.04603575
 21
110.19912743
 31
0.0
  0
LINE
  5
239
330
1F
100
AcDbEntity
  8
SLD-0
  6
CONTINUOUS
 62
     7
100
AcDbLine
 10
232.04603575
 20
110.19912743
 30
0.0
 11
232.04658964
 21
110.22344022
 31
0.0
  0
LINE
  5
23A
330
1F
100
AcDbEntity
  8
SLD-0
  6
CONTINUOUS
 62
     7
100
AcDbLine
 10
232.04658964
 20
110.22344022
 30
0.0
 11
232.04691679
 21
110.24693485
 31
0.0
  0
LINE
  5
23B
330
1F
100
AcDbEntity
  8
SLD-0
  6
CONTINUOUS
 62
     7
100
AcDbLine
 10
232.04691679
 20
110.24693485
 30
0.0
 11
232.04701735
 21
110.26958867
 31
0.0
  0
LINE
  5
23C
330
1F
100
AcDbEntity
  8
SLD-0
  6
CONTINUOUS
 62
     7
100
AcDbLine
 10
232.04701735
 20
110.26958867
 30
0.0
 11
232.04689148
 21
110.29137903
 31
0.0
  0
LINE
  5
23D
330
1F
100
AcDbEntity
  8
SLD-0
  6
CONTINUOUS
 62
     7
100
AcDbLine
 10
232.04689148
 20
110.29137903
 30
0.0
 11
232.04653936
 21
110.31228329
 31
0.0
  0
LINE
  5
23E
330
1F
100
AcDbEntity
  8
SLD-0
  6
CONTINUOUS
 62
     7
100
AcDbLine
 10
232.04653936
 20
110.31228329
 30
0.0
 11
232.04596113
 21
110.33227881
 31
0.0
  0
LINE
  5
23F
330
1F
100
AcDbEntity
  8
SLD-0
  6
CONTINUOUS
 62
     7
100
AcDbLine
 10
232.04596113
 20
110.33227881
 30
0.0
 11
232.04515698
 21
110.35134292
 31
0.0
  0
LINE
  5
240
330
1F
100
AcDbEntity
  8
SLD-0
  6
CONTINUOUS
 62
     7
100
AcDbLine
 10
232.04515698
 20
110.35134292
 30
0.0
 11
232.04412704
 21
110.369453
 31
0.0
  0
LINE
  5
241
330
1F
100
AcDbEntity
  8
SLD-0
  6
CONTINUOUS
 62
     7
100
AcDbLine
 10
232.04412704
 20
110.369453
 30
0.0
 11
232.04287148
 21
110.38658567
 31
0.0
  0
LINE
  5
242
330
1F
100
AcDbEntity
  8
SLD-0
  6
CONTINUOUS
 62
     7
100
AcDbLine
 10
232.04287148
 20
110.38658567
 30
0.0
 11
232.04138986
 21
110.40270018
 31
0.0
  0
LINE
  5
243
330
1F
100
AcDbEntity
  8
SLD-0
  6
CONTINUOUS
 62
     7
100
AcDbLine
 10
232.04138986
 20
110.40270018
 30
0.0
 11
232.03968118
 21
110.41773788
 31
0.0
  0
LINE
  5
244
330
1F
100
AcDbEntity
  8
SLD-0
  6
CONTINUOUS
 62
     7
100
AcDbLine
 10
232.03968118
 20
110.41773788
 30
0.0
 11
232.03774443
 21
110.43163928
 31
0.0
  0
LINE
  5
245
330
1F
100
AcDbEntity
  8
SLD-0
  6
CONTINUOUS
 62
     7
100
AcDbLine
 10
232.03774443
 20
110.43163928
 30
0.0
 11
232.03557858
 21
110.44434491
 31
0.0
  0
LINE
  5
246
330
1F
100
AcDbEntity
  8
SLD-0
  6
CONTINUOUS
 62
     7
100
AcDbLine
 10
232.03557858
 20
110.44434491
 30
0.0
 11
232.03318259
 21
110.45579528
 31
0.0
  0
LINE
  5
247
330
1F
100
AcDbEntity
  8
SLD-0
  6
CONTINUOUS
 62
     7
100
AcDbLine
 10
232.03318259
 20
110.45579528
 30
0.0
 11
232.03055546
 21
110.4659309
 31
0.0
  0
LINE
  5
248
330
1F
100
AcDbEntity
  8
SLD-0
  6
CONTINUOUS
 62
     7
100
AcDbLine
 10
232.03055546
 20
110.4659309
 30
0.0
 11
232.02769615
 21
110.47469231
 31
0.0
  0
LINE
  5
249
330
1F
100
AcDbEntity
  8
SLD-0
  6
CONTINUOUS
 62
     7
100
AcDbLine
 10
232.02769615
 20
110.47469231
 30
0.0
 11
232.02460364
 21
110.48202003
 31
0.0
  0
LINE
  5
24A
330
1F
100
AcDbEntity
  8
SLD-0
  6
CONTINUOUS
 62
     7
100
AcDbLine
 10
232.02460364
 20
110.48202003
 30
0.0
 11
232.02128508
 21
110.48791749
 31
0.0
  0
LINE
  5
24B
330
1F
100
AcDbEntity
  8
SLD-0
  6
CONTINUOUS
 62
     7
100
AcDbLine
 10
232.02128508
 20
110.48791749
 30
0.0
 11
232.01777378
 21
110.49258954
 31
0.0
  0
LINE
  5
24C
330
1F
100
AcDbEntity
  8
SLD-0
  6
CONTINUOUS
 62
     7
100
AcDbLine
 10
232.01777378
 20
110.49258954
 30
0.0
 11
232.0141083
 21
110.49628125
 31
0.0
  0
LINE
  5
24D
330
1F
100
AcDbEntity
  8
SLD-0
  6
CONTINUOUS
 62
     7
100
AcDbLine
 10
232.0141083
 20
110.49628125
 30
0.0
 11
232.01032718
 21
110.49923771
 31
0.0
  0
LINE
  5
24E
330
1F
100
AcDbEntity
  8
SLD-0
  6
CONTINUOUS
 62
     7
100
AcDbLine
 10
232.01032718
 20
110.49923771
 30
0.0
 11
232.00646897
 21
110.501704
 31
0.0
  0
LINE
  5
24F
330
1F
100
AcDbEntity
  8
SLD-0
  6
CONTINUOUS
 62
     7
100
AcDbLine
 10
232.00646897
 20
110.501704
 30
0.0
 11
232.00257221
 21
110.5039252
 31
0.0
  0
LINE
  5
250
330
1F
100
AcDbEntity
  8
SLD-0
  6
CONTINUOUS
 62
     7
100
AcDbLine
 10
232.00257221
 20
111.30392383
 30
0.0
 11
232.00636844
 21
111.30698593
 31
0.0
  0
LINE
  5
251
330
1F
100
AcDbEntity
  8
SLD-0
  6
CONTINUOUS
 62
     7
100
AcDbLine
 10
232.00636844
 20
111.30698593
 30
0.0
 11
232.01013471
 21
111.31022567
 31
0.0
  0
LINE
  5
252
330
1F
100
AcDbEntity
  8
SLD-0
  6
CONTINUOUS
 62
     7
100
AcDbLine
 10
232.01013471
 20
111.31022567
 30
0.0
 11
232.01384105
 21
111.31382068
 31
0.0
  0
LINE
  5
253
330
1F
100
AcDbEntity
  8
SLD-0
  6
CONTINUOUS
 62
     7
100
AcDbLine
 10
232.01384105
 20
111.31382068
 30
0.0
 11
232.01745752
 21
111.31794862
 31
0.0
  0
LINE
  5
254
330
1F
100
AcDbEntity
  8
SLD-0
  6
CONTINUOUS
 62
     7
100
AcDbLine
 10
232.01745752
 20
111.31794862
 30
0.0
 11
232.02095414
 21
111.32278711
 31
0.0
  0
LINE
  5
255
330
1F
100
AcDbEntity
  8
SLD-0
  6
CONTINUOUS
 62
     7
100
AcDbLine
 10
232.02095414
 20
111.32278711
 30
0.0
 11
232.02430096
 21
111.32851382
 31
0.0
  0
LINE
  5
256
330
1F
100
AcDbEntity
  8
SLD-0
  6
CONTINUOUS
 62
     7
100
AcDbLine
 10
232.02430096
 20
111.32851382
 30
0.0
 11
232.02746801
 21
111.33530636
 31
0.0
  0
LINE
  5
257
330
1F
100
AcDbEntity
  8
SLD-0
  6
CONTINUOUS
 62
     7
100
AcDbLine
 10
232.02746801
 20
111.33530636
 30
0.0
 11
232.03042535
 21
111.3433424
 31
0.0
  0
LINE
  5
258
330
1F
100
AcDbEntity
  8
SLD-0
  6
CONTINUOUS
 62
     7
100
AcDbLine
 10
232.03042535
 20
111.3433424
 30
0.0
 11
232.03314357
 21
111.35279519
 31
0.0
  0
LINE
  5
259
330
1F
100
AcDbEntity
  8
SLD-0
  6
CONTINUOUS
 62
     7
100
AcDbLine
 10
232.03314357
 20
111.35279519
 30
0.0
 11
232.03560868
 21
111.36372275
 31
0.0
  0
LINE
  5
25A
330
1F
100
AcDbEntity
  8
SLD-0
  6
CONTINUOUS
 62
     7
100
AcDbLine
 10
232.03560868
 20
111.36372275
 30
0.0
 11
232.03782319
 21
111.37605882
 31
0.0
  0
LINE
  5
25B
330
1F
100
AcDbEntity
  8
SLD-0
  6
CONTINUOUS
 62
     7
100
AcDbLine
 10
232.03782319
 20
111.37605882
 30
0.0
 11
232.03979048
 21
111.389731
 31
0.0
  0
LINE
  5
25C
330
1F
100
AcDbEntity
  8
SLD-0
  6
CONTINUOUS
 62
     7
100
AcDbLine
 10
232.03979048
 20
111.389731
 30
0.0
 11
232.04151388
 21
111.40466688
 31
0.0
  0
LINE
  5
25D
330
1F
100
AcDbEntity
  8
SLD-0
  6
CONTINUOUS
 62
     7
100
AcDbLine
 10
232.04151388
 20
111.40466688
 30
0.0
 11
232.04299675
 21
111.42079404
 31
0.0
  0
LINE
  5
25E
330
1F
100
AcDbEntity
  8
SLD-0
  6
CONTINUOUS
 62
     7
100
AcDbLine
 10
232.04299675
 20
111.42079404
 30
0.0
 11
232.04424246
 21
111.43804008
 31
0.0
  0
LINE
  5
25F
330
1F
100
AcDbEntity
  8
SLD-0
  6
CONTINUOUS
 62
     7
100
AcDbLine
 10
232.04424246
 20
111.43804008
 30
0.0
 11
232.04525435
 21
111.4563326
 31
0.0
  0
LINE
  5
260
330
1F
100
AcDbEntity
  8
SLD-0
  6
CONTINUOUS
 62
     7
100
AcDbLine
 10
232.04525435
 20
111.4563326
 30
0.0
 11
232.04603578
 21
111.47559917
 31
0.0
  0
LINE
  5
261
330
1F
100
AcDbEntity
  8
SLD-0
  6
CONTINUOUS
 62
     7
100
AcDbLine
 10
232.04603578
 20
111.47559917
 30
0.0
 11
232.04658966
 21
111.49577409
 31
0.0
  0
LINE
  5
262
330
1F
100
AcDbEntity
  8
SLD-0
  6
CONTINUOUS
 62
     7
100
AcDbLine
 10
232.04658966
 20
111.49577409
 30
0.0
 11
232.0469168
 21
111.51682373
 31
0.0
  0
LINE
  5
263
330
1F
100
AcDbEntity
  8
SLD-0
  6
CONTINUOUS
 62
     7
100
AcDbLine
 10
232.0469168
 20
111.51682373
 30
0.0
 11
232.04701735
 21
111.53872414
 31
0.0
  0
LINE
  5
264
330
1F
100
AcDbEntity
  8
SLD-0
  6
CONTINUOUS
 62
     7
100
AcDbLine
 10
232.04701735
 20
111.53872414
 30
0.0
 11
232.04689147
 21
111.56145136
 31
0.0
  0
LINE
  5
265
330
1F
100
AcDbEntity
  8
SLD-0
  6
CONTINUOUS
 62
     7
100
AcDbLine
 10
232.04689147
 20
111.56145136
 30
0.0
 11
232.04653934
 21
111.58498143
 31
0.0
  0
LINE
  5
266
330
1F
100
AcDbEntity
  8
SLD-0
  6
CONTINUOUS
 62
     7
100
AcDbLine
 10
232.04653934
 20
111.58498143
 30
0.0
 11
232.04596111
 21
111.60929037
 31
0.0
  0
LINE
  5
267
330
1F
100
AcDbEntity
  8
SLD-0
  6
CONTINUOUS
 62
     7
100
AcDbLine
 10
232.04596111
 20
111.60929037
 30
0.0
 11
232.04515695
 21
111.63435423
 31
0.0
  0
LINE
  5
268
330
1F
100
AcDbEntity
  8
SLD-0
  6
CONTINUOUS
 62
     7
100
AcDbLine
 10
232.04515695
 20
111.63435423
 30
0.0
 11
232.04412701
 21
111.66014906
 31
0.0
  0
LINE
  5
269
330
1F
100
AcDbEntity
  8
SLD-0
  6
CONTINUOUS
 62
     7
100
AcDbLine
 10
232.04412701
 20
111.66014906
 30
0.0
 11
232.04287145
 21
111.68665029
 31
0.0
  0
LINE
  5
26A
330
1F
100
AcDbEntity
  8
SLD-0
  6
CONTINUOUS
 62
     7
100
AcDbLine
 10
232.04287145
 20
111.68665029
 30
0.0
 11
232.04138983
 21
111.71381936
 31
0.0
  0
LINE
  5
26B
330
1F
100
AcDbEntity
  8
SLD-0
  6
CONTINUOUS
 62
     7
100
AcDbLine
 10
232.04138983
 20
111.71381936
 30
0.0
 11
232.03968116
 21
111.74160323
 31
0.0
  0
LINE
  5
26C
330
1F
100
AcDbEntity
  8
SLD-0
  6
CONTINUOUS
 62
     7
100
AcDbLine
 10
232.03968116
 20
111.74160323
 30
0.0
 11
232.03774441
 21
111.76994818
 31
0.0
  0
LINE
  5
26D
330
1F
100
AcDbEntity
  8
SLD-0
  6
CONTINUOUS
 62
     7
100
AcDbLine
 10
232.03774441
 20
111.76994818
 30
0.0
 11
232.03557856
 21
111.79880049
 31
0.0
  0
LINE
  5
26E
330
1F
100
AcDbEntity
  8
SLD-0
  6
CONTINUOUS
 62
     7
100
AcDbLine
 10
232.03557856
 20
111.79880049
 30
0.0
 11
232.03318258
 21
111.82810647
 31
0.0
  0
LINE
  5
26F
330
1F
100
AcDbEntity
  8
SLD-0
  6
CONTINUOUS
 62
     7
100
AcDbLine
 10
232.03318258
 20
111.82810647
 30
0.0
 11
232.03055545
 21
111.8578124
 31
0.0
  0
LINE
  5
270
330
1F
100
AcDbEntity
  8
SLD-0
  6
CONTINUOUS
 62
     7
100
AcDbLine
 10
232.03055545
 20
111.8578124
 30
0.0
 11
232.02769615
 21
111.88786458
 31
0.0
  0
LINE
  5
271
330
1F
100
AcDbEntity
  8
SLD-0
  6
CONTINUOUS
 62
     7
100
AcDbLine
 10
232.02769615
 20
111.88786458
 30
0.0
 11
232.02460364
 21
111.9182093
 31
0.0
  0
LINE
  5
272
330
1F
100
AcDbEntity
  8
SLD-0
  6
CONTINUOUS
 62
     7
100
AcDbLine
 10
232.02460364
 20
111.9182093
 30
0.0
 11
232.02128508
 21
111.94879568
 31
0.0
  0
LINE
  5
273
330
1F
100
AcDbEntity
  8
SLD-0
  6
CONTINUOUS
 62
     7
100
AcDbLine
 10
232.02128508
 20
111.94879568
 30
0.0
 11
232.01777379
 21
111.97958193
 31
0.0
  0
LINE
  5
274
330
1F
100
AcDbEntity
  8
SLD-0
  6
CONTINUOUS
 62
     7
100
AcDbLine
 10
232.01777379
 20
111.97958193
 30
0.0
 11
232.01410831
 21
112.01052809
 31
0.0
  0
LINE
  5
275
330
1F
100
AcDbEntity
  8
SLD-0
  6
CONTINUOUS
 62
     7
100
AcDbLine
 10
232.01410831
 20
112.01052809
 30
0.0
 11
232.01032719
 21
112.04159417
 31
0.0
  0
LINE
  5
276
330
1F
100
AcDbEntity
  8
SLD-0
  6
CONTINUOUS
 62
     7
100
AcDbLine
 10
232.01032719
 20
112.04159417
 30
0.0
 11
232.00646897
 21
112.0727402
 31
0.0
  0
LINE
  5
277
330
1F
100
AcDbEntity
  8
SLD-0
  6
CONTINUOUS
 62
     7
100
AcDbLine
 10
232.00646897
 20
112.0727402
 30
0.0
 11
232.00257221
 21
112.10392621
 31
0.0
  0
LINE
  5
278
330
1F
100
AcDbEntity
  8
SLD-0
  6
CONTINUOUS
 62
     7
100
AcDbLine
 10
232.0025717362
 20
211.90392364
 30
0.0
 11
232.0063679662
 21
211.90698573
 31
0.0
  0
LINE
  5
279
330
1F
100
AcDbEntity
  8
SLD-0
  6
CONTINUOUS
 62
     7
100
AcDbLine
 10
232.0063679662
 20
211.90698573
 30
0.0
 11
232.0101342262
 21
211.91022546
 31
0.0
  0
LINE
  5
27A
330
1F
100
AcDbEntity
  8
SLD-0
  6
CONTINUOUS
 62
     7
100
AcDbLine
 10
232.0101342262
 20
211.91022546
 30
0.0
 11
232.0138405762
 21
211.91382048
 31
0.0
  0
LINE
  5
27B
330
1F
100
AcDbEntity
  8
SLD-0
  6
CONTINUOUS
 62
     7
100
AcDbLine
 10
232.0138405762
 20
211.91382048
 30
0.0
 11
232.0174570362
 21
211.91794841
 31
0.0
  0
LINE
  5
27C
330
1F
100
AcDbEntity
  8
SLD-0
  6
CONTINUOUS
 62
     7
100
AcDbLine
 10
232.0174570362
 20
211.91794841
 30
0.0
 11
232.0209536562
 21
211.9227869
 31
0.0
  0
LINE
  5
27D
330
1F
100
AcDbEntity
  8
SLD-0
  6
CONTINUOUS
 62
     7
100
AcDbLine
 10
232.0209536562
 20
211.9227869
 30
0.0
 11
232.0243004762
 21
211.9285136
 31
0.0
  0
LINE
  5
27E
330
1F
100
AcDbEntity
  8
SLD-0
  6
CONTINUOUS
 62
     7
100
AcDbLine
 10
232.0243004762
 20
211.9285136
 30
0.0
 11
232.0274675362
 21
211.93530615
 31
0.0
  0
LINE
  5
27F
330
1F
100
AcDbEntity
  8
SLD-0
  6
CONTINUOUS
 62
     7
100
AcDbLine
 10
232.0274675362
 20
211.93530615
 30
0.0
 11
232.0304248662
 21
211.94334219
 31
0.0
  0
LINE
  5
280
330
1F
100
AcDbEntity
  8
SLD-0
  6
CONTINUOUS
 62
     7
100
AcDbLine
 10
232.0304248662
 20
211.94334219
 30
0.0
 11
232.0331430962
 21
211.95279499
 31
0.0
  0
LINE
  5
281
330
1F
100
AcDbEntity
  8
SLD-0
  6
CONTINUOUS
 62
     7
100
AcDbLine
 10
232.0331430962
 20
211.95279499
 30
0.0
 11
232.0356081962
 21
211.96372255
 31
0.0
  0
LINE
  5
282
330
1F
100
AcDbEntity
  8
SLD-0
  6
CONTINUOUS
 62
     7
100
AcDbLine
 10
232.0356081962
 20
211.96372255
 30
0.0
 11
232.0378227162
 21
211.97605862
 31
0.0
  0
LINE
  5
283
330
1F
100
AcDbEntity
  8
SLD-0
  6
CONTINUOUS
 62
     7
100
AcDbLine
 10
232.0378227162
 20
211.97605862
 30
0.0
 11
232.0397899962
 21
211.9897308
 31
0.0
  0
LINE
  5
284
330
1F
100
AcDbEntity
  8
SLD-0
  6
CONTINUOUS
 62
     7
100
AcDbLine
 10
232.0397899962
 20
211.9897308
 30
0.0
 11
232.0415133962
 21
212.00466667
 31
0.0
  0
LINE
  5
285
330
1F
100
AcDbEntity
  8
SLD-0
  6
CONTINUOUS
 62
     7
100
AcDbLine
 10
232.0415133962
 20
212.00466667
 30
0.0
 11
232.0429962762
 21
212.02079383
 31
0.0
  0
LINE
  5
286
330
1F
100
AcDbEntity
  8
SLD-0
  6
CONTINUOUS
 62
     7
100
AcDbLine
 10
232.0429962762
 20
212.02079383
 30
0.0
 11
232.0442419762
 21
212.03803987
 31
0.0
  0
LINE
  5
287
330
1F
100
AcDbEntity
  8
SLD-0
  6
CONTINUOUS
 62
     7
100
AcDbLine
 10
232.0442419762
 20
212.03803987
 30
0.0
 11
232.0452538662
 21
212.05633239
 31
0.0
  0
LINE
  5
288
330
1F
100
AcDbEntity
  8
SLD-0
  6
CONTINUOUS
 62
     7
100
AcDbLine
 10
232.0452538662
 20
212.05633239
 30
0.0
 11
232.0460352962
 21
212.07559896
 31
0.0
  0
LINE
  5
289
330
1F
100
AcDbEntity
  8
SLD-0
  6
CONTINUOUS
 62
     7
100
AcDbLine
 10
232.0460352962
 20
212.07559896
 30
0.0
 11
232.0465891862
 21
212.09577388
 31
0.0
  0
LINE
  5
28A
330
1F
100
AcDbEntity
  8
SLD-0
  6
CONTINUOUS
 62
     7
100
AcDbLine
 10
232.0465891862
 20
212.09577388
 30
0.0
 11
232.0469163162
 21
212.11682353
 31
0.0
  0
LINE
  5
28B
330
1F
100
AcDbEntity
  8
SLD-0
  6
CONTINUOUS
 62
     7
100
AcDbLine
 10
232.0469163162
 20
212.11682353
 30
0.0
 11
232.0470168662
 21
212.13872394
 31
0.0
  0
LINE
  5
28C
330
1F
100
AcDbEntity
  8
SLD-0
  6
CONTINUOUS
 62
     7
100
AcDbLine
 10
232.0470168662
 20
212.13872394
 30
0.0
 11
232.0468909962
 21
212.16145115
 31
0.0
  0
LINE
  5
28D
330
1F
100
AcDbEntity
  8
SLD-0
  6
CONTINUOUS
 62
     7
100
AcDbLine
 10
232.0468909962
 20
212.16145115
 30
0.0
 11
232.0465388562
 21
212.18498122
 31
0.0
  0
LINE
  5
28E
330
1F
100
AcDbEntity
  8
SLD-0
  6
CONTINUOUS
 62
     7
100
AcDbLine
 10
232.0465388562
 20
212.18498122
 30
0.0
 11
232.0459606362
 21
212.20929017
 31
0.0
  0
LINE
  5
28F
330
1F
100
AcDbEntity
  8
SLD-0
  6
CONTINUOUS
 62
     7
100
AcDbLine
 10
232.0459606362
 20
212.20929017
 30
0.0
 11
232.0451564662
 21
212.23435403
 31
0.0
  0
LINE
  5
290
330
1F
100
AcDbEntity
  8
SLD-0
  6
CONTINUOUS
 62
     7
100
AcDbLine
 10
232.0451564662
 20
212.23435403
 30
0.0
 11
232.0441265362
 21
212.26014885
 31
0.0
  0
LINE
  5
291
330
1F
100
AcDbEntity
  8
SLD-0
  6
CONTINUOUS
 62
     7
100
AcDbLine
 10
232.0441265362
 20
212.26014885
 30
0.0
 11
232.0428709662
 21
212.28665009
 31
0.0
  0
LINE
  5
292
330
1F
100
AcDbEntity
  8
SLD-0
  6
CONTINUOUS
 62
     7
100
AcDbLine
 10
232.0428709662
 20
212.28665009
 30
0.0
 11
232.0413893462
 21
212.31381917
 31
0.0
  0
LINE
  5
293
330
1F
100
AcDbEntity
  8
SLD-0
  6
CONTINUOUS
 62
     7
100
AcDbLine
 10
232.0413893462
 20
212.31381917
 30
0.0
 11
232.0396806762
 21
212.34160302
 31
0.0
  0
LINE
  5
294
330
1F
100
AcDbEntity
  8
SLD-0
  6
CONTINUOUS
 62
     7
100
AcDbLine
 10
232.0396806762
 20
212.34160302
 30
0.0
 11
232.0377439262
 21
212.36994797
 31
0.0
  0
LINE
  5
295
330
1F
100
AcDbEntity
  8
SLD-0
  6
CONTINUOUS
 62
     7
100
AcDbLine
 10
232.0377439262
 20
212.36994797
 30
0.0
 11
232.0355780762
 21
212.39880029
 31
0.0
  0
LINE
  5
296
330
1F
100
AcDbEntity
  8
SLD-0
  6
CONTINUOUS
 62
     7
100
AcDbLine
 10
232.0355780762
 20
212.39880029
 30
0.0
 11
232.0331821062
 21
212.42810627
 31
0.0
  0
LINE
  5
297
330
1F
100
AcDbEntity
  8
SLD-0
  6
CONTINUOUS
 62
     7
100
AcDbLine
 10
232.0331821062
 20
212.42810627
 30
0.0
 11
232.0305549762
 21
212.4578122
 31
0.0
  0
LINE
  5
298
330
1F
100
AcDbEntity
  8
SLD-0
  6
CONTINUOUS
 62
     7
100
AcDbLine
 10
232.0305549762
 20
212.4578122
 30
0.0
 11
232.0276956662
 21
212.48786438
 31
0.0
  0
LINE
  5
299
330
1F
100
AcDbEntity
  8
SLD-0
  6
CONTINUOUS
 62
     7
100
AcDbLine
 10
232.0276956662
 20
212.48786438
 30
0.0
 11
232.0246031662
 21
212.51820909
 31
0.0
  0
LINE
  5
29A
330
1F
100
AcDbEntity
  8
SLD-0
  6
CONTINUOUS
 62
     7
100
AcDbLine
 10
232.0246031662
 20
212.51820909
 30
0.0
 11
232.0212846062
 21
212.54879546
 31
0.0
  0
LINE
  5
29B
330
1F
100
AcDbEntity
  8
SLD-0
  6
CONTINUOUS
 62
     7
100
AcDbLine
 10
232.0212846062
 20
212.54879546
 30
0.0
 11
232.0177733062
 21
212.57958173
 31
0.0
  0
LINE
  5
29C
330
1F
100
AcDbEntity
  8
SLD-0
  6
CONTINUOUS
 62
     7
100
AcDbLine
 10
232.0177733062
 20
212.57958173
 30
0.0
 11
232.0141078262
 21
212.61052788
 31
0.0
  0
LINE
  5
29D
330
1F
100
AcDbEntity
  8
SLD-0
  6
CONTINUOUS
 62
     7
100
AcDbLine
 10
232.0141078262
 20
212.61052788
 30
0.0
 11
232.0103267062
 21
212.64159397
 31
0.0
  0
LINE
  5
29E
330
1F
100
AcDbEntity
  8
SLD-0
  6
CONTINUOUS
 62
     7
100
AcDbLine
 10
232.0103267062
 20
212.64159397
 30
0.0
 11
232.0064684962
 21
212.67274
 31
0.0
  0
LINE
  5
29F
330
1F
100
AcDbEntity
  8
SLD-0
  6
CONTINUOUS
 62
     7
100
AcDbLine
 10
232.0064684962
 20
212.67274
 30
0.0
 11
232.0025717362
 21
212.70392601
 31
0.0
  0
LINE
  5
2A0
330
1F
100
AcDbEntity
  8
SLD-0
  6
CONTINUOUS
 62
     7
100
AcDbLine
 10
232.00257221
 20
210.30392263
 30
0.0
 11
232.00636842
 21
210.33521112
 31
0.0
  0
LINE
  5
2A1
330
1F
100
AcDbEntity
  8
SLD-0
  6
CONTINUOUS
 62
     7
100
AcDbLine
 10
232.00636842
 20
210.33521112
 30
0.0
 11
232.01013468
 21
210.36645521
 31
0.0
  0
LINE
  5
2A2
330
1F
100
AcDbEntity
  8
SLD-0
  6
CONTINUOUS
 62
     7
100
AcDbLine
 10
232.01013468
 20
210.36645521
 30
0.0
 11
232.01384101
 21
210.39761049
 31
0.0
  0
LINE
  5
2A3
330
1F
100
AcDbEntity
  8
SLD-0
  6
CONTINUOUS
 62
     7
100
AcDbLine
 10
232.01384101
 20
210.39761049
 30
0.0
 11
232.01745746
 21
210.42863256
 31
0.0
  0
LINE
  5
2A4
330
1F
100
AcDbEntity
  8
SLD-0
  6
CONTINUOUS
 62
     7
100
AcDbLine
 10
232.01745746
 20
210.42863256
 30
0.0
 11
232.02095407
 21
210.45947702
 31
0.0
  0
LINE
  5
2A5
330
1F
100
AcDbEntity
  8
SLD-0
  6
CONTINUOUS
 62
     7
100
AcDbLine
 10
232.02095407
 20
210.45947702
 30
0.0
 11
232.02430088
 21
210.49009947
 31
0.0
  0
LINE
  5
2A6
330
1F
100
AcDbEntity
  8
SLD-0
  6
CONTINUOUS
 62
     7
100
AcDbLine
 10
232.02430088
 20
210.49009947
 30
0.0
 11
232.02746792
 21
210.52045551
 31
0.0
  0
LINE
  5
2A7
330
1F
100
AcDbEntity
  8
SLD-0
  6
CONTINUOUS
 62
     7
100
AcDbLine
 10
232.02746792
 20
210.52045551
 30
0.0
 11
232.03042525
 21
210.55050072
 31
0.0
  0
LINE
  5
2A8
330
1F
100
AcDbEntity
  8
SLD-0
  6
CONTINUOUS
 62
     7
100
AcDbLine
 10
232.03042525
 20
210.55050072
 30
0.0
 11
232.03314348
 21
210.58019063
 31
0.0
  0
LINE
  5
2A9
330
1F
100
AcDbEntity
  8
SLD-0
  6
CONTINUOUS
 62
     7
100
AcDbLine
 10
232.03314348
 20
210.58019063
 30
0.0
 11
232.03560859
 21
210.60947863
 31
0.0
  0
LINE
  5
2AA
330
1F
100
AcDbEntity
  8
SLD-0
  6
CONTINUOUS
 62
     7
100
AcDbLine
 10
232.03560859
 20
210.60947863
 30
0.0
 11
232.03782311
 21
210.63831583
 31
0.0
  0
LINE
  5
2AB
330
1F
100
AcDbEntity
  8
SLD-0
  6
CONTINUOUS
 62
     7
100
AcDbLine
 10
232.03782311
 20
210.63831583
 30
0.0
 11
232.03979039
 21
210.6666532
 31
0.0
  0
LINE
  5
2AC
330
1F
100
AcDbEntity
  8
SLD-0
  6
CONTINUOUS
 62
     7
100
AcDbLine
 10
232.03979039
 20
210.6666532
 30
0.0
 11
232.0415138
 21
210.69444173
 31
0.0
  0
LINE
  5
2AD
330
1F
100
AcDbEntity
  8
SLD-0
  6
CONTINUOUS
 62
     7
100
AcDbLine
 10
232.0415138
 20
210.69444173
 30
0.0
 11
232.04299669
 21
210.72163241
 31
0.0
  0
LINE
  5
2AE
330
1F
100
AcDbEntity
  8
SLD-0
  6
CONTINUOUS
 62
     7
100
AcDbLine
 10
232.04299669
 20
210.72163241
 30
0.0
 11
232.04424241
 21
210.74817623
 31
0.0
  0
LINE
  5
2AF
330
1F
100
AcDbEntity
  8
SLD-0
  6
CONTINUOUS
 62
     7
100
AcDbLine
 10
232.04424241
 20
210.74817623
 30
0.0
 11
232.04525431
 21
210.77402418
 31
0.0
  0
LINE
  5
2B0
330
1F
100
AcDbEntity
  8
SLD-0
  6
CONTINUOUS
 62
     7
100
AcDbLine
 10
232.04525431
 20
210.77402418
 30
0.0
 11
232.04603575
 21
210.79912723
 31
0.0
  0
LINE
  5
2B1
330
1F
100
AcDbEntity
  8
SLD-0
  6
CONTINUOUS
 62
     7
100
AcDbLine
 10
232.04603575
 20
210.79912723
 30
0.0
 11
232.04658964
 21
210.82344002
 31
0.0
  0
LINE
  5
2B2
330
1F
100
AcDbEntity
  8
SLD-0
  6
CONTINUOUS
 62
     7
100
AcDbLine
 10
232.04658964
 20
210.82344002
 30
0.0
 11
232.04691679
 21
210.84693465
 31
0.0
  0
LINE
  5
2B3
330
1F
100
AcDbEntity
  8
SLD-0
  6
CONTINUOUS
 62
     7
100
AcDbLine
 10
232.04691679
 20
210.84693465
 30
0.0
 11
232.04701735
 21
210.86958847
 31
0.0
  0
LINE
  5
2B4
330
1F
100
AcDbEntity
  8
SLD-0
  6
CONTINUOUS
 62
     7
100
AcDbLine
 10
232.04701735
 20
210.86958847
 30
0.0
 11
232.04689148
 21
210.89137883
 31
0.0
  0
LINE
  5
2B5
330
1F
100
AcDbEntity
  8
SLD-0
  6
CONTINUOUS
 62
     7
100
AcDbLine
 10
232.04689148
 20
210.89137883
 30
0.0
 11
232.04653936
 21
210.91228309
 31
0.0
  0
LINE
  5
2B6
330
1F
100
AcDbEntity
  8
SLD-0
  6
CONTINUOUS
 62
     7
100
AcDbLine
 10
232.04653936
 20
210.91228309
 30
0.0
 11
232.04596113
 21
210.9322786
 31
0.0
  0
LINE
  5
2B7
330
1F
100
AcDbEntity
  8
SLD-0
  6
CONTINUOUS
 62
     7
100
AcDbLine
 10
232.04596113
 20
210.9322786
 30
0.0
 11
232.04515698
 21
210.95134272
 31
0.0
  0
LINE
  5
2B8
330
1F
100
AcDbEntity
  8
SLD-0
  6
CONTINUOUS
 62
     7
100
AcDbLine
 10
232.04515698
 20
210.95134272
 30
0.0
 11
232.04412704
 21
210.96945279
 31
0.0
  0
LINE
  5
2B9
330
1F
100
AcDbEntity
  8
SLD-0
  6
CONTINUOUS
 62
     7
100
AcDbLine
 10
232.04412704
 20
210.96945279
 30
0.0
 11
232.04287148
 21
210.98658546
 31
0.0
  0
LINE
  5
2BA
330
1F
100
AcDbEntity
  8
SLD-0
  6
CONTINUOUS
 62
     7
100
AcDbLine
 10
232.04287148
 20
210.98658546
 30
0.0
 11
232.04138986
 21
211.00269998
 31
0.0
  0
LINE
  5
2BB
330
1F
100
AcDbEntity
  8
SLD-0
  6
CONTINUOUS
 62
     7
100
AcDbLine
 10
232.04138986
 20
211.00269998
 30
0.0
 11
232.03968118
 21
211.01773768
 31
0.0
  0
LINE
  5
2BC
330
1F
100
AcDbEntity
  8
SLD-0
  6
CONTINUOUS
 62
     7
100
AcDbLine
 10
232.03968118
 20
211.01773768
 30
0.0
 11
232.03774443
 21
211.03163908
 31
0.0
  0
LINE
  5
2BD
330
1F
100
AcDbEntity
  8
SLD-0
  6
CONTINUOUS
 62
     7
100
AcDbLine
 10
232.03774443
 20
211.03163908
 30
0.0
 11
232.03557858
 21
211.04434471
 31
0.0
  0
LINE
  5
2BE
330
1F
100
AcDbEntity
  8
SLD-0
  6
CONTINUOUS
 62
     7
100
AcDbLine
 10
232.03557858
 20
211.04434471
 30
0.0
 11
232.03318259
 21
211.05579507
 31
0.0
  0
LINE
  5
2BF
330
1F
100
AcDbEntity
  8
SLD-0
  6
CONTINUOUS
 62
     7
100
AcDbLine
 10
232.03318259
 20
211.05579507
 30
0.0
 11
232.03055546
 21
211.0659307
 31
0.0
  0
LINE
  5
2C0
330
1F
100
AcDbEntity
  8
SLD-0
  6
CONTINUOUS
 62
     7
100
AcDbLine
 10
232.03055546
 20
211.0659307
 30
0.0
 11
232.02769615
 21
211.0746921
 31
0.0
  0
LINE
  5
2C1
330
1F
100
AcDbEntity
  8
SLD-0
  6
CONTINUOUS
 62
     7
100
AcDbLine
 10
232.02769615
 20
211.0746921
 30
0.0
 11
232.02460364
 21
211.08201983
 31
0.0
  0
LINE
  5
2C2
330
1F
100
AcDbEntity
  8
SLD-0
  6
CONTINUOUS
 62
     7
100
AcDbLine
 10
232.02460364
 20
211.08201983
 30
0.0
 11
232.02128508
 21
211.08791729
 31
0.0
  0
LINE
  5
2C3
330
1F
100
AcDbEntity
  8
SLD-0
  6
CONTINUOUS
 62
     7
100
AcDbLine
 10
232.02128508
 20
211.08791729
 30
0.0
 11
232.01777378
 21
211.09258934
 31
0.0
  0
LINE
  5
2C4
330
1F
100
AcDbEntity
  8
SLD-0
  6
CONTINUOUS
 62
     7
100
AcDbLine
 10
232.01777378
 20
211.09258934
 30
0.0
 11
232.0141083
 21
211.09628104
 31
0.0
  0
LINE
  5
2C5
330
1F
100
AcDbEntity
  8
SLD-0
  6
CONTINUOUS
 62
     7
100
AcDbLine
 10
232.0141083
 20
211.09628104
 30
0.0
 11
232.01032718
 21
211.0992375
 31
0.0
  0
LINE
  5
2C6
330
1F
100
AcDbEntity
  8
SLD-0
  6
CONTINUOUS
 62
     7
100
AcDbLine
 10
232.01032718
 20
211.0992375
 30
0.0
 11
232.00646897
 21
211.10170379
 31
0.0
  0
LINE
  5
2C7
330
1F
100
AcDbEntity
  8
SLD-0
  6
CONTINUOUS
 62
     7
100
AcDbLine
 10
232.00646897
 20
211.10170379
 30
0.0
 11
232.00257221
 21
211.103925
 31
0.0
  0
LINE
  5
2C8
330
1F
100
AcDbEntity
  8
SLD-0
  6
PHANTOM
 62
     7
100
AcDbLine
 10
271.89190392
 20
114.34216011
 30
0.0
 11
271.89190392
 21
208.06568873
 31
0.0
  0
LINE
  5
2C9
330
1F
100
AcDbEntity
  8
SLD-0
  6
PHANTOM
 62
     7
100
AcDbLine
 10
238.19190398
 20
208.65392442
 30
0.0
 11
238.19190398
 21
113.75392442
 31
0.0
  0
LINE
  5
2CA
330
1F
100
AcDbEntity
  8
SLD-0
  6
PHANTOM
 62
     7
100
AcDbLine
 10
238.19190398
 20
208.65392442
 30
0.0
 11
271.89190392
 21
208.06568873
 31
0.0
  0
LINE
  5
2CB
330
1F
100
AcDbEntity
  8
SLD-0
  6
PHANTOM
 62
     7
100
AcDbLine
 10
271.89190392
 20
114.34216011
 30
0.0
 11
238.19190398
 21
113.75392442
 31
0.0
  0
LINE
  5
2CC
330
1F
100
AcDbEntity
  8
SLD-0
  6
CONTINUOUS
 62
     7
100
AcDbLine
 10
342.79097143
 20
206.69392421
 30
0.0
 11
355.79097143
 21
206.69392421
 31
0.0
  0
LINE
  5
2CD
330
1F
100
AcDbEntity
  8
SLD-0
  6
CONTINUOUS
 62
     7
100
AcDbLine
 10
356.79097143
 20
205.69392421
 30
0.0
 11
356.79097143
 21
116.69392421
 31
0.0
  0
LINE
  5
2CE
330
1F
100
AcDbEntity
  8
SLD-0
  6
CONTINUOUS
 62
     7
100
AcDbLine
 10
355.79097143
 20
115.69392421
 30
0.0
 11
342.79097143
 21
115.69392421
 31
0.0
  0
LINE
  5
2CF
330
1F
100
AcDbEntity
  8
SLD-0
  6
CONTINUOUS
 62
     7
100
AcDbLine
 10
341.79097143
 20
116.69392421
 30
0.0
 11
341.79097143
 21
205.69392421
 31
0.0
  0
ARC
  5
2D0
330
1F
100
AcDbEntity
  8
SLD-0
 62
     7
100
AcDbCircle
 10
163.39190392
 20
113.70392449
 30
0.0
 40
0.5
100
AcDbArc
 50
180.0
 51
270.0
  0
ARC
  5
2D1
330
1F
100
AcDbEntity
  8
SLD-0
 62
     7
100
AcDbCircle
 10
163.39190392
 20
208.70392435
 30
0.0
 40
0.5
100
AcDbArc
 50
90.0
 51
180.0
  0
ARC
  5
2D2
330
1F
100
AcDbEntity
  8
SLD-0
  6
CONTINUOUS
 62
     7
100
AcDbCircle
 10
396.99097143
 20
207.203924185
 30
0.0
 40
2.0
100
AcDbArc
 50
0.0
 51
90.0
  0
ARC
  5
2D3
330
1F
100
AcDbEntity
  8
SLD-0
  6
CONTINUOUS
 62
     7
100
AcDbCircle
 10
396.99097143
 20
115.203924235
 30
0.0
 40
2.0
100
AcDbArc
 50
270.0
 51
0.0
  0
ARC
  5
2D4
330
1F
100
AcDbEntity
  8
SLD-0
  6
CONTINUOUS
 62
     7
100
AcDbCircle
 10
304.99097143
 20
115.203924235
 30
0.0
 40
2.0
100
AcDbArc
 50
180.0
 51
270.0
  0
ARC
  5
2D5
330
1F
100
AcDbEntity
  8
SLD-0
  6
CONTINUOUS
 62
     7
100
AcDbCircle
 10
304.99097143
 20
207.203924185
 30
0.0
 40
2.0
100
AcDbArc
 50
90.0
 51
180.0
  0
ARC
  5
2D6
330
1F
100
AcDbEntity
  8
SLD-0
  6
CONTINUOUS
 62
     7
100
AcDbCircle
 10
305.74097185
 20
206.45392401
 30
0.0
 40
0.75
100
AcDbArc
 50
90.0
 51
180.0
  0
ARC
  5
2D7
330
1F
100
AcDbEntity
  8
SLD-0
  6
CONTINUOUS
 62
     7
100
AcDbCircle
 10
396.24097101
 20
206.45392294
 30
0.0
 40
0.7500000000000001
100
AcDbArc
 50
0.0
 51
89.9999992361
  0
ARC
  5
2D8
330
1F
100
AcDbEntity
  8
SLD-0
  6
CONTINUOUS
 62
     7
100
AcDbCircle
 10
396.24097101
 20
115.95392548
 30
0.0
 40
0.7500000000000001
100
AcDbArc
 50
270.0000007639
 51
0.0
  0
ARC
  5
2D9
330
1F
100
AcDbEntity
  8
SLD-0
  6
CONTINUOUS
 62
     7
100
AcDbCircle
 10
305.74097185
 20
115.95392442
 30
0.0
 40
0.75
100
AcDbArc
 50
180.0
 51
270.0
  0
CIRCLE
  5
2DA
330
1F
100
AcDbEntity
  8
SLD-0
  6
CONTINUOUS
 62
     7
100
AcDbCircle
 10
312.94097143
 20
187.87392442
 30
0.0
 40
1.75
  0
CIRCLE
  5
2DB
330
1F
100
AcDbEntity
  8
SLD-0
  6
CONTINUOUS
 62
     7
100
AcDbCircle
 10
389.04097143
 20
187.87392442
 30
0.0
 40
1.749999999999886
  0
CIRCLE
  5
2DC
330
1F
100
AcDbEntity
  8
SLD-0
  6
CONTINUOUS
 62
     7
100
AcDbCircle
 10
312.94097143
 20
180.25392442
 30
0.0
 40
1.75
  0
CIRCLE
  5
2DD
330
1F
100
AcDbEntity
  8
SLD-0
  6
CONTINUOUS
 62
     7
100
AcDbCircle
 10
389.04097143
 20
180.25392442
 30
0.0
 40
1.749999999999886
  0
CIRCLE
  5
2DE
330
1F
100
AcDbEntity
  8
SLD-0
  6
CONTINUOUS
 62
     7
100
AcDbCircle
 10
312.94097143
 20
172.63392442
 30
0.0
 40
1.75
  0
CIRCLE
  5
2DF
330
1F
100
AcDbEntity
  8
SLD-0
  6
CONTINUOUS
 62
     7
100
AcDbCircle
 10
389.04097143
 20
172.63392442
 30
0.0
 40
1.749999999999886
  0
CIRCLE
  5
2E0
330
1F
100
AcDbEntity
  8
SLD-0
  6
CONTINUOUS
 62
     7
100
AcDbCircle
 10
312.94097143
 20
165.01392442
 30
0.0
 40
1.75
  0
ARC
  5
2E1
330
1F
100
AcDbEntity
  8
SLD-0
  6
CONTINUOUS
 62
     7
100
AcDbCircle
 10
33.00902857
 20
115.20392442
 30
0.0
 40
2.0
100
AcDbArc
 50
180.0
 51
270.0
  0
ARC
  5
2E2
330
1F
100
AcDbEntity
  8
SLD-0
  6
CONTINUOUS
 62
     7
100
AcDbCircle
 10
33.00902857
 20
207.20392442
 30
0.0
 40
2.0
100
AcDbArc
 50
90.0
 51
180.0
  0
ARC
  5
2E3
330
1F
100
AcDbEntity
  8
SLD-0
  6
CONTINUOUS
 62
     7
100
AcDbCircle
 10
125.00902853
 20
207.20392442
 30
0.0
 40
2.0
100
AcDbArc
 50
0.0000011459
 51
89.9999988541
  0
ARC
  5
2E4
330
1F
100
AcDbEntity
  8
SLD-0
  6
CONTINUOUS
 62
     7
100
AcDbCircle
 10
125.00902857
 20
115.20392438
 30
0.0
 40
1.999999959999999
100
AcDbArc
 50
270.0000025783
 51
0.0
  0
CIRCLE
  5
2E5
330
1F
100
AcDbEntity
  8
SLD-0
  6
CONTINUOUS
 62
     7
100
AcDbCircle
 10
389.04097143
 20
165.01392442
 30
0.0
 40
1.749999999999886
  0
CIRCLE
  5
2E6
330
1F
100
AcDbEntity
  8
SLD-0
  6
CONTINUOUS
 62
     7
100
AcDbCircle
 10
312.94097143
 20
157.39392442
 30
0.0
 40
1.75
  0
CIRCLE
  5
2E7
330
1F
100
AcDbEntity
  8
SLD-0
  6
CONTINUOUS
 62
     7
100
AcDbCircle
 10
389.04097143
 20
157.39392442
 30
0.0
 40
1.749999999999886
  0
CIRCLE
  5
2E8
330
1F
100
AcDbEntity
  8
SLD-0
  6
CONTINUOUS
 62
     7
100
AcDbCircle
 10
312.94097143
 20
149.77392442
 30
0.0
 40
1.75
  0
ARC
  5
2E9
330
1F
100
AcDbEntity
  8
SLD-0
  6
CONTINUOUS
 62
     7
100
AcDbCircle
 10
230.4709289548
 20
108.7039242286
 30
0.0
 40
1.299999999999988
100
AcDbArc
 50
270.0
 51
343.3984504
  0
ARC
  5
2EA
330
1F
100
AcDbEntity
  8
SLD-0
  6
CONTINUOUS
 62
     7
100
AcDbCircle
 10
230.4709282915
 20
113.1039244175
 30
0.0
 40
1.299999999999997
100
AcDbArc
 50
16.6015496
 51
90.0
  0
ARC
  5
2EB
330
1F
100
AcDbEntity
  8
SLD-0
  6
CONTINUOUS
 62
     7
100
AcDbCircle
 10
223.09190398
 20
110.90392442
 30
0.0
 40
8.999999985665458
100
AcDbArc
 50
10.2403483325
 51
16.6015496098
  0
ARC
  5
2EC
330
1F
100
AcDbEntity
  8
SLD-0
  6
CONTINUOUS
 62
     7
100
AcDbCircle
 10
223.09190398
 20
110.90392442
 30
0.0
 40
9.000000676707417
100
AcDbArc
 50
343.3984504137
 51
349.7596516853
  0
ARC
  5
2ED
330
1F
100
AcDbEntity
  8
SLD-0
  6
CONTINUOUS
 62
     7
100
AcDbCircle
 10
230.4709289703
 20
209.3039241607
 30
0.0
 40
1.30000000000004
100
AcDbArc
 50
270.0
 51
343.3984504
  0
ARC
  5
2EE
330
1F
100
AcDbEntity
  8
SLD-0
  6
CONTINUOUS
 62
     7
100
AcDbCircle
 10
230.4709278438
 20
213.703924363
 30
0.0
 40
1.299999995000036
100
AcDbArc
 50
16.6015496
 51
90.0
  0
ARC
  5
2EF
330
1F
100
AcDbEntity
  8
SLD-0
  6
CONTINUOUS
 62
     7
100
AcDbCircle
 10
223.0919037431
 20
211.5039244299
 30
0.0
 40
9.000000940856932
100
AcDbArc
 50
343.3984503982
 51
349.7596516656
  0
ARC
  5
2F0
330
1F
100
AcDbEntity
  8
SLD-0
  6
CONTINUOUS
 62
     7
100
AcDbCircle
 10
223.0919037431
 20
211.5039244299
 30
0.0
 40
8.999999760220138
100
AcDbArc
 50
10.2403483421
 51
16.6015496004
  0
CIRCLE
  5
2F1
330
1F
100
AcDbEntity
  8
SLD-0
  6
CONTINUOUS
 62
     7
100
AcDbCircle
 10
389.04097143
 20
149.77392442
 30
0.0
 40
1.749999999999886
  0
ARC
  5
2F2
330
1F
100
AcDbEntity
  8
SLD-0
  6
CONTINUOUS
 62
     7
100
AcDbCircle
 10
223.09190398
 20
110.90392442
 30
0.0
 40
8.856635935950052
100
AcDbArc
 50
357.4114200357
 51
2.5885799643
  0
ARC
  5
2F3
330
1F
100
AcDbEntity
  8
SLD-0
  6
CONTINUOUS
 62
     7
100
AcDbCircle
 10
223.09190398
 20
110.90392442
 30
0.0
 40
8.99110738992333
100
AcDbArc
 50
349.7494133359
 51
352.3301102929
  0
ARC
  5
2F4
330
1F
100
AcDbEntity
  8
SLD-0
  6
CONTINUOUS
 62
     7
100
AcDbCircle
 10
223.09190398
 20
110.90392442
 30
0.0
 40
8.991107417951056
100
AcDbArc
 50
7.6698910333
 51
10.2505930422
  0
ARC
  5
2F5
330
1F
100
AcDbEntity
  8
SLD-0
  6
CONTINUOUS
 62
     7
100
AcDbCircle
 10
223.0919037431
 20
211.5039244299
 30
0.0
 40
8.991107155135694
100
AcDbArc
 50
7.6698899092
 51
10.2505917353
  0
ARC
  5
2F6
330
1F
100
AcDbEntity
  8
SLD-0
  6
CONTINUOUS
 62
     7
100
AcDbCircle
 10
223.0919037431
 20
211.5039244299
 30
0.0
 40
8.856636173075984
100
AcDbArc
 50
357.411420041
 51
2.5885747796
  0
ARC
  5
2F7
330
1F
100
AcDbEntity
  8
SLD-0
  6
CONTINUOUS
 62
     7
100
AcDbCircle
 10
223.0919037431
 20
211.5039244299
 30
0.0
 40
8.991107654073385
100
AcDbArc
 50
349.7494133165
 51
352.3301091056
  0
ARC
  5
2F8
330
1F
100
AcDbEntity
  8
SLD-0
  6
CONTINUOUS
 62
     7
100
AcDbCircle
 10
201.09190332
 20
214.60392464
 30
0.0
 40
1.599999460000128
100
AcDbArc
 50
89.9999763655
 51
180.0
  0
ARC
  5
2F9
330
1F
100
AcDbEntity
  8
SLD-0
  6
CONTINUOUS
 62
     7
100
AcDbCircle
 10
222.19190473
 20
214.60392464
 30
0.0
 40
1.60000069000003
100
AcDbArc
 50
359.9999921218
 51
90.0
  0
ARC
  5
2FA
330
1F
100
AcDbEntity
  8
SLD-0
  6
CONTINUOUS
 62
     7
100
AcDbCircle
 10
201.09190398
 20
107.80392442
 30
0.0
 40
1.600000000000023
100
AcDbArc
 50
180.0
 51
270.0
  0
ARC
  5
2FB
330
1F
100
AcDbEntity
  8
SLD-0
  6
CONTINUOUS
 62
     7
100
AcDbCircle
 10
222.19190473
 20
107.8039242
 30
0.0
 40
1.600001010000043
100
AcDbArc
 50
270.0
 51
0.0000078782
  0
ARC
  5
2FC
330
1F
100
AcDbEntity
  8
SLD-0
  6
CONTINUOUS
 62
     7
100
AcDbCircle
 10
225.191904095
 20
110.903924415
 30
0.0
 40
2.000000110000101
100
AcDbArc
 50
269.9999819518
 51
0.0
  0
ARC
  5
2FD
330
1F
100
AcDbEntity
  8
SLD-0
  6
CONTINUOUS
 62
     7
100
AcDbCircle
 10
179.191904095
 20
110.90392442
 30
0.0
 40
2.000000115000006
100
AcDbArc
 50
180.0
 51
270.0000060161
  0
ARC
  5
2FE
330
1F
100
AcDbEntity
  8
SLD-0
  6
CONTINUOUS
 62
     7
100
AcDbCircle
 10
227.191903905
 20
113.903923145
 30
0.0
 40
1.200001690000008
100
AcDbArc
 50
0.0
 51
90.0
  0
ARC
  5
2FF
330
1F
100
AcDbEntity
  8
SLD-0
  6
CONTINUOUS
 62
     7
100
AcDbCircle
 10
179.19190398
 20
211.50392442
 30
0.0
 40
2.000000000000028
100
AcDbArc
 50
90.0
 51
180.0
  0
ARC
  5
300
330
1F
100
AcDbEntity
  8
SLD-0
  6
CONTINUOUS
 62
     7
100
AcDbCircle
 10
225.19190398
 20
211.503924305
 30
0.0
 40
2.000000115000131
100
AcDbArc
 50
0.0
 51
90.0000177617
  0
ARC
  5
301
330
1F
100
AcDbEntity
  8
SLD-0
  6
CONTINUOUS
 62
     7
100
AcDbCircle
 10
227.191903795
 20
208.503925575
 30
0.0
 40
1.20000169000005
100
AcDbArc
 50
270.0
 51
0.0
  0
ARC
  5
302
330
1F
100
AcDbEntity
  8
SLD-0
  6
CONTINUOUS
 62
     7
100
AcDbCircle
 10
258.1013555
 20
116.803924149
 30
0.0
 40
0.9999997289909501
100
AcDbArc
 50
270.0
 51
339.2539875061
  0
ARC
  5
303
330
1F
100
AcDbEntity
  8
SLD-0
  6
CONTINUOUS
 62
     7
100
AcDbCircle
 10
258.1013555
 20
205.6039249811
 30
0.0
 40
1.000000548892587
100
AcDbArc
 50
20.7460798689
 51
90.0000154699
  0
ARC
  5
304
330
1F
100
AcDbEntity
  8
SLD-0
  6
CONTINUOUS
 62
     7
100
AcDbCircle
 10
251.1013555
 20
205.6039248383
 30
0.0
 40
1.000000001718064
100
AcDbArc
 50
20.7460800352
 51
90.0
  0
ARC
  5
305
330
1F
100
AcDbEntity
  8
SLD-0
  6
CONTINUOUS
 62
     7
100
AcDbCircle
 10
251.1013554973
 20
116.803924421
 30
0.0
 40
0.9999999970039267
100
AcDbArc
 50
270.0
 51
339.253919758
  0
CIRCLE
  5
306
330
1F
100
AcDbEntity
  8
SLD-0
  6
CONTINUOUS
 62
     7
100
AcDbCircle
 10
312.94097143
 20
142.15392442
 30
0.0
 40
1.75
  0
CIRCLE
  5
307
330
1F
100
AcDbEntity
  8
SLD-0
  6
CONTINUOUS
 62
     7
100
AcDbCircle
 10
316.69097143
 20
119.06392442
 30
0.0
 40
1.649999999999977
  0
CIRCLE
  5
308
330
1F
100
AcDbEntity
  8
SLD-0
  6
CONTINUOUS
 62
     7
100
AcDbCircle
 10
316.69097143
 20
203.34392442
 30
0.0
 40
1.649999999999977
  0
CIRCLE
  5
309
330
1F
100
AcDbEntity
  8
SLD-0
  6
CONTINUOUS
 62
     7
100
AcDbCircle
 10
389.04097143
 20
142.15392442
 30
0.0
 40
1.749999999999886
  0
CIRCLE
  5
30A
330
1F
100
AcDbEntity
  8
SLD-0
  6
CONTINUOUS
 62
     7
100
AcDbCircle
 10
312.94097143
 20
134.53392442
 30
0.0
 40
1.75
  0
CIRCLE
  5
30B
330
1F
100
AcDbEntity
  8
SLD-0
  6
CONTINUOUS
 62
     7
100
AcDbCircle
 10
389.04097143
 20
134.53392442
 30
0.0
 40
1.749999999999886
  0
CIRCLE
  5
30C
330
1F
100
AcDbEntity
  8
SLD-0
  6
CONTINUOUS
 62
     7
100
AcDbCircle
 10
312.94097143
 20
126.91392442
 30
0.0
 40
1.75
  0
CIRCLE
  5
30D
330
1F
100
AcDbEntity
  8
SLD-0
  6
CONTINUOUS
 62
     7
100
AcDbCircle
 10
389.04097143
 20
126.91392442
 30
0.0
 40
1.749999999999886
  0
CIRCLE
  5
30E
330
1F
100
AcDbEntity
  8
SLD-0
  6
CONTINUOUS
 62
     7
100
AcDbCircle
 10
312.94097143
 20
195.49392442
 30
0.0
 40
1.75
  0
CIRCLE
  5
30F
330
1F
100
AcDbEntity
  8
SLD-0
  6
CONTINUOUS
 62
     7
100
AcDbCircle
 10
385.29097143
 20
203.34392442
 30
0.0
 40
1.649999999999977
  0
CIRCLE
  5
310
330
1F
100
AcDbEntity
  8
SLD-0
  6
CONTINUOUS
 62
     7
100
AcDbCircle
 10
385.29097143
 20
119.06392442
 30
0.0
 40
1.649999999999977
  0
CIRCLE
  5
311
330
1F
100
AcDbEntity
  8
SLD-0
  6
CONTINUOUS
 62
     7
100
AcDbCircle
 10
389.04097143
 20
195.49392442
 30
0.0
 40
1.749999999999886
  0
CIRCLE
  5
312
330
1F
100
AcDbEntity
  8
SLD-0
  6
CONTINUOUS
 62
     7
100
AcDbCircle
 10
111.00902857
 20
129.20392442
 30
0.0
 40
6.25
  0
CIRCLE
  5
313
330
1F
100
AcDbEntity
  8
SLD-0
  6
CONTINUOUS
 62
     7
100
AcDbCircle
 10
63.00902857
 20
129.20392442
 30
0.0
 40
6.250000000000028
  0
ARC
  5
314
330
1F
100
AcDbEntity
  8
SLD-0
  6
CONTINUOUS
 62
     7
100
AcDbCircle
 10
77.50902857
 20
144.20392442
 30
0.0
 40
1.5
100
AcDbArc
 50
180.0
 51
270.0
  0
CIRCLE
  5
315
330
1F
100
AcDbEntity
  8
SLD-0
  6
CONTINUOUS
 62
     7
100
AcDbCircle
 10
44.00902857
 20
176.55392442
 30
0.0
 40
1.500000000000057
  0
ARC
  5
316
330
1F
100
AcDbEntity
  8
SLD-0
  6
CONTINUOUS
 62
     7
100
AcDbCircle
 10
98.00902857
 20
142.70392442
 30
0.0
 40
44.79999999999522
100
AcDbArc
 50
68.5000000001
 51
181.5
  0
CIRCLE
  5
317
330
1F
100
AcDbEntity
  8
SLD-0
  6
CONTINUOUS
 62
     7
100
AcDbCircle
 10
44.00902857
 20
182.85392442
 30
0.0
 40
1.500000000000057
  0
ARC
  5
318
330
1F
100
AcDbEntity
  8
SLD-0
  6
CONTINUOUS
 62
     7
100
AcDbCircle
 10
87.25902857
 20
162.50392442
 30
0.0
 40
1.050000000000011
100
AcDbArc
 50
270.0
 51
90.0
  0
ARC
  5
319
330
1F
100
AcDbEntity
  8
SLD-0
  6
CONTINUOUS
 62
     7
100
AcDbCircle
 10
108.25902857
 20
162.50392442
 30
0.0
 40
1.050000000000011
100
AcDbArc
 50
270.0
 51
90.0
  0
ARC
  5
31A
330
1F
100
AcDbEntity
  8
SLD-0
  6
CONTINUOUS
 62
     7
100
AcDbCircle
 10
114.50902857
 20
156.20392442
 30
0.0
 40
1.500000000000014
100
AcDbArc
 50
0.0
 51
90.0
  0
CIRCLE
  5
31B
330
1F
100
AcDbEntity
  8
SLD-0
  6
CONTINUOUS
 62
     7
100
AcDbCircle
 10
44.00902857
 20
189.15392442
 30
0.0
 40
1.500000000000057
  0
ARC
  5
31C
330
1F
100
AcDbEntity
  8
SLD-0
  6
CONTINUOUS
 62
     7
100
AcDbCircle
 10
77.50902857
 20
156.20392442
 30
0.0
 40
1.5
100
AcDbArc
 50
90.0
 51
180.0
  0
CIRCLE
  5
31D
330
1F
100
AcDbEntity
  8
SLD-0
  6
CONTINUOUS
 62
     7
100
AcDbCircle
 10
79.00902857
 20
129.20392442
 30
0.0
 40
6.250000000000043
  0
ARC
  5
31E
330
1F
100
AcDbEntity
  8
SLD-0
  6
CONTINUOUS
 62
     7
100
AcDbCircle
 10
98.00902857
 20
142.70392442
 30
0.0
 40
39.1999999999871
100
AcDbArc
 50
68.5
 51
181.5
  0
ARC
  5
31F
330
1F
100
AcDbEntity
  8
SLD-0
  6
CONTINUOUS
 62
     7
100
AcDbCircle
 10
94.25902857
 20
162.50392442
 30
0.0
 40
1.050000000000011
100
AcDbArc
 50
90.0
 51
270.0
  0
ARC
  5
320
330
1F
100
AcDbEntity
  8
SLD-0
  6
CONTINUOUS
 62
     7
100
AcDbCircle
 10
114.50902857
 20
144.20392442
 30
0.0
 40
1.500000000000014
100
AcDbArc
 50
270.0
 51
0.0
  0
ARC
  5
321
330
1F
100
AcDbEntity
  8
SLD-0
  6
CONTINUOUS
 62
     7
100
AcDbCircle
 10
83.75902857
 20
162.50392442
 30
0.0
 40
1.050000000000011
100
AcDbArc
 50
90.0
 51
270.0
  0
CIRCLE
  5
322
330
1F
100
AcDbEntity
  8
SLD-0
  6
CONTINUOUS
 62
     7
100
AcDbCircle
 10
95.00902857
 20
129.20392442
 30
0.0
 40
6.25
  0
CIRCLE
  5
323
330
1F
100
AcDbEntity
  8
SLD-0
  6
CONTINUOUS
 62
     7
100
AcDbCircle
 10
44.00902857
 20
170.25392442
 30
0.0
 40
1.5
  0
ARC
  5
324
330
1F
100
AcDbEntity
  8
SLD-0
  6
CONTINUOUS
 62
     7
100
AcDbCircle
 10
97.75902857
 20
162.50392442
 30
0.0
 40
1.050000000000011
100
AcDbArc
 50
270.0
 51
90.0
  0
ARC
  5
325
330
1F
100
AcDbEntity
  8
SLD-0
  6
CONTINUOUS
 62
     7
100
AcDbCircle
 10
104.75902857
 20
162.50392442
 30
0.0
 40
1.050000000000011
100
AcDbArc
 50
90.0
 51
270.0
  0
ARC
  5
326
330
1F
100
AcDbEntity
  8
SLD-0
  6
CONTINUOUS
 62
     7
100
AcDbCircle
 10
355.79097143
 20
116.69392421
 30
0.0
 40
1.0
100
AcDbArc
 50
270.0
 51
0.0
  0
ARC
  5
327
330
1F
100
AcDbEntity
  8
SLD-0
  6
CONTINUOUS
 62
     7
100
AcDbCircle
 10
355.79097143
 20
205.69392421
 30
0.0
 40
1.0
100
AcDbArc
 50
0.0
 51
90.0
  0
ARC
  5
328
330
1F
100
AcDbEntity
  8
SLD-0
  6
CONTINUOUS
 62
     7
100
AcDbCircle
 10
342.79097143
 20
205.69392421
 30
0.0
 40
1.0
100
AcDbArc
 50
90.0
 51
180.0
  0
ARC
  5
329
330
1F
100
AcDbEntity
  8
SLD-0
  6
CONTINUOUS
 62
     7
100
AcDbCircle
 10
342.79097143
 20
116.69392421
 30
0.0
 40
1.0
100
AcDbArc
 50
180.0
 51
270.0
  0
CIRCLE
  5
32A
330
1F
100
AcDbEntity
  8
SLD-0
  6
CONTINUOUS
 62
     7
100
AcDbCircle
 10
349.29097143
 20
203.34392421
 30
0.0
 40
1.650000000000091
  0
CIRCLE
  5
32B
330
1F
100
AcDbEntity
  8
SLD-0
  6
CONTINUOUS
 62
     7
100
AcDbCircle
 10
349.29097143
 20
119.04392421
 30
0.0
 40
1.650000000000091
  0
MTEXT
  5
32D
330
1F
100
AcDbEntity
  8
SLD-0
 62
     7
100
AcDbMText
 10
380.45371691
 20
89.7624364782
 30
0.0
 40
8.46666667
 41
0.0
 71
     1
 72
     1
  1
000
  7
SLDTEXTSTYLE0
  0
ENDSEC
  0
SECTION
  2
OBJECTS
  0
DICTIONARY
  5
C
330
0
100
AcDbDictionary
  3
ACAD_GROUP
350
D
  3
ACAD_MLINESTYLE
350
17
  3
ACAD_SCALELIST
350
47
  3
DWGPROPS
350
32E
  0
DICTIONARY
  5
D
102
{ACAD_REACTORS
330
C
102
}
330
C
100
AcDbDictionary
  0
DICTIONARY
  5
17
102
{ACAD_REACTORS
330
C
102
}
330
C
100
AcDbDictionary
  3
STANDARD
350
18
  0
DICTIONARY
  5
47
102
{ACAD_REACTORS
330
C
102
}
330
C
100
AcDbDictionary
  0
XRECORD
  5
32E
102
{ACAD_REACTORS
330
C
102
}
330
C
100
AcDbXrecord
  1
DWGPROPS COOKIE
  2

  3

  4

  6

  7

  8
m9yoshida
  9

300
=
301
=
302
=
303
=
304
=
305
=
306
=
307
=
308
=
309
=
 40
0.0
 41
2460873.059485208
 42
2460873.059485973
  1

 90
        0
  0
MLINESTYLE
  5
18
102
{ACAD_REACTORS
330
17
102
}
330
17
100
AcDbMlineStyle
  2
Standard
 70
     0
  3

 62
   256
 51
90.0
 52
90.0
 71
     2
 49
0.5
 62
   256
  6
BYLAYER
 49
-0.5
 62
   256
  6
BYLAYER
  0
ENDSEC
  0
EOF
