  0
SECTION
  2
HEADER
  9
$ACADVER
  1
AC1014
  9
$ACADMAINTVER
 70
       0
  9
$DWGCODEPAGE
  3
ANSI_932
  9
$INSBASE
 10
0.0
 20
0.0
 30
0.0
  9
$EXTMIN
 10
-193.95082134
 20
-147.04752968
 30
0.0
  9
$EXTMAX
 10
193.95082134
 20
54.95342525
 30
0.0
  9
$LIMMIN
 10
-206.07274768
 20
-153.36005952
  9
$LIMMAX
 10
206.07274768
 20
61.26595509
  9
$ORTHOMODE
 70
       0
  9
$REGENMODE
 70
       1
  9
$FILLMODE
 70
       1
  9
$QTEXTMODE
 70
       0
  9
$MIRRTEXT
 70
       1
  9
$DRAGMODE
 70
       2
  9
$LTSCALE
 40
1.0
  9
$OSMODE
 70
       0
  9
$ATTMODE
 70
       1
  9
$TEXTSIZE
 40
0.2
  9
$TRACEWID
 40
0.05
  9
$TEXTSTYLE
  7
STANDARD
  9
$CLAYER
  8
0
  9
$CELTYPE
  6
CONTINUOUS
  9
$CECOLOR
 62
     256
  9
$CELTSCALE
 40
1.0
  9
$DELOBJ
 70
       1
  9
$DISPSILH
 70
       0
  9
$DIMSCALE
 40
1.0
  9
$DIMASZ
 40
0.18
  9
$DIMEXO
 40
0.0625
  9
$DIMDLI
 40
0.38
  9
$DIMRND
 40
0.0
  9
$DIMDLE
 40
0.0
  9
$DIMEXE
 40
0.18
  9
$DIMTP
 40
0.0
  9
$DIMTM
 40
0.0
  9
$DIMTXT
 40
0.18
  9
$DIMCEN
 40
0.09
  9
$DIMTSZ
 40
0.0
  9
$DIMTOL
 70
       0
  9
$DIMLIM
 70
       0
  9
$DIMTIH
 70
       1
  9
$DIMTOH
 70
       1
  9
$DIMSE1
 70
       0
  9
$DIMSE2
 70
       0
  9
$DIMTAD
 70
       0
  9
$DIMZIN
 70
       0
  9
$DIMBLK
  1

  9
$DIMASO
 70
       1
  9
$DIMSHO
 70
       1
  9
$DIMPOST
  1

  9
$DIMAPOST
  1

  9
$DIMALT
 70
       0
  9
$DIMALTD
 70
       2
  9
$DIMALTF
 40
25.4
  9
$DIMLFAC
 40
1.0
  9
$DIMTOFL
 70
       0
  9
$DIMTVP
 40
0.0
  9
$DIMTIX
 70
       0
  9
$DIMSOXD
 70
       0
  9
$DIMSAH
 70
       0
  9
$DIMBLK1
  1

  9
$DIMBLK2
  1

  9
$DIMSTYLE
  2
STANDARD
  9
$DIMCLRD
 70
       0
  9
$DIMCLRE
 70
       0
  9
$DIMCLRT
 70
       0
  9
$DIMTFAC
 40
1.0
  9
$DIMGAP
 40
0.09
  9
$DIMJUST
 70
       0
  9
$DIMSD1
 70
       0
  9
$DIMSD2
 70
       0
  9
$DIMTOLJ
 70
       1
  9
$DIMTZIN
 70
       0
  9
$DIMALTZ
 70
       0
  9
$DIMALTTZ
 70
       0
  9
$DIMFIT
 70
       3
  9
$DIMUPT
 70
       0
  9
$DIMUNIT
 70
       2
  9
$DIMDEC
 70
       4
  9
$DIMTDEC
 70
       4
  9
$DIMALTU
 70
       2
  9
$DIMALTTD
 70
       2
  9
$DIMTXSTY
  7
STANDARD
  9
$DIMAUNIT
 70
       0
  9
$LUNITS
 70
       2
  9
$LUPREC
 70
       4
  9
$SKETCHINC
 40
0.1
  9
$FILLETRAD
 40
0.0
  9
$AUNITS
 70
       0
  9
$AUPREC
 70
       0
  9
$MENU
  1
acad
  9
$ELEVATION
 40
0.0
  9
$PELEVATION
 40
0.0
  9
$THICKNESS
 40
0.0
  9
$LIMCHECK
 70
       0
  9
$BLIPMODE
 70
       1
  9
$CHAMFERA
 40
0.0
  9
$CHAMFERB
 40
0.0
  9
$CHAMFERC
 40
0.0
  9
$CHAMFERD
 40
0.0
  9
$SKPOLY
 70
       0
  9
$TDCREATE
 40
0.000000000
  9
$TDUPDATE
 40
0.000000000
  9
$TDINDWG
 40
0.0000000000
  9
$TDUSRTIMER
 40
0.0000000000
  9
$USRTIMER
 70
       1
  9
$ANGBASE
 50
0.0
  9
$ANGDIR
 70
       0
  9
$PDMODE
 70
       0
  9
$PDSIZE
 40
1.0
  9
$PLINEWID
 40
0.0
  9
$COORDS
 70
       1
  9
$SPLFRAME
 70
       0
  9
$SPLINETYPE
 70
       6
  9
$SPLINESEGS
 70
       8
  9
$ATTDIA
 70
       0
  9
$ATTREQ
 70
       1
  9
$HANDLING
 70
       1
  9
$HANDSEED
  5
485
  9
$SURFTAB1
 70
       6
  9
$SURFTAB2
 70
       6
  9
$SURFTYPE
 70
       6
  9
$SURFU
 70
       6
  9
$SURFV
 70
       6
  9
$UCSNAME
  2

  9
$UCSORG
 10
0.0
 20
0.0
 30
0.0
  9
$UCSXDIR
 10
1.0
 20
0.0
 30
0.0
  9
$UCSYDIR
 10
0.0
 20
1.0
 30
0.0
  9
$PUCSNAME
  2

  9
$PUCSORG
 10
0.0
 20
0.0
 30
0.0
  9
$PUCSXDIR
 10
1.0
 20
0.0
 30
0.0
  9
$PUCSYDIR
 10
0.0
 20
1.0
 30
0.0
  9
$USERI1
 70
       0
  9
$USERI2
 70
       0
  9
$USERI3
 70
       0
  9
$USERI4
 70
       0
  9
$USERI5
 70
       0
  9
$USERR1
 40
0.0
  9
$USERR2
 40
0.0
  9
$USERR3
 40
0.0
  9
$USERR4
 40
0.0
  9
$USERR5
 40
0.0
  9
$WORLDVIEW
 70
       1
  9
$SHADEDGE
 70
       3
  9
$SHADEDIF
 70
      70
  9
$TILEMODE
 70
       1
  9
$MAXACTVP
 70
      16
  9
$PINSBASE
 10
0.0
 20
0.0
 30
0.0
  9
$PLIMCHECK
 70
       0
  9
$PEXTMIN
 10
1.00000000E+20
 20
1.00000000E+20
 30
1.00000000E+20
  9
$PEXTMAX
 10
-1.00000000E+20
 20
-1.00000000E+20
 30
-1.00000000E+20
  9
$PLIMMIN
 10
0.0
 20
0.0
  9
$PLIMMAX
 10
12.0
 20
9.0
  9
$UNITMODE
 70
       0
  9
$VISRETAIN
 70
       0
  9
$PLINEGEN
 70
       1
  9
$PSLTSCALE
 70
       0
  9
$TREEDEPTH
 70
    3020
  9
$PICKSTYLE
 70
       1
  9
$CMLSTYLE
  2
STANDARD
  9
$CMLJUST
 70
       0
  9
$CMLSCALE
 40
1.0
  9
$PROXYGRAPHICS
 70
       0
  9
$MEASUREMENT
 70
       0
  0
ENDSEC
  0
SECTION
  2
CLASSES
  0
CLASS
  1
LWPOLYLINE
  2
AcDbPolyline
  3
"AutoCAD"
 90
        0
280
       0
281
       1
  0
CLASS
  1
IMAGE
  2
AcDbRasterImage
  3
ISM
 90
      127
280
       0
281
       1
  0
CLASS
  1
OLE2FRAME
  2
AcDbOle2Frame
  3
""
 90
        0
280
       0
281
       1
  0
CLASS
  1
HATCH
  2
AcDbHatch
  3
"ACAD_SEDONA"
 90
        0
280
       0
281
       1
  0
CLASS
  1
DICTIONARYVAR
  2
AcDbDictionaryVar
  3
"AutoCAD"
 90
        0
280
       0
281
       0
  0
CLASS
  1
RASTERVARIABLES
  2
AcDbRasterVariables
  3
ISM
 90
        0
280
       0
281
       0
  0
CLASS
  1
IMAGEDEF
  2
AcDbRasterImageDef
  3
ISM
 90
        0
280
       0
281
       0
  0
CLASS
  1
IMAGEDEF_REACTOR
  2
AcDbRasterImageDefReactor
  3
ISM
 90
        1
280
       0
281
       0
  0
CLASS
  1
IDBUFFER
  2
AcDbIdBuffer
  3
"Acad"
 90
        0
280
       0
281
       0
  0
CLASS
  1
SPATIAL_FILTER
  2
AcDbSpatialFilter
  3
"Acad"
 90
        0
280
       0
281
       0
  0
CLASS
  1
XRECORD
  2
AcDbXrecord
  3
"<Built In>"
 90
        0
280
       0
281
       0
  0
CLASS
  1
SORTENTSTABLE
  2
AcDbSortentsTable
  3
"AutoCAD"
 90
        0
280
       0
281
       0
  0
CLASS
  1
LAYER_INDEX
  2
AcDbLayerIndex
  3
"Acad"
 90
        0
280
       0
281
       0
  0
CLASS
  1
SPATIAL_INDEX
  2
AcDbSpatialIndex
  3
"Acad"
 90
        0
280
       0
281
       0
  0
CLASS
  1
OBJECT_PTR
  2
CAseDLPNTableRecord
  3
"ASE-LPNTableRecord"
 90
        1
280
       0
281
       0
  0
CLASS
  1
LAYOUT
  2
AcDbLayout
  3
"AutoCAD 2000"
 90
        1
280
       0
281
       0
  0
CLASS
  1
PLOTSETTINGS
  2
AcDbPlotSettings
  3
"AutoCAD 2000"
 90
        1
280
       0
281
       0
  0
CLASS
  1
ACDBDICTIONARYWDFLT
  2
AcDbDictionaryWithDefault
  3
"AutoCAD 2000"
 90
        1
280
       0
281
       0
  0
CLASS
  1
ACDBPLACEHOLDER
  2
AcDbPlaceHolder
  3
"AutoCAD 2000"
 90
        1
280
       0
281
       0
  0
CLASS
  1
VBA_PROJECT
  2
AcDbVbaProject
  3
"acadvba"
 90
        1
280
       0
281
       0
  0
CLASS
  1
WIPEOUT
  2
AcDbWipeout
  3
WipeOut|AutoCAD Express Tool|expresstools@autodesk.com
 90
      127
280
       0
281
       1
  0
CLASS
  1
WIPEOUTVARIABLES
  2
AcDbWipeoutVariables
  3
WipeOut|AutoCAD Express Tool|expresstools@autodesk.com
 90
        0
280
       0
281
       0
  0
CLASS
  1
RTEXT
  2
RText
  3
RText|AutoCAD Express Tool|expresstools@autodesk.com
 90
        0
280
       0
281
       1
  0
CLASS
  1
ARCALIGNEDTEXT
  2
AcDbArcAlignedText
  3
ATEXT|AutoCAD Express Tool|expresstools@autodesk.com
 90
        0
280
       0
281
       1
  0
ENDSEC
  0
SECTION
  2
TABLES
  0
TABLE
  2
VPORT
  5
7
100
AcDbSymbolTable
 70
       1
  0
VPORT
  5
15
100
AcDbSymbolTableRecord
100
AcDbViewportTableRecord
  2
*ACTIVE
 70
       0
 10
0.0
 20
0.0
 11
1.0
 21
1.0
 12
0.0
 22
-46.04705221
 13
0.0
 23
0.0
 14
1.0
 24
1.0
 15
0.0
 25
0.0
 16
0.0
 26
0.0
 36
1.0
 17
0.0
 27
0.0
 37
0.0
 40
214.62601461
 41
1.92029608
 42
50.0
 43
0.0
 44
0.0
 50
0.0
 51
0.0
 71
       0
 72
     100
 73
       1
 74
       1
 75
       0
 76
       0
 77
       0
 78
       0
  0
ENDTAB
  0
TABLE
  2
LTYPE
  5
4
100
AcDbSymbolTable
 70
      30
  0
LTYPE
  5
11
100
AcDbSymbolTableRecord
100
AcDbLinetypeTableRecord
  2
BYBLOCK
 70
      64
  3

 72
      65
 73
       0
 40
0.0
  0
LTYPE
  5
12
100
AcDbSymbolTableRecord
100
AcDbLinetypeTableRecord
  2
BYLAYER
 70
      64
  3

 72
      65
 73
       0
 40
0.0
  0
LTYPE
  5
13
100
AcDbSymbolTableRecord
100
AcDbLinetypeTableRecord
  2
CONTINUOUS
 70
      64
  3
Solid line
 72
      65
 73
       0
 40
0.0
  0
LTYPE
  5
1D
100
AcDbSymbolTableRecord
100
AcDbLinetypeTableRecord
  2
HIDDENX2
 70
      64
  3
CADPAC LINETYPE
 72
      65
 73
       2
 40
16.8
 49
12.6
 74
       0
 49
-4.2
 74
       0
  0
LTYPE
  5
1E
100
AcDbSymbolTableRecord
100
AcDbLinetypeTableRecord
  2
HIDDEN
 70
      64
  3
CADPAC LINETYPE
 72
      65
 73
       2
 40
12.6
 49
8.4
 74
       0
 49
-4.2
 74
       0
  0
LTYPE
  5
1F
100
AcDbSymbolTableRecord
100
AcDbLinetypeTableRecord
  2
HIDDEN2
 70
      64
  3
CADPAC LINETYPE
 72
      65
 73
       2
 40
10.5
 49
6.3
 74
       0
 49
-4.2
 74
       0
  0
LTYPE
  5
20
100
AcDbSymbolTableRecord
100
AcDbLinetypeTableRecord
  2
DASHED
 70
      64
  3
CADPAC LINETYPE
 72
      65
 73
       2
 40
12.6
 49
8.4
 74
       0
 49
-4.2
 74
       0
  0
LTYPE
  5
21
100
AcDbSymbolTableRecord
100
AcDbLinetypeTableRecord
  2
DASHED2
 70
      64
  3
CADPAC LINETYPE
 72
      65
 73
       2
 40
9.45
 49
6.3
 74
       0
 49
-3.15
 74
       0
  0
LTYPE
  5
22
100
AcDbSymbolTableRecord
100
AcDbLinetypeTableRecord
  2
DASHEDX2
 70
      64
  3
CADPAC LINETYPE
 72
      65
 73
       2
 40
18.9
 49
12.6
 74
       0
 49
-6.3
 74
       0
  0
LTYPE
  5
23
100
AcDbSymbolTableRecord
100
AcDbLinetypeTableRecord
  2
DOTX2
 70
      64
  3
CADPAC LINETYPE
 72
      65
 73
       2
 40
5.25
 49
0.0
 74
       0
 49
-5.25
 74
       0
  0
LTYPE
  5
24
100
AcDbSymbolTableRecord
100
AcDbLinetypeTableRecord
  2
DOT
 70
      64
  3
CADPAC LINETYPE
 72
      65
 73
       2
 40
4.2
 49
0.0
 74
       0
 49
-4.2
 74
       0
  0
LTYPE
  5
25
100
AcDbSymbolTableRecord
100
AcDbLinetypeTableRecord
  2
DOT2
 70
      64
  3
CADPAC LINETYPE
 72
      65
 73
       2
 40
3.15
 49
0.0
 74
       0
 49
-3.15
 74
       0
  0
LTYPE
  5
26
100
AcDbSymbolTableRecord
100
AcDbLinetypeTableRecord
  2
CENTERX2
 70
      64
  3
CADPAC LINETYPE
 72
      65
 73
       4
 40
25.2
 49
10.5
 74
       0
 49
-5.25
 74
       0
 49
4.2
 74
       0
 49
-5.25
 74
       0
  0
LTYPE
  5
27
100
AcDbSymbolTableRecord
100
AcDbLinetypeTableRecord
  2
CENTER
 70
      64
  3
CADPAC LINETYPE
 72
      65
 73
       4
 40
19.32
 49
8.4
 74
       0
 49
-4.2
 74
       0
 49
2.52
 74
       0
 49
-4.2
 74
       0
  0
LTYPE
  5
28
100
AcDbSymbolTableRecord
100
AcDbLinetypeTableRecord
  2
CENTER2
 70
      64
  3
CADPAC LINETYPE
 72
      65
 73
       4
 40
13.44
 49
6.3
 74
       0
 49
-3.15
 74
       0
 49
0.84
 74
       0
 49
-3.15
 74
       0
  0
LTYPE
  5
29
100
AcDbSymbolTableRecord
100
AcDbLinetypeTableRecord
  2
DASHDOTX2
 70
      64
  3
CADPAC LINETYPE
 72
      65
 73
       4
 40
21.0
 49
10.5
 74
       0
 49
-5.25
 74
       0
 49
0.0
 74
       0
 49
-5.25
 74
       0
  0
LTYPE
  5
2A
100
AcDbSymbolTableRecord
100
AcDbLinetypeTableRecord
  2
DASHDOT
 70
      64
  3
CADPAC LINETYPE
 72
      65
 73
       4
 40
16.8
 49
8.4
 74
       0
 49
-4.2
 74
       0
 49
0.0
 74
       0
 49
-4.2
 74
       0
  0
LTYPE
  5
2B
100
AcDbSymbolTableRecord
100
AcDbLinetypeTableRecord
  2
DASHDOT2
 70
      64
  3
CADPAC LINETYPE
 72
      65
 73
       4
 40
12.6
 49
6.3
 74
       0
 49
-3.15
 74
       0
 49
0.0
 74
       0
 49
-3.15
 74
       0
  0
LTYPE
  5
2C
100
AcDbSymbolTableRecord
100
AcDbLinetypeTableRecord
  2
DIVIDEX2
 70
      64
  3
CADPAC LINETYPE
 72
      65
 73
       6
 40
26.25
 49
10.5
 74
       0
 49
-5.25
 74
       0
 49
0.0
 74
       0
 49
-5.25
 74
       0
 49
0.0
 74
       0
 49
-5.25
 74
       0
  0
LTYPE
  5
2D
100
AcDbSymbolTableRecord
100
AcDbLinetypeTableRecord
  2
DIVIDE
 70
      64
  3
CADPAC LINETYPE
 72
      65
 73
       6
 40
21.0
 49
8.4
 74
       0
 49
-4.2
 74
       0
 49
0.0
 74
       0
 49
-4.2
 74
       0
 49
0.0
 74
       0
 49
-4.2
 74
       0
  0
LTYPE
  5
2E
100
AcDbSymbolTableRecord
100
AcDbLinetypeTableRecord
  2
DIVIDE2
 70
      64
  3
CADPAC LINETYPE
 72
      65
 73
       6
 40
15.75
 49
6.3
 74
       0
 49
-3.15
 74
       0
 49
0.0
 74
       0
 49
-3.15
 74
       0
 49
0.0
 74
       0
 49
-3.15
 74
       0
  0
LTYPE
  5
2F
100
AcDbSymbolTableRecord
100
AcDbLinetypeTableRecord
  2
BORDERX2
 70
      64
  3
CADPAC LINETYPE
 72
      65
 73
       6
 40
36.75
 49
10.5
 74
       0
 49
-5.25
 74
       0
 49
10.5
 74
       0
 49
-5.25
 74
       0
 49
0.0
 74
       0
 49
-5.25
 74
       0
  0
LTYPE
  5
30
100
AcDbSymbolTableRecord
100
AcDbLinetypeTableRecord
  2
BORDER
 70
      64
  3
CADPAC LINETYPE
 72
      65
 73
       6
 40
29.4
 49
8.4
 74
       0
 49
-4.2
 74
       0
 49
8.4
 74
       0
 49
-4.2
 74
       0
 49
0.0
 74
       0
 49
-4.2
 74
       0
  0
LTYPE
  5
31
100
AcDbSymbolTableRecord
100
AcDbLinetypeTableRecord
  2
BORDER2
 70
      64
  3
CADPAC LINETYPE
 72
      65
 73
       6
 40
22.05
 49
6.3
 74
       0
 49
-3.15
 74
       0
 49
6.3
 74
       0
 49
-3.15
 74
       0
 49
0.0
 74
       0
 49
-3.15
 74
       0
  0
LTYPE
  5
32
100
AcDbSymbolTableRecord
100
AcDbLinetypeTableRecord
  2
PHANTOMX2
 70
      64
  3
CADPAC LINETYPE
 72
      65
 73
       6
 40
31.5
 49
10.5
 74
       0
 49
-4.2
 74
       0
 49
4.2
 74
       0
 49
-4.2
 74
       0
 49
4.2
 74
       0
 49
-4.2
 74
       0
  0
LTYPE
  5
33
100
AcDbSymbolTableRecord
100
AcDbLinetypeTableRecord
  2
PHANTOM
 70
      64
  3
CADPAC LINETYPE
 72
      65
 73
       6
 40
26.04
 49
8.4
 74
       0
 49
-4.2
 74
       0
 49
2.52
 74
       0
 49
-4.2
 74
       0
 49
2.52
 74
       0
 49
-4.2
 74
       0
  0
LTYPE
  5
34
100
AcDbSymbolTableRecord
100
AcDbLinetypeTableRecord
  2
PHANTOM2
 70
      64
  3
CADPAC LINETYPE
 72
      65
 73
       6
 40
22.26
 49
6.3
 74
       0
 49
-4.2
 74
       0
 49
1.68
 74
       0
 49
-4.2
 74
       0
 49
1.68
 74
       0
 49
-4.2
 74
       0
  0
LTYPE
  5
35
100
AcDbSymbolTableRecord
100
AcDbLinetypeTableRecord
  2
ACAD_ISO06W100
 70
      64
  3
CADPAC LINETYPE
 72
      65
 73
       8
 40
28.35
 49
10.5
 74
       0
 49
-5.25
 74
       0
 49
0.0
 74
       0
 49
-4.2
 74
       0
 49
0.0
 74
       0
 49
-4.2
 74
       0
 49
0.0
 74
       0
 49
-4.2
 74
       0
  0
LTYPE
  5
36
100
AcDbSymbolTableRecord
100
AcDbLinetypeTableRecord
  2
ACAD_ISO13W100
 70
      64
  3
CADPAC LINETYPE
 72
      65
 73
       8
 40
33.6
 49
8.4
 74
       0
 49
-4.2
 74
       0
 49
8.4
 74
       0
 49
-4.2
 74
       0
 49
0.0
 74
       0
 49
-4.2
 74
       0
 49
0.0
 74
       0
 49
-4.2
 74
       0
  0
LTYPE
  5
37
100
AcDbSymbolTableRecord
100
AcDbLinetypeTableRecord
  2
ACAD_ISO14W100
 70
      64
  3
CADPAC LINETYPE
 72
      65
 73
       8
 40
25.2
 49
8.4
 74
       0
 49
-4.2
 74
       0
 49
0.0
 74
       0
 49
-4.2
 74
       0
 49
0.0
 74
       0
 49
-4.2
 74
       0
 49
0.0
 74
       0
 49
-4.2
 74
       0
  0
ENDTAB
  0
TABLE
  2
LAYER
  5
2
100
AcDbSymbolTable
 70
       4
  0
LAYER
  5
14
100
AcDbSymbolTableRecord
100
AcDbLayerTableRecord
  2
0
 70
       0
 62
       7
  6
CONTINUOUS
  0
LAYER
  5
38
100
AcDbSymbolTableRecord
100
AcDbLayerTableRecord
  2
SLD-0_0
 70
       0
 62
       7
  6
CONTINUOUS
  0
LAYER
  5
39
100
AcDbSymbolTableRecord
100
AcDbLayerTableRecord
  2
SLD-0
 70
       0
 62
       7
  6
CONTINUOUS
  0
LAYER
  5
3A
100
AcDbSymbolTableRecord
100
AcDbLayerTableRecord
  2
レイヤー_1
 70
       0
 62
       7
  6
CONTINUOUS
  0
ENDTAB
  0
TABLE
  2
STYLE
  5
3
100
AcDbSymbolTable
 70
       1
  0
STYLE
  5
17
100
AcDbSymbolTableRecord
100
AcDbTextStyleTableRecord
  2
STANDARD
 70
       0
 40
0.0
 41
0.8
 50
0.0
 71
       0
 42
5.0
  3
txt.shx
  4
bigfont.shx
  0
ENDTAB
  0
TABLE
  2
VIEW
  5
5
100
AcDbSymbolTable
 70
       1
  0
VIEW
  5
3B
100
AcDbSymbolTableRecord
100
AcDbViewTableRecord
  2
QQQQ
 70
       0
 40
214.62601461
 10
0.0
 20
-46.04705221
 41
412.14549536
 11
0.0
 21
0.0
 31
1.0
 12
100.0
 22
100.0
 32
0.0
 42
50.0
 43
0.0
 44
0.0
 50
0.0
 71
       0
  0
ENDTAB
  0
TABLE
  2
UCS
  5
6
100
AcDbSymbolTable
 70
       0
  0
ENDTAB
  0
TABLE
  2
APPID
  5
8
100
AcDbSymbolTable
 70
       1
  0
APPID
  5
16
100
AcDbSymbolTableRecord
100
AcDbRegAppTableRecord
  2
ACAD
 70
       0
  0
ENDTAB
  0
TABLE
  2
DIMSTYLE
  5
9
100
AcDbSymbolTable
 70
       1
  0
DIMSTYLE
105
18
100
AcDbSymbolTableRecord
100
AcDbDimStyleTableRecord
  2
STANDARD
 70
       0
  3

  4

  5

  6

  7

 40
1.0
 41
0.18
 42
0.0625
 43
0.38
 44
0.18
 45
0.0
 46
0.0
 47
0.0
 48
0.0
 71
       0
 72
       0
 73
       1
 74
       1
 75
       0
 76
       0
 77
       0
 78
       0
140
0.18
141
0.09
142
0.0
143
25.4
144
1.0
145
0.0
146
1.0
147
0.09
170
       0
171
       2
172
       0
173
       0
174
       0
175
       0
176
       0
177
       0
178
       0
270
       2
271
       4
272
       4
273
       2
274
       2
275
       0
280
       0
281
       0
282
       0
283
       1
284
       0
285
       0
286
       0
287
       0
288
       0
340
17
  0
ENDTAB
  0
TABLE
  2
BLOCK_RECORD
  5
1
100
AcDbSymbolTable
 70
       0
  0
BLOCK_RECORD
  5
A
100
AcDbSymbolTableRecord
100
AcDbBlockTableRecord
  2
*MODEL_SPACE
  0
BLOCK_RECORD
  5
B
100
AcDbSymbolTableRecord
100
AcDbBlockTableRecord
  2
*PAPER_SPACE
  0
ENDTAB
  0
ENDSEC
  0
SECTION
  2
BLOCKS
  0
BLOCK
  5
D
100
AcDbEntity
  8
0
100
AcDbBlockBegin
  2
*MODEL_SPACE
 70
       0
 10
0.0
 20
0.0
 30
0.0
  3
*MODEL_SPACE
  1

  0
ENDBLK
  5
E
100
AcDbEntity
  8
0
100
AcDbBlockEnd
  0
BLOCK
  5
F
100
AcDbEntity
 67
       1
  8
0
100
AcDbBlockBegin
  2
*PAPER_SPACE
 70
       0
 10
0.0
 20
0.0
 30
0.0
  3
*PAPER_SPACE
  1

  0
ENDBLK
  5
10
100
AcDbEntity
 67
       1
  8
0
100
AcDbBlockEnd
  0
ENDSEC
  0
SECTION
  2
ENTITIES
  0
LINE
  5
3C
100
AcDbEntity
  8
レイヤー_1
  6
CONTINUOUS
 62
       3
100
AcDbLine
 10
46.65324027
 20
46.0687915
 30
0.0
 11
-33.34675973
 21
46.0687915
 31
0.0
  0
LINE
  5
3D
100
AcDbEntity
  8
レイヤー_1
  6
CONTINUOUS
 62
       3
100
AcDbLine
 10
46.65324027
 20
-45.9312085
 30
0.0
 11
-33.34675973
 21
-45.9312085
 31
0.0
  0
LINE
  5
3E
100
AcDbEntity
  8
レイヤー_1
  6
CONTINUOUS
 62
       3
100
AcDbLine
 10
20.21950992
 20
51.0687915
 30
0.0
 11
-25.03709119
 21
51.0687915
 31
0.0
  0
LINE
  5
3F
100
AcDbEntity
  8
レイヤー_1
  6
CONTINUOUS
 62
       3
100
AcDbLine
 10
20.22014725
 20
-50.9312085
 30
0.0
 11
-25.03709119
 21
-50.9312085
 31
0.0
  0
LINE
  5
40
100
AcDbEntity
  8
レイヤー_1
  6
CONTINUOUS
 62
       3
100
AcDbLine
 10
92.49117437
 20
19.52712644
 30
0.0
 11
92.49117437
 21
-19.66470944
 31
0.0
  0
LINE
  5
41
100
AcDbEntity
  8
レイヤー_1
  6
CONTINUOUS
 62
       3
100
AcDbLine
 10
184.49117437
 20
19.52712644
 30
0.0
 11
184.49117437
 21
-19.66470944
 31
0.0
  0
LINE
  5
42
100
AcDbEntity
  8
レイヤー_1
  6
CONTINUOUS
 62
       3
100
AcDbLine
 10
121.28102704
 20
-46.0687915
 30
0.0
 11
155.70132171
 21
-46.0687915
 31
0.0
  0
LINE
  5
43
100
AcDbEntity
  8
レイヤー_1
  6
CONTINUOUS
 62
       3
100
AcDbLine
 10
121.28102704
 20
45.9312085
 30
0.0
 11
155.70132171
 21
45.9312085
 31
0.0
  0
LINE
  5
44
100
AcDbEntity
  8
レイヤー_1
  6
CONTINUOUS
 62
       3
100
AcDbLine
 10
92.49117437
 20
-48.0687915
 30
0.0
 11
108.48300925
 21
-48.0687915
 31
0.0
  0
LINE
  5
45
100
AcDbEntity
  8
レイヤー_1
  6
CONTINUOUS
 62
       3
100
AcDbLine
 10
92.49117437
 20
47.9312085
 30
0.0
 11
108.48300925
 21
47.9312085
 31
0.0
  0
LINE
  5
46
100
AcDbEntity
  8
レイヤー_1
  6
CONTINUOUS
 62
       3
100
AcDbLine
 10
90.49117437
 20
45.9312085
 30
0.0
 11
90.49117437
 21
-46.0687915
 31
0.0
  0
LINE
  5
47
100
AcDbEntity
  8
レイヤー_1
  6
CONTINUOUS
 62
       3
100
AcDbLine
 10
186.49117437
 20
45.9312085
 30
0.0
 11
186.49117437
 21
-46.0687915
 31
0.0
  0
LINE
  5
48
100
AcDbEntity
  8
レイヤー_1
  6
CONTINUOUS
 62
       3
100
AcDbLine
 10
108.48300925
 20
50.9312085
 30
0.0
 11
168.4993395
 21
50.9312085
 31
0.0
  0
LINE
  5
49
100
AcDbEntity
  8
レイヤー_1
  6
CONTINUOUS
 62
       3
100
AcDbLine
 10
108.48300925
 20
-51.0687915
 30
0.0
 11
168.4993395
 21
-51.0687915
 31
0.0
  0
LINE
  5
4A
100
AcDbEntity
  8
レイヤー_1
  6
CONTINUOUS
 62
       3
100
AcDbLine
 10
168.4993395
 20
47.9312085
 30
0.0
 11
184.49117437
 21
47.9312085
 31
0.0
  0
LINE
  5
4B
100
AcDbEntity
  8
レイヤー_1
  6
CONTINUOUS
 62
       3
100
AcDbLine
 10
168.4993395
 20
-48.0687915
 30
0.0
 11
184.49117437
 21
-48.0687915
 31
0.0
  0
LINE
  5
4C
100
AcDbEntity
  8
レイヤー_1
  6
CONTINUOUS
 62
       3
100
AcDbLine
 10
-35.34675973
 20
48.0687915
 30
0.0
 11
-35.34675973
 21
-47.9312085
 31
0.0
  0
LINE
  5
4D
100
AcDbEntity
  8
レイヤー_1
  6
CONTINUOUS
 62
       3
100
AcDbLine
 10
-186.49117437
 20
46.06814557
 30
0.0
 11
-186.49117437
 21
-45.93185443
 31
0.0
  0
LINE
  5
4E
100
AcDbEntity
  8
レイヤー_1
  6
CONTINUOUS
 62
       3
100
AcDbLine
 10
-90.49117437
 20
46.06814557
 30
0.0
 11
-90.49117437
 21
-45.93185443
 31
0.0
  0
LINE
  5
4F
100
AcDbEntity
  8
レイヤー_1
  6
CONTINUOUS
 62
       3
100
AcDbLine
 10
-92.49117437
 20
48.06814557
 30
0.0
 11
-184.49117437
 21
48.06814557
 31
0.0
  0
LINE
  5
50
100
AcDbEntity
  8
レイヤー_1
  6
CONTINUOUS
 62
       3
100
AcDbLine
 10
-92.49117437
 20
-47.93185443
 30
0.0
 11
-184.49117437
 21
-47.93185443
 31
0.0
  0
LINE
  5
51
100
AcDbEntity
  8
レイヤー_1
  6
CONTINUOUS
 62
       3
100
AcDbLine
 10
-108.4886073
 20
-50.93185443
 30
0.0
 11
-168.49374143
 21
-50.93185443
 31
0.0
  0
LINE
  5
52
100
AcDbEntity
  8
レイヤー_1
  6
CONTINUOUS
 62
       3
100
AcDbLine
 10
-108.4886073
 20
51.06814557
 30
0.0
 11
-168.49374143
 21
51.06814557
 31
0.0
  0
LINE
  5
53
100
AcDbEntity
  8
レイヤー_1
  6
CONTINUOUS
 62
       3
100
AcDbLine
 10
-33.34675973
 20
48.0687915
 30
0.0
 11
-40.21299101
 21
48.0687915
 31
0.0
  0
LINE
  5
54
100
AcDbEntity
  8
レイヤー_1
  6
CONTINUOUS
 62
       3
100
AcDbLine
 10
-33.34675973
 20
-47.9312085
 30
0.0
 11
-40.21299101
 21
-47.9312085
 31
0.0
  0
LINE
  5
55
100
AcDbEntity
  8
レイヤー_1
  6
CONTINUOUS
 62
       3
100
AcDbLine
 10
-56.34675973
 20
46.28119759
 30
0.0
 11
-56.34675973
 21
-46.14250577
 31
0.0
  0
LINE
  5
56
100
AcDbEntity
  8
レイヤー_1
  6
CONTINUOUS
 62
       3
100
AcDbLine
 10
-40.21299101
 20
-47.9312085
 30
0.0
 11
-55.39871552
 21
-47.14115516
 31
0.0
  0
LINE
  5
57
100
AcDbEntity
  8
レイヤー_1
  6
CONTINUOUS
 62
       3
100
AcDbLine
 10
-40.21299101
 20
-47.9312085
 30
0.0
 11
-40.21299101
 21
48.0687915
 31
0.0
  0
LINE
  5
58
100
AcDbEntity
  8
レイヤー_1
  6
CONTINUOUS
 62
       3
100
AcDbLine
 10
-55.3986428
 20
47.27985076
 30
0.0
 11
-40.21299101
 21
48.0687915
 31
0.0
  0
LINE
  5
59
100
AcDbEntity
  8
レイヤー_1
  6
CONTINUOUS
 62
       3
100
AcDbLine
 10
-39.19629788
 20
-47.9312085
 30
0.0
 11
-39.19629788
 21
48.0687915
 31
0.0
  0
LINE
  5
5A
100
AcDbEntity
  8
レイヤー_1
  6
CONTINUOUS
 62
       3
100
AcDbLine
 10
20.22014725
 20
-50.9312085
 30
0.0
 11
22.49255933
 21
-48.6620727
 31
0.0
  0
LINE
  5
5B
100
AcDbEntity
  8
レイヤー_1
  6
CONTINUOUS
 62
       3
100
AcDbLine
 10
-4.49610039
 20
-47.6768148
 30
0.0
 11
22.49255933
 21
-47.6768148
 31
0.0
  0
LINE
  5
5C
100
AcDbEntity
  8
レイヤー_1
  6
CONTINUOUS
 62
       3
100
AcDbLine
 10
-14.4959513
 20
-50.66144001
 30
0.0
 11
-14.4959513
 21
-45.9312085
 31
0.0
  0
LINE
  5
5D
100
AcDbEntity
  8
レイヤー_1
  6
CONTINUOUS
 62
       3
100
AcDbLine
 10
-4.49610039
 20
-50.66144001
 30
0.0
 11
-4.49610039
 21
-47.6768148
 31
0.0
  0
LINE
  5
5E
100
AcDbEntity
  8
レイヤー_1
  6
CONTINUOUS
 62
       3
100
AcDbLine
 10
-4.49610039
 20
-47.6768148
 30
0.0
 11
-4.49610039
 21
-45.9312085
 31
0.0
  0
LINE
  5
5F
100
AcDbEntity
  8
レイヤー_1
  6
CONTINUOUS
 62
       3
100
AcDbLine
 10
-20.71926735
 20
-50.66144001
 30
0.0
 11
-20.71926735
 21
-45.9312085
 31
0.0
  0
LINE
  5
60
100
AcDbEntity
  8
レイヤー_1
  6
CONTINUOUS
 62
       3
100
AcDbLine
 10
-17.48014589
 20
-50.66144001
 30
0.0
 11
-17.48014589
 21
-45.9312085
 31
0.0
  0
LINE
  5
61
100
AcDbEntity
  8
レイヤー_1
  6
CONTINUOUS
 62
       3
100
AcDbLine
 10
24.0169531
 20
-48.6620727
 30
0.0
 11
24.0169531
 21
-50.15330875
 31
0.0
  0
LINE
  5
62
100
AcDbEntity
  8
レイヤー_1
  6
CONTINUOUS
 62
       3
100
AcDbLine
 10
24.0169531
 20
-50.15330875
 30
0.0
 11
20.99917017
 21
-50.15330875
 31
0.0
  0
LINE
  5
63
100
AcDbEntity
  8
レイヤー_1
  6
CONTINUOUS
 62
       3
100
AcDbLine
 10
20.99917017
 20
-50.15330875
 30
0.0
 11
20.49103891
 21
-50.66144001
 31
0.0
  0
LINE
  5
64
100
AcDbEntity
  8
レイヤー_1
  6
CONTINUOUS
 62
       3
100
AcDbLine
 10
-25.03709119
 20
-50.9312085
 30
0.0
 11
-25.03709119
 21
-45.9312085
 31
0.0
  0
LINE
  5
65
100
AcDbEntity
  8
レイヤー_1
  6
CONTINUOUS
 62
       3
100
AcDbLine
 10
-33.34675973
 20
-45.67701686
 30
0.0
 11
-33.34675973
 21
-47.9312085
 31
0.0
  0
LINE
  5
66
100
AcDbEntity
  8
レイヤー_1
  6
CONTINUOUS
 62
       3
100
AcDbLine
 10
44.77971305
 20
-19.45572147
 30
0.0
 11
-35.19584077
 21
-19.45572147
 31
0.0
  0
LINE
  5
67
100
AcDbEntity
  8
レイヤー_1
  6
CONTINUOUS
 62
       3
100
AcDbLine
 10
44.77971305
 20
19.62215599
 30
0.0
 11
-35.19584077
 21
19.62215599
 31
0.0
  0
LINE
  5
68
100
AcDbEntity
  8
レイヤー_1
  6
CONTINUOUS
 62
       3
100
AcDbLine
 10
24.0169531
 20
-48.6620727
 30
0.0
 11
22.49255933
 21
-48.53417864
 31
0.0
  0
LINE
  5
69
100
AcDbEntity
  8
レイヤー_1
  6
CONTINUOUS
 62
       3
100
AcDbLine
 10
22.49255933
 20
-48.53417864
 30
0.0
 11
22.49255933
 21
-45.9312085
 31
0.0
  0
LINE
  5
6A
100
AcDbEntity
  8
レイヤー_1
  6
CONTINUOUS
 62
       3
100
AcDbLine
 10
20.21950992
 20
51.0687915
 30
0.0
 11
22.49255933
 21
48.79836383
 31
0.0
  0
LINE
  5
6B
100
AcDbEntity
  8
レイヤー_1
  6
CONTINUOUS
 62
       3
100
AcDbLine
 10
-4.49610039
 20
47.81353655
 30
0.0
 11
22.49255933
 21
47.81353655
 31
0.0
  0
LINE
  5
6C
100
AcDbEntity
  8
レイヤー_1
  6
CONTINUOUS
 62
       3
100
AcDbLine
 10
-14.4959513
 20
50.79773114
 30
0.0
 11
-14.4959513
 21
46.0687915
 31
0.0
  0
LINE
  5
6D
100
AcDbEntity
  8
レイヤー_1
  6
CONTINUOUS
 62
       3
100
AcDbLine
 10
-4.49610039
 20
50.79773114
 30
0.0
 11
-4.49610039
 21
47.81353655
 31
0.0
  0
LINE
  5
6E
100
AcDbEntity
  8
レイヤー_1
  6
CONTINUOUS
 62
       3
100
AcDbLine
 10
-4.49610039
 20
47.81353655
 30
0.0
 11
-4.49610039
 21
46.0687915
 31
0.0
  0
LINE
  5
6F
100
AcDbEntity
  8
レイヤー_1
  6
CONTINUOUS
 62
       3
100
AcDbLine
 10
-20.71926735
 20
50.79773114
 30
0.0
 11
-20.71926735
 21
46.0687915
 31
0.0
  0
LINE
  5
70
100
AcDbEntity
  8
レイヤー_1
  6
CONTINUOUS
 62
       3
100
AcDbLine
 10
-17.48014589
 20
50.79773114
 30
0.0
 11
-17.48014589
 21
46.0687915
 31
0.0
  0
LINE
  5
71
100
AcDbEntity
  8
レイヤー_1
  6
CONTINUOUS
 62
       3
100
AcDbLine
 10
24.0169531
 20
48.79836383
 30
0.0
 11
24.0169531
 21
50.29003051
 31
0.0
  0
LINE
  5
72
100
AcDbEntity
  8
レイヤー_1
  6
CONTINUOUS
 62
       3
100
AcDbLine
 10
24.0169531
 20
50.29003051
 30
0.0
 11
20.99917017
 21
50.29003051
 31
0.0
  0
LINE
  5
73
100
AcDbEntity
  8
レイヤー_1
  6
CONTINUOUS
 62
       3
100
AcDbLine
 10
-25.03709119
 20
51.0687915
 30
0.0
 11
-25.03709119
 21
46.0687915
 31
0.0
  0
LINE
  5
74
100
AcDbEntity
  8
レイヤー_1
  6
CONTINUOUS
 62
       3
100
AcDbLine
 10
-33.34675973
 20
45.813308
 30
0.0
 11
-33.34675973
 21
48.0687915
 31
0.0
  0
LINE
  5
75
100
AcDbEntity
  8
レイヤー_1
  6
CONTINUOUS
 62
       3
100
AcDbLine
 10
24.0169531
 20
48.79836383
 30
0.0
 11
22.49255933
 21
48.6709004
 31
0.0
  0
LINE
  5
76
100
AcDbEntity
  8
レイヤー_1
  6
CONTINUOUS
 62
       3
100
AcDbLine
 10
22.49255933
 20
48.6709004
 30
0.0
 11
22.49255933
 21
46.0687915
 31
0.0
  0
LINE
  5
77
100
AcDbEntity
  8
レイヤー_1
  6
CONTINUOUS
 62
       3
100
AcDbLine
 10
-175.98566315
 20
-33.70923388
 30
0.0
 11
-175.98566315
 21
40.38879151
 31
0.0
  0
LINE
  5
78
100
AcDbEntity
  8
レイヤー_1
  6
CONTINUOUS
 62
       3
100
AcDbLine
 10
-175.98566315
 20
40.38879151
 30
0.0
 11
-100.99625496
 21
40.38879151
 31
0.0
  0
LINE
  5
79
100
AcDbEntity
  8
レイヤー_1
  6
CONTINUOUS
 62
       3
100
AcDbLine
 10
-100.99625496
 20
40.38879151
 30
0.0
 11
-100.99625496
 21
-33.70923388
 31
0.0
  0
LINE
  5
7A
100
AcDbEntity
  8
レイヤー_1
  6
CONTINUOUS
 62
       3
100
AcDbLine
 10
-100.99625496
 20
-33.70923388
 30
0.0
 11
-175.98566315
 21
-33.70923388
 31
0.0
  0
LINE
  5
7B
100
AcDbEntity
  8
レイヤー_1
  6
CONTINUOUS
 62
       3
100
AcDbLine
 10
-175.98566315
 20
-33.70923388
 30
0.0
 11
-175.98566315
 21
36.86115484
 31
0.0
  0
LINE
  5
7C
100
AcDbEntity
  8
レイヤー_1
  6
CONTINUOUS
 62
       3
100
AcDbLine
 10
-100.99625496
 20
-33.70923388
 30
0.0
 11
-100.99625496
 21
36.86115484
 31
0.0
  0
LINE
  5
7D
100
AcDbEntity
  8
レイヤー_1
  6
CONTINUOUS
 62
       3
100
AcDbLine
 10
-163.47745243
 20
-50.93185443
 30
0.0
 11
-163.47745243
 21
-47.93185443
 31
0.0
  0
LINE
  5
7E
100
AcDbEntity
  8
レイヤー_1
  6
CONTINUOUS
 62
       3
100
AcDbLine
 10
-113.50403506
 20
-50.93185443
 30
0.0
 11
-113.50403506
 21
-47.93185443
 31
0.0
  0
LINE
  5
7F
100
AcDbEntity
  8
レイヤー_1
  6
CONTINUOUS
 62
       3
100
AcDbLine
 10
-168.49374143
 20
-47.93185443
 30
0.0
 11
-168.49374143
 21
-50.93185443
 31
0.0
  0
LINE
  5
80
100
AcDbEntity
  8
レイヤー_1
  6
CONTINUOUS
 62
       3
100
AcDbLine
 10
-108.4886073
 20
-50.93185443
 30
0.0
 11
-108.4886073
 21
-47.93185443
 31
0.0
  0
LINE
  5
81
100
AcDbEntity
  8
レイヤー_1
  6
CONTINUOUS
 62
       3
100
AcDbLine
 10
-163.47745243
 20
51.06814557
 30
0.0
 11
-163.47745243
 21
48.06814557
 31
0.0
  0
LINE
  5
82
100
AcDbEntity
  8
レイヤー_1
  6
CONTINUOUS
 62
       3
100
AcDbLine
 10
-113.50403506
 20
51.06814557
 30
0.0
 11
-113.50403506
 21
48.06814557
 31
0.0
  0
LINE
  5
83
100
AcDbEntity
  8
レイヤー_1
  6
CONTINUOUS
 62
       3
100
AcDbLine
 10
-145.98395732
 20
-50.93185443
 30
0.0
 11
-145.98395732
 21
-47.93185443
 31
0.0
  0
LINE
  5
84
100
AcDbEntity
  8
レイヤー_1
  6
CONTINUOUS
 62
       3
100
AcDbLine
 10
-130.99839141
 20
-50.93185443
 30
0.0
 11
-130.99839141
 21
-47.93185443
 31
0.0
  0
LINE
  5
85
100
AcDbEntity
  8
レイヤー_1
  6
CONTINUOUS
 62
       3
100
AcDbLine
 10
-168.49374143
 20
48.06814557
 30
0.0
 11
-168.49374143
 21
51.06814557
 31
0.0
  0
LINE
  5
86
100
AcDbEntity
  8
レイヤー_1
  6
CONTINUOUS
 62
       3
100
AcDbLine
 10
-108.4886073
 20
51.06814557
 30
0.0
 11
-108.4886073
 21
48.06814557
 31
0.0
  0
LINE
  5
87
100
AcDbEntity
  8
レイヤー_1
  6
CONTINUOUS
 62
       3
100
AcDbLine
 10
-112.04294239
 20
-38.40729492
 30
0.0
 11
-101.85146571
 21
-38.40729492
 31
0.0
  0
LINE
  5
88
100
AcDbEntity
  8
レイヤー_1
  6
CONTINUOUS
 62
       3
100
AcDbLine
 10
-101.85146571
 20
-38.40729492
 30
0.0
 11
-101.85146571
 21
-42.40775202
 31
0.0
  0
LINE
  5
89
100
AcDbEntity
  8
レイヤー_1
  6
CONTINUOUS
 62
       3
100
AcDbLine
 10
-101.85146571
 20
-42.40775202
 30
0.0
 11
-112.04294239
 21
-42.40775202
 31
0.0
  0
LINE
  5
8A
100
AcDbEntity
  8
レイヤー_1
  6
CONTINUOUS
 62
       3
100
AcDbLine
 10
-112.04294239
 20
-42.40775202
 30
0.0
 11
-112.04294239
 21
-38.40729492
 31
0.0
  0
LINE
  5
8B
100
AcDbEntity
  8
レイヤー_1
  6
CONTINUOUS
 62
       3
100
AcDbLine
 10
-124.81296989
 20
-38.40729492
 30
0.0
 11
-114.62149321
 21
-38.40729492
 31
0.0
  0
LINE
  5
8C
100
AcDbEntity
  8
レイヤー_1
  6
CONTINUOUS
 62
       3
100
AcDbLine
 10
-114.62149321
 20
-38.40729492
 30
0.0
 11
-114.62149321
 21
-42.40775202
 31
0.0
  0
LINE
  5
8D
100
AcDbEntity
  8
レイヤー_1
  6
CONTINUOUS
 62
       3
100
AcDbLine
 10
-114.62149321
 20
-42.40775202
 30
0.0
 11
-124.81296989
 21
-42.40775202
 31
0.0
  0
LINE
  5
8E
100
AcDbEntity
  8
レイヤー_1
  6
CONTINUOUS
 62
       3
100
AcDbLine
 10
-124.81296989
 20
-42.40775202
 30
0.0
 11
-124.81296989
 21
-38.40729492
 31
0.0
  0
LINE
  5
8F
100
AcDbEntity
  8
レイヤー_1
  6
CONTINUOUS
 62
       3
100
AcDbLine
 10
-137.58213616
 20
-38.40729492
 30
0.0
 11
-127.39065948
 21
-38.40729492
 31
0.0
  0
LINE
  5
90
100
AcDbEntity
  8
レイヤー_1
  6
CONTINUOUS
 62
       3
100
AcDbLine
 10
-127.39065948
 20
-38.40729492
 30
0.0
 11
-127.39065948
 21
-42.40775202
 31
0.0
  0
LINE
  5
91
100
AcDbEntity
  8
レイヤー_1
  6
CONTINUOUS
 62
       3
100
AcDbLine
 10
-127.39065948
 20
-42.40775202
 30
0.0
 11
-137.58213616
 21
-42.40775202
 31
0.0
  0
LINE
  5
92
100
AcDbEntity
  8
レイヤー_1
  6
CONTINUOUS
 62
       3
100
AcDbLine
 10
-137.58213616
 20
-42.40775202
 30
0.0
 11
-137.58213616
 21
-38.40729492
 31
0.0
  0
LINE
  5
93
100
AcDbEntity
  8
レイヤー_1
  6
CONTINUOUS
 62
       3
100
AcDbLine
 10
-150.35216366
 20
-38.40729492
 30
0.0
 11
-140.16068698
 21
-38.40729492
 31
0.0
  0
LINE
  5
94
100
AcDbEntity
  8
レイヤー_1
  6
CONTINUOUS
 62
       3
100
AcDbLine
 10
-140.16068698
 20
-38.40729492
 30
0.0
 11
-140.16068698
 21
-42.40775202
 31
0.0
  0
LINE
  5
95
100
AcDbEntity
  8
レイヤー_1
  6
CONTINUOUS
 62
       3
100
AcDbLine
 10
-140.16068698
 20
-42.40775202
 30
0.0
 11
-150.35216366
 21
-42.40775202
 31
0.0
  0
LINE
  5
96
100
AcDbEntity
  8
レイヤー_1
  6
CONTINUOUS
 62
       3
100
AcDbLine
 10
-150.35216366
 20
-42.40775202
 30
0.0
 11
-150.35216366
 21
-38.40729492
 31
0.0
  0
LINE
  5
97
100
AcDbEntity
  8
レイヤー_1
  6
CONTINUOUS
 62
       3
100
AcDbLine
 10
-163.12132993
 20
-38.40729492
 30
0.0
 11
-152.92985325
 21
-38.40729492
 31
0.0
  0
LINE
  5
98
100
AcDbEntity
  8
レイヤー_1
  6
CONTINUOUS
 62
       3
100
AcDbLine
 10
-152.92985325
 20
-38.40729492
 30
0.0
 11
-152.92985325
 21
-42.40775202
 31
0.0
  0
LINE
  5
99
100
AcDbEntity
  8
レイヤー_1
  6
CONTINUOUS
 62
       3
100
AcDbLine
 10
-152.92985325
 20
-42.40775202
 30
0.0
 11
-163.12132993
 21
-42.40775202
 31
0.0
  0
LINE
  5
9A
100
AcDbEntity
  8
レイヤー_1
  6
CONTINUOUS
 62
       3
100
AcDbLine
 10
-163.12132993
 20
-42.40775202
 30
0.0
 11
-163.12132993
 21
-38.40729492
 31
0.0
  0
LINE
  5
9B
100
AcDbEntity
  8
レイヤー_1
  6
CONTINUOUS
 62
       3
100
AcDbLine
 10
-175.8904962
 20
-38.40729492
 30
0.0
 11
-165.69901952
 21
-38.40729492
 31
0.0
  0
LINE
  5
9C
100
AcDbEntity
  8
レイヤー_1
  6
CONTINUOUS
 62
       3
100
AcDbLine
 10
-165.69901952
 20
-38.40729492
 30
0.0
 11
-165.69901952
 21
-42.40775202
 31
0.0
  0
LINE
  5
9D
100
AcDbEntity
  8
レイヤー_1
  6
CONTINUOUS
 62
       3
100
AcDbLine
 10
-165.69901952
 20
-42.40775202
 30
0.0
 11
-175.8904962
 21
-42.40775202
 31
0.0
  0
LINE
  5
9E
100
AcDbEntity
  8
レイヤー_1
  6
CONTINUOUS
 62
       3
100
AcDbLine
 10
-175.8904962
 20
-42.40775202
 30
0.0
 11
-175.8904962
 21
-38.40729492
 31
0.0
  0
LINE
  5
9F
100
AcDbEntity
  8
レイヤー_1
  6
CONTINUOUS
 62
       3
100
AcDbLine
 10
-145.98395732
 20
51.06814557
 30
0.0
 11
-145.98395732
 21
48.06814557
 31
0.0
  0
LINE
  5
A0
100
AcDbEntity
  8
レイヤー_1
  6
CONTINUOUS
 62
       3
100
AcDbLine
 10
-130.99839141
 20
50.96179725
 30
0.0
 11
-130.99839141
 21
47.97674142
 31
0.0
  0
LINE
  5
A1
100
AcDbEntity
  8
レイヤー_1
  6
CONTINUOUS
 62
       3
100
AcDbLine
 10
111.97619634
 20
-45.82127447
 30
0.0
 11
111.97619634
 21
-51.0687915
 31
0.0
  0
LINE
  5
A2
100
AcDbEntity
  8
レイヤー_1
  6
CONTINUOUS
 62
       3
100
AcDbLine
 10
165.00615241
 20
-51.0687915
 30
0.0
 11
165.00615241
 21
-45.82127447
 31
0.0
  0
LINE
  5
A3
100
AcDbEntity
  8
レイヤー_1
  6
CONTINUOUS
 62
       3
100
AcDbLine
 10
111.76891548
 20
-42.32894862
 30
0.0
 11
121.28102704
 21
-42.32894862
 31
0.0
  0
LINE
  5
A4
100
AcDbEntity
  8
レイヤー_1
  6
CONTINUOUS
 62
       3
100
AcDbLine
 10
121.28102704
 20
-42.32894862
 30
0.0
 11
121.28102704
 21
-46.0687915
 31
0.0
  0
LINE
  5
A5
100
AcDbEntity
  8
レイヤー_1
  6
CONTINUOUS
 62
       3
100
AcDbLine
 10
155.70132171
 20
-46.0687915
 30
0.0
 11
155.70132171
 21
-42.32894862
 31
0.0
  0
LINE
  5
A6
100
AcDbEntity
  8
レイヤー_1
  6
CONTINUOUS
 62
       3
100
AcDbLine
 10
155.70132171
 20
-42.32894862
 30
0.0
 11
165.21343326
 21
-42.32894862
 31
0.0
  0
LINE
  5
A7
100
AcDbEntity
  8
レイヤー_1
  6
CONTINUOUS
 62
       3
100
AcDbLine
 10
170.49999867
 20
-17.15061416
 30
0.0
 11
170.40267862
 21
-16.67348752
 31
0.0
  0
LINE
  5
A8
100
AcDbEntity
  8
レイヤー_1
  6
CONTINUOUS
 62
       3
100
AcDbLine
 10
170.40267862
 20
-16.67348752
 30
0.0
 11
170.11846961
 21
-16.22908798
 31
0.0
  0
LINE
  5
A9
100
AcDbEntity
  8
レイヤー_1
  6
CONTINUOUS
 62
       3
100
AcDbLine
 10
170.11846961
 20
-16.22908798
 30
0.0
 11
169.70507469
 21
-15.97416112
 31
0.0
  0
LINE
  5
AA
100
AcDbEntity
  8
レイヤー_1
  6
CONTINUOUS
 62
       3
100
AcDbLine
 10
169.70507469
 20
-15.97416112
 30
0.0
 11
169.19694343
 21
-15.84885078
 31
0.0
  0
LINE
  5
AB
100
AcDbEntity
  8
レイヤー_1
  6
CONTINUOUS
 62
       3
100
AcDbLine
 10
169.19694343
 20
-15.84885078
 30
0.0
 11
168.68881217
 21
-15.97416112
 31
0.0
  0
LINE
  5
AC
100
AcDbEntity
  8
レイヤー_1
  6
CONTINUOUS
 62
       3
100
AcDbLine
 10
168.68881217
 20
-15.97416112
 30
0.0
 11
168.27541725
 21
-16.22908798
 31
0.0
  0
LINE
  5
AD
100
AcDbEntity
  8
レイヤー_1
  6
CONTINUOUS
 62
       3
100
AcDbLine
 10
168.27541725
 20
-16.22908798
 30
0.0
 11
167.99120824
 21
-16.67348752
 31
0.0
  0
LINE
  5
AE
100
AcDbEntity
  8
レイヤー_1
  6
CONTINUOUS
 62
       3
100
AcDbLine
 10
167.99120824
 20
-16.67348752
 30
0.0
 11
167.8964719
 21
-17.15061416
 31
0.0
  0
LINE
  5
AF
100
AcDbEntity
  8
レイヤー_1
  6
CONTINUOUS
 62
       3
100
AcDbLine
 10
167.8964719
 20
-17.15061416
 30
0.0
 11
167.99120824
 21
-17.65659232
 31
0.0
  0
LINE
  5
B0
100
AcDbEntity
  8
レイヤー_1
  6
CONTINUOUS
 62
       3
100
AcDbLine
 10
167.99120824
 20
-17.65659232
 30
0.0
 11
168.27541725
 21
-18.07041786
 31
0.0
  0
LINE
  5
B1
100
AcDbEntity
  8
レイヤー_1
  6
CONTINUOUS
 62
       3
100
AcDbLine
 10
168.27541725
 20
-18.07041786
 30
0.0
 11
168.68881217
 21
-18.35591873
 31
0.0
  0
LINE
  5
B2
100
AcDbEntity
  8
レイヤー_1
  6
CONTINUOUS
 62
       3
100
AcDbLine
 10
168.68881217
 20
-18.35591873
 30
0.0
 11
169.19694343
 21
-18.45323879
 31
0.0
  0
LINE
  5
B3
100
AcDbEntity
  8
レイヤー_1
  6
CONTINUOUS
 62
       3
100
AcDbLine
 10
169.19694343
 20
-18.45323879
 30
0.0
 11
169.70507469
 21
-18.35591873
 31
0.0
  0
LINE
  5
B4
100
AcDbEntity
  8
レイヤー_1
  6
CONTINUOUS
 62
       3
100
AcDbLine
 10
169.70507469
 20
-18.35591873
 30
0.0
 11
170.11846961
 21
-18.07041786
 31
0.0
  0
LINE
  5
B5
100
AcDbEntity
  8
レイヤー_1
  6
CONTINUOUS
 62
       3
100
AcDbLine
 10
170.11846961
 20
-18.07041786
 30
0.0
 11
170.40267862
 21
-17.65659232
 31
0.0
  0
LINE
  5
B6
100
AcDbEntity
  8
レイヤー_1
  6
CONTINUOUS
 62
       3
100
AcDbLine
 10
170.40267862
 20
-17.65659232
 30
0.0
 11
170.49999867
 21
-17.15061416
 31
0.0
  0
LINE
  5
B7
100
AcDbEntity
  8
レイヤー_1
  6
CONTINUOUS
 62
       3
100
AcDbLine
 10
171.70745634
 20
-17.15061416
 30
0.0
 11
171.61013628
 21
-16.48315361
 31
0.0
  0
LINE
  5
B8
100
AcDbEntity
  8
レイヤー_1
  6
CONTINUOUS
 62
       3
100
AcDbLine
 10
171.61013628
 20
-16.48315361
 30
0.0
 11
171.3242048
 21
-15.84885078
 31
0.0
  0
LINE
  5
B9
100
AcDbEntity
  8
レイヤー_1
  6
CONTINUOUS
 62
       3
100
AcDbLine
 10
171.3242048
 20
-15.84885078
 30
0.0
 11
170.91080987
 21
-15.34071952
 31
0.0
  0
LINE
  5
BA
100
AcDbEntity
  8
レイヤー_1
  6
CONTINUOUS
 62
       3
100
AcDbLine
 10
170.91080987
 20
-15.34071952
 30
0.0
 11
170.34066938
 21
-14.9273246
 31
0.0
  0
LINE
  5
BB
100
AcDbEntity
  8
レイヤー_1
  6
CONTINUOUS
 62
       3
100
AcDbLine
 10
170.34066938
 20
-14.9273246
 30
0.0
 11
169.70507469
 21
-14.70512483
 31
0.0
  0
LINE
  5
BC
100
AcDbEntity
  8
レイヤー_1
  6
CONTINUOUS
 62
       3
100
AcDbLine
 10
169.70507469
 20
-14.70512483
 30
0.0
 11
169.03847537
 21
-14.67412021
 31
0.0
  0
LINE
  5
BD
100
AcDbEntity
  8
レイヤー_1
  6
CONTINUOUS
 62
       3
100
AcDbLine
 10
169.03847537
 20
-14.67412021
 30
0.0
 11
168.37187606
 21
-14.79943055
 31
0.0
  0
LINE
  5
BE
100
AcDbEntity
  8
レイヤー_1
  6
CONTINUOUS
 62
       3
100
AcDbLine
 10
168.37187606
 20
-14.79943055
 30
0.0
 11
167.76900847
 21
-15.11679727
 31
0.0
  0
LINE
  5
BF
100
AcDbEntity
  8
レイヤー_1
  6
CONTINUOUS
 62
       3
100
AcDbLine
 10
167.76900847
 20
-15.11679727
 30
0.0
 11
167.26173845
 21
-15.59392391
 31
0.0
  0
LINE
  5
C0
100
AcDbEntity
  8
レイヤー_1
  6
CONTINUOUS
 62
       3
100
AcDbLine
 10
167.26173845
 20
-15.59392391
 30
0.0
 11
166.91121401
 21
-16.16535627
 31
0.0
  0
LINE
  5
C1
100
AcDbEntity
  8
レイヤー_1
  6
CONTINUOUS
 62
       3
100
AcDbLine
 10
166.91121401
 20
-16.16535627
 30
0.0
 11
166.72001886
 21
-16.8323862
 31
0.0
  0
LINE
  5
C2
100
AcDbEntity
  8
レイヤー_1
  6
CONTINUOUS
 62
       3
100
AcDbLine
 10
166.72001886
 20
-16.8323862
 30
0.0
 11
166.72001886
 21
-17.50070799
 31
0.0
  0
LINE
  5
C3
100
AcDbEntity
  8
レイヤー_1
  6
CONTINUOUS
 62
       3
100
AcDbLine
 10
166.72001886
 20
-17.50070799
 30
0.0
 11
166.91121401
 21
-18.16644606
 31
0.0
  0
LINE
  5
C4
100
AcDbEntity
  8
レイヤー_1
  6
CONTINUOUS
 62
       3
100
AcDbLine
 10
166.91121401
 20
-18.16644606
 30
0.0
 11
167.26173845
 21
-18.73701718
 31
0.0
  0
LINE
  5
C5
100
AcDbEntity
  8
レイヤー_1
  6
CONTINUOUS
 62
       3
100
AcDbLine
 10
167.26173845
 20
-18.73701718
 30
0.0
 11
167.76900847
 21
-19.21414381
 31
0.0
  0
LINE
  5
C6
100
AcDbEntity
  8
レイヤー_1
  6
CONTINUOUS
 62
       3
100
AcDbLine
 10
167.76900847
 20
-19.21414381
 30
0.0
 11
168.37187606
 21
-19.5306493
 31
0.0
  0
LINE
  5
C7
100
AcDbEntity
  8
レイヤー_1
  6
CONTINUOUS
 62
       3
100
AcDbLine
 10
168.37187606
 20
-19.5306493
 30
0.0
 11
169.03847537
 21
-19.65854336
 31
0.0
  0
LINE
  5
C8
100
AcDbEntity
  8
レイヤー_1
  6
CONTINUOUS
 62
       3
100
AcDbLine
 10
169.03847537
 20
-19.65854336
 30
0.0
 11
169.70507469
 21
-19.5961035
 31
0.0
  0
LINE
  5
C9
100
AcDbEntity
  8
レイヤー_1
  6
CONTINUOUS
 62
       3
100
AcDbLine
 10
169.70507469
 20
-19.5961035
 30
0.0
 11
170.34066938
 21
-19.37304249
 31
0.0
  0
LINE
  5
CA
100
AcDbEntity
  8
レイヤー_1
  6
CONTINUOUS
 62
       3
100
AcDbLine
 10
170.34066938
 20
-19.37304249
 30
0.0
 11
170.91080987
 21
-18.99194404
 31
0.0
  0
LINE
  5
CB
100
AcDbEntity
  8
レイヤー_1
  6
CONTINUOUS
 62
       3
100
AcDbLine
 10
170.91080987
 20
-18.99194404
 30
0.0
 11
171.3242048
 21
-18.45323879
 31
0.0
  0
LINE
  5
CC
100
AcDbEntity
  8
レイヤー_1
  6
CONTINUOUS
 62
       3
100
AcDbLine
 10
171.3242048
 20
-18.45323879
 30
0.0
 11
171.61013628
 21
-17.84821809
 31
0.0
  0
LINE
  5
CD
100
AcDbEntity
  8
レイヤー_1
  6
CONTINUOUS
 62
       3
100
AcDbLine
 10
171.61013628
 20
-17.84821809
 30
0.0
 11
171.70745634
 21
-17.15061416
 31
0.0
  0
LINE
  5
CE
100
AcDbEntity
  8
レイヤー_1
  6
CONTINUOUS
 62
       3
100
AcDbLine
 10
173.1965393
 20
-17.15061416
 30
0.0
 11
173.10438668
 21
-16.29325032
 31
0.0
  0
LINE
  5
CF
100
AcDbEntity
  8
レイヤー_1
  6
CONTINUOUS
 62
       3
100
AcDbLine
 10
173.10438668
 20
-16.29325032
 30
0.0
 11
172.81673271
 21
-15.46602986
 31
0.0
  0
LINE
  5
D0
100
AcDbEntity
  8
レイヤー_1
  6
CONTINUOUS
 62
       3
100
AcDbLine
 10
172.81673271
 20
-15.46602986
 30
0.0
 11
172.37233317
 21
-14.73785193
 31
0.0
  0
LINE
  5
D1
100
AcDbEntity
  8
レイヤー_1
  6
CONTINUOUS
 62
       3
100
AcDbLine
 10
172.37233317
 20
-14.73785193
 30
0.0
 11
171.80133144
 21
-14.10268786
 31
0.0
  0
LINE
  5
D2
100
AcDbEntity
  8
レイヤー_1
  6
CONTINUOUS
 62
       3
100
AcDbLine
 10
171.80133144
 20
-14.10268786
 30
0.0
 11
171.07100041
 21
-13.6272837
 31
0.0
  0
LINE
  5
D3
100
AcDbEntity
  8
レイヤー_1
  6
CONTINUOUS
 62
       3
100
AcDbLine
 10
171.07100041
 20
-13.6272837
 30
0.0
 11
170.2777989
 21
-13.30819449
 31
0.0
  0
LINE
  5
D4
100
AcDbEntity
  8
レイヤー_1
  6
CONTINUOUS
 62
       3
100
AcDbLine
 10
170.2777989
 20
-13.30819449
 30
0.0
 11
169.4191432
 21
-13.18288415
 31
0.0
  0
LINE
  5
D5
100
AcDbEntity
  8
レイヤー_1
  6
CONTINUOUS
 62
       3
100
AcDbLine
 10
169.4191432
 20
-13.18288415
 30
0.0
 11
168.56134874
 21
-13.21388877
 31
0.0
  0
LINE
  5
D6
100
AcDbEntity
  8
レイヤー_1
  6
CONTINUOUS
 62
       3
100
AcDbLine
 10
168.56134874
 20
-13.21388877
 30
0.0
 11
167.70441551
 21
-13.43608854
 31
0.0
  0
LINE
  5
D7
100
AcDbEntity
  8
レイヤー_1
  6
CONTINUOUS
 62
       3
100
AcDbLine
 10
167.70441551
 20
-13.43608854
 30
0.0
 11
166.94221863
 21
-13.84776099
 31
0.0
  0
LINE
  5
D8
100
AcDbEntity
  8
レイヤー_1
  6
CONTINUOUS
 62
       3
100
AcDbLine
 10
166.94221863
 20
-13.84776099
 30
0.0
 11
166.27561931
 21
-14.41919334
 31
0.0
  0
LINE
  5
D9
100
AcDbEntity
  8
レイヤー_1
  6
CONTINUOUS
 62
       3
100
AcDbLine
 10
166.27561931
 20
-14.41919334
 30
0.0
 11
165.76748806
 21
-15.08622327
 31
0.0
  0
LINE
  5
DA
100
AcDbEntity
  8
レイヤー_1
  6
CONTINUOUS
 62
       3
100
AcDbLine
 10
165.76748806
 20
-15.08622327
 30
0.0
 11
165.41782485
 21
-15.8798554
 31
0.0
  0
LINE
  5
DB
100
AcDbEntity
  8
レイヤー_1
  6
CONTINUOUS
 62
       3
100
AcDbLine
 10
165.41782485
 20
-15.8798554
 30
0.0
 11
165.22835218
 21
-16.73764986
 31
0.0
  0
LINE
  5
DC
100
AcDbEntity
  8
レイヤー_1
  6
CONTINUOUS
 62
       3
100
AcDbLine
 10
165.22835218
 20
-16.73764986
 30
0.0
 11
165.22835218
 21
-17.5950137
 31
0.0
  0
LINE
  5
DD
100
AcDbEntity
  8
レイヤー_1
  6
CONTINUOUS
 62
       3
100
AcDbLine
 10
165.22835218
 20
-17.5950137
 30
0.0
 11
165.41782485
 21
-18.45323879
 31
0.0
  0
LINE
  5
DE
100
AcDbEntity
  8
レイヤー_1
  6
CONTINUOUS
 62
       3
100
AcDbLine
 10
165.41782485
 20
-18.45323879
 30
0.0
 11
165.76748806
 21
-19.21414381
 31
0.0
  0
LINE
  5
DF
100
AcDbEntity
  8
レイヤー_1
  6
CONTINUOUS
 62
       3
100
AcDbLine
 10
165.76748806
 20
-19.21414381
 30
0.0
 11
166.27561931
 21
-19.91174775
 31
0.0
  0
LINE
  5
E0
100
AcDbEntity
  8
レイヤー_1
  6
CONTINUOUS
 62
       3
100
AcDbLine
 10
166.27561931
 20
-19.91174775
 30
0.0
 11
166.94221863
 21
-20.48490258
 31
0.0
  0
LINE
  5
E1
100
AcDbEntity
  8
レイヤー_1
  6
CONTINUOUS
 62
       3
100
AcDbLine
 10
166.94221863
 20
-20.48490258
 30
0.0
 11
167.70441551
 21
-20.86600102
 31
0.0
  0
LINE
  5
E2
100
AcDbEntity
  8
レイヤー_1
  6
CONTINUOUS
 62
       3
100
AcDbLine
 10
167.70441551
 20
-20.86600102
 30
0.0
 11
168.56134874
 21
-21.11920541
 31
0.0
  0
LINE
  5
E3
100
AcDbEntity
  8
レイヤー_1
  6
CONTINUOUS
 62
       3
100
AcDbLine
 10
168.56134874
 20
-21.11920541
 30
0.0
 11
169.4191432
 21
-21.15021003
 31
0.0
  0
LINE
  5
E4
100
AcDbEntity
  8
レイヤー_1
  6
CONTINUOUS
 62
       3
100
AcDbLine
 10
169.4191432
 20
-21.15021003
 30
0.0
 11
170.2777989
 21
-21.02403846
 31
0.0
  0
LINE
  5
E5
100
AcDbEntity
  8
レイヤー_1
  6
CONTINUOUS
 62
       3
100
AcDbLine
 10
170.2777989
 20
-21.02403846
 30
0.0
 11
171.07100041
 21
-20.70537987
 31
0.0
  0
LINE
  5
E6
100
AcDbEntity
  8
レイヤー_1
  6
CONTINUOUS
 62
       3
100
AcDbLine
 10
171.07100041
 20
-20.70537987
 30
0.0
 11
171.80133144
 21
-20.19767923
 31
0.0
  0
LINE
  5
E7
100
AcDbEntity
  8
レイヤー_1
  6
CONTINUOUS
 62
       3
100
AcDbLine
 10
171.80133144
 20
-20.19767923
 30
0.0
 11
172.37233317
 21
-19.5961035
 31
0.0
  0
LINE
  5
E8
100
AcDbEntity
  8
レイヤー_1
  6
CONTINUOUS
 62
       3
100
AcDbLine
 10
172.37233317
 20
-19.5961035
 30
0.0
 11
172.81673271
 21
-18.83304537
 31
0.0
  0
LINE
  5
E9
100
AcDbEntity
  8
レイヤー_1
  6
CONTINUOUS
 62
       3
100
AcDbLine
 10
172.81673271
 20
-18.83304537
 30
0.0
 11
173.10438668
 21
-18.00883925
 31
0.0
  0
LINE
  5
EA
100
AcDbEntity
  8
レイヤー_1
  6
CONTINUOUS
 62
       3
100
AcDbLine
 10
173.10438668
 20
-18.00883925
 30
0.0
 11
173.1965393
 21
-17.15061416
 31
0.0
  0
LINE
  5
EB
100
AcDbEntity
  8
レイヤー_1
  6
CONTINUOUS
 62
       3
100
AcDbLine
 10
155.9872532
 20
-44.29731131
 30
0.0
 11
155.9872532
 21
-42.80435278
 31
0.0
  0
LINE
  5
EC
100
AcDbEntity
  8
レイヤー_1
  6
CONTINUOUS
 62
       3
100
AcDbLine
 10
155.9872532
 20
-42.80435278
 30
0.0
 11
157.48064235
 21
-42.80435278
 31
0.0
  0
LINE
  5
ED
100
AcDbEntity
  8
レイヤー_1
  6
CONTINUOUS
 62
       3
100
AcDbLine
 10
125.97994931
 20
-48.80676092
 30
0.0
 11
125.97994931
 21
-51.0687915
 31
0.0
  0
LINE
  5
EE
100
AcDbEntity
  8
レイヤー_1
  6
CONTINUOUS
 62
       3
100
AcDbLine
 10
124.48914388
 20
-51.0687915
 30
0.0
 11
124.48914388
 21
-48.80676092
 31
0.0
  0
LINE
  5
EF
100
AcDbEntity
  8
レイヤー_1
  6
CONTINUOUS
 62
       3
100
AcDbLine
 10
152.49492735
 20
-48.80676092
 30
0.0
 11
152.49492735
 21
-51.0687915
 31
0.0
  0
LINE
  5
F0
100
AcDbEntity
  8
レイヤー_1
  6
CONTINUOUS
 62
       3
100
AcDbLine
 10
151.00239943
 20
-51.0687915
 30
0.0
 11
151.00239943
 21
-48.80676092
 31
0.0
  0
LINE
  5
F1
100
AcDbEntity
  8
レイヤー_1
  6
CONTINUOUS
 62
       3
100
AcDbLine
 10
124.48914388
 20
-47.82150302
 30
0.0
 11
124.48914388
 21
-48.80676092
 31
0.0
  0
LINE
  5
F2
100
AcDbEntity
  8
レイヤー_1
  6
CONTINUOUS
 62
       3
100
AcDbLine
 10
124.48914388
 20
-48.80676092
 30
0.0
 11
125.97994931
 21
-48.80676092
 31
0.0
  0
LINE
  5
F3
100
AcDbEntity
  8
レイヤー_1
  6
CONTINUOUS
 62
       3
100
AcDbLine
 10
125.97994931
 20
-48.80676092
 30
0.0
 11
125.97994931
 21
-47.4408352
 31
0.0
  0
LINE
  5
F4
100
AcDbEntity
  8
レイヤー_1
  6
CONTINUOUS
 62
       3
100
AcDbLine
 10
125.97994931
 20
-47.4408352
 30
0.0
 11
151.00239943
 21
-47.4408352
 31
0.0
  0
LINE
  5
F5
100
AcDbEntity
  8
レイヤー_1
  6
CONTINUOUS
 62
       3
100
AcDbLine
 10
151.00239943
 20
-48.80676092
 30
0.0
 11
151.00239943
 21
-47.4408352
 31
0.0
  0
LINE
  5
F6
100
AcDbEntity
  8
レイヤー_1
  6
CONTINUOUS
 62
       3
100
AcDbLine
 10
151.00239943
 20
-48.80676092
 30
0.0
 11
152.49492735
 21
-48.80676092
 31
0.0
  0
LINE
  5
F7
100
AcDbEntity
  8
レイヤー_1
  6
CONTINUOUS
 62
       3
100
AcDbLine
 10
159.98943279
 20
-47.82150302
 30
0.0
 11
152.49492735
 21
-47.82150302
 31
0.0
  0
LINE
  5
F8
100
AcDbEntity
  8
レイヤー_1
  6
CONTINUOUS
 62
       3
100
AcDbLine
 10
152.49492735
 20
-47.82150302
 30
0.0
 11
152.49492735
 21
-48.80676092
 31
0.0
  0
LINE
  5
F9
100
AcDbEntity
  8
レイヤー_1
  6
CONTINUOUS
 62
       3
100
AcDbLine
 10
159.98943279
 20
-47.82150302
 30
0.0
 11
159.98943279
 21
-42.80435278
 31
0.0
  0
LINE
  5
FA
100
AcDbEntity
  8
レイヤー_1
  6
CONTINUOUS
 62
       3
100
AcDbLine
 10
157.48064235
 20
-42.80435278
 30
0.0
 11
159.98943279
 21
-42.80435278
 31
0.0
  0
LINE
  5
FB
100
AcDbEntity
  8
レイヤー_1
  6
CONTINUOUS
 62
       3
100
AcDbLine
 10
157.48064235
 20
-42.80435278
 30
0.0
 11
157.48064235
 21
-44.29731131
 31
0.0
  0
LINE
  5
FC
100
AcDbEntity
  8
レイヤー_1
  6
CONTINUOUS
 62
       3
100
AcDbLine
 10
119.50170639
 20
-42.80435278
 30
0.0
 11
119.50170639
 21
-44.29731131
 31
0.0
  0
LINE
  5
FD
100
AcDbEntity
  8
レイヤー_1
  6
CONTINUOUS
 62
       3
100
AcDbLine
 10
119.50170639
 20
-42.80435278
 30
0.0
 11
116.99463844
 21
-42.80435278
 31
0.0
  0
LINE
  5
FE
100
AcDbEntity
  8
レイヤー_1
  6
CONTINUOUS
 62
       3
100
AcDbLine
 10
116.99463844
 20
-47.82150302
 30
0.0
 11
116.99463844
 21
-42.80435278
 31
0.0
  0
LINE
  5
FF
100
AcDbEntity
  8
レイヤー_1
  6
CONTINUOUS
 62
       3
100
AcDbLine
 10
116.99463844
 20
-47.82150302
 30
0.0
 11
124.48914388
 21
-47.82150302
 31
0.0
  0
LINE
  5
100
100
AcDbEntity
  8
レイヤー_1
  6
CONTINUOUS
 62
       3
100
AcDbLine
 10
148.49447024
 20
-48.80676092
 30
0.0
 11
148.49447024
 21
-48.29690718
 31
0.0
  0
LINE
  5
101
100
AcDbEntity
  8
レイヤー_1
  6
CONTINUOUS
 62
       3
100
AcDbLine
 10
128.48787851
 20
-48.80676092
 30
0.0
 11
128.48787851
 21
-48.29690718
 31
0.0
  0
LINE
  5
102
100
AcDbEntity
  8
レイヤー_1
  6
CONTINUOUS
 62
       3
100
AcDbLine
 10
128.48787851
 20
-48.29690718
 30
0.0
 11
148.49447024
 21
-48.29690718
 31
0.0
  0
LINE
  5
103
100
AcDbEntity
  8
レイヤー_1
  6
CONTINUOUS
 62
       3
100
AcDbLine
 10
148.49447024
 20
-51.0687915
 30
0.0
 11
148.49447024
 21
-48.80676092
 31
0.0
  0
LINE
  5
104
100
AcDbEntity
  8
レイヤー_1
  6
CONTINUOUS
 62
       3
100
AcDbLine
 10
128.48787851
 20
-51.0687915
 30
0.0
 11
128.48787851
 21
-48.80676092
 31
0.0
  0
LINE
  5
105
100
AcDbEntity
  8
レイヤー_1
  6
CONTINUOUS
 62
       3
100
AcDbLine
 10
128.48787851
 20
-48.80676092
 30
0.0
 11
148.49447024
 21
-48.80676092
 31
0.0
  0
LINE
  5
106
100
AcDbEntity
  8
レイヤー_1
  6
CONTINUOUS
 62
       3
100
AcDbLine
 10
165.00615241
 20
-45.82127447
 30
0.0
 11
159.98943279
 21
-45.82127447
 31
0.0
  0
LINE
  5
107
100
AcDbEntity
  8
レイヤー_1
  6
CONTINUOUS
 62
       3
100
AcDbLine
 10
148.49447024
 20
-48.29690718
 30
0.0
 11
148.49447024
 21
-47.59930325
 31
0.0
  0
LINE
  5
108
100
AcDbEntity
  8
レイヤー_1
  6
CONTINUOUS
 62
       3
100
AcDbLine
 10
128.48787851
 20
-48.29690718
 30
0.0
 11
128.48787851
 21
-47.59930325
 31
0.0
  0
LINE
  5
109
100
AcDbEntity
  8
レイヤー_1
  6
CONTINUOUS
 62
       3
100
AcDbLine
 10
120.99509555
 20
-44.29731131
 30
0.0
 11
120.99509555
 21
-42.80435278
 31
0.0
  0
LINE
  5
10A
100
AcDbEntity
  8
レイヤー_1
  6
CONTINUOUS
 62
       3
100
AcDbLine
 10
120.99509555
 20
-42.80435278
 30
0.0
 11
119.50170639
 21
-42.80435278
 31
0.0
  0
LINE
  5
10B
100
AcDbEntity
  8
レイヤー_1
  6
CONTINUOUS
 62
       3
100
AcDbLine
 10
116.99463844
 20
-45.82127447
 30
0.0
 11
111.97619634
 21
-45.82127447
 31
0.0
  0
LINE
  5
10C
100
AcDbEntity
  8
レイヤー_1
  6
CONTINUOUS
 62
       3
100
AcDbLine
 10
168.4993395
 20
-51.0687915
 30
0.0
 11
168.4993395
 21
-45.82127447
 31
0.0
  0
LINE
  5
10D
100
AcDbEntity
  8
レイヤー_1
  6
CONTINUOUS
 62
       3
100
AcDbLine
 10
168.4993395
 20
-45.82127447
 30
0.0
 11
165.00615241
 21
-45.82127447
 31
0.0
  0
LINE
  5
10E
100
AcDbEntity
  8
レイヤー_1
  6
CONTINUOUS
 62
       3
100
AcDbLine
 10
111.97619634
 20
-45.82127447
 30
0.0
 11
108.48300925
 21
-45.82127447
 31
0.0
  0
LINE
  5
10F
100
AcDbEntity
  8
レイヤー_1
  6
CONTINUOUS
 62
       3
100
AcDbLine
 10
108.48300925
 20
-51.0687915
 30
0.0
 11
108.48300925
 21
-45.82127447
 31
0.0
  0
LINE
  5
110
100
AcDbEntity
  8
レイヤー_1
  6
CONTINUOUS
 62
       3
100
AcDbLine
 10
121.28102704
 20
-45.82127447
 30
0.0
 11
119.50170639
 21
-45.82127447
 31
0.0
  0
LINE
  5
111
100
AcDbEntity
  8
レイヤー_1
  6
CONTINUOUS
 62
       3
100
AcDbLine
 10
119.50170639
 20
-45.82127447
 30
0.0
 11
119.50170639
 21
-44.29731131
 31
0.0
  0
LINE
  5
112
100
AcDbEntity
  8
レイヤー_1
  6
CONTINUOUS
 62
       3
100
AcDbLine
 10
119.50170639
 20
-44.29731131
 30
0.0
 11
121.28102704
 21
-44.29731131
 31
0.0
  0
LINE
  5
113
100
AcDbEntity
  8
レイヤー_1
  6
CONTINUOUS
 62
       3
100
AcDbLine
 10
155.70132171
 20
-44.29731131
 30
0.0
 11
157.48064235
 21
-44.29731131
 31
0.0
  0
LINE
  5
114
100
AcDbEntity
  8
レイヤー_1
  6
CONTINUOUS
 62
       3
100
AcDbLine
 10
157.48064235
 20
-44.29731131
 30
0.0
 11
157.48064235
 21
-45.82127447
 31
0.0
  0
LINE
  5
115
100
AcDbEntity
  8
レイヤー_1
  6
CONTINUOUS
 62
       3
100
AcDbLine
 10
157.48064235
 20
-45.82127447
 30
0.0
 11
155.70132171
 21
-45.82127447
 31
0.0
  0
LINE
  5
116
100
AcDbEntity
  8
レイヤー_1
  6
CONTINUOUS
 62
       3
100
AcDbLine
 10
111.97619634
 20
45.68369147
 30
0.0
 11
111.97619634
 21
50.9312085
 31
0.0
  0
LINE
  5
117
100
AcDbEntity
  8
レイヤー_1
  6
CONTINUOUS
 62
       3
100
AcDbLine
 10
165.00615241
 20
50.9312085
 30
0.0
 11
165.00615241
 21
45.68369147
 31
0.0
  0
LINE
  5
118
100
AcDbEntity
  8
レイヤー_1
  6
CONTINUOUS
 62
       3
100
AcDbLine
 10
124.48914388
 20
48.66788606
 30
0.0
 11
125.97994931
 21
48.66788606
 31
0.0
  0
LINE
  5
119
100
AcDbEntity
  8
レイヤー_1
  6
CONTINUOUS
 62
       3
100
AcDbLine
 10
125.97994931
 20
48.66788606
 30
0.0
 11
125.97994931
 21
47.30282158
 31
0.0
  0
LINE
  5
11A
100
AcDbEntity
  8
レイヤー_1
  6
CONTINUOUS
 62
       3
100
AcDbLine
 10
125.97994931
 20
47.30282158
 30
0.0
 11
151.00239943
 21
47.30282158
 31
0.0
  0
LINE
  5
11B
100
AcDbEntity
  8
レイヤー_1
  6
CONTINUOUS
 62
       3
100
AcDbLine
 10
151.00239943
 20
48.66788606
 30
0.0
 11
151.00239943
 21
47.30282158
 31
0.0
  0
LINE
  5
11C
100
AcDbEntity
  8
レイヤー_1
  6
CONTINUOUS
 62
       3
100
AcDbLine
 10
151.00239943
 20
48.66788606
 30
0.0
 11
152.49492735
 21
48.66788606
 31
0.0
  0
LINE
  5
11D
100
AcDbEntity
  8
レイヤー_1
  6
CONTINUOUS
 62
       3
100
AcDbLine
 10
159.98943279
 20
47.68305878
 30
0.0
 11
152.49492735
 21
47.68305878
 31
0.0
  0
LINE
  5
11E
100
AcDbEntity
  8
レイヤー_1
  6
CONTINUOUS
 62
       3
100
AcDbLine
 10
152.49492735
 20
47.68305878
 30
0.0
 11
152.49492735
 21
48.66788606
 31
0.0
  0
LINE
  5
11F
100
AcDbEntity
  8
レイヤー_1
  6
CONTINUOUS
 62
       3
100
AcDbLine
 10
159.98943279
 20
47.68305878
 30
0.0
 11
159.98943279
 21
42.66590854
 31
0.0
  0
LINE
  5
120
100
AcDbEntity
  8
レイヤー_1
  6
CONTINUOUS
 62
       3
100
AcDbLine
 10
157.48064235
 20
42.66590854
 30
0.0
 11
159.98943279
 21
42.66590854
 31
0.0
  0
LINE
  5
121
100
AcDbEntity
  8
レイヤー_1
  6
CONTINUOUS
 62
       3
100
AcDbLine
 10
157.48064235
 20
42.66590854
 30
0.0
 11
157.48064235
 21
44.15972831
 31
0.0
  0
LINE
  5
122
100
AcDbEntity
  8
レイヤー_1
  6
CONTINUOUS
 62
       3
100
AcDbLine
 10
119.50170639
 20
42.66590854
 30
0.0
 11
119.50170639
 21
44.15972831
 31
0.0
  0
LINE
  5
123
100
AcDbEntity
  8
レイヤー_1
  6
CONTINUOUS
 62
       3
100
AcDbLine
 10
119.50170639
 20
42.66590854
 30
0.0
 11
116.99463844
 21
42.66590854
 31
0.0
  0
LINE
  5
124
100
AcDbEntity
  8
レイヤー_1
  6
CONTINUOUS
 62
       3
100
AcDbLine
 10
116.99463844
 20
47.68305878
 30
0.0
 11
116.99463844
 21
42.66590854
 31
0.0
  0
LINE
  5
125
100
AcDbEntity
  8
レイヤー_1
  6
CONTINUOUS
 62
       3
100
AcDbLine
 10
116.99463844
 20
47.68305878
 30
0.0
 11
124.48914388
 21
47.68305878
 31
0.0
  0
LINE
  5
126
100
AcDbEntity
  8
レイヤー_1
  6
CONTINUOUS
 62
       3
100
AcDbLine
 10
148.49447024
 20
48.66788606
 30
0.0
 11
148.49447024
 21
48.15846294
 31
0.0
  0
LINE
  5
127
100
AcDbEntity
  8
レイヤー_1
  6
CONTINUOUS
 62
       3
100
AcDbLine
 10
128.48787851
 20
48.66788606
 30
0.0
 11
128.48787851
 21
48.15846294
 31
0.0
  0
LINE
  5
128
100
AcDbEntity
  8
レイヤー_1
  6
CONTINUOUS
 62
       3
100
AcDbLine
 10
128.48787851
 20
48.15846294
 30
0.0
 11
148.49447024
 21
48.15846294
 31
0.0
  0
LINE
  5
129
100
AcDbEntity
  8
レイヤー_1
  6
CONTINUOUS
 62
       3
100
AcDbLine
 10
148.49447024
 20
50.9312085
 30
0.0
 11
148.49447024
 21
48.66788606
 31
0.0
  0
LINE
  5
12A
100
AcDbEntity
  8
レイヤー_1
  6
CONTINUOUS
 62
       3
100
AcDbLine
 10
128.48787851
 20
50.9312085
 30
0.0
 11
128.48787851
 21
48.66788606
 31
0.0
  0
LINE
  5
12B
100
AcDbEntity
  8
レイヤー_1
  6
CONTINUOUS
 62
       3
100
AcDbLine
 10
128.48787851
 20
48.66788606
 30
0.0
 11
148.49447024
 21
48.66788606
 31
0.0
  0
LINE
  5
12C
100
AcDbEntity
  8
レイヤー_1
  6
CONTINUOUS
 62
       3
100
AcDbLine
 10
111.76755351
 20
42.19050438
 30
0.0
 11
121.28102704
 21
42.19050438
 31
0.0
  0
LINE
  5
12D
100
AcDbEntity
  8
レイヤー_1
  6
CONTINUOUS
 62
       3
100
AcDbLine
 10
121.28102704
 20
42.19050438
 30
0.0
 11
121.28102704
 21
45.9312085
 31
0.0
  0
LINE
  5
12E
100
AcDbEntity
  8
レイヤー_1
  6
CONTINUOUS
 62
       3
100
AcDbLine
 10
155.70132171
 20
45.9312085
 30
0.0
 11
155.70132171
 21
42.19050438
 31
0.0
  0
LINE
  5
12F
100
AcDbEntity
  8
レイヤー_1
  6
CONTINUOUS
 62
       3
100
AcDbLine
 10
155.70132171
 20
42.19050438
 30
0.0
 11
165.21479523
 21
42.19050438
 31
0.0
  0
LINE
  5
130
100
AcDbEntity
  8
レイヤー_1
  6
CONTINUOUS
 62
       3
100
AcDbLine
 10
165.00615241
 20
45.68369147
 30
0.0
 11
159.98943279
 21
45.68369147
 31
0.0
  0
LINE
  5
131
100
AcDbEntity
  8
レイヤー_1
  6
CONTINUOUS
 62
       3
100
AcDbLine
 10
148.49447024
 20
48.15846294
 30
0.0
 11
148.49447024
 21
47.46085901
 31
0.0
  0
LINE
  5
132
100
AcDbEntity
  8
レイヤー_1
  6
CONTINUOUS
 62
       3
100
AcDbLine
 10
128.48787851
 20
48.15846294
 30
0.0
 11
128.48787851
 21
47.46085901
 31
0.0
  0
LINE
  5
133
100
AcDbEntity
  8
レイヤー_1
  6
CONTINUOUS
 62
       3
100
AcDbLine
 10
120.99509555
 20
44.15972831
 30
0.0
 11
120.99509555
 21
42.66590854
 31
0.0
  0
LINE
  5
134
100
AcDbEntity
  8
レイヤー_1
  6
CONTINUOUS
 62
       3
100
AcDbLine
 10
120.99509555
 20
42.66590854
 30
0.0
 11
119.50170639
 21
42.66590854
 31
0.0
  0
LINE
  5
135
100
AcDbEntity
  8
レイヤー_1
  6
CONTINUOUS
 62
       3
100
AcDbLine
 10
155.9872532
 20
44.15972831
 30
0.0
 11
155.9872532
 21
42.66590854
 31
0.0
  0
LINE
  5
136
100
AcDbEntity
  8
レイヤー_1
  6
CONTINUOUS
 62
       3
100
AcDbLine
 10
155.9872532
 20
42.66590854
 30
0.0
 11
157.48064235
 21
42.66590854
 31
0.0
  0
LINE
  5
137
100
AcDbEntity
  8
レイヤー_1
  6
CONTINUOUS
 62
       3
100
AcDbLine
 10
125.97994931
 20
48.66788606
 30
0.0
 11
125.97994931
 21
50.9312085
 31
0.0
  0
LINE
  5
138
100
AcDbEntity
  8
レイヤー_1
  6
CONTINUOUS
 62
       3
100
AcDbLine
 10
124.48914388
 20
50.9312085
 30
0.0
 11
124.48914388
 21
48.66788606
 31
0.0
  0
LINE
  5
139
100
AcDbEntity
  8
レイヤー_1
  6
CONTINUOUS
 62
       3
100
AcDbLine
 10
152.49492735
 20
48.66788606
 30
0.0
 11
152.49492735
 21
50.9312085
 31
0.0
  0
LINE
  5
13A
100
AcDbEntity
  8
レイヤー_1
  6
CONTINUOUS
 62
       3
100
AcDbLine
 10
151.00239943
 20
50.9312085
 30
0.0
 11
151.00239943
 21
48.66788606
 31
0.0
  0
LINE
  5
13B
100
AcDbEntity
  8
レイヤー_1
  6
CONTINUOUS
 62
       3
100
AcDbLine
 10
124.48914388
 20
47.68305878
 30
0.0
 11
124.48914388
 21
48.66788606
 31
0.0
  0
LINE
  5
13C
100
AcDbEntity
  8
レイヤー_1
  6
CONTINUOUS
 62
       3
100
AcDbLine
 10
116.99463844
 20
45.68369147
 30
0.0
 11
111.97619634
 21
45.68369147
 31
0.0
  0
LINE
  5
13D
100
AcDbEntity
  8
レイヤー_1
  6
CONTINUOUS
 62
       3
100
AcDbLine
 10
168.4993395
 20
50.9312085
 30
0.0
 11
168.4993395
 21
45.68369147
 31
0.0
  0
LINE
  5
13E
100
AcDbEntity
  8
レイヤー_1
  6
CONTINUOUS
 62
       3
100
AcDbLine
 10
168.4993395
 20
45.68369147
 30
0.0
 11
165.00615241
 21
45.68369147
 31
0.0
  0
LINE
  5
13F
100
AcDbEntity
  8
レイヤー_1
  6
CONTINUOUS
 62
       3
100
AcDbLine
 10
111.97619634
 20
45.68369147
 30
0.0
 11
108.48300925
 21
45.68369147
 31
0.0
  0
LINE
  5
140
100
AcDbEntity
  8
レイヤー_1
  6
CONTINUOUS
 62
       3
100
AcDbLine
 10
108.48300925
 20
50.9312085
 30
0.0
 11
108.48300925
 21
45.68369147
 31
0.0
  0
LINE
  5
141
100
AcDbEntity
  8
レイヤー_1
  6
CONTINUOUS
 62
       3
100
AcDbLine
 10
121.28102704
 20
45.68369147
 30
0.0
 11
119.50170639
 21
45.68369147
 31
0.0
  0
LINE
  5
142
100
AcDbEntity
  8
レイヤー_1
  6
CONTINUOUS
 62
       3
100
AcDbLine
 10
119.50170639
 20
45.68369147
 30
0.0
 11
119.50170639
 21
44.15972831
 31
0.0
  0
LINE
  5
143
100
AcDbEntity
  8
レイヤー_1
  6
CONTINUOUS
 62
       3
100
AcDbLine
 10
119.50170639
 20
44.15972831
 30
0.0
 11
121.28102704
 21
44.15972831
 31
0.0
  0
LINE
  5
144
100
AcDbEntity
  8
レイヤー_1
  6
CONTINUOUS
 62
       3
100
AcDbLine
 10
155.70132171
 20
44.15972831
 30
0.0
 11
157.48064235
 21
44.15972831
 31
0.0
  0
LINE
  5
145
100
AcDbEntity
  8
レイヤー_1
  6
CONTINUOUS
 62
       3
100
AcDbLine
 10
157.48064235
 20
44.15972831
 30
0.0
 11
157.48064235
 21
45.68369147
 31
0.0
  0
LINE
  5
146
100
AcDbEntity
  8
レイヤー_1
  6
CONTINUOUS
 62
       3
100
AcDbLine
 10
157.48064235
 20
45.68369147
 30
0.0
 11
155.70132171
 21
45.68369147
 31
0.0
  0
LINE
  5
147
100
AcDbEntity
  8
レイヤー_1
  6
CONTINUOUS
 62
       3
100
AcDbLine
 10
-33.34675973
 20
47.81353655
 30
0.0
 11
-33.34675973
 21
-47.67595356
 31
0.0
  0
LINE
  5
148
100
AcDbEntity
  8
レイヤー_1
  6
CONTINUOUS
 62
       3
100
AcDbLine
 10
-33.34675973
 20
47.81353655
 30
0.0
 11
-33.34675973
 21
-47.67595356
 31
0.0
  0
ARC
  5
149
100
AcDbEntity
  8
レイヤー_1
  6
CONTINUOUS
 62
       3
100
AcDbCircle
 10
-92.49117437
 20
46.06814557
 30
0.0
 40
2.0
100
AcDbArc
 50
0.0
 51
90.0
  0
ARC
  5
14A
100
AcDbEntity
  8
レイヤー_1
  6
CONTINUOUS
 62
       3
100
AcDbCircle
 10
-92.49117437
 20
-45.93185443
 30
0.0
 40
2.0
100
AcDbArc
 50
270.0
 51
360.0
  0
ARC
  5
14B
100
AcDbEntity
  8
レイヤー_1
  6
CONTINUOUS
 62
       3
100
AcDbCircle
 10
-184.49117437
 20
-45.93185443
 30
0.0
 40
2.0
100
AcDbArc
 50
180.0
 51
270.0
  0
ARC
  5
14C
100
AcDbEntity
  8
レイヤー_1
  6
CONTINUOUS
 62
       3
100
AcDbCircle
 10
-184.49117437
 20
46.06814557
 30
0.0
 40
2.0
100
AcDbArc
 50
90.0
 51
180.0
  0
ARC
  5
14D
100
AcDbEntity
  8
レイヤー_1
  6
CONTINUOUS
 62
       3
100
AcDbCircle
 10
-56.34675973
 20
-40.46801592
 30
0.0
 40
2.0
100
AcDbArc
 50
90.0
 51
270.0
  0
ARC
  5
14E
100
AcDbEntity
  8
レイヤー_1
  6
CONTINUOUS
 62
       3
100
AcDbCircle
 10
-55.34675973
 20
46.28119759
 30
0.0
 40
1.0
100
AcDbArc
 50
92.9740162
 51
180.00000022
  0
ARC
  5
14F
100
AcDbEntity
  8
レイヤー_1
  6
CONTINUOUS
 62
       3
100
AcDbCircle
 10
-55.34675973
 20
-46.14250577
 30
0.0
 40
1.0
100
AcDbArc
 50
180.0
 51
267.02181161
  0
ARC
  5
150
100
AcDbEntity
  8
レイヤー_1
  6
CONTINUOUS
 62
       3
100
AcDbCircle
 10
184.49117437
 20
45.9312085
 30
0.0
 40
2.0
100
AcDbArc
 50
0.0
 51
90.0
  0
ARC
  5
151
100
AcDbEntity
  8
レイヤー_1
  6
CONTINUOUS
 62
       3
100
AcDbCircle
 10
184.49117437
 20
-46.0687915
 30
0.0
 40
2.0
100
AcDbArc
 50
270.0
 51
360.0
  0
ARC
  5
152
100
AcDbEntity
  8
レイヤー_1
  6
CONTINUOUS
 62
       3
100
AcDbCircle
 10
92.49117437
 20
-46.0687915
 30
0.0
 40
2.0
100
AcDbArc
 50
180.0
 51
270.0
  0
ARC
  5
153
100
AcDbEntity
  8
レイヤー_1
  6
CONTINUOUS
 62
       3
100
AcDbCircle
 10
92.49117437
 20
45.9312085
 30
0.0
 40
2.0
100
AcDbArc
 50
90.0
 51
180.0
  0
LINE
  5
154
100
AcDbEntity
  8
レイヤー_1
  6
PHANTOM
 62
       3
100
AcDbLine
 10
143.48464053
 20
-1.36969364
 30
0.0
 11
143.48464053
 21
2.62990222
 31
0.0
  0
LINE
  5
155
100
AcDbEntity
  8
レイヤー_1
  6
PHANTOM
 62
       3
100
AcDbLine
 10
143.48464053
 20
2.62990222
 30
0.0
 11
138.49978677
 21
2.62990222
 31
0.0
  0
LINE
  5
156
100
AcDbEntity
  8
レイヤー_1
  6
PHANTOM
 62
       3
100
AcDbLine
 10
138.49978677
 20
2.62990222
 30
0.0
 11
138.49978677
 21
-1.36969364
 31
0.0
  0
LINE
  5
157
100
AcDbEntity
  8
レイヤー_1
  6
PHANTOM
 62
       3
100
AcDbLine
 10
150.97742349
 20
-1.36969364
 30
0.0
 11
150.97742349
 21
2.62990222
 31
0.0
  0
LINE
  5
158
100
AcDbEntity
  8
レイヤー_1
  6
PHANTOM
 62
       3
100
AcDbLine
 10
150.97742349
 20
2.62990222
 30
0.0
 11
145.9942922
 21
2.62990222
 31
0.0
  0
LINE
  5
159
100
AcDbEntity
  8
レイヤー_1
  6
PHANTOM
 62
       3
100
AcDbLine
 10
145.9942922
 20
2.62990222
 30
0.0
 11
145.9942922
 21
-1.36969364
 31
0.0
  0
LINE
  5
15A
100
AcDbEntity
  8
レイヤー_1
  6
PHANTOM
 62
       3
100
AcDbLine
 10
158.50465602
 20
-1.36969364
 30
0.0
 11
158.50465602
 21
2.62990222
 31
0.0
  0
LINE
  5
15B
100
AcDbEntity
  8
レイヤー_1
  6
PHANTOM
 62
       3
100
AcDbLine
 10
158.50465602
 20
2.62990222
 30
0.0
 11
153.4879364
 21
2.62990222
 31
0.0
  0
LINE
  5
15C
100
AcDbEntity
  8
レイヤー_1
  6
PHANTOM
 62
       3
100
AcDbLine
 10
153.4879364
 20
2.62990222
 30
0.0
 11
153.4879364
 21
-1.36969364
 31
0.0
  0
LINE
  5
15D
100
AcDbEntity
  8
レイヤー_1
  6
PHANTOM
 62
       3
100
AcDbLine
 10
165.99916146
 20
-1.36969364
 30
0.0
 11
165.99916146
 21
2.62990222
 31
0.0
  0
LINE
  5
15E
100
AcDbEntity
  8
レイヤー_1
  6
PHANTOM
 62
       3
100
AcDbLine
 10
165.99916146
 20
2.62990222
 30
0.0
 11
160.98071936
 21
2.62990222
 31
0.0
  0
LINE
  5
15F
100
AcDbEntity
  8
レイヤー_1
  6
PHANTOM
 62
       3
100
AcDbLine
 10
160.98071936
 20
2.62990222
 30
0.0
 11
160.98071936
 21
-1.36969364
 31
0.0
  0
LINE
  5
160
100
AcDbEntity
  8
レイヤー_1
  6
PHANTOM
 62
       3
100
AcDbLine
 10
168.50709065
 20
2.62990222
 30
0.0
 11
168.50709065
 21
-1.36969364
 31
0.0
  0
LINE
  5
161
100
AcDbEntity
  8
レイヤー_1
  6
PHANTOM
 62
       3
100
AcDbLine
 10
169.14440782
 20
7.64877495
 30
0.0
 11
173.14572617
 21
7.64877495
 31
0.0
  0
LINE
  5
162
100
AcDbEntity
  8
レイヤー_1
  6
PHANTOM
 62
       3
100
AcDbLine
 10
173.14572617
 20
7.64877495
 30
0.0
 11
173.14572617
 21
14.63256541
 31
0.0
  0
LINE
  5
163
100
AcDbEntity
  8
レイヤー_1
  6
PHANTOM
 62
       3
100
AcDbLine
 10
173.14572617
 20
14.63256541
 30
0.0
 11
169.14440782
 21
14.63256541
 31
0.0
  0
LINE
  5
164
100
AcDbEntity
  8
レイヤー_1
  6
PHANTOM
 62
       3
100
AcDbLine
 10
169.14440782
 20
14.63256541
 30
0.0
 11
169.14440782
 21
7.64877495
 31
0.0
  0
LINE
  5
165
100
AcDbEntity
  8
レイヤー_1
  6
PHANTOM
 62
       3
100
AcDbLine
 10
173.05787975
 20
10.66225168
 30
0.0
 11
169.21502946
 21
10.66225168
 31
0.0
  0
LINE
  5
166
100
AcDbEntity
  8
レイヤー_1
  6
PHANTOM
 62
       3
100
AcDbLine
 10
165.61849364
 20
10.66225168
 30
0.0
 11
161.61889777
 21
10.66225168
 31
0.0
  0
LINE
  5
167
100
AcDbEntity
  8
レイヤー_1
  6
PHANTOM
 62
       3
100
AcDbLine
 10
161.61889777
 20
7.64877495
 30
0.0
 11
165.61849364
 21
7.64877495
 31
0.0
  0
LINE
  5
168
100
AcDbEntity
  8
レイヤー_1
  6
PHANTOM
 62
       3
100
AcDbLine
 10
165.61849364
 20
7.64877495
 30
0.0
 11
165.61849364
 21
14.63256541
 31
0.0
  0
LINE
  5
169
100
AcDbEntity
  8
レイヤー_1
  6
PHANTOM
 62
       3
100
AcDbLine
 10
165.61849364
 20
14.63256541
 30
0.0
 11
161.61889777
 21
14.63256541
 31
0.0
  0
LINE
  5
16A
100
AcDbEntity
  8
レイヤー_1
  6
PHANTOM
 62
       3
100
AcDbLine
 10
161.61889777
 20
14.63256541
 30
0.0
 11
161.61889777
 21
7.64877495
 31
0.0
  0
LINE
  5
16B
100
AcDbEntity
  8
レイヤー_1
  6
PHANTOM
 62
       3
100
AcDbLine
 10
154.09166523
 20
7.64877495
 30
0.0
 11
158.09470606
 21
7.64877495
 31
0.0
  0
LINE
  5
16C
100
AcDbEntity
  8
レイヤー_1
  6
PHANTOM
 62
       3
100
AcDbLine
 10
158.09470606
 20
7.64877495
 30
0.0
 11
158.09470606
 21
14.63256541
 31
0.0
  0
LINE
  5
16D
100
AcDbEntity
  8
レイヤー_1
  6
PHANTOM
 62
       3
100
AcDbLine
 10
158.09470606
 20
14.63256541
 30
0.0
 11
154.09166523
 21
14.63256541
 31
0.0
  0
LINE
  5
16E
100
AcDbEntity
  8
レイヤー_1
  6
PHANTOM
 62
       3
100
AcDbLine
 10
154.09166523
 20
14.63256541
 30
0.0
 11
154.09166523
 21
7.64877495
 31
0.0
  0
LINE
  5
16F
100
AcDbEntity
  8
レイヤー_1
  6
PHANTOM
 62
       3
100
AcDbLine
 10
158.0059984
 20
10.66225168
 30
0.0
 11
154.16228687
 21
10.66225168
 31
0.0
  0
LINE
  5
170
100
AcDbEntity
  8
レイヤー_1
  6
PHANTOM
 62
       3
100
AcDbLine
 10
150.56747353
 20
10.66225168
 30
0.0
 11
146.56615518
 21
10.66225168
 31
0.0
  0
LINE
  5
171
100
AcDbEntity
  8
レイヤー_1
  6
PHANTOM
 62
       3
100
AcDbLine
 10
146.56615518
 20
7.64877495
 30
0.0
 11
150.56747353
 21
7.64877495
 31
0.0
  0
LINE
  5
172
100
AcDbEntity
  8
レイヤー_1
  6
PHANTOM
 62
       3
100
AcDbLine
 10
150.56747353
 20
7.64877495
 30
0.0
 11
150.56747353
 21
14.63256541
 31
0.0
  0
LINE
  5
173
100
AcDbEntity
  8
レイヤー_1
  6
PHANTOM
 62
       3
100
AcDbLine
 10
150.56747353
 20
14.63256541
 30
0.0
 11
146.56615518
 21
14.63256541
 31
0.0
  0
LINE
  5
174
100
AcDbEntity
  8
レイヤー_1
  6
PHANTOM
 62
       3
100
AcDbLine
 10
146.56615518
 20
14.63256541
 30
0.0
 11
146.56615518
 21
7.64877495
 31
0.0
  0
LINE
  5
175
100
AcDbEntity
  8
レイヤー_1
  6
PHANTOM
 62
       3
100
AcDbLine
 10
139.07337222
 20
7.64877495
 30
0.0
 11
143.07469057
 21
7.64877495
 31
0.0
  0
LINE
  5
176
100
AcDbEntity
  8
レイヤー_1
  6
PHANTOM
 62
       3
100
AcDbLine
 10
143.07469057
 20
7.64877495
 30
0.0
 11
143.07469057
 21
14.63256541
 31
0.0
  0
LINE
  5
177
100
AcDbEntity
  8
レイヤー_1
  6
PHANTOM
 62
       3
100
AcDbLine
 10
143.07469057
 20
14.63256541
 30
0.0
 11
139.07337222
 21
14.63256541
 31
0.0
  0
LINE
  5
178
100
AcDbEntity
  8
レイヤー_1
  6
PHANTOM
 62
       3
100
AcDbLine
 10
139.07337222
 20
14.63256541
 30
0.0
 11
139.07337222
 21
7.64877495
 31
0.0
  0
LINE
  5
179
100
AcDbEntity
  8
レイヤー_1
  6
PHANTOM
 62
       3
100
AcDbLine
 10
142.98684415
 20
10.66225168
 30
0.0
 11
139.14227138
 21
10.66225168
 31
0.0
  0
LINE
  5
17A
100
AcDbEntity
  8
レイヤー_1
  6
PHANTOM
 62
       3
100
AcDbLine
 10
135.54745804
 20
10.66225168
 30
0.0
 11
131.54700093
 21
10.66225168
 31
0.0
  0
LINE
  5
17B
100
AcDbEntity
  8
レイヤー_1
  6
PHANTOM
 62
       3
100
AcDbLine
 10
131.54700093
 20
7.64877495
 30
0.0
 11
135.54745804
 21
7.64877495
 31
0.0
  0
LINE
  5
17C
100
AcDbEntity
  8
レイヤー_1
  6
PHANTOM
 62
       3
100
AcDbLine
 10
135.54745804
 20
7.64877495
 30
0.0
 11
135.54745804
 21
14.63256541
 31
0.0
  0
LINE
  5
17D
100
AcDbEntity
  8
レイヤー_1
  6
PHANTOM
 62
       3
100
AcDbLine
 10
135.54745804
 20
14.63256541
 30
0.0
 11
131.54700093
 21
14.63256541
 31
0.0
  0
LINE
  5
17E
100
AcDbEntity
  8
レイヤー_1
  6
PHANTOM
 62
       3
100
AcDbLine
 10
131.54700093
 20
14.63256541
 30
0.0
 11
131.54700093
 21
7.64877495
 31
0.0
  0
LINE
  5
17F
100
AcDbEntity
  8
レイヤー_1
  6
PHANTOM
 62
       3
100
AcDbLine
 10
115.94478759
 20
-17.15061416
 30
0.0
 11
111.94346924
 21
-17.15061416
 31
0.0
  0
LINE
  5
180
100
AcDbEntity
  8
レイヤー_1
  6
PHANTOM
 62
       3
100
AcDbLine
 10
111.94346924
 20
-21.75436949
 30
0.0
 11
115.94478759
 21
-21.75436949
 31
0.0
  0
LINE
  5
181
100
AcDbEntity
  8
レイヤー_1
  6
PHANTOM
 62
       3
100
AcDbLine
 10
115.94478759
 20
-21.75436949
 30
0.0
 11
115.94478759
 21
-14.76842593
 31
0.0
  0
LINE
  5
182
100
AcDbEntity
  8
レイヤー_1
  6
PHANTOM
 62
       3
100
AcDbLine
 10
115.94478759
 20
-14.76842593
 30
0.0
 11
111.94346924
 21
-14.76842593
 31
0.0
  0
LINE
  5
183
100
AcDbEntity
  8
レイヤー_1
  6
PHANTOM
 62
       3
100
AcDbLine
 10
111.94346924
 20
-14.76842593
 30
0.0
 11
111.94346924
 21
-21.75436949
 31
0.0
  0
LINE
  5
184
100
AcDbEntity
  8
レイヤー_1
  6
PHANTOM
 62
       3
100
AcDbLine
 10
111.15543517
 20
-17.15061416
 30
0.0
 11
107.15497806
 21
-17.15061416
 31
0.0
  0
LINE
  5
185
100
AcDbEntity
  8
レイヤー_1
  6
PHANTOM
 62
       3
100
AcDbLine
 10
107.15497806
 20
-21.75436949
 30
0.0
 11
111.15457393
 21
-21.75436949
 31
0.0
  0
LINE
  5
186
100
AcDbEntity
  8
レイヤー_1
  6
PHANTOM
 62
       3
100
AcDbLine
 10
111.15457393
 20
-21.75436949
 30
0.0
 11
111.15457393
 21
-14.76842593
 31
0.0
  0
LINE
  5
187
100
AcDbEntity
  8
レイヤー_1
  6
PHANTOM
 62
       3
100
AcDbLine
 10
111.15457393
 20
-14.76842593
 30
0.0
 11
107.15497806
 21
-14.76842593
 31
0.0
  0
LINE
  5
188
100
AcDbEntity
  8
レイヤー_1
  6
PHANTOM
 62
       3
100
AcDbLine
 10
107.15497806
 20
-14.76842593
 30
0.0
 11
107.15497806
 21
-21.75436949
 31
0.0
  0
LINE
  5
189
100
AcDbEntity
  8
レイヤー_1
  6
PHANTOM
 62
       3
100
AcDbLine
 10
106.30493476
 20
-17.15061416
 30
0.0
 11
102.30275517
 21
-17.15061416
 31
0.0
  0
LINE
  5
18A
100
AcDbEntity
  8
レイヤー_1
  6
PHANTOM
 62
       3
100
AcDbLine
 10
102.30275517
 20
-21.75436949
 30
0.0
 11
106.30407352
 21
-21.75436949
 31
0.0
  0
LINE
  5
18B
100
AcDbEntity
  8
レイヤー_1
  6
PHANTOM
 62
       3
100
AcDbLine
 10
106.30407352
 20
-21.75436949
 30
0.0
 11
106.30407352
 21
-14.76842593
 31
0.0
  0
LINE
  5
18C
100
AcDbEntity
  8
レイヤー_1
  6
PHANTOM
 62
       3
100
AcDbLine
 10
106.30407352
 20
-14.76842593
 30
0.0
 11
102.30275517
 21
-14.76842593
 31
0.0
  0
LINE
  5
18D
100
AcDbEntity
  8
レイヤー_1
  6
PHANTOM
 62
       3
100
AcDbLine
 10
102.30275517
 20
-14.76842593
 30
0.0
 11
102.30275517
 21
-21.75436949
 31
0.0
  0
LINE
  5
18E
100
AcDbEntity
  8
レイヤー_1
  6
PHANTOM
 62
       3
100
AcDbLine
 10
173.4936669
 20
2.62990222
 30
0.0
 11
168.50709065
 21
2.62990222
 31
0.0
  0
LINE
  5
18F
100
AcDbEntity
  8
レイヤー_1
  6
PHANTOM
 62
       3
100
AcDbLine
 10
173.4936669
 20
2.12177097
 30
0.0
 11
168.50709065
 21
2.12177097
 31
0.0
  0
LINE
  5
190
100
AcDbEntity
  8
レイヤー_1
  6
PHANTOM
 62
       3
100
AcDbLine
 10
173.4936669
 20
2.12177097
 30
0.0
 11
173.4936669
 21
2.62990222
 31
0.0
  0
LINE
  5
191
100
AcDbEntity
  8
レイヤー_1
  6
PHANTOM
 62
       3
100
AcDbLine
 10
116.65961631
 20
-8.51324402
 30
0.0
 11
116.65961631
 21
-8.70443917
 31
0.0
  0
LINE
  5
192
100
AcDbEntity
  8
レイヤー_1
  6
PHANTOM
 62
       3
100
AcDbLine
 10
101.67146668
 20
-8.70443917
 30
0.0
 11
101.67146668
 21
-8.51324402
 31
0.0
  0
LINE
  5
193
100
AcDbEntity
  8
レイヤー_1
  6
PHANTOM
 62
       3
100
AcDbLine
 10
116.65961631
 20
-8.51324402
 30
0.0
 11
101.67146668
 21
-8.51324402
 31
0.0
  0
LINE
  5
194
100
AcDbEntity
  8
レイヤー_1
  6
PHANTOM
 62
       3
100
AcDbLine
 10
116.65961631
 20
-9.46749729
 30
0.0
 11
116.65961631
 21
-9.27673276
 31
0.0
  0
LINE
  5
195
100
AcDbEntity
  8
レイヤー_1
  6
PHANTOM
 62
       3
100
AcDbLine
 10
101.67146668
 20
-9.27673276
 30
0.0
 11
101.67146668
 21
-9.46749729
 31
0.0
  0
LINE
  5
196
100
AcDbEntity
  8
レイヤー_1
  6
PHANTOM
 62
       3
100
AcDbLine
 10
116.65961631
 20
-8.70443917
 30
0.0
 11
116.65961631
 21
-9.27673276
 31
0.0
  0
LINE
  5
197
100
AcDbEntity
  8
レイヤー_1
  6
PHANTOM
 62
       3
100
AcDbLine
 10
101.67146668
 20
-9.27673276
 30
0.0
 11
101.67146668
 21
-8.70443917
 31
0.0
  0
LINE
  5
198
100
AcDbEntity
  8
レイヤー_1
  6
PHANTOM
 62
       3
100
AcDbLine
 10
101.67146668
 20
-9.27673276
 30
0.0
 11
116.65961631
 21
-9.27673276
 31
0.0
  0
LINE
  5
199
100
AcDbEntity
  8
レイヤー_1
  6
PHANTOM
 62
       3
100
AcDbLine
 10
116.65961631
 20
-9.46749729
 30
0.0
 11
116.65961631
 21
-14.13369247
 31
0.0
  0
LINE
  5
19A
100
AcDbEntity
  8
レイヤー_1
  6
PHANTOM
 62
       3
100
AcDbLine
 10
101.67146668
 20
-14.13369247
 30
0.0
 11
101.67146668
 21
-9.46749729
 31
0.0
  0
LINE
  5
19B
100
AcDbEntity
  8
レイヤー_1
  6
PHANTOM
 62
       3
100
AcDbLine
 10
116.65961631
 20
-14.32488763
 30
0.0
 11
116.65961631
 21
-14.13369247
 31
0.0
  0
LINE
  5
19C
100
AcDbEntity
  8
レイヤー_1
  6
PHANTOM
 62
       3
100
AcDbLine
 10
101.67146668
 20
-14.32488763
 30
0.0
 11
101.67146668
 21
-14.13369247
 31
0.0
  0
LINE
  5
19D
100
AcDbEntity
  8
レイヤー_1
  6
PHANTOM
 62
       3
100
AcDbLine
 10
101.67146668
 20
-14.13369247
 30
0.0
 11
116.65961631
 21
-14.13369247
 31
0.0
  0
LINE
  5
19E
100
AcDbEntity
  8
レイヤー_1
  6
PHANTOM
 62
       3
100
AcDbLine
 10
116.65961631
 20
-14.32488763
 30
0.0
 11
116.65961631
 21
-23.53196765
 31
0.0
  0
LINE
  5
19F
100
AcDbEntity
  8
レイヤー_1
  6
PHANTOM
 62
       3
100
AcDbLine
 10
116.65961631
 20
-23.53196765
 30
0.0
 11
101.67146668
 21
-23.53196765
 31
0.0
  0
LINE
  5
1A0
100
AcDbEntity
  8
レイヤー_1
  6
PHANTOM
 62
       3
100
AcDbLine
 10
101.67146668
 20
-23.53196765
 30
0.0
 11
101.67146668
 21
-14.32488763
 31
0.0
  0
LINE
  5
1A1
100
AcDbEntity
  8
レイヤー_1
  6
PHANTOM
 62
       3
100
AcDbLine
 10
116.65961631
 20
-23.53196765
 30
0.0
 11
116.65961631
 21
-23.65900046
 31
0.0
  0
LINE
  5
1A2
100
AcDbEntity
  8
レイヤー_1
  6
PHANTOM
 62
       3
100
AcDbLine
 10
101.67146668
 20
-23.53196765
 30
0.0
 11
101.67146668
 21
-23.65900046
 31
0.0
  0
LINE
  5
1A3
100
AcDbEntity
  8
レイヤー_1
  6
PHANTOM
 62
       3
100
AcDbLine
 10
131.00528133
 20
-1.36969364
 30
0.0
 11
135.99099634
 21
-1.36969364
 31
0.0
  0
LINE
  5
1A4
100
AcDbEntity
  8
レイヤー_1
  6
PHANTOM
 62
       3
100
AcDbLine
 10
138.49978677
 20
-1.36969364
 30
0.0
 11
143.48464053
 21
-1.36969364
 31
0.0
  0
LINE
  5
1A5
100
AcDbEntity
  8
レイヤー_1
  6
PHANTOM
 62
       3
100
AcDbLine
 10
160.98071936
 20
-1.36969364
 30
0.0
 11
165.99916146
 21
-1.36969364
 31
0.0
  0
LINE
  5
1A6
100
AcDbEntity
  8
レイヤー_1
  6
PHANTOM
 62
       3
100
AcDbLine
 10
145.9942922
 20
-1.36969364
 30
0.0
 11
150.97742349
 21
-1.36969364
 31
0.0
  0
LINE
  5
1A7
100
AcDbEntity
  8
レイヤー_1
  6
PHANTOM
 62
       3
100
AcDbLine
 10
153.4879364
 20
-1.36969364
 30
0.0
 11
158.50465602
 21
-1.36969364
 31
0.0
  0
LINE
  5
1A8
100
AcDbEntity
  8
レイヤー_1
  6
PHANTOM
 62
       3
100
AcDbLine
 10
168.50709065
 20
-1.36969364
 30
0.0
 11
173.4936669
 21
-1.36969364
 31
0.0
  0
LINE
  5
1A9
100
AcDbEntity
  8
レイヤー_1
  6
PHANTOM
 62
       3
100
AcDbLine
 10
173.4936669
 20
-1.36969364
 30
0.0
 11
173.4936669
 21
2.12177097
 31
0.0
  0
LINE
  5
1AA
100
AcDbEntity
  8
レイヤー_1
  6
PHANTOM
 62
       3
100
AcDbLine
 10
135.99099634
 20
2.12177097
 30
0.0
 11
131.00528133
 21
2.12177097
 31
0.0
  0
LINE
  5
1AB
100
AcDbEntity
  8
レイヤー_1
  6
PHANTOM
 62
       3
100
AcDbLine
 10
158.50465602
 20
2.12177097
 30
0.0
 11
153.4879364
 21
2.12177097
 31
0.0
  0
LINE
  5
1AC
100
AcDbEntity
  8
レイヤー_1
  6
PHANTOM
 62
       3
100
AcDbLine
 10
143.48464053
 20
2.12177097
 30
0.0
 11
138.49978677
 21
2.12177097
 31
0.0
  0
LINE
  5
1AD
100
AcDbEntity
  8
レイヤー_1
  6
PHANTOM
 62
       3
100
AcDbLine
 10
150.97742349
 20
2.12177097
 30
0.0
 11
145.9942922
 21
2.12177097
 31
0.0
  0
LINE
  5
1AE
100
AcDbEntity
  8
レイヤー_1
  6
PHANTOM
 62
       3
100
AcDbLine
 10
165.99916146
 20
2.12177097
 30
0.0
 11
160.98071936
 21
2.12177097
 31
0.0
  0
LINE
  5
1AF
100
AcDbEntity
  8
レイヤー_1
  6
PHANTOM
 62
       3
100
AcDbLine
 10
135.99099634
 20
-1.36969364
 30
0.0
 11
135.99099634
 21
2.62990222
 31
0.0
  0
LINE
  5
1B0
100
AcDbEntity
  8
レイヤー_1
  6
PHANTOM
 62
       3
100
AcDbLine
 10
135.99099634
 20
2.62990222
 30
0.0
 11
131.00528133
 21
2.62990222
 31
0.0
  0
LINE
  5
1B1
100
AcDbEntity
  8
レイヤー_1
  6
PHANTOM
 62
       3
100
AcDbLine
 10
131.00528133
 20
2.62990222
 30
0.0
 11
131.00528133
 21
-1.36969364
 31
0.0
  0
LINE
  5
1B2
100
AcDbEntity
  8
レイヤー_1
  6
PHANTOM
 62
       3
100
AcDbLine
 10
122.21719429
 20
-14.54622616
 30
0.0
 11
121.70992427
 21
-14.54622616
 31
0.0
  0
LINE
  5
1B3
100
AcDbEntity
  8
レイヤー_1
  6
PHANTOM
 62
       3
100
AcDbLine
 10
121.70992427
 20
-14.54622616
 30
0.0
 11
121.70992427
 21
-24.35660439
 31
0.0
  0
LINE
  5
1B4
100
AcDbEntity
  8
レイヤー_1
  6
PHANTOM
 62
       3
100
AcDbLine
 10
121.70992427
 20
-24.35660439
 30
0.0
 11
163.20960698
 21
-24.35660439
 31
0.0
  0
LINE
  5
1B5
100
AcDbEntity
  8
レイヤー_1
  6
PHANTOM
 62
       3
100
AcDbLine
 10
163.20960698
 20
-24.35660439
 30
0.0
 11
163.20960698
 21
-14.54622616
 31
0.0
  0
LINE
  5
1B6
100
AcDbEntity
  8
レイヤー_1
  6
PHANTOM
 62
       3
100
AcDbLine
 10
163.20960698
 20
-14.54622616
 30
0.0
 11
162.73248034
 21
-14.54622616
 31
0.0
  0
LINE
  5
1B7
100
AcDbEntity
  8
レイヤー_1
  6
PHANTOM
 62
       3
100
AcDbLine
 10
161.31832521
 20
-20.85351305
 30
0.0
 11
157.31872934
 21
-20.85351305
 31
0.0
  0
LINE
  5
1B8
100
AcDbEntity
  8
レイヤー_1
  6
PHANTOM
 62
       3
100
AcDbLine
 10
157.31872934
 20
-21.75436949
 30
0.0
 11
161.31832521
 21
-21.75436949
 31
0.0
  0
LINE
  5
1B9
100
AcDbEntity
  8
レイヤー_1
  6
PHANTOM
 62
       3
100
AcDbLine
 10
161.31832521
 20
-21.75436949
 30
0.0
 11
161.31832521
 21
-17.26860396
 31
0.0
  0
LINE
  5
1BA
100
AcDbEntity
  8
レイヤー_1
  6
PHANTOM
 62
       3
100
AcDbLine
 10
161.31832521
 20
-17.26860396
 30
0.0
 11
157.31872934
 21
-17.26860396
 31
0.0
  0
LINE
  5
1BB
100
AcDbEntity
  8
レイヤー_1
  6
PHANTOM
 62
       3
100
AcDbLine
 10
157.31872934
 20
-17.26860396
 30
0.0
 11
157.31872934
 21
-21.75436949
 31
0.0
  0
LINE
  5
1BC
100
AcDbEntity
  8
レイヤー_1
  6
PHANTOM
 62
       3
100
AcDbLine
 10
156.4678248
 20
-20.85351305
 30
0.0
 11
152.46650645
 21
-20.85351305
 31
0.0
  0
LINE
  5
1BD
100
AcDbEntity
  8
レイヤー_1
  6
PHANTOM
 62
       3
100
AcDbLine
 10
152.46650645
 20
-21.75436949
 30
0.0
 11
156.4678248
 21
-21.75436949
 31
0.0
  0
LINE
  5
1BE
100
AcDbEntity
  8
レイヤー_1
  6
PHANTOM
 62
       3
100
AcDbLine
 10
156.4678248
 20
-21.75436949
 30
0.0
 11
156.4678248
 21
-17.26860396
 31
0.0
  0
LINE
  5
1BF
100
AcDbEntity
  8
レイヤー_1
  6
PHANTOM
 62
       3
100
AcDbLine
 10
156.4678248
 20
-17.26860396
 30
0.0
 11
152.46650645
 21
-17.26860396
 31
0.0
  0
LINE
  5
1C0
100
AcDbEntity
  8
レイヤー_1
  6
PHANTOM
 62
       3
100
AcDbLine
 10
152.46650645
 20
-17.26860396
 30
0.0
 11
152.46650645
 21
-21.75436949
 31
0.0
  0
LINE
  5
1C1
100
AcDbEntity
  8
レイヤー_1
  6
PHANTOM
 62
       3
100
AcDbLine
 10
151.61732438
 20
-20.85351305
 30
0.0
 11
147.61428355
 21
-20.85351305
 31
0.0
  0
LINE
  5
1C2
100
AcDbEntity
  8
レイヤー_1
  6
PHANTOM
 62
       3
100
AcDbLine
 10
147.61428355
 20
-21.75436949
 30
0.0
 11
151.61732438
 21
-21.75436949
 31
0.0
  0
LINE
  5
1C3
100
AcDbEntity
  8
レイヤー_1
  6
PHANTOM
 62
       3
100
AcDbLine
 10
151.61732438
 20
-21.75436949
 30
0.0
 11
151.61732438
 21
-17.26860396
 31
0.0
  0
LINE
  5
1C4
100
AcDbEntity
  8
レイヤー_1
  6
PHANTOM
 62
       3
100
AcDbLine
 10
151.61732438
 20
-17.26860396
 30
0.0
 11
147.61428355
 21
-17.26860396
 31
0.0
  0
LINE
  5
1C5
100
AcDbEntity
  8
レイヤー_1
  6
PHANTOM
 62
       3
100
AcDbLine
 10
147.61428355
 20
-17.26860396
 30
0.0
 11
147.61428355
 21
-21.75436949
 31
0.0
  0
LINE
  5
1C6
100
AcDbEntity
  8
レイヤー_1
  6
PHANTOM
 62
       3
100
AcDbLine
 10
146.76510149
 20
-20.85351305
 30
0.0
 11
142.76378314
 21
-20.85351305
 31
0.0
  0
LINE
  5
1C7
100
AcDbEntity
  8
レイヤー_1
  6
PHANTOM
 62
       3
100
AcDbLine
 10
142.76378314
 20
-21.75436949
 30
0.0
 11
146.76510149
 21
-21.75436949
 31
0.0
  0
LINE
  5
1C8
100
AcDbEntity
  8
レイヤー_1
  6
PHANTOM
 62
       3
100
AcDbLine
 10
146.76510149
 20
-21.75436949
 30
0.0
 11
146.76510149
 21
-17.26860396
 31
0.0
  0
LINE
  5
1C9
100
AcDbEntity
  8
レイヤー_1
  6
PHANTOM
 62
       3
100
AcDbLine
 10
146.76510149
 20
-17.26860396
 30
0.0
 11
142.76378314
 21
-17.26860396
 31
0.0
  0
LINE
  5
1CA
100
AcDbEntity
  8
レイヤー_1
  6
PHANTOM
 62
       3
100
AcDbLine
 10
142.76378314
 20
-17.26860396
 30
0.0
 11
142.76378314
 21
-21.75436949
 31
0.0
  0
LINE
  5
1CB
100
AcDbEntity
  8
レイヤー_1
  6
PHANTOM
 62
       3
100
AcDbLine
 10
141.91287859
 20
-20.85351305
 30
0.0
 11
137.91328272
 21
-20.85351305
 31
0.0
  0
LINE
  5
1CC
100
AcDbEntity
  8
レイヤー_1
  6
PHANTOM
 62
       3
100
AcDbLine
 10
137.91328272
 20
-21.75436949
 30
0.0
 11
141.91287859
 21
-21.75436949
 31
0.0
  0
LINE
  5
1CD
100
AcDbEntity
  8
レイヤー_1
  6
PHANTOM
 62
       3
100
AcDbLine
 10
141.91287859
 20
-21.75436949
 30
0.0
 11
141.91287859
 21
-17.26860396
 31
0.0
  0
LINE
  5
1CE
100
AcDbEntity
  8
レイヤー_1
  6
PHANTOM
 62
       3
100
AcDbLine
 10
141.91287859
 20
-17.26860396
 30
0.0
 11
137.91328272
 21
-17.26860396
 31
0.0
  0
LINE
  5
1CF
100
AcDbEntity
  8
レイヤー_1
  6
PHANTOM
 62
       3
100
AcDbLine
 10
137.91328272
 20
-17.26860396
 30
0.0
 11
137.91328272
 21
-21.75436949
 31
0.0
  0
LINE
  5
1D0
100
AcDbEntity
  8
レイヤー_1
  6
PHANTOM
 62
       3
100
AcDbLine
 10
137.06237818
 20
-20.85351305
 30
0.0
 11
133.06105983
 21
-20.85351305
 31
0.0
  0
LINE
  5
1D1
100
AcDbEntity
  8
レイヤー_1
  6
PHANTOM
 62
       3
100
AcDbLine
 10
133.06105983
 20
-21.75436949
 30
0.0
 11
137.06237818
 21
-21.75436949
 31
0.0
  0
LINE
  5
1D2
100
AcDbEntity
  8
レイヤー_1
  6
PHANTOM
 62
       3
100
AcDbLine
 10
137.06237818
 20
-21.75436949
 30
0.0
 11
137.06237818
 21
-17.26860396
 31
0.0
  0
LINE
  5
1D3
100
AcDbEntity
  8
レイヤー_1
  6
PHANTOM
 62
       3
100
AcDbLine
 10
137.06237818
 20
-17.26860396
 30
0.0
 11
133.06105983
 21
-17.26860396
 31
0.0
  0
LINE
  5
1D4
100
AcDbEntity
  8
レイヤー_1
  6
PHANTOM
 62
       3
100
AcDbLine
 10
133.06105983
 20
-17.26860396
 30
0.0
 11
133.06105983
 21
-21.75436949
 31
0.0
  0
LINE
  5
1D5
100
AcDbEntity
  8
レイヤー_1
  6
PHANTOM
 62
       3
100
AcDbLine
 10
132.21187776
 20
-20.85351305
 30
0.0
 11
128.20883693
 21
-20.85351305
 31
0.0
  0
LINE
  5
1D6
100
AcDbEntity
  8
レイヤー_1
  6
PHANTOM
 62
       3
100
AcDbLine
 10
128.20883693
 20
-21.75436949
 30
0.0
 11
132.21187776
 21
-21.75436949
 31
0.0
  0
LINE
  5
1D7
100
AcDbEntity
  8
レイヤー_1
  6
PHANTOM
 62
       3
100
AcDbLine
 10
132.21187776
 20
-21.75436949
 30
0.0
 11
132.21187776
 21
-17.26860396
 31
0.0
  0
LINE
  5
1D8
100
AcDbEntity
  8
レイヤー_1
  6
PHANTOM
 62
       3
100
AcDbLine
 10
132.21187776
 20
-17.26860396
 30
0.0
 11
128.20883693
 21
-17.26860396
 31
0.0
  0
LINE
  5
1D9
100
AcDbEntity
  8
レイヤー_1
  6
PHANTOM
 62
       3
100
AcDbLine
 10
128.20883693
 20
-17.26860396
 30
0.0
 11
128.20883693
 21
-21.75436949
 31
0.0
  0
LINE
  5
1DA
100
AcDbEntity
  8
レイヤー_1
  6
PHANTOM
 62
       3
100
AcDbLine
 10
127.36051611
 20
-20.85351305
 30
0.0
 11
123.35833652
 21
-20.85351305
 31
0.0
  0
LINE
  5
1DB
100
AcDbEntity
  8
レイヤー_1
  6
PHANTOM
 62
       3
100
AcDbLine
 10
123.35833652
 20
-21.75436949
 30
0.0
 11
127.35965487
 21
-21.75436949
 31
0.0
  0
LINE
  5
1DC
100
AcDbEntity
  8
レイヤー_1
  6
PHANTOM
 62
       3
100
AcDbLine
 10
127.35965487
 20
-21.75436949
 30
0.0
 11
127.35965487
 21
-17.26860396
 31
0.0
  0
LINE
  5
1DD
100
AcDbEntity
  8
レイヤー_1
  6
PHANTOM
 62
       3
100
AcDbLine
 10
127.35965487
 20
-17.26860396
 30
0.0
 11
123.35833652
 21
-17.26860396
 31
0.0
  0
LINE
  5
1DE
100
AcDbEntity
  8
レイヤー_1
  6
PHANTOM
 62
       3
100
AcDbLine
 10
123.35833652
 20
-17.26860396
 30
0.0
 11
123.35833652
 21
-21.75436949
 31
0.0
  0
LINE
  5
1DF
100
AcDbEntity
  8
レイヤー_1
  6
PHANTOM
 62
       3
100
AcDbLine
 10
101.67146668
 20
-14.54622616
 30
0.0
 11
101.16419666
 21
-14.54622616
 31
0.0
  0
LINE
  5
1E0
100
AcDbEntity
  8
レイヤー_1
  6
PHANTOM
 62
       3
100
AcDbLine
 10
101.16419666
 20
-14.54622616
 30
0.0
 11
101.16419666
 21
-24.35660439
 31
0.0
  0
LINE
  5
1E1
100
AcDbEntity
  8
レイヤー_1
  6
PHANTOM
 62
       3
100
AcDbLine
 10
101.16419666
 20
-24.35660439
 30
0.0
 11
117.16774757
 21
-24.35660439
 31
0.0
  0
LINE
  5
1E2
100
AcDbEntity
  8
レイヤー_1
  6
PHANTOM
 62
       3
100
AcDbLine
 10
117.16774757
 20
-24.35660439
 30
0.0
 11
117.16774757
 21
-14.54622616
 31
0.0
  0
LINE
  5
1E3
100
AcDbEntity
  8
レイヤー_1
  6
PHANTOM
 62
       3
100
AcDbLine
 10
117.16774757
 20
-14.54622616
 30
0.0
 11
116.65961631
 21
-14.54622616
 31
0.0
  0
LINE
  5
1E4
100
AcDbEntity
  8
レイヤー_1
  6
PHANTOM
 62
       3
100
AcDbLine
 10
127.91343181
 20
-1.75165333
 30
0.0
 11
176.40465614
 21
-1.75165333
 31
0.0
  0
LINE
  5
1E5
100
AcDbEntity
  8
レイヤー_1
  6
PHANTOM
 62
       3
100
AcDbLine
 10
176.40465614
 20
-1.75165333
 30
0.0
 11
176.40465614
 21
17.5534589
 31
0.0
  0
LINE
  5
1E6
100
AcDbEntity
  8
レイヤー_1
  6
PHANTOM
 62
       3
100
AcDbLine
 10
176.40465614
 20
17.5534589
 30
0.0
 11
127.91343181
 21
17.5534589
 31
0.0
  0
LINE
  5
1E7
100
AcDbEntity
  8
レイヤー_1
  6
PHANTOM
 62
       3
100
AcDbLine
 10
127.91343181
 20
17.5534589
 30
0.0
 11
127.91343181
 21
-1.75165333
 31
0.0
  0
LINE
  5
1E8
100
AcDbEntity
  8
レイヤー_1
  6
PHANTOM
 62
       3
100
AcDbLine
 10
101.43204212
 20
7.74308066
 30
0.0
 11
100.92563334
 21
7.74308066
 31
0.0
  0
LINE
  5
1E9
100
AcDbEntity
  8
レイヤー_1
  6
PHANTOM
 62
       3
100
AcDbLine
 10
100.92563334
 20
7.74308066
 30
0.0
 11
100.92563334
 21
17.5534589
 31
0.0
  0
LINE
  5
1EA
100
AcDbEntity
  8
レイヤー_1
  6
PHANTOM
 62
       3
100
AcDbLine
 10
100.92563334
 20
17.5534589
 30
0.0
 11
127.91343181
 21
17.5534589
 31
0.0
  0
LINE
  5
1EB
100
AcDbEntity
  8
レイヤー_1
  6
PHANTOM
 62
       3
100
AcDbLine
 10
127.91343181
 20
17.5534589
 30
0.0
 11
127.91343181
 21
7.74308066
 31
0.0
  0
LINE
  5
1EC
100
AcDbEntity
  8
レイヤー_1
  6
PHANTOM
 62
       3
100
AcDbLine
 10
127.91343181
 20
7.74308066
 30
0.0
 11
127.43630517
 21
7.74308066
 31
0.0
  0
LINE
  5
1ED
100
AcDbEntity
  8
レイヤー_1
  6
PHANTOM
 62
       3
100
AcDbLine
 10
127.43630517
 20
16.85585497
 30
0.0
 11
127.43630517
 21
16.72882215
 31
0.0
  0
LINE
  5
1EE
100
AcDbEntity
  8
レイヤー_1
  6
PHANTOM
 62
       3
100
AcDbLine
 10
101.43204212
 20
16.72882215
 30
0.0
 11
101.43204212
 21
16.85585497
 31
0.0
  0
LINE
  5
1EF
100
AcDbEntity
  8
レイヤー_1
  6
PHANTOM
 62
       3
100
AcDbLine
 10
126.74559116
 20
10.34746867
 30
0.0
 11
122.74599529
 21
10.34746867
 31
0.0
  0
LINE
  5
1F0
100
AcDbEntity
  8
レイヤー_1
  6
PHANTOM
 62
       3
100
AcDbLine
 10
122.74599529
 20
14.95079337
 30
0.0
 11
126.74559116
 21
14.95079337
 31
0.0
  0
LINE
  5
1F1
100
AcDbEntity
  8
レイヤー_1
  6
PHANTOM
 62
       3
100
AcDbLine
 10
126.74559116
 20
14.95079337
 30
0.0
 11
126.74559116
 21
7.96528043
 31
0.0
  0
LINE
  5
1F2
100
AcDbEntity
  8
レイヤー_1
  6
PHANTOM
 62
       3
100
AcDbLine
 10
126.74559116
 20
7.96528043
 30
0.0
 11
122.74599529
 21
7.96528043
 31
0.0
  0
LINE
  5
1F3
100
AcDbEntity
  8
レイヤー_1
  6
PHANTOM
 62
       3
100
AcDbLine
 10
122.74599529
 20
7.96528043
 30
0.0
 11
122.74599529
 21
14.95079337
 31
0.0
  0
LINE
  5
1F4
100
AcDbEntity
  8
レイヤー_1
  6
PHANTOM
 62
       3
100
AcDbLine
 10
119.89615405
 20
10.34746867
 30
0.0
 11
115.8948357
 21
10.34746867
 31
0.0
  0
LINE
  5
1F5
100
AcDbEntity
  8
レイヤー_1
  6
PHANTOM
 62
       3
100
AcDbLine
 10
115.8948357
 20
14.95079337
 30
0.0
 11
119.89529281
 21
14.95079337
 31
0.0
  0
LINE
  5
1F6
100
AcDbEntity
  8
レイヤー_1
  6
PHANTOM
 62
       3
100
AcDbLine
 10
119.89529281
 20
14.95079337
 30
0.0
 11
119.89529281
 21
7.96528043
 31
0.0
  0
LINE
  5
1F7
100
AcDbEntity
  8
レイヤー_1
  6
PHANTOM
 62
       3
100
AcDbLine
 10
119.89529281
 20
7.96528043
 30
0.0
 11
115.8948357
 21
7.96528043
 31
0.0
  0
LINE
  5
1F8
100
AcDbEntity
  8
レイヤー_1
  6
PHANTOM
 62
       3
100
AcDbLine
 10
115.8948357
 20
7.96528043
 30
0.0
 11
115.8948357
 21
14.95079337
 31
0.0
  0
LINE
  5
1F9
100
AcDbEntity
  8
レイヤー_1
  6
PHANTOM
 62
       3
100
AcDbLine
 10
113.04499446
 20
10.34746867
 30
0.0
 11
109.04195363
 21
10.34746867
 31
0.0
  0
LINE
  5
1FA
100
AcDbEntity
  8
レイヤー_1
  6
PHANTOM
 62
       3
100
AcDbLine
 10
109.04195363
 20
14.95079337
 30
0.0
 11
113.04499446
 21
14.95079337
 31
0.0
  0
LINE
  5
1FB
100
AcDbEntity
  8
レイヤー_1
  6
PHANTOM
 62
       3
100
AcDbLine
 10
113.04499446
 20
14.95079337
 30
0.0
 11
113.04499446
 21
7.96528043
 31
0.0
  0
LINE
  5
1FC
100
AcDbEntity
  8
レイヤー_1
  6
PHANTOM
 62
       3
100
AcDbLine
 10
113.04499446
 20
7.96528043
 30
0.0
 11
109.04195363
 21
7.96528043
 31
0.0
  0
LINE
  5
1FD
100
AcDbEntity
  8
レイヤー_1
  6
PHANTOM
 62
       3
100
AcDbLine
 10
109.04195363
 20
7.96528043
 30
0.0
 11
109.04195363
 21
14.95079337
 31
0.0
  0
LINE
  5
1FE
100
AcDbEntity
  8
レイヤー_1
  6
PHANTOM
 62
       3
100
AcDbLine
 10
106.19383487
 20
10.34746867
 30
0.0
 11
102.19251652
 21
10.34746867
 31
0.0
  0
LINE
  5
1FF
100
AcDbEntity
  8
レイヤー_1
  6
PHANTOM
 62
       3
100
AcDbLine
 10
102.19251652
 20
14.95079337
 30
0.0
 11
106.19383487
 21
14.95079337
 31
0.0
  0
LINE
  5
200
100
AcDbEntity
  8
レイヤー_1
  6
PHANTOM
 62
       3
100
AcDbLine
 10
106.19383487
 20
14.95079337
 30
0.0
 11
106.19383487
 21
7.96528043
 31
0.0
  0
LINE
  5
201
100
AcDbEntity
  8
レイヤー_1
  6
PHANTOM
 62
       3
100
AcDbLine
 10
106.19383487
 20
7.96528043
 30
0.0
 11
102.19251652
 21
7.96528043
 31
0.0
  0
LINE
  5
202
100
AcDbEntity
  8
レイヤー_1
  6
PHANTOM
 62
       3
100
AcDbLine
 10
102.19251652
 20
7.96528043
 30
0.0
 11
102.19251652
 21
14.95079337
 31
0.0
  0
LINE
  5
203
100
AcDbEntity
  8
レイヤー_1
  6
PHANTOM
 62
       3
100
AcDbLine
 10
127.43630517
 20
1.90129367
 30
0.0
 11
127.43630517
 21
1.71009852
 31
0.0
  0
LINE
  5
204
100
AcDbEntity
  8
レイヤー_1
  6
PHANTOM
 62
       3
100
AcDbLine
 10
101.43204212
 20
1.90129367
 30
0.0
 11
101.43204212
 21
1.71009852
 31
0.0
  0
LINE
  5
205
100
AcDbEntity
  8
レイヤー_1
  6
PHANTOM
 62
       3
100
AcDbLine
 10
101.43204212
 20
1.71009852
 30
0.0
 11
127.43630517
 21
1.71009852
 31
0.0
  0
LINE
  5
206
100
AcDbEntity
  8
レイヤー_1
  6
PHANTOM
 62
       3
100
AcDbLine
 10
127.43630517
 20
2.47272603
 30
0.0
 11
127.43630517
 21
1.90129367
 31
0.0
  0
LINE
  5
207
100
AcDbEntity
  8
レイヤー_1
  6
PHANTOM
 62
       3
100
AcDbLine
 10
101.43204212
 20
1.90129367
 30
0.0
 11
101.43204212
 21
2.47272603
 31
0.0
  0
LINE
  5
208
100
AcDbEntity
  8
レイヤー_1
  6
PHANTOM
 62
       3
100
AcDbLine
 10
127.43630517
 20
2.6643518
 30
0.0
 11
127.43630517
 21
2.47272603
 31
0.0
  0
LINE
  5
209
100
AcDbEntity
  8
レイヤー_1
  6
PHANTOM
 62
       3
100
AcDbLine
 10
127.43630517
 20
2.47272603
 30
0.0
 11
101.43204212
 21
2.47272603
 31
0.0
  0
LINE
  5
20A
100
AcDbEntity
  8
レイヤー_1
  6
PHANTOM
 62
       3
100
AcDbLine
 10
101.43204212
 20
2.47272603
 30
0.0
 11
101.43204212
 21
2.6643518
 31
0.0
  0
LINE
  5
20B
100
AcDbEntity
  8
レイヤー_1
  6
PHANTOM
 62
       3
100
AcDbLine
 10
127.43630517
 20
2.6643518
 30
0.0
 11
127.43630517
 21
7.33054698
 31
0.0
  0
LINE
  5
20C
100
AcDbEntity
  8
レイヤー_1
  6
PHANTOM
 62
       3
100
AcDbLine
 10
101.43204212
 20
7.33054698
 30
0.0
 11
101.43204212
 21
2.6643518
 31
0.0
  0
LINE
  5
20D
100
AcDbEntity
  8
レイヤー_1
  6
PHANTOM
 62
       3
100
AcDbLine
 10
127.43630517
 20
7.52088089
 30
0.0
 11
127.43630517
 21
7.33054698
 31
0.0
  0
LINE
  5
20E
100
AcDbEntity
  8
レイヤー_1
  6
PHANTOM
 62
       3
100
AcDbLine
 10
101.43204212
 20
7.52088089
 30
0.0
 11
101.43204212
 21
7.33054698
 31
0.0
  0
LINE
  5
20F
100
AcDbEntity
  8
レイヤー_1
  6
PHANTOM
 62
       3
100
AcDbLine
 10
127.43630517
 20
7.33054698
 30
0.0
 11
101.43204212
 21
7.33054698
 31
0.0
  0
LINE
  5
210
100
AcDbEntity
  8
レイヤー_1
  6
PHANTOM
 62
       3
100
AcDbLine
 10
127.43630517
 20
7.52088089
 30
0.0
 11
127.43630517
 21
16.72882215
 31
0.0
  0
LINE
  5
211
100
AcDbEntity
  8
レイヤー_1
  6
PHANTOM
 62
       3
100
AcDbLine
 10
127.43630517
 20
16.72882215
 30
0.0
 11
101.43204212
 21
16.72882215
 31
0.0
  0
LINE
  5
212
100
AcDbEntity
  8
レイヤー_1
  6
PHANTOM
 62
       3
100
AcDbLine
 10
101.43204212
 20
16.72882215
 30
0.0
 11
101.43204212
 21
7.52088089
 31
0.0
  0
LINE
  5
213
100
AcDbEntity
  8
レイヤー_1
  6
PHANTOM
 62
       3
100
AcDbLine
 10
172.57558567
 20
5.33893082
 30
0.0
 11
169.33560297
 21
5.33893082
 31
0.0
  0
LINE
  5
214
100
AcDbEntity
  8
レイヤー_1
  6
PHANTOM
 62
       3
100
AcDbLine
 10
172.5652508
 20
4.43850501
 30
0.0
 11
169.35282776
 21
4.43850501
 31
0.0
  0
LINE
  5
215
100
AcDbEntity
  8
レイヤー_1
  6
PHANTOM
 62
       3
100
AcDbLine
 10
172.62553756
 20
4.88936384
 30
0.0
 11
172.61715872
 21
4.72064556
 31
0.0
  0
LINE
  5
216
100
AcDbEntity
  8
レイヤー_1
  6
PHANTOM
 62
       3
100
AcDbLine
 10
172.61715872
 20
4.72064556
 30
0.0
 11
172.59255689
 21
4.5567134
 31
0.0
  0
LINE
  5
217
100
AcDbEntity
  8
レイヤー_1
  6
PHANTOM
 62
       3
100
AcDbLine
 10
172.59255689
 20
4.5567134
 30
0.0
 11
172.55253409
 21
4.39837119
 31
0.0
  0
LINE
  5
218
100
AcDbEntity
  8
レイヤー_1
  6
PHANTOM
 62
       3
100
AcDbLine
 10
172.55253409
 20
4.39837119
 30
0.0
 11
172.49789235
 21
4.24642278
 31
0.0
  0
LINE
  5
219
100
AcDbEntity
  8
レイヤー_1
  6
PHANTOM
 62
       3
100
AcDbLine
 10
172.49789235
 20
4.24642278
 30
0.0
 11
172.4294337
 21
4.101672
 31
0.0
  0
LINE
  5
21A
100
AcDbEntity
  8
レイヤー_1
  6
PHANTOM
 62
       3
100
AcDbLine
 10
172.4294337
 20
4.101672
 30
0.0
 11
172.34796016
 21
3.96492267
 31
0.0
  0
LINE
  5
21B
100
AcDbEntity
  8
レイヤー_1
  6
PHANTOM
 62
       3
100
AcDbLine
 10
172.34796016
 20
3.96492267
 30
0.0
 11
172.25427377
 21
3.83697863
 31
0.0
  0
LINE
  5
21C
100
AcDbEntity
  8
レイヤー_1
  6
PHANTOM
 62
       3
100
AcDbLine
 10
172.25427377
 20
3.83697863
 30
0.0
 11
172.14917655
 21
3.71864372
 31
0.0
  0
LINE
  5
21D
100
AcDbEntity
  8
レイヤー_1
  6
PHANTOM
 62
       3
100
AcDbLine
 10
172.14917655
 20
3.71864372
 30
0.0
 11
172.03347053
 21
3.61072178
 31
0.0
  0
LINE
  5
21E
100
AcDbEntity
  8
レイヤー_1
  6
PHANTOM
 62
       3
100
AcDbLine
 10
172.03347053
 20
3.61072178
 30
0.0
 11
171.90795774
 21
3.51401663
 31
0.0
  0
LINE
  5
21F
100
AcDbEntity
  8
レイヤー_1
  6
PHANTOM
 62
       3
100
AcDbLine
 10
171.90795774
 20
3.51401663
 30
0.0
 11
171.7734402
 21
3.4293321
 31
0.0
  0
LINE
  5
220
100
AcDbEntity
  8
レイヤー_1
  6
PHANTOM
 62
       3
100
AcDbLine
 10
171.7734402
 20
3.4293321
 30
0.0
 11
171.63071994
 21
3.35747204
 31
0.0
  0
LINE
  5
221
100
AcDbEntity
  8
レイヤー_1
  6
PHANTOM
 62
       3
100
AcDbLine
 10
171.63071994
 20
3.35747204
 30
0.0
 11
171.48059899
 21
3.29924028
 31
0.0
  0
LINE
  5
222
100
AcDbEntity
  8
レイヤー_1
  6
PHANTOM
 62
       3
100
AcDbLine
 10
171.48059899
 20
3.29924028
 30
0.0
 11
171.32387937
 21
3.25544064
 31
0.0
  0
LINE
  5
223
100
AcDbEntity
  8
レイヤー_1
  6
PHANTOM
 62
       3
100
AcDbLine
 10
171.32387937
 20
3.25544064
 30
0.0
 11
171.16136312
 21
3.22687697
 31
0.0
  0
LINE
  5
224
100
AcDbEntity
  8
レイヤー_1
  6
PHANTOM
 62
       3
100
AcDbLine
 10
171.16136312
 20
3.22687697
 30
0.0
 11
170.99385226
 21
3.2143531
 31
0.0
  0
LINE
  5
225
100
AcDbEntity
  8
レイヤー_1
  6
PHANTOM
 62
       3
100
AcDbLine
 10
170.99385226
 20
3.2143531
 30
0.0
 11
170.82440503
 21
3.21855982
 31
0.0
  0
LINE
  5
226
100
AcDbEntity
  8
レイヤー_1
  6
PHANTOM
 62
       3
100
AcDbLine
 10
170.82440503
 20
3.21855982
 30
0.0
 11
170.65933618
 21
3.23920407
 31
0.0
  0
LINE
  5
227
100
AcDbEntity
  8
レイヤー_1
  6
PHANTOM
 62
       3
100
AcDbLine
 10
170.65933618
 20
3.23920407
 30
0.0
 11
170.49969366
 21
3.2754862
 31
0.0
  0
LINE
  5
228
100
AcDbEntity
  8
レイヤー_1
  6
PHANTOM
 62
       3
100
AcDbLine
 10
170.49969366
 20
3.2754862
 30
0.0
 11
170.34627469
 21
3.32660238
 31
0.0
  0
LINE
  5
229
100
AcDbEntity
  8
レイヤー_1
  6
PHANTOM
 62
       3
100
AcDbLine
 10
170.34627469
 20
3.32660238
 30
0.0
 11
170.19987646
 21
3.39174877
 31
0.0
  0
LINE
  5
22A
100
AcDbEntity
  8
レイヤー_1
  6
PHANTOM
 62
       3
100
AcDbLine
 10
170.19987646
 20
3.39174877
 30
0.0
 11
170.0612962
 21
3.47012155
 31
0.0
  0
LINE
  5
22B
100
AcDbEntity
  8
レイヤー_1
  6
PHANTOM
 62
       3
100
AcDbLine
 10
170.0612962
 20
3.47012155
 30
0.0
 11
169.93133111
 21
3.56091686
 31
0.0
  0
LINE
  5
22C
100
AcDbEntity
  8
レイヤー_1
  6
PHANTOM
 62
       3
100
AcDbLine
 10
169.93133111
 20
3.56091686
 30
0.0
 11
169.8107784
 21
3.66333089
 31
0.0
  0
LINE
  5
22D
100
AcDbEntity
  8
レイヤー_1
  6
PHANTOM
 62
       3
100
AcDbLine
 10
169.8107784
 20
3.66333089
 30
0.0
 11
169.70043528
 21
3.7765598
 31
0.0
  0
LINE
  5
22E
100
AcDbEntity
  8
レイヤー_1
  6
PHANTOM
 62
       3
100
AcDbLine
 10
169.70043528
 20
3.7765598
 30
0.0
 11
169.60109897
 21
3.89979975
 31
0.0
  0
LINE
  5
22F
100
AcDbEntity
  8
レイヤー_1
  6
PHANTOM
 62
       3
100
AcDbLine
 10
169.60109897
 20
3.89979975
 30
0.0
 11
169.51356668
 21
4.03224691
 31
0.0
  0
LINE
  5
230
100
AcDbEntity
  8
レイヤー_1
  6
PHANTOM
 62
       3
100
AcDbLine
 10
169.51356668
 20
4.03224691
 30
0.0
 11
169.43863561
 21
4.17309745
 31
0.0
  0
LINE
  5
231
100
AcDbEntity
  8
レイヤー_1
  6
PHANTOM
 62
       3
100
AcDbLine
 10
169.43863561
 20
4.17309745
 30
0.0
 11
169.37710298
 21
4.32154752
 31
0.0
  0
LINE
  5
232
100
AcDbEntity
  8
レイヤー_1
  6
PHANTOM
 62
       3
100
AcDbLine
 10
169.37710298
 20
4.32154752
 30
0.0
 11
169.32976599
 21
4.47679331
 31
0.0
  0
LINE
  5
233
100
AcDbEntity
  8
レイヤー_1
  6
PHANTOM
 62
       3
100
AcDbLine
 10
169.32976599
 20
4.47679331
 30
0.0
 11
169.29742186
 21
4.63803097
 31
0.0
  0
LINE
  5
234
100
AcDbEntity
  8
レイヤー_1
  6
PHANTOM
 62
       3
100
AcDbLine
 10
169.29742186
 20
4.63803097
 30
0.0
 11
169.2808678
 21
4.80445667
 31
0.0
  0
LINE
  5
235
100
AcDbEntity
  8
レイヤー_1
  6
PHANTOM
 62
       3
100
AcDbLine
 10
169.2808678
 20
4.80445667
 30
0.0
 11
169.2808678
 21
4.97407712
 31
0.0
  0
LINE
  5
236
100
AcDbEntity
  8
レイヤー_1
  6
PHANTOM
 62
       3
100
AcDbLine
 10
169.2808678
 20
4.97407712
 30
0.0
 11
169.29742186
 21
5.14014348
 31
0.0
  0
LINE
  5
237
100
AcDbEntity
  8
レイヤー_1
  6
PHANTOM
 62
       3
100
AcDbLine
 10
169.29742186
 20
5.14014348
 30
0.0
 11
169.32976599
 21
5.30105824
 31
0.0
  0
LINE
  5
238
100
AcDbEntity
  8
レイヤー_1
  6
PHANTOM
 62
       3
100
AcDbLine
 10
169.32976599
 20
5.30105824
 30
0.0
 11
169.37710298
 21
5.45601574
 31
0.0
  0
LINE
  5
239
100
AcDbEntity
  8
レイヤー_1
  6
PHANTOM
 62
       3
100
AcDbLine
 10
169.37710298
 20
5.45601574
 30
0.0
 11
169.43863561
 21
5.60421035
 31
0.0
  0
LINE
  5
23A
100
AcDbEntity
  8
レイヤー_1
  6
PHANTOM
 62
       3
100
AcDbLine
 10
169.43863561
 20
5.60421035
 30
0.0
 11
169.51356668
 21
5.74483643
 31
0.0
  0
LINE
  5
23B
100
AcDbEntity
  8
レイヤー_1
  6
PHANTOM
 62
       3
100
AcDbLine
 10
169.51356668
 20
5.74483643
 30
0.0
 11
169.60109897
 21
5.87708833
 31
0.0
  0
LINE
  5
23C
100
AcDbEntity
  8
レイヤー_1
  6
PHANTOM
 62
       3
100
AcDbLine
 10
169.60109897
 20
5.87708833
 30
0.0
 11
169.70043528
 21
6.00016042
 31
0.0
  0
LINE
  5
23D
100
AcDbEntity
  8
レイヤー_1
  6
PHANTOM
 62
       3
100
AcDbLine
 10
169.70043528
 20
6.00016042
 30
0.0
 11
169.8107784
 21
6.11324706
 31
0.0
  0
LINE
  5
23E
100
AcDbEntity
  8
レイヤー_1
  6
PHANTOM
 62
       3
100
AcDbLine
 10
169.8107784
 20
6.11324706
 30
0.0
 11
169.93133111
 21
6.2155426
 31
0.0
  0
LINE
  5
23F
100
AcDbEntity
  8
レイヤー_1
  6
PHANTOM
 62
       3
100
AcDbLine
 10
169.93133111
 20
6.2155426
 30
0.0
 11
170.0612962
 21
6.30624141
 31
0.0
  0
LINE
  5
240
100
AcDbEntity
  8
レイヤー_1
  6
PHANTOM
 62
       3
100
AcDbLine
 10
170.0612962
 20
6.30624141
 30
0.0
 11
170.19987646
 21
6.38453784
 31
0.0
  0
LINE
  5
241
100
AcDbEntity
  8
レイヤー_1
  6
PHANTOM
 62
       3
100
AcDbLine
 10
170.19987646
 20
6.38453784
 30
0.0
 11
170.34627469
 21
6.44962626
 31
0.0
  0
LINE
  5
242
100
AcDbEntity
  8
レイヤー_1
  6
PHANTOM
 62
       3
100
AcDbLine
 10
170.34627469
 20
6.44962626
 30
0.0
 11
170.49969366
 21
6.50070102
 31
0.0
  0
LINE
  5
243
100
AcDbEntity
  8
レイヤー_1
  6
PHANTOM
 62
       3
100
AcDbLine
 10
170.49969366
 20
6.50070102
 30
0.0
 11
170.65933618
 21
6.53695649
 31
0.0
  0
LINE
  5
244
100
AcDbEntity
  8
レイヤー_1
  6
PHANTOM
 62
       3
100
AcDbLine
 10
170.65933618
 20
6.53695649
 30
0.0
 11
170.82440503
 21
6.55758702
 31
0.0
  0
LINE
  5
245
100
AcDbEntity
  8
レイヤー_1
  6
PHANTOM
 62
       3
100
AcDbLine
 10
170.82440503
 20
6.55758702
 30
0.0
 11
170.99385226
 21
6.56179118
 31
0.0
  0
LINE
  5
246
100
AcDbEntity
  8
レイヤー_1
  6
PHANTOM
 62
       3
100
AcDbLine
 10
170.99385226
 20
6.56179118
 30
0.0
 11
171.16136312
 21
6.54927523
 31
0.0
  0
LINE
  5
247
100
AcDbEntity
  8
レイヤー_1
  6
PHANTOM
 62
       3
100
AcDbLine
 10
171.16136312
 20
6.54927523
 30
0.0
 11
171.32387937
 21
6.52073152
 31
0.0
  0
LINE
  5
248
100
AcDbEntity
  8
レイヤー_1
  6
PHANTOM
 62
       3
100
AcDbLine
 10
171.32387937
 20
6.52073152
 30
0.0
 11
171.48059899
 21
6.4769657
 31
0.0
  0
LINE
  5
249
100
AcDbEntity
  8
レイヤー_1
  6
PHANTOM
 62
       3
100
AcDbLine
 10
171.48059899
 20
6.4769657
 30
0.0
 11
171.63071994
 21
6.4187834
 31
0.0
  0
LINE
  5
24A
100
AcDbEntity
  8
レイヤー_1
  6
PHANTOM
 62
       3
100
AcDbLine
 10
171.63071994
 20
6.4187834
 30
0.0
 11
171.7734402
 21
6.34699027
 31
0.0
  0
LINE
  5
24B
100
AcDbEntity
  8
レイヤー_1
  6
PHANTOM
 62
       3
100
AcDbLine
 10
171.7734402
 20
6.34699027
 30
0.0
 11
171.90795774
 21
6.26239195
 31
0.0
  0
LINE
  5
24C
100
AcDbEntity
  8
レイヤー_1
  6
PHANTOM
 62
       3
100
AcDbLine
 10
171.90795774
 20
6.26239195
 30
0.0
 11
172.03347053
 21
6.16579407
 31
0.0
  0
LINE
  5
24D
100
AcDbEntity
  8
レイヤー_1
  6
PHANTOM
 62
       3
100
AcDbLine
 10
172.03347053
 20
6.16579407
 30
0.0
 11
172.14917655
 21
6.05800227
 31
0.0
  0
LINE
  5
24E
100
AcDbEntity
  8
レイヤー_1
  6
PHANTOM
 62
       3
100
AcDbLine
 10
172.14917655
 20
6.05800227
 30
0.0
 11
172.25427377
 21
5.9398222
 31
0.0
  0
LINE
  5
24F
100
AcDbEntity
  8
レイヤー_1
  6
PHANTOM
 62
       3
100
AcDbLine
 10
172.25427377
 20
5.9398222
 30
0.0
 11
172.34796016
 21
5.8120595
 31
0.0
  0
LINE
  5
250
100
AcDbEntity
  8
レイヤー_1
  6
PHANTOM
 62
       3
100
AcDbLine
 10
172.34796016
 20
5.8120595
 30
0.0
 11
172.4294337
 21
5.67551981
 31
0.0
  0
LINE
  5
251
100
AcDbEntity
  8
レイヤー_1
  6
PHANTOM
 62
       3
100
AcDbLine
 10
172.4294337
 20
5.67551981
 30
0.0
 11
172.49789235
 21
5.53100876
 31
0.0
  0
LINE
  5
252
100
AcDbEntity
  8
レイヤー_1
  6
PHANTOM
 62
       3
100
AcDbLine
 10
172.49789235
 20
5.53100876
 30
0.0
 11
172.55253409
 21
5.379332
 31
0.0
  0
LINE
  5
253
100
AcDbEntity
  8
レイヤー_1
  6
PHANTOM
 62
       3
100
AcDbLine
 10
172.55253409
 20
5.379332
 30
0.0
 11
172.59255689
 21
5.22129516
 31
0.0
  0
LINE
  5
254
100
AcDbEntity
  8
レイヤー_1
  6
PHANTOM
 62
       3
100
AcDbLine
 10
172.59255689
 20
5.22129516
 30
0.0
 11
172.61715872
 21
5.0577039
 31
0.0
  0
LINE
  5
255
100
AcDbEntity
  8
レイヤー_1
  6
PHANTOM
 62
       3
100
AcDbLine
 10
172.61715872
 20
5.0577039
 30
0.0
 11
172.62553756
 21
4.88936384
 31
0.0
  0
LINE
  5
256
100
AcDbEntity
  8
レイヤー_1
  6
PHANTOM
 62
       3
100
AcDbLine
 10
165.07763528
 20
5.33893082
 30
0.0
 11
161.83765258
 21
5.33893082
 31
0.0
  0
LINE
  5
257
100
AcDbEntity
  8
レイヤー_1
  6
PHANTOM
 62
       3
100
AcDbLine
 10
165.06902289
 20
4.43850501
 30
0.0
 11
161.85487737
 21
4.43850501
 31
0.0
  0
LINE
  5
258
100
AcDbEntity
  8
レイヤー_1
  6
PHANTOM
 62
       3
100
AcDbLine
 10
165.12758717
 20
4.88936384
 30
0.0
 11
165.11920873
 21
4.72064556
 31
0.0
  0
LINE
  5
259
100
AcDbEntity
  8
レイヤー_1
  6
PHANTOM
 62
       3
100
AcDbLine
 10
165.11920873
 20
4.72064556
 30
0.0
 11
165.09460971
 21
4.5567134
 31
0.0
  0
LINE
  5
25A
100
AcDbEntity
  8
レイヤー_1
  6
PHANTOM
 62
       3
100
AcDbLine
 10
165.09460971
 20
4.5567134
 30
0.0
 11
165.05459453
 21
4.39837119
 31
0.0
  0
LINE
  5
25B
100
AcDbEntity
  8
レイヤー_1
  6
PHANTOM
 62
       3
100
AcDbLine
 10
165.05459453
 20
4.39837119
 30
0.0
 11
164.99996764
 21
4.24642278
 31
0.0
  0
LINE
  5
25C
100
AcDbEntity
  8
レイヤー_1
  6
PHANTOM
 62
       3
100
AcDbLine
 10
164.99996764
 20
4.24642278
 30
0.0
 11
164.93153348
 21
4.101672
 31
0.0
  0
LINE
  5
25D
100
AcDbEntity
  8
レイヤー_1
  6
PHANTOM
 62
       3
100
AcDbLine
 10
164.93153348
 20
4.101672
 30
0.0
 11
164.85009647
 21
3.96492267
 31
0.0
  0
LINE
  5
25E
100
AcDbEntity
  8
レイヤー_1
  6
PHANTOM
 62
       3
100
AcDbLine
 10
164.85009647
 20
3.96492267
 30
0.0
 11
164.75646106
 21
3.83697863
 31
0.0
  0
LINE
  5
25F
100
AcDbEntity
  8
レイヤー_1
  6
PHANTOM
 62
       3
100
AcDbLine
 10
164.75646106
 20
3.83697863
 30
0.0
 11
164.65143168
 21
3.71864372
 31
0.0
  0
LINE
  5
260
100
AcDbEntity
  8
レイヤー_1
  6
PHANTOM
 62
       3
100
AcDbLine
 10
164.65143168
 20
3.71864372
 30
0.0
 11
164.53581277
 21
3.61072178
 31
0.0
  0
LINE
  5
261
100
AcDbEntity
  8
レイヤー_1
  6
PHANTOM
 62
       3
100
AcDbLine
 10
164.53581277
 20
3.61072178
 30
0.0
 11
164.41040876
 21
3.51401663
 31
0.0
  0
LINE
  5
262
100
AcDbEntity
  8
レイヤー_1
  6
PHANTOM
 62
       3
100
AcDbLine
 10
164.41040876
 20
3.51401663
 30
0.0
 11
164.27602409
 21
3.4293321
 31
0.0
  0
LINE
  5
263
100
AcDbEntity
  8
レイヤー_1
  6
PHANTOM
 62
       3
100
AcDbLine
 10
164.27602409
 20
3.4293321
 30
0.0
 11
164.13346319
 21
3.35747204
 31
0.0
  0
LINE
  5
264
100
AcDbEntity
  8
レイヤー_1
  6
PHANTOM
 62
       3
100
AcDbLine
 10
164.13346319
 20
3.35747204
 30
0.0
 11
163.9835305
 21
3.29924028
 31
0.0
  0
LINE
  5
265
100
AcDbEntity
  8
レイヤー_1
  6
PHANTOM
 62
       3
100
AcDbLine
 10
163.9835305
 20
3.29924028
 30
0.0
 11
163.82703046
 21
3.25544064
 31
0.0
  0
LINE
  5
266
100
AcDbEntity
  8
レイヤー_1
  6
PHANTOM
 62
       3
100
AcDbLine
 10
163.82703046
 20
3.25544064
 30
0.0
 11
163.6647675
 21
3.22687697
 31
0.0
  0
LINE
  5
267
100
AcDbEntity
  8
レイヤー_1
  6
PHANTOM
 62
       3
100
AcDbLine
 10
163.6647675
 20
3.22687697
 30
0.0
 11
163.49754607
 21
3.2143531
 31
0.0
  0
LINE
  5
268
100
AcDbEntity
  8
レイヤー_1
  6
PHANTOM
 62
       3
100
AcDbLine
 10
163.49754607
 20
3.2143531
 30
0.0
 11
163.32816645
 21
3.21855982
 31
0.0
  0
LINE
  5
269
100
AcDbEntity
  8
レイヤー_1
  6
PHANTOM
 62
       3
100
AcDbLine
 10
163.32816645
 20
3.21855982
 30
0.0
 11
163.16305264
 21
3.23920407
 31
0.0
  0
LINE
  5
26A
100
AcDbEntity
  8
レイヤー_1
  6
PHANTOM
 62
       3
100
AcDbLine
 10
163.16305264
 20
3.23920407
 30
0.0
 11
163.00333446
 21
3.2754862
 31
0.0
  0
LINE
  5
26B
100
AcDbEntity
  8
レイヤー_1
  6
PHANTOM
 62
       3
100
AcDbLine
 10
163.00333446
 20
3.2754862
 30
0.0
 11
162.84981392
 21
3.32660238
 31
0.0
  0
LINE
  5
26C
100
AcDbEntity
  8
レイヤー_1
  6
PHANTOM
 62
       3
100
AcDbLine
 10
162.84981392
 20
3.32660238
 30
0.0
 11
162.70329306
 21
3.39174877
 31
0.0
  0
LINE
  5
26D
100
AcDbEntity
  8
レイヤー_1
  6
PHANTOM
 62
       3
100
AcDbLine
 10
162.70329306
 20
3.39174877
 30
0.0
 11
162.56457391
 21
3.47012155
 31
0.0
  0
LINE
  5
26E
100
AcDbEntity
  8
レイヤー_1
  6
PHANTOM
 62
       3
100
AcDbLine
 10
162.56457391
 20
3.47012155
 30
0.0
 11
162.43445849
 21
3.56091686
 31
0.0
  0
LINE
  5
26F
100
AcDbEntity
  8
レイヤー_1
  6
PHANTOM
 62
       3
100
AcDbLine
 10
162.43445849
 20
3.56091686
 30
0.0
 11
162.31374882
 21
3.66333089
 31
0.0
  0
LINE
  5
270
100
AcDbEntity
  8
レイヤー_1
  6
PHANTOM
 62
       3
100
AcDbLine
 10
162.31374882
 20
3.66333089
 30
0.0
 11
162.20324695
 21
3.7765598
 31
0.0
  0
LINE
  5
271
100
AcDbEntity
  8
レイヤー_1
  6
PHANTOM
 62
       3
100
AcDbLine
 10
162.20324695
 20
3.7765598
 30
0.0
 11
162.10375489
 21
3.89979975
 31
0.0
  0
LINE
  5
272
100
AcDbEntity
  8
レイヤー_1
  6
PHANTOM
 62
       3
100
AcDbLine
 10
162.10375489
 20
3.89979975
 30
0.0
 11
162.01607468
 21
4.03224691
 31
0.0
  0
LINE
  5
273
100
AcDbEntity
  8
レイヤー_1
  6
PHANTOM
 62
       3
100
AcDbLine
 10
162.01607468
 20
4.03224691
 30
0.0
 11
161.94100833
 21
4.17309745
 31
0.0
  0
LINE
  5
274
100
AcDbEntity
  8
レイヤー_1
  6
PHANTOM
 62
       3
100
AcDbLine
 10
161.94100833
 20
4.17309745
 30
0.0
 11
161.87935788
 21
4.32154752
 31
0.0
  0
LINE
  5
275
100
AcDbEntity
  8
レイヤー_1
  6
PHANTOM
 62
       3
100
AcDbLine
 10
161.87935788
 20
4.32154752
 30
0.0
 11
161.83192536
 21
4.47679331
 31
0.0
  0
LINE
  5
276
100
AcDbEntity
  8
レイヤー_1
  6
PHANTOM
 62
       3
100
AcDbLine
 10
161.83192536
 20
4.47679331
 30
0.0
 11
161.79951279
 21
4.63803097
 31
0.0
  0
LINE
  5
277
100
AcDbEntity
  8
レイヤー_1
  6
PHANTOM
 62
       3
100
AcDbLine
 10
161.79951279
 20
4.63803097
 30
0.0
 11
161.7829222
 21
4.80445667
 31
0.0
  0
LINE
  5
278
100
AcDbEntity
  8
レイヤー_1
  6
PHANTOM
 62
       3
100
AcDbLine
 10
161.7829222
 20
4.80445667
 30
0.0
 11
161.7829222
 21
4.97407712
 31
0.0
  0
LINE
  5
279
100
AcDbEntity
  8
レイヤー_1
  6
PHANTOM
 62
       3
100
AcDbLine
 10
161.7829222
 20
4.97407712
 30
0.0
 11
161.79951279
 21
5.14014348
 31
0.0
  0
LINE
  5
27A
100
AcDbEntity
  8
レイヤー_1
  6
PHANTOM
 62
       3
100
AcDbLine
 10
161.79951279
 20
5.14014348
 30
0.0
 11
161.83192536
 21
5.30105824
 31
0.0
  0
LINE
  5
27B
100
AcDbEntity
  8
レイヤー_1
  6
PHANTOM
 62
       3
100
AcDbLine
 10
161.83192536
 20
5.30105824
 30
0.0
 11
161.87935788
 21
5.45601574
 31
0.0
  0
LINE
  5
27C
100
AcDbEntity
  8
レイヤー_1
  6
PHANTOM
 62
       3
100
AcDbLine
 10
161.87935788
 20
5.45601574
 30
0.0
 11
161.94100833
 21
5.60421035
 31
0.0
  0
LINE
  5
27D
100
AcDbEntity
  8
レイヤー_1
  6
PHANTOM
 62
       3
100
AcDbLine
 10
161.94100833
 20
5.60421035
 30
0.0
 11
162.01607468
 21
5.74483643
 31
0.0
  0
LINE
  5
27E
100
AcDbEntity
  8
レイヤー_1
  6
PHANTOM
 62
       3
100
AcDbLine
 10
162.01607468
 20
5.74483643
 30
0.0
 11
162.10375489
 21
5.87708833
 31
0.0
  0
LINE
  5
27F
100
AcDbEntity
  8
レイヤー_1
  6
PHANTOM
 62
       3
100
AcDbLine
 10
162.10375489
 20
5.87708833
 30
0.0
 11
162.20324695
 21
6.00016042
 31
0.0
  0
LINE
  5
280
100
AcDbEntity
  8
レイヤー_1
  6
PHANTOM
 62
       3
100
AcDbLine
 10
162.20324695
 20
6.00016042
 30
0.0
 11
162.31374882
 21
6.11324706
 31
0.0
  0
LINE
  5
281
100
AcDbEntity
  8
レイヤー_1
  6
PHANTOM
 62
       3
100
AcDbLine
 10
162.31374882
 20
6.11324706
 30
0.0
 11
162.43445849
 21
6.2155426
 31
0.0
  0
LINE
  5
282
100
AcDbEntity
  8
レイヤー_1
  6
PHANTOM
 62
       3
100
AcDbLine
 10
162.43445849
 20
6.2155426
 30
0.0
 11
162.56457391
 21
6.30624141
 31
0.0
  0
LINE
  5
283
100
AcDbEntity
  8
レイヤー_1
  6
PHANTOM
 62
       3
100
AcDbLine
 10
162.56457391
 20
6.30624141
 30
0.0
 11
162.70329306
 21
6.38453784
 31
0.0
  0
LINE
  5
284
100
AcDbEntity
  8
レイヤー_1
  6
PHANTOM
 62
       3
100
AcDbLine
 10
162.70329306
 20
6.38453784
 30
0.0
 11
162.84981392
 21
6.44962626
 31
0.0
  0
LINE
  5
285
100
AcDbEntity
  8
レイヤー_1
  6
PHANTOM
 62
       3
100
AcDbLine
 10
162.84981392
 20
6.44962626
 30
0.0
 11
163.00333446
 21
6.50070102
 31
0.0
  0
LINE
  5
286
100
AcDbEntity
  8
レイヤー_1
  6
PHANTOM
 62
       3
100
AcDbLine
 10
163.00333446
 20
6.50070102
 30
0.0
 11
163.16305264
 21
6.53695649
 31
0.0
  0
LINE
  5
287
100
AcDbEntity
  8
レイヤー_1
  6
PHANTOM
 62
       3
100
AcDbLine
 10
163.16305264
 20
6.53695649
 30
0.0
 11
163.32816645
 21
6.55758702
 31
0.0
  0
LINE
  5
288
100
AcDbEntity
  8
レイヤー_1
  6
PHANTOM
 62
       3
100
AcDbLine
 10
163.32816645
 20
6.55758702
 30
0.0
 11
163.49754607
 21
6.56179118
 31
0.0
  0
LINE
  5
289
100
AcDbEntity
  8
レイヤー_1
  6
PHANTOM
 62
       3
100
AcDbLine
 10
163.49754607
 20
6.56179118
 30
0.0
 11
163.6647675
 21
6.54927523
 31
0.0
  0
LINE
  5
28A
100
AcDbEntity
  8
レイヤー_1
  6
PHANTOM
 62
       3
100
AcDbLine
 10
163.6647675
 20
6.54927523
 30
0.0
 11
163.82703046
 21
6.52073152
 31
0.0
  0
LINE
  5
28B
100
AcDbEntity
  8
レイヤー_1
  6
PHANTOM
 62
       3
100
AcDbLine
 10
163.82703046
 20
6.52073152
 30
0.0
 11
163.9835305
 21
6.4769657
 31
0.0
  0
LINE
  5
28C
100
AcDbEntity
  8
レイヤー_1
  6
PHANTOM
 62
       3
100
AcDbLine
 10
163.9835305
 20
6.4769657
 30
0.0
 11
164.13346319
 21
6.4187834
 31
0.0
  0
LINE
  5
28D
100
AcDbEntity
  8
レイヤー_1
  6
PHANTOM
 62
       3
100
AcDbLine
 10
164.13346319
 20
6.4187834
 30
0.0
 11
164.27602409
 21
6.34699027
 31
0.0
  0
LINE
  5
28E
100
AcDbEntity
  8
レイヤー_1
  6
PHANTOM
 62
       3
100
AcDbLine
 10
164.27602409
 20
6.34699027
 30
0.0
 11
164.41040876
 21
6.26239195
 31
0.0
  0
LINE
  5
28F
100
AcDbEntity
  8
レイヤー_1
  6
PHANTOM
 62
       3
100
AcDbLine
 10
164.41040876
 20
6.26239195
 30
0.0
 11
164.53581277
 21
6.16579407
 31
0.0
  0
LINE
  5
290
100
AcDbEntity
  8
レイヤー_1
  6
PHANTOM
 62
       3
100
AcDbLine
 10
164.53581277
 20
6.16579407
 30
0.0
 11
164.65143168
 21
6.05800227
 31
0.0
  0
LINE
  5
291
100
AcDbEntity
  8
レイヤー_1
  6
PHANTOM
 62
       3
100
AcDbLine
 10
164.65143168
 20
6.05800227
 30
0.0
 11
164.75646106
 21
5.9398222
 31
0.0
  0
LINE
  5
292
100
AcDbEntity
  8
レイヤー_1
  6
PHANTOM
 62
       3
100
AcDbLine
 10
164.75646106
 20
5.9398222
 30
0.0
 11
164.85009647
 21
5.8120595
 31
0.0
  0
LINE
  5
293
100
AcDbEntity
  8
レイヤー_1
  6
PHANTOM
 62
       3
100
AcDbLine
 10
164.85009647
 20
5.8120595
 30
0.0
 11
164.93153348
 21
5.67551981
 31
0.0
  0
LINE
  5
294
100
AcDbEntity
  8
レイヤー_1
  6
PHANTOM
 62
       3
100
AcDbLine
 10
164.93153348
 20
5.67551981
 30
0.0
 11
164.99996764
 21
5.53100876
 31
0.0
  0
LINE
  5
295
100
AcDbEntity
  8
レイヤー_1
  6
PHANTOM
 62
       3
100
AcDbLine
 10
164.99996764
 20
5.53100876
 30
0.0
 11
165.05459453
 21
5.379332
 31
0.0
  0
LINE
  5
296
100
AcDbEntity
  8
レイヤー_1
  6
PHANTOM
 62
       3
100
AcDbLine
 10
165.05459453
 20
5.379332
 30
0.0
 11
165.09460971
 21
5.22129516
 31
0.0
  0
LINE
  5
297
100
AcDbEntity
  8
レイヤー_1
  6
PHANTOM
 62
       3
100
AcDbLine
 10
165.09460971
 20
5.22129516
 30
0.0
 11
165.11920873
 21
5.0577039
 31
0.0
  0
LINE
  5
298
100
AcDbEntity
  8
レイヤー_1
  6
PHANTOM
 62
       3
100
AcDbLine
 10
165.11920873
 20
5.0577039
 30
0.0
 11
165.12758717
 21
4.88936384
 31
0.0
  0
LINE
  5
299
100
AcDbEntity
  8
レイヤー_1
  6
PHANTOM
 62
       3
100
AcDbLine
 10
165.07763528
 20
5.33893082
 30
0.0
 11
161.83765258
 21
5.33893082
 31
0.0
  0
LINE
  5
29A
100
AcDbEntity
  8
レイヤー_1
  6
PHANTOM
 62
       3
100
AcDbLine
 10
165.06902289
 20
4.43850501
 30
0.0
 11
161.85487737
 21
4.43850501
 31
0.0
  0
LINE
  5
29B
100
AcDbEntity
  8
レイヤー_1
  6
PHANTOM
 62
       3
100
AcDbLine
 10
165.12758717
 20
4.88936384
 30
0.0
 11
165.11920873
 21
4.72064556
 31
0.0
  0
LINE
  5
29C
100
AcDbEntity
  8
レイヤー_1
  6
PHANTOM
 62
       3
100
AcDbLine
 10
165.11920873
 20
4.72064556
 30
0.0
 11
165.09460971
 21
4.5567134
 31
0.0
  0
LINE
  5
29D
100
AcDbEntity
  8
レイヤー_1
  6
PHANTOM
 62
       3
100
AcDbLine
 10
165.09460971
 20
4.5567134
 30
0.0
 11
165.05459453
 21
4.39837119
 31
0.0
  0
LINE
  5
29E
100
AcDbEntity
  8
レイヤー_1
  6
PHANTOM
 62
       3
100
AcDbLine
 10
165.05459453
 20
4.39837119
 30
0.0
 11
164.99996764
 21
4.24642278
 31
0.0
  0
LINE
  5
29F
100
AcDbEntity
  8
レイヤー_1
  6
PHANTOM
 62
       3
100
AcDbLine
 10
164.99996764
 20
4.24642278
 30
0.0
 11
164.93153348
 21
4.101672
 31
0.0
  0
LINE
  5
2A0
100
AcDbEntity
  8
レイヤー_1
  6
PHANTOM
 62
       3
100
AcDbLine
 10
164.93153348
 20
4.101672
 30
0.0
 11
164.85009647
 21
3.96492267
 31
0.0
  0
LINE
  5
2A1
100
AcDbEntity
  8
レイヤー_1
  6
PHANTOM
 62
       3
100
AcDbLine
 10
164.85009647
 20
3.96492267
 30
0.0
 11
164.75646106
 21
3.83697863
 31
0.0
  0
LINE
  5
2A2
100
AcDbEntity
  8
レイヤー_1
  6
PHANTOM
 62
       3
100
AcDbLine
 10
164.75646106
 20
3.83697863
 30
0.0
 11
164.65143168
 21
3.71864372
 31
0.0
  0
LINE
  5
2A3
100
AcDbEntity
  8
レイヤー_1
  6
PHANTOM
 62
       3
100
AcDbLine
 10
164.65143168
 20
3.71864372
 30
0.0
 11
164.53581277
 21
3.61072178
 31
0.0
  0
LINE
  5
2A4
100
AcDbEntity
  8
レイヤー_1
  6
PHANTOM
 62
       3
100
AcDbLine
 10
164.53581277
 20
3.61072178
 30
0.0
 11
164.41040876
 21
3.51401663
 31
0.0
  0
LINE
  5
2A5
100
AcDbEntity
  8
レイヤー_1
  6
PHANTOM
 62
       3
100
AcDbLine
 10
164.41040876
 20
3.51401663
 30
0.0
 11
164.27602409
 21
3.4293321
 31
0.0
  0
LINE
  5
2A6
100
AcDbEntity
  8
レイヤー_1
  6
PHANTOM
 62
       3
100
AcDbLine
 10
164.27602409
 20
3.4293321
 30
0.0
 11
164.13346319
 21
3.35747204
 31
0.0
  0
LINE
  5
2A7
100
AcDbEntity
  8
レイヤー_1
  6
PHANTOM
 62
       3
100
AcDbLine
 10
164.13346319
 20
3.35747204
 30
0.0
 11
163.9835305
 21
3.29924028
 31
0.0
  0
LINE
  5
2A8
100
AcDbEntity
  8
レイヤー_1
  6
PHANTOM
 62
       3
100
AcDbLine
 10
163.9835305
 20
3.29924028
 30
0.0
 11
163.82703046
 21
3.25544064
 31
0.0
  0
LINE
  5
2A9
100
AcDbEntity
  8
レイヤー_1
  6
PHANTOM
 62
       3
100
AcDbLine
 10
163.82703046
 20
3.25544064
 30
0.0
 11
163.6647675
 21
3.22687697
 31
0.0
  0
LINE
  5
2AA
100
AcDbEntity
  8
レイヤー_1
  6
PHANTOM
 62
       3
100
AcDbLine
 10
163.6647675
 20
3.22687697
 30
0.0
 11
163.49754607
 21
3.2143531
 31
0.0
  0
LINE
  5
2AB
100
AcDbEntity
  8
レイヤー_1
  6
PHANTOM
 62
       3
100
AcDbLine
 10
163.49754607
 20
3.2143531
 30
0.0
 11
163.32816645
 21
3.21855982
 31
0.0
  0
LINE
  5
2AC
100
AcDbEntity
  8
レイヤー_1
  6
PHANTOM
 62
       3
100
AcDbLine
 10
163.32816645
 20
3.21855982
 30
0.0
 11
163.16305264
 21
3.23920407
 31
0.0
  0
LINE
  5
2AD
100
AcDbEntity
  8
レイヤー_1
  6
PHANTOM
 62
       3
100
AcDbLine
 10
163.16305264
 20
3.23920407
 30
0.0
 11
163.00333446
 21
3.2754862
 31
0.0
  0
LINE
  5
2AE
100
AcDbEntity
  8
レイヤー_1
  6
PHANTOM
 62
       3
100
AcDbLine
 10
163.00333446
 20
3.2754862
 30
0.0
 11
162.84981392
 21
3.32660238
 31
0.0
  0
LINE
  5
2AF
100
AcDbEntity
  8
レイヤー_1
  6
PHANTOM
 62
       3
100
AcDbLine
 10
162.84981392
 20
3.32660238
 30
0.0
 11
162.70329306
 21
3.39174877
 31
0.0
  0
LINE
  5
2B0
100
AcDbEntity
  8
レイヤー_1
  6
PHANTOM
 62
       3
100
AcDbLine
 10
162.70329306
 20
3.39174877
 30
0.0
 11
162.56457391
 21
3.47012155
 31
0.0
  0
LINE
  5
2B1
100
AcDbEntity
  8
レイヤー_1
  6
PHANTOM
 62
       3
100
AcDbLine
 10
162.56457391
 20
3.47012155
 30
0.0
 11
162.43445849
 21
3.56091686
 31
0.0
  0
LINE
  5
2B2
100
AcDbEntity
  8
レイヤー_1
  6
PHANTOM
 62
       3
100
AcDbLine
 10
162.43445849
 20
3.56091686
 30
0.0
 11
162.31374882
 21
3.66333089
 31
0.0
  0
LINE
  5
2B3
100
AcDbEntity
  8
レイヤー_1
  6
PHANTOM
 62
       3
100
AcDbLine
 10
162.31374882
 20
3.66333089
 30
0.0
 11
162.20324695
 21
3.7765598
 31
0.0
  0
LINE
  5
2B4
100
AcDbEntity
  8
レイヤー_1
  6
PHANTOM
 62
       3
100
AcDbLine
 10
162.20324695
 20
3.7765598
 30
0.0
 11
162.10375489
 21
3.89979975
 31
0.0
  0
LINE
  5
2B5
100
AcDbEntity
  8
レイヤー_1
  6
PHANTOM
 62
       3
100
AcDbLine
 10
162.10375489
 20
3.89979975
 30
0.0
 11
162.01607468
 21
4.03224691
 31
0.0
  0
LINE
  5
2B6
100
AcDbEntity
  8
レイヤー_1
  6
PHANTOM
 62
       3
100
AcDbLine
 10
162.01607468
 20
4.03224691
 30
0.0
 11
161.94100833
 21
4.17309745
 31
0.0
  0
LINE
  5
2B7
100
AcDbEntity
  8
レイヤー_1
  6
PHANTOM
 62
       3
100
AcDbLine
 10
161.94100833
 20
4.17309745
 30
0.0
 11
161.87935788
 21
4.32154752
 31
0.0
  0
LINE
  5
2B8
100
AcDbEntity
  8
レイヤー_1
  6
PHANTOM
 62
       3
100
AcDbLine
 10
161.87935788
 20
4.32154752
 30
0.0
 11
161.83192536
 21
4.47679331
 31
0.0
  0
LINE
  5
2B9
100
AcDbEntity
  8
レイヤー_1
  6
PHANTOM
 62
       3
100
AcDbLine
 10
161.83192536
 20
4.47679331
 30
0.0
 11
161.79951279
 21
4.63803097
 31
0.0
  0
LINE
  5
2BA
100
AcDbEntity
  8
レイヤー_1
  6
PHANTOM
 62
       3
100
AcDbLine
 10
161.79951279
 20
4.63803097
 30
0.0
 11
161.7829222
 21
4.80445667
 31
0.0
  0
LINE
  5
2BB
100
AcDbEntity
  8
レイヤー_1
  6
PHANTOM
 62
       3
100
AcDbLine
 10
161.7829222
 20
4.80445667
 30
0.0
 11
161.7829222
 21
4.97407712
 31
0.0
  0
LINE
  5
2BC
100
AcDbEntity
  8
レイヤー_1
  6
PHANTOM
 62
       3
100
AcDbLine
 10
161.7829222
 20
4.97407712
 30
0.0
 11
161.79951279
 21
5.14014348
 31
0.0
  0
LINE
  5
2BD
100
AcDbEntity
  8
レイヤー_1
  6
PHANTOM
 62
       3
100
AcDbLine
 10
161.79951279
 20
5.14014348
 30
0.0
 11
161.83192536
 21
5.30105824
 31
0.0
  0
LINE
  5
2BE
100
AcDbEntity
  8
レイヤー_1
  6
PHANTOM
 62
       3
100
AcDbLine
 10
161.83192536
 20
5.30105824
 30
0.0
 11
161.87935788
 21
5.45601574
 31
0.0
  0
LINE
  5
2BF
100
AcDbEntity
  8
レイヤー_1
  6
PHANTOM
 62
       3
100
AcDbLine
 10
161.87935788
 20
5.45601574
 30
0.0
 11
161.94100833
 21
5.60421035
 31
0.0
  0
LINE
  5
2C0
100
AcDbEntity
  8
レイヤー_1
  6
PHANTOM
 62
       3
100
AcDbLine
 10
161.94100833
 20
5.60421035
 30
0.0
 11
162.01607468
 21
5.74483643
 31
0.0
  0
LINE
  5
2C1
100
AcDbEntity
  8
レイヤー_1
  6
PHANTOM
 62
       3
100
AcDbLine
 10
162.01607468
 20
5.74483643
 30
0.0
 11
162.10375489
 21
5.87708833
 31
0.0
  0
LINE
  5
2C2
100
AcDbEntity
  8
レイヤー_1
  6
PHANTOM
 62
       3
100
AcDbLine
 10
162.10375489
 20
5.87708833
 30
0.0
 11
162.20324695
 21
6.00016042
 31
0.0
  0
LINE
  5
2C3
100
AcDbEntity
  8
レイヤー_1
  6
PHANTOM
 62
       3
100
AcDbLine
 10
162.20324695
 20
6.00016042
 30
0.0
 11
162.31374882
 21
6.11324706
 31
0.0
  0
LINE
  5
2C4
100
AcDbEntity
  8
レイヤー_1
  6
PHANTOM
 62
       3
100
AcDbLine
 10
162.31374882
 20
6.11324706
 30
0.0
 11
162.43445849
 21
6.2155426
 31
0.0
  0
LINE
  5
2C5
100
AcDbEntity
  8
レイヤー_1
  6
PHANTOM
 62
       3
100
AcDbLine
 10
162.43445849
 20
6.2155426
 30
0.0
 11
162.56457391
 21
6.30624141
 31
0.0
  0
LINE
  5
2C6
100
AcDbEntity
  8
レイヤー_1
  6
PHANTOM
 62
       3
100
AcDbLine
 10
162.56457391
 20
6.30624141
 30
0.0
 11
162.70329306
 21
6.38453784
 31
0.0
  0
LINE
  5
2C7
100
AcDbEntity
  8
レイヤー_1
  6
PHANTOM
 62
       3
100
AcDbLine
 10
162.70329306
 20
6.38453784
 30
0.0
 11
162.84981392
 21
6.44962626
 31
0.0
  0
LINE
  5
2C8
100
AcDbEntity
  8
レイヤー_1
  6
PHANTOM
 62
       3
100
AcDbLine
 10
162.84981392
 20
6.44962626
 30
0.0
 11
163.00333446
 21
6.50070102
 31
0.0
  0
LINE
  5
2C9
100
AcDbEntity
  8
レイヤー_1
  6
PHANTOM
 62
       3
100
AcDbLine
 10
163.00333446
 20
6.50070102
 30
0.0
 11
163.16305264
 21
6.53695649
 31
0.0
  0
LINE
  5
2CA
100
AcDbEntity
  8
レイヤー_1
  6
PHANTOM
 62
       3
100
AcDbLine
 10
163.16305264
 20
6.53695649
 30
0.0
 11
163.32816645
 21
6.55758702
 31
0.0
  0
LINE
  5
2CB
100
AcDbEntity
  8
レイヤー_1
  6
PHANTOM
 62
       3
100
AcDbLine
 10
163.32816645
 20
6.55758702
 30
0.0
 11
163.49754607
 21
6.56179118
 31
0.0
  0
LINE
  5
2CC
100
AcDbEntity
  8
レイヤー_1
  6
PHANTOM
 62
       3
100
AcDbLine
 10
163.49754607
 20
6.56179118
 30
0.0
 11
163.6647675
 21
6.54927523
 31
0.0
  0
LINE
  5
2CD
100
AcDbEntity
  8
レイヤー_1
  6
PHANTOM
 62
       3
100
AcDbLine
 10
163.6647675
 20
6.54927523
 30
0.0
 11
163.82703046
 21
6.52073152
 31
0.0
  0
LINE
  5
2CE
100
AcDbEntity
  8
レイヤー_1
  6
PHANTOM
 62
       3
100
AcDbLine
 10
163.82703046
 20
6.52073152
 30
0.0
 11
163.9835305
 21
6.4769657
 31
0.0
  0
LINE
  5
2CF
100
AcDbEntity
  8
レイヤー_1
  6
PHANTOM
 62
       3
100
AcDbLine
 10
163.9835305
 20
6.4769657
 30
0.0
 11
164.13346319
 21
6.4187834
 31
0.0
  0
LINE
  5
2D0
100
AcDbEntity
  8
レイヤー_1
  6
PHANTOM
 62
       3
100
AcDbLine
 10
164.13346319
 20
6.4187834
 30
0.0
 11
164.27602409
 21
6.34699027
 31
0.0
  0
LINE
  5
2D1
100
AcDbEntity
  8
レイヤー_1
  6
PHANTOM
 62
       3
100
AcDbLine
 10
164.27602409
 20
6.34699027
 30
0.0
 11
164.41040876
 21
6.26239195
 31
0.0
  0
LINE
  5
2D2
100
AcDbEntity
  8
レイヤー_1
  6
PHANTOM
 62
       3
100
AcDbLine
 10
164.41040876
 20
6.26239195
 30
0.0
 11
164.53581277
 21
6.16579407
 31
0.0
  0
LINE
  5
2D3
100
AcDbEntity
  8
レイヤー_1
  6
PHANTOM
 62
       3
100
AcDbLine
 10
164.53581277
 20
6.16579407
 30
0.0
 11
164.65143168
 21
6.05800227
 31
0.0
  0
LINE
  5
2D4
100
AcDbEntity
  8
レイヤー_1
  6
PHANTOM
 62
       3
100
AcDbLine
 10
164.65143168
 20
6.05800227
 30
0.0
 11
164.75646106
 21
5.9398222
 31
0.0
  0
LINE
  5
2D5
100
AcDbEntity
  8
レイヤー_1
  6
PHANTOM
 62
       3
100
AcDbLine
 10
164.75646106
 20
5.9398222
 30
0.0
 11
164.85009647
 21
5.8120595
 31
0.0
  0
LINE
  5
2D6
100
AcDbEntity
  8
レイヤー_1
  6
PHANTOM
 62
       3
100
AcDbLine
 10
164.85009647
 20
5.8120595
 30
0.0
 11
164.93153348
 21
5.67551981
 31
0.0
  0
LINE
  5
2D7
100
AcDbEntity
  8
レイヤー_1
  6
PHANTOM
 62
       3
100
AcDbLine
 10
164.93153348
 20
5.67551981
 30
0.0
 11
164.99996764
 21
5.53100876
 31
0.0
  0
LINE
  5
2D8
100
AcDbEntity
  8
レイヤー_1
  6
PHANTOM
 62
       3
100
AcDbLine
 10
164.99996764
 20
5.53100876
 30
0.0
 11
165.05459453
 21
5.379332
 31
0.0
  0
LINE
  5
2D9
100
AcDbEntity
  8
レイヤー_1
  6
PHANTOM
 62
       3
100
AcDbLine
 10
165.05459453
 20
5.379332
 30
0.0
 11
165.09460971
 21
5.22129516
 31
0.0
  0
LINE
  5
2DA
100
AcDbEntity
  8
レイヤー_1
  6
PHANTOM
 62
       3
100
AcDbLine
 10
165.09460971
 20
5.22129516
 30
0.0
 11
165.11920873
 21
5.0577039
 31
0.0
  0
LINE
  5
2DB
100
AcDbEntity
  8
レイヤー_1
  6
PHANTOM
 62
       3
100
AcDbLine
 10
165.11920873
 20
5.0577039
 30
0.0
 11
165.12758717
 21
4.88936384
 31
0.0
  0
LINE
  5
2DC
100
AcDbEntity
  8
レイヤー_1
  6
PHANTOM
 62
       3
100
AcDbLine
 10
157.57968489
 20
5.33893082
 30
0.0
 11
154.34142467
 21
5.33893082
 31
0.0
  0
LINE
  5
2DD
100
AcDbEntity
  8
レイヤー_1
  6
PHANTOM
 62
       3
100
AcDbLine
 10
157.57107249
 20
4.43850501
 30
0.0
 11
154.35864945
 21
4.43850501
 31
0.0
  0
LINE
  5
2DE
100
AcDbEntity
  8
レイヤー_1
  6
PHANTOM
 62
       3
100
AcDbLine
 10
157.62963677
 20
4.88936384
 30
0.0
 11
157.6212767
 21
4.72064556
 31
0.0
  0
LINE
  5
2DF
100
AcDbEntity
  8
レイヤー_1
  6
PHANTOM
 62
       3
100
AcDbLine
 10
157.6212767
 20
4.72064556
 30
0.0
 11
157.59672795
 21
4.5567134
 31
0.0
  0
LINE
  5
2E0
100
AcDbEntity
  8
レイヤー_1
  6
PHANTOM
 62
       3
100
AcDbLine
 10
157.59672795
 20
4.5567134
 30
0.0
 11
157.55678774
 21
4.39837119
 31
0.0
  0
LINE
  5
2E1
100
AcDbEntity
  8
レイヤー_1
  6
PHANTOM
 62
       3
100
AcDbLine
 10
157.55678774
 20
4.39837119
 30
0.0
 11
157.50225328
 21
4.24642278
 31
0.0
  0
LINE
  5
2E2
100
AcDbEntity
  8
レイヤー_1
  6
PHANTOM
 62
       3
100
AcDbLine
 10
157.50225328
 20
4.24642278
 30
0.0
 11
157.43392178
 21
4.101672
 31
0.0
  0
LINE
  5
2E3
100
AcDbEntity
  8
レイヤー_1
  6
PHANTOM
 62
       3
100
AcDbLine
 10
157.43392178
 20
4.101672
 30
0.0
 11
157.35259045
 21
3.96492267
 31
0.0
  0
LINE
  5
2E4
100
AcDbEntity
  8
レイヤー_1
  6
PHANTOM
 62
       3
100
AcDbLine
 10
157.35259045
 20
3.96492267
 30
0.0
 11
157.25905649
 21
3.83697863
 31
0.0
  0
LINE
  5
2E5
100
AcDbEntity
  8
レイヤー_1
  6
PHANTOM
 62
       3
100
AcDbLine
 10
157.25905649
 20
3.83697863
 30
0.0
 11
157.15411713
 21
3.71864372
 31
0.0
  0
LINE
  5
2E6
100
AcDbEntity
  8
レイヤー_1
  6
PHANTOM
 62
       3
100
AcDbLine
 10
157.15411713
 20
3.71864372
 30
0.0
 11
157.03856957
 21
3.61072178
 31
0.0
  0
LINE
  5
2E7
100
AcDbEntity
  8
レイヤー_1
  6
PHANTOM
 62
       3
100
AcDbLine
 10
157.03856957
 20
3.61072178
 30
0.0
 11
156.91321102
 21
3.51401663
 31
0.0
  0
LINE
  5
2E8
100
AcDbEntity
  8
レイヤー_1
  6
PHANTOM
 62
       3
100
AcDbLine
 10
156.91321102
 20
3.51401663
 30
0.0
 11
156.77883869
 21
3.4293321
 31
0.0
  0
LINE
  5
2E9
100
AcDbEntity
  8
レイヤー_1
  6
PHANTOM
 62
       3
100
AcDbLine
 10
156.77883869
 20
3.4293321
 30
0.0
 11
156.63624979
 21
3.35747204
 31
0.0
  0
LINE
  5
2EA
100
AcDbEntity
  8
レイヤー_1
  6
PHANTOM
 62
       3
100
AcDbLine
 10
156.63624979
 20
3.35747204
 30
0.0
 11
156.48624154
 21
3.29924028
 31
0.0
  0
LINE
  5
2EB
100
AcDbEntity
  8
レイヤー_1
  6
PHANTOM
 62
       3
100
AcDbLine
 10
156.48624154
 20
3.29924028
 30
0.0
 11
156.32961114
 21
3.25544064
 31
0.0
  0
LINE
  5
2EC
100
AcDbEntity
  8
レイヤー_1
  6
PHANTOM
 62
       3
100
AcDbLine
 10
156.32961114
 20
3.25544064
 30
0.0
 11
156.1671558
 21
3.22687697
 31
0.0
  0
LINE
  5
2ED
100
AcDbEntity
  8
レイヤー_1
  6
PHANTOM
 62
       3
100
AcDbLine
 10
156.1671558
 20
3.22687697
 30
0.0
 11
155.99967274
 21
3.2143531
 31
0.0
  0
LINE
  5
2EE
100
AcDbEntity
  8
レイヤー_1
  6
PHANTOM
 62
       3
100
AcDbLine
 10
155.99967274
 20
3.2143531
 30
0.0
 11
155.83021606
 21
3.21855982
 31
0.0
  0
LINE
  5
2EF
100
AcDbEntity
  8
レイヤー_1
  6
PHANTOM
 62
       3
100
AcDbLine
 10
155.83021606
 20
3.21855982
 30
0.0
 11
155.66510225
 21
3.23920407
 31
0.0
  0
LINE
  5
2F0
100
AcDbEntity
  8
レイヤー_1
  6
PHANTOM
 62
       3
100
AcDbLine
 10
155.66510225
 20
3.23920407
 30
0.0
 11
155.50538406
 21
3.2754862
 31
0.0
  0
LINE
  5
2F1
100
AcDbEntity
  8
レイヤー_1
  6
PHANTOM
 62
       3
100
AcDbLine
 10
155.50538406
 20
3.2754862
 30
0.0
 11
155.35186353
 21
3.32660238
 31
0.0
  0
LINE
  5
2F2
100
AcDbEntity
  8
レイヤー_1
  6
PHANTOM
 62
       3
100
AcDbLine
 10
155.35186353
 20
3.32660238
 30
0.0
 11
155.20534267
 21
3.39174877
 31
0.0
  0
LINE
  5
2F3
100
AcDbEntity
  8
レイヤー_1
  6
PHANTOM
 62
       3
100
AcDbLine
 10
155.20534267
 20
3.39174877
 30
0.0
 11
155.06662351
 21
3.47012155
 31
0.0
  0
LINE
  5
2F4
100
AcDbEntity
  8
レイヤー_1
  6
PHANTOM
 62
       3
100
AcDbLine
 10
155.06662351
 20
3.47012155
 30
0.0
 11
154.93650809
 21
3.56091686
 31
0.0
  0
LINE
  5
2F5
100
AcDbEntity
  8
レイヤー_1
  6
PHANTOM
 62
       3
100
AcDbLine
 10
154.93650809
 20
3.56091686
 30
0.0
 11
154.81579843
 21
3.66333089
 31
0.0
  0
LINE
  5
2F6
100
AcDbEntity
  8
レイヤー_1
  6
PHANTOM
 62
       3
100
AcDbLine
 10
154.81579843
 20
3.66333089
 30
0.0
 11
154.70529656
 21
3.7765598
 31
0.0
  0
LINE
  5
2F7
100
AcDbEntity
  8
レイヤー_1
  6
PHANTOM
 62
       3
100
AcDbLine
 10
154.70529656
 20
3.7765598
 30
0.0
 11
154.6058045
 21
3.89979975
 31
0.0
  0
LINE
  5
2F8
100
AcDbEntity
  8
レイヤー_1
  6
PHANTOM
 62
       3
100
AcDbLine
 10
154.6058045
 20
3.89979975
 30
0.0
 11
154.51812428
 21
4.03224691
 31
0.0
  0
LINE
  5
2F9
100
AcDbEntity
  8
レイヤー_1
  6
PHANTOM
 62
       3
100
AcDbLine
 10
154.51812428
 20
4.03224691
 30
0.0
 11
154.44305794
 21
4.17309745
 31
0.0
  0
LINE
  5
2FA
100
AcDbEntity
  8
レイヤー_1
  6
PHANTOM
 62
       3
100
AcDbLine
 10
154.44305794
 20
4.17309745
 30
0.0
 11
154.38140749
 21
4.32154752
 31
0.0
  0
LINE
  5
2FB
100
AcDbEntity
  8
レイヤー_1
  6
PHANTOM
 62
       3
100
AcDbLine
 10
154.38140749
 20
4.32154752
 30
0.0
 11
154.33397497
 21
4.47679331
 31
0.0
  0
LINE
  5
2FC
100
AcDbEntity
  8
レイヤー_1
  6
PHANTOM
 62
       3
100
AcDbLine
 10
154.33397497
 20
4.47679331
 30
0.0
 11
154.30156239
 21
4.63803097
 31
0.0
  0
LINE
  5
2FD
100
AcDbEntity
  8
レイヤー_1
  6
PHANTOM
 62
       3
100
AcDbLine
 10
154.30156239
 20
4.63803097
 30
0.0
 11
154.2849718
 21
4.80445667
 31
0.0
  0
LINE
  5
2FE
100
AcDbEntity
  8
レイヤー_1
  6
PHANTOM
 62
       3
100
AcDbLine
 10
154.2849718
 20
4.80445667
 30
0.0
 11
154.2849718
 21
4.97407712
 31
0.0
  0
LINE
  5
2FF
100
AcDbEntity
  8
レイヤー_1
  6
PHANTOM
 62
       3
100
AcDbLine
 10
154.2849718
 20
4.97407712
 30
0.0
 11
154.30156239
 21
5.14014348
 31
0.0
  0
LINE
  5
300
100
AcDbEntity
  8
レイヤー_1
  6
PHANTOM
 62
       3
100
AcDbLine
 10
154.30156239
 20
5.14014348
 30
0.0
 11
154.33397497
 21
5.30105824
 31
0.0
  0
LINE
  5
301
100
AcDbEntity
  8
レイヤー_1
  6
PHANTOM
 62
       3
100
AcDbLine
 10
154.33397497
 20
5.30105824
 30
0.0
 11
154.38140749
 21
5.45601574
 31
0.0
  0
LINE
  5
302
100
AcDbEntity
  8
レイヤー_1
  6
PHANTOM
 62
       3
100
AcDbLine
 10
154.38140749
 20
5.45601574
 30
0.0
 11
154.44305794
 21
5.60421035
 31
0.0
  0
LINE
  5
303
100
AcDbEntity
  8
レイヤー_1
  6
PHANTOM
 62
       3
100
AcDbLine
 10
154.44305794
 20
5.60421035
 30
0.0
 11
154.51812428
 21
5.74483643
 31
0.0
  0
LINE
  5
304
100
AcDbEntity
  8
レイヤー_1
  6
PHANTOM
 62
       3
100
AcDbLine
 10
154.51812428
 20
5.74483643
 30
0.0
 11
154.6058045
 21
5.87708833
 31
0.0
  0
LINE
  5
305
100
AcDbEntity
  8
レイヤー_1
  6
PHANTOM
 62
       3
100
AcDbLine
 10
154.6058045
 20
5.87708833
 30
0.0
 11
154.70529656
 21
6.00016042
 31
0.0
  0
LINE
  5
306
100
AcDbEntity
  8
レイヤー_1
  6
PHANTOM
 62
       3
100
AcDbLine
 10
154.70529656
 20
6.00016042
 30
0.0
 11
154.81579843
 21
6.11324706
 31
0.0
  0
LINE
  5
307
100
AcDbEntity
  8
レイヤー_1
  6
PHANTOM
 62
       3
100
AcDbLine
 10
154.81579843
 20
6.11324706
 30
0.0
 11
154.93650809
 21
6.2155426
 31
0.0
  0
LINE
  5
308
100
AcDbEntity
  8
レイヤー_1
  6
PHANTOM
 62
       3
100
AcDbLine
 10
154.93650809
 20
6.2155426
 30
0.0
 11
155.06662351
 21
6.30624141
 31
0.0
  0
LINE
  5
309
100
AcDbEntity
  8
レイヤー_1
  6
PHANTOM
 62
       3
100
AcDbLine
 10
155.06662351
 20
6.30624141
 30
0.0
 11
155.20534267
 21
6.38453784
 31
0.0
  0
LINE
  5
30A
100
AcDbEntity
  8
レイヤー_1
  6
PHANTOM
 62
       3
100
AcDbLine
 10
155.20534267
 20
6.38453784
 30
0.0
 11
155.35186353
 21
6.44962626
 31
0.0
  0
LINE
  5
30B
100
AcDbEntity
  8
レイヤー_1
  6
PHANTOM
 62
       3
100
AcDbLine
 10
155.35186353
 20
6.44962626
 30
0.0
 11
155.50538406
 21
6.50070102
 31
0.0
  0
LINE
  5
30C
100
AcDbEntity
  8
レイヤー_1
  6
PHANTOM
 62
       3
100
AcDbLine
 10
155.50538406
 20
6.50070102
 30
0.0
 11
155.66510225
 21
6.53695649
 31
0.0
  0
LINE
  5
30D
100
AcDbEntity
  8
レイヤー_1
  6
PHANTOM
 62
       3
100
AcDbLine
 10
155.66510225
 20
6.53695649
 30
0.0
 11
155.83021606
 21
6.55758702
 31
0.0
  0
LINE
  5
30E
100
AcDbEntity
  8
レイヤー_1
  6
PHANTOM
 62
       3
100
AcDbLine
 10
155.83021606
 20
6.55758702
 30
0.0
 11
155.99967274
 21
6.56179118
 31
0.0
  0
LINE
  5
30F
100
AcDbEntity
  8
レイヤー_1
  6
PHANTOM
 62
       3
100
AcDbLine
 10
155.99967274
 20
6.56179118
 30
0.0
 11
156.1671558
 21
6.54927523
 31
0.0
  0
LINE
  5
310
100
AcDbEntity
  8
レイヤー_1
  6
PHANTOM
 62
       3
100
AcDbLine
 10
156.1671558
 20
6.54927523
 30
0.0
 11
156.32961114
 21
6.52073152
 31
0.0
  0
LINE
  5
311
100
AcDbEntity
  8
レイヤー_1
  6
PHANTOM
 62
       3
100
AcDbLine
 10
156.32961114
 20
6.52073152
 30
0.0
 11
156.48624154
 21
6.4769657
 31
0.0
  0
LINE
  5
312
100
AcDbEntity
  8
レイヤー_1
  6
PHANTOM
 62
       3
100
AcDbLine
 10
156.48624154
 20
6.4769657
 30
0.0
 11
156.63624979
 21
6.4187834
 31
0.0
  0
LINE
  5
313
100
AcDbEntity
  8
レイヤー_1
  6
PHANTOM
 62
       3
100
AcDbLine
 10
156.63624979
 20
6.4187834
 30
0.0
 11
156.77883869
 21
6.34699027
 31
0.0
  0
LINE
  5
314
100
AcDbEntity
  8
レイヤー_1
  6
PHANTOM
 62
       3
100
AcDbLine
 10
156.77883869
 20
6.34699027
 30
0.0
 11
156.91321102
 21
6.26239195
 31
0.0
  0
LINE
  5
315
100
AcDbEntity
  8
レイヤー_1
  6
PHANTOM
 62
       3
100
AcDbLine
 10
156.91321102
 20
6.26239195
 30
0.0
 11
157.03856957
 21
6.16579407
 31
0.0
  0
LINE
  5
316
100
AcDbEntity
  8
レイヤー_1
  6
PHANTOM
 62
       3
100
AcDbLine
 10
157.03856957
 20
6.16579407
 30
0.0
 11
157.15411713
 21
6.05800227
 31
0.0
  0
LINE
  5
317
100
AcDbEntity
  8
レイヤー_1
  6
PHANTOM
 62
       3
100
AcDbLine
 10
157.15411713
 20
6.05800227
 30
0.0
 11
157.25905649
 21
5.9398222
 31
0.0
  0
LINE
  5
318
100
AcDbEntity
  8
レイヤー_1
  6
PHANTOM
 62
       3
100
AcDbLine
 10
157.25905649
 20
5.9398222
 30
0.0
 11
157.35259045
 21
5.8120595
 31
0.0
  0
LINE
  5
319
100
AcDbEntity
  8
レイヤー_1
  6
PHANTOM
 62
       3
100
AcDbLine
 10
157.35259045
 20
5.8120595
 30
0.0
 11
157.43392178
 21
5.67551981
 31
0.0
  0
LINE
  5
31A
100
AcDbEntity
  8
レイヤー_1
  6
PHANTOM
 62
       3
100
AcDbLine
 10
157.43392178
 20
5.67551981
 30
0.0
 11
157.50225328
 21
5.53100876
 31
0.0
  0
LINE
  5
31B
100
AcDbEntity
  8
レイヤー_1
  6
PHANTOM
 62
       3
100
AcDbLine
 10
157.50225328
 20
5.53100876
 30
0.0
 11
157.55678774
 21
5.379332
 31
0.0
  0
LINE
  5
31C
100
AcDbEntity
  8
レイヤー_1
  6
PHANTOM
 62
       3
100
AcDbLine
 10
157.55678774
 20
5.379332
 30
0.0
 11
157.59672795
 21
5.22129516
 31
0.0
  0
LINE
  5
31D
100
AcDbEntity
  8
レイヤー_1
  6
PHANTOM
 62
       3
100
AcDbLine
 10
157.59672795
 20
5.22129516
 30
0.0
 11
157.6212767
 21
5.0577039
 31
0.0
  0
LINE
  5
31E
100
AcDbEntity
  8
レイヤー_1
  6
PHANTOM
 62
       3
100
AcDbLine
 10
157.6212767
 20
5.0577039
 30
0.0
 11
157.62963677
 21
4.88936384
 31
0.0
  0
LINE
  5
31F
100
AcDbEntity
  8
レイヤー_1
  6
PHANTOM
 62
       3
100
AcDbLine
 10
150.08173449
 20
5.33893082
 30
0.0
 11
146.84347427
 21
5.33893082
 31
0.0
  0
LINE
  5
320
100
AcDbEntity
  8
レイヤー_1
  6
PHANTOM
 62
       3
100
AcDbLine
 10
150.07484458
 20
4.43850501
 30
0.0
 11
146.86069906
 21
4.43850501
 31
0.0
  0
LINE
  5
321
100
AcDbEntity
  8
レイヤー_1
  6
PHANTOM
 62
       3
100
AcDbLine
 10
150.13340886
 20
4.88936384
 30
0.0
 11
150.12503002
 21
4.72064556
 31
0.0
  0
LINE
  5
322
100
AcDbEntity
  8
レイヤー_1
  6
PHANTOM
 62
       3
100
AcDbLine
 10
150.12503002
 20
4.72064556
 30
0.0
 11
150.10042819
 21
4.5567134
 31
0.0
  0
LINE
  5
323
100
AcDbEntity
  8
レイヤー_1
  6
PHANTOM
 62
       3
100
AcDbLine
 10
150.10042819
 20
4.5567134
 30
0.0
 11
150.06040539
 21
4.39837119
 31
0.0
  0
LINE
  5
324
100
AcDbEntity
  8
レイヤー_1
  6
PHANTOM
 62
       3
100
AcDbLine
 10
150.06040539
 20
4.39837119
 30
0.0
 11
150.00576365
 21
4.24642278
 31
0.0
  0
LINE
  5
325
100
AcDbEntity
  8
レイヤー_1
  6
PHANTOM
 62
       3
100
AcDbLine
 10
150.00576365
 20
4.24642278
 30
0.0
 11
149.937305
 21
4.101672
 31
0.0
  0
LINE
  5
326
100
AcDbEntity
  8
レイヤー_1
  6
PHANTOM
 62
       3
100
AcDbLine
 10
149.937305
 20
4.101672
 30
0.0
 11
149.85583146
 21
3.96492267
 31
0.0
  0
LINE
  5
327
100
AcDbEntity
  8
レイヤー_1
  6
PHANTOM
 62
       3
100
AcDbLine
 10
149.85583146
 20
3.96492267
 30
0.0
 11
149.76214507
 21
3.83697863
 31
0.0
  0
LINE
  5
328
100
AcDbEntity
  8
レイヤー_1
  6
PHANTOM
 62
       3
100
AcDbLine
 10
149.76214507
 20
3.83697863
 30
0.0
 11
149.65704785
 21
3.71864372
 31
0.0
  0
LINE
  5
329
100
AcDbEntity
  8
レイヤー_1
  6
PHANTOM
 62
       3
100
AcDbLine
 10
149.65704785
 20
3.71864372
 30
0.0
 11
149.54134183
 21
3.61072178
 31
0.0
  0
LINE
  5
32A
100
AcDbEntity
  8
レイヤー_1
  6
PHANTOM
 62
       3
100
AcDbLine
 10
149.54134183
 20
3.61072178
 30
0.0
 11
149.41582903
 21
3.51401663
 31
0.0
  0
LINE
  5
32B
100
AcDbEntity
  8
レイヤー_1
  6
PHANTOM
 62
       3
100
AcDbLine
 10
149.41582903
 20
3.51401663
 30
0.0
 11
149.28131149
 21
3.4293321
 31
0.0
  0
LINE
  5
32C
100
AcDbEntity
  8
レイヤー_1
  6
PHANTOM
 62
       3
100
AcDbLine
 10
149.28131149
 20
3.4293321
 30
0.0
 11
149.13859123
 21
3.35747204
 31
0.0
  0
LINE
  5
32D
100
AcDbEntity
  8
レイヤー_1
  6
PHANTOM
 62
       3
100
AcDbLine
 10
149.13859123
 20
3.35747204
 30
0.0
 11
148.98847028
 21
3.29924028
 31
0.0
  0
LINE
  5
32E
100
AcDbEntity
  8
レイヤー_1
  6
PHANTOM
 62
       3
100
AcDbLine
 10
148.98847028
 20
3.29924028
 30
0.0
 11
148.83175067
 21
3.25544064
 31
0.0
  0
LINE
  5
32F
100
AcDbEntity
  8
レイヤー_1
  6
PHANTOM
 62
       3
100
AcDbLine
 10
148.83175067
 20
3.25544064
 30
0.0
 11
148.66923442
 21
3.22687697
 31
0.0
  0
LINE
  5
330
100
AcDbEntity
  8
レイヤー_1
  6
PHANTOM
 62
       3
100
AcDbLine
 10
148.66923442
 20
3.22687697
 30
0.0
 11
148.50172356
 21
3.2143531
 31
0.0
  0
LINE
  5
331
100
AcDbEntity
  8
レイヤー_1
  6
PHANTOM
 62
       3
100
AcDbLine
 10
148.50172356
 20
3.2143531
 30
0.0
 11
148.33237416
 21
3.21855982
 31
0.0
  0
LINE
  5
332
100
AcDbEntity
  8
レイヤー_1
  6
PHANTOM
 62
       3
100
AcDbLine
 10
148.33237416
 20
3.21855982
 30
0.0
 11
148.1673734
 21
3.23920407
 31
0.0
  0
LINE
  5
333
100
AcDbEntity
  8
レイヤー_1
  6
PHANTOM
 62
       3
100
AcDbLine
 10
148.1673734
 20
3.23920407
 30
0.0
 11
148.00773544
 21
3.2754862
 31
0.0
  0
LINE
  5
334
100
AcDbEntity
  8
レイヤー_1
  6
PHANTOM
 62
       3
100
AcDbLine
 10
148.00773544
 20
3.2754862
 30
0.0
 11
147.85426594
 21
3.32660238
 31
0.0
  0
LINE
  5
335
100
AcDbEntity
  8
レイヤー_1
  6
PHANTOM
 62
       3
100
AcDbLine
 10
147.85426594
 20
3.32660238
 30
0.0
 11
147.70777052
 21
3.39174877
 31
0.0
  0
LINE
  5
336
100
AcDbEntity
  8
レイヤー_1
  6
PHANTOM
 62
       3
100
AcDbLine
 10
147.70777052
 20
3.39174877
 30
0.0
 11
147.56905483
 21
3.47012155
 31
0.0
  0
LINE
  5
337
100
AcDbEntity
  8
レイヤー_1
  6
PHANTOM
 62
       3
100
AcDbLine
 10
147.56905483
 20
3.47012155
 30
0.0
 11
147.4389245
 21
3.56091686
 31
0.0
  0
LINE
  5
338
100
AcDbEntity
  8
レイヤー_1
  6
PHANTOM
 62
       3
100
AcDbLine
 10
147.4389245
 20
3.56091686
 30
0.0
 11
147.31818519
 21
3.66333089
 31
0.0
  0
LINE
  5
339
100
AcDbEntity
  8
レイヤー_1
  6
PHANTOM
 62
       3
100
AcDbLine
 10
147.31818519
 20
3.66333089
 30
0.0
 11
147.20764252
 21
3.7765598
 31
0.0
  0
LINE
  5
33A
100
AcDbEntity
  8
レイヤー_1
  6
PHANTOM
 62
       3
100
AcDbLine
 10
147.20764252
 20
3.7765598
 30
0.0
 11
147.10810214
 21
3.89979975
 31
0.0
  0
LINE
  5
33B
100
AcDbEntity
  8
レイヤー_1
  6
PHANTOM
 62
       3
100
AcDbLine
 10
147.10810214
 20
3.89979975
 30
0.0
 11
147.02036969
 21
4.03224691
 31
0.0
  0
LINE
  5
33C
100
AcDbEntity
  8
レイヤー_1
  6
PHANTOM
 62
       3
100
AcDbLine
 10
147.02036969
 20
4.03224691
 30
0.0
 11
146.94525081
 21
4.17309745
 31
0.0
  0
LINE
  5
33D
100
AcDbEntity
  8
レイヤー_1
  6
PHANTOM
 62
       3
100
AcDbLine
 10
146.94525081
 20
4.17309745
 30
0.0
 11
146.88355114
 21
4.32154752
 31
0.0
  0
LINE
  5
33E
100
AcDbEntity
  8
レイヤー_1
  6
PHANTOM
 62
       3
100
AcDbLine
 10
146.88355114
 20
4.32154752
 30
0.0
 11
146.83607632
 21
4.47679331
 31
0.0
  0
LINE
  5
33F
100
AcDbEntity
  8
レイヤー_1
  6
PHANTOM
 62
       3
100
AcDbLine
 10
146.83607632
 20
4.47679331
 30
0.0
 11
146.80363198
 21
4.63803097
 31
0.0
  0
LINE
  5
340
100
AcDbEntity
  8
レイヤー_1
  6
PHANTOM
 62
       3
100
AcDbLine
 10
146.80363198
 20
4.63803097
 30
0.0
 11
146.78702378
 21
4.80445667
 31
0.0
  0
LINE
  5
341
100
AcDbEntity
  8
レイヤー_1
  6
PHANTOM
 62
       3
100
AcDbLine
 10
146.78702378
 20
4.80445667
 30
0.0
 11
146.78702378
 21
4.97407712
 31
0.0
  0
LINE
  5
342
100
AcDbEntity
  8
レイヤー_1
  6
PHANTOM
 62
       3
100
AcDbLine
 10
146.78702378
 20
4.97407712
 30
0.0
 11
146.80363198
 21
5.14014348
 31
0.0
  0
LINE
  5
343
100
AcDbEntity
  8
レイヤー_1
  6
PHANTOM
 62
       3
100
AcDbLine
 10
146.80363198
 20
5.14014348
 30
0.0
 11
146.83607632
 21
5.30105824
 31
0.0
  0
LINE
  5
344
100
AcDbEntity
  8
レイヤー_1
  6
PHANTOM
 62
       3
100
AcDbLine
 10
146.83607632
 20
5.30105824
 30
0.0
 11
146.88355114
 21
5.45601574
 31
0.0
  0
LINE
  5
345
100
AcDbEntity
  8
レイヤー_1
  6
PHANTOM
 62
       3
100
AcDbLine
 10
146.88355114
 20
5.45601574
 30
0.0
 11
146.94525081
 21
5.60421035
 31
0.0
  0
LINE
  5
346
100
AcDbEntity
  8
レイヤー_1
  6
PHANTOM
 62
       3
100
AcDbLine
 10
146.94525081
 20
5.60421035
 30
0.0
 11
147.02036969
 21
5.74483643
 31
0.0
  0
LINE
  5
347
100
AcDbEntity
  8
レイヤー_1
  6
PHANTOM
 62
       3
100
AcDbLine
 10
147.02036969
 20
5.74483643
 30
0.0
 11
147.10810214
 21
5.87708833
 31
0.0
  0
LINE
  5
348
100
AcDbEntity
  8
レイヤー_1
  6
PHANTOM
 62
       3
100
AcDbLine
 10
147.10810214
 20
5.87708833
 30
0.0
 11
147.20764252
 21
6.00016042
 31
0.0
  0
LINE
  5
349
100
AcDbEntity
  8
レイヤー_1
  6
PHANTOM
 62
       3
100
AcDbLine
 10
147.20764252
 20
6.00016042
 30
0.0
 11
147.31818519
 21
6.11324706
 31
0.0
  0
LINE
  5
34A
100
AcDbEntity
  8
レイヤー_1
  6
PHANTOM
 62
       3
100
AcDbLine
 10
147.31818519
 20
6.11324706
 30
0.0
 11
147.4389245
 21
6.2155426
 31
0.0
  0
LINE
  5
34B
100
AcDbEntity
  8
レイヤー_1
  6
PHANTOM
 62
       3
100
AcDbLine
 10
147.4389245
 20
6.2155426
 30
0.0
 11
147.56905483
 21
6.30624141
 31
0.0
  0
LINE
  5
34C
100
AcDbEntity
  8
レイヤー_1
  6
PHANTOM
 62
       3
100
AcDbLine
 10
147.56905483
 20
6.30624141
 30
0.0
 11
147.70777052
 21
6.38453784
 31
0.0
  0
LINE
  5
34D
100
AcDbEntity
  8
レイヤー_1
  6
PHANTOM
 62
       3
100
AcDbLine
 10
147.70777052
 20
6.38453784
 30
0.0
 11
147.85426594
 21
6.44962626
 31
0.0
  0
LINE
  5
34E
100
AcDbEntity
  8
レイヤー_1
  6
PHANTOM
 62
       3
100
AcDbLine
 10
147.85426594
 20
6.44962626
 30
0.0
 11
148.00773544
 21
6.50070102
 31
0.0
  0
LINE
  5
34F
100
AcDbEntity
  8
レイヤー_1
  6
PHANTOM
 62
       3
100
AcDbLine
 10
148.00773544
 20
6.50070102
 30
0.0
 11
148.1673734
 21
6.53695649
 31
0.0
  0
LINE
  5
350
100
AcDbEntity
  8
レイヤー_1
  6
PHANTOM
 62
       3
100
AcDbLine
 10
148.1673734
 20
6.53695649
 30
0.0
 11
148.33237416
 21
6.55758702
 31
0.0
  0
LINE
  5
351
100
AcDbEntity
  8
レイヤー_1
  6
PHANTOM
 62
       3
100
AcDbLine
 10
148.33237416
 20
6.55758702
 30
0.0
 11
148.50172356
 21
6.56179118
 31
0.0
  0
LINE
  5
352
100
AcDbEntity
  8
レイヤー_1
  6
PHANTOM
 62
       3
100
AcDbLine
 10
148.50172356
 20
6.56179118
 30
0.0
 11
148.66923442
 21
6.54927523
 31
0.0
  0
LINE
  5
353
100
AcDbEntity
  8
レイヤー_1
  6
PHANTOM
 62
       3
100
AcDbLine
 10
148.66923442
 20
6.54927523
 30
0.0
 11
148.83175067
 21
6.52073152
 31
0.0
  0
LINE
  5
354
100
AcDbEntity
  8
レイヤー_1
  6
PHANTOM
 62
       3
100
AcDbLine
 10
148.83175067
 20
6.52073152
 30
0.0
 11
148.98847028
 21
6.4769657
 31
0.0
  0
LINE
  5
355
100
AcDbEntity
  8
レイヤー_1
  6
PHANTOM
 62
       3
100
AcDbLine
 10
148.98847028
 20
6.4769657
 30
0.0
 11
149.13859123
 21
6.4187834
 31
0.0
  0
LINE
  5
356
100
AcDbEntity
  8
レイヤー_1
  6
PHANTOM
 62
       3
100
AcDbLine
 10
149.13859123
 20
6.4187834
 30
0.0
 11
149.28131149
 21
6.34699027
 31
0.0
  0
LINE
  5
357
100
AcDbEntity
  8
レイヤー_1
  6
PHANTOM
 62
       3
100
AcDbLine
 10
149.28131149
 20
6.34699027
 30
0.0
 11
149.41582903
 21
6.26239195
 31
0.0
  0
LINE
  5
358
100
AcDbEntity
  8
レイヤー_1
  6
PHANTOM
 62
       3
100
AcDbLine
 10
149.41582903
 20
6.26239195
 30
0.0
 11
149.54134183
 21
6.16579407
 31
0.0
  0
LINE
  5
359
100
AcDbEntity
  8
レイヤー_1
  6
PHANTOM
 62
       3
100
AcDbLine
 10
149.54134183
 20
6.16579407
 30
0.0
 11
149.65704785
 21
6.05800227
 31
0.0
  0
LINE
  5
35A
100
AcDbEntity
  8
レイヤー_1
  6
PHANTOM
 62
       3
100
AcDbLine
 10
149.65704785
 20
6.05800227
 30
0.0
 11
149.76214507
 21
5.9398222
 31
0.0
  0
LINE
  5
35B
100
AcDbEntity
  8
レイヤー_1
  6
PHANTOM
 62
       3
100
AcDbLine
 10
149.76214507
 20
5.9398222
 30
0.0
 11
149.85583146
 21
5.8120595
 31
0.0
  0
LINE
  5
35C
100
AcDbEntity
  8
レイヤー_1
  6
PHANTOM
 62
       3
100
AcDbLine
 10
149.85583146
 20
5.8120595
 30
0.0
 11
149.937305
 21
5.67551981
 31
0.0
  0
LINE
  5
35D
100
AcDbEntity
  8
レイヤー_1
  6
PHANTOM
 62
       3
100
AcDbLine
 10
149.937305
 20
5.67551981
 30
0.0
 11
150.00576365
 21
5.53100876
 31
0.0
  0
LINE
  5
35E
100
AcDbEntity
  8
レイヤー_1
  6
PHANTOM
 62
       3
100
AcDbLine
 10
150.00576365
 20
5.53100876
 30
0.0
 11
150.06040539
 21
5.379332
 31
0.0
  0
LINE
  5
35F
100
AcDbEntity
  8
レイヤー_1
  6
PHANTOM
 62
       3
100
AcDbLine
 10
150.06040539
 20
5.379332
 30
0.0
 11
150.10042819
 21
5.22129516
 31
0.0
  0
LINE
  5
360
100
AcDbEntity
  8
レイヤー_1
  6
PHANTOM
 62
       3
100
AcDbLine
 10
150.10042819
 20
5.22129516
 30
0.0
 11
150.12503002
 21
5.0577039
 31
0.0
  0
LINE
  5
361
100
AcDbEntity
  8
レイヤー_1
  6
PHANTOM
 62
       3
100
AcDbLine
 10
150.12503002
 20
5.0577039
 30
0.0
 11
150.13340886
 21
4.88936384
 31
0.0
  0
LINE
  5
362
100
AcDbEntity
  8
レイヤー_1
  6
PHANTOM
 62
       3
100
AcDbLine
 10
150.08173449
 20
5.33893082
 30
0.0
 11
146.84347427
 21
5.33893082
 31
0.0
  0
LINE
  5
363
100
AcDbEntity
  8
レイヤー_1
  6
PHANTOM
 62
       3
100
AcDbLine
 10
150.07484458
 20
4.43850501
 30
0.0
 11
146.86069906
 21
4.43850501
 31
0.0
  0
LINE
  5
364
100
AcDbEntity
  8
レイヤー_1
  6
PHANTOM
 62
       3
100
AcDbLine
 10
150.13340886
 20
4.88936384
 30
0.0
 11
150.12503002
 21
4.72064556
 31
0.0
  0
LINE
  5
365
100
AcDbEntity
  8
レイヤー_1
  6
PHANTOM
 62
       3
100
AcDbLine
 10
150.12503002
 20
4.72064556
 30
0.0
 11
150.10042819
 21
4.5567134
 31
0.0
  0
LINE
  5
366
100
AcDbEntity
  8
レイヤー_1
  6
PHANTOM
 62
       3
100
AcDbLine
 10
150.10042819
 20
4.5567134
 30
0.0
 11
150.06040539
 21
4.39837119
 31
0.0
  0
LINE
  5
367
100
AcDbEntity
  8
レイヤー_1
  6
PHANTOM
 62
       3
100
AcDbLine
 10
150.06040539
 20
4.39837119
 30
0.0
 11
150.00576365
 21
4.24642278
 31
0.0
  0
LINE
  5
368
100
AcDbEntity
  8
レイヤー_1
  6
PHANTOM
 62
       3
100
AcDbLine
 10
150.00576365
 20
4.24642278
 30
0.0
 11
149.937305
 21
4.101672
 31
0.0
  0
LINE
  5
369
100
AcDbEntity
  8
レイヤー_1
  6
PHANTOM
 62
       3
100
AcDbLine
 10
149.937305
 20
4.101672
 30
0.0
 11
149.85583146
 21
3.96492267
 31
0.0
  0
LINE
  5
36A
100
AcDbEntity
  8
レイヤー_1
  6
PHANTOM
 62
       3
100
AcDbLine
 10
149.85583146
 20
3.96492267
 30
0.0
 11
149.76214507
 21
3.83697863
 31
0.0
  0
LINE
  5
36B
100
AcDbEntity
  8
レイヤー_1
  6
PHANTOM
 62
       3
100
AcDbLine
 10
149.76214507
 20
3.83697863
 30
0.0
 11
149.65704785
 21
3.71864372
 31
0.0
  0
LINE
  5
36C
100
AcDbEntity
  8
レイヤー_1
  6
PHANTOM
 62
       3
100
AcDbLine
 10
149.65704785
 20
3.71864372
 30
0.0
 11
149.54134183
 21
3.61072178
 31
0.0
  0
LINE
  5
36D
100
AcDbEntity
  8
レイヤー_1
  6
PHANTOM
 62
       3
100
AcDbLine
 10
149.54134183
 20
3.61072178
 30
0.0
 11
149.41582903
 21
3.51401663
 31
0.0
  0
LINE
  5
36E
100
AcDbEntity
  8
レイヤー_1
  6
PHANTOM
 62
       3
100
AcDbLine
 10
149.41582903
 20
3.51401663
 30
0.0
 11
149.28131149
 21
3.4293321
 31
0.0
  0
LINE
  5
36F
100
AcDbEntity
  8
レイヤー_1
  6
PHANTOM
 62
       3
100
AcDbLine
 10
149.28131149
 20
3.4293321
 30
0.0
 11
149.13859123
 21
3.35747204
 31
0.0
  0
LINE
  5
370
100
AcDbEntity
  8
レイヤー_1
  6
PHANTOM
 62
       3
100
AcDbLine
 10
149.13859123
 20
3.35747204
 30
0.0
 11
148.98847028
 21
3.29924028
 31
0.0
  0
LINE
  5
371
100
AcDbEntity
  8
レイヤー_1
  6
PHANTOM
 62
       3
100
AcDbLine
 10
148.98847028
 20
3.29924028
 30
0.0
 11
148.83175067
 21
3.25544064
 31
0.0
  0
LINE
  5
372
100
AcDbEntity
  8
レイヤー_1
  6
PHANTOM
 62
       3
100
AcDbLine
 10
148.83175067
 20
3.25544064
 30
0.0
 11
148.66923442
 21
3.22687697
 31
0.0
  0
LINE
  5
373
100
AcDbEntity
  8
レイヤー_1
  6
PHANTOM
 62
       3
100
AcDbLine
 10
148.66923442
 20
3.22687697
 30
0.0
 11
148.50172356
 21
3.2143531
 31
0.0
  0
LINE
  5
374
100
AcDbEntity
  8
レイヤー_1
  6
PHANTOM
 62
       3
100
AcDbLine
 10
148.50172356
 20
3.2143531
 30
0.0
 11
148.33237416
 21
3.21855982
 31
0.0
  0
LINE
  5
375
100
AcDbEntity
  8
レイヤー_1
  6
PHANTOM
 62
       3
100
AcDbLine
 10
148.33237416
 20
3.21855982
 30
0.0
 11
148.1673734
 21
3.23920407
 31
0.0
  0
LINE
  5
376
100
AcDbEntity
  8
レイヤー_1
  6
PHANTOM
 62
       3
100
AcDbLine
 10
148.1673734
 20
3.23920407
 30
0.0
 11
148.00773544
 21
3.2754862
 31
0.0
  0
LINE
  5
377
100
AcDbEntity
  8
レイヤー_1
  6
PHANTOM
 62
       3
100
AcDbLine
 10
148.00773544
 20
3.2754862
 30
0.0
 11
147.85426594
 21
3.32660238
 31
0.0
  0
LINE
  5
378
100
AcDbEntity
  8
レイヤー_1
  6
PHANTOM
 62
       3
100
AcDbLine
 10
147.85426594
 20
3.32660238
 30
0.0
 11
147.70777052
 21
3.39174877
 31
0.0
  0
LINE
  5
379
100
AcDbEntity
  8
レイヤー_1
  6
PHANTOM
 62
       3
100
AcDbLine
 10
147.70777052
 20
3.39174877
 30
0.0
 11
147.56905483
 21
3.47012155
 31
0.0
  0
LINE
  5
37A
100
AcDbEntity
  8
レイヤー_1
  6
PHANTOM
 62
       3
100
AcDbLine
 10
147.56905483
 20
3.47012155
 30
0.0
 11
147.4389245
 21
3.56091686
 31
0.0
  0
LINE
  5
37B
100
AcDbEntity
  8
レイヤー_1
  6
PHANTOM
 62
       3
100
AcDbLine
 10
147.4389245
 20
3.56091686
 30
0.0
 11
147.31818519
 21
3.66333089
 31
0.0
  0
LINE
  5
37C
100
AcDbEntity
  8
レイヤー_1
  6
PHANTOM
 62
       3
100
AcDbLine
 10
147.31818519
 20
3.66333089
 30
0.0
 11
147.20764252
 21
3.7765598
 31
0.0
  0
LINE
  5
37D
100
AcDbEntity
  8
レイヤー_1
  6
PHANTOM
 62
       3
100
AcDbLine
 10
147.20764252
 20
3.7765598
 30
0.0
 11
147.10810214
 21
3.89979975
 31
0.0
  0
LINE
  5
37E
100
AcDbEntity
  8
レイヤー_1
  6
PHANTOM
 62
       3
100
AcDbLine
 10
147.10810214
 20
3.89979975
 30
0.0
 11
147.02036969
 21
4.03224691
 31
0.0
  0
LINE
  5
37F
100
AcDbEntity
  8
レイヤー_1
  6
PHANTOM
 62
       3
100
AcDbLine
 10
147.02036969
 20
4.03224691
 30
0.0
 11
146.94525081
 21
4.17309745
 31
0.0
  0
LINE
  5
380
100
AcDbEntity
  8
レイヤー_1
  6
PHANTOM
 62
       3
100
AcDbLine
 10
146.94525081
 20
4.17309745
 30
0.0
 11
146.88355114
 21
4.32154752
 31
0.0
  0
LINE
  5
381
100
AcDbEntity
  8
レイヤー_1
  6
PHANTOM
 62
       3
100
AcDbLine
 10
146.88355114
 20
4.32154752
 30
0.0
 11
146.83607632
 21
4.47679331
 31
0.0
  0
LINE
  5
382
100
AcDbEntity
  8
レイヤー_1
  6
PHANTOM
 62
       3
100
AcDbLine
 10
146.83607632
 20
4.47679331
 30
0.0
 11
146.80363198
 21
4.63803097
 31
0.0
  0
LINE
  5
383
100
AcDbEntity
  8
レイヤー_1
  6
PHANTOM
 62
       3
100
AcDbLine
 10
146.80363198
 20
4.63803097
 30
0.0
 11
146.78702378
 21
4.80445667
 31
0.0
  0
LINE
  5
384
100
AcDbEntity
  8
レイヤー_1
  6
PHANTOM
 62
       3
100
AcDbLine
 10
146.78702378
 20
4.80445667
 30
0.0
 11
146.78702378
 21
4.97407712
 31
0.0
  0
LINE
  5
385
100
AcDbEntity
  8
レイヤー_1
  6
PHANTOM
 62
       3
100
AcDbLine
 10
146.78702378
 20
4.97407712
 30
0.0
 11
146.80363198
 21
5.14014348
 31
0.0
  0
LINE
  5
386
100
AcDbEntity
  8
レイヤー_1
  6
PHANTOM
 62
       3
100
AcDbLine
 10
146.80363198
 20
5.14014348
 30
0.0
 11
146.83607632
 21
5.30105824
 31
0.0
  0
LINE
  5
387
100
AcDbEntity
  8
レイヤー_1
  6
PHANTOM
 62
       3
100
AcDbLine
 10
146.83607632
 20
5.30105824
 30
0.0
 11
146.88355114
 21
5.45601574
 31
0.0
  0
LINE
  5
388
100
AcDbEntity
  8
レイヤー_1
  6
PHANTOM
 62
       3
100
AcDbLine
 10
146.88355114
 20
5.45601574
 30
0.0
 11
146.94525081
 21
5.60421035
 31
0.0
  0
LINE
  5
389
100
AcDbEntity
  8
レイヤー_1
  6
PHANTOM
 62
       3
100
AcDbLine
 10
146.94525081
 20
5.60421035
 30
0.0
 11
147.02036969
 21
5.74483643
 31
0.0
  0
LINE
  5
38A
100
AcDbEntity
  8
レイヤー_1
  6
PHANTOM
 62
       3
100
AcDbLine
 10
147.02036969
 20
5.74483643
 30
0.0
 11
147.10810214
 21
5.87708833
 31
0.0
  0
LINE
  5
38B
100
AcDbEntity
  8
レイヤー_1
  6
PHANTOM
 62
       3
100
AcDbLine
 10
147.10810214
 20
5.87708833
 30
0.0
 11
147.20764252
 21
6.00016042
 31
0.0
  0
LINE
  5
38C
100
AcDbEntity
  8
レイヤー_1
  6
PHANTOM
 62
       3
100
AcDbLine
 10
147.20764252
 20
6.00016042
 30
0.0
 11
147.31818519
 21
6.11324706
 31
0.0
  0
LINE
  5
38D
100
AcDbEntity
  8
レイヤー_1
  6
PHANTOM
 62
       3
100
AcDbLine
 10
147.31818519
 20
6.11324706
 30
0.0
 11
147.4389245
 21
6.2155426
 31
0.0
  0
LINE
  5
38E
100
AcDbEntity
  8
レイヤー_1
  6
PHANTOM
 62
       3
100
AcDbLine
 10
147.4389245
 20
6.2155426
 30
0.0
 11
147.56905483
 21
6.30624141
 31
0.0
  0
LINE
  5
38F
100
AcDbEntity
  8
レイヤー_1
  6
PHANTOM
 62
       3
100
AcDbLine
 10
147.56905483
 20
6.30624141
 30
0.0
 11
147.70777052
 21
6.38453784
 31
0.0
  0
LINE
  5
390
100
AcDbEntity
  8
レイヤー_1
  6
PHANTOM
 62
       3
100
AcDbLine
 10
147.70777052
 20
6.38453784
 30
0.0
 11
147.85426594
 21
6.44962626
 31
0.0
  0
LINE
  5
391
100
AcDbEntity
  8
レイヤー_1
  6
PHANTOM
 62
       3
100
AcDbLine
 10
147.85426594
 20
6.44962626
 30
0.0
 11
148.00773544
 21
6.50070102
 31
0.0
  0
LINE
  5
392
100
AcDbEntity
  8
レイヤー_1
  6
PHANTOM
 62
       3
100
AcDbLine
 10
148.00773544
 20
6.50070102
 30
0.0
 11
148.1673734
 21
6.53695649
 31
0.0
  0
LINE
  5
393
100
AcDbEntity
  8
レイヤー_1
  6
PHANTOM
 62
       3
100
AcDbLine
 10
148.1673734
 20
6.53695649
 30
0.0
 11
148.33237416
 21
6.55758702
 31
0.0
  0
LINE
  5
394
100
AcDbEntity
  8
レイヤー_1
  6
PHANTOM
 62
       3
100
AcDbLine
 10
148.33237416
 20
6.55758702
 30
0.0
 11
148.50172356
 21
6.56179118
 31
0.0
  0
LINE
  5
395
100
AcDbEntity
  8
レイヤー_1
  6
PHANTOM
 62
       3
100
AcDbLine
 10
148.50172356
 20
6.56179118
 30
0.0
 11
148.66923442
 21
6.54927523
 31
0.0
  0
LINE
  5
396
100
AcDbEntity
  8
レイヤー_1
  6
PHANTOM
 62
       3
100
AcDbLine
 10
148.66923442
 20
6.54927523
 30
0.0
 11
148.83175067
 21
6.52073152
 31
0.0
  0
LINE
  5
397
100
AcDbEntity
  8
レイヤー_1
  6
PHANTOM
 62
       3
100
AcDbLine
 10
148.83175067
 20
6.52073152
 30
0.0
 11
148.98847028
 21
6.4769657
 31
0.0
  0
LINE
  5
398
100
AcDbEntity
  8
レイヤー_1
  6
PHANTOM
 62
       3
100
AcDbLine
 10
148.98847028
 20
6.4769657
 30
0.0
 11
149.13859123
 21
6.4187834
 31
0.0
  0
LINE
  5
399
100
AcDbEntity
  8
レイヤー_1
  6
PHANTOM
 62
       3
100
AcDbLine
 10
149.13859123
 20
6.4187834
 30
0.0
 11
149.28131149
 21
6.34699027
 31
0.0
  0
LINE
  5
39A
100
AcDbEntity
  8
レイヤー_1
  6
PHANTOM
 62
       3
100
AcDbLine
 10
149.28131149
 20
6.34699027
 30
0.0
 11
149.41582903
 21
6.26239195
 31
0.0
  0
LINE
  5
39B
100
AcDbEntity
  8
レイヤー_1
  6
PHANTOM
 62
       3
100
AcDbLine
 10
149.41582903
 20
6.26239195
 30
0.0
 11
149.54134183
 21
6.16579407
 31
0.0
  0
LINE
  5
39C
100
AcDbEntity
  8
レイヤー_1
  6
PHANTOM
 62
       3
100
AcDbLine
 10
149.54134183
 20
6.16579407
 30
0.0
 11
149.65704785
 21
6.05800227
 31
0.0
  0
LINE
  5
39D
100
AcDbEntity
  8
レイヤー_1
  6
PHANTOM
 62
       3
100
AcDbLine
 10
149.65704785
 20
6.05800227
 30
0.0
 11
149.76214507
 21
5.9398222
 31
0.0
  0
LINE
  5
39E
100
AcDbEntity
  8
レイヤー_1
  6
PHANTOM
 62
       3
100
AcDbLine
 10
149.76214507
 20
5.9398222
 30
0.0
 11
149.85583146
 21
5.8120595
 31
0.0
  0
LINE
  5
39F
100
AcDbEntity
  8
レイヤー_1
  6
PHANTOM
 62
       3
100
AcDbLine
 10
149.85583146
 20
5.8120595
 30
0.0
 11
149.937305
 21
5.67551981
 31
0.0
  0
LINE
  5
3A0
100
AcDbEntity
  8
レイヤー_1
  6
PHANTOM
 62
       3
100
AcDbLine
 10
149.937305
 20
5.67551981
 30
0.0
 11
150.00576365
 21
5.53100876
 31
0.0
  0
LINE
  5
3A1
100
AcDbEntity
  8
レイヤー_1
  6
PHANTOM
 62
       3
100
AcDbLine
 10
150.00576365
 20
5.53100876
 30
0.0
 11
150.06040539
 21
5.379332
 31
0.0
  0
LINE
  5
3A2
100
AcDbEntity
  8
レイヤー_1
  6
PHANTOM
 62
       3
100
AcDbLine
 10
150.06040539
 20
5.379332
 30
0.0
 11
150.10042819
 21
5.22129516
 31
0.0
  0
LINE
  5
3A3
100
AcDbEntity
  8
レイヤー_1
  6
PHANTOM
 62
       3
100
AcDbLine
 10
150.10042819
 20
5.22129516
 30
0.0
 11
150.12503002
 21
5.0577039
 31
0.0
  0
LINE
  5
3A4
100
AcDbEntity
  8
レイヤー_1
  6
PHANTOM
 62
       3
100
AcDbLine
 10
150.12503002
 20
5.0577039
 30
0.0
 11
150.13340886
 21
4.88936384
 31
0.0
  0
LINE
  5
3A5
100
AcDbEntity
  8
レイヤー_1
  6
PHANTOM
 62
       3
100
AcDbLine
 10
142.58550658
 20
5.33893082
 30
0.0
 11
139.34552388
 21
5.33893082
 31
0.0
  0
LINE
  5
3A6
100
AcDbEntity
  8
レイヤー_1
  6
PHANTOM
 62
       3
100
AcDbLine
 10
142.57689418
 20
4.43850501
 30
0.0
 11
139.36447115
 21
4.43850501
 31
0.0
  0
LINE
  5
3A7
100
AcDbEntity
  8
レイヤー_1
  6
PHANTOM
 62
       3
100
AcDbLine
 10
142.63545846
 20
4.88936384
 30
0.0
 11
142.62708003
 21
4.72064556
 31
0.0
  0
LINE
  5
3A8
100
AcDbEntity
  8
レイヤー_1
  6
PHANTOM
 62
       3
100
AcDbLine
 10
142.62708003
 20
4.72064556
 30
0.0
 11
142.602481
 21
4.5567134
 31
0.0
  0
LINE
  5
3A9
100
AcDbEntity
  8
レイヤー_1
  6
PHANTOM
 62
       3
100
AcDbLine
 10
142.602481
 20
4.5567134
 30
0.0
 11
142.56246583
 21
4.39837119
 31
0.0
  0
LINE
  5
3AA
100
AcDbEntity
  8
レイヤー_1
  6
PHANTOM
 62
       3
100
AcDbLine
 10
142.56246583
 20
4.39837119
 30
0.0
 11
142.50783894
 21
4.24642278
 31
0.0
  0
LINE
  5
3AB
100
AcDbEntity
  8
レイヤー_1
  6
PHANTOM
 62
       3
100
AcDbLine
 10
142.50783894
 20
4.24642278
 30
0.0
 11
142.43940478
 21
4.101672
 31
0.0
  0
LINE
  5
3AC
100
AcDbEntity
  8
レイヤー_1
  6
PHANTOM
 62
       3
100
AcDbLine
 10
142.43940478
 20
4.101672
 30
0.0
 11
142.35796777
 21
3.96492267
 31
0.0
  0
LINE
  5
3AD
100
AcDbEntity
  8
レイヤー_1
  6
PHANTOM
 62
       3
100
AcDbLine
 10
142.35796777
 20
3.96492267
 30
0.0
 11
142.26433236
 21
3.83697863
 31
0.0
  0
LINE
  5
3AE
100
AcDbEntity
  8
レイヤー_1
  6
PHANTOM
 62
       3
100
AcDbLine
 10
142.26433236
 20
3.83697863
 30
0.0
 11
142.15930298
 21
3.71864372
 31
0.0
  0
LINE
  5
3AF
100
AcDbEntity
  8
レイヤー_1
  6
PHANTOM
 62
       3
100
AcDbLine
 10
142.15930298
 20
3.71864372
 30
0.0
 11
142.04368407
 21
3.61072178
 31
0.0
  0
LINE
  5
3B0
100
AcDbEntity
  8
レイヤー_1
  6
PHANTOM
 62
       3
100
AcDbLine
 10
142.04368407
 20
3.61072178
 30
0.0
 11
141.91828006
 21
3.51401663
 31
0.0
  0
LINE
  5
3B1
100
AcDbEntity
  8
レイヤー_1
  6
PHANTOM
 62
       3
100
AcDbLine
 10
141.91828006
 20
3.51401663
 30
0.0
 11
141.78389538
 21
3.4293321
 31
0.0
  0
LINE
  5
3B2
100
AcDbEntity
  8
レイヤー_1
  6
PHANTOM
 62
       3
100
AcDbLine
 10
141.78389538
 20
3.4293321
 30
0.0
 11
141.64133449
 21
3.35747204
 31
0.0
  0
LINE
  5
3B3
100
AcDbEntity
  8
レイヤー_1
  6
PHANTOM
 62
       3
100
AcDbLine
 10
141.64133449
 20
3.35747204
 30
0.0
 11
141.4914018
 21
3.29924028
 31
0.0
  0
LINE
  5
3B4
100
AcDbEntity
  8
レイヤー_1
  6
PHANTOM
 62
       3
100
AcDbLine
 10
141.4914018
 20
3.29924028
 30
0.0
 11
141.33490176
 21
3.25544064
 31
0.0
  0
LINE
  5
3B5
100
AcDbEntity
  8
レイヤー_1
  6
PHANTOM
 62
       3
100
AcDbLine
 10
141.33490176
 20
3.25544064
 30
0.0
 11
141.1726388
 21
3.22687697
 31
0.0
  0
LINE
  5
3B6
100
AcDbEntity
  8
レイヤー_1
  6
PHANTOM
 62
       3
100
AcDbLine
 10
141.1726388
 20
3.22687697
 30
0.0
 11
141.00541736
 21
3.2143531
 31
0.0
  0
LINE
  5
3B7
100
AcDbEntity
  8
レイヤー_1
  6
PHANTOM
 62
       3
100
AcDbLine
 10
141.00541736
 20
3.2143531
 30
0.0
 11
140.83614624
 21
3.21855982
 31
0.0
  0
LINE
  5
3B8
100
AcDbEntity
  8
レイヤー_1
  6
PHANTOM
 62
       3
100
AcDbLine
 10
140.83614624
 20
3.21855982
 30
0.0
 11
140.67114548
 21
3.23920407
 31
0.0
  0
LINE
  5
3B9
100
AcDbEntity
  8
レイヤー_1
  6
PHANTOM
 62
       3
100
AcDbLine
 10
140.67114548
 20
3.23920407
 30
0.0
 11
140.51150753
 21
3.2754862
 31
0.0
  0
LINE
  5
3BA
100
AcDbEntity
  8
レイヤー_1
  6
PHANTOM
 62
       3
100
AcDbLine
 10
140.51150753
 20
3.2754862
 30
0.0
 11
140.35803802
 21
3.32660238
 31
0.0
  0
LINE
  5
3BB
100
AcDbEntity
  8
レイヤー_1
  6
PHANTOM
 62
       3
100
AcDbLine
 10
140.35803802
 20
3.32660238
 30
0.0
 11
140.21154261
 21
3.39174877
 31
0.0
  0
LINE
  5
3BC
100
AcDbEntity
  8
レイヤー_1
  6
PHANTOM
 62
       3
100
AcDbLine
 10
140.21154261
 20
3.39174877
 30
0.0
 11
140.07282691
 21
3.47012155
 31
0.0
  0
LINE
  5
3BD
100
AcDbEntity
  8
レイヤー_1
  6
PHANTOM
 62
       3
100
AcDbLine
 10
140.07282691
 20
3.47012155
 30
0.0
 11
139.94269659
 21
3.56091686
 31
0.0
  0
LINE
  5
3BE
100
AcDbEntity
  8
レイヤー_1
  6
PHANTOM
 62
       3
100
AcDbLine
 10
139.94269659
 20
3.56091686
 30
0.0
 11
139.82195727
 21
3.66333089
 31
0.0
  0
LINE
  5
3BF
100
AcDbEntity
  8
レイヤー_1
  6
PHANTOM
 62
       3
100
AcDbLine
 10
139.82195727
 20
3.66333089
 30
0.0
 11
139.71141461
 21
3.7765598
 31
0.0
  0
LINE
  5
3C0
100
AcDbEntity
  8
レイヤー_1
  6
PHANTOM
 62
       3
100
AcDbLine
 10
139.71141461
 20
3.7765598
 30
0.0
 11
139.61187423
 21
3.89979975
 31
0.0
  0
LINE
  5
3C1
100
AcDbEntity
  8
レイヤー_1
  6
PHANTOM
 62
       3
100
AcDbLine
 10
139.61187423
 20
3.89979975
 30
0.0
 11
139.52414178
 21
4.03224691
 31
0.0
  0
LINE
  5
3C2
100
AcDbEntity
  8
レイヤー_1
  6
PHANTOM
 62
       3
100
AcDbLine
 10
139.52414178
 20
4.03224691
 30
0.0
 11
139.4490229
 21
4.17309745
 31
0.0
  0
LINE
  5
3C3
100
AcDbEntity
  8
レイヤー_1
  6
PHANTOM
 62
       3
100
AcDbLine
 10
139.4490229
 20
4.17309745
 30
0.0
 11
139.38732322
 21
4.32154752
 31
0.0
  0
LINE
  5
3C4
100
AcDbEntity
  8
レイヤー_1
  6
PHANTOM
 62
       3
100
AcDbLine
 10
139.38732322
 20
4.32154752
 30
0.0
 11
139.3398484
 21
4.47679331
 31
0.0
  0
LINE
  5
3C5
100
AcDbEntity
  8
レイヤー_1
  6
PHANTOM
 62
       3
100
AcDbLine
 10
139.3398484
 20
4.47679331
 30
0.0
 11
139.30740407
 21
4.63803097
 31
0.0
  0
LINE
  5
3C6
100
AcDbEntity
  8
レイヤー_1
  6
PHANTOM
 62
       3
100
AcDbLine
 10
139.30740407
 20
4.63803097
 30
0.0
 11
139.29079587
 21
4.80445667
 31
0.0
  0
LINE
  5
3C7
100
AcDbEntity
  8
レイヤー_1
  6
PHANTOM
 62
       3
100
AcDbLine
 10
139.29079587
 20
4.80445667
 30
0.0
 11
139.29079587
 21
4.97407712
 31
0.0
  0
LINE
  5
3C8
100
AcDbEntity
  8
レイヤー_1
  6
PHANTOM
 62
       3
100
AcDbLine
 10
139.29079587
 20
4.97407712
 30
0.0
 11
139.30740407
 21
5.14014348
 31
0.0
  0
LINE
  5
3C9
100
AcDbEntity
  8
レイヤー_1
  6
PHANTOM
 62
       3
100
AcDbLine
 10
139.30740407
 20
5.14014348
 30
0.0
 11
139.3398484
 21
5.30105824
 31
0.0
  0
LINE
  5
3CA
100
AcDbEntity
  8
レイヤー_1
  6
PHANTOM
 62
       3
100
AcDbLine
 10
139.3398484
 20
5.30105824
 30
0.0
 11
139.38732322
 21
5.45601574
 31
0.0
  0
LINE
  5
3CB
100
AcDbEntity
  8
レイヤー_1
  6
PHANTOM
 62
       3
100
AcDbLine
 10
139.38732322
 20
5.45601574
 30
0.0
 11
139.4490229
 21
5.60421035
 31
0.0
  0
LINE
  5
3CC
100
AcDbEntity
  8
レイヤー_1
  6
PHANTOM
 62
       3
100
AcDbLine
 10
139.4490229
 20
5.60421035
 30
0.0
 11
139.52414178
 21
5.74483643
 31
0.0
  0
LINE
  5
3CD
100
AcDbEntity
  8
レイヤー_1
  6
PHANTOM
 62
       3
100
AcDbLine
 10
139.52414178
 20
5.74483643
 30
0.0
 11
139.61187423
 21
5.87708833
 31
0.0
  0
LINE
  5
3CE
100
AcDbEntity
  8
レイヤー_1
  6
PHANTOM
 62
       3
100
AcDbLine
 10
139.61187423
 20
5.87708833
 30
0.0
 11
139.71141461
 21
6.00016042
 31
0.0
  0
LINE
  5
3CF
100
AcDbEntity
  8
レイヤー_1
  6
PHANTOM
 62
       3
100
AcDbLine
 10
139.71141461
 20
6.00016042
 30
0.0
 11
139.82195727
 21
6.11324706
 31
0.0
  0
LINE
  5
3D0
100
AcDbEntity
  8
レイヤー_1
  6
PHANTOM
 62
       3
100
AcDbLine
 10
139.82195727
 20
6.11324706
 30
0.0
 11
139.94269659
 21
6.2155426
 31
0.0
  0
LINE
  5
3D1
100
AcDbEntity
  8
レイヤー_1
  6
PHANTOM
 62
       3
100
AcDbLine
 10
139.94269659
 20
6.2155426
 30
0.0
 11
140.07282691
 21
6.30624141
 31
0.0
  0
LINE
  5
3D2
100
AcDbEntity
  8
レイヤー_1
  6
PHANTOM
 62
       3
100
AcDbLine
 10
140.07282691
 20
6.30624141
 30
0.0
 11
140.21154261
 21
6.38453784
 31
0.0
  0
LINE
  5
3D3
100
AcDbEntity
  8
レイヤー_1
  6
PHANTOM
 62
       3
100
AcDbLine
 10
140.21154261
 20
6.38453784
 30
0.0
 11
140.35803802
 21
6.44962626
 31
0.0
  0
LINE
  5
3D4
100
AcDbEntity
  8
レイヤー_1
  6
PHANTOM
 62
       3
100
AcDbLine
 10
140.35803802
 20
6.44962626
 30
0.0
 11
140.51150753
 21
6.50070102
 31
0.0
  0
LINE
  5
3D5
100
AcDbEntity
  8
レイヤー_1
  6
PHANTOM
 62
       3
100
AcDbLine
 10
140.51150753
 20
6.50070102
 30
0.0
 11
140.67114548
 21
6.53695649
 31
0.0
  0
LINE
  5
3D6
100
AcDbEntity
  8
レイヤー_1
  6
PHANTOM
 62
       3
100
AcDbLine
 10
140.67114548
 20
6.53695649
 30
0.0
 11
140.83614624
 21
6.55758702
 31
0.0
  0
LINE
  5
3D7
100
AcDbEntity
  8
レイヤー_1
  6
PHANTOM
 62
       3
100
AcDbLine
 10
140.83614624
 20
6.55758702
 30
0.0
 11
141.00541736
 21
6.56179118
 31
0.0
  0
LINE
  5
3D8
100
AcDbEntity
  8
レイヤー_1
  6
PHANTOM
 62
       3
100
AcDbLine
 10
141.00541736
 20
6.56179118
 30
0.0
 11
141.1726388
 21
6.54927523
 31
0.0
  0
LINE
  5
3D9
100
AcDbEntity
  8
レイヤー_1
  6
PHANTOM
 62
       3
100
AcDbLine
 10
141.1726388
 20
6.54927523
 30
0.0
 11
141.33490176
 21
6.52073152
 31
0.0
  0
LINE
  5
3DA
100
AcDbEntity
  8
レイヤー_1
  6
PHANTOM
 62
       3
100
AcDbLine
 10
141.33490176
 20
6.52073152
 30
0.0
 11
141.4914018
 21
6.4769657
 31
0.0
  0
LINE
  5
3DB
100
AcDbEntity
  8
レイヤー_1
  6
PHANTOM
 62
       3
100
AcDbLine
 10
141.4914018
 20
6.4769657
 30
0.0
 11
141.64133449
 21
6.4187834
 31
0.0
  0
LINE
  5
3DC
100
AcDbEntity
  8
レイヤー_1
  6
PHANTOM
 62
       3
100
AcDbLine
 10
141.64133449
 20
6.4187834
 30
0.0
 11
141.78389538
 21
6.34699027
 31
0.0
  0
LINE
  5
3DD
100
AcDbEntity
  8
レイヤー_1
  6
PHANTOM
 62
       3
100
AcDbLine
 10
141.78389538
 20
6.34699027
 30
0.0
 11
141.91828006
 21
6.26239195
 31
0.0
  0
LINE
  5
3DE
100
AcDbEntity
  8
レイヤー_1
  6
PHANTOM
 62
       3
100
AcDbLine
 10
141.91828006
 20
6.26239195
 30
0.0
 11
142.04368407
 21
6.16579407
 31
0.0
  0
LINE
  5
3DF
100
AcDbEntity
  8
レイヤー_1
  6
PHANTOM
 62
       3
100
AcDbLine
 10
142.04368407
 20
6.16579407
 30
0.0
 11
142.15930298
 21
6.05800227
 31
0.0
  0
LINE
  5
3E0
100
AcDbEntity
  8
レイヤー_1
  6
PHANTOM
 62
       3
100
AcDbLine
 10
142.15930298
 20
6.05800227
 30
0.0
 11
142.26433236
 21
5.9398222
 31
0.0
  0
LINE
  5
3E1
100
AcDbEntity
  8
レイヤー_1
  6
PHANTOM
 62
       3
100
AcDbLine
 10
142.26433236
 20
5.9398222
 30
0.0
 11
142.35796777
 21
5.8120595
 31
0.0
  0
LINE
  5
3E2
100
AcDbEntity
  8
レイヤー_1
  6
PHANTOM
 62
       3
100
AcDbLine
 10
142.35796777
 20
5.8120595
 30
0.0
 11
142.43940478
 21
5.67551981
 31
0.0
  0
LINE
  5
3E3
100
AcDbEntity
  8
レイヤー_1
  6
PHANTOM
 62
       3
100
AcDbLine
 10
142.43940478
 20
5.67551981
 30
0.0
 11
142.50783894
 21
5.53100876
 31
0.0
  0
LINE
  5
3E4
100
AcDbEntity
  8
レイヤー_1
  6
PHANTOM
 62
       3
100
AcDbLine
 10
142.50783894
 20
5.53100876
 30
0.0
 11
142.56246583
 21
5.379332
 31
0.0
  0
LINE
  5
3E5
100
AcDbEntity
  8
レイヤー_1
  6
PHANTOM
 62
       3
100
AcDbLine
 10
142.56246583
 20
5.379332
 30
0.0
 11
142.602481
 21
5.22129516
 31
0.0
  0
LINE
  5
3E6
100
AcDbEntity
  8
レイヤー_1
  6
PHANTOM
 62
       3
100
AcDbLine
 10
142.602481
 20
5.22129516
 30
0.0
 11
142.62708003
 21
5.0577039
 31
0.0
  0
LINE
  5
3E7
100
AcDbEntity
  8
レイヤー_1
  6
PHANTOM
 62
       3
100
AcDbLine
 10
142.62708003
 20
5.0577039
 30
0.0
 11
142.63545846
 21
4.88936384
 31
0.0
  0
LINE
  5
3E8
100
AcDbEntity
  8
レイヤー_1
  6
PHANTOM
 62
       3
100
AcDbLine
 10
135.08755618
 20
5.33893082
 30
0.0
 11
131.84843472
 21
5.33893082
 31
0.0
  0
LINE
  5
3E9
100
AcDbEntity
  8
レイヤー_1
  6
PHANTOM
 62
       3
100
AcDbLine
 10
135.07894379
 20
4.43850501
 30
0.0
 11
131.86652075
 21
4.43850501
 31
0.0
  0
LINE
  5
3EA
100
AcDbEntity
  8
レイヤー_1
  6
PHANTOM
 62
       3
100
AcDbLine
 10
135.13750807
 20
4.88936384
 30
0.0
 11
135.12912963
 21
4.72064556
 31
0.0
  0
LINE
  5
3EB
100
AcDbEntity
  8
レイヤー_1
  6
PHANTOM
 62
       3
100
AcDbLine
 10
135.12912963
 20
4.72064556
 30
0.0
 11
135.10453061
 21
4.5567134
 31
0.0
  0
LINE
  5
3EC
100
AcDbEntity
  8
レイヤー_1
  6
PHANTOM
 62
       3
100
AcDbLine
 10
135.10453061
 20
4.5567134
 30
0.0
 11
135.06451544
 21
4.39837119
 31
0.0
  0
LINE
  5
3ED
100
AcDbEntity
  8
レイヤー_1
  6
PHANTOM
 62
       3
100
AcDbLine
 10
135.06451544
 20
4.39837119
 30
0.0
 11
135.00988855
 21
4.24642278
 31
0.0
  0
LINE
  5
3EE
100
AcDbEntity
  8
レイヤー_1
  6
PHANTOM
 62
       3
100
AcDbLine
 10
135.00988855
 20
4.24642278
 30
0.0
 11
134.94145438
 21
4.101672
 31
0.0
  0
LINE
  5
3EF
100
AcDbEntity
  8
レイヤー_1
  6
PHANTOM
 62
       3
100
AcDbLine
 10
134.94145438
 20
4.101672
 30
0.0
 11
134.86001738
 21
3.96492267
 31
0.0
  0
LINE
  5
3F0
100
AcDbEntity
  8
レイヤー_1
  6
PHANTOM
 62
       3
100
AcDbLine
 10
134.86001738
 20
3.96492267
 30
0.0
 11
134.76638197
 21
3.83697863
 31
0.0
  0
LINE
  5
3F1
100
AcDbEntity
  8
レイヤー_1
  6
PHANTOM
 62
       3
100
AcDbLine
 10
134.76638197
 20
3.83697863
 30
0.0
 11
134.66135259
 21
3.71864372
 31
0.0
  0
LINE
  5
3F2
100
AcDbEntity
  8
レイヤー_1
  6
PHANTOM
 62
       3
100
AcDbLine
 10
134.66135259
 20
3.71864372
 30
0.0
 11
134.54573367
 21
3.61072178
 31
0.0
  0
LINE
  5
3F3
100
AcDbEntity
  8
レイヤー_1
  6
PHANTOM
 62
       3
100
AcDbLine
 10
134.54573367
 20
3.61072178
 30
0.0
 11
134.42032966
 21
3.51401663
 31
0.0
  0
LINE
  5
3F4
100
AcDbEntity
  8
レイヤー_1
  6
PHANTOM
 62
       3
100
AcDbLine
 10
134.42032966
 20
3.51401663
 30
0.0
 11
134.28594499
 21
3.4293321
 31
0.0
  0
LINE
  5
3F5
100
AcDbEntity
  8
レイヤー_1
  6
PHANTOM
 62
       3
100
AcDbLine
 10
134.28594499
 20
3.4293321
 30
0.0
 11
134.14338409
 21
3.35747204
 31
0.0
  0
LINE
  5
3F6
100
AcDbEntity
  8
レイヤー_1
  6
PHANTOM
 62
       3
100
AcDbLine
 10
134.14338409
 20
3.35747204
 30
0.0
 11
133.99345141
 21
3.29924028
 31
0.0
  0
LINE
  5
3F7
100
AcDbEntity
  8
レイヤー_1
  6
PHANTOM
 62
       3
100
AcDbLine
 10
133.99345141
 20
3.29924028
 30
0.0
 11
133.83695136
 21
3.25544064
 31
0.0
  0
LINE
  5
3F8
100
AcDbEntity
  8
レイヤー_1
  6
PHANTOM
 62
       3
100
AcDbLine
 10
133.83695136
 20
3.25544064
 30
0.0
 11
133.67468841
 21
3.22687697
 31
0.0
  0
LINE
  5
3F9
100
AcDbEntity
  8
レイヤー_1
  6
PHANTOM
 62
       3
100
AcDbLine
 10
133.67468841
 20
3.22687697
 30
0.0
 11
133.50746697
 21
3.2143531
 31
0.0
  0
LINE
  5
3FA
100
AcDbEntity
  8
レイヤー_1
  6
PHANTOM
 62
       3
100
AcDbLine
 10
133.50746697
 20
3.2143531
 30
0.0
 11
133.33819585
 21
3.21855982
 31
0.0
  0
LINE
  5
3FB
100
AcDbEntity
  8
レイヤー_1
  6
PHANTOM
 62
       3
100
AcDbLine
 10
133.33819585
 20
3.21855982
 30
0.0
 11
133.17319509
 21
3.23920407
 31
0.0
  0
LINE
  5
3FC
100
AcDbEntity
  8
レイヤー_1
  6
PHANTOM
 62
       3
100
AcDbLine
 10
133.17319509
 20
3.23920407
 30
0.0
 11
133.01355714
 21
3.2754862
 31
0.0
  0
LINE
  5
3FD
100
AcDbEntity
  8
レイヤー_1
  6
PHANTOM
 62
       3
100
AcDbLine
 10
133.01355714
 20
3.2754862
 30
0.0
 11
132.86008763
 21
3.32660238
 31
0.0
  0
LINE
  5
3FE
100
AcDbEntity
  8
レイヤー_1
  6
PHANTOM
 62
       3
100
AcDbLine
 10
132.86008763
 20
3.32660238
 30
0.0
 11
132.71359221
 21
3.39174877
 31
0.0
  0
LINE
  5
3FF
100
AcDbEntity
  8
レイヤー_1
  6
PHANTOM
 62
       3
100
AcDbLine
 10
132.71359221
 20
3.39174877
 30
0.0
 11
132.57487652
 21
3.47012155
 31
0.0
  0
LINE
  5
400
100
AcDbEntity
  8
レイヤー_1
  6
PHANTOM
 62
       3
100
AcDbLine
 10
132.57487652
 20
3.47012155
 30
0.0
 11
132.4447462
 21
3.56091686
 31
0.0
  0
LINE
  5
401
100
AcDbEntity
  8
レイヤー_1
  6
PHANTOM
 62
       3
100
AcDbLine
 10
132.4447462
 20
3.56091686
 30
0.0
 11
132.32400688
 21
3.66333089
 31
0.0
  0
LINE
  5
402
100
AcDbEntity
  8
レイヤー_1
  6
PHANTOM
 62
       3
100
AcDbLine
 10
132.32400688
 20
3.66333089
 30
0.0
 11
132.21346421
 21
3.7765598
 31
0.0
  0
LINE
  5
403
100
AcDbEntity
  8
レイヤー_1
  6
PHANTOM
 62
       3
100
AcDbLine
 10
132.21346421
 20
3.7765598
 30
0.0
 11
132.11392383
 21
3.89979975
 31
0.0
  0
LINE
  5
404
100
AcDbEntity
  8
レイヤー_1
  6
PHANTOM
 62
       3
100
AcDbLine
 10
132.11392383
 20
3.89979975
 30
0.0
 11
132.02619138
 21
4.03224691
 31
0.0
  0
LINE
  5
405
100
AcDbEntity
  8
レイヤー_1
  6
PHANTOM
 62
       3
100
AcDbLine
 10
132.02619138
 20
4.03224691
 30
0.0
 11
131.9510725
 21
4.17309745
 31
0.0
  0
LINE
  5
406
100
AcDbEntity
  8
レイヤー_1
  6
PHANTOM
 62
       3
100
AcDbLine
 10
131.9510725
 20
4.17309745
 30
0.0
 11
131.88937283
 21
4.32154752
 31
0.0
  0
LINE
  5
407
100
AcDbEntity
  8
レイヤー_1
  6
PHANTOM
 62
       3
100
AcDbLine
 10
131.88937283
 20
4.32154752
 30
0.0
 11
131.84189801
 21
4.47679331
 31
0.0
  0
LINE
  5
408
100
AcDbEntity
  8
レイヤー_1
  6
PHANTOM
 62
       3
100
AcDbLine
 10
131.84189801
 20
4.47679331
 30
0.0
 11
131.80945368
 21
4.63803097
 31
0.0
  0
LINE
  5
409
100
AcDbEntity
  8
レイヤー_1
  6
PHANTOM
 62
       3
100
AcDbLine
 10
131.80945368
 20
4.63803097
 30
0.0
 11
131.79284547
 21
4.80445667
 31
0.0
  0
LINE
  5
40A
100
AcDbEntity
  8
レイヤー_1
  6
PHANTOM
 62
       3
100
AcDbLine
 10
131.79284547
 20
4.80445667
 30
0.0
 11
131.79284547
 21
4.97407712
 31
0.0
  0
LINE
  5
40B
100
AcDbEntity
  8
レイヤー_1
  6
PHANTOM
 62
       3
100
AcDbLine
 10
131.79284547
 20
4.97407712
 30
0.0
 11
131.80945368
 21
5.14014348
 31
0.0
  0
LINE
  5
40C
100
AcDbEntity
  8
レイヤー_1
  6
PHANTOM
 62
       3
100
AcDbLine
 10
131.80945368
 20
5.14014348
 30
0.0
 11
131.84189801
 21
5.30105824
 31
0.0
  0
LINE
  5
40D
100
AcDbEntity
  8
レイヤー_1
  6
PHANTOM
 62
       3
100
AcDbLine
 10
131.84189801
 20
5.30105824
 30
0.0
 11
131.88937283
 21
5.45601574
 31
0.0
  0
LINE
  5
40E
100
AcDbEntity
  8
レイヤー_1
  6
PHANTOM
 62
       3
100
AcDbLine
 10
131.88937283
 20
5.45601574
 30
0.0
 11
131.9510725
 21
5.60421035
 31
0.0
  0
LINE
  5
40F
100
AcDbEntity
  8
レイヤー_1
  6
PHANTOM
 62
       3
100
AcDbLine
 10
131.9510725
 20
5.60421035
 30
0.0
 11
132.02619138
 21
5.74483643
 31
0.0
  0
LINE
  5
410
100
AcDbEntity
  8
レイヤー_1
  6
PHANTOM
 62
       3
100
AcDbLine
 10
132.02619138
 20
5.74483643
 30
0.0
 11
132.11392383
 21
5.87708833
 31
0.0
  0
LINE
  5
411
100
AcDbEntity
  8
レイヤー_1
  6
PHANTOM
 62
       3
100
AcDbLine
 10
132.11392383
 20
5.87708833
 30
0.0
 11
132.21346421
 21
6.00016042
 31
0.0
  0
LINE
  5
412
100
AcDbEntity
  8
レイヤー_1
  6
PHANTOM
 62
       3
100
AcDbLine
 10
132.21346421
 20
6.00016042
 30
0.0
 11
132.32400688
 21
6.11324706
 31
0.0
  0
LINE
  5
413
100
AcDbEntity
  8
レイヤー_1
  6
PHANTOM
 62
       3
100
AcDbLine
 10
132.32400688
 20
6.11324706
 30
0.0
 11
132.4447462
 21
6.2155426
 31
0.0
  0
LINE
  5
414
100
AcDbEntity
  8
レイヤー_1
  6
PHANTOM
 62
       3
100
AcDbLine
 10
132.4447462
 20
6.2155426
 30
0.0
 11
132.57487652
 21
6.30624141
 31
0.0
  0
LINE
  5
415
100
AcDbEntity
  8
レイヤー_1
  6
PHANTOM
 62
       3
100
AcDbLine
 10
132.57487652
 20
6.30624141
 30
0.0
 11
132.71359221
 21
6.38453784
 31
0.0
  0
LINE
  5
416
100
AcDbEntity
  8
レイヤー_1
  6
PHANTOM
 62
       3
100
AcDbLine
 10
132.71359221
 20
6.38453784
 30
0.0
 11
132.86008763
 21
6.44962626
 31
0.0
  0
LINE
  5
417
100
AcDbEntity
  8
レイヤー_1
  6
PHANTOM
 62
       3
100
AcDbLine
 10
132.86008763
 20
6.44962626
 30
0.0
 11
133.01355714
 21
6.50070102
 31
0.0
  0
LINE
  5
418
100
AcDbEntity
  8
レイヤー_1
  6
PHANTOM
 62
       3
100
AcDbLine
 10
133.01355714
 20
6.50070102
 30
0.0
 11
133.17319509
 21
6.53695649
 31
0.0
  0
LINE
  5
419
100
AcDbEntity
  8
レイヤー_1
  6
PHANTOM
 62
       3
100
AcDbLine
 10
133.17319509
 20
6.53695649
 30
0.0
 11
133.33819585
 21
6.55758702
 31
0.0
  0
LINE
  5
41A
100
AcDbEntity
  8
レイヤー_1
  6
PHANTOM
 62
       3
100
AcDbLine
 10
133.33819585
 20
6.55758702
 30
0.0
 11
133.50746697
 21
6.56179118
 31
0.0
  0
LINE
  5
41B
100
AcDbEntity
  8
レイヤー_1
  6
PHANTOM
 62
       3
100
AcDbLine
 10
133.50746697
 20
6.56179118
 30
0.0
 11
133.67468841
 21
6.54927523
 31
0.0
  0
LINE
  5
41C
100
AcDbEntity
  8
レイヤー_1
  6
PHANTOM
 62
       3
100
AcDbLine
 10
133.67468841
 20
6.54927523
 30
0.0
 11
133.83695136
 21
6.52073152
 31
0.0
  0
LINE
  5
41D
100
AcDbEntity
  8
レイヤー_1
  6
PHANTOM
 62
       3
100
AcDbLine
 10
133.83695136
 20
6.52073152
 30
0.0
 11
133.99345141
 21
6.4769657
 31
0.0
  0
LINE
  5
41E
100
AcDbEntity
  8
レイヤー_1
  6
PHANTOM
 62
       3
100
AcDbLine
 10
133.99345141
 20
6.4769657
 30
0.0
 11
134.14338409
 21
6.4187834
 31
0.0
  0
LINE
  5
41F
100
AcDbEntity
  8
レイヤー_1
  6
PHANTOM
 62
       3
100
AcDbLine
 10
134.14338409
 20
6.4187834
 30
0.0
 11
134.28594499
 21
6.34699027
 31
0.0
  0
LINE
  5
420
100
AcDbEntity
  8
レイヤー_1
  6
PHANTOM
 62
       3
100
AcDbLine
 10
134.28594499
 20
6.34699027
 30
0.0
 11
134.42032966
 21
6.26239195
 31
0.0
  0
LINE
  5
421
100
AcDbEntity
  8
レイヤー_1
  6
PHANTOM
 62
       3
100
AcDbLine
 10
134.42032966
 20
6.26239195
 30
0.0
 11
134.54573367
 21
6.16579407
 31
0.0
  0
LINE
  5
422
100
AcDbEntity
  8
レイヤー_1
  6
PHANTOM
 62
       3
100
AcDbLine
 10
134.54573367
 20
6.16579407
 30
0.0
 11
134.66135259
 21
6.05800227
 31
0.0
  0
LINE
  5
423
100
AcDbEntity
  8
レイヤー_1
  6
PHANTOM
 62
       3
100
AcDbLine
 10
134.66135259
 20
6.05800227
 30
0.0
 11
134.76638197
 21
5.9398222
 31
0.0
  0
LINE
  5
424
100
AcDbEntity
  8
レイヤー_1
  6
PHANTOM
 62
       3
100
AcDbLine
 10
134.76638197
 20
5.9398222
 30
0.0
 11
134.86001738
 21
5.8120595
 31
0.0
  0
LINE
  5
425
100
AcDbEntity
  8
レイヤー_1
  6
PHANTOM
 62
       3
100
AcDbLine
 10
134.86001738
 20
5.8120595
 30
0.0
 11
134.94145438
 21
5.67551981
 31
0.0
  0
LINE
  5
426
100
AcDbEntity
  8
レイヤー_1
  6
PHANTOM
 62
       3
100
AcDbLine
 10
134.94145438
 20
5.67551981
 30
0.0
 11
135.00988855
 21
5.53100876
 31
0.0
  0
LINE
  5
427
100
AcDbEntity
  8
レイヤー_1
  6
PHANTOM
 62
       3
100
AcDbLine
 10
135.00988855
 20
5.53100876
 30
0.0
 11
135.06451544
 21
5.379332
 31
0.0
  0
LINE
  5
428
100
AcDbEntity
  8
レイヤー_1
  6
PHANTOM
 62
       3
100
AcDbLine
 10
135.06451544
 20
5.379332
 30
0.0
 11
135.10453061
 21
5.22129516
 31
0.0
  0
LINE
  5
429
100
AcDbEntity
  8
レイヤー_1
  6
PHANTOM
 62
       3
100
AcDbLine
 10
135.10453061
 20
5.22129516
 30
0.0
 11
135.12912963
 21
5.0577039
 31
0.0
  0
LINE
  5
42A
100
AcDbEntity
  8
レイヤー_1
  6
PHANTOM
 62
       3
100
AcDbLine
 10
135.12912963
 20
5.0577039
 30
0.0
 11
135.13750807
 21
4.88936384
 31
0.0
  0
LINE
  5
42B
100
AcDbEntity
  8
レイヤー_1
  6
PHANTOM
 62
       3
100
AcDbLine
 10
135.08755618
 20
5.33893082
 30
0.0
 11
131.84843472
 21
5.33893082
 31
0.0
  0
LINE
  5
42C
100
AcDbEntity
  8
レイヤー_1
  6
PHANTOM
 62
       3
100
AcDbLine
 10
135.07894379
 20
4.43850501
 30
0.0
 11
131.86652075
 21
4.43850501
 31
0.0
  0
LINE
  5
42D
100
AcDbEntity
  8
レイヤー_1
  6
PHANTOM
 62
       3
100
AcDbLine
 10
135.13750807
 20
4.88936384
 30
0.0
 11
135.12912963
 21
4.72064556
 31
0.0
  0
LINE
  5
42E
100
AcDbEntity
  8
レイヤー_1
  6
PHANTOM
 62
       3
100
AcDbLine
 10
135.12912963
 20
4.72064556
 30
0.0
 11
135.10453061
 21
4.5567134
 31
0.0
  0
LINE
  5
42F
100
AcDbEntity
  8
レイヤー_1
  6
PHANTOM
 62
       3
100
AcDbLine
 10
135.10453061
 20
4.5567134
 30
0.0
 11
135.06451544
 21
4.39837119
 31
0.0
  0
LINE
  5
430
100
AcDbEntity
  8
レイヤー_1
  6
PHANTOM
 62
       3
100
AcDbLine
 10
135.06451544
 20
4.39837119
 30
0.0
 11
135.00988855
 21
4.24642278
 31
0.0
  0
LINE
  5
431
100
AcDbEntity
  8
レイヤー_1
  6
PHANTOM
 62
       3
100
AcDbLine
 10
135.00988855
 20
4.24642278
 30
0.0
 11
134.94145438
 21
4.101672
 31
0.0
  0
LINE
  5
432
100
AcDbEntity
  8
レイヤー_1
  6
PHANTOM
 62
       3
100
AcDbLine
 10
134.94145438
 20
4.101672
 30
0.0
 11
134.86001738
 21
3.96492267
 31
0.0
  0
LINE
  5
433
100
AcDbEntity
  8
レイヤー_1
  6
PHANTOM
 62
       3
100
AcDbLine
 10
134.86001738
 20
3.96492267
 30
0.0
 11
134.76638197
 21
3.83697863
 31
0.0
  0
LINE
  5
434
100
AcDbEntity
  8
レイヤー_1
  6
PHANTOM
 62
       3
100
AcDbLine
 10
134.76638197
 20
3.83697863
 30
0.0
 11
134.66135259
 21
3.71864372
 31
0.0
  0
LINE
  5
435
100
AcDbEntity
  8
レイヤー_1
  6
PHANTOM
 62
       3
100
AcDbLine
 10
134.66135259
 20
3.71864372
 30
0.0
 11
134.54573367
 21
3.61072178
 31
0.0
  0
LINE
  5
436
100
AcDbEntity
  8
レイヤー_1
  6
PHANTOM
 62
       3
100
AcDbLine
 10
134.54573367
 20
3.61072178
 30
0.0
 11
134.42032966
 21
3.51401663
 31
0.0
  0
LINE
  5
437
100
AcDbEntity
  8
レイヤー_1
  6
PHANTOM
 62
       3
100
AcDbLine
 10
134.42032966
 20
3.51401663
 30
0.0
 11
134.28594499
 21
3.4293321
 31
0.0
  0
LINE
  5
438
100
AcDbEntity
  8
レイヤー_1
  6
PHANTOM
 62
       3
100
AcDbLine
 10
134.28594499
 20
3.4293321
 30
0.0
 11
134.14338409
 21
3.35747204
 31
0.0
  0
LINE
  5
439
100
AcDbEntity
  8
レイヤー_1
  6
PHANTOM
 62
       3
100
AcDbLine
 10
134.14338409
 20
3.35747204
 30
0.0
 11
133.99345141
 21
3.29924028
 31
0.0
  0
LINE
  5
43A
100
AcDbEntity
  8
レイヤー_1
  6
PHANTOM
 62
       3
100
AcDbLine
 10
133.99345141
 20
3.29924028
 30
0.0
 11
133.83695136
 21
3.25544064
 31
0.0
  0
LINE
  5
43B
100
AcDbEntity
  8
レイヤー_1
  6
PHANTOM
 62
       3
100
AcDbLine
 10
133.83695136
 20
3.25544064
 30
0.0
 11
133.67468841
 21
3.22687697
 31
0.0
  0
LINE
  5
43C
100
AcDbEntity
  8
レイヤー_1
  6
PHANTOM
 62
       3
100
AcDbLine
 10
133.67468841
 20
3.22687697
 30
0.0
 11
133.50746697
 21
3.2143531
 31
0.0
  0
LINE
  5
43D
100
AcDbEntity
  8
レイヤー_1
  6
PHANTOM
 62
       3
100
AcDbLine
 10
133.50746697
 20
3.2143531
 30
0.0
 11
133.33819585
 21
3.21855982
 31
0.0
  0
LINE
  5
43E
100
AcDbEntity
  8
レイヤー_1
  6
PHANTOM
 62
       3
100
AcDbLine
 10
133.33819585
 20
3.21855982
 30
0.0
 11
133.17319509
 21
3.23920407
 31
0.0
  0
LINE
  5
43F
100
AcDbEntity
  8
レイヤー_1
  6
PHANTOM
 62
       3
100
AcDbLine
 10
133.17319509
 20
3.23920407
 30
0.0
 11
133.01355714
 21
3.2754862
 31
0.0
  0
LINE
  5
440
100
AcDbEntity
  8
レイヤー_1
  6
PHANTOM
 62
       3
100
AcDbLine
 10
133.01355714
 20
3.2754862
 30
0.0
 11
132.86008763
 21
3.32660238
 31
0.0
  0
LINE
  5
441
100
AcDbEntity
  8
レイヤー_1
  6
PHANTOM
 62
       3
100
AcDbLine
 10
132.86008763
 20
3.32660238
 30
0.0
 11
132.71359221
 21
3.39174877
 31
0.0
  0
LINE
  5
442
100
AcDbEntity
  8
レイヤー_1
  6
PHANTOM
 62
       3
100
AcDbLine
 10
132.71359221
 20
3.39174877
 30
0.0
 11
132.57487652
 21
3.47012155
 31
0.0
  0
LINE
  5
443
100
AcDbEntity
  8
レイヤー_1
  6
PHANTOM
 62
       3
100
AcDbLine
 10
132.57487652
 20
3.47012155
 30
0.0
 11
132.4447462
 21
3.56091686
 31
0.0
  0
LINE
  5
444
100
AcDbEntity
  8
レイヤー_1
  6
PHANTOM
 62
       3
100
AcDbLine
 10
132.4447462
 20
3.56091686
 30
0.0
 11
132.32400688
 21
3.66333089
 31
0.0
  0
LINE
  5
445
100
AcDbEntity
  8
レイヤー_1
  6
PHANTOM
 62
       3
100
AcDbLine
 10
132.32400688
 20
3.66333089
 30
0.0
 11
132.21346421
 21
3.7765598
 31
0.0
  0
LINE
  5
446
100
AcDbEntity
  8
レイヤー_1
  6
PHANTOM
 62
       3
100
AcDbLine
 10
132.21346421
 20
3.7765598
 30
0.0
 11
132.11392383
 21
3.89979975
 31
0.0
  0
LINE
  5
447
100
AcDbEntity
  8
レイヤー_1
  6
PHANTOM
 62
       3
100
AcDbLine
 10
132.11392383
 20
3.89979975
 30
0.0
 11
132.02619138
 21
4.03224691
 31
0.0
  0
LINE
  5
448
100
AcDbEntity
  8
レイヤー_1
  6
PHANTOM
 62
       3
100
AcDbLine
 10
132.02619138
 20
4.03224691
 30
0.0
 11
131.9510725
 21
4.17309745
 31
0.0
  0
LINE
  5
449
100
AcDbEntity
  8
レイヤー_1
  6
PHANTOM
 62
       3
100
AcDbLine
 10
131.9510725
 20
4.17309745
 30
0.0
 11
131.88937283
 21
4.32154752
 31
0.0
  0
LINE
  5
44A
100
AcDbEntity
  8
レイヤー_1
  6
PHANTOM
 62
       3
100
AcDbLine
 10
131.88937283
 20
4.32154752
 30
0.0
 11
131.84189801
 21
4.47679331
 31
0.0
  0
LINE
  5
44B
100
AcDbEntity
  8
レイヤー_1
  6
PHANTOM
 62
       3
100
AcDbLine
 10
131.84189801
 20
4.47679331
 30
0.0
 11
131.80945368
 21
4.63803097
 31
0.0
  0
LINE
  5
44C
100
AcDbEntity
  8
レイヤー_1
  6
PHANTOM
 62
       3
100
AcDbLine
 10
131.80945368
 20
4.63803097
 30
0.0
 11
131.79284547
 21
4.80445667
 31
0.0
  0
LINE
  5
44D
100
AcDbEntity
  8
レイヤー_1
  6
PHANTOM
 62
       3
100
AcDbLine
 10
131.79284547
 20
4.80445667
 30
0.0
 11
131.79284547
 21
4.97407712
 31
0.0
  0
LINE
  5
44E
100
AcDbEntity
  8
レイヤー_1
  6
PHANTOM
 62
       3
100
AcDbLine
 10
131.79284547
 20
4.97407712
 30
0.0
 11
131.80945368
 21
5.14014348
 31
0.0
  0
LINE
  5
44F
100
AcDbEntity
  8
レイヤー_1
  6
PHANTOM
 62
       3
100
AcDbLine
 10
131.80945368
 20
5.14014348
 30
0.0
 11
131.84189801
 21
5.30105824
 31
0.0
  0
LINE
  5
450
100
AcDbEntity
  8
レイヤー_1
  6
PHANTOM
 62
       3
100
AcDbLine
 10
131.84189801
 20
5.30105824
 30
0.0
 11
131.88937283
 21
5.45601574
 31
0.0
  0
LINE
  5
451
100
AcDbEntity
  8
レイヤー_1
  6
PHANTOM
 62
       3
100
AcDbLine
 10
131.88937283
 20
5.45601574
 30
0.0
 11
131.9510725
 21
5.60421035
 31
0.0
  0
LINE
  5
452
100
AcDbEntity
  8
レイヤー_1
  6
PHANTOM
 62
       3
100
AcDbLine
 10
131.9510725
 20
5.60421035
 30
0.0
 11
132.02619138
 21
5.74483643
 31
0.0
  0
LINE
  5
453
100
AcDbEntity
  8
レイヤー_1
  6
PHANTOM
 62
       3
100
AcDbLine
 10
132.02619138
 20
5.74483643
 30
0.0
 11
132.11392383
 21
5.87708833
 31
0.0
  0
LINE
  5
454
100
AcDbEntity
  8
レイヤー_1
  6
PHANTOM
 62
       3
100
AcDbLine
 10
132.11392383
 20
5.87708833
 30
0.0
 11
132.21346421
 21
6.00016042
 31
0.0
  0
LINE
  5
455
100
AcDbEntity
  8
レイヤー_1
  6
PHANTOM
 62
       3
100
AcDbLine
 10
132.21346421
 20
6.00016042
 30
0.0
 11
132.32400688
 21
6.11324706
 31
0.0
  0
LINE
  5
456
100
AcDbEntity
  8
レイヤー_1
  6
PHANTOM
 62
       3
100
AcDbLine
 10
132.32400688
 20
6.11324706
 30
0.0
 11
132.4447462
 21
6.2155426
 31
0.0
  0
LINE
  5
457
100
AcDbEntity
  8
レイヤー_1
  6
PHANTOM
 62
       3
100
AcDbLine
 10
132.4447462
 20
6.2155426
 30
0.0
 11
132.57487652
 21
6.30624141
 31
0.0
  0
LINE
  5
458
100
AcDbEntity
  8
レイヤー_1
  6
PHANTOM
 62
       3
100
AcDbLine
 10
132.57487652
 20
6.30624141
 30
0.0
 11
132.71359221
 21
6.38453784
 31
0.0
  0
LINE
  5
459
100
AcDbEntity
  8
レイヤー_1
  6
PHANTOM
 62
       3
100
AcDbLine
 10
132.71359221
 20
6.38453784
 30
0.0
 11
132.86008763
 21
6.44962626
 31
0.0
  0
LINE
  5
45A
100
AcDbEntity
  8
レイヤー_1
  6
PHANTOM
 62
       3
100
AcDbLine
 10
132.86008763
 20
6.44962626
 30
0.0
 11
133.01355714
 21
6.50070102
 31
0.0
  0
LINE
  5
45B
100
AcDbEntity
  8
レイヤー_1
  6
PHANTOM
 62
       3
100
AcDbLine
 10
133.01355714
 20
6.50070102
 30
0.0
 11
133.17319509
 21
6.53695649
 31
0.0
  0
LINE
  5
45C
100
AcDbEntity
  8
レイヤー_1
  6
PHANTOM
 62
       3
100
AcDbLine
 10
133.17319509
 20
6.53695649
 30
0.0
 11
133.33819585
 21
6.55758702
 31
0.0
  0
LINE
  5
45D
100
AcDbEntity
  8
レイヤー_1
  6
PHANTOM
 62
       3
100
AcDbLine
 10
133.33819585
 20
6.55758702
 30
0.0
 11
133.50746697
 21
6.56179118
 31
0.0
  0
LINE
  5
45E
100
AcDbEntity
  8
レイヤー_1
  6
PHANTOM
 62
       3
100
AcDbLine
 10
133.50746697
 20
6.56179118
 30
0.0
 11
133.67468841
 21
6.54927523
 31
0.0
  0
LINE
  5
45F
100
AcDbEntity
  8
レイヤー_1
  6
PHANTOM
 62
       3
100
AcDbLine
 10
133.67468841
 20
6.54927523
 30
0.0
 11
133.83695136
 21
6.52073152
 31
0.0
  0
LINE
  5
460
100
AcDbEntity
  8
レイヤー_1
  6
PHANTOM
 62
       3
100
AcDbLine
 10
133.83695136
 20
6.52073152
 30
0.0
 11
133.99345141
 21
6.4769657
 31
0.0
  0
LINE
  5
461
100
AcDbEntity
  8
レイヤー_1
  6
PHANTOM
 62
       3
100
AcDbLine
 10
133.99345141
 20
6.4769657
 30
0.0
 11
134.14338409
 21
6.4187834
 31
0.0
  0
LINE
  5
462
100
AcDbEntity
  8
レイヤー_1
  6
PHANTOM
 62
       3
100
AcDbLine
 10
134.14338409
 20
6.4187834
 30
0.0
 11
134.28594499
 21
6.34699027
 31
0.0
  0
LINE
  5
463
100
AcDbEntity
  8
レイヤー_1
  6
PHANTOM
 62
       3
100
AcDbLine
 10
134.28594499
 20
6.34699027
 30
0.0
 11
134.42032966
 21
6.26239195
 31
0.0
  0
LINE
  5
464
100
AcDbEntity
  8
レイヤー_1
  6
PHANTOM
 62
       3
100
AcDbLine
 10
134.42032966
 20
6.26239195
 30
0.0
 11
134.54573367
 21
6.16579407
 31
0.0
  0
LINE
  5
465
100
AcDbEntity
  8
レイヤー_1
  6
PHANTOM
 62
       3
100
AcDbLine
 10
134.54573367
 20
6.16579407
 30
0.0
 11
134.66135259
 21
6.05800227
 31
0.0
  0
LINE
  5
466
100
AcDbEntity
  8
レイヤー_1
  6
PHANTOM
 62
       3
100
AcDbLine
 10
134.66135259
 20
6.05800227
 30
0.0
 11
134.76638197
 21
5.9398222
 31
0.0
  0
LINE
  5
467
100
AcDbEntity
  8
レイヤー_1
  6
PHANTOM
 62
       3
100
AcDbLine
 10
134.76638197
 20
5.9398222
 30
0.0
 11
134.86001738
 21
5.8120595
 31
0.0
  0
LINE
  5
468
100
AcDbEntity
  8
レイヤー_1
  6
PHANTOM
 62
       3
100
AcDbLine
 10
134.86001738
 20
5.8120595
 30
0.0
 11
134.94145438
 21
5.67551981
 31
0.0
  0
LINE
  5
469
100
AcDbEntity
  8
レイヤー_1
  6
PHANTOM
 62
       3
100
AcDbLine
 10
134.94145438
 20
5.67551981
 30
0.0
 11
135.00988855
 21
5.53100876
 31
0.0
  0
LINE
  5
46A
100
AcDbEntity
  8
レイヤー_1
  6
PHANTOM
 62
       3
100
AcDbLine
 10
135.00988855
 20
5.53100876
 30
0.0
 11
135.06451544
 21
5.379332
 31
0.0
  0
LINE
  5
46B
100
AcDbEntity
  8
レイヤー_1
  6
PHANTOM
 62
       3
100
AcDbLine
 10
135.06451544
 20
5.379332
 30
0.0
 11
135.10453061
 21
5.22129516
 31
0.0
  0
LINE
  5
46C
100
AcDbEntity
  8
レイヤー_1
  6
PHANTOM
 62
       3
100
AcDbLine
 10
135.10453061
 20
5.22129516
 30
0.0
 11
135.12912963
 21
5.0577039
 31
0.0
  0
LINE
  5
46D
100
AcDbEntity
  8
レイヤー_1
  6
PHANTOM
 62
       3
100
AcDbLine
 10
135.12912963
 20
5.0577039
 30
0.0
 11
135.13750807
 21
4.88936384
 31
0.0
  0
LINE
  5
46E
100
AcDbEntity
  8
レイヤー_1
  6
PHANTOM
 62
       3
100
AcDbLine
 10
46.79521535
 20
-24.27909285
 30
0.0
 11
58.7096015
 21
-24.27909285
 31
0.0
  0
LINE
  5
46F
100
AcDbEntity
  8
レイヤー_1
  6
PHANTOM
 62
       3
100
AcDbLine
 10
58.7096015
 20
-24.27909285
 30
0.0
 11
58.7096015
 21
-15.66110059
 31
0.0
  0
LINE
  5
470
100
AcDbEntity
  8
レイヤー_1
  6
PHANTOM
 62
       3
100
AcDbLine
 10
58.7096015
 20
-15.66110059
 30
0.0
 11
57.54262208
 21
-8.62692762
 31
0.0
  0
LINE
  5
471
100
AcDbEntity
  8
レイヤー_1
  6
PHANTOM
 62
       3
100
AcDbLine
 10
57.54262208
 20
-8.62692762
 30
0.0
 11
49.74237665
 21
-8.62692762
 31
0.0
  0
LINE
  5
472
100
AcDbEntity
  8
レイヤー_1
  6
PHANTOM
 62
       3
100
AcDbLine
 10
49.74237665
 20
-8.62692762
 30
0.0
 11
49.29539339
 21
-15.16287358
 31
0.0
  0
LINE
  5
473
100
AcDbEntity
  8
レイヤー_1
  6
PHANTOM
 62
       3
100
AcDbLine
 10
49.29539339
 20
-15.16287358
 30
0.0
 11
46.79521535
 21
-15.16287358
 31
0.0
  0
LINE
  5
474
100
AcDbEntity
  8
レイヤー_1
  6
PHANTOM
 62
       3
100
AcDbLine
 10
46.79521535
 20
17.5534589
 30
0.0
 11
58.7096015
 21
17.5534589
 31
0.0
  0
LINE
  5
475
100
AcDbEntity
  8
レイヤー_1
  6
PHANTOM
 62
       3
100
AcDbLine
 10
58.7096015
 20
17.5534589
 30
0.0
 11
58.7096015
 21
1.90129367
 31
0.0
  0
LINE
  5
476
100
AcDbEntity
  8
レイヤー_1
  6
PHANTOM
 62
       3
100
AcDbLine
 10
58.7096015
 20
1.90129367
 30
0.0
 11
49.74237665
 21
1.90129367
 31
0.0
  0
LINE
  5
477
100
AcDbEntity
  8
レイヤー_1
  6
PHANTOM
 62
       3
100
AcDbLine
 10
49.74237665
 20
1.90129367
 30
0.0
 11
49.29539339
 21
10.05378603
 31
0.0
  0
LINE
  5
478
100
AcDbEntity
  8
レイヤー_1
  6
PHANTOM
 62
       3
100
AcDbLine
 10
49.29539339
 20
10.05378603
 30
0.0
 11
46.79521535
 21
10.05378603
 31
0.0
  0
LINE
  5
479
100
AcDbEntity
  8
レイヤー_1
  6
PHANTOM
 62
       3
100
AcDbLine
 10
162.73248034
 20
-10.03634593
 30
0.0
 11
122.21719429
 21
-10.03634593
 31
0.0
  0
LINE
  5
47A
100
AcDbEntity
  8
レイヤー_1
  6
PHANTOM
 62
       3
100
AcDbLine
 10
162.73248034
 20
-22.53551364
 30
0.0
 11
122.21719429
 21
-22.53551364
 31
0.0
  0
LINE
  5
47B
100
AcDbEntity
  8
レイヤー_1
  6
PHANTOM
 62
       3
100
AcDbLine
 10
122.21719429
 20
-8.51324402
 30
0.0
 11
162.73248034
 21
-8.51324402
 31
0.0
  0
LINE
  5
47C
100
AcDbEntity
  8
レイヤー_1
  6
PHANTOM
 62
       3
100
AcDbLine
 10
162.73248034
 20
-8.51324402
 30
0.0
 11
162.73248034
 21
-23.53110641
 31
0.0
  0
LINE
  5
47D
100
AcDbEntity
  8
レイヤー_1
  6
PHANTOM
 62
       3
100
AcDbLine
 10
162.73248034
 20
-23.53110641
 30
0.0
 11
122.21719429
 21
-23.53110641
 31
0.0
  0
LINE
  5
47E
100
AcDbEntity
  8
レイヤー_1
  6
PHANTOM
 62
       3
100
AcDbLine
 10
122.21719429
 20
-23.53110641
 30
0.0
 11
122.21719429
 21
-8.51324402
 31
0.0
  0
LINE
  5
47F
100
AcDbEntity
  8
SLD-0
  6
CONTINUOUS
 62
       3
100
AcDbLine
 10
46.65324027
 20
46.0687915
 30
0.0
 11
46.65324027
 21
-45.9312085
 31
0.0
  0
ARC
  5
480
100
AcDbEntity
  8
SLD-0_0
  6
CONTINUOUS
 62
       3
100
AcDbCircle
 10
138.49117437
 20
-0.0687915
 30
0.0
 40
50.0
100
AcDbArc
 50
23.07391807
 51
57.69186088
  0
ARC
  5
481
100
AcDbEntity
  8
SLD-0_0
  6
CONTINUOUS
 62
       3
100
AcDbCircle
 10
138.49117437
 20
-0.0687915
 30
0.0
 40
50.0
100
AcDbArc
 50
203.07391807
 51
237.69370744
  0
ARC
  5
482
100
AcDbEntity
  8
SLD-0_0
  6
CONTINUOUS
 62
       3
100
AcDbCircle
 10
138.49117437
 20
-0.0687915
 30
0.0
 40
50.0
100
AcDbArc
 50
122.30813912
 51
156.92608193
  0
ARC
  5
483
100
AcDbEntity
  8
SLD-0_0
  6
CONTINUOUS
 62
       3
100
AcDbCircle
 10
138.49117437
 20
-0.0687915
 30
0.0
 40
50.0
100
AcDbArc
 50
302.30629256
 51
336.92608193
  0
TEXT
  5
484
100
AcDbEntity
  8
0
 62
       7
100
AcDbText
 10
165.90950226
 20
-143.16289593
 30
0.0
 40
5.0
  1
000
 41
0.8
 72
       5
 11
177.90950226
 21
-143.16289593
 31
0.0
100
AcDbText
  0
ENDSEC
  0
SECTION
  2
OBJECTS
  0
DICTIONARY
  5
19
100
AcDbDictionary
  3
ACAD_GROUP
350
1A
  3
ACAD_MLINESTYLE
350
1B
  0
DICTIONARY
  5
1A
102
{ACAD_REACTORS
330
19
102
}
100
AcDbDictionary
  0
DICTIONARY
  5
1B
102
{ACAD_REACTORS
330
19
102
}
100
AcDbDictionary
  3
STANDARD
350
1C
  0
MLINESTYLE
  5
1C
102
{ACAD_REACTORS
330
1B
102
}
100
AcDbMlineStyle
  2
STANDARD
 70
       0
  3

 62
       0
 51
90.0
 52
90.0
 71
       2
 49
0.5
 62
     256
  6
BYLAYER
 49
-0.5
 62
     256
  6
BYLAYER
  0
ENDSEC
  0
EOF
