  0
SECTION
  2
HEADER
  9
$ACADVER
  1
AC1014
  9
$ACADMAINTVER
 70
       0
  9
$DWGCODEPAGE
  3
ANSI_932
  9
$INSBASE
 10
0.0
 20
0.0
 30
0.0
  9
$EXTMIN
 10
-234.462808
 20
-243.5153128
 30
0.0
  9
$EXTMAX
 10
225.55655805
 20
238.7528128
 30
0.0
  9
$LIMMIN
 10
-248.83841319
 20
-258.58619172
  9
$LIMMAX
 10
239.93216324
 20
253.82369172
  9
$ORTHOMODE
 70
       0
  9
$REGENMODE
 70
       1
  9
$FILLMODE
 70
       1
  9
$QTEXTMODE
 70
       0
  9
$MIRRTEXT
 70
       1
  9
$DRAGMODE
 70
       2
  9
$LTSCALE
 40
1.0
  9
$OSMODE
 70
       0
  9
$ATTMODE
 70
       1
  9
$TEXTSIZE
 40
0.2
  9
$TRACEWID
 40
0.05
  9
$TEXTSTYLE
  7
STANDARD
  9
$CLAYER
  8
0
  9
$CELTYPE
  6
CONTINUOUS
  9
$CECOLOR
 62
     256
  9
$CELTSCALE
 40
1.0
  9
$DELOBJ
 70
       1
  9
$DISPSILH
 70
       0
  9
$DIMSCALE
 40
1.0
  9
$DIMASZ
 40
0.18
  9
$DIMEXO
 40
0.0625
  9
$DIMDLI
 40
0.38
  9
$DIMRND
 40
0.0
  9
$DIMDLE
 40
0.0
  9
$DIMEXE
 40
0.18
  9
$DIMTP
 40
0.0
  9
$DIMTM
 40
0.0
  9
$DIMTXT
 40
0.18
  9
$DIMCEN
 40
0.09
  9
$DIMTSZ
 40
0.0
  9
$DIMTOL
 70
       0
  9
$DIMLIM
 70
       0
  9
$DIMTIH
 70
       1
  9
$DIMTOH
 70
       1
  9
$DIMSE1
 70
       0
  9
$DIMSE2
 70
       0
  9
$DIMTAD
 70
       0
  9
$DIMZIN
 70
       0
  9
$DIMBLK
  1

  9
$DIMASO
 70
       1
  9
$DIMSHO
 70
       1
  9
$DIMPOST
  1

  9
$DIMAPOST
  1

  9
$DIMALT
 70
       0
  9
$DIMALTD
 70
       2
  9
$DIMALTF
 40
25.4
  9
$DIMLFAC
 40
1.0
  9
$DIMTOFL
 70
       0
  9
$DIMTVP
 40
0.0
  9
$DIMTIX
 70
       0
  9
$DIMSOXD
 70
       0
  9
$DIMSAH
 70
       0
  9
$DIMBLK1
  1

  9
$DIMBLK2
  1

  9
$DIMSTYLE
  2
STANDARD
  9
$DIMCLRD
 70
       0
  9
$DIMCLRE
 70
       0
  9
$DIMCLRT
 70
       0
  9
$DIMTFAC
 40
1.0
  9
$DIMGAP
 40
0.09
  9
$DIMJUST
 70
       0
  9
$DIMSD1
 70
       0
  9
$DIMSD2
 70
       0
  9
$DIMTOLJ
 70
       1
  9
$DIMTZIN
 70
       0
  9
$DIMALTZ
 70
       0
  9
$DIMALTTZ
 70
       0
  9
$DIMFIT
 70
       3
  9
$DIMUPT
 70
       0
  9
$DIMUNIT
 70
       2
  9
$DIMDEC
 70
       4
  9
$DIMTDEC
 70
       4
  9
$DIMALTU
 70
       2
  9
$DIMALTTD
 70
       2
  9
$DIMTXSTY
  7
STANDARD
  9
$DIMAUNIT
 70
       0
  9
$LUNITS
 70
       2
  9
$LUPREC
 70
       4
  9
$SKETCHINC
 40
0.1
  9
$FILLETRAD
 40
0.0
  9
$AUNITS
 70
       0
  9
$AUPREC
 70
       0
  9
$MENU
  1
acad
  9
$ELEVATION
 40
0.0
  9
$PELEVATION
 40
0.0
  9
$THICKNESS
 40
0.0
  9
$LIMCHECK
 70
       0
  9
$BLIPMODE
 70
       1
  9
$CHAMFERA
 40
0.0
  9
$CHAMFERB
 40
0.0
  9
$CHAMFERC
 40
0.0
  9
$CHAMFERD
 40
0.0
  9
$SKPOLY
 70
       0
  9
$TDCREATE
 40
0.000000000
  9
$TDUPDATE
 40
0.000000000
  9
$TDINDWG
 40
0.0000000000
  9
$TDUSRTIMER
 40
0.0000000000
  9
$USRTIMER
 70
       1
  9
$ANGBASE
 50
0.0
  9
$ANGDIR
 70
       0
  9
$PDMODE
 70
       0
  9
$PDSIZE
 40
1.0
  9
$PLINEWID
 40
0.0
  9
$COORDS
 70
       1
  9
$SPLFRAME
 70
       0
  9
$SPLINETYPE
 70
       6
  9
$SPLINESEGS
 70
       8
  9
$ATTDIA
 70
       0
  9
$ATTREQ
 70
       1
  9
$HANDLING
 70
       1
  9
$HANDSEED
  5
29F
  9
$SURFTAB1
 70
       6
  9
$SURFTAB2
 70
       6
  9
$SURFTYPE
 70
       6
  9
$SURFU
 70
       6
  9
$SURFV
 70
       6
  9
$UCSNAME
  2

  9
$UCSORG
 10
0.0
 20
0.0
 30
0.0
  9
$UCSXDIR
 10
1.0
 20
0.0
 30
0.0
  9
$UCSYDIR
 10
0.0
 20
1.0
 30
0.0
  9
$PUCSNAME
  2

  9
$PUCSORG
 10
0.0
 20
0.0
 30
0.0
  9
$PUCSXDIR
 10
1.0
 20
0.0
 30
0.0
  9
$PUCSYDIR
 10
0.0
 20
1.0
 30
0.0
  9
$USERI1
 70
       0
  9
$USERI2
 70
       0
  9
$USERI3
 70
       0
  9
$USERI4
 70
       0
  9
$USERI5
 70
       0
  9
$USERR1
 40
0.0
  9
$USERR2
 40
0.0
  9
$USERR3
 40
0.0
  9
$USERR4
 40
0.0
  9
$USERR5
 40
0.0
  9
$WORLDVIEW
 70
       1
  9
$SHADEDGE
 70
       3
  9
$SHADEDIF
 70
      70
  9
$TILEMODE
 70
       1
  9
$MAXACTVP
 70
      16
  9
$PINSBASE
 10
0.0
 20
0.0
 30
0.0
  9
$PLIMCHECK
 70
       0
  9
$PEXTMIN
 10
1.00000000E+20
 20
1.00000000E+20
 30
1.00000000E+20
  9
$PEXTMAX
 10
-1.00000000E+20
 20
-1.00000000E+20
 30
-1.00000000E+20
  9
$PLIMMIN
 10
0.0
 20
0.0
  9
$PLIMMAX
 10
12.0
 20
9.0
  9
$UNITMODE
 70
       0
  9
$VISRETAIN
 70
       0
  9
$PLINEGEN
 70
       1
  9
$PSLTSCALE
 70
       0
  9
$TREEDEPTH
 70
    3020
  9
$PICKSTYLE
 70
       1
  9
$CMLSTYLE
  2
STANDARD
  9
$CMLJUST
 70
       0
  9
$CMLSCALE
 40
1.0
  9
$PROXYGRAPHICS
 70
       0
  9
$MEASUREMENT
 70
       0
  0
ENDSEC
  0
SECTION
  2
CLASSES
  0
CLASS
  1
LWPOLYLINE
  2
AcDbPolyline
  3
"AutoCAD"
 90
        0
280
       0
281
       1
  0
CLASS
  1
IMAGE
  2
AcDbRasterImage
  3
ISM
 90
      127
280
       0
281
       1
  0
CLASS
  1
OLE2FRAME
  2
AcDbOle2Frame
  3
""
 90
        0
280
       0
281
       1
  0
CLASS
  1
HATCH
  2
AcDbHatch
  3
"ACAD_SEDONA"
 90
        0
280
       0
281
       1
  0
CLASS
  1
DICTIONARYVAR
  2
AcDbDictionaryVar
  3
"AutoCAD"
 90
        0
280
       0
281
       0
  0
CLASS
  1
RASTERVARIABLES
  2
AcDbRasterVariables
  3
ISM
 90
        0
280
       0
281
       0
  0
CLASS
  1
IMAGEDEF
  2
AcDbRasterImageDef
  3
ISM
 90
        0
280
       0
281
       0
  0
CLASS
  1
IMAGEDEF_REACTOR
  2
AcDbRasterImageDefReactor
  3
ISM
 90
        1
280
       0
281
       0
  0
CLASS
  1
IDBUFFER
  2
AcDbIdBuffer
  3
"Acad"
 90
        0
280
       0
281
       0
  0
CLASS
  1
SPATIAL_FILTER
  2
AcDbSpatialFilter
  3
"Acad"
 90
        0
280
       0
281
       0
  0
CLASS
  1
XRECORD
  2
AcDbXrecord
  3
"<Built In>"
 90
        0
280
       0
281
       0
  0
CLASS
  1
SORTENTSTABLE
  2
AcDbSortentsTable
  3
"AutoCAD"
 90
        0
280
       0
281
       0
  0
CLASS
  1
LAYER_INDEX
  2
AcDbLayerIndex
  3
"Acad"
 90
        0
280
       0
281
       0
  0
CLASS
  1
SPATIAL_INDEX
  2
AcDbSpatialIndex
  3
"Acad"
 90
        0
280
       0
281
       0
  0
CLASS
  1
OBJECT_PTR
  2
CAseDLPNTableRecord
  3
"ASE-LPNTableRecord"
 90
        1
280
       0
281
       0
  0
CLASS
  1
LAYOUT
  2
AcDbLayout
  3
"AutoCAD 2000"
 90
        1
280
       0
281
       0
  0
CLASS
  1
PLOTSETTINGS
  2
AcDbPlotSettings
  3
"AutoCAD 2000"
 90
        1
280
       0
281
       0
  0
CLASS
  1
ACDBDICTIONARYWDFLT
  2
AcDbDictionaryWithDefault
  3
"AutoCAD 2000"
 90
        1
280
       0
281
       0
  0
CLASS
  1
ACDBPLACEHOLDER
  2
AcDbPlaceHolder
  3
"AutoCAD 2000"
 90
        1
280
       0
281
       0
  0
CLASS
  1
VBA_PROJECT
  2
AcDbVbaProject
  3
"acadvba"
 90
        1
280
       0
281
       0
  0
CLASS
  1
WIPEOUT
  2
AcDbWipeout
  3
WipeOut|AutoCAD Express Tool|expresstools@autodesk.com
 90
      127
280
       0
281
       1
  0
CLASS
  1
WIPEOUTVARIABLES
  2
AcDbWipeoutVariables
  3
WipeOut|AutoCAD Express Tool|expresstools@autodesk.com
 90
        0
280
       0
281
       0
  0
CLASS
  1
RTEXT
  2
RText
  3
RText|AutoCAD Express Tool|expresstools@autodesk.com
 90
        0
280
       0
281
       1
  0
CLASS
  1
ARCALIGNEDTEXT
  2
AcDbArcAlignedText
  3
ATEXT|AutoCAD Express Tool|expresstools@autodesk.com
 90
        0
280
       0
281
       1
  0
ENDSEC
  0
SECTION
  2
TABLES
  0
TABLE
  2
VPORT
  5
7
100
AcDbSymbolTable
 70
       1
  0
VPORT
  5
15
100
AcDbSymbolTableRecord
100
AcDbViewportTableRecord
  2
*ACTIVE
 70
       0
 10
0.0
 20
0.0
 11
1.0
 21
1.0
 12
-4.45312498
 22
-2.38125
 13
0.0
 23
0.0
 14
1.0
 24
1.0
 15
0.0
 25
0.0
 16
0.0
 26
0.0
 36
1.0
 17
0.0
 27
0.0
 37
0.0
 40
512.40988345
 41
0.95386641
 42
50.0
 43
0.0
 44
0.0
 50
0.0
 51
0.0
 71
       0
 72
     100
 73
       1
 74
       1
 75
       0
 76
       0
 77
       0
 78
       0
  0
ENDTAB
  0
TABLE
  2
LTYPE
  5
4
100
AcDbSymbolTable
 70
      30
  0
LTYPE
  5
11
100
AcDbSymbolTableRecord
100
AcDbLinetypeTableRecord
  2
BYBLOCK
 70
      64
  3

 72
      65
 73
       0
 40
0.0
  0
LTYPE
  5
12
100
AcDbSymbolTableRecord
100
AcDbLinetypeTableRecord
  2
BYLAYER
 70
      64
  3

 72
      65
 73
       0
 40
0.0
  0
LTYPE
  5
13
100
AcDbSymbolTableRecord
100
AcDbLinetypeTableRecord
  2
CONTINUOUS
 70
      64
  3
Solid line
 72
      65
 73
       0
 40
0.0
  0
LTYPE
  5
1D
100
AcDbSymbolTableRecord
100
AcDbLinetypeTableRecord
  2
HIDDENX2
 70
      64
  3
CADPAC LINETYPE
 72
      65
 73
       2
 40
26.99299331
 49
20.24474498
 74
       0
 49
-6.74824833
 74
       0
  0
LTYPE
  5
1E
100
AcDbSymbolTableRecord
100
AcDbLinetypeTableRecord
  2
HIDDEN
 70
      64
  3
CADPAC LINETYPE
 72
      65
 73
       2
 40
20.24474498
 49
13.49649665
 74
       0
 49
-6.74824833
 74
       0
  0
LTYPE
  5
1F
100
AcDbSymbolTableRecord
100
AcDbLinetypeTableRecord
  2
HIDDEN2
 70
      64
  3
CADPAC LINETYPE
 72
      65
 73
       2
 40
16.87062082
 49
10.12237249
 74
       0
 49
-6.74824833
 74
       0
  0
LTYPE
  5
20
100
AcDbSymbolTableRecord
100
AcDbLinetypeTableRecord
  2
DASHED
 70
      64
  3
CADPAC LINETYPE
 72
      65
 73
       2
 40
20.24474498
 49
13.49649665
 74
       0
 49
-6.74824833
 74
       0
  0
LTYPE
  5
21
100
AcDbSymbolTableRecord
100
AcDbLinetypeTableRecord
  2
DASHED2
 70
      64
  3
CADPAC LINETYPE
 72
      65
 73
       2
 40
15.18355874
 49
10.12237249
 74
       0
 49
-5.06118625
 74
       0
  0
LTYPE
  5
22
100
AcDbSymbolTableRecord
100
AcDbLinetypeTableRecord
  2
DASHEDX2
 70
      64
  3
CADPAC LINETYPE
 72
      65
 73
       2
 40
30.36711747
 49
20.24474498
 74
       0
 49
-10.12237249
 74
       0
  0
LTYPE
  5
23
100
AcDbSymbolTableRecord
100
AcDbLinetypeTableRecord
  2
DOTX2
 70
      64
  3
CADPAC LINETYPE
 72
      65
 73
       2
 40
8.43531041
 49
0.0
 74
       0
 49
-8.43531041
 74
       0
  0
LTYPE
  5
24
100
AcDbSymbolTableRecord
100
AcDbLinetypeTableRecord
  2
DOT
 70
      64
  3
CADPAC LINETYPE
 72
      65
 73
       2
 40
6.74824833
 49
0.0
 74
       0
 49
-6.74824833
 74
       0
  0
LTYPE
  5
25
100
AcDbSymbolTableRecord
100
AcDbLinetypeTableRecord
  2
DOT2
 70
      64
  3
CADPAC LINETYPE
 72
      65
 73
       2
 40
5.06118625
 49
0.0
 74
       0
 49
-5.06118625
 74
       0
  0
LTYPE
  5
26
100
AcDbSymbolTableRecord
100
AcDbLinetypeTableRecord
  2
CENTERX2
 70
      64
  3
CADPAC LINETYPE
 72
      65
 73
       4
 40
40.48948996
 49
16.87062082
 74
       0
 49
-8.43531041
 74
       0
 49
6.74824833
 74
       0
 49
-8.43531041
 74
       0
  0
LTYPE
  5
27
100
AcDbSymbolTableRecord
100
AcDbLinetypeTableRecord
  2
CENTER
 70
      64
  3
CADPAC LINETYPE
 72
      65
 73
       4
 40
31.04194231
 49
13.49649665
 74
       0
 49
-6.74824833
 74
       0
 49
4.048949
 74
       0
 49
-6.74824833
 74
       0
  0
LTYPE
  5
28
100
AcDbSymbolTableRecord
100
AcDbLinetypeTableRecord
  2
CENTER2
 70
      64
  3
CADPAC LINETYPE
 72
      65
 73
       4
 40
21.59439465
 49
10.12237249
 74
       0
 49
-5.06118625
 74
       0
 49
1.34964967
 74
       0
 49
-5.06118625
 74
       0
  0
LTYPE
  5
29
100
AcDbSymbolTableRecord
100
AcDbLinetypeTableRecord
  2
DASHDOTX2
 70
      64
  3
CADPAC LINETYPE
 72
      65
 73
       4
 40
33.74124164
 49
16.87062082
 74
       0
 49
-8.43531041
 74
       0
 49
0.0
 74
       0
 49
-8.43531041
 74
       0
  0
LTYPE
  5
2A
100
AcDbSymbolTableRecord
100
AcDbLinetypeTableRecord
  2
DASHDOT
 70
      64
  3
CADPAC LINETYPE
 72
      65
 73
       4
 40
26.99299331
 49
13.49649665
 74
       0
 49
-6.74824833
 74
       0
 49
0.0
 74
       0
 49
-6.74824833
 74
       0
  0
LTYPE
  5
2B
100
AcDbSymbolTableRecord
100
AcDbLinetypeTableRecord
  2
DASHDOT2
 70
      64
  3
CADPAC LINETYPE
 72
      65
 73
       4
 40
20.24474498
 49
10.12237249
 74
       0
 49
-5.06118625
 74
       0
 49
0.0
 74
       0
 49
-5.06118625
 74
       0
  0
LTYPE
  5
2C
100
AcDbSymbolTableRecord
100
AcDbLinetypeTableRecord
  2
DIVIDEX2
 70
      64
  3
CADPAC LINETYPE
 72
      65
 73
       6
 40
42.17655205
 49
16.87062082
 74
       0
 49
-8.43531041
 74
       0
 49
0.0
 74
       0
 49
-8.43531041
 74
       0
 49
0.0
 74
       0
 49
-8.43531041
 74
       0
  0
LTYPE
  5
2D
100
AcDbSymbolTableRecord
100
AcDbLinetypeTableRecord
  2
DIVIDE
 70
      64
  3
CADPAC LINETYPE
 72
      65
 73
       6
 40
33.74124164
 49
13.49649665
 74
       0
 49
-6.74824833
 74
       0
 49
0.0
 74
       0
 49
-6.74824833
 74
       0
 49
0.0
 74
       0
 49
-6.74824833
 74
       0
  0
LTYPE
  5
2E
100
AcDbSymbolTableRecord
100
AcDbLinetypeTableRecord
  2
DIVIDE2
 70
      64
  3
CADPAC LINETYPE
 72
      65
 73
       6
 40
25.30593123
 49
10.12237249
 74
       0
 49
-5.06118625
 74
       0
 49
0.0
 74
       0
 49
-5.06118625
 74
       0
 49
0.0
 74
       0
 49
-5.06118625
 74
       0
  0
LTYPE
  5
2F
100
AcDbSymbolTableRecord
100
AcDbLinetypeTableRecord
  2
BORDERX2
 70
      64
  3
CADPAC LINETYPE
 72
      65
 73
       6
 40
59.04717286
 49
16.87062082
 74
       0
 49
-8.43531041
 74
       0
 49
16.87062082
 74
       0
 49
-8.43531041
 74
       0
 49
0.0
 74
       0
 49
-8.43531041
 74
       0
  0
LTYPE
  5
30
100
AcDbSymbolTableRecord
100
AcDbLinetypeTableRecord
  2
BORDER
 70
      64
  3
CADPAC LINETYPE
 72
      65
 73
       6
 40
47.23773829
 49
13.49649665
 74
       0
 49
-6.74824833
 74
       0
 49
13.49649665
 74
       0
 49
-6.74824833
 74
       0
 49
0.0
 74
       0
 49
-6.74824833
 74
       0
  0
LTYPE
  5
31
100
AcDbSymbolTableRecord
100
AcDbLinetypeTableRecord
  2
BORDER2
 70
      64
  3
CADPAC LINETYPE
 72
      65
 73
       6
 40
35.42830372
 49
10.12237249
 74
       0
 49
-5.06118625
 74
       0
 49
10.12237249
 74
       0
 49
-5.06118625
 74
       0
 49
0.0
 74
       0
 49
-5.06118625
 74
       0
  0
LTYPE
  5
32
100
AcDbSymbolTableRecord
100
AcDbLinetypeTableRecord
  2
PHANTOMX2
 70
      64
  3
CADPAC LINETYPE
 72
      65
 73
       6
 40
50.61186246
 49
16.87062082
 74
       0
 49
-6.74824833
 74
       0
 49
6.74824833
 74
       0
 49
-6.74824833
 74
       0
 49
6.74824833
 74
       0
 49
-6.74824833
 74
       0
  0
LTYPE
  5
33
100
AcDbSymbolTableRecord
100
AcDbLinetypeTableRecord
  2
PHANTOM
 70
      64
  3
CADPAC LINETYPE
 72
      65
 73
       6
 40
41.83913963
 49
13.49649665
 74
       0
 49
-6.74824833
 74
       0
 49
4.048949
 74
       0
 49
-6.74824833
 74
       0
 49
4.048949
 74
       0
 49
-6.74824833
 74
       0
  0
LTYPE
  5
34
100
AcDbSymbolTableRecord
100
AcDbLinetypeTableRecord
  2
PHANTOM2
 70
      64
  3
CADPAC LINETYPE
 72
      65
 73
       6
 40
35.76571614
 49
10.12237249
 74
       0
 49
-6.74824833
 74
       0
 49
2.69929933
 74
       0
 49
-6.74824833
 74
       0
 49
2.69929933
 74
       0
 49
-6.74824833
 74
       0
  0
LTYPE
  5
35
100
AcDbSymbolTableRecord
100
AcDbLinetypeTableRecord
  2
ACAD_ISO06W100
 70
      64
  3
CADPAC LINETYPE
 72
      65
 73
       8
 40
45.55067621
 49
16.87062082
 74
       0
 49
-8.43531041
 74
       0
 49
0.0
 74
       0
 49
-6.74824833
 74
       0
 49
0.0
 74
       0
 49
-6.74824833
 74
       0
 49
0.0
 74
       0
 49
-6.74824833
 74
       0
  0
LTYPE
  5
36
100
AcDbSymbolTableRecord
100
AcDbLinetypeTableRecord
  2
ACAD_ISO13W100
 70
      64
  3
CADPAC LINETYPE
 72
      65
 73
       8
 40
53.98598662
 49
13.49649665
 74
       0
 49
-6.74824833
 74
       0
 49
13.49649665
 74
       0
 49
-6.74824833
 74
       0
 49
0.0
 74
       0
 49
-6.74824833
 74
       0
 49
0.0
 74
       0
 49
-6.74824833
 74
       0
  0
LTYPE
  5
37
100
AcDbSymbolTableRecord
100
AcDbLinetypeTableRecord
  2
ACAD_ISO14W100
 70
      64
  3
CADPAC LINETYPE
 72
      65
 73
       8
 40
40.48948996
 49
13.49649665
 74
       0
 49
-6.74824833
 74
       0
 49
0.0
 74
       0
 49
-6.74824833
 74
       0
 49
0.0
 74
       0
 49
-6.74824833
 74
       0
 49
0.0
 74
       0
 49
-6.74824833
 74
       0
  0
ENDTAB
  0
TABLE
  2
LAYER
  5
2
100
AcDbSymbolTable
 70
       2
  0
LAYER
  5
14
100
AcDbSymbolTableRecord
100
AcDbLayerTableRecord
  2
0
 70
       0
 62
       7
  6
CONTINUOUS
  0
LAYER
  5
38
100
AcDbSymbolTableRecord
100
AcDbLayerTableRecord
  2
LAYER0002
 70
       0
 62
       7
  6
CONTINUOUS
  0
ENDTAB
  0
TABLE
  2
STYLE
  5
3
100
AcDbSymbolTable
 70
       1
  0
STYLE
  5
17
100
AcDbSymbolTableRecord
100
AcDbTextStyleTableRecord
  2
STANDARD
 70
       0
 40
0.0
 41
1.0
 50
0.0
 71
       0
 42
9.525
  3
txt.shx
  4
bigfont.shx
  0
ENDTAB
  0
TABLE
  2
VIEW
  5
5
100
AcDbSymbolTable
 70
       1
  0
VIEW
  5
39
100
AcDbSymbolTableRecord
100
AcDbViewTableRecord
  2
QQQQ
 70
       0
 40
512.40988345
 10
-4.45312498
 20
-2.38125
 41
488.77057643
 11
0.0
 21
0.0
 31
1.0
 12
100.0
 22
100.0
 32
0.0
 42
50.0
 43
0.0
 44
0.0
 50
0.0
 71
       0
  0
ENDTAB
  0
TABLE
  2
UCS
  5
6
100
AcDbSymbolTable
 70
       0
  0
ENDTAB
  0
TABLE
  2
APPID
  5
8
100
AcDbSymbolTable
 70
       1
  0
APPID
  5
16
100
AcDbSymbolTableRecord
100
AcDbRegAppTableRecord
  2
ACAD
 70
       0
  0
ENDTAB
  0
TABLE
  2
DIMSTYLE
  5
9
100
AcDbSymbolTable
 70
       1
  0
DIMSTYLE
105
18
100
AcDbSymbolTableRecord
100
AcDbDimStyleTableRecord
  2
STANDARD
 70
       0
  3

  4

  5

  6

  7

 40
1.0
 41
0.18
 42
0.0625
 43
0.38
 44
0.18
 45
0.0
 46
0.0
 47
0.0
 48
0.0
 71
       0
 72
       0
 73
       1
 74
       1
 75
       0
 76
       0
 77
       0
 78
       0
140
0.18
141
0.09
142
0.0
143
25.4
144
1.0
145
0.0
146
1.0
147
0.09
170
       0
171
       2
172
       0
173
       0
174
       0
175
       0
176
       0
177
       0
178
       0
270
       2
271
       4
272
       4
273
       2
274
       2
275
       0
280
       0
281
       0
282
       0
283
       1
284
       0
285
       0
286
       0
287
       0
288
       0
340
17
  0
ENDTAB
  0
TABLE
  2
BLOCK_RECORD
  5
1
100
AcDbSymbolTable
 70
       0
  0
BLOCK_RECORD
  5
A
100
AcDbSymbolTableRecord
100
AcDbBlockTableRecord
  2
*MODEL_SPACE
  0
BLOCK_RECORD
  5
B
100
AcDbSymbolTableRecord
100
AcDbBlockTableRecord
  2
*PAPER_SPACE
  0
ENDTAB
  0
ENDSEC
  0
SECTION
  2
BLOCKS
  0
BLOCK
  5
D
100
AcDbEntity
  8
0
100
AcDbBlockBegin
  2
*MODEL_SPACE
 70
       0
 10
0.0
 20
0.0
 30
0.0
  3
*MODEL_SPACE
  1

  0
ENDBLK
  5
E
100
AcDbEntity
  8
0
100
AcDbBlockEnd
  0
BLOCK
  5
F
100
AcDbEntity
 67
       1
  8
0
100
AcDbBlockBegin
  2
*PAPER_SPACE
 70
       0
 10
0.0
 20
0.0
 30
0.0
  3
*PAPER_SPACE
  1

  0
ENDBLK
  5
10
100
AcDbEntity
 67
       1
  8
0
100
AcDbBlockEnd
  0
ENDSEC
  0
SECTION
  2
ENTITIES
  0
LINE
  5
3A
100
AcDbEntity
  8
LAYER0002
  6
CONTINUOUS
 62
       7
100
AcDbLine
 10
-201.11628173
 20
-59.44797227
 30
0.0
 11
-220.61628173
 21
-59.44797227
 31
0.0
  0
LINE
  5
3B
100
AcDbEntity
  8
LAYER0002
  6
CONTINUOUS
 62
       7
100
AcDbLine
 10
-220.61628173
 20
-95.44797227
 30
0.0
 11
-215.58742757
 21
-95.44797227
 31
0.0
  0
LINE
  5
3C
100
AcDbEntity
  8
LAYER0002
  6
CONTINUOUS
 62
       7
100
AcDbLine
 10
-111.64513589
 20
-95.44797227
 30
0.0
 11
-106.61628173
 21
-95.44797227
 31
0.0
  0
LINE
  5
3D
100
AcDbEntity
  8
LAYER0002
  6
CONTINUOUS
 62
       7
100
AcDbLine
 10
-106.61628173
 20
-59.44797227
 30
0.0
 11
-126.11628173
 21
-59.44797227
 31
0.0
  0
LINE
  5
3E
100
AcDbEntity
  8
LAYER0002
  6
CONTINUOUS
 62
       7
100
AcDbLine
 10
-133.61628173
 20
-176.44797227
 30
0.0
 11
-133.61628246
 21
-160.61787843
 31
0.0
  0
LINE
  5
3F
100
AcDbEntity
  8
LAYER0002
  6
CONTINUOUS
 62
       7
100
AcDbLine
 10
-193.61628173
 20
-176.44797227
 30
0.0
 11
-133.61628173
 21
-176.44797227
 31
0.0
  0
LINE
  5
40
100
AcDbEntity
  8
LAYER0002
  6
CONTINUOUS
 62
       7
100
AcDbLine
 10
-126.11628173
 20
-58.44797227
 30
0.0
 11
-201.11628173
 21
-58.44797227
 31
0.0
  0
LINE
  5
41
100
AcDbEntity
  8
LAYER0002
  6
CONTINUOUS
 62
       7
100
AcDbLine
 10
-193.61628331
 20
-160.61787666
 30
0.0
 11
-193.61628173
 21
-176.44797227
 31
0.0
  0
LINE
  5
42
100
AcDbEntity
  8
LAYER0002
  6
CONTINUOUS
 62
       7
100
AcDbLine
 10
-220.61628173
 20
-77.44797227
 30
0.0
 11
-220.61628173
 21
-59.44797227
 31
0.0
  0
LINE
  5
43
100
AcDbEntity
  8
LAYER0002
  6
CONTINUOUS
 62
       7
100
AcDbLine
 10
-220.61628173
 20
-95.44797227
 30
0.0
 11
-220.61628173
 21
-77.44797227
 31
0.0
  0
LINE
  5
44
100
AcDbEntity
  8
LAYER0002
  6
CONTINUOUS
 62
       7
100
AcDbLine
 10
-106.61628173
 20
-59.44797227
 30
0.0
 11
-106.61628173
 21
-95.44797227
 31
0.0
  0
LINE
  5
45
100
AcDbEntity
  8
LAYER0002
  6
CONTINUOUS
 62
       7
100
AcDbLine
 10
-131.61628173
 20
-176.44797227
 30
0.0
 11
-133.61628173
 21
-176.44797227
 31
0.0
  0
LINE
  5
46
100
AcDbEntity
  8
LAYER0002
  6
CONTINUOUS
 62
       7
100
AcDbLine
 10
-193.61628173
 20
-176.44797227
 30
0.0
 11
-195.61628173
 21
-176.44797227
 31
0.0
  0
LINE
  5
47
100
AcDbEntity
  8
LAYER0002
  6
CONTINUOUS
 62
       7
100
AcDbLine
 10
-218.61628173
 20
-128.41460182
 30
0.0
 11
-218.61628173
 21
-171.44797227
 31
0.0
  0
LINE
  5
48
100
AcDbEntity
  8
LAYER0002
  6
CONTINUOUS
 62
       7
100
AcDbLine
 10
-213.61628173
 20
-176.44797227
 30
0.0
 11
-195.61628173
 21
-176.44797227
 31
0.0
  0
LINE
  5
49
100
AcDbEntity
  8
LAYER0002
  6
CONTINUOUS
 62
       7
100
AcDbLine
 10
-131.61628173
 20
-176.44797227
 30
0.0
 11
-113.61628173
 21
-176.44797227
 31
0.0
  0
LINE
  5
4A
100
AcDbEntity
  8
LAYER0002
  6
CONTINUOUS
 62
       7
100
AcDbLine
 10
-218.61628173
 20
-30.44797227
 30
0.0
 11
-108.61628173
 21
-30.44797227
 31
0.0
  0
LINE
  5
4B
100
AcDbEntity
  8
LAYER0002
  6
CONTINUOUS
 62
       7
100
AcDbLine
 10
-108.61628173
 20
-204.44797227
 30
0.0
 11
-218.61628173
 21
-204.44797227
 31
0.0
  0
LINE
  5
4C
100
AcDbEntity
  8
LAYER0002
  6
CONTINUOUS
 62
       7
100
AcDbLine
 10
-214.49078117
 20
-119.79797227
 30
0.0
 11
-207.15566045
 21
-119.79797227
 31
0.0
  0
LINE
  5
4D
100
AcDbEntity
  8
LAYER0002
  6
CONTINUOUS
 62
       7
100
AcDbLine
 10
-169.96628173
 20
-156.98735099
 30
0.0
 11
-169.96628173
 21
-164.32247172
 31
0.0
  0
LINE
  5
4E
100
AcDbEntity
  8
LAYER0002
  6
CONTINUOUS
 62
       7
100
AcDbLine
 10
-112.74178228
 20
-107.09797227
 30
0.0
 11
-120.07690301
 21
-107.09797227
 31
0.0
  0
LINE
  5
4F
100
AcDbEntity
  8
LAYER0002
  6
CONTINUOUS
 62
       7
100
AcDbLine
 10
-157.26628173
 20
-69.90859355
 30
0.0
 11
-157.26628173
 21
-62.57347283
 31
0.0
  0
LINE
  5
50
100
AcDbEntity
  8
LAYER0002
  6
CONTINUOUS
 62
       7
100
AcDbLine
 10
-169.96628173
 20
-62.57347283
 30
0.0
 11
-169.96628173
 21
-69.90859355
 31
0.0
  0
LINE
  5
51
100
AcDbEntity
  8
LAYER0002
  6
CONTINUOUS
 62
       7
100
AcDbLine
 10
-207.15566045
 20
-107.09797227
 30
0.0
 11
-214.49078117
 21
-107.09797227
 31
0.0
  0
LINE
  5
52
100
AcDbEntity
  8
LAYER0002
  6
CONTINUOUS
 62
       7
100
AcDbLine
 10
-120.076903
 20
-119.79797227
 30
0.0
 11
-112.74178228
 21
-119.79797227
 31
0.0
  0
LINE
  5
53
100
AcDbEntity
  8
LAYER0002
  6
CONTINUOUS
 62
       7
100
AcDbLine
 10
-157.26628173
 20
-164.32247172
 30
0.0
 11
-157.26628173
 21
-156.987351
 31
0.0
  0
LINE
  5
54
100
AcDbEntity
  8
LAYER0002
  6
CONTINUOUS
 62
       7
100
AcDbLine
 10
-120.84449654
 20
-142.78472846
 30
0.0
 11
-117.32351414
 21
-141.76518648
 31
0.0
  0
LINE
  5
55
100
AcDbEntity
  8
LAYER0002
  6
CONTINUOUS
 62
       7
100
AcDbLine
 10
-110.85905762
 20
-126.15860786
 30
0.0
 11
-112.62784312
 21
-122.94797227
 31
0.0
  0
LINE
  5
56
100
AcDbEntity
  8
LAYER0002
  6
CONTINUOUS
 62
       7
100
AcDbLine
 10
-206.38806692
 20
-84.11121609
 30
0.0
 11
-209.90904932
 21
-85.13075807
 31
0.0
  0
LINE
  5
57
100
AcDbEntity
  8
LAYER0002
  6
CONTINUOUS
 62
       7
100
AcDbLine
 10
-216.37350583
 20
-100.73733668
 30
0.0
 11
-214.60472034
 21
-103.94797227
 31
0.0
  0
LINE
  5
58
100
AcDbEntity
  8
LAYER0002
  6
CONTINUOUS
 62
       7
100
AcDbLine
 10
-214.60472034
 20
-122.94797227
 30
0.0
 11
-216.37350583
 21
-126.15860786
 31
0.0
  0
LINE
  5
59
100
AcDbEntity
  8
LAYER0002
  6
CONTINUOUS
 62
       7
100
AcDbLine
 10
-209.90904932
 20
-141.76518648
 30
0.0
 11
-206.38806692
 21
-142.78472846
 31
0.0
  0
LINE
  5
5A
100
AcDbEntity
  8
LAYER0002
  6
CONTINUOUS
 62
       7
100
AcDbLine
 10
-117.02066107
 20
-84.82313236
 30
0.0
 11
-117.32351414
 21
-85.13075806
 31
0.0
  0
LINE
  5
5B
100
AcDbEntity
  8
LAYER0002
  6
CONTINUOUS
 62
       7
100
AcDbLine
 10
-117.32351414
 20
-85.13075806
 30
0.0
 11
-120.84449654
 21
-84.11121608
 31
0.0
  0
LINE
  5
5C
100
AcDbEntity
  8
LAYER0002
  6
CONTINUOUS
 62
       7
100
AcDbLine
 10
-120.53982926
 20
-83.8065488
 30
0.0
 11
-117.02066107
 21
-84.82313236
 31
0.0
  0
LINE
  5
5D
100
AcDbEntity
  8
LAYER0002
  6
CONTINUOUS
 62
       7
100
AcDbLine
 10
-112.62784311
 20
-103.94797226
 30
0.0
 11
-110.85905761
 21
-100.73733667
 31
0.0
  0
LINE
  5
5E
100
AcDbEntity
  8
LAYER0002
  6
CONTINUOUS
 62
       7
100
AcDbLine
 10
-173.11628173
 20
-62.45953366
 30
0.0
 11
-176.32691732
 21
-60.69074816
 31
0.0
  0
LINE
  5
5F
100
AcDbEntity
  8
LAYER0002
  6
CONTINUOUS
 62
       7
100
AcDbLine
 10
-173.11628173
 20
-62.02866906
 30
0.0
 11
-173.11628173
 21
-62.56034134
 31
0.0
  0
LINE
  5
60
100
AcDbEntity
  8
LAYER0002
  6
CONTINUOUS
 62
       7
100
AcDbLine
 10
-191.93349594
 20
-67.15520468
 30
0.0
 11
-192.95303792
 21
-70.67618708
 31
0.0
  0
LINE
  5
61
100
AcDbEntity
  8
LAYER0002
  6
CONTINUOUS
 62
       7
100
AcDbLine
 10
-135.29906752
 20
-67.15520468
 30
0.0
 11
-134.99144182
 21
-66.85235161
 31
0.0
  0
LINE
  5
62
100
AcDbEntity
  8
LAYER0002
  6
CONTINUOUS
 62
       7
100
AcDbLine
 10
-150.9090209
 20
-60.25907449
 30
0.0
 11
-150.90564614
 21
-60.69074816
 31
0.0
  0
LINE
  5
63
100
AcDbEntity
  8
LAYER0002
  6
CONTINUOUS
 62
       7
100
AcDbLine
 10
-176.32691732
 20
-60.69074816
 30
0.0
 11
-176.32354256
 21
-60.25907449
 31
0.0
  0
LINE
  5
64
100
AcDbEntity
  8
LAYER0002
  6
CONTINUOUS
 62
       7
100
AcDbLine
 10
-192.24112164
 20
-66.85235161
 30
0.0
 11
-191.93349594
 21
-67.15520468
 31
0.0
  0
LINE
  5
65
100
AcDbEntity
  8
LAYER0002
  6
CONTINUOUS
 62
       7
100
AcDbLine
 10
-209.90904932
 20
-85.13075807
 30
0.0
 11
-210.21190239
 21
-84.82313236
 31
0.0
  0
LINE
  5
66
100
AcDbEntity
  8
LAYER0002
  6
CONTINUOUS
 62
       7
100
AcDbLine
 10
-216.80517951
 20
-100.74071144
 30
0.0
 11
-216.37350583
 21
-100.73733668
 31
0.0
  0
LINE
  5
67
100
AcDbEntity
  8
LAYER0002
  6
CONTINUOUS
 62
       7
100
AcDbLine
 10
-216.37350583
 20
-126.15860786
 30
0.0
 11
-216.80517951
 21
-126.15523309
 31
0.0
  0
LINE
  5
68
100
AcDbEntity
  8
LAYER0002
  6
CONTINUOUS
 62
       7
100
AcDbLine
 10
-210.21190239
 20
-142.07281218
 30
0.0
 11
-209.90904932
 21
-141.76518648
 31
0.0
  0
LINE
  5
69
100
AcDbEntity
  8
LAYER0002
  6
CONTINUOUS
 62
       7
100
AcDbLine
 10
-191.93349594
 20
-159.74073987
 30
0.0
 11
-192.24112164
 21
-160.04359293
 31
0.0
  0
LINE
  5
6A
100
AcDbEntity
  8
LAYER0002
  6
CONTINUOUS
 62
       7
100
AcDbLine
 10
-176.32354256
 20
-166.63687005
 30
0.0
 11
-176.32691732
 21
-166.20519637
 31
0.0
  0
LINE
  5
6B
100
AcDbEntity
  8
LAYER0002
  6
CONTINUOUS
 62
       7
100
AcDbLine
 10
-150.90564614
 20
-166.20519637
 30
0.0
 11
-150.9090209
 21
-166.63687005
 31
0.0
  0
LINE
  5
6C
100
AcDbEntity
  8
LAYER0002
  6
CONTINUOUS
 62
       7
100
AcDbLine
 10
-134.99144182
 20
-160.04359293
 30
0.0
 11
-135.29906752
 21
-159.74073986
 31
0.0
  0
LINE
  5
6D
100
AcDbEntity
  8
LAYER0002
  6
CONTINUOUS
 62
       7
100
AcDbLine
 10
-117.32351414
 20
-141.76518648
 30
0.0
 11
-117.02066107
 21
-142.07281218
 31
0.0
  0
LINE
  5
6E
100
AcDbEntity
  8
LAYER0002
  6
CONTINUOUS
 62
       7
100
AcDbLine
 10
-110.42738395
 20
-126.1552331
 30
0.0
 11
-110.85905762
 21
-126.15860786
 31
0.0
  0
LINE
  5
6F
100
AcDbEntity
  8
LAYER0002
  6
CONTINUOUS
 62
       7
100
AcDbLine
 10
-110.85905761
 20
-100.73733667
 30
0.0
 11
-110.42738395
 21
-100.74071144
 31
0.0
  0
LINE
  5
70
100
AcDbEntity
  8
LAYER0002
  6
CONTINUOUS
 62
       7
100
AcDbLine
 10
-192.95303792
 20
-156.21975747
 30
0.0
 11
-191.93349594
 21
-159.74073987
 31
0.0
  0
LINE
  5
71
100
AcDbEntity
  8
LAYER0002
  6
CONTINUOUS
 62
       7
100
AcDbLine
 10
-176.32691732
 20
-166.20519637
 30
0.0
 11
-173.11628173
 21
-164.43641088
 31
0.0
  0
LINE
  5
72
100
AcDbEntity
  8
LAYER0002
  6
CONTINUOUS
 62
       7
100
AcDbLine
 10
-192.24112164
 20
-160.04359293
 30
0.0
 11
-193.2577052
 21
-156.52442475
 31
0.0
  0
LINE
  5
73
100
AcDbEntity
  8
LAYER0002
  6
CONTINUOUS
 62
       7
100
AcDbLine
 10
-173.11628173
 20
-164.86727548
 30
0.0
 11
-176.32354256
 21
-166.63687005
 31
0.0
  0
LINE
  5
74
100
AcDbEntity
  8
LAYER0002
  6
CONTINUOUS
 62
       7
100
AcDbLine
 10
-134.99144182
 20
-66.85235161
 30
0.0
 11
-133.97485826
 21
-70.3715198
 31
0.0
  0
LINE
  5
75
100
AcDbEntity
  8
LAYER0002
  6
CONTINUOUS
 62
       7
100
AcDbLine
 10
-134.27952554
 20
-70.67618708
 30
0.0
 11
-135.29906752
 21
-67.15520468
 31
0.0
  0
LINE
  5
76
100
AcDbEntity
  8
LAYER0002
  6
CONTINUOUS
 62
       7
100
AcDbLine
 10
-150.90564614
 20
-60.69074816
 30
0.0
 11
-154.11628173
 21
-62.45953366
 31
0.0
  0
LINE
  5
77
100
AcDbEntity
  8
LAYER0002
  6
CONTINUOUS
 62
       7
100
AcDbLine
 10
-154.11628173
 20
-62.02866906
 30
0.0
 11
-150.9090209
 21
-60.25907449
 31
0.0
  0
LINE
  5
78
100
AcDbEntity
  8
LAYER0002
  6
CONTINUOUS
 62
       7
100
AcDbLine
 10
-176.32354256
 20
-60.25907449
 30
0.0
 11
-173.11628173
 21
-62.02866906
 31
0.0
  0
LINE
  5
79
100
AcDbEntity
  8
LAYER0002
  6
CONTINUOUS
 62
       7
100
AcDbLine
 10
-154.11628173
 20
-62.56034134
 30
0.0
 11
-154.11628173
 21
-62.02866906
 31
0.0
  0
LINE
  5
7A
100
AcDbEntity
  8
LAYER0002
  6
CONTINUOUS
 62
       7
100
AcDbLine
 10
-216.80517951
 20
-126.15523309
 30
0.0
 11
-215.03558494
 21
-122.94797227
 31
0.0
  0
LINE
  5
7B
100
AcDbEntity
  8
LAYER0002
  6
CONTINUOUS
 62
       7
100
AcDbLine
 10
-154.11628173
 20
-164.43641088
 30
0.0
 11
-150.90564614
 21
-166.20519637
 31
0.0
  0
LINE
  5
7C
100
AcDbEntity
  8
LAYER0002
  6
CONTINUOUS
 62
       7
100
AcDbLine
 10
-135.29906752
 20
-159.74073986
 30
0.0
 11
-134.27952554
 21
-156.21975746
 31
0.0
  0
LINE
  5
7D
100
AcDbEntity
  8
LAYER0002
  6
CONTINUOUS
 62
       7
100
AcDbLine
 10
-112.19697852
 20
-122.94797227
 30
0.0
 11
-110.42738395
 21
-126.1552331
 31
0.0
  0
LINE
  5
7E
100
AcDbEntity
  8
LAYER0002
  6
CONTINUOUS
 62
       7
100
AcDbLine
 10
-110.42738395
 20
-100.74071144
 30
0.0
 11
-112.19697853
 21
-103.94797227
 31
0.0
  0
LINE
  5
7F
100
AcDbEntity
  8
LAYER0002
  6
CONTINUOUS
 62
       7
100
AcDbLine
 10
-150.9090209
 20
-166.63687005
 30
0.0
 11
-154.11628173
 21
-164.86727548
 31
0.0
  0
LINE
  5
80
100
AcDbEntity
  8
LAYER0002
  6
CONTINUOUS
 62
       7
100
AcDbLine
 10
-133.97485826
 20
-156.52442474
 30
0.0
 11
-134.99144182
 21
-160.04359293
 31
0.0
  0
LINE
  5
81
100
AcDbEntity
  8
LAYER0002
  6
CONTINUOUS
 62
       7
100
AcDbLine
 10
-117.02066107
 20
-142.07281218
 30
0.0
 11
-120.53982926
 21
-143.08939574
 31
0.0
  0
LINE
  5
82
100
AcDbEntity
  8
LAYER0002
  6
CONTINUOUS
 62
       7
100
AcDbLine
 10
-193.2577052
 20
-70.3715198
 30
0.0
 11
-192.24112164
 21
-66.85235161
 31
0.0
  0
LINE
  5
83
100
AcDbEntity
  8
LAYER0002
  6
CONTINUOUS
 62
       7
100
AcDbLine
 10
-210.21190239
 20
-84.82313236
 30
0.0
 11
-206.6927342
 21
-83.80654881
 31
0.0
  0
LINE
  5
84
100
AcDbEntity
  8
LAYER0002
  6
CONTINUOUS
 62
       7
100
AcDbLine
 10
-215.03558494
 20
-103.94797227
 30
0.0
 11
-216.80517951
 21
-100.74071144
 31
0.0
  0
LINE
  5
85
100
AcDbEntity
  8
LAYER0002
  6
CONTINUOUS
 62
       7
100
AcDbLine
 10
-206.6927342
 20
-143.08939574
 30
0.0
 11
-210.21190239
 21
-142.07281218
 31
0.0
  0
LINE
  5
86
100
AcDbEntity
  8
LAYER0002
  6
CONTINUOUS
 62
       7
100
AcDbLine
 10
-126.11628173
 20
110.45242577
 30
0.0
 11
-106.61628173
 21
110.45242577
 31
0.0
  0
LINE
  5
87
100
AcDbEntity
  8
LAYER0002
  6
CONTINUOUS
 62
       7
100
AcDbLine
 10
-106.61628173
 20
146.45242577
 30
0.0
 11
-117.41628173
 21
146.45242577
 31
0.0
  0
LINE
  5
88
100
AcDbEntity
  8
LAYER0002
  6
CONTINUOUS
 62
       7
100
AcDbLine
 10
-209.81628173
 20
146.45242577
 30
0.0
 11
-220.61628173
 21
146.45242577
 31
0.0
  0
LINE
  5
89
100
AcDbEntity
  8
LAYER0002
  6
CONTINUOUS
 62
       7
100
AcDbLine
 10
-220.61628173
 20
110.45242577
 30
0.0
 11
-201.11628173
 21
110.45242577
 31
0.0
  0
LINE
  5
8A
100
AcDbEntity
  8
LAYER0002
  6
CONTINUOUS
 62
       7
100
AcDbLine
 10
-218.61628173
 20
110.45242577
 30
0.0
 11
-218.61628173
 21
108.45242577
 31
0.0
  0
LINE
  5
8B
100
AcDbEntity
  8
LAYER0002
  6
CONTINUOUS
 62
       7
100
AcDbLine
 10
-108.61628173
 20
108.45242577
 30
0.0
 11
-108.61628173
 21
110.45242577
 31
0.0
  0
LINE
  5
8C
100
AcDbEntity
  8
LAYER0002
  6
CONTINUOUS
 62
       7
100
AcDbLine
 10
-131.61628173
 20
137.95242577
 30
0.0
 11
-131.61628173
 21
134.45312577
 31
0.0
  0
LINE
  5
8D
100
AcDbEntity
  8
LAYER0002
  6
CONTINUOUS
 62
       7
100
AcDbLine
 10
-121.61628173
 20
134.45312577
 30
0.0
 11
-121.61628173
 21
137.95242577
 31
0.0
  0
LINE
  5
8E
100
AcDbEntity
  8
LAYER0002
  6
CONTINUOUS
 62
       7
100
AcDbLine
 10
-205.61628173
 20
137.95242577
 30
0.0
 11
-205.61628173
 21
134.45312577
 31
0.0
  0
LINE
  5
8F
100
AcDbEntity
  8
LAYER0002
  6
CONTINUOUS
 62
       7
100
AcDbLine
 10
-195.61628173
 20
134.45312577
 30
0.0
 11
-195.61628173
 21
137.95242577
 31
0.0
  0
LINE
  5
90
100
AcDbEntity
  8
LAYER0002
  6
CONTINUOUS
 62
       7
100
AcDbLine
 10
-131.12928173
 20
187.96542577
 30
0.0
 11
-131.12928173
 21
169.41474527
 31
0.0
  0
LINE
  5
91
100
AcDbEntity
  8
LAYER0002
  6
CONTINUOUS
 62
       7
100
AcDbLine
 10
-122.10328173
 20
173.95242577
 30
0.0
 11
-122.10328173
 21
187.96542577
 31
0.0
  0
LINE
  5
92
100
AcDbEntity
  8
LAYER0002
  6
CONTINUOUS
 62
       7
100
AcDbLine
 10
-205.12928173
 20
187.96542577
 30
0.0
 11
-205.12928173
 21
173.95242577
 31
0.0
  0
LINE
  5
93
100
AcDbEntity
  8
LAYER0002
  6
CONTINUOUS
 62
       7
100
AcDbLine
 10
-196.10328173
 20
169.41474527
 30
0.0
 11
-196.10328173
 21
187.96542577
 31
0.0
  0
LINE
  5
94
100
AcDbEntity
  8
LAYER0002
  6
CONTINUOUS
 62
       7
100
AcDbLine
 10
-218.61628173
 20
108.45242577
 30
0.0
 11
-218.30205067
 21
96.45242577
 31
0.0
  0
LINE
  5
95
100
AcDbEntity
  8
LAYER0002
  6
CONTINUOUS
 62
       7
100
AcDbLine
 10
-108.93051279
 20
96.45242577
 30
0.0
 11
-108.61628173
 21
108.45242577
 31
0.0
  0
LINE
  5
96
100
AcDbEntity
  8
LAYER0002
  6
CONTINUOUS
 62
       7
100
AcDbLine
 10
-215.39616889
 20
80.45242577
 30
0.0
 11
-214.88554342
 21
60.95242577
 31
0.0
  0
LINE
  5
97
100
AcDbEntity
  8
LAYER0002
  6
CONTINUOUS
 62
       7
100
AcDbLine
 10
-112.34702004
 20
60.95242577
 30
0.0
 11
-111.83639457
 21
80.45242577
 31
0.0
  0
LINE
  5
98
100
AcDbEntity
  8
LAYER0002
  6
CONTINUOUS
 62
       7
100
AcDbLine
 10
-110.61628173
 20
108.45242577
 30
0.0
 11
-216.61628173
 21
108.45242577
 31
0.0
  0
LINE
  5
99
100
AcDbEntity
  8
LAYER0002
  6
CONTINUOUS
 62
       7
100
AcDbLine
 10
-106.61628173
 20
146.45242577
 30
0.0
 11
-106.61628173
 21
110.45242577
 31
0.0
  0
LINE
  5
9A
100
AcDbEntity
  8
LAYER0002
  6
CONTINUOUS
 62
       7
100
AcDbLine
 10
-220.61628173
 20
110.45242577
 30
0.0
 11
-220.61628173
 21
146.45242577
 31
0.0
  0
LINE
  5
9B
100
AcDbEntity
  8
LAYER0002
  6
CONTINUOUS
 62
       7
100
AcDbLine
 10
-218.61628173
 20
146.45242577
 30
0.0
 11
-218.61628173
 21
148.45242577
 31
0.0
  0
LINE
  5
9C
100
AcDbEntity
  8
LAYER0002
  6
CONTINUOUS
 62
       7
100
AcDbLine
 10
-216.61628173
 20
108.45242577
 30
0.0
 11
-218.61628173
 21
108.45242577
 31
0.0
  0
LINE
  5
9D
100
AcDbEntity
  8
LAYER0002
  6
CONTINUOUS
 62
       7
100
AcDbLine
 10
-108.61628173
 20
146.45242577
 30
0.0
 11
-108.61628173
 21
148.45242577
 31
0.0
  0
LINE
  5
9E
100
AcDbEntity
  8
LAYER0002
  6
CONTINUOUS
 62
       7
100
AcDbLine
 10
-108.61628173
 20
108.45242577
 30
0.0
 11
-110.61628173
 21
108.45242577
 31
0.0
  0
LINE
  5
9F
100
AcDbEntity
  8
LAYER0002
  6
CONTINUOUS
 62
       7
100
AcDbLine
 10
-108.61628173
 20
173.95242577
 30
0.0
 11
-124.91227677
 21
173.95242577
 31
0.0
  0
LINE
  5
A0
100
AcDbEntity
  8
LAYER0002
  6
CONTINUOUS
 62
       7
100
AcDbLine
 10
-218.61628173
 20
173.95242577
 30
0.0
 11
-218.61628173
 21
148.45242577
 31
0.0
  0
LINE
  5
A1
100
AcDbEntity
  8
LAYER0002
  6
CONTINUOUS
 62
       7
100
AcDbLine
 10
-202.32028669
 20
173.95242577
 30
0.0
 11
-218.61628173
 21
173.95242577
 31
0.0
  0
LINE
  5
A2
100
AcDbEntity
  8
LAYER0002
  6
CONTINUOUS
 62
       7
100
AcDbLine
 10
-108.61628173
 20
148.45242577
 30
0.0
 11
-218.61628173
 21
148.45242577
 31
0.0
  0
LINE
  5
A3
100
AcDbEntity
  8
LAYER0002
  6
CONTINUOUS
 62
       7
100
AcDbLine
 10
-121.61628173
 20
134.45312577
 30
0.0
 11
-131.61628173
 21
134.45312577
 31
0.0
  0
LINE
  5
A4
100
AcDbEntity
  8
LAYER0002
  6
CONTINUOUS
 62
       7
100
AcDbLine
 10
-195.61628173
 20
134.45312577
 30
0.0
 11
-205.61628173
 21
134.45312577
 31
0.0
  0
LINE
  5
A5
100
AcDbEntity
  8
LAYER0002
  6
CONTINUOUS
 62
       7
100
AcDbLine
 10
-135.29906752
 20
80.45242577
 30
0.0
 11
-134.99144182
 21
96.45242577
 31
0.0
  0
LINE
  5
A6
100
AcDbEntity
  8
LAYER0002
  6
CONTINUOUS
 62
       7
100
AcDbLine
 10
-150.9090209
 20
96.45242577
 30
0.0
 11
-150.90564614
 21
80.45242577
 31
0.0
  0
LINE
  5
A7
100
AcDbEntity
  8
LAYER0002
  6
CONTINUOUS
 62
       7
100
AcDbLine
 10
-150.9090209
 20
96.45242577
 30
0.0
 11
-176.32354256
 21
96.45242577
 31
0.0
  0
LINE
  5
A8
100
AcDbEntity
  8
LAYER0002
  6
CONTINUOUS
 62
       7
100
AcDbLine
 10
-176.32691732
 20
80.45242577
 30
0.0
 11
-176.32354256
 21
96.45242577
 31
0.0
  0
LINE
  5
A9
100
AcDbEntity
  8
LAYER0002
  6
CONTINUOUS
 62
       7
100
AcDbLine
 10
-192.24112164
 20
96.45242577
 30
0.0
 11
-191.93349594
 21
80.45242577
 31
0.0
  0
LINE
  5
AA
100
AcDbEntity
  8
LAYER0002
  6
CONTINUOUS
 62
       7
100
AcDbLine
 10
-210.21190239
 20
96.45242577
 30
0.0
 11
-192.24112164
 21
96.45242577
 31
0.0
  0
LINE
  5
AB
100
AcDbEntity
  8
LAYER0002
  6
CONTINUOUS
 62
       7
100
AcDbLine
 10
-209.90904932
 20
80.45242577
 30
0.0
 11
-210.21190239
 21
96.45242577
 31
0.0
  0
LINE
  5
AC
100
AcDbEntity
  8
LAYER0002
  6
CONTINUOUS
 62
       7
100
AcDbLine
 10
-216.80517951
 20
96.45242577
 30
0.0
 11
-216.37350583
 21
80.45242577
 31
0.0
  0
LINE
  5
AD
100
AcDbEntity
  8
LAYER0002
  6
CONTINUOUS
 62
       7
100
AcDbLine
 10
-216.80517951
 20
96.45242577
 30
0.0
 11
-218.30205067
 21
96.45242577
 31
0.0
  0
LINE
  5
AE
100
AcDbEntity
  8
LAYER0002
  6
CONTINUOUS
 62
       7
100
AcDbLine
 10
-108.93051279
 20
96.45242577
 30
0.0
 11
-110.42738395
 21
96.45242577
 31
0.0
  0
LINE
  5
AF
100
AcDbEntity
  8
LAYER0002
  6
CONTINUOUS
 62
       7
100
AcDbLine
 10
-110.85905762
 20
80.45242577
 30
0.0
 11
-110.42738395
 21
96.45242577
 31
0.0
  0
LINE
  5
B0
100
AcDbEntity
  8
LAYER0002
  6
CONTINUOUS
 62
       7
100
AcDbLine
 10
-117.02066107
 20
96.45242577
 30
0.0
 11
-117.32351414
 21
80.45242577
 31
0.0
  0
LINE
  5
B1
100
AcDbEntity
  8
LAYER0002
  6
CONTINUOUS
 62
       7
100
AcDbLine
 10
-134.99144182
 20
96.45242577
 30
0.0
 11
-117.02066107
 21
96.45242577
 31
0.0
  0
LINE
  5
B2
100
AcDbEntity
  8
LAYER0002
  6
CONTINUOUS
 62
       7
100
AcDbLine
 10
-173.11628173
 20
96.45242577
 30
0.0
 11
-173.11628173
 21
80.45242577
 31
0.0
  0
LINE
  5
B3
100
AcDbEntity
  8
LAYER0002
  6
CONTINUOUS
 62
       7
100
AcDbLine
 10
-154.11628173
 20
80.45242577
 30
0.0
 11
-154.11628173
 21
96.45242577
 31
0.0
  0
LINE
  5
B4
100
AcDbEntity
  8
LAYER0002
  6
CONTINUOUS
 62
       7
100
AcDbLine
 10
-206.31678512
 20
80.45242577
 30
0.0
 11
-206.61812121
 21
96.45242577
 31
0.0
  0
LINE
  5
B5
100
AcDbEntity
  8
LAYER0002
  6
CONTINUOUS
 62
       7
100
AcDbLine
 10
-112.74178228
 20
60.95242577
 30
0.0
 11
-112.34702004
 21
60.95242577
 31
0.0
  0
LINE
  5
B6
100
AcDbEntity
  8
LAYER0002
  6
CONTINUOUS
 62
       7
100
AcDbLine
 10
-112.74178228
 20
60.95242577
 30
0.0
 11
-112.86053542
 21
56.45242577
 31
0.0
  0
LINE
  5
B7
100
AcDbEntity
  8
LAYER0002
  6
CONTINUOUS
 62
       7
100
AcDbLine
 10
-157.26628173
 20
56.45242577
 30
0.0
 11
-112.86053542
 21
56.45242577
 31
0.0
  0
LINE
  5
B8
100
AcDbEntity
  8
LAYER0002
  6
CONTINUOUS
 62
       7
100
AcDbLine
 10
-157.26628173
 20
56.45242577
 30
0.0
 11
-157.26628173
 21
60.95242577
 31
0.0
  0
LINE
  5
B9
100
AcDbEntity
  8
LAYER0002
  6
CONTINUOUS
 62
       7
100
AcDbLine
 10
-169.96628173
 20
60.95242577
 30
0.0
 11
-157.26628173
 21
60.95242577
 31
0.0
  0
LINE
  5
BA
100
AcDbEntity
  8
LAYER0002
  6
CONTINUOUS
 62
       7
100
AcDbLine
 10
-169.96628173
 20
60.95242577
 30
0.0
 11
-169.96628173
 21
56.45242577
 31
0.0
  0
LINE
  5
BB
100
AcDbEntity
  8
LAYER0002
  6
CONTINUOUS
 62
       7
100
AcDbLine
 10
-214.37202804
 20
56.45242577
 30
0.0
 11
-169.96628173
 21
56.45242577
 31
0.0
  0
LINE
  5
BC
100
AcDbEntity
  8
LAYER0002
  6
CONTINUOUS
 62
       7
100
AcDbLine
 10
-214.37202804
 20
56.45242577
 30
0.0
 11
-214.49078118
 21
60.95242577
 31
0.0
  0
LINE
  5
BD
100
AcDbEntity
  8
LAYER0002
  6
CONTINUOUS
 62
       7
100
AcDbLine
 10
-214.88554342
 20
60.95242577
 30
0.0
 11
-214.49078118
 21
60.95242577
 31
0.0
  0
LINE
  5
BE
100
AcDbEntity
  8
LAYER0002
  6
CONTINUOUS
 62
       7
100
AcDbLine
 10
-192.95303792
 20
80.45242577
 30
0.0
 11
-193.2577052
 21
96.45242577
 31
0.0
  0
LINE
  5
BF
100
AcDbEntity
  8
LAYER0002
  6
CONTINUOUS
 62
       7
100
AcDbLine
 10
-133.97485826
 20
96.45242577
 30
0.0
 11
-134.27952554
 21
80.45242577
 31
0.0
  0
LINE
  5
C0
100
AcDbEntity
  8
LAYER0002
  6
CONTINUOUS
 62
       7
100
AcDbLine
 10
-206.6927342
 20
96.45242577
 30
0.0
 11
-206.38806692
 21
80.45242577
 31
0.0
  0
LINE
  5
C1
100
AcDbEntity
  8
LAYER0002
  6
CONTINUOUS
 62
       7
100
AcDbLine
 10
-120.84449654
 20
80.45242577
 30
0.0
 11
-120.53982926
 21
96.45242577
 31
0.0
  0
LINE
  5
C2
100
AcDbEntity
  8
LAYER0002
  6
CONTINUOUS
 62
       7
100
AcDbLine
 10
140.58216607
 20
-38.44797227
 30
0.0
 11
127.63117579
 21
-38.44797227
 31
0.0
  0
LINE
  5
C3
100
AcDbEntity
  8
LAYER0002
  6
CONTINUOUS
 62
       7
100
AcDbLine
 10
114.13117579
 20
-38.44797227
 30
0.0
 11
110.58216607
 21
-38.44797227
 31
0.0
  0
LINE
  5
C4
100
AcDbEntity
  8
LAYER0002
  6
CONTINUOUS
 62
       7
100
AcDbLine
 10
110.58216607
 20
-48.44797227
 30
0.0
 11
114.13117579
 21
-48.44797227
 31
0.0
  0
LINE
  5
C5
100
AcDbEntity
  8
LAYER0002
  6
CONTINUOUS
 62
       7
100
AcDbLine
 10
127.63117579
 20
-48.44797227
 30
0.0
 11
140.58216607
 21
-48.44797227
 31
0.0
  0
LINE
  5
C6
100
AcDbEntity
  8
LAYER0002
  6
CONTINUOUS
 62
       7
100
AcDbLine
 10
201.09446607
 20
-38.93497227
 30
0.0
 11
164.09446607
 21
-38.93497227
 31
0.0
  0
LINE
  5
C7
100
AcDbEntity
  8
LAYER0002
  6
CONTINUOUS
 62
       7
100
AcDbLine
 10
164.09446607
 20
-47.96097227
 30
0.0
 11
201.09446607
 21
-47.96097227
 31
0.0
  0
LINE
  5
C8
100
AcDbEntity
  8
LAYER0002
  6
CONTINUOUS
 62
       7
100
AcDbLine
 10
164.09446607
 20
-38.93497227
 30
0.0
 11
140.58216607
 21
-38.93497227
 31
0.0
  0
LINE
  5
C9
100
AcDbEntity
  8
LAYER0002
  6
CONTINUOUS
 62
       7
100
AcDbLine
 10
140.58216607
 20
-47.96097227
 30
0.0
 11
164.09446607
 21
-47.96097227
 31
0.0
  0
LINE
  5
CA
100
AcDbEntity
  8
LAYER0002
  6
CONTINUOUS
 62
       7
100
AcDbLine
 10
140.66392455
 20
-186.44797227
 30
0.0
 11
127.63117579
 21
-186.44797227
 31
0.0
  0
LINE
  5
CB
100
AcDbEntity
  8
LAYER0002
  6
CONTINUOUS
 62
       7
100
AcDbLine
 10
114.13117579
 20
-186.44797227
 30
0.0
 11
110.66392455
 21
-186.44797227
 31
0.0
  0
LINE
  5
CC
100
AcDbEntity
  8
LAYER0002
  6
CONTINUOUS
 62
       7
100
AcDbLine
 10
110.66392455
 20
-196.44797227
 30
0.0
 11
114.13117579
 21
-196.44797227
 31
0.0
  0
LINE
  5
CD
100
AcDbEntity
  8
LAYER0002
  6
CONTINUOUS
 62
       7
100
AcDbLine
 10
127.63117579
 20
-196.44797227
 30
0.0
 11
140.66392455
 21
-196.44797227
 31
0.0
  0
LINE
  5
CE
100
AcDbEntity
  8
LAYER0002
  6
CONTINUOUS
 62
       7
100
AcDbLine
 10
164.17622455
 20
-195.96097227
 30
0.0
 11
201.17622455
 21
-195.96097227
 31
0.0
  0
LINE
  5
CF
100
AcDbEntity
  8
LAYER0002
  6
CONTINUOUS
 62
       7
100
AcDbLine
 10
201.17622455
 20
-186.93497227
 30
0.0
 11
164.17622455
 21
-186.93497227
 31
0.0
  0
LINE
  5
D0
100
AcDbEntity
  8
LAYER0002
  6
CONTINUOUS
 62
       7
100
AcDbLine
 10
164.17622455
 20
-186.93497227
 30
0.0
 11
140.66392455
 21
-186.93497227
 31
0.0
  0
LINE
  5
D1
100
AcDbEntity
  8
LAYER0002
  6
CONTINUOUS
 62
       7
100
AcDbLine
 10
140.66392455
 20
-195.96097227
 30
0.0
 11
164.17622455
 21
-195.96097227
 31
0.0
  0
LINE
  5
D2
100
AcDbEntity
  8
LAYER0002
  6
CONTINUOUS
 62
       7
100
AcDbLine
 10
150.13117579
 20
-30.44797227
 30
0.0
 11
150.13117579
 21
-33.44797227
 31
0.0
  0
LINE
  5
D3
100
AcDbEntity
  8
LAYER0002
  6
CONTINUOUS
 62
       7
100
AcDbLine
 10
150.13117579
 20
-201.44797227
 30
0.0
 11
150.13117579
 21
-204.44797227
 31
0.0
  0
LINE
  5
D4
100
AcDbEntity
  8
LAYER0002
  6
CONTINUOUS
 62
       7
100
AcDbLine
 10
130.63117579
 20
-204.44797227
 30
0.0
 11
150.13117579
 21
-204.44797227
 31
0.0
  0
LINE
  5
D5
100
AcDbEntity
  8
LAYER0002
  6
CONTINUOUS
 62
       7
100
AcDbLine
 10
124.63117579
 20
-36.44797227
 30
0.0
 11
124.63117579
 21
-198.44797227
 31
0.0
  0
LINE
  5
D6
100
AcDbEntity
  8
LAYER0002
  6
CONTINUOUS
 62
       7
100
AcDbLine
 10
130.63117579
 20
-30.44797227
 30
0.0
 11
150.13117579
 21
-30.44797227
 31
0.0
  0
LINE
  5
D7
100
AcDbEntity
  8
LAYER0002
  6
CONTINUOUS
 62
       7
100
AcDbLine
 10
140.58216607
 20
-48.44797227
 30
0.0
 11
140.58216607
 21
-38.44797227
 31
0.0
  0
LINE
  5
D8
100
AcDbEntity
  8
LAYER0002
  6
CONTINUOUS
 62
       7
100
AcDbLine
 10
110.58216607
 20
-48.44797227
 30
0.0
 11
110.58216607
 21
-38.44797227
 31
0.0
  0
LINE
  5
D9
100
AcDbEntity
  8
LAYER0002
  6
CONTINUOUS
 62
       7
100
AcDbLine
 10
140.66392455
 20
-191.44797227
 30
0.0
 11
140.66392455
 21
-186.44797227
 31
0.0
  0
LINE
  5
DA
100
AcDbEntity
  8
LAYER0002
  6
CONTINUOUS
 62
       7
100
AcDbLine
 10
140.66392455
 20
-196.44797227
 30
0.0
 11
140.66392455
 21
-191.44797227
 31
0.0
  0
LINE
  5
DB
100
AcDbEntity
  8
LAYER0002
  6
CONTINUOUS
 62
       7
100
AcDbLine
 10
110.66392455
 20
-191.44797227
 30
0.0
 11
110.66392455
 21
-186.44797227
 31
0.0
  0
LINE
  5
DC
100
AcDbEntity
  8
LAYER0002
  6
CONTINUOUS
 62
       7
100
AcDbLine
 10
110.66392455
 20
-196.44797227
 30
0.0
 11
110.66392455
 21
-191.44797227
 31
0.0
  0
LINE
  5
DD
100
AcDbEntity
  8
LAYER0002
  6
CONTINUOUS
 62
       7
100
AcDbLine
 10
-126.11628173
 20
108.45242577
 30
0.0
 11
-126.11628173
 21
134.45312577
 31
0.0
  0
LINE
  5
DE
100
AcDbEntity
  8
LAYER0002
  6
CONTINUOUS
 62
       7
100
AcDbLine
 10
-201.11628173
 20
108.45242577
 30
0.0
 11
-201.11628173
 21
134.45312577
 31
0.0
  0
LINE
  5
DF
100
AcDbEntity
  8
LAYER0002
  6
CONTINUOUS
 62
       7
100
AcDbLine
 10
-201.11628173
 20
-58.44797227
 30
0.0
 11
-201.11628173
 21
-73.21427992
 31
0.0
  0
LINE
  5
E0
100
AcDbEntity
  8
LAYER0002
  6
CONTINUOUS
 62
       7
100
AcDbLine
 10
-126.11628173
 20
-58.44797227
 30
0.0
 11
-126.11628173
 21
-73.21427992
 31
0.0
  0
LINE
  5
E1
100
AcDbEntity
  8
LAYER0002
  6
CONTINUOUS
 62
       7
100
AcDbLine
 10
163.38371827
 20
205.21470174
 30
0.0
 11
163.38371827
 21
169.21470174
 31
0.0
  0
LINE
  5
E2
100
AcDbEntity
  8
LAYER0002
  6
CONTINUOUS
 62
       7
100
AcDbLine
 10
49.38371827
 20
205.21470174
 30
0.0
 11
49.38371827
 21
169.21470174
 31
0.0
  0
LINE
  5
E3
100
AcDbEntity
  8
LAYER0002
  6
CONTINUOUS
 62
       7
100
AcDbLine
 10
68.88371827
 20
206.21470174
 30
0.0
 11
143.88371827
 21
206.21470174
 31
0.0
  0
LINE
  5
E4
100
AcDbEntity
  8
LAYER0002
  6
CONTINUOUS
 62
       7
100
AcDbLine
 10
56.38371827
 20
88.21470174
 30
0.0
 11
156.38371827
 21
88.21470174
 31
0.0
  0
LINE
  5
E5
100
AcDbEntity
  8
LAYER0002
  6
CONTINUOUS
 62
       7
100
AcDbLine
 10
161.38371827
 20
93.21470174
 30
0.0
 11
161.38371827
 21
151.21470174
 31
0.0
  0
LINE
  5
E6
100
AcDbEntity
  8
LAYER0002
  6
CONTINUOUS
 62
       7
100
AcDbLine
 10
51.38371827
 20
93.21470174
 30
0.0
 11
51.38371827
 21
151.21470174
 31
0.0
  0
LINE
  5
E7
100
AcDbEntity
  8
LAYER0002
  6
CONTINUOUS
 62
       7
100
AcDbLine
 10
68.88371827
 20
205.21470174
 30
0.0
 11
49.38371827
 21
205.21470174
 31
0.0
  0
LINE
  5
E8
100
AcDbEntity
  8
LAYER0002
  6
CONTINUOUS
 62
       7
100
AcDbLine
 10
143.88371827
 20
205.21470174
 30
0.0
 11
163.38371827
 21
205.21470174
 31
0.0
  0
LINE
  5
E9
100
AcDbEntity
  8
LAYER0002
  6
CONTINUOUS
 62
       7
100
AcDbLine
 10
163.38371827
 20
169.21470174
 30
0.0
 11
158.18963736
 21
169.21470174
 31
0.0
  0
LINE
  5
EA
100
AcDbEntity
  8
LAYER0002
  6
CONTINUOUS
 62
       7
100
AcDbLine
 10
54.41257243
 20
169.21470174
 30
0.0
 11
49.38371827
 21
169.21470174
 31
0.0
  0
LINE
  5
EB
100
AcDbEntity
  8
LAYER0002
  6
CONTINUOUS
 62
       7
100
AcDbLine
 10
143.88371827
 20
206.21470174
 30
0.0
 11
143.88371715
 21
191.44839514
 31
0.0
  0
LINE
  5
EC
100
AcDbEntity
  8
LAYER0002
  6
CONTINUOUS
 62
       7
100
AcDbLine
 10
68.88371827
 20
206.21470174
 30
0.0
 11
68.88371508
 21
191.44839112
 31
0.0
  0
LINE
  5
ED
100
AcDbEntity
  8
LAYER0002
  6
CONTINUOUS
 62
       7
100
AcDbLine
 10
-218.61628173
 20
-30.44797227
 30
0.0
 11
-218.61628173
 21
-59.44797227
 31
0.0
  0
LINE
  5
EE
100
AcDbEntity
  8
LAYER0002
  6
CONTINUOUS
 62
       7
100
AcDbLine
 10
-108.61628173
 20
-30.44797227
 30
0.0
 11
-108.61628173
 21
-59.44797227
 31
0.0
  0
LINE
  5
EF
100
AcDbEntity
  8
LAYER0002
  6
CONTINUOUS
 62
       7
100
AcDbLine
 10
-200.11628173
 20
109.45242577
 30
0.0
 11
-200.11628173
 21
134.45312577
 31
0.0
  0
LINE
  5
F0
100
AcDbEntity
  8
LAYER0002
  6
CONTINUOUS
 62
       7
100
AcDbLine
 10
-191.41628173
 20
147.45242577
 30
0.0
 11
-135.81628173
 21
147.45242577
 31
0.0
  0
LINE
  5
F1
100
AcDbEntity
  8
LAYER0002
  6
CONTINUOUS
 62
       7
100
AcDbLine
 10
-127.11628173
 20
109.45242577
 30
0.0
 11
-127.11628173
 21
134.45312577
 31
0.0
  0
LINE
  5
F2
100
AcDbEntity
  8
LAYER0002
  6
CONTINUOUS
 62
       7
100
AcDbLine
 10
-127.11628173
 20
109.45242577
 30
0.0
 11
-200.11628173
 21
109.45242577
 31
0.0
  0
LINE
  5
F3
100
AcDbEntity
  8
LAYER0002
  6
CONTINUOUS
 62
       7
100
AcDbLine
 10
-200.11628173
 20
-57.94797227
 30
0.0
 11
-127.11628173
 21
-57.94797227
 31
0.0
  0
LINE
  5
F4
100
AcDbEntity
  8
LAYER0002
  6
CONTINUOUS
 62
       7
100
AcDbLine
 10
-200.11628173
 20
-57.94797227
 30
0.0
 11
-200.11628173
 21
-58.44797227
 31
0.0
  0
LINE
  5
F5
100
AcDbEntity
  8
LAYER0002
  6
CONTINUOUS
 62
       7
100
AcDbLine
 10
-127.11628173
 20
-57.94797227
 30
0.0
 11
-127.11628173
 21
-58.44797227
 31
0.0
  0
LINE
  5
F6
100
AcDbEntity
  8
LAYER0002
  6
CONTINUOUS
 62
       7
100
AcDbLine
 10
-108.61628173
 20
173.95242577
 30
0.0
 11
-108.61628173
 21
148.45242577
 31
0.0
  0
LINE
  5
F7
100
AcDbEntity
  8
LAYER0002
  6
CONTINUOUS
 62
       7
100
AcDbLine
 10
150.13117579
 20
-33.44797227
 30
0.0
 11
130.63117579
 21
-33.44797227
 31
0.0
  0
LINE
  5
F8
100
AcDbEntity
  8
LAYER0002
  6
CONTINUOUS
 62
       7
100
AcDbLine
 10
127.63117579
 20
-36.44797227
 30
0.0
 11
127.63117579
 21
-198.44797227
 31
0.0
  0
LINE
  5
F9
100
AcDbEntity
  8
LAYER0002
  6
CONTINUOUS
 62
       7
100
AcDbLine
 10
130.63117579
 20
-201.44797227
 30
0.0
 11
150.13117579
 21
-201.44797227
 31
0.0
  0
LINE
  5
FA
100
AcDbEntity
  8
LAYER0002
  6
CONTINUOUS
 62
       7
100
AcDbLine
 10
142.75407852
 20
-56.44797227
 30
0.0
 11
128.63117579
 21
-56.44797227
 31
0.0
  0
LINE
  5
FB
100
AcDbEntity
  8
LAYER0002
  6
CONTINUOUS
 62
       7
100
AcDbLine
 10
142.75407852
 20
-59.44797227
 30
0.0
 11
128.63117579
 21
-59.44797227
 31
0.0
  0
LINE
  5
FC
100
AcDbEntity
  8
LAYER0002
  6
CONTINUOUS
 62
       7
100
AcDbLine
 10
136.13117579
 20
-59.44797227
 30
0.0
 11
136.13117579
 21
-56.44797227
 31
0.0
  0
LINE
  5
FD
100
AcDbEntity
  8
LAYER0002
  6
CONTINUOUS
 62
       7
100
AcDbLine
 10
142.75407852
 20
-59.44797227
 30
0.0
 11
142.75407852
 21
-56.44797227
 31
0.0
  0
LINE
  5
FE
100
AcDbEntity
  8
LAYER0002
  6
CONTINUOUS
 62
       7
100
AcDbLine
 10
142.75407852
 20
-175.44797227
 30
0.0
 11
128.63117579
 21
-175.44797227
 31
0.0
  0
LINE
  5
FF
100
AcDbEntity
  8
LAYER0002
  6
CONTINUOUS
 62
       7
100
AcDbLine
 10
142.75407852
 20
-178.44797227
 30
0.0
 11
128.63117579
 21
-178.44797227
 31
0.0
  0
LINE
  5
100
100
AcDbEntity
  8
LAYER0002
  6
CONTINUOUS
 62
       7
100
AcDbLine
 10
136.13117579
 20
-178.44797227
 30
0.0
 11
136.13117579
 21
-175.44797227
 31
0.0
  0
LINE
  5
101
100
AcDbEntity
  8
LAYER0002
  6
CONTINUOUS
 62
       7
100
AcDbLine
 10
142.75407852
 20
-178.44797227
 30
0.0
 11
142.75407852
 21
-175.44797227
 31
0.0
  0
LINE
  5
102
100
AcDbEntity
  8
LAYER0002
  6
CONTINUOUS
 62
       7
100
AcDbLine
 10
-218.61628173
 20
-171.44797227
 30
0.0
 11
-218.61628173
 21
-204.44797227
 31
0.0
  0
LINE
  5
103
100
AcDbEntity
  8
LAYER0002
  6
CONTINUOUS
 62
       7
100
AcDbLine
 10
-218.61628173
 20
-95.44797227
 30
0.0
 11
-218.61628173
 21
-128.41460182
 31
0.0
  0
LINE
  5
104
100
AcDbEntity
  8
LAYER0002
  6
CONTINUOUS
 62
       7
100
AcDbLine
 10
-108.61628173
 20
-204.44797227
 30
0.0
 11
-108.61628173
 21
-171.44797227
 31
0.0
  0
LINE
  5
105
100
AcDbEntity
  8
LAYER0002
  6
CONTINUOUS
 62
       7
100
AcDbLine
 10
-108.61628173
 20
-95.44797227
 30
0.0
 11
-108.61628173
 21
-171.44797227
 31
0.0
  0
LINE
  5
106
100
AcDbEntity
  8
LAYER0002
  6
CONTINUOUS
 62
       7
100
AcDbLine
 10
84.63117579
 20
-176.44797227
 30
0.0
 11
124.63117579
 21
-176.44797227
 31
0.0
  0
LINE
  5
107
100
AcDbEntity
  8
LAYER0002
  6
CONTINUOUS
 62
       7
100
AcDbLine
 10
114.63117579
 20
-176.44797227
 30
0.0
 11
114.63117579
 21
-113.44797227
 31
0.0
  0
LINE
  5
108
100
AcDbEntity
  8
LAYER0002
  6
CONTINUOUS
 62
       7
100
AcDbLine
 10
84.63117579
 20
-58.44797227
 30
0.0
 11
72.63117579
 21
-58.76220333
 31
0.0
  0
LINE
  5
109
100
AcDbEntity
  8
LAYER0002
  6
CONTINUOUS
 62
       7
100
AcDbLine
 10
72.63117579
 20
-168.13374121
 30
0.0
 11
84.63117579
 21
-168.44797227
 31
0.0
  0
LINE
  5
10A
100
AcDbEntity
  8
LAYER0002
  6
CONTINUOUS
 62
       7
100
AcDbLine
 10
56.63117579
 20
-61.66808511
 30
0.0
 11
37.13117579
 21
-62.17871058
 31
0.0
  0
LINE
  5
10B
100
AcDbEntity
  8
LAYER0002
  6
CONTINUOUS
 62
       7
100
AcDbLine
 10
37.13117579
 20
-164.71723396
 30
0.0
 11
56.63117579
 21
-165.22785943
 31
0.0
  0
LINE
  5
10C
100
AcDbEntity
  8
LAYER0002
  6
CONTINUOUS
 62
       7
100
AcDbLine
 10
84.63117579
 20
-58.44797227
 30
0.0
 11
84.63117579
 21
-176.44797227
 31
0.0
  0
LINE
  5
10D
100
AcDbEntity
  8
LAYER0002
  6
CONTINUOUS
 62
       7
100
AcDbLine
 10
56.63117579
 20
-141.76518648
 30
0.0
 11
72.63117579
 21
-142.07281218
 31
0.0
  0
LINE
  5
10E
100
AcDbEntity
  8
LAYER0002
  6
CONTINUOUS
 62
       7
100
AcDbLine
 10
72.63117579
 20
-126.1552331
 30
0.0
 11
56.63117579
 21
-126.15860786
 31
0.0
  0
LINE
  5
10F
100
AcDbEntity
  8
LAYER0002
  6
CONTINUOUS
 62
       7
100
AcDbLine
 10
72.63117579
 20
-126.1552331
 30
0.0
 11
72.63117579
 21
-100.74071144
 31
0.0
  0
LINE
  5
110
100
AcDbEntity
  8
LAYER0002
  6
CONTINUOUS
 62
       7
100
AcDbLine
 10
56.63117579
 20
-100.73733668
 30
0.0
 11
72.63117579
 21
-100.74071144
 31
0.0
  0
LINE
  5
111
100
AcDbEntity
  8
LAYER0002
  6
CONTINUOUS
 62
       7
100
AcDbLine
 10
72.63117579
 20
-84.82313236
 30
0.0
 11
56.63117579
 21
-85.13075806
 31
0.0
  0
LINE
  5
112
100
AcDbEntity
  8
LAYER0002
  6
CONTINUOUS
 62
       7
100
AcDbLine
 10
72.63117579
 20
-66.85235161
 30
0.0
 11
72.63117579
 21
-84.82313236
 31
0.0
  0
LINE
  5
113
100
AcDbEntity
  8
LAYER0002
  6
CONTINUOUS
 62
       7
100
AcDbLine
 10
56.63117579
 20
-67.15520468
 30
0.0
 11
72.63117579
 21
-66.85235161
 31
0.0
  0
LINE
  5
114
100
AcDbEntity
  8
LAYER0002
  6
CONTINUOUS
 62
       7
100
AcDbLine
 10
72.63117579
 20
-60.25907449
 30
0.0
 11
56.63117579
 21
-60.69074817
 31
0.0
  0
LINE
  5
115
100
AcDbEntity
  8
LAYER0002
  6
CONTINUOUS
 62
       7
100
AcDbLine
 10
72.63117579
 20
-60.25907449
 30
0.0
 11
72.63117579
 21
-58.76220333
 31
0.0
  0
LINE
  5
116
100
AcDbEntity
  8
LAYER0002
  6
CONTINUOUS
 62
       7
100
AcDbLine
 10
72.63117579
 20
-168.13374121
 30
0.0
 11
72.63117579
 21
-166.63687005
 31
0.0
  0
LINE
  5
117
100
AcDbEntity
  8
LAYER0002
  6
CONTINUOUS
 62
       7
100
AcDbLine
 10
56.63117579
 20
-166.20519638
 30
0.0
 11
72.63117579
 21
-166.63687005
 31
0.0
  0
LINE
  5
118
100
AcDbEntity
  8
LAYER0002
  6
CONTINUOUS
 62
       7
100
AcDbLine
 10
72.63117579
 20
-160.04359293
 30
0.0
 11
56.63117579
 21
-159.74073986
 31
0.0
  0
LINE
  5
119
100
AcDbEntity
  8
LAYER0002
  6
CONTINUOUS
 62
       7
100
AcDbLine
 10
72.63117579
 20
-142.07281218
 30
0.0
 11
72.63117579
 21
-160.04359293
 31
0.0
  0
LINE
  5
11A
100
AcDbEntity
  8
LAYER0002
  6
CONTINUOUS
 62
       7
100
AcDbLine
 10
72.63117579
 20
-103.94797227
 30
0.0
 11
56.63117579
 21
-103.94797227
 31
0.0
  0
LINE
  5
11B
100
AcDbEntity
  8
LAYER0002
  6
CONTINUOUS
 62
       7
100
AcDbLine
 10
56.63117579
 20
-122.94797227
 30
0.0
 11
72.63117579
 21
-122.94797227
 31
0.0
  0
LINE
  5
11C
100
AcDbEntity
  8
LAYER0002
  6
CONTINUOUS
 62
       7
100
AcDbLine
 10
56.63117579
 20
-70.74746888
 30
0.0
 11
72.63117579
 21
-70.44613279
 31
0.0
  0
LINE
  5
11D
100
AcDbEntity
  8
LAYER0002
  6
CONTINUOUS
 62
       7
100
AcDbLine
 10
37.13117579
 20
-164.32247172
 30
0.0
 11
37.13117579
 21
-164.71723396
 31
0.0
  0
LINE
  5
11E
100
AcDbEntity
  8
LAYER0002
  6
CONTINUOUS
 62
       7
100
AcDbLine
 10
37.13117579
 20
-164.32247172
 30
0.0
 11
32.63117579
 21
-164.20371858
 31
0.0
  0
LINE
  5
11F
100
AcDbEntity
  8
LAYER0002
  6
CONTINUOUS
 62
       7
100
AcDbLine
 10
32.63117579
 20
-119.79797227
 30
0.0
 11
32.63117579
 21
-164.20371858
 31
0.0
  0
LINE
  5
120
100
AcDbEntity
  8
LAYER0002
  6
CONTINUOUS
 62
       7
100
AcDbLine
 10
32.63117579
 20
-119.79797227
 30
0.0
 11
37.13117579
 21
-119.79797227
 31
0.0
  0
LINE
  5
121
100
AcDbEntity
  8
LAYER0002
  6
CONTINUOUS
 62
       7
100
AcDbLine
 10
37.13117579
 20
-107.09797227
 30
0.0
 11
37.13117579
 21
-119.79797227
 31
0.0
  0
LINE
  5
122
100
AcDbEntity
  8
LAYER0002
  6
CONTINUOUS
 62
       7
100
AcDbLine
 10
37.13117579
 20
-107.09797227
 30
0.0
 11
32.63117579
 21
-107.09797227
 31
0.0
  0
LINE
  5
123
100
AcDbEntity
  8
LAYER0002
  6
CONTINUOUS
 62
       7
100
AcDbLine
 10
32.63117579
 20
-62.69222596
 30
0.0
 11
32.63117579
 21
-107.09797227
 31
0.0
  0
LINE
  5
124
100
AcDbEntity
  8
LAYER0002
  6
CONTINUOUS
 62
       7
100
AcDbLine
 10
32.63117579
 20
-62.69222596
 30
0.0
 11
37.13117579
 21
-62.57347282
 31
0.0
  0
LINE
  5
125
100
AcDbEntity
  8
LAYER0002
  6
CONTINUOUS
 62
       7
100
AcDbLine
 10
37.13117579
 20
-62.17871058
 30
0.0
 11
37.13117579
 21
-62.57347282
 31
0.0
  0
LINE
  5
126
100
AcDbEntity
  8
LAYER0002
  6
CONTINUOUS
 62
       7
100
AcDbLine
 10
56.63117579
 20
-84.11121608
 30
0.0
 11
72.63117579
 21
-83.8065488
 31
0.0
  0
LINE
  5
127
100
AcDbEntity
  8
LAYER0002
  6
CONTINUOUS
 62
       7
100
AcDbLine
 10
72.63117579
 20
-143.08939574
 30
0.0
 11
56.63117579
 21
-142.78472846
 31
0.0
  0
LINE
  5
128
100
AcDbEntity
  8
LAYER0002
  6
CONTINUOUS
 62
       7
100
AcDbLine
 10
72.63117579
 20
-70.3715198
 30
0.0
 11
56.63117579
 21
-70.67618708
 31
0.0
  0
LINE
  5
129
100
AcDbEntity
  8
LAYER0002
  6
CONTINUOUS
 62
       7
100
AcDbLine
 10
56.63117579
 20
-156.21975746
 30
0.0
 11
72.63117579
 21
-156.52442474
 31
0.0
  0
LINE
  5
12A
100
AcDbEntity
  8
LAYER0002
  6
CONTINUOUS
 62
       7
100
AcDbLine
 10
84.63117579
 20
-160.61787852
 30
0.0
 11
114.63117579
 21
-160.61787852
 31
0.0
  0
LINE
  5
12B
100
AcDbEntity
  8
LAYER0002
  6
CONTINUOUS
 62
       7
100
AcDbLine
 10
84.63117579
 20
-158.962794
 30
0.0
 11
114.63117579
 21
-158.962794
 31
0.0
  0
LINE
  5
12C
100
AcDbEntity
  8
LAYER0002
  6
CONTINUOUS
 62
       7
100
AcDbLine
 10
84.63117579
 20
-58.44797227
 30
0.0
 11
124.63117579
 21
-58.44797227
 31
0.0
  0
LINE
  5
12D
100
AcDbEntity
  8
LAYER0002
  6
CONTINUOUS
 62
       7
100
AcDbLine
 10
-206.31678512
 20
80.45242577
 30
0.0
 11
-216.37351905
 21
80.45242577
 31
0.0
  0
LINE
  5
12E
100
AcDbEntity
  8
LAYER0002
  6
CONTINUOUS
 62
       7
100
AcDbLine
 10
-173.11628173
 20
80.45242577
 30
0.0
 11
-192.95303792
 21
80.45242577
 31
0.0
  0
LINE
  5
12F
100
AcDbEntity
  8
LAYER0002
  6
CONTINUOUS
 62
       7
100
AcDbLine
 10
-110.85905762
 20
80.45242577
 30
0.0
 11
-120.91577834
 21
80.45242577
 31
0.0
  0
LINE
  5
130
100
AcDbEntity
  8
LAYER0002
  6
CONTINUOUS
 62
       7
100
AcDbLine
 10
-134.27952554
 20
80.45242577
 30
0.0
 11
-154.11628173
 21
80.45242577
 31
0.0
  0
LINE
  5
131
100
AcDbEntity
  8
LAYER0002
  6
CONTINUOUS
 62
       7
100
AcDbLine
 10
56.63117579
 20
-70.74746888
 30
0.0
 11
56.63117579
 21
-60.69073496
 31
0.0
  0
LINE
  5
132
100
AcDbEntity
  8
LAYER0002
  6
CONTINUOUS
 62
       7
100
AcDbLine
 10
56.63117579
 20
-166.20519638
 30
0.0
 11
56.63117579
 21
-122.94797227
 31
0.0
  0
LINE
  5
133
100
AcDbEntity
  8
LAYER0002
  6
CONTINUOUS
 62
       7
100
AcDbLine
 10
56.63117579
 20
-103.94797227
 30
0.0
 11
56.63117579
 21
-84.11121608
 31
0.0
  0
LINE
  5
134
100
AcDbEntity
  8
LAYER0002
  6
CONTINUOUS
 62
       7
100
AcDbLine
 10
-206.6927342
 20
-83.80654881
 30
0.0
 11
-206.31678513
 21
-84.18249789
 31
0.0
  0
LINE
  5
135
100
AcDbEntity
  8
LAYER0002
  6
CONTINUOUS
 62
       7
100
AcDbLine
 10
-192.88175612
 20
-70.74746887
 30
0.0
 11
-193.2577052
 21
-70.3715198
 31
0.0
  0
LINE
  5
136
100
AcDbEntity
  8
LAYER0002
  6
CONTINUOUS
 62
       7
100
AcDbLine
 10
-214.50391266
 20
-103.94797227
 30
0.0
 11
-215.03558494
 21
-103.94797227
 31
0.0
  0
LINE
  5
137
100
AcDbEntity
  8
LAYER0002
  6
CONTINUOUS
 62
       7
100
AcDbLine
 10
-215.03558494
 20
-122.94797227
 30
0.0
 11
-214.50391266
 21
-122.94797227
 31
0.0
  0
LINE
  5
138
100
AcDbEntity
  8
LAYER0002
  6
CONTINUOUS
 62
       7
100
AcDbLine
 10
-206.31678513
 20
-142.71344666
 30
0.0
 11
-206.6927342
 21
-143.08939574
 31
0.0
  0
LINE
  5
139
100
AcDbEntity
  8
LAYER0002
  6
CONTINUOUS
 62
       7
100
AcDbLine
 10
-193.2577052
 20
-156.52442475
 30
0.0
 11
-192.88175612
 21
-156.14847567
 31
0.0
  0
LINE
  5
13A
100
AcDbEntity
  8
LAYER0002
  6
CONTINUOUS
 62
       7
100
AcDbLine
 10
-134.35080734
 20
-70.74746887
 30
0.0
 11
-133.97485826
 21
-70.3715198
 31
0.0
  0
LINE
  5
13B
100
AcDbEntity
  8
LAYER0002
  6
CONTINUOUS
 62
       7
100
AcDbLine
 10
-120.91577834
 20
-84.18249788
 30
0.0
 11
-120.53982926
 21
-83.8065488
 31
0.0
  0
LINE
  5
13C
100
AcDbEntity
  8
LAYER0002
  6
CONTINUOUS
 62
       7
100
AcDbLine
 10
-112.72865081
 20
-103.94797227
 30
0.0
 11
-112.19697853
 21
-103.94797227
 31
0.0
  0
LINE
  5
13D
100
AcDbEntity
  8
LAYER0002
  6
CONTINUOUS
 62
       7
100
AcDbLine
 10
-112.7286508
 20
-122.94797227
 30
0.0
 11
-112.19697852
 21
-122.94797227
 31
0.0
  0
LINE
  5
13E
100
AcDbEntity
  8
LAYER0002
  6
CONTINUOUS
 62
       7
100
AcDbLine
 10
-120.91577833
 20
-142.71344666
 30
0.0
 11
-120.53982926
 21
-143.08939574
 31
0.0
  0
LINE
  5
13F
100
AcDbEntity
  8
LAYER0002
  6
CONTINUOUS
 62
       7
100
AcDbLine
 10
-134.35080734
 20
-156.14847567
 30
0.0
 11
-133.97485826
 21
-156.52442474
 31
0.0
  0
LINE
  5
140
100
AcDbEntity
  8
LAYER0002
  6
CONTINUOUS
 62
       7
100
AcDbLine
 10
-154.11628173
 20
-164.3356032
 30
0.0
 11
-154.11628173
 21
-164.86727548
 31
0.0
  0
LINE
  5
141
100
AcDbEntity
  8
LAYER0002
  6
CONTINUOUS
 62
       7
100
AcDbLine
 10
-173.11628173
 20
-164.3356032
 30
0.0
 11
-173.11628173
 21
-164.86727548
 31
0.0
  0
LINE
  5
142
100
AcDbEntity
  8
LAYER0002
  6
CONTINUOUS
 62
       7
100
AcDbLine
 10
-126.61628173
 20
-201.26292685
 30
0.0
 11
-118.11628173
 21
-196.35544956
 31
0.0
  0
LINE
  5
143
100
AcDbEntity
  8
LAYER0002
  6
CONTINUOUS
 62
       7
100
AcDbLine
 10
-118.11628173
 20
-196.35544956
 30
0.0
 11
-118.11628173
 21
-186.54049498
 31
0.0
  0
LINE
  5
144
100
AcDbEntity
  8
LAYER0002
  6
CONTINUOUS
 62
       7
100
AcDbLine
 10
-118.11628173
 20
-186.54049498
 30
0.0
 11
-126.61628173
 21
-181.63301769
 31
0.0
  0
LINE
  5
145
100
AcDbEntity
  8
LAYER0002
  6
CONTINUOUS
 62
       7
100
AcDbLine
 10
-126.61628173
 20
-181.63301769
 30
0.0
 11
-135.11628173
 21
-186.54049498
 31
0.0
  0
LINE
  5
146
100
AcDbEntity
  8
LAYER0002
  6
CONTINUOUS
 62
       7
100
AcDbLine
 10
-135.11628173
 20
-186.54049498
 30
0.0
 11
-135.11628173
 21
-196.35544956
 31
0.0
  0
LINE
  5
147
100
AcDbEntity
  8
LAYER0002
  6
CONTINUOUS
 62
       7
100
AcDbLine
 10
-135.11628173
 20
-196.35544956
 30
0.0
 11
-126.61628173
 21
-201.26292685
 31
0.0
  0
LINE
  5
148
100
AcDbEntity
  8
LAYER0002
  6
CONTINUOUS
 62
       7
100
AcDbLine
 10
-120.61444225
 20
96.45242577
 30
0.0
 11
-120.76483283
 21
88.4666013
 31
0.0
  0
LINE
  5
149
100
AcDbEntity
  8
LAYER0002
  6
CONTINUOUS
 62
       7
100
AcDbLine
 10
-120.76483283
 20
88.4666013
 30
0.0
 11
-120.91577834
 21
80.45242577
 31
0.0
  0
LINE
  5
14A
100
AcDbEntity
  8
LAYER0002
  6
CONTINUOUS
 62
       7
100
AcDbLine
 10
72.63117579
 20
-156.44981175
 30
0.0
 11
64.64535132
 21
-156.29942117
 31
0.0
  0
LINE
  5
14B
100
AcDbEntity
  8
LAYER0002
  6
CONTINUOUS
 62
       7
100
AcDbLine
 10
64.64535132
 20
-156.29942117
 30
0.0
 11
56.63117579
 21
-156.14847566
 31
0.0
  0
LINE
  5
14C
100
AcDbEntity
  8
LAYER0002
  6
CONTINUOUS
 62
       7
100
AcDbLine
 10
-200.61628173
 20
-201.26292685
 30
0.0
 11
-192.11628173
 21
-196.35544956
 31
0.0
  0
LINE
  5
14D
100
AcDbEntity
  8
LAYER0002
  6
CONTINUOUS
 62
       7
100
AcDbLine
 10
-192.11628173
 20
-196.35544956
 30
0.0
 11
-192.11628173
 21
-186.54049498
 31
0.0
  0
LINE
  5
14E
100
AcDbEntity
  8
LAYER0002
  6
CONTINUOUS
 62
       7
100
AcDbLine
 10
-192.11628173
 20
-186.54049498
 30
0.0
 11
-200.61628173
 21
-181.63301769
 31
0.0
  0
LINE
  5
14F
100
AcDbEntity
  8
LAYER0002
  6
CONTINUOUS
 62
       7
100
AcDbLine
 10
-200.61628173
 20
-181.63301769
 30
0.0
 11
-209.11628173
 21
-186.54049498
 31
0.0
  0
LINE
  5
150
100
AcDbEntity
  8
LAYER0002
  6
CONTINUOUS
 62
       7
100
AcDbLine
 10
-209.11628173
 20
-186.54049498
 30
0.0
 11
-209.11628173
 21
-196.35544956
 31
0.0
  0
LINE
  5
151
100
AcDbEntity
  8
LAYER0002
  6
CONTINUOUS
 62
       7
100
AcDbLine
 10
-209.11628173
 20
-196.35544956
 30
0.0
 11
-200.61628173
 21
-201.26292685
 31
0.0
  0
LINE
  5
152
100
AcDbEntity
  8
LAYER0002
  6
CONTINUOUS
 62
       7
100
AcDbLine
 10
129.63117579
 20
-174.94797227
 30
0.0
 11
134.43835548
 21
-174.94797227
 31
0.0
  0
LINE
  5
153
100
AcDbEntity
  8
LAYER0002
  6
CONTINUOUS
 62
       7
100
AcDbLine
 10
129.63117579
 20
-171.19519551
 30
0.0
 11
134.43835547
 21
-171.19519551
 31
0.0
  0
LINE
  5
154
100
AcDbEntity
  8
LAYER0002
  6
CONTINUOUS
 62
       7
100
AcDbLine
 10
135.13117579
 20
-173.0715839
 30
0.0
 11
135.13117579
 21
-161.82436064
 31
0.0
  0
LINE
  5
155
100
AcDbEntity
  8
LAYER0002
  6
CONTINUOUS
 62
       7
100
AcDbLine
 10
129.63117579
 20
-159.94797226
 30
0.0
 11
134.43835548
 21
-159.94797226
 31
0.0
  0
LINE
  5
156
100
AcDbEntity
  8
LAYER0002
  6
CONTINUOUS
 62
       7
100
AcDbLine
 10
129.63117579
 20
-163.70074902
 30
0.0
 11
134.43835547
 21
-163.70074902
 31
0.0
  0
LINE
  5
157
100
AcDbEntity
  8
LAYER0002
  6
CONTINUOUS
 62
       7
100
AcDbLine
 10
129.63117579
 20
-159.74797227
 30
0.0
 11
127.63117579
 21
-159.74797227
 31
0.0
  0
LINE
  5
158
100
AcDbEntity
  8
LAYER0002
  6
CONTINUOUS
 62
       7
100
AcDbLine
 10
127.63117579
 20
-175.14797227
 30
0.0
 11
129.63117579
 21
-175.14797227
 31
0.0
  0
LINE
  5
159
100
AcDbEntity
  8
LAYER0002
  6
CONTINUOUS
 62
       7
100
AcDbLine
 10
129.63117579
 20
-175.14797227
 30
0.0
 11
129.63117579
 21
-159.74797227
 31
0.0
  0
LINE
  5
15A
100
AcDbEntity
  8
LAYER0002
  6
CONTINUOUS
 62
       7
100
AcDbLine
 10
129.63117579
 20
-104.94797227
 30
0.0
 11
134.43835548
 21
-104.94797227
 31
0.0
  0
LINE
  5
15B
100
AcDbEntity
  8
LAYER0002
  6
CONTINUOUS
 62
       7
100
AcDbLine
 10
129.63117579
 20
-101.19519551
 30
0.0
 11
134.43835547
 21
-101.19519551
 31
0.0
  0
LINE
  5
15C
100
AcDbEntity
  8
LAYER0002
  6
CONTINUOUS
 62
       7
100
AcDbLine
 10
135.13117579
 20
-103.0715839
 30
0.0
 11
135.13117579
 21
-91.82436064
 31
0.0
  0
LINE
  5
15D
100
AcDbEntity
  8
LAYER0002
  6
CONTINUOUS
 62
       7
100
AcDbLine
 10
129.63117579
 20
-89.94797226
 30
0.0
 11
134.43835548
 21
-89.94797226
 31
0.0
  0
LINE
  5
15E
100
AcDbEntity
  8
LAYER0002
  6
CONTINUOUS
 62
       7
100
AcDbLine
 10
129.63117579
 20
-93.70074902
 30
0.0
 11
134.43835547
 21
-93.70074902
 31
0.0
  0
LINE
  5
15F
100
AcDbEntity
  8
LAYER0002
  6
CONTINUOUS
 62
       7
100
AcDbLine
 10
129.63117579
 20
-89.74797227
 30
0.0
 11
127.63117579
 21
-89.74797227
 31
0.0
  0
LINE
  5
160
100
AcDbEntity
  8
LAYER0002
  6
CONTINUOUS
 62
       7
100
AcDbLine
 10
127.63117579
 20
-105.14797227
 30
0.0
 11
129.63117579
 21
-105.14797227
 31
0.0
  0
LINE
  5
161
100
AcDbEntity
  8
LAYER0002
  6
CONTINUOUS
 62
       7
100
AcDbLine
 10
129.63117579
 20
-105.14797227
 30
0.0
 11
129.63117579
 21
-89.74797227
 31
0.0
  0
LINE
  5
162
100
AcDbEntity
  8
LAYER0002
  6
CONTINUOUS
 62
       7
100
AcDbLine
 10
-126.61628173
 20
-53.26292685
 30
0.0
 11
-118.11628173
 21
-48.35544956
 31
0.0
  0
LINE
  5
163
100
AcDbEntity
  8
LAYER0002
  6
CONTINUOUS
 62
       7
100
AcDbLine
 10
-118.11628173
 20
-48.35544956
 30
0.0
 11
-118.11628173
 21
-38.54049498
 31
0.0
  0
LINE
  5
164
100
AcDbEntity
  8
LAYER0002
  6
CONTINUOUS
 62
       7
100
AcDbLine
 10
-118.11628173
 20
-38.54049498
 30
0.0
 11
-126.61628173
 21
-33.63301769
 31
0.0
  0
LINE
  5
165
100
AcDbEntity
  8
LAYER0002
  6
CONTINUOUS
 62
       7
100
AcDbLine
 10
-126.61628173
 20
-33.63301769
 30
0.0
 11
-135.11628173
 21
-38.54049498
 31
0.0
  0
LINE
  5
166
100
AcDbEntity
  8
LAYER0002
  6
CONTINUOUS
 62
       7
100
AcDbLine
 10
-135.11628173
 20
-38.54049498
 30
0.0
 11
-135.11628173
 21
-48.35544956
 31
0.0
  0
LINE
  5
167
100
AcDbEntity
  8
LAYER0002
  6
CONTINUOUS
 62
       7
100
AcDbLine
 10
-135.11628173
 20
-48.35544956
 30
0.0
 11
-126.61628173
 21
-53.26292685
 31
0.0
  0
LINE
  5
168
100
AcDbEntity
  8
LAYER0002
  6
CONTINUOUS
 62
       7
100
AcDbLine
 10
-145.41628173
 20
-178.24797227
 30
0.0
 11
-137.81628173
 21
-178.24797227
 31
0.0
  0
LINE
  5
169
100
AcDbEntity
  8
LAYER0002
  6
CONTINUOUS
 62
       7
100
AcDbLine
 10
-145.41628173
 20
-178.24797227
 30
0.0
 11
-145.41628173
 21
-177.24797227
 31
0.0
  0
LINE
  5
16A
100
AcDbEntity
  8
LAYER0002
  6
CONTINUOUS
 62
       7
100
AcDbLine
 10
-137.81628173
 20
-178.24797227
 30
0.0
 11
-137.81628173
 21
-177.24797227
 31
0.0
  0
LINE
  5
16B
100
AcDbEntity
  8
LAYER0002
  6
CONTINUOUS
 62
       7
100
AcDbLine
 10
-146.11628173
 20
-177.24797227
 30
0.0
 11
-137.11628173
 21
-177.24797227
 31
0.0
  0
LINE
  5
16C
100
AcDbEntity
  8
LAYER0002
  6
CONTINUOUS
 62
       7
100
AcDbLine
 10
-146.11628173
 20
-177.24797227
 30
0.0
 11
-146.11628173
 21
-176.44797227
 31
0.0
  0
LINE
  5
16D
100
AcDbEntity
  8
LAYER0002
  6
CONTINUOUS
 62
       7
100
AcDbLine
 10
-137.11628173
 20
-177.24797227
 30
0.0
 11
-137.11628173
 21
-176.44797227
 31
0.0
  0
LINE
  5
16E
100
AcDbEntity
  8
LAYER0002
  6
CONTINUOUS
 62
       7
100
AcDbLine
 10
-145.11628173
 20
-178.24797227
 30
0.0
 11
-145.04824499
 21
-179.54619067
 31
0.0
  0
LINE
  5
16F
100
AcDbEntity
  8
LAYER0002
  6
CONTINUOUS
 62
       7
100
AcDbLine
 10
-138.11628173
 20
-178.24797227
 30
0.0
 11
-138.18431847
 21
-179.54619067
 31
0.0
  0
LINE
  5
170
100
AcDbEntity
  8
LAYER0002
  6
CONTINUOUS
 62
       7
100
AcDbLine
 10
80.58371827
 20
86.41470174
 30
0.0
 11
88.18371827
 21
86.41470174
 31
0.0
  0
LINE
  5
171
100
AcDbEntity
  8
LAYER0002
  6
CONTINUOUS
 62
       7
100
AcDbLine
 10
80.58371827
 20
86.41470174
 30
0.0
 11
80.58371827
 21
87.41470174
 31
0.0
  0
LINE
  5
172
100
AcDbEntity
  8
LAYER0002
  6
CONTINUOUS
 62
       7
100
AcDbLine
 10
88.18371827
 20
86.41470174
 30
0.0
 11
88.18371827
 21
87.41470174
 31
0.0
  0
LINE
  5
173
100
AcDbEntity
  8
LAYER0002
  6
CONTINUOUS
 62
       7
100
AcDbLine
 10
79.88371827
 20
87.41470174
 30
0.0
 11
88.88371827
 21
87.41470174
 31
0.0
  0
LINE
  5
174
100
AcDbEntity
  8
LAYER0002
  6
CONTINUOUS
 62
       7
100
AcDbLine
 10
79.88371827
 20
87.41470174
 30
0.0
 11
79.88371827
 21
88.21470174
 31
0.0
  0
LINE
  5
175
100
AcDbEntity
  8
LAYER0002
  6
CONTINUOUS
 62
       7
100
AcDbLine
 10
88.88371827
 20
87.41470174
 30
0.0
 11
88.88371827
 21
88.21470174
 31
0.0
  0
LINE
  5
176
100
AcDbEntity
  8
LAYER0002
  6
CONTINUOUS
 62
       7
100
AcDbLine
 10
80.88371827
 20
86.41470174
 30
0.0
 11
80.95175501
 21
85.11648335
 31
0.0
  0
LINE
  5
177
100
AcDbEntity
  8
LAYER0002
  6
CONTINUOUS
 62
       7
100
AcDbLine
 10
87.88371827
 20
86.41470174
 30
0.0
 11
87.81568153
 21
85.11648335
 31
0.0
  0
LINE
  5
178
100
AcDbEntity
  8
LAYER0002
  6
CONTINUOUS
 62
       7
100
AcDbLine
 10
88.83117579
 20
-178.24797227
 30
0.0
 11
96.43117579
 21
-178.24797227
 31
0.0
  0
LINE
  5
179
100
AcDbEntity
  8
LAYER0002
  6
CONTINUOUS
 62
       7
100
AcDbLine
 10
88.83117579
 20
-178.24797227
 30
0.0
 11
88.83117579
 21
-177.24797227
 31
0.0
  0
LINE
  5
17A
100
AcDbEntity
  8
LAYER0002
  6
CONTINUOUS
 62
       7
100
AcDbLine
 10
96.43117579
 20
-178.24797227
 30
0.0
 11
96.43117579
 21
-177.24797227
 31
0.0
  0
LINE
  5
17B
100
AcDbEntity
  8
LAYER0002
  6
CONTINUOUS
 62
       7
100
AcDbLine
 10
88.13117579
 20
-177.24797227
 30
0.0
 11
97.13117579
 21
-177.24797227
 31
0.0
  0
LINE
  5
17C
100
AcDbEntity
  8
LAYER0002
  6
CONTINUOUS
 62
       7
100
AcDbLine
 10
88.13117579
 20
-177.24797227
 30
0.0
 11
88.13117579
 21
-176.44797227
 31
0.0
  0
LINE
  5
17D
100
AcDbEntity
  8
LAYER0002
  6
CONTINUOUS
 62
       7
100
AcDbLine
 10
97.13117579
 20
-177.24797227
 30
0.0
 11
97.13117579
 21
-176.44797227
 31
0.0
  0
LINE
  5
17E
100
AcDbEntity
  8
LAYER0002
  6
CONTINUOUS
 62
       7
100
AcDbLine
 10
89.13117579
 20
-178.24797227
 30
0.0
 11
89.19921254
 21
-179.54619067
 31
0.0
  0
LINE
  5
17F
100
AcDbEntity
  8
LAYER0002
  6
CONTINUOUS
 62
       7
100
AcDbLine
 10
96.13117579
 20
-178.24797226
 30
0.0
 11
96.06313905
 21
-179.54619066
 31
0.0
  0
LINE
  5
180
100
AcDbEntity
  8
LAYER0002
  6
CONTINUOUS
 62
       7
100
AcDbLine
 10
-200.61628173
 20
-53.26292685
 30
0.0
 11
-192.11628173
 21
-48.35544956
 31
0.0
  0
LINE
  5
181
100
AcDbEntity
  8
LAYER0002
  6
CONTINUOUS
 62
       7
100
AcDbLine
 10
-192.11628173
 20
-48.35544956
 30
0.0
 11
-192.11628173
 21
-38.54049498
 31
0.0
  0
LINE
  5
182
100
AcDbEntity
  8
LAYER0002
  6
CONTINUOUS
 62
       7
100
AcDbLine
 10
-192.11628173
 20
-38.54049498
 30
0.0
 11
-200.61628173
 21
-33.63301769
 31
0.0
  0
LINE
  5
183
100
AcDbEntity
  8
LAYER0002
  6
CONTINUOUS
 62
       7
100
AcDbLine
 10
-200.61628173
 20
-33.63301769
 30
0.0
 11
-209.11628173
 21
-38.54049498
 31
0.0
  0
LINE
  5
184
100
AcDbEntity
  8
LAYER0002
  6
CONTINUOUS
 62
       7
100
AcDbLine
 10
-209.11628173
 20
-38.54049498
 30
0.0
 11
-209.11628173
 21
-48.35544956
 31
0.0
  0
LINE
  5
185
100
AcDbEntity
  8
LAYER0002
  6
CONTINUOUS
 62
       7
100
AcDbLine
 10
-209.11628173
 20
-48.35544956
 30
0.0
 11
-200.61628173
 21
-53.26292685
 31
0.0
  0
LINE
  5
186
100
AcDbEntity
  8
LAYER0002
  6
CONTINUOUS
 62
       7
100
AcDbLine
 10
122.13117579
 20
-201.24797227
 30
0.0
 11
115.0260687
 21
-201.24797227
 31
0.0
  0
LINE
  5
187
100
AcDbEntity
  8
LAYER0002
  6
CONTINUOUS
 62
       7
100
AcDbLine
 10
122.13117579
 20
-196.34049498
 30
0.0
 11
115.02606871
 21
-196.34049498
 31
0.0
  0
LINE
  5
188
100
AcDbEntity
  8
LAYER0002
  6
CONTINUOUS
 62
       7
100
AcDbLine
 10
122.13117579
 20
-201.24797227
 30
0.0
 11
122.13117579
 21
-181.64797227
 31
0.0
  0
LINE
  5
189
100
AcDbEntity
  8
LAYER0002
  6
CONTINUOUS
 62
       7
100
AcDbLine
 10
114.13117579
 20
-198.79423363
 30
0.0
 11
114.13117579
 21
-184.10171091
 31
0.0
  0
LINE
  5
18A
100
AcDbEntity
  8
LAYER0002
  6
CONTINUOUS
 62
       7
100
AcDbLine
 10
122.13117579
 20
-181.64797227
 30
0.0
 11
115.0260687
 21
-181.64797227
 31
0.0
  0
LINE
  5
18B
100
AcDbEntity
  8
LAYER0002
  6
CONTINUOUS
 62
       7
100
AcDbLine
 10
122.13117579
 20
-186.55544956
 30
0.0
 11
115.02606871
 21
-186.55544956
 31
0.0
  0
LINE
  5
18C
100
AcDbEntity
  8
LAYER0002
  6
CONTINUOUS
 62
       7
100
AcDbLine
 10
122.13117579
 20
-182.24797227
 30
0.0
 11
124.63117579
 21
-182.24797227
 31
0.0
  0
LINE
  5
18D
100
AcDbEntity
  8
LAYER0002
  6
CONTINUOUS
 62
       7
100
AcDbLine
 10
124.63117579
 20
-182.24797227
 30
0.0
 11
124.63117579
 21
-200.64797227
 31
0.0
  0
LINE
  5
18E
100
AcDbEntity
  8
LAYER0002
  6
CONTINUOUS
 62
       7
100
AcDbLine
 10
124.63117579
 20
-200.64797227
 30
0.0
 11
122.13117579
 21
-200.64797227
 31
0.0
  0
LINE
  5
18F
100
AcDbEntity
  8
LAYER0002
  6
CONTINUOUS
 62
       7
100
AcDbLine
 10
122.13117579
 20
-53.24797227
 30
0.0
 11
115.0260687
 21
-53.24797227
 31
0.0
  0
LINE
  5
190
100
AcDbEntity
  8
LAYER0002
  6
CONTINUOUS
 62
       7
100
AcDbLine
 10
122.13117579
 20
-48.34049498
 30
0.0
 11
115.02606871
 21
-48.34049498
 31
0.0
  0
LINE
  5
191
100
AcDbEntity
  8
LAYER0002
  6
CONTINUOUS
 62
       7
100
AcDbLine
 10
122.13117579
 20
-53.24797227
 30
0.0
 11
122.13117579
 21
-33.64797227
 31
0.0
  0
LINE
  5
192
100
AcDbEntity
  8
LAYER0002
  6
CONTINUOUS
 62
       7
100
AcDbLine
 10
114.13117579
 20
-50.79423363
 30
0.0
 11
114.13117579
 21
-36.10171091
 31
0.0
  0
LINE
  5
193
100
AcDbEntity
  8
LAYER0002
  6
CONTINUOUS
 62
       7
100
AcDbLine
 10
122.13117579
 20
-33.64797227
 30
0.0
 11
115.0260687
 21
-33.64797227
 31
0.0
  0
LINE
  5
194
100
AcDbEntity
  8
LAYER0002
  6
CONTINUOUS
 62
       7
100
AcDbLine
 10
122.13117579
 20
-38.55544956
 30
0.0
 11
115.02606871
 21
-38.55544956
 31
0.0
  0
LINE
  5
195
100
AcDbEntity
  8
LAYER0002
  6
CONTINUOUS
 62
       7
100
AcDbLine
 10
122.13117579
 20
-34.24797227
 30
0.0
 11
124.63117579
 21
-34.24797227
 31
0.0
  0
LINE
  5
196
100
AcDbEntity
  8
LAYER0002
  6
CONTINUOUS
 62
       7
100
AcDbLine
 10
124.63117579
 20
-34.24797227
 30
0.0
 11
124.63117579
 21
-52.64797227
 31
0.0
  0
LINE
  5
197
100
AcDbEntity
  8
LAYER0002
  6
CONTINUOUS
 62
       7
100
AcDbLine
 10
124.63117579
 20
-52.64797227
 30
0.0
 11
122.13117579
 21
-52.64797227
 31
0.0
  0
LINE
  5
198
100
AcDbEntity
  8
LAYER0002
  6
CONTINUOUS
 62
       7
100
AcDbLine
 10
-135.11628173
 20
137.95242577
 30
0.0
 11
-118.11628173
 21
137.95242577
 31
0.0
  0
LINE
  5
199
100
AcDbEntity
  8
LAYER0002
  6
CONTINUOUS
 62
       7
100
AcDbLine
 10
-118.11628173
 20
137.95242577
 30
0.0
 11
-118.11628173
 21
145.95242577
 31
0.0
  0
LINE
  5
19A
100
AcDbEntity
  8
LAYER0002
  6
CONTINUOUS
 62
       7
100
AcDbLine
 10
-135.11628173
 20
145.95242577
 30
0.0
 11
-135.11628173
 21
137.95242577
 31
0.0
  0
LINE
  5
19B
100
AcDbEntity
  8
LAYER0002
  6
CONTINUOUS
 62
       7
100
AcDbLine
 10
-126.61628173
 20
145.95242577
 30
0.0
 11
-126.61628173
 21
140.40616441
 31
0.0
  0
LINE
  5
19C
100
AcDbEntity
  8
LAYER0002
  6
CONTINUOUS
 62
       7
100
AcDbLine
 10
-135.81628173
 20
145.95242577
 30
0.0
 11
-135.81628173
 21
148.45242577
 31
0.0
  0
LINE
  5
19D
100
AcDbEntity
  8
LAYER0002
  6
CONTINUOUS
 62
       7
100
AcDbLine
 10
-117.41628173
 20
148.45242577
 30
0.0
 11
-117.41628173
 21
145.95242577
 31
0.0
  0
LINE
  5
19E
100
AcDbEntity
  8
LAYER0002
  6
CONTINUOUS
 62
       7
100
AcDbLine
 10
-135.81628173
 20
145.95242577
 30
0.0
 11
-117.41628173
 21
145.95242577
 31
0.0
  0
LINE
  5
19F
100
AcDbEntity
  8
LAYER0002
  6
CONTINUOUS
 62
       7
100
AcDbLine
 10
-209.11628173
 20
137.95242577
 30
0.0
 11
-192.11628173
 21
137.95242577
 31
0.0
  0
LINE
  5
1A0
100
AcDbEntity
  8
LAYER0002
  6
CONTINUOUS
 62
       7
100
AcDbLine
 10
-192.11628173
 20
137.95242577
 30
0.0
 11
-192.11628173
 21
145.95242577
 31
0.0
  0
LINE
  5
1A1
100
AcDbEntity
  8
LAYER0002
  6
CONTINUOUS
 62
       7
100
AcDbLine
 10
-209.11628173
 20
145.95242577
 30
0.0
 11
-209.11628173
 21
137.95242577
 31
0.0
  0
LINE
  5
1A2
100
AcDbEntity
  8
LAYER0002
  6
CONTINUOUS
 62
       7
100
AcDbLine
 10
-200.61628173
 20
145.95242577
 30
0.0
 11
-200.61628173
 21
140.40616441
 31
0.0
  0
LINE
  5
1A3
100
AcDbEntity
  8
LAYER0002
  6
CONTINUOUS
 62
       7
100
AcDbLine
 10
-209.81628173
 20
145.95242577
 30
0.0
 11
-209.81628173
 21
148.45242577
 31
0.0
  0
LINE
  5
1A4
100
AcDbEntity
  8
LAYER0002
  6
CONTINUOUS
 62
       7
100
AcDbLine
 10
-191.41628173
 20
148.45242577
 30
0.0
 11
-191.41628173
 21
145.95242577
 31
0.0
  0
LINE
  5
1A5
100
AcDbEntity
  8
LAYER0002
  6
CONTINUOUS
 62
       7
100
AcDbLine
 10
-209.81628173
 20
145.95242577
 30
0.0
 11
-191.41628173
 21
145.95242577
 31
0.0
  0
LINE
  5
1A6
100
AcDbEntity
  8
LAYER0002
  6
CONTINUOUS
 62
       7
100
AcDbLine
 10
-28.61628173
 20
-89.94797227
 30
0.0
 11
-28.61628173
 21
-64.94797227
 31
0.0
  0
LINE
  5
1A7
100
AcDbEntity
  8
LAYER0002
  6
CONTINUOUS
 62
       7
100
AcDbLine
 10
-100.61628173
 20
-59.94797227
 30
0.0
 11
-100.61628173
 21
-94.94797227
 31
0.0
  0
LINE
  5
1A8
100
AcDbEntity
  8
LAYER0002
  6
CONTINUOUS
 62
       7
100
AcDbLine
 10
-100.61628173
 20
-59.94797227
 30
0.0
 11
-101.77098227
 21
-57.94797227
 31
0.0
  0
LINE
  5
1A9
100
AcDbEntity
  8
LAYER0002
  6
CONTINUOUS
 62
       7
100
AcDbLine
 10
-105.46158119
 20
-57.94797227
 30
0.0
 11
-101.77098227
 21
-57.94797227
 31
0.0
  0
LINE
  5
1AA
100
AcDbEntity
  8
LAYER0002
  6
CONTINUOUS
 62
       7
100
AcDbLine
 10
-106.61628173
 20
-59.94797227
 30
0.0
 11
-105.46158119
 21
-57.94797227
 31
0.0
  0
LINE
  5
1AB
100
AcDbEntity
  8
LAYER0002
  6
CONTINUOUS
 62
       7
100
AcDbLine
 10
-105.51700012
 20
-66.59369034
 30
0.0
 11
-101.71556334
 21
-66.59369034
 31
0.0
  0
LINE
  5
1AC
100
AcDbEntity
  8
LAYER0002
  6
CONTINUOUS
 62
       7
100
AcDbLine
 10
-105.51700012
 20
-68.845647
 30
0.0
 11
-101.71556334
 21
-68.845647
 31
0.0
  0
LINE
  5
1AD
100
AcDbEntity
  8
LAYER0002
  6
CONTINUOUS
 62
       7
100
AcDbLine
 10
-105.51700012
 20
-66.59369034
 30
0.0
 11
-105.51700012
 21
-68.845647
 31
0.0
  0
LINE
  5
1AE
100
AcDbEntity
  8
LAYER0002
  6
CONTINUOUS
 62
       7
100
AcDbLine
 10
-101.71556334
 20
-66.59369034
 30
0.0
 11
-101.71556334
 21
-68.845647
 31
0.0
  0
LINE
  5
1AF
100
AcDbEntity
  8
LAYER0002
  6
CONTINUOUS
 62
       7
100
AcDbLine
 10
-100.61628173
 20
-94.94797227
 30
0.0
 11
-101.77098227
 21
-96.94797227
 31
0.0
  0
LINE
  5
1B0
100
AcDbEntity
  8
LAYER0002
  6
CONTINUOUS
 62
       7
100
AcDbLine
 10
-105.46158119
 20
-96.94797227
 30
0.0
 11
-101.77098227
 21
-96.94797227
 31
0.0
  0
LINE
  5
1B1
100
AcDbEntity
  8
LAYER0002
  6
CONTINUOUS
 62
       7
100
AcDbLine
 10
-106.61628173
 20
-94.94797227
 30
0.0
 11
-105.46158119
 21
-96.94797227
 31
0.0
  0
LINE
  5
1B2
100
AcDbEntity
  8
LAYER0002
  6
CONTINUOUS
 62
       7
100
AcDbLine
 10
-105.51700012
 20
-88.3022542
 30
0.0
 11
-101.71556334
 21
-88.3022542
 31
0.0
  0
LINE
  5
1B3
100
AcDbEntity
  8
LAYER0002
  6
CONTINUOUS
 62
       7
100
AcDbLine
 10
-105.51700012
 20
-86.05029754
 30
0.0
 11
-101.71556334
 21
-86.05029754
 31
0.0
  0
LINE
  5
1B4
100
AcDbEntity
  8
LAYER0002
  6
CONTINUOUS
 62
       7
100
AcDbLine
 10
-105.51700012
 20
-88.3022542
 30
0.0
 11
-105.51700012
 21
-86.05029754
 31
0.0
  0
LINE
  5
1B5
100
AcDbEntity
  8
LAYER0002
  6
CONTINUOUS
 62
       7
100
AcDbLine
 10
-101.71556334
 20
-88.3022542
 30
0.0
 11
-101.71556334
 21
-86.05029754
 31
0.0
  0
LINE
  5
1B6
100
AcDbEntity
  8
LAYER0002
  6
CONTINUOUS
 62
       7
100
AcDbLine
 10
-100.61628173
 20
-61.44797227
 30
0.0
 11
-94.61628173
 21
-61.44797227
 31
0.0
  0
LINE
  5
1B7
100
AcDbEntity
  8
LAYER0002
  6
CONTINUOUS
 62
       7
100
AcDbLine
 10
-100.61628173
 20
-93.44797227
 30
0.0
 11
-94.61628173
 21
-93.44797227
 31
0.0
  0
LINE
  5
1B8
100
AcDbEntity
  8
LAYER0002
  6
CONTINUOUS
 62
       7
100
AcDbLine
 10
-43.61628173
 20
-60.94797227
 30
0.0
 11
-43.61628173
 21
-93.94797227
 31
0.0
  0
LINE
  5
1B9
100
AcDbEntity
  8
LAYER0002
  6
CONTINUOUS
 62
       7
100
AcDbLine
 10
-94.61628173
 20
-59.94797227
 30
0.0
 11
-94.61628173
 21
-94.94797227
 31
0.0
  0
LINE
  5
1BA
100
AcDbEntity
  8
LAYER0002
  6
CONTINUOUS
 62
       7
100
AcDbLine
 10
-94.61628173
 20
-59.94797227
 30
0.0
 11
-93.46158119
 21
-57.94797227
 31
0.0
  0
LINE
  5
1BB
100
AcDbEntity
  8
LAYER0002
  6
CONTINUOUS
 62
       7
100
AcDbLine
 10
-93.51700013
 20
-66.59369034
 30
0.0
 11
-93.51700013
 21
-68.845647
 31
0.0
  0
LINE
  5
1BC
100
AcDbEntity
  8
LAYER0002
  6
CONTINUOUS
 62
       7
100
AcDbLine
 10
-94.61628173
 20
-94.94797227
 30
0.0
 11
-93.46158119
 21
-96.94797227
 31
0.0
  0
LINE
  5
1BD
100
AcDbEntity
  8
LAYER0002
  6
CONTINUOUS
 62
       7
100
AcDbLine
 10
-93.51700013
 20
-88.3022542
 30
0.0
 11
-93.51700013
 21
-86.05029754
 31
0.0
  0
LINE
  5
1BE
100
AcDbEntity
  8
LAYER0002
  6
CONTINUOUS
 62
       7
100
AcDbLine
 10
-66.61628173
 20
-59.94797227
 30
0.0
 11
-66.61628173
 21
-94.94797227
 31
0.0
  0
LINE
  5
1BF
100
AcDbEntity
  8
LAYER0002
  6
CONTINUOUS
 62
       7
100
AcDbLine
 10
-66.61628173
 20
-59.94797227
 30
0.0
 11
-67.77098227
 21
-57.94797227
 31
0.0
  0
LINE
  5
1C0
100
AcDbEntity
  8
LAYER0002
  6
CONTINUOUS
 62
       7
100
AcDbLine
 10
-67.71556335
 20
-66.59369034
 30
0.0
 11
-67.71556335
 21
-68.845647
 31
0.0
  0
LINE
  5
1C1
100
AcDbEntity
  8
LAYER0002
  6
CONTINUOUS
 62
       7
100
AcDbLine
 10
-66.61628173
 20
-94.94797227
 30
0.0
 11
-67.77098227
 21
-96.94797227
 31
0.0
  0
LINE
  5
1C2
100
AcDbEntity
  8
LAYER0002
  6
CONTINUOUS
 62
       7
100
AcDbLine
 10
-67.71556335
 20
-88.3022542
 30
0.0
 11
-67.71556335
 21
-86.05029754
 31
0.0
  0
LINE
  5
1C3
100
AcDbEntity
  8
LAYER0002
  6
CONTINUOUS
 62
       7
100
AcDbLine
 10
-93.46158119
 20
-57.94797227
 30
0.0
 11
-67.77098227
 21
-57.94797227
 31
0.0
  0
LINE
  5
1C4
100
AcDbEntity
  8
LAYER0002
  6
CONTINUOUS
 62
       7
100
AcDbLine
 10
-93.51700013
 20
-66.59369034
 30
0.0
 11
-67.71556335
 21
-66.59369034
 31
0.0
  0
LINE
  5
1C5
100
AcDbEntity
  8
LAYER0002
  6
CONTINUOUS
 62
       7
100
AcDbLine
 10
-67.71556335
 20
-68.845647
 30
0.0
 11
-93.51700013
 21
-68.845647
 31
0.0
  0
LINE
  5
1C6
100
AcDbEntity
  8
LAYER0002
  6
CONTINUOUS
 62
       7
100
AcDbLine
 10
-93.51700013
 20
-86.05029754
 30
0.0
 11
-67.71556335
 21
-86.05029754
 31
0.0
  0
LINE
  5
1C7
100
AcDbEntity
  8
LAYER0002
  6
CONTINUOUS
 62
       7
100
AcDbLine
 10
-67.71556335
 20
-88.3022542
 30
0.0
 11
-93.51700013
 21
-88.3022542
 31
0.0
  0
LINE
  5
1C8
100
AcDbEntity
  8
LAYER0002
  6
CONTINUOUS
 62
       7
100
AcDbLine
 10
-93.46158119
 20
-96.94797227
 30
0.0
 11
-67.77098227
 21
-96.94797227
 31
0.0
  0
LINE
  5
1C9
100
AcDbEntity
  8
LAYER0002
  6
CONTINUOUS
 62
       7
100
AcDbLine
 10
-66.61628173
 20
-59.94797227
 30
0.0
 11
-44.61628173
 21
-59.94797227
 31
0.0
  0
LINE
  5
1CA
100
AcDbEntity
  8
LAYER0002
  6
CONTINUOUS
 62
       7
100
AcDbLine
 10
-66.61628173
 20
-94.94797227
 30
0.0
 11
-44.61628173
 21
-94.94797227
 31
0.0
  0
LINE
  5
1CB
100
AcDbEntity
  8
LAYER0002
  6
CONTINUOUS
 62
       7
100
AcDbLine
 10
-43.61628173
 20
-63.94797227
 30
0.0
 11
-29.61628173
 21
-63.94797227
 31
0.0
  0
LINE
  5
1CC
100
AcDbEntity
  8
LAYER0002
  6
CONTINUOUS
 62
       7
100
AcDbLine
 10
-29.61628173
 20
-90.94797227
 30
0.0
 11
-43.61628173
 21
-90.94797227
 31
0.0
  0
LINE
  5
1CD
100
AcDbEntity
  8
LAYER0002
  6
CONTINUOUS
 62
       7
100
AcDbLine
 10
-40.11628173
 20
-70.37690446
 30
0.0
 11
-40.11628173
 21
-84.51904008
 31
0.0
  0
LINE
  5
1CE
100
AcDbEntity
  8
LAYER0002
  6
CONTINUOUS
 62
       7
100
AcDbLine
 10
-40.11628173
 20
-70.37690446
 30
0.0
 11
-28.61628173
 21
-70.37690446
 31
0.0
  0
LINE
  5
1CF
100
AcDbEntity
  8
LAYER0002
  6
CONTINUOUS
 62
       7
100
AcDbLine
 10
-40.11628173
 20
-84.51904008
 30
0.0
 11
-28.61628173
 21
-84.51904008
 31
0.0
  0
LINE
  5
1D0
100
AcDbEntity
  8
LAYER0002
  6
CONTINUOUS
 62
       7
100
AcDbLine
 10
-27.61628173
 20
139.95242577
 30
0.0
 11
-27.61628173
 21
116.95242577
 31
0.0
  0
LINE
  5
1D1
100
AcDbEntity
  8
LAYER0002
  6
CONTINUOUS
 62
       7
100
AcDbLine
 10
-100.61628173
 20
110.95242577
 30
0.0
 11
-100.61628173
 21
145.95242577
 31
0.0
  0
LINE
  5
1D2
100
AcDbEntity
  8
LAYER0002
  6
CONTINUOUS
 62
       7
100
AcDbLine
 10
-100.61628173
 20
112.45242577
 30
0.0
 11
-94.61628173
 21
112.45242577
 31
0.0
  0
LINE
  5
1D3
100
AcDbEntity
  8
LAYER0002
  6
CONTINUOUS
 62
       7
100
AcDbLine
 10
-100.61628173
 20
144.45242577
 30
0.0
 11
-94.61628173
 21
144.45242577
 31
0.0
  0
LINE
  5
1D4
100
AcDbEntity
  8
LAYER0002
  6
CONTINUOUS
 62
       7
100
AcDbLine
 10
-43.61628173
 20
111.95242577
 30
0.0
 11
-43.61628173
 21
144.95242577
 31
0.0
  0
LINE
  5
1D5
100
AcDbEntity
  8
LAYER0002
  6
CONTINUOUS
 62
       7
100
AcDbLine
 10
-94.61628173
 20
110.95242577
 30
0.0
 11
-94.61628173
 21
145.95242577
 31
0.0
  0
LINE
  5
1D6
100
AcDbEntity
  8
LAYER0002
  6
CONTINUOUS
 62
       7
100
AcDbLine
 10
-93.51700012
 20
110.95242577
 30
0.0
 11
-93.51700012
 21
112.25259356
 31
0.0
  0
LINE
  5
1D7
100
AcDbEntity
  8
LAYER0002
  6
CONTINUOUS
 62
       7
100
AcDbLine
 10
-66.61628173
 20
110.95242577
 30
0.0
 11
-66.61628173
 21
145.95242577
 31
0.0
  0
LINE
  5
1D8
100
AcDbEntity
  8
LAYER0002
  6
CONTINUOUS
 62
       7
100
AcDbLine
 10
-43.61628173
 20
114.95242577
 30
0.0
 11
-39.11628173
 21
114.95242577
 31
0.0
  0
LINE
  5
1D9
100
AcDbEntity
  8
LAYER0002
  6
CONTINUOUS
 62
       7
100
AcDbLine
 10
-39.11628173
 20
141.95242577
 30
0.0
 11
-43.61628173
 21
141.95242577
 31
0.0
  0
LINE
  5
1DA
100
AcDbEntity
  8
LAYER0002
  6
CONTINUOUS
 62
       7
100
AcDbLine
 10
-39.11628173
 20
116.95242577
 30
0.0
 11
-27.61628173
 21
116.95242577
 31
0.0
  0
LINE
  5
1DB
100
AcDbEntity
  8
LAYER0002
  6
CONTINUOUS
 62
       7
100
AcDbLine
 10
-39.11628173
 20
139.95242577
 30
0.0
 11
-27.61628173
 21
139.95242577
 31
0.0
  0
LINE
  5
1DC
100
AcDbEntity
  8
LAYER0002
  6
CONTINUOUS
 62
       7
100
AcDbLine
 10
-39.11628173
 20
114.95242577
 30
0.0
 11
-39.11628173
 21
116.95242577
 31
0.0
  0
LINE
  5
1DD
100
AcDbEntity
  8
LAYER0002
  6
CONTINUOUS
 62
       7
100
AcDbLine
 10
-39.11628173
 20
139.95242577
 30
0.0
 11
-39.11628173
 21
141.95242577
 31
0.0
  0
LINE
  5
1DE
100
AcDbEntity
  8
LAYER0002
  6
CONTINUOUS
 62
       7
100
AcDbLine
 10
-106.61628173
 20
110.95242577
 30
0.0
 11
-100.61628173
 21
110.95242577
 31
0.0
  0
LINE
  5
1DF
100
AcDbEntity
  8
LAYER0002
  6
CONTINUOUS
 62
       7
100
AcDbLine
 10
-106.61628173
 20
145.95242577
 30
0.0
 11
-100.61628173
 21
145.95242577
 31
0.0
  0
LINE
  5
1E0
100
AcDbEntity
  8
LAYER0002
  6
CONTINUOUS
 62
       7
100
AcDbLine
 10
-93.51700012
 20
127.15225798
 30
0.0
 11
-93.51700012
 21
129.75259356
 31
0.0
  0
LINE
  5
1E1
100
AcDbEntity
  8
LAYER0002
  6
CONTINUOUS
 62
       7
100
AcDbLine
 10
-93.51700012
 20
144.65225798
 30
0.0
 11
-93.51700012
 21
145.95242577
 31
0.0
  0
LINE
  5
1E2
100
AcDbEntity
  8
LAYER0002
  6
CONTINUOUS
 62
       7
100
AcDbLine
 10
-67.71556334
 20
127.15225798
 30
0.0
 11
-67.71556334
 21
129.75259356
 31
0.0
  0
LINE
  5
1E3
100
AcDbEntity
  8
LAYER0002
  6
CONTINUOUS
 62
       7
100
AcDbLine
 10
-67.71556334
 20
144.65225798
 30
0.0
 11
-67.71556334
 21
145.95242577
 31
0.0
  0
LINE
  5
1E4
100
AcDbEntity
  8
LAYER0002
  6
CONTINUOUS
 62
       7
100
AcDbLine
 10
-67.71556334
 20
110.95242577
 30
0.0
 11
-67.71556334
 21
112.25259356
 31
0.0
  0
LINE
  5
1E5
100
AcDbEntity
  8
LAYER0002
  6
CONTINUOUS
 62
       7
100
AcDbLine
 10
-67.71556334
 20
127.15225798
 30
0.0
 11
-93.51700012
 21
127.15225798
 31
0.0
  0
LINE
  5
1E6
100
AcDbEntity
  8
LAYER0002
  6
CONTINUOUS
 62
       7
100
AcDbLine
 10
-101.77098227
 20
127.15225799
 30
0.0
 11
-105.46158119
 21
127.15225799
 31
0.0
  0
LINE
  5
1E7
100
AcDbEntity
  8
LAYER0002
  6
CONTINUOUS
 62
       7
100
AcDbLine
 10
-67.71556334
 20
129.75259356
 30
0.0
 11
-93.51700012
 21
129.75259356
 31
0.0
  0
LINE
  5
1E8
100
AcDbEntity
  8
LAYER0002
  6
CONTINUOUS
 62
       7
100
AcDbLine
 10
-101.77098227
 20
129.75259356
 30
0.0
 11
-105.46158119
 21
129.75259356
 31
0.0
  0
LINE
  5
1E9
100
AcDbEntity
  8
LAYER0002
  6
CONTINUOUS
 62
       7
100
AcDbLine
 10
-94.61628173
 20
110.95242577
 30
0.0
 11
-44.61628173
 21
110.95242577
 31
0.0
  0
LINE
  5
1EA
100
AcDbEntity
  8
LAYER0002
  6
CONTINUOUS
 62
       7
100
AcDbLine
 10
-94.61628173
 20
145.95242577
 30
0.0
 11
-44.61628173
 21
145.95242577
 31
0.0
  0
LINE
  5
1EB
100
AcDbEntity
  8
LAYER0002
  6
CONTINUOUS
 62
       7
100
AcDbLine
 10
-67.71556334
 20
112.25259356
 30
0.0
 11
-93.51700012
 21
112.25259356
 31
0.0
  0
LINE
  5
1EC
100
AcDbEntity
  8
LAYER0002
  6
CONTINUOUS
 62
       7
100
AcDbLine
 10
-101.77098227
 20
112.25259356
 30
0.0
 11
-105.46158119
 21
112.25259356
 31
0.0
  0
LINE
  5
1ED
100
AcDbEntity
  8
LAYER0002
  6
CONTINUOUS
 62
       7
100
AcDbLine
 10
-67.71556334
 20
144.65225798
 30
0.0
 11
-93.51700012
 21
144.65225798
 31
0.0
  0
LINE
  5
1EE
100
AcDbEntity
  8
LAYER0002
  6
CONTINUOUS
 62
       7
100
AcDbLine
 10
-101.77098228
 20
144.65225799
 30
0.0
 11
-105.4615812
 21
144.65225799
 31
0.0
  0
LINE
  5
1EF
100
AcDbEntity
  8
LAYER0002
  6
CONTINUOUS
 62
       7
100
AcDbLine
 10
-101.77098227
 20
112.25259356
 30
0.0
 11
-101.77098227
 21
110.95242577
 31
0.0
  0
LINE
  5
1F0
100
AcDbEntity
  8
LAYER0002
  6
CONTINUOUS
 62
       7
100
AcDbLine
 10
-101.77098228
 20
145.95242577
 30
0.0
 11
-101.77098228
 21
144.65225799
 31
0.0
  0
LINE
  5
1F1
100
AcDbEntity
  8
LAYER0002
  6
CONTINUOUS
 62
       7
100
AcDbLine
 10
-101.77098227
 20
129.75259356
 30
0.0
 11
-101.77098227
 21
127.15225799
 31
0.0
  0
LINE
  5
1F2
100
AcDbEntity
  8
LAYER0002
  6
CONTINUOUS
 62
       7
100
AcDbLine
 10
-105.46158119
 20
112.25259356
 30
0.0
 11
-105.46158119
 21
110.95242577
 31
0.0
  0
LINE
  5
1F3
100
AcDbEntity
  8
LAYER0002
  6
CONTINUOUS
 62
       7
100
AcDbLine
 10
-105.4615812
 20
145.95242577
 30
0.0
 11
-105.4615812
 21
144.65225799
 31
0.0
  0
LINE
  5
1F4
100
AcDbEntity
  8
LAYER0002
  6
CONTINUOUS
 62
       7
100
AcDbLine
 10
-105.46158119
 20
129.75259356
 30
0.0
 11
-105.46158119
 21
127.15225799
 31
0.0
  0
ARC
  5
1F5
100
AcDbEntity
  8
LAYER0002
  6
CONTINUOUS
 62
       7
100
AcDbCircle
 10
-131.61628246
 20
-160.61787843
 30
0.0
 40
2.0
100
AcDbArc
 50
124.15291451
 51
180.0
  0
ARC
  5
1F6
100
AcDbEntity
  8
LAYER0002
  6
CONTINUOUS
 62
       7
100
AcDbCircle
 10
-195.61628331
 20
-160.61787686
 30
0.0
 40
2.0
100
AcDbArc
 50
0.00000573
 51
55.84708268
  0
ARC
  5
1F7
100
AcDbEntity
  8
LAYER0002
  6
CONTINUOUS
 62
       7
100
AcDbCircle
 10
-213.61628173
 20
-171.44797227
 30
0.0
 40
5.0
100
AcDbArc
 50
180.0
 51
270.0
  0
ARC
  5
1F8
100
AcDbEntity
  8
LAYER0002
  6
CONTINUOUS
 62
       7
100
AcDbCircle
 10
-113.61628173
 20
-171.44797227
 30
0.0
 40
5.0
100
AcDbArc
 50
270.0
 51
360.0
  0
ARC
  5
1F9
100
AcDbEntity
  8
LAYER0002
  6
CONTINUOUS
 62
       7
100
AcDbCircle
 10
-163.61628173
 20
-113.44797227
 30
0.0
 40
43.99999999
100
AcDbArc
 50
188.29779861
 51
261.70220139
  0
ARC
  5
1FA
100
AcDbEntity
  8
LAYER0002
  6
CONTINUOUS
 62
       7
100
AcDbCircle
 10
-163.61628173
 20
-113.44797227
 30
0.0
 40
51.15142504
100
AcDbArc
 50
187.13116469
 51
262.86883531
  0
ARC
  5
1FB
100
AcDbEntity
  8
LAYER0002
  6
CONTINUOUS
 62
       7
100
AcDbCircle
 10
-163.61628173
 20
-113.44797227
 30
0.0
 40
43.99999999
100
AcDbArc
 50
8.29779861
 51
81.70220139
  0
ARC
  5
1FC
100
AcDbEntity
  8
LAYER0002
  6
CONTINUOUS
 62
       7
100
AcDbCircle
 10
-163.61628173
 20
-113.44797227
 30
0.0
 40
51.15142504
100
AcDbArc
 50
7.13116469
 51
82.86883531
  0
ARC
  5
1FD
100
AcDbEntity
  8
LAYER0002
  6
CONTINUOUS
 62
       7
100
AcDbCircle
 10
-163.61628173
 20
-113.44797227
 30
0.0
 40
51.15142504
100
AcDbArc
 50
97.13116469
 51
172.86883531
  0
ARC
  5
1FE
100
AcDbEntity
  8
LAYER0002
  6
CONTINUOUS
 62
       7
100
AcDbCircle
 10
-163.61628173
 20
-113.44797227
 30
0.0
 40
43.99999999
100
AcDbArc
 50
98.29779861
 51
171.70220139
  0
ARC
  5
1FF
100
AcDbEntity
  8
LAYER0002
  6
CONTINUOUS
 62
       7
100
AcDbCircle
 10
-163.61628173
 20
-113.44797227
 30
0.0
 40
51.76679419
100
AcDbArc
 50
10.57458484
 51
34.42541503
  0
ARC
  5
200
100
AcDbEntity
  8
LAYER0002
  6
CONTINUOUS
 62
       7
100
AcDbCircle
 10
-163.61628173
 20
-113.44797227
 30
0.0
 40
52.18576894
100
AcDbArc
 50
349.51127878
 51
370.48872122
  0
ARC
  5
201
100
AcDbEntity
  8
LAYER0002
  6
CONTINUOUS
 62
       7
100
AcDbCircle
 10
-163.61628173
 20
-113.44797227
 30
0.0
 40
51.7667942
100
AcDbArc
 50
325.57458497
 51
349.42541516
  0
ARC
  5
202
100
AcDbEntity
  8
LAYER0002
  6
CONTINUOUS
 62
       7
100
AcDbCircle
 10
-163.61628173
 20
-113.44797227
 30
0.0
 40
52.18576894
100
AcDbArc
 50
304.51127865
 51
325.48872135
  0
ARC
  5
203
100
AcDbEntity
  8
LAYER0002
  6
CONTINUOUS
 62
       7
100
AcDbCircle
 10
-163.61628173
 20
-113.44797227
 30
0.0
 40
51.7667942
100
AcDbArc
 50
280.57458484
 51
304.42541503
  0
ARC
  5
204
100
AcDbEntity
  8
LAYER0002
  6
CONTINUOUS
 62
       7
100
AcDbCircle
 10
-163.61628173
 20
-113.44797227
 30
0.0
 40
52.18576894
100
AcDbArc
 50
259.51127878
 51
280.48872122
  0
ARC
  5
205
100
AcDbEntity
  8
LAYER0002
  6
CONTINUOUS
 62
       7
100
AcDbCircle
 10
-163.61628173
 20
-113.44797227
 30
0.0
 40
51.7667942
100
AcDbArc
 50
235.57458497
 51
259.42541516
  0
ARC
  5
206
100
AcDbEntity
  8
LAYER0002
  6
CONTINUOUS
 62
       7
100
AcDbCircle
 10
-163.61628173
 20
-113.44797227
 30
0.0
 40
52.18576894
100
AcDbArc
 50
214.51127865
 51
235.48872135
  0
ARC
  5
207
100
AcDbEntity
  8
LAYER0002
  6
CONTINUOUS
 62
       7
100
AcDbCircle
 10
-163.61628173
 20
-113.44797227
 30
0.0
 40
51.7667942
100
AcDbArc
 50
190.57458484
 51
214.42541503
  0
ARC
  5
208
100
AcDbEntity
  8
LAYER0002
  6
CONTINUOUS
 62
       7
100
AcDbCircle
 10
-163.61628173
 20
-113.44797227
 30
0.0
 40
52.18576894
100
AcDbArc
 50
169.51127878
 51
190.48872122
  0
ARC
  5
209
100
AcDbEntity
  8
LAYER0002
  6
CONTINUOUS
 62
       7
100
AcDbCircle
 10
-163.61628173
 20
-113.44797227
 30
0.0
 40
51.7667942
100
AcDbArc
 50
145.57458497
 51
169.42541516
  0
ARC
  5
20A
100
AcDbEntity
  8
LAYER0002
  6
CONTINUOUS
 62
       7
100
AcDbCircle
 10
-163.61628173
 20
-113.44797227
 30
0.0
 40
52.18576894
100
AcDbArc
 50
124.51127865
 51
145.48872135
  0
ARC
  5
20B
100
AcDbEntity
  8
LAYER0002
  6
CONTINUOUS
 62
       7
100
AcDbCircle
 10
-163.61628173
 20
-113.44797227
 30
0.0
 40
51.7667942
100
AcDbArc
 50
100.57458484
 51
124.42541503
  0
ARC
  5
20C
100
AcDbEntity
  8
LAYER0002
  6
CONTINUOUS
 62
       7
100
AcDbCircle
 10
-163.61628173
 20
-113.44797227
 30
0.0
 40
52.18576894
100
AcDbArc
 50
79.51127878
 51
100.48872122
  0
ARC
  5
20D
100
AcDbEntity
  8
LAYER0002
  6
CONTINUOUS
 62
       7
100
AcDbCircle
 10
-163.61628173
 20
-113.44797227
 30
0.0
 40
51.7667942
100
AcDbArc
 50
55.57458497
 51
79.42541516
  0
ARC
  5
20E
100
AcDbEntity
  8
LAYER0002
  6
CONTINUOUS
 62
       7
100
AcDbCircle
 10
-163.61628173
 20
-113.44797227
 30
0.0
 40
52.18576894
100
AcDbArc
 50
34.51127865
 51
55.48872135
  0
ARC
  5
20F
100
AcDbEntity
  8
LAYER0002
  6
CONTINUOUS
 62
       7
100
AcDbCircle
 10
-163.61628173
 20
-113.44797227
 30
0.0
 40
51.26926169
100
AcDbArc
 50
262.88531036
 51
277.11468964
  0
ARC
  5
210
100
AcDbEntity
  8
LAYER0002
  6
CONTINUOUS
 62
       7
100
AcDbCircle
 10
-163.61628173
 20
-113.44797227
 30
0.0
 40
51.15142504
100
AcDbArc
 50
277.13116469
 51
352.86883531
  0
ARC
  5
211
100
AcDbEntity
  8
LAYER0002
  6
CONTINUOUS
 62
       7
100
AcDbCircle
 10
-163.61628173
 20
-113.44797227
 30
0.0
 40
51.26926169
100
AcDbArc
 50
352.88531036
 51
367.11468964
  0
ARC
  5
212
100
AcDbEntity
  8
LAYER0002
  6
CONTINUOUS
 62
       7
100
AcDbCircle
 10
-163.61628173
 20
-113.44797227
 30
0.0
 40
51.26926168
100
AcDbArc
 50
82.88531036
 51
97.11468964
  0
ARC
  5
213
100
AcDbEntity
  8
LAYER0002
  6
CONTINUOUS
 62
       7
100
AcDbCircle
 10
-163.61628173
 20
-113.44797227
 30
0.0
 40
51.26926168
100
AcDbArc
 50
172.88531036
 51
187.11468964
  0
ARC
  5
214
100
AcDbEntity
  8
LAYER0002
  6
CONTINUOUS
 62
       7
100
AcDbCircle
 10
-163.61628173
 20
-113.44797227
 30
0.0
 40
44.0
100
AcDbArc
 50
278.29779861
 51
351.70220139
  0
CIRCLE
  5
215
100
AcDbEntity
  8
LAYER0002
  6
CONTINUOUS
 62
       7
100
AcDbCircle
 10
-163.61628173
 20
-113.44797227
 30
0.0
 40
33.0
  0
ARC
  5
216
100
AcDbEntity
  8
LAYER0002
  6
CONTINUOUS
 62
       7
100
AcDbCircle
 10
-163.61628173
 20
-113.44797227
 30
0.0
 40
54.26679419
100
AcDbArc
 50
328.54593905
 51
346.45412061
  0
ARC
  5
217
100
AcDbEntity
  8
LAYER0002
  6
CONTINUOUS
 62
       7
100
AcDbCircle
 10
-163.61628173
 20
-113.44797227
 30
0.0
 40
54.26679418
100
AcDbArc
 50
148.54593905
 51
166.45412061
  0
ARC
  5
218
100
AcDbEntity
  8
LAYER0002
  6
CONTINUOUS
 62
       7
100
AcDbCircle
 10
-163.61628173
 20
-113.44797227
 30
0.0
 40
54.26679419
100
AcDbArc
 50
193.54593894
 51
211.4541205
  0
ARC
  5
219
100
AcDbEntity
  8
LAYER0002
  6
CONTINUOUS
 62
       7
100
AcDbCircle
 10
-163.61628173
 20
-113.44797227
 30
0.0
 40
54.26679421
100
AcDbArc
 50
13.54593895
 51
31.4541205
  0
ARC
  5
21A
100
AcDbEntity
  8
LAYER0002
  6
CONTINUOUS
 62
       7
100
AcDbCircle
 10
-163.61628173
 20
-113.44797227
 30
0.0
 40
54.2667942
100
AcDbArc
 50
103.54593894
 51
121.4541205
  0
CIRCLE
  5
21B
100
AcDbEntity
  8
LAYER0002
  6
CONTINUOUS
 62
       7
100
AcDbCircle
 10
-163.61628173
 20
-113.44797227
 30
0.0
 40
55.0
  0
ARC
  5
21C
100
AcDbEntity
  8
LAYER0002
  6
CONTINUOUS
 62
       7
100
AcDbCircle
 10
-163.61628173
 20
-113.44797227
 30
0.0
 40
54.26679419
100
AcDbArc
 50
58.54593905
 51
76.45412061
  0
ARC
  5
21D
100
AcDbEntity
  8
LAYER0002
  6
CONTINUOUS
 62
       7
100
AcDbCircle
 10
-163.61628173
 20
-113.44797227
 30
0.0
 40
54.68576894
100
AcDbArc
 50
76.56343299
 51
103.43656701
  0
ARC
  5
21E
100
AcDbEntity
  8
LAYER0002
  6
CONTINUOUS
 62
       7
100
AcDbCircle
 10
-163.61628173
 20
-113.44797227
 30
0.0
 40
54.68576894
100
AcDbArc
 50
121.56343288
 51
148.43656711
  0
ARC
  5
21F
100
AcDbEntity
  8
LAYER0002
  6
CONTINUOUS
 62
       7
100
AcDbCircle
 10
-163.61628173
 20
-113.44797227
 30
0.0
 40
54.68576894
100
AcDbArc
 50
166.56343299
 51
193.436567
  0
ARC
  5
220
100
AcDbEntity
  8
LAYER0002
  6
CONTINUOUS
 62
       7
100
AcDbCircle
 10
-163.61628173
 20
-113.44797227
 30
0.0
 40
54.68576894
100
AcDbArc
 50
211.56343288
 51
238.43656712
  0
ARC
  5
221
100
AcDbEntity
  8
LAYER0002
  6
CONTINUOUS
 62
       7
100
AcDbCircle
 10
-163.61628173
 20
-113.44797227
 30
0.0
 40
54.2667942
100
AcDbArc
 50
238.54593905
 51
256.45412061
  0
ARC
  5
222
100
AcDbEntity
  8
LAYER0002
  6
CONTINUOUS
 62
       7
100
AcDbCircle
 10
-163.61628173
 20
-113.44797227
 30
0.0
 40
54.68576894
100
AcDbArc
 50
256.56343299
 51
283.43656701
  0
ARC
  5
223
100
AcDbEntity
  8
LAYER0002
  6
CONTINUOUS
 62
       7
100
AcDbCircle
 10
-163.61628173
 20
-113.44797227
 30
0.0
 40
54.26679419
100
AcDbArc
 50
283.54593894
 51
301.4541205
  0
ARC
  5
224
100
AcDbEntity
  8
LAYER0002
  6
CONTINUOUS
 62
       7
100
AcDbCircle
 10
-163.61628173
 20
-113.44797227
 30
0.0
 40
54.68576894
100
AcDbArc
 50
301.56343288
 51
328.43656712
  0
ARC
  5
225
100
AcDbEntity
  8
LAYER0002
  6
CONTINUOUS
 62
       7
100
AcDbCircle
 10
-163.61628173
 20
-113.44797227
 30
0.0
 40
54.68576894
100
AcDbArc
 50
346.56343299
 51
373.43656701
  0
ARC
  5
226
100
AcDbEntity
  8
LAYER0002
  6
CONTINUOUS
 62
       7
100
AcDbCircle
 10
-163.61628173
 20
-113.44797227
 30
0.0
 40
54.68576894
100
AcDbArc
 50
31.56343288
 51
58.43656712
  0
ARC
  5
227
100
AcDbEntity
  8
LAYER0002
  6
CONTINUOUS
 62
       7
100
AcDbCircle
 10
-163.61628173
 20
187.96542577
 30
0.0
 40
32.487
100
AcDbArc
 50
0.0
 51
180.0
  0
ARC
  5
228
100
AcDbEntity
  8
LAYER0002
  6
CONTINUOUS
 62
       7
100
AcDbCircle
 10
-163.61628173
 20
187.96542577
 30
0.0
 40
41.513
100
AcDbArc
 50
0.0
 51
180.0
  0
ARC
  5
229
100
AcDbEntity
  8
LAYER0002
  6
CONTINUOUS
 62
       7
100
AcDbCircle
 10
-163.61628173
 20
220.45242577
 30
0.0
 40
60.5
100
AcDbArc
 50
230.22789189
 51
309.77210811
  0
ARC
  5
22A
100
AcDbEntity
  8
LAYER0002
  6
CONTINUOUS
 62
       7
100
AcDbCircle
 10
201.09446607
 20
-43.44797227
 30
0.0
 40
4.513
100
AcDbArc
 50
270.0
 51
450.0
  0
ARC
  5
22B
100
AcDbEntity
  8
LAYER0002
  6
CONTINUOUS
 62
       7
100
AcDbCircle
 10
201.17622455
 20
-191.44797227
 30
0.0
 40
4.513
100
AcDbArc
 50
270.0
 51
450.0
  0
ARC
  5
22C
100
AcDbEntity
  8
LAYER0002
  6
CONTINUOUS
 62
       7
100
AcDbCircle
 10
130.63117579
 20
-198.44797227
 30
0.0
 40
6.0
100
AcDbArc
 50
180.0
 51
270.0
  0
ARC
  5
22D
100
AcDbEntity
  8
LAYER0002
  6
CONTINUOUS
 62
       7
100
AcDbCircle
 10
130.63117579
 20
-36.44797227
 30
0.0
 40
6.0
100
AcDbArc
 50
90.0
 51
180.0
  0
ARC
  5
22E
100
AcDbEntity
  8
LAYER0002
  6
CONTINUOUS
 62
       7
100
AcDbCircle
 10
56.38371827
 20
93.21470174
 30
0.0
 40
5.0
100
AcDbArc
 50
180.0
 51
270.0
  0
ARC
  5
22F
100
AcDbEntity
  8
LAYER0002
  6
CONTINUOUS
 62
       7
100
AcDbCircle
 10
156.38371827
 20
93.21470174
 30
0.0
 40
5.0
100
AcDbArc
 50
269.99999995
 51
360.0
  0
ARC
  5
230
100
AcDbEntity
  8
LAYER0002
  6
CONTINUOUS
 62
       7
100
AcDbCircle
 10
106.38371827
 20
151.21470174
 30
0.0
 40
55.0
100
AcDbArc
 50
132.98589062
 51
180.0
  0
ARC
  5
231
100
AcDbEntity
  8
LAYER0002
  6
CONTINUOUS
 62
       7
100
AcDbCircle
 10
106.38371827
 20
151.21470174
 30
0.0
 40
55.0
100
AcDbArc
 50
0.0
 51
47.01411552
  0
ARC
  5
232
100
AcDbEntity
  8
LAYER0002
  6
CONTINUOUS
 62
       7
100
AcDbCircle
 10
130.63117579
 20
-36.44797227
 30
0.0
 40
3.0
100
AcDbArc
 50
90.0
 51
180.0
  0
ARC
  5
233
100
AcDbEntity
  8
LAYER0002
  6
CONTINUOUS
 62
       7
100
AcDbCircle
 10
130.63117579
 20
-198.44797227
 30
0.0
 40
3.0
100
AcDbArc
 50
180.0
 51
270.0
  0
ARC
  5
234
100
AcDbEntity
  8
LAYER0002
  6
CONTINUOUS
 62
       7
100
AcDbCircle
 10
128.63117579
 20
-55.44797227
 30
0.0
 40
1.0
100
AcDbArc
 50
180.0
 51
270.0
  0
ARC
  5
235
100
AcDbEntity
  8
LAYER0002
  6
CONTINUOUS
 62
       7
100
AcDbCircle
 10
128.63117579
 20
-55.44797227
 30
0.0
 40
4.0
100
AcDbArc
 50
255.52248781
 51
270.0
  0
ARC
  5
236
100
AcDbEntity
  8
LAYER0002
  6
CONTINUOUS
 62
       7
100
AcDbCircle
 10
128.63117579
 20
-179.44797227
 30
0.0
 40
1.0
100
AcDbArc
 50
90.0
 51
180.0
  0
ARC
  5
237
100
AcDbEntity
  8
LAYER0002
  6
CONTINUOUS
 62
       7
100
AcDbCircle
 10
128.63117579
 20
-179.44797227
 30
0.0
 40
4.0
100
AcDbArc
 50
90.0
 51
104.47751219
  0
CIRCLE
  5
238
100
AcDbEntity
  8
LAYER0002
  6
CONTINUOUS
 62
       7
100
AcDbCircle
 10
104.63117579
 20
-77.44797227
 30
0.0
 40
9.32
  0
CIRCLE
  5
239
100
AcDbEntity
  8
LAYER0002
  6
CONTINUOUS
 62
       7
100
AcDbCircle
 10
104.63117579
 20
-77.44797227
 30
0.0
 40
18.0
  0
CIRCLE
  5
23A
100
AcDbEntity
  8
LAYER0002
  6
CONTINUOUS
 62
       7
100
AcDbCircle
 10
104.63117579
 20
-77.44797227
 30
0.0
 40
10.5
  0
CIRCLE
  5
23B
100
AcDbEntity
  8
LAYER0002
  6
CONTINUOUS
 62
       7
100
AcDbCircle
 10
-126.61628173
 20
-191.44797227
 30
0.0
 40
8.5
  0
CIRCLE
  5
23C
100
AcDbEntity
  8
LAYER0002
  6
CONTINUOUS
 62
       7
100
AcDbCircle
 10
-126.61628173
 20
-191.44797227
 30
0.0
 40
5.0
  0
CIRCLE
  5
23D
100
AcDbEntity
  8
LAYER0002
  6
CONTINUOUS
 62
       7
100
AcDbCircle
 10
-126.61628173
 20
-191.44797227
 30
0.0
 40
9.2
  0
CIRCLE
  5
23E
100
AcDbEntity
  8
LAYER0002
  6
CONTINUOUS
 62
       7
100
AcDbCircle
 10
-126.61628173
 20
-191.44797227
 30
0.0
 40
4.25
  0
CIRCLE
  5
23F
100
AcDbEntity
  8
LAYER0002
  6
CONTINUOUS
 62
       7
100
AcDbCircle
 10
-200.61628173
 20
-191.44797227
 30
0.0
 40
8.5
  0
CIRCLE
  5
240
100
AcDbEntity
  8
LAYER0002
  6
CONTINUOUS
 62
       7
100
AcDbCircle
 10
-200.61628173
 20
-191.44797227
 30
0.0
 40
5.0
  0
CIRCLE
  5
241
100
AcDbEntity
  8
LAYER0002
  6
CONTINUOUS
 62
       7
100
AcDbCircle
 10
-200.61628173
 20
-191.44797227
 30
0.0
 40
9.2
  0
CIRCLE
  5
242
100
AcDbEntity
  8
LAYER0002
  6
CONTINUOUS
 62
       7
100
AcDbCircle
 10
-200.61628173
 20
-191.44797227
 30
0.0
 40
4.25
  0
ARC
  5
243
100
AcDbEntity
  8
LAYER0002
  6
CONTINUOUS
 62
       7
100
AcDbCircle
 10
132.24382304
 20
-173.0715839
 30
0.0
 40
2.88735276
100
AcDbArc
 50
319.46860514
 51
400.53139501
  0
ARC
  5
244
100
AcDbEntity
  8
LAYER0002
  6
CONTINUOUS
 62
       7
100
AcDbCircle
 10
132.24382304
 20
-161.82436064
 30
0.0
 40
2.88735276
100
AcDbArc
 50
319.46860499
 51
400.53139486
  0
ARC
  5
245
100
AcDbEntity
  8
LAYER0002
  6
CONTINUOUS
 62
       7
100
AcDbCircle
 10
124.65105447
 20
-167.44797227
 30
0.0
 40
10.48012133
100
AcDbArc
 50
339.04986378
 51
380.95013622
  0
ARC
  5
246
100
AcDbEntity
  8
LAYER0002
  6
CONTINUOUS
 62
       7
100
AcDbCircle
 10
132.24382304
 20
-103.0715839
 30
0.0
 40
2.88735276
100
AcDbArc
 50
319.46860514
 51
400.53139501
  0
ARC
  5
247
100
AcDbEntity
  8
LAYER0002
  6
CONTINUOUS
 62
       7
100
AcDbCircle
 10
132.24382304
 20
-91.82436064
 30
0.0
 40
2.88735276
100
AcDbArc
 50
319.46860499
 51
400.53139486
  0
ARC
  5
248
100
AcDbEntity
  8
LAYER0002
  6
CONTINUOUS
 62
       7
100
AcDbCircle
 10
124.65105447
 20
-97.44797227
 30
0.0
 40
10.48012133
100
AcDbArc
 50
339.04986378
 51
380.95013622
  0
CIRCLE
  5
249
100
AcDbEntity
  8
LAYER0002
  6
CONTINUOUS
 62
       7
100
AcDbCircle
 10
-126.61628173
 20
-43.44797227
 30
0.0
 40
8.5
  0
CIRCLE
  5
24A
100
AcDbEntity
  8
LAYER0002
  6
CONTINUOUS
 62
       7
100
AcDbCircle
 10
-126.61628173
 20
-43.44797227
 30
0.0
 40
5.0
  0
CIRCLE
  5
24B
100
AcDbEntity
  8
LAYER0002
  6
CONTINUOUS
 62
       7
100
AcDbCircle
 10
-126.61628173
 20
-43.44797227
 30
0.0
 40
9.2
  0
CIRCLE
  5
24C
100
AcDbEntity
  8
LAYER0002
  6
CONTINUOUS
 62
       7
100
AcDbCircle
 10
-126.61628173
 20
-43.44797227
 30
0.0
 40
4.25
  0
CIRCLE
  5
24D
100
AcDbEntity
  8
LAYER0002
  6
CONTINUOUS
 62
       7
100
AcDbCircle
 10
-117.61628173
 20
-167.44797227
 30
0.0
 40
3.3
  0
CIRCLE
  5
24E
100
AcDbEntity
  8
LAYER0002
  6
CONTINUOUS
 62
       7
100
AcDbCircle
 10
-117.61628173
 20
-167.44797227
 30
0.0
 40
4.0
  0
CIRCLE
  5
24F
100
AcDbEntity
  8
LAYER0002
  6
CONTINUOUS
 62
       7
100
AcDbCircle
 10
-209.61628173
 20
-167.44797227
 30
0.0
 40
3.3
  0
CIRCLE
  5
250
100
AcDbEntity
  8
LAYER0002
  6
CONTINUOUS
 62
       7
100
AcDbCircle
 10
-209.61628173
 20
-167.44797227
 30
0.0
 40
4.0
  0
CIRCLE
  5
251
100
AcDbEntity
  8
LAYER0002
  6
CONTINUOUS
 62
       7
100
AcDbCircle
 10
152.38371827
 20
97.21470174
 30
0.0
 40
3.3
  0
CIRCLE
  5
252
100
AcDbEntity
  8
LAYER0002
  6
CONTINUOUS
 62
       7
100
AcDbCircle
 10
152.38371827
 20
97.21470174
 30
0.0
 40
4.0
  0
CIRCLE
  5
253
100
AcDbEntity
  8
LAYER0002
  6
CONTINUOUS
 62
       7
100
AcDbCircle
 10
60.38371827
 20
97.21470174
 30
0.0
 40
3.3
  0
CIRCLE
  5
254
100
AcDbEntity
  8
LAYER0002
  6
CONTINUOUS
 62
       7
100
AcDbCircle
 10
60.38371827
 20
97.21470174
 30
0.0
 40
4.0
  0
CIRCLE
  5
255
100
AcDbEntity
  8
LAYER0002
  6
CONTINUOUS
 62
       7
100
AcDbCircle
 10
60.38371827
 20
167.21470174
 30
0.0
 40
3.3
  0
CIRCLE
  5
256
100
AcDbEntity
  8
LAYER0002
  6
CONTINUOUS
 62
       7
100
AcDbCircle
 10
60.38371827
 20
167.21470174
 30
0.0
 40
4.0
  0
CIRCLE
  5
257
100
AcDbEntity
  8
LAYER0002
  6
CONTINUOUS
 62
       7
100
AcDbCircle
 10
152.38371827
 20
167.21470174
 30
0.0
 40
3.3
  0
CIRCLE
  5
258
100
AcDbEntity
  8
LAYER0002
  6
CONTINUOUS
 62
       7
100
AcDbCircle
 10
152.38371827
 20
167.21470174
 30
0.0
 40
4.0
  0
ARC
  5
259
100
AcDbEntity
  8
LAYER0002
  6
CONTINUOUS
 62
       7
100
AcDbCircle
 10
-144.08619378
 20
-179.4957717
 30
0.0
 40
0.96337148
100
AcDbArc
 50
183.00000015
 51
251.15103117
  0
ARC
  5
25A
100
AcDbEntity
  8
LAYER0002
  6
CONTINUOUS
 62
       7
100
AcDbCircle
 10
-139.14636968
 20
-179.4957717
 30
0.0
 40
0.96337148
100
AcDbArc
 50
288.84896883
 51
356.99999985
  0
ARC
  5
25B
100
AcDbEntity
  8
LAYER0002
  6
CONTINUOUS
 62
       7
100
AcDbCircle
 10
-141.61628173
 20
-171.84797227
 30
0.0
 40
9.00000001
100
AcDbArc
 50
252.0
 51
288.0
  0
ARC
  5
25C
100
AcDbEntity
  8
LAYER0002
  6
CONTINUOUS
 62
       7
100
AcDbCircle
 10
81.91380622
 20
85.16690231
 30
0.0
 40
0.96337148
100
AcDbArc
 50
182.99999956
 51
251.15103117
  0
ARC
  5
25D
100
AcDbEntity
  8
LAYER0002
  6
CONTINUOUS
 62
       7
100
AcDbCircle
 10
86.85363032
 20
85.16690231
 30
0.0
 40
0.96337148
100
AcDbArc
 50
288.84896883
 51
357.00000044
  0
ARC
  5
25E
100
AcDbEntity
  8
LAYER0002
  6
CONTINUOUS
 62
       7
100
AcDbCircle
 10
84.38371827
 20
92.81470174
 30
0.0
 40
9.00000001
100
AcDbArc
 50
252.0
 51
288.0
  0
ARC
  5
25F
100
AcDbEntity
  8
LAYER0002
  6
CONTINUOUS
 62
       7
100
AcDbCircle
 10
90.16126374
 20
-179.4957717
 30
0.0
 40
0.96337147
100
AcDbArc
 50
183.00000018
 51
251.15103117
  0
ARC
  5
260
100
AcDbEntity
  8
LAYER0002
  6
CONTINUOUS
 62
       7
100
AcDbCircle
 10
95.10108784
 20
-179.49577169
 30
0.0
 40
0.96337148
100
AcDbArc
 50
288.84896883
 51
356.99999985
  0
ARC
  5
261
100
AcDbEntity
  8
LAYER0002
  6
CONTINUOUS
 62
       7
100
AcDbCircle
 10
92.63117579
 20
-171.84797227
 30
0.0
 40
9.0
100
AcDbArc
 50
252.0
 51
288.0
  0
CIRCLE
  5
262
100
AcDbEntity
  8
LAYER0002
  6
CONTINUOUS
 62
       7
100
AcDbCircle
 10
-200.61628173
 20
-43.44797227
 30
0.0
 40
8.5
  0
CIRCLE
  5
263
100
AcDbEntity
  8
LAYER0002
  6
CONTINUOUS
 62
       7
100
AcDbCircle
 10
-200.61628173
 20
-43.44797227
 30
0.0
 40
5.0
  0
CIRCLE
  5
264
100
AcDbEntity
  8
LAYER0002
  6
CONTINUOUS
 62
       7
100
AcDbCircle
 10
-200.61628173
 20
-43.44797227
 30
0.0
 40
9.2
  0
CIRCLE
  5
265
100
AcDbEntity
  8
LAYER0002
  6
CONTINUOUS
 62
       7
100
AcDbCircle
 10
-200.61628173
 20
-43.44797227
 30
0.0
 40
4.25
  0
ARC
  5
266
100
AcDbEntity
  8
LAYER0002
  6
CONTINUOUS
 62
       7
100
AcDbCircle
 10
117.94261878
 20
-198.79423363
 30
0.0
 40
3.81144299
100
AcDbArc
 50
139.9255796
 51
220.07442029
  0
ARC
  5
267
100
AcDbEntity
  8
LAYER0002
  6
CONTINUOUS
 62
       7
100
AcDbCircle
 10
117.94261878
 20
-184.10171091
 30
0.0
 40
3.81144299
100
AcDbArc
 50
139.92557971
 51
220.0744204
  0
ARC
  5
268
100
AcDbEntity
  8
LAYER0002
  6
CONTINUOUS
 62
       7
100
AcDbCircle
 10
127.95272435
 20
-191.44797227
 30
0.0
 40
13.82154856
100
AcDbArc
 50
159.26918486
 51
200.73081514
  0
ARC
  5
269
100
AcDbEntity
  8
LAYER0002
  6
CONTINUOUS
 62
       7
100
AcDbCircle
 10
117.94261878
 20
-50.79423363
 30
0.0
 40
3.81144299
100
AcDbArc
 50
139.9255796
 51
220.07442029
  0
ARC
  5
26A
100
AcDbEntity
  8
LAYER0002
  6
CONTINUOUS
 62
       7
100
AcDbCircle
 10
117.94261878
 20
-36.10171091
 30
0.0
 40
3.81144299
100
AcDbArc
 50
139.92557971
 51
220.0744204
  0
ARC
  5
26B
100
AcDbEntity
  8
LAYER0002
  6
CONTINUOUS
 62
       7
100
AcDbCircle
 10
127.95272435
 20
-43.44797227
 30
0.0
 40
13.82154856
100
AcDbArc
 50
159.26918486
 51
200.73081514
  0
ARC
  5
26C
100
AcDbEntity
  8
LAYER0002
  6
CONTINUOUS
 62
       7
100
AcDbCircle
 10
-122.36628172
 20
142.82536644
 30
0.0
 40
4.89030045
100
AcDbArc
 50
209.64957078
 51
330.35042916
  0
ARC
  5
26D
100
AcDbEntity
  8
LAYER0002
  6
CONTINUOUS
 62
       7
100
AcDbCircle
 10
-130.86628173
 20
142.82536644
 30
0.0
 40
4.89030044
100
AcDbArc
 50
209.64957084
 51
330.35042914
  0
ARC
  5
26E
100
AcDbEntity
  8
LAYER0002
  6
CONTINUOUS
 62
       7
100
AcDbCircle
 10
-196.36628172
 20
142.82536644
 30
0.0
 40
4.89030045
100
AcDbArc
 50
209.64957078
 51
330.35042916
  0
ARC
  5
26F
100
AcDbEntity
  8
LAYER0002
  6
CONTINUOUS
 62
       7
100
AcDbCircle
 10
-204.86628173
 20
142.82536644
 30
0.0
 40
4.89030044
100
AcDbArc
 50
209.64957084
 51
330.35042914
  0
ARC
  5
270
100
AcDbEntity
  8
LAYER0002
  6
CONTINUOUS
 62
       7
100
AcDbCircle
 10
-109.47191584
 20
-62.3203718
 30
0.0
 40
8.85563411
100
AcDbArc
 50
331.14768199
 51
389.58683825
  0
ARC
  5
271
100
AcDbEntity
  8
LAYER0002
  6
CONTINUOUS
 62
       7
100
AcDbCircle
 10
-97.76064762
 20
-62.3203718
 30
0.0
 40
8.85563411
100
AcDbArc
 50
150.41316179
 51
208.85231804
  0
ARC
  5
272
100
AcDbEntity
  8
LAYER0002
  6
CONTINUOUS
 62
       7
100
AcDbCircle
 10
-109.47191584
 20
-92.57557274
 30
0.0
 40
8.85563411
100
AcDbArc
 50
330.41316176
 51
388.852318
  0
ARC
  5
273
100
AcDbEntity
  8
LAYER0002
  6
CONTINUOUS
 62
       7
100
AcDbCircle
 10
-97.76064762
 20
-92.57557275
 30
0.0
 40
8.85563411
100
AcDbArc
 50
151.14768196
 51
209.58683821
  0
ARC
  5
274
100
AcDbEntity
  8
LAYER0002
  6
CONTINUOUS
 62
       7
100
AcDbCircle
 10
-134.82426787
 20
-77.44797227
 30
0.0
 40
34.20798614
100
AcDbArc
 50
345.43540932
 51
374.56459068
  0
ARC
  5
275
100
AcDbEntity
  8
LAYER0002
  6
CONTINUOUS
 62
       7
100
AcDbCircle
 10
-72.40829559
 20
-77.44797227
 30
0.0
 40
34.20798614
100
AcDbArc
 50
165.43540932
 51
194.56459068
  0
ARC
  5
276
100
AcDbEntity
  8
LAYER0002
  6
CONTINUOUS
 62
       7
100
AcDbCircle
 10
-85.76064762
 20
-62.3203718
 30
0.0
 40
8.85563411
100
AcDbArc
 50
150.41316176
 51
208.85231797
  0
ARC
  5
277
100
AcDbEntity
  8
LAYER0002
  6
CONTINUOUS
 62
       7
100
AcDbCircle
 10
-85.76064762
 20
-92.57557274
 30
0.0
 40
8.85563411
100
AcDbArc
 50
151.14768203
 51
209.58683824
  0
ARC
  5
278
100
AcDbEntity
  8
LAYER0002
  6
CONTINUOUS
 62
       7
100
AcDbCircle
 10
-60.4082956
 20
-77.44797227
 30
0.0
 40
34.20798614
100
AcDbArc
 50
165.43540932
 51
194.56459068
  0
ARC
  5
279
100
AcDbEntity
  8
LAYER0002
  6
CONTINUOUS
 62
       7
100
AcDbCircle
 10
-75.47191584
 20
-62.32037179
 30
0.0
 40
8.8556341
100
AcDbArc
 50
331.14768193
 51
389.58683821
  0
ARC
  5
27A
100
AcDbEntity
  8
LAYER0002
  6
CONTINUOUS
 62
       7
100
AcDbCircle
 10
-75.47191584
 20
-92.57557275
 30
0.0
 40
8.8556341
100
AcDbArc
 50
330.41316179
 51
388.85231807
  0
ARC
  5
27B
100
AcDbEntity
  8
LAYER0002
  6
CONTINUOUS
 62
       7
100
AcDbCircle
 10
-100.82426788
 20
-77.44797227
 30
0.0
 40
34.20798614
100
AcDbArc
 50
345.43540932
 51
374.56459068
  0
ARC
  5
27C
100
AcDbEntity
  8
LAYER0002
  6
CONTINUOUS
 62
       7
100
AcDbCircle
 10
-44.61628173
 20
-60.94797227
 30
0.0
 40
1.0
100
AcDbArc
 50
0.0
 51
90.0
  0
ARC
  5
27D
100
AcDbEntity
  8
LAYER0002
  6
CONTINUOUS
 62
       7
100
AcDbCircle
 10
-44.61628173
 20
-93.94797227
 30
0.0
 40
1.0
100
AcDbArc
 50
270.0
 51
360.0
  0
ARC
  5
27E
100
AcDbEntity
  8
LAYER0002
  6
CONTINUOUS
 62
       7
100
AcDbCircle
 10
-29.61628173
 20
-89.94797227
 30
0.0
 40
1.0
100
AcDbArc
 50
270.0
 51
360.0
  0
ARC
  5
27F
100
AcDbEntity
  8
LAYER0002
  6
CONTINUOUS
 62
       7
100
AcDbCircle
 10
-29.61628173
 20
-64.94797227
 30
0.0
 40
1.0
100
AcDbArc
 50
0.0
 51
90.0
  0
ARC
  5
280
100
AcDbEntity
  8
LAYER0002
  6
CONTINUOUS
 62
       7
100
AcDbCircle
 10
-44.61628173
 20
111.95242577
 30
0.0
 40
1.0
100
AcDbArc
 50
270.0
 51
360.0
  0
ARC
  5
281
100
AcDbEntity
  8
LAYER0002
  6
CONTINUOUS
 62
       7
100
AcDbCircle
 10
-44.61628173
 20
144.95242577
 30
0.0
 40
1.0
100
AcDbArc
 50
0.0
 51
90.0
  0
ARC
  5
282
100
AcDbEntity
  8
LAYER0002
  6
CONTINUOUS
 62
       7
100
AcDbCircle
 10
-92.40968154
 20
119.70242577
 30
0.0
 40
25.79339981
100
AcDbArc
 50
343.21225228
 51
376.78774772
  0
ARC
  5
283
100
AcDbEntity
  8
LAYER0002
  6
CONTINUOUS
 62
       7
100
AcDbCircle
 10
-92.40968154
 20
137.20242577
 30
0.0
 40
25.79339981
100
AcDbArc
 50
343.21225228
 51
376.78774772
  0
ARC
  5
284
100
AcDbEntity
  8
LAYER0002
  6
CONTINUOUS
 62
       7
100
AcDbCircle
 10
-68.82288192
 20
119.70242577
 30
0.0
 40
25.79339981
100
AcDbArc
 50
163.21225228
 51
196.78774772
  0
ARC
  5
285
100
AcDbEntity
  8
LAYER0002
  6
CONTINUOUS
 62
       7
100
AcDbCircle
 10
-68.82288192
 20
137.20242577
 30
0.0
 40
25.79339981
100
AcDbArc
 50
163.21225228
 51
196.78774772
  0
ARC
  5
286
100
AcDbEntity
  8
LAYER0002
  6
CONTINUOUS
 62
       7
100
AcDbCircle
 10
-125.22583695
 20
119.70242577
 30
0.0
 40
24.60955522
100
AcDbArc
 50
342.37888634
 51
377.62111368
  0
ARC
  5
287
100
AcDbEntity
  8
LAYER0002
  6
CONTINUOUS
 62
       7
100
AcDbCircle
 10
-125.22583695
 20
137.20242577
 30
0.0
 40
24.60955521
100
AcDbArc
 50
342.37888634
 51
377.62111369
  0
ARC
  5
288
100
AcDbEntity
  8
LAYER0002
  6
CONTINUOUS
 62
       7
100
AcDbCircle
 10
-82.00672651
 20
137.20242578
 30
0.0
 40
24.60955522
100
AcDbArc
 50
162.37888635
 51
197.62111368
  0
ARC
  5
289
100
AcDbEntity
  8
LAYER0002
  6
CONTINUOUS
 62
       7
100
AcDbCircle
 10
-82.00672651
 20
119.70242578
 30
0.0
 40
24.60955522
100
AcDbArc
 50
162.37888634
 51
197.62111368
  0
LINE
  5
28A
100
AcDbEntity
  8
0
  6
CONTINUOUS
 62
       7
100
AcDbLine
 10
-221.91628173
 20
-91.44797227
 30
0.0
 11
-223.21628173
 21
-89.19630622
 31
0.0
  0
LINE
  5
28B
100
AcDbEntity
  8
0
  6
CONTINUOUS
 62
       7
100
AcDbLine
 10
-223.21628173
 20
-89.19630622
 30
0.0
 11
-223.21628173
 21
-65.69963832
 31
0.0
  0
LINE
  5
28C
100
AcDbEntity
  8
0
  6
CONTINUOUS
 62
       7
100
AcDbLine
 10
-221.91628173
 20
-91.44797227
 30
0.0
 11
-221.91628173
 21
-63.44797227
 31
0.0
  0
LINE
  5
28D
100
AcDbEntity
  8
0
  6
CONTINUOUS
 62
       7
100
AcDbLine
 10
-220.61628173
 20
-63.44797227
 30
0.0
 11
-221.91628173
 21
-63.44797227
 31
0.0
  0
LINE
  5
28E
100
AcDbEntity
  8
0
  6
CONTINUOUS
 62
       7
100
AcDbLine
 10
-224.71628173
 20
-84.44797227
 30
0.0
 11
-224.71628173
 21
-70.44797227
 31
0.0
  0
LINE
  5
28F
100
AcDbEntity
  8
0
  6
CONTINUOUS
 62
       7
100
AcDbLine
 10
-224.71628173
 20
-70.44797227
 30
0.0
 11
-223.21628173
 21
-70.44797227
 31
0.0
  0
LINE
  5
290
100
AcDbEntity
  8
0
  6
CONTINUOUS
 62
       7
100
AcDbLine
 10
-221.91628173
 20
-63.44797227
 30
0.0
 11
-223.21628173
 21
-65.69963832
 31
0.0
  0
LINE
  5
291
100
AcDbEntity
  8
0
  6
CONTINUOUS
 62
       7
100
AcDbLine
 10
-220.61628173
 20
-91.44797227
 30
0.0
 11
-221.91628173
 21
-91.44797227
 31
0.0
  0
LINE
  5
292
100
AcDbEntity
  8
0
  6
CONTINUOUS
 62
       7
100
AcDbLine
 10
-223.21628173
 20
-84.44797227
 30
0.0
 11
-224.71628173
 21
-84.44797227
 31
0.0
  0
LINE
  5
293
100
AcDbEntity
  8
0
  6
CONTINUOUS
 62
       7
100
AcDbLine
 10
-221.91628173
 20
114.45242577
 30
0.0
 11
-223.21628173
 21
116.70409182
 31
0.0
  0
LINE
  5
294
100
AcDbEntity
  8
0
  6
CONTINUOUS
 62
       7
100
AcDbLine
 10
-223.21628173
 20
116.70409182
 30
0.0
 11
-223.21628173
 21
140.20075972
 31
0.0
  0
LINE
  5
295
100
AcDbEntity
  8
0
  6
CONTINUOUS
 62
       7
100
AcDbLine
 10
-221.91628173
 20
114.45242577
 30
0.0
 11
-221.91628173
 21
142.45242577
 31
0.0
  0
LINE
  5
296
100
AcDbEntity
  8
0
  6
CONTINUOUS
 62
       7
100
AcDbLine
 10
-220.61628173
 20
142.45242577
 30
0.0
 11
-221.91628173
 21
142.45242577
 31
0.0
  0
LINE
  5
297
100
AcDbEntity
  8
0
  6
CONTINUOUS
 62
       7
100
AcDbLine
 10
-224.71628173
 20
121.45242577
 30
0.0
 11
-224.71628173
 21
135.45242577
 31
0.0
  0
LINE
  5
298
100
AcDbEntity
  8
0
  6
CONTINUOUS
 62
       7
100
AcDbLine
 10
-224.71628173
 20
135.45242577
 30
0.0
 11
-223.21628173
 21
135.45242577
 31
0.0
  0
LINE
  5
299
100
AcDbEntity
  8
0
  6
CONTINUOUS
 62
       7
100
AcDbLine
 10
-221.91628173
 20
142.45242577
 30
0.0
 11
-223.21628173
 21
140.20075972
 31
0.0
  0
LINE
  5
29A
100
AcDbEntity
  8
0
  6
CONTINUOUS
 62
       7
100
AcDbLine
 10
-220.61628173
 20
114.45242577
 30
0.0
 11
-221.91628173
 21
114.45242577
 31
0.0
  0
LINE
  5
29B
100
AcDbEntity
  8
0
  6
CONTINUOUS
 62
       7
100
AcDbLine
 10
-223.21628173
 20
121.45242577
 30
0.0
 11
-224.71628173
 21
121.45242577
 31
0.0
  0
ARC
  5
29C
100
AcDbEntity
  8
0
  6
CONTINUOUS
 62
       7
100
AcDbCircle
 10
-197.94405951
 20
-77.44797227
 30
0.0
 40
27.67222222
100
AcDbArc
 50
165.34718668
 51
194.65281332
  0
ARC
  5
29D
100
AcDbEntity
  8
0
  6
CONTINUOUS
 62
       7
100
AcDbCircle
 10
-197.94405951
 20
128.45242577
 30
0.0
 40
27.67222222
100
AcDbArc
 50
165.34718668
 51
194.65281332
  0
TEXT
  5
29E
100
AcDbEntity
  8
LAYER0002
 62
       7
100
AcDbText
 10
213.71003178
 20
-234.24092577
 30
0.0
 40
9.525
  1
000
 72
       5
 11
242.28503178
 21
-234.24092577
 31
0.0
100
AcDbText
  0
ENDSEC
  0
SECTION
  2
OBJECTS
  0
DICTIONARY
  5
19
100
AcDbDictionary
  3
ACAD_GROUP
350
1A
  3
ACAD_MLINESTYLE
350
1B
  0
DICTIONARY
  5
1A
102
{ACAD_REACTORS
330
19
102
}
100
AcDbDictionary
  0
DICTIONARY
  5
1B
102
{ACAD_REACTORS
330
19
102
}
100
AcDbDictionary
  3
STANDARD
350
1C
  0
MLINESTYLE
  5
1C
102
{ACAD_REACTORS
330
1B
102
}
100
AcDbMlineStyle
  2
STANDARD
 70
       0
  3

 62
       0
 51
90.0
 52
90.0
 71
       2
 49
0.5
 62
     256
  6
BYLAYER
 49
-0.5
 62
     256
  6
BYLAYER
  0
ENDSEC
  0
EOF
