  0
SECTION
  2
HEADER
  9
$ACADVER
  1
AC1014
  9
$ACADMAINTVER
 70
     9
  9
$DWGCODEPAGE
  3
DOS932
  9
$INSBASE
 10
0.0
 20
0.0
 30
0.0
  9
$EXTMIN
 10
0.0
 20
0.0
 30
0.0
  9
$EXTMAX
 10
1189.0
 20
841.0
 30
0.0
  9
$LIMMIN
 10
0.0
 20
0.0
  9
$LIMMAX
 10
1189.0
 20
841.0
  9
$ORTHOMODE
 70
     0
  9
$REGENMODE
 70
     1
  9
$FILLMODE
 70
     1
  9
$QTEXTMODE
 70
     0
  9
$MIRRTEXT
 70
     1
  9
$DRAGMODE
 70
     2
  9
$LTSCALE
 40
1.0
  9
$OSMODE
 70
    37
  9
$ATTMODE
 70
     1
  9
$TEXTSIZE
 40
3.5
  9
$TRACEWID
 40
1.0
  9
$TEXTSTYLE
  7
STANDARD
  9
$CLAYER
  8
0
  9
$CELTYPE
  6
BYLAYER
  9
$CECOLOR
 62
   256
  9
$CELTSCALE
 40
1.0
  9
$DELOBJ
 70
     1
  9
$DISPSILH
 70
     0
  9
$DIMSCALE
 40
1.0
  9
$DIMASZ
 40
4.0
  9
$DIMEXO
 40
1.0
  9
$DIMDLI
 40
3.75
  9
$DIMRND
 40
0.0
  9
$DIMDLE
 40
0.0
  9
$DIMEXE
 40
1.0
  9
$DIMTP
 40
0.0
  9
$DIMTM
 40
0.0
  9
$DIMTXT
 40
3.5
  9
$DIMCEN
 40
2.5
  9
$DIMTSZ
 40
0.0
  9
$DIMTOL
 70
     0
  9
$DIMLIM
 70
     0
  9
$DIMTIH
 70
     1
  9
$DIMTOH
 70
     1
  9
$DIMSE1
 70
     0
  9
$DIMSE2
 70
     0
  9
$DIMTAD
 70
     1
  9
$DIMZIN
 70
     1
  9
$DIMBLK
  1

  9
$DIMASO
 70
     1
  9
$DIMSHO
 70
     1
  9
$DIMPOST
  1

  9
$DIMAPOST
  1

  9
$DIMALT
 70
     0
  9
$DIMALTD
 70
     3
  9
$DIMALTF
 40
0.0393700787
  9
$DIMLFAC
 40
1.0
  9
$DIMTOFL
 70
     1
  9
$DIMTVP
 40
0.0
  9
$DIMTIX
 70
     0
  9
$DIMSOXD
 70
     0
  9
$DIMSAH
 70
     0
  9
$DIMBLK1
  1

  9
$DIMBLK2
  1

  9
$DIMSTYLE
  2
ISO-25
  9
$DIMCLRD
 70
     0
  9
$DIMCLRE
 70
     0
  9
$DIMCLRT
 70
     0
  9
$DIMTFAC
 40
1.0
  9
$DIMGAP
 40
1.524
  9
$DIMJUST
 70
     0
  9
$DIMSD1
 70
     0
  9
$DIMSD2
 70
     0
  9
$DIMTOLJ
 70
     0
  9
$DIMTZIN
 70
     1
  9
$DIMALTZ
 70
     0
  9
$DIMALTTZ
 70
     0
  9
$DIMFIT
 70
     3
  9
$DIMUPT
 70
     0
  9
$DIMUNIT
 70
     2
  9
$DIMDEC
 70
     0
  9
$DIMTDEC
 70
     4
  9
$DIMALTU
 70
     2
  9
$DIMALTTD
 70
     3
  9
$DIMTXSTY
  7
STANDARD
  9
$DIMAUNIT
 70
     0
  9
$LUNITS
 70
     2
  9
$LUPREC
 70
     4
  9
$SKETCHINC
 40
1.0
  9
$FILLETRAD
 40
0.0
  9
$AUNITS
 70
     0
  9
$AUPREC
 70
     0
  9
$MENU
  1
.
  9
$ELEVATION
 40
0.0
  9
$PELEVATION
 40
0.0
  9
$THICKNESS
 40
0.0
  9
$LIMCHECK
 70
     0
  9
$CHAMFERA
 40
0.0
  9
$CHAMFERB
 40
0.0
  9
$CHAMFERC
 40
0.0
  9
$CHAMFERD
 40
0.0
  9
$SKPOLY
 70
     0
  9
$TDCREATE
 40
2460803.566194908
  9
$TDUPDATE
 40
2460803.566197327
  9
$TDINDWG
 40
0.0000000116
  9
$TDUSRTIMER
 40
0.0000000116
  9
$USRTIMER
 70
     1
  9
$ANGBASE
 50
0.0
  9
$ANGDIR
 70
     0
  9
$PDMODE
 70
     0
  9
$PDSIZE
 40
-1.0
  9
$PLINEWID
 40
0.0
  9
$COORDS
 70
     1
  9
$SPLFRAME
 70
     0
  9
$SPLINETYPE
 70
     6
  9
$SPLINESEGS
 70
     8
  9
$ATTDIA
 70
     0
  9
$ATTREQ
 70
     1
  9
$HANDLING
 70
     1
  9
$HANDSEED
  5
444
  9
$SURFTAB1
 70
     6
  9
$SURFTAB2
 70
     6
  9
$SURFTYPE
 70
     6
  9
$SURFU
 70
     6
  9
$SURFV
 70
     6
  9
$UCSNAME
  2

  9
$UCSORG
 10
0.0
 20
0.0
 30
0.0
  9
$UCSXDIR
 10
1.0
 20
0.0
 30
0.0
  9
$UCSYDIR
 10
0.0
 20
1.0
 30
0.0
  9
$PUCSNAME
  2

  9
$PUCSORG
 10
0.0
 20
0.0
 30
0.0
  9
$PUCSXDIR
 10
1.0
 20
0.0
 30
0.0
  9
$PUCSYDIR
 10
0.0
 20
1.0
 30
0.0
  9
$USERI1
 70
     0
  9
$USERI2
 70
     0
  9
$USERI3
 70
     0
  9
$USERI4
 70
     0
  9
$USERI5
 70
     0
  9
$USERR1
 40
0.0
  9
$USERR2
 40
0.0
  9
$USERR3
 40
0.0
  9
$USERR4
 40
0.0
  9
$USERR5
 40
0.0
  9
$WORLDVIEW
 70
     1
  9
$SHADEDGE
 70
     3
  9
$SHADEDIF
 70
    70
  9
$TILEMODE
 70
     0
  9
$MAXACTVP
 70
    64
  9
$PINSBASE
 10
0.0
 20
0.0
 30
0.0
  9
$PLIMCHECK
 70
     0
  9
$PEXTMIN
 10
0.0
 20
0.0
 30
0.0
  9
$PEXTMAX
 10
1189.0
 20
841.0
 30
0.0
  9
$PLIMMIN
 10
0.0
 20
0.0
  9
$PLIMMAX
 10
1189.0
 20
841.0
  9
$UNITMODE
 70
     0
  9
$VISRETAIN
 70
     1
  9
$PLINEGEN
 70
     0
  9
$PSLTSCALE
 70
     1
  9
$TREEDEPTH
 70
  3020
  9
$PICKSTYLE
 70
     1
  9
$CMLSTYLE
  2
STANDARD
  9
$CMLJUST
 70
     0
  9
$CMLSCALE
 40
20.0
  9
$PROXYGRAPHICS
 70
     1
  9
$MEASUREMENT
 70
     1
  0
ENDSEC
  0
SECTION
  2
CLASSES
  0
CLASS
  1
ACDBDICTIONARYWDFLT
  2
AcDbDictionaryWithDefault
  3
ObjectDBX Classes
 90
        0
280
     0
281
     0
  0
CLASS
  1
VISUALSTYLE
  2
AcDbVisualStyle
  3
ObjectDBX Classes
 90
     4095
280
     0
281
     0
  0
CLASS
  1
MATERIAL
  2
AcDbMaterial
  3
ObjectDBX Classes
 90
     1153
280
     0
281
     0
  0
CLASS
  1
SCALE
  2
AcDbScale
  3
ObjectDBX Classes
 90
     1153
280
     0
281
     0
  0
CLASS
  1
TABLESTYLE
  2
AcDbTableStyle
  3
ObjectDBX Classes
 90
     4095
280
     0
281
     0
  0
CLASS
  1
MLEADERSTYLE
  2
AcDbMLeaderStyle
  3
ACDB_MLEADERSTYLE_CLASS
 90
     4095
280
     0
281
     0
  0
CLASS
  1
SUN
  2
AcDbSun
  3
SCENEOE
 90
     1153
280
     0
281
     0
  0
CLASS
  1
XRECORD
  2
AcDbXrecord
  3
ObjectDBX Classes
 90
        0
280
     0
281
     0
  0
CLASS
  1
LWPOLYLINE
  2
AcDbPolyline
  3
ObjectDBX Classes
 90
        0
280
     0
281
     1
  0
CLASS
  1
HATCH
  2
AcDbHatch
  3
ObjectDBX Classes
 90
        0
280
     0
281
     1
  0
ENDSEC
  0
SECTION
  2
TABLES
  0
TABLE
  2
VPORT
  5
8
330
0
100
AcDbSymbolTable
 70
     1
  0
VPORT
  5
29
330
8
100
AcDbSymbolTableRecord
100
AcDbViewportTableRecord
  2
*ACTIVE
 70
     0
 10
0.0
 20
0.0
 11
1.0
 21
1.0
 12
594.5
 22
420.5
 13
0.0
 23
0.0
 14
10.0
 24
10.0
 15
10.0
 25
10.0
 16
0.0
 26
0.0
 36
1.0
 17
0.0
 27
0.0
 37
0.0
 40
841.0
 41
1.4137931034
 42
50.0
 43
0.0
 44
0.0
 50
0.0
 51
0.0
 71
     0
 72
  2000
 73
     1
 74
     3
 75
     0
 76
     0
 77
     0
 78
     0
  0
ENDTAB
  0
TABLE
  2
LTYPE
  5
5
330
0
100
AcDbSymbolTable
 70
     6
  0
LTYPE
  5
14
330
5
100
AcDbSymbolTableRecord
100
AcDbLinetypeTableRecord
  2
BYBLOCK
 70
     0
  3

 72
    65
 73
     0
 40
0.0
  0
LTYPE
  5
15
330
5
100
AcDbSymbolTableRecord
100
AcDbLinetypeTableRecord
  2
BYLAYER
 70
     0
  3

 72
    65
 73
     0
 40
0.0
  0
LTYPE
  5
16
330
5
100
AcDbSymbolTableRecord
100
AcDbLinetypeTableRecord
  2
CONTINUOUS
 70
     0
  3
Solid line
 72
    65
 73
     0
 40
0.0
  0
LTYPE
  5
5E
330
5
100
AcDbSymbolTableRecord
100
AcDbLinetypeTableRecord
  2
HIDDEN
 70
     0
  3
Hidden __ __ __ __ __ __ __ __ __ __ __ __ __ __
 72
    65
 73
     2
 40
1.905
 49
1.27
 74
     0
 49
-0.635
 74
     0
  0
LTYPE
  5
5F
330
5
100
AcDbSymbolTableRecord
100
AcDbLinetypeTableRecord
  2
PHANTOM
 70
     0
  3
Phantom ______  __  __  ______  __  __  ______
 72
    65
 73
     6
 40
12.7
 49
6.35
 74
     0
 49
-1.27
 74
     0
 49
1.27
 74
     0
 49
-1.27
 74
     0
 49
1.27
 74
     0
 49
-1.27
 74
     0
  0
LTYPE
  5
60
330
5
100
AcDbSymbolTableRecord
100
AcDbLinetypeTableRecord
  2
CENTER
 70
     0
  3
Center ____ _ ____ _ ____ _ ____ _ ____ _ ____
 72
    65
 73
     4
 40
10.16
 49
6.35
 74
     0
 49
-1.27
 74
     0
 49
1.27
 74
     0
 49
-1.27
 74
     0
  0
LTYPE
  5
61
330
5
100
AcDbSymbolTableRecord
100
AcDbLinetypeTableRecord
  2
CENTERX2
 70
     0
  3
Center (2x) ________  __  ________  __  _____
 72
    65
 73
     4
 40
20.32
 49
12.7
 74
     0
 49
-2.54
 74
     0
 49
2.54
 74
     0
 49
-2.54
 74
     0
  0
LTYPE
  5
62
330
5
100
AcDbSymbolTableRecord
100
AcDbLinetypeTableRecord
  2
DOT2
 70
     0
  3
Dot (.5x) ........................................
 72
    65
 73
     2
 40
0.635
 49
0.0
 74
     0
 49
-0.635
 74
     0
  0
ENDTAB
  0
TABLE
  2
LAYER
  5
2
330
0
100
AcDbSymbolTable
 70
     2
  0
LAYER
  5
10
330
2
100
AcDbSymbolTableRecord
100
AcDbLayerTableRecord
  2
0
 70
     0
 62
     7
  6
CONTINUOUS
  0
LAYER
  5
63
330
2
100
AcDbSymbolTableRecord
100
AcDbLayerTableRecord
  2
SLD-0
 70
     0
 62
   179
  6
CONTINUOUS
  0
ENDTAB
  0
TABLE
  2
STYLE
  5
3
330
0
100
AcDbSymbolTable
 70
     3
  0
STYLE
  5
11
330
3
100
AcDbSymbolTableRecord
100
AcDbTextStyleTableRecord
  2
STANDARD
 70
     0
 40
0.0
 41
1.0
 50
0.0
 71
     0
 42
3.5
  3
txt
  4
bigfont
  0
STYLE
  5
43F
330
3
100
AcDbSymbolTableRecord
100
AcDbTextStyleTableRecord
  2
SLDTEXTSTYLE0
 70
     0
 40
0.0
 41
0.8865277778
 50
0.0
 71
     0
 42
3.5
  3
TXT
  4
bigfont
  0
STYLE
  5
441
330
3
100
AcDbSymbolTableRecord
100
AcDbTextStyleTableRecord
  2
SLDTEXTSTYLE1
 70
     0
 40
0.0
 41
0.7
 50
0.0
 71
     0
 42
3.5
  3
TXT
  4
bigfont
  0
ENDTAB
  0
TABLE
  2
VIEW
  5
6
330
0
100
AcDbSymbolTable
 70
     0
  0
ENDTAB
  0
TABLE
  2
UCS
  5
7
330
0
100
AcDbSymbolTable
 70
     0
  0
ENDTAB
  0
TABLE
  2
APPID
  5
9
330
0
100
AcDbSymbolTable
 70
     1
  0
APPID
  5
12
330
9
100
AcDbSymbolTableRecord
100
AcDbRegAppTableRecord
  2
ACAD
 70
     0
  0
ENDTAB
  0
TABLE
  2
DIMSTYLE
  5
A
330
0
100
AcDbSymbolTable
 70
     1
  0
DIMSTYLE
105
27
330
A
100
AcDbSymbolTableRecord
100
AcDbDimStyleTableRecord
  2
ISO-25
 70
     0
  3

  4

  5

  6

  7

 40
1.0
 41
2.5
 42
0.625
 43
3.75
 44
1.25
 45
0.0
 46
0.0
 47
0.0
 48
0.0
140
2.5
141
2.5
142
0.0
143
0.0393700787
144
1.0
145
0.0
146
1.0
147
0.625
 71
     0
 72
     0
 73
     0
 74
     0
 75
     0
 76
     0
 77
     1
 78
     8
170
     0
171
     3
172
     1
173
     0
174
     0
175
     0
176
     0
177
     0
178
     0
270
     2
271
     2
272
     2
273
     2
274
     3
340
11
275
     0
280
     0
281
     0
282
     0
283
     0
284
     8
285
     0
286
     0
287
     3
288
     0
  0
ENDTAB
  0
TABLE
  2
BLOCK_RECORD
  5
1
330
0
100
AcDbSymbolTable
 70
     0
  0
BLOCK_RECORD
  5
1F
330
1
100
AcDbSymbolTableRecord
100
AcDbBlockTableRecord
  2
*MODEL_SPACE
  0
BLOCK_RECORD
  5
1B
330
1
100
AcDbSymbolTableRecord
100
AcDbBlockTableRecord
  2
*PAPER_SPACE
  0
ENDTAB
  0
ENDSEC
  0
SECTION
  2
BLOCKS
  0
BLOCK
  5
20
330
1F
100
AcDbEntity
  8
0
100
AcDbBlockBegin
  2
*MODEL_SPACE
 70
     0
 10
0.0
 20
0.0
 30
0.0
  3
*MODEL_SPACE
  1

  0
ENDBLK
  5
21
330
1F
100
AcDbEntity
  8
0
100
AcDbBlockEnd
  0
BLOCK
  5
1C
330
1B
100
AcDbEntity
 67
     1
  8
0
100
AcDbBlockBegin
  2
*PAPER_SPACE
 70
     0
 10
0.0
 20
0.0
 30
0.0
  3
*PAPER_SPACE
  1

  0
ENDBLK
  5
1D
330
1B
100
AcDbEntity
 67
     1
  8
0
100
AcDbBlockEnd
  0
ENDSEC
  0
SECTION
  2
ENTITIES
  0
VIEWPORT
  5
64
330
1B
100
AcDbEntity
 67
     1
  8
0
100
AcDbViewport
 10
594.5
 20
420.5
 30
0.0
 40
1257.962
 41
889.778
 68
     1
 69
     1
1001
ACAD
1000
MVIEW
1002
{
1070
    16
1010
0.0
1020
0.0
1030
0.0
1010
0.0
1020
0.0
1030
1.0
1040
0.0
1040
889.778
1040
594.5
1040
420.5
1040
50.0
1040
0.0
1040
0.0
1070
     0
1070
   100
1070
     0
1070
     3
1070
     0
1070
     0
1070
     0
1070
     0
1040
0.0
1040
0.0
1040
0.0
1040
10.0
1040
10.0
1040
10.0
1040
10.0
1070
     0
1002
{
1002
}
1002
}
  0
LINE
  5
66
330
1B
100
AcDbEntity
 67
     1
  8
SLD-0
  6
CONTINUOUS
 62
     7
100
AcDbLine
 10
282.574566011
 20
231.9213318027
 30
0.0
 11
282.574566011
 21
373.9213290027
 31
0.0
  0
LINE
  5
67
330
1B
100
AcDbEntity
 67
     1
  8
SLD-0
  6
CONTINUOUS
 62
     7
100
AcDbLine
 10
281.574564696
 20
374.9213363977
 30
0.0
 11
139.574563446
 21
374.9213346977
 31
0.0
  0
LINE
  5
68
330
1B
100
AcDbEntity
 67
     1
  8
SLD-0
  6
CONTINUOUS
 62
     7
100
AcDbLine
 10
139.574565776
 20
230.9213307877
 30
0.0
 11
281.574567026
 21
230.9213337377
 31
0.0
  0
LINE
  5
69
330
1B
100
AcDbEntity
 67
     1
  8
SLD-0
  6
CONTINUOUS
 62
     7
100
AcDbLine
 10
138.574563906
 20
373.9213301877
 30
0.0
 11
138.574563906
 21
231.9213329877
 31
0.0
  0
LINE
  5
6A
330
1B
100
AcDbEntity
 67
     1
  8
SLD-0
  6
CONTINUOUS
 62
     7
100
AcDbLine
 10
154.324566026
 20
270.7713331177
 30
0.0
 11
267.624565406
 21
270.7713331177
 31
0.0
  0
LINE
  5
6B
330
1B
100
AcDbEntity
 67
     1
  8
SLD-0
  6
CONTINUOUS
 62
     7
100
AcDbLine
 10
267.624565406
 20
270.7713331177
 30
0.0
 11
267.624565406
 21
356.2713331577
 31
0.0
  0
LINE
  5
6C
330
1B
100
AcDbEntity
 67
     1
  8
SLD-0
  6
CONTINUOUS
 62
     7
100
AcDbLine
 10
267.624565406
 20
356.2713331577
 30
0.0
 11
154.324566026
 21
356.2713331577
 31
0.0
  0
LINE
  5
6D
330
1B
100
AcDbEntity
 67
     1
  8
SLD-0
  6
CONTINUOUS
 62
     7
100
AcDbLine
 10
154.324566026
 20
356.2713331577
 30
0.0
 11
154.324566026
 21
270.7713331177
 31
0.0
  0
LINE
  5
6E
330
1B
100
AcDbEntity
 67
     1
  8
SLD-0
  6
CONTINUOUS
 62
     7
100
AcDbLine
 10
159.900748176
 20
256.2203100877
 30
0.0
 11
159.900748176
 21
252.9203101077
 31
0.0
  0
LINE
  5
6F
330
1B
100
AcDbEntity
 67
     1
  8
SLD-0
  6
CONTINUOUS
 62
     7
100
AcDbLine
 10
174.774566381
 20
256.6941267527
 30
0.0
 11
160.374566381
 21
256.6941267527
 31
0.0
  0
LINE
  5
70
330
1B
100
AcDbEntity
 67
     1
  8
SLD-0
  6
CONTINUOUS
 62
     7
100
AcDbLine
 10
175.248384611
 20
252.9203109127
 30
0.0
 11
175.248383781
 21
256.2203093527
 31
0.0
  0
LINE
  5
71
330
1B
100
AcDbEntity
 67
     1
  8
SLD-0
  6
CONTINUOUS
 62
     7
100
AcDbLine
 10
245.900751096
 20
256.2203100877
 30
0.0
 11
245.900751096
 21
252.9203101077
 31
0.0
  0
LINE
  5
72
330
1B
100
AcDbEntity
 67
     1
  8
SLD-0
  6
CONTINUOUS
 62
     7
100
AcDbLine
 10
261.248385251
 20
252.9203094427
 30
0.0
 11
261.248385251
 21
256.2203094227
 31
0.0
  0
LINE
  5
73
330
1B
100
AcDbEntity
 67
     1
  8
SLD-0
  6
CONTINUOUS
 62
     7
100
AcDbLine
 10
260.774567841
 20
256.6941252927
 30
0.0
 11
246.374567841
 21
256.6941252927
 31
0.0
  0
LINE
  5
74
330
1B
100
AcDbEntity
 67
     1
  8
SLD-0
  6
CONTINUOUS
 62
     7
100
AcDbLine
 10
274.274565806
 20
233.2403092677
 30
0.0
 11
146.874570296
 21
233.2403092677
 31
0.0
  0
LINE
  5
75
330
1B
100
AcDbEntity
 67
     1
  8
SLD-0
  6
CONTINUOUS
 62
     7
100
AcDbLine
 10
146.874570296
 20
234.7403048577
 30
0.0
 11
146.874570296
 21
233.2403092677
 31
0.0
  0
LINE
  5
76
330
1B
100
AcDbEntity
 67
     1
  8
SLD-0
  6
CONTINUOUS
 62
     7
100
AcDbLine
 10
274.274565806
 20
233.2403092677
 30
0.0
 11
274.274565806
 21
234.7403044477
 31
0.0
  0
LINE
  5
77
330
1B
100
AcDbEntity
 67
     1
  8
SLD-0
  6
CONTINUOUS
 62
     7
100
AcDbLine
 10
156.874568206
 20
249.9203077577
 30
0.0
 11
156.874568206
 21
235.2403058677
 31
0.0
  0
LINE
  5
78
330
1B
100
AcDbEntity
 67
     1
  8
SLD-0
  6
CONTINUOUS
 62
     7
100
AcDbLine
 10
262.974568646
 20
251.4203070677
 30
0.0
 11
244.174567056
 21
251.4203070677
 31
0.0
  0
LINE
  5
79
330
1B
100
AcDbEntity
 67
     1
  8
SLD-0
  6
CONTINUOUS
 62
     7
100
AcDbLine
 10
264.2745683091
 20
249.9203077577
 30
0.0
 11
156.874568206
 21
249.9203077577
 31
0.0
  0
LINE
  5
7A
330
1B
100
AcDbEntity
 67
     1
  8
SLD-0
  6
CONTINUOUS
 62
     7
100
AcDbLine
 10
273.274564196
 20
254.3203077277
 30
0.0
 11
262.974568646
 21
254.3203077277
 31
0.0
  0
LINE
  5
7B
330
1B
100
AcDbEntity
 67
     1
  8
SLD-0
  6
CONTINUOUS
 62
     7
100
AcDbLine
 10
264.2745671891
 20
244.1487356677
 30
0.0
 11
264.2745683091
 21
249.9203077577
 31
0.0
  0
LINE
  5
7C
330
1B
100
AcDbEntity
 67
     1
  8
SLD-0
  6
CONTINUOUS
 62
     7
100
AcDbLine
 10
244.174567056
 20
254.3203077277
 30
0.0
 11
176.974565726
 21
254.3203077277
 31
0.0
  0
LINE
  5
7D
330
1B
100
AcDbEntity
 67
     1
  8
SLD-0
  6
CONTINUOUS
 62
     7
100
AcDbLine
 10
158.174567866
 20
254.3203077277
 30
0.0
 11
147.874567186
 21
254.3203085477
 31
0.0
  0
LINE
  5
7E
330
1B
100
AcDbEntity
 67
     1
  8
SLD-0
  6
CONTINUOUS
 62
     7
100
AcDbLine
 10
156.874568206
 20
235.2403058677
 30
0.0
 11
264.274568306
 21
235.2403058677
 31
0.0
  0
LINE
  5
7F
330
1B
100
AcDbEntity
 67
     1
  8
SLD-0
  6
CONTINUOUS
 62
     7
100
AcDbLine
 10
244.174567056
 20
251.4203070677
 30
0.0
 11
244.174567056
 21
254.3203077277
 31
0.0
  0
LINE
  5
80
330
1B
100
AcDbEntity
 67
     1
  8
SLD-0
  6
CONTINUOUS
 62
     7
100
AcDbLine
 10
262.974568646
 20
254.3203077277
 30
0.0
 11
262.974568646
 21
251.4203070677
 31
0.0
  0
LINE
  5
81
330
1B
100
AcDbEntity
 67
     1
  8
SLD-0
  6
CONTINUOUS
 62
     7
100
AcDbLine
 10
146.874567186
 20
253.3203085477
 30
0.0
 11
146.874570296
 21
234.7403048577
 31
0.0
  0
LINE
  5
82
330
1B
100
AcDbEntity
 67
     1
  8
SLD-0
  6
CONTINUOUS
 62
     7
100
AcDbLine
 10
158.174567866
 20
251.4203070677
 30
0.0
 11
176.974565726
 21
251.4203070677
 31
0.0
  0
LINE
  5
83
330
1B
100
AcDbEntity
 67
     1
  8
SLD-0
  6
CONTINUOUS
 62
     7
100
AcDbLine
 10
176.974565726
 20
251.4203070677
 30
0.0
 11
176.974565726
 21
254.3203077277
 31
0.0
  0
LINE
  5
84
330
1B
100
AcDbEntity
 67
     1
  8
SLD-0
  6
CONTINUOUS
 62
     7
100
AcDbLine
 10
158.174567866
 20
254.3203077277
 30
0.0
 11
158.174567866
 21
251.4203070677
 31
0.0
  0
LINE
  5
85
330
1B
100
AcDbEntity
 67
     1
  8
SLD-0
  6
CONTINUOUS
 62
     7
100
AcDbLine
 10
264.274568306
 20
235.2403058677
 30
0.0
 11
264.274567186
 21
238.4918814177
 31
0.0
  0
LINE
  5
86
330
1B
100
AcDbEntity
 67
     1
  8
SLD-0
  6
CONTINUOUS
 62
     7
100
AcDbLine
 10
274.274565806
 20
234.7403044477
 30
0.0
 11
274.274566776
 21
253.3203081377
 31
0.0
  0
LINE
  5
87
330
1B
100
AcDbEntity
 67
     1
  8
SLD-0
  6
CONTINUOUS
 62
     7
100
AcDbLine
 10
275.774569256
 20
231.7403062277
 30
0.0
 11
145.374567256
 21
231.7403062277
 31
0.0
  0
LINE
  5
88
330
1B
100
AcDbEntity
 67
     1
  8
SLD-0
  6
CONTINUOUS
 62
     7
100
AcDbLine
 10
145.374567256
 20
234.7403048577
 30
0.0
 11
145.374567256
 21
231.7403062277
 31
0.0
  0
LINE
  5
89
330
1B
100
AcDbEntity
 67
     1
  8
SLD-0
  6
CONTINUOUS
 62
     7
100
AcDbLine
 10
275.774569256
 20
255.8203070477
 30
0.0
 11
275.774569256
 21
231.7403062277
 31
0.0
  0
LINE
  5
8A
330
1B
100
AcDbEntity
 67
     1
  8
SLD-0
  6
CONTINUOUS
 62
     7
100
AcDbLine
 10
245.674566376
 20
252.9203101077
 30
0.0
 11
261.474565606
 21
252.9203101077
 31
0.0
  0
LINE
  5
8B
330
1B
100
AcDbEntity
 67
     1
  8
SLD-0
  6
CONTINUOUS
 62
     7
100
AcDbLine
 10
261.474565606
 20
252.9203101077
 30
0.0
 11
261.474565606
 21
255.8203070477
 31
0.0
  0
LINE
  5
8C
330
1B
100
AcDbEntity
 67
     1
  8
SLD-0
  6
CONTINUOUS
 62
     7
100
AcDbLine
 10
145.374567256
 20
255.8203070477
 30
0.0
 11
145.374567256
 21
234.7403048577
 31
0.0
  0
LINE
  5
8D
330
1B
100
AcDbEntity
 67
     1
  8
SLD-0
  6
CONTINUOUS
 62
     7
100
AcDbLine
 10
159.674567176
 20
255.8203070477
 30
0.0
 11
145.374567256
 21
255.8203070477
 31
0.0
  0
LINE
  5
8E
330
1B
100
AcDbEntity
 67
     1
  8
SLD-0
  6
CONTINUOUS
 62
     7
100
AcDbLine
 10
245.674566376
 20
255.8203070477
 30
0.0
 11
175.474566416
 21
255.8203070477
 31
0.0
  0
LINE
  5
8F
330
1B
100
AcDbEntity
 67
     1
  8
SLD-0
  6
CONTINUOUS
 62
     7
100
AcDbLine
 10
175.474566416
 20
255.8203070477
 30
0.0
 11
175.474566416
 21
252.9203101077
 31
0.0
  0
LINE
  5
90
330
1B
100
AcDbEntity
 67
     1
  8
SLD-0
  6
CONTINUOUS
 62
     7
100
AcDbLine
 10
275.774569256
 20
255.8203070477
 30
0.0
 11
261.474565606
 21
255.8203070477
 31
0.0
  0
LINE
  5
91
330
1B
100
AcDbEntity
 67
     1
  8
SLD-0
  6
CONTINUOUS
 62
     7
100
AcDbLine
 10
159.674567176
 20
252.9203101077
 30
0.0
 11
159.674567176
 21
255.8203070477
 31
0.0
  0
LINE
  5
92
330
1B
100
AcDbEntity
 67
     1
  8
SLD-0
  6
CONTINUOUS
 62
     7
100
AcDbLine
 10
245.674566376
 20
255.8203070477
 30
0.0
 11
245.674566376
 21
252.9203101077
 31
0.0
  0
LINE
  5
93
330
1B
100
AcDbEntity
 67
     1
  8
SLD-0
  6
CONTINUOUS
 62
     7
100
AcDbLine
 10
175.474566416
 20
252.9203101077
 30
0.0
 11
159.674567176
 21
252.9203101077
 31
0.0
  0
LINE
  5
94
330
1B
100
AcDbEntity
 67
     1
  8
SLD-0
  6
CONTINUOUS
 62
     7
100
AcDbLine
 10
159.674567176
 20
255.9203087377
 30
0.0
 11
159.674567176
 21
255.8203070477
 31
0.0
  0
LINE
  5
95
330
1B
100
AcDbEntity
 67
     1
  8
SLD-0
  6
CONTINUOUS
 62
     7
100
AcDbLine
 10
159.674567176
 20
255.9203087377
 30
0.0
 11
159.875282096
 21
255.9203087377
 31
0.0
  0
LINE
  5
96
330
1B
100
AcDbEntity
 67
     1
  8
SLD-0
  6
CONTINUOUS
 62
     7
100
AcDbLine
 10
261.474565606
 20
255.9203087377
 30
0.0
 11
261.273850696
 21
255.9203087377
 31
0.0
  0
LINE
  5
97
330
1B
100
AcDbEntity
 67
     1
  8
SLD-0
  6
CONTINUOUS
 62
     7
100
AcDbLine
 10
261.474565606
 20
255.9203087377
 30
0.0
 11
261.474565606
 21
255.8203070477
 31
0.0
  0
LINE
  5
98
330
1B
100
AcDbEntity
 67
     1
  8
SLD-0
  6
CONTINUOUS
 62
     7
100
AcDbLine
 10
175.474566416
 20
255.9203087377
 30
0.0
 11
175.474566416
 21
255.8203070477
 31
0.0
  0
LINE
  5
99
330
1B
100
AcDbEntity
 67
     1
  8
SLD-0
  6
CONTINUOUS
 62
     7
100
AcDbLine
 10
175.273851496
 20
255.9203087377
 30
0.0
 11
175.474566416
 21
255.9203087377
 31
0.0
  0
LINE
  5
9A
330
1B
100
AcDbEntity
 67
     1
  8
SLD-0
  6
CONTINUOUS
 62
     7
100
AcDbLine
 10
245.674566376
 20
255.9203087377
 30
0.0
 11
245.674566376
 21
255.8203070477
 31
0.0
  0
LINE
  5
9B
330
1B
100
AcDbEntity
 67
     1
  8
SLD-0
  6
CONTINUOUS
 62
     7
100
AcDbLine
 10
245.875285016
 20
255.9203087377
 30
0.0
 11
245.674566376
 21
255.9203087377
 31
0.0
  0
LINE
  5
9C
330
1B
100
AcDbEntity
 67
     1
  8
SLD-0
  6
CONTINUOUS
 62
     7
100
AcDbLine
 10
141.374566596
 20
370.6213339277
 30
0.0
 11
141.374566596
 21
261.1213355377
 31
0.0
  0
LINE
  5
9D
330
1B
100
AcDbEntity
 67
     1
  8
SLD-0
  6
CONTINUOUS
 62
     7
100
AcDbLine
 10
142.874570046
 20
259.6213329077
 30
0.0
 11
278.274567286
 21
259.6213329077
 31
0.0
  0
LINE
  5
9E
330
1B
100
AcDbEntity
 67
     1
  8
SLD-0
  6
CONTINUOUS
 62
     7
100
AcDbLine
 10
245.674566376
 20
259.0213335177
 30
0.0
 11
261.474565606
 21
259.0213335177
 31
0.0
  0
LINE
  5
9F
330
1B
100
AcDbEntity
 67
     1
  8
SLD-0
  6
CONTINUOUS
 62
     7
100
AcDbLine
 10
245.674566376
 20
256.1213328577
 30
0.0
 11
245.674566376
 21
259.0213335177
 31
0.0
  0
LINE
  5
A0
330
1B
100
AcDbEntity
 67
     1
  8
SLD-0
  6
CONTINUOUS
 62
     7
100
AcDbLine
 10
245.674566376
 20
256.1213328577
 30
0.0
 11
175.474566416
 21
256.1213328577
 31
0.0
  0
LINE
  5
A1
330
1B
100
AcDbEntity
 67
     1
  8
SLD-0
  6
CONTINUOUS
 62
     7
100
AcDbLine
 10
159.674567176
 20
259.0213335177
 30
0.0
 11
159.674567176
 21
256.1213328577
 31
0.0
  0
LINE
  5
A2
330
1B
100
AcDbEntity
 67
     1
  8
SLD-0
  6
CONTINUOUS
 62
     7
100
AcDbLine
 10
175.474566416
 20
259.0213335177
 30
0.0
 11
159.674567176
 21
259.0213335177
 31
0.0
  0
LINE
  5
A3
330
1B
100
AcDbEntity
 67
     1
  8
SLD-0
  6
CONTINUOUS
 62
     7
100
AcDbLine
 10
175.474566416
 20
256.1213328577
 30
0.0
 11
175.474566416
 21
259.0213335177
 31
0.0
  0
LINE
  5
A4
330
1B
100
AcDbEntity
 67
     1
  8
SLD-0
  6
CONTINUOUS
 62
     7
100
AcDbLine
 10
278.274566581
 20
372.1213372627
 30
0.0
 11
142.874566891
 21
372.1213342027
 31
0.0
  0
LINE
  5
A5
330
1B
100
AcDbEntity
 67
     1
  8
SLD-0
  6
CONTINUOUS
 62
     7
100
AcDbLine
 10
279.774568301
 20
261.1213336127
 30
0.0
 11
279.774571031
 21
370.6213336327
 31
0.0
  0
LINE
  5
A6
330
1B
100
AcDbEntity
 67
     1
  8
SLD-0
  6
CONTINUOUS
 62
     7
100
AcDbLine
 10
261.474565606
 20
259.0213335177
 30
0.0
 11
261.474565606
 21
256.1213328577
 31
0.0
  0
LINE
  5
A7
330
1B
100
AcDbEntity
 67
     1
  8
SLD-0
  6
CONTINUOUS
 62
     7
100
AcDbLine
 10
261.474565606
 20
256.1213328577
 30
0.0
 11
261.273791086
 21
256.1213328577
 31
0.0
  0
LINE
  5
A8
330
1B
100
AcDbEntity
 67
     1
  8
SLD-0
  6
CONTINUOUS
 62
     7
100
AcDbLine
 10
245.875344616
 20
256.1213328577
 30
0.0
 11
245.674566376
 21
256.1213328577
 31
0.0
  0
LINE
  5
A9
330
1B
100
AcDbEntity
 67
     1
  8
SLD-0
  6
CONTINUOUS
 62
     7
100
AcDbLine
 10
175.474566416
 20
256.1213328577
 30
0.0
 11
175.273788166
 21
256.1213328577
 31
0.0
  0
LINE
  5
AA
330
1B
100
AcDbEntity
 67
     1
  8
SLD-0
  6
CONTINUOUS
 62
     7
100
AcDbLine
 10
159.875345426
 20
256.1213328577
 30
0.0
 11
159.674567176
 21
256.1213328577
 31
0.0
  0
LINE
  5
AB
330
1B
100
AcDbEntity
 67
     1
  8
SLD-0
  6
CONTINUOUS
 62
     7
100
AcDbLine
 10
138.574563906
 20
446.9157465777
 30
0.0
 11
138.574563906
 21
450.0157492677
 31
0.0
  0
LINE
  5
AC
330
1B
100
AcDbEntity
 67
     1
  8
SLD-0
  6
CONTINUOUS
 62
     7
100
AcDbLine
 10
139.574565936
 20
450.0157492677
 30
0.0
 11
138.574563906
 21
450.0157492677
 31
0.0
  0
LINE
  5
AD
330
1B
100
AcDbEntity
 67
     1
  8
SLD-0
  6
CONTINUOUS
 62
     7
100
AcDbLine
 10
282.5745656752
 20
446.9157479119
 30
0.0
 11
282.5745656752
 21
450.0157492677
 31
0.0
  0
LINE
  5
AE
330
1B
100
AcDbEntity
 67
     1
  8
SLD-0
  6
CONTINUOUS
 62
     7
100
AcDbLine
 10
282.5745656752
 20
450.0157492677
 30
0.0
 11
281.574570586
 21
450.0157492677
 31
0.0
  0
LINE
  5
AF
330
1B
100
AcDbEntity
 67
     1
  8
SLD-0
  6
CONTINUOUS
 62
     7
100
AcDbLine
 10
282.5745656752
 20
446.9157479119
 30
0.0
 11
139.5745664552
 21
446.9157479119
 31
0.0
  0
LINE
  5
B0
330
1B
100
AcDbEntity
 67
     1
  8
SLD-0
  6
CONTINUOUS
 62
     7
100
AcDbLine
 10
281.574570586
 20
450.0157492677
 30
0.0
 11
139.574565936
 21
450.0157492677
 31
0.0
  0
LINE
  5
B1
330
1B
100
AcDbEntity
 67
     1
  8
SLD-0
  6
CONTINUOUS
 62
     7
100
AcDbLine
 10
282.5745656752
 20
446.9157479119
 30
0.0
 11
281.7032128252
 21
421.9633995919
 31
0.0
  0
LINE
  5
B2
330
1B
100
AcDbEntity
 67
     1
  8
SLD-0
  6
CONTINUOUS
 62
     7
100
AcDbLine
 10
139.445924206
 20
421.9633982577
 30
0.0
 11
138.574563906
 21
446.9157465777
 31
0.0
  0
LINE
  5
B3
330
1B
100
AcDbEntity
 67
     1
  8
SLD-0
  6
CONTINUOUS
 62
     7
100
AcDbLine
 10
138.574563906
 20
446.9157465777
 30
0.0
 11
139.573954986
 21
446.9157465777
 31
0.0
  0
LINE
  5
B4
330
1B
100
AcDbEntity
 67
     1
  8
SLD-0
  6
CONTINUOUS
 62
     7
100
AcDbLine
 10
280.2041263877
 20
420.5157474094
 30
0.0
 11
140.9450114977
 21
420.5157474094
 31
0.0
  0
LINE
  5
B5
330
1B
100
AcDbEntity
 67
     1
  8
SLD-0
  6
CONTINUOUS
 62
     7
100
AcDbLine
 10
870.074569421
 20
580.3157495077
 30
0.0
 11
835.574568261
 21
580.3157495077
 31
0.0
  0
LINE
  5
B6
330
1B
100
AcDbEntity
 67
     1
  8
SLD-0
  6
CONTINUOUS
 62
     7
100
AcDbLine
 10
1071.1174505284
 20
273.5484005215
 30
0.0
 11
1071.1174475884
 21
275.5713292515
 31
0.0
  0
LINE
  5
B7
330
1B
100
AcDbEntity
 67
     1
  8
SLD-0
  6
CONTINUOUS
 62
     7
100
AcDbLine
 10
1069.0174447884
 20
266.8213309015
 30
0.0
 11
1057.8174489084
 21
266.8213309015
 31
0.0
  0
LINE
  5
B8
330
1B
100
AcDbEntity
 67
     1
  8
SLD-0
  6
CONTINUOUS
 62
     7
100
AcDbLine
 10
235.074568261
 20
553.5157474077
 30
0.0
 11
235.074568261
 21
559.8157495077
 31
0.0
  0
LINE
  5
B9
330
1B
100
AcDbEntity
 67
     1
  8
SLD-0
  6
CONTINUOUS
 62
     7
100
AcDbLine
 10
270.574569421
 20
553.5157474077
 30
0.0
 11
270.574569421
 21
559.8157495077
 31
0.0
  0
LINE
  5
BA
330
1B
100
AcDbEntity
 67
     1
  8
SLD-0
  6
CONTINUOUS
 62
     7
100
AcDbLine
 10
1068.577374826
 20
257.0732271527
 30
0.0
 11
1068.593144236
 21
265.5213287627
 31
0.0
  0
LINE
  5
BB
330
1B
100
AcDbEntity
 67
     1
  8
SLD-0
  6
CONTINUOUS
 62
     7
100
AcDbLine
 10
1054.817445216
 20
265.5213263827
 30
0.0
 11
1054.817445216
 21
258.1713286227
 31
0.0
  0
LINE
  5
BC
330
1B
100
AcDbEntity
 67
     1
  8
SLD-0
  6
CONTINUOUS
 62
     7
100
AcDbLine
 10
835.074568261
 20
573.5157474077
 30
0.0
 11
835.074568261
 21
579.8157495077
 31
0.0
  0
LINE
  5
BD
330
1B
100
AcDbEntity
 67
     1
  8
SLD-0
  6
CONTINUOUS
 62
     7
100
AcDbLine
 10
1070.6174475884
 20
276.0713292515
 30
0.0
 11
1057.8174489084
 21
276.0713310215
 31
0.0
  0
LINE
  5
BE
330
1B
100
AcDbEntity
 67
     1
  8
SLD-0
 62
     7
100
AcDbLine
 10
878.824568736
 20
573.5157474077
 30
0.0
 11
742.324567776
 21
573.5157474077
 31
0.0
  0
LINE
  5
BF
330
1B
100
AcDbEntity
 67
     1
  8
SLD-0
  6
CONTINUOUS
 62
     7
100
AcDbLine
 10
142.324567776
 20
450.0157492677
 30
0.0
 11
142.324567776
 21
553.5157474077
 31
0.0
  0
LINE
  5
C0
330
1B
100
AcDbEntity
 67
     1
  8
SLD-0
  6
CONTINUOUS
 62
     7
100
AcDbLine
 10
278.824568736
 20
553.5157474077
 30
0.0
 11
278.824568736
 21
450.0157492677
 31
0.0
  0
LINE
  5
C1
330
1B
100
AcDbEntity
 67
     1
  8
SLD-0
  6
CONTINUOUS
 62
     7
100
AcDbLine
 10
1044.4566727584
 20
276.0713310215
 30
0.0
 11
1057.8174489084
 21
276.0713310215
 31
0.0
  0
LINE
  5
C2
330
1B
100
AcDbEntity
 67
     1
  8
SLD-0
  6
CONTINUOUS
 62
     7
100
AcDbLine
 10
362.8566731885
 20
230.9213303953
 30
0.0
 11
365.9566758885
 21
230.9213303953
 31
0.0
  0
LINE
  5
C3
330
1B
100
AcDbEntity
 67
     1
  8
SLD-0
  6
CONTINUOUS
 62
     7
100
AcDbLine
 10
362.8566731885
 20
374.9213316453
 30
0.0
 11
365.9566758885
 21
374.9213316453
 31
0.0
  0
LINE
  5
C4
330
1B
100
AcDbEntity
 67
     1
  8
SLD-0
  6
CONTINUOUS
 62
     7
100
AcDbLine
 10
362.8566731885
 20
230.9213303953
 30
0.0
 11
362.8566731885
 21
374.9213316453
 31
0.0
  0
LINE
  5
C5
330
1B
100
AcDbEntity
 67
     1
  8
SLD-0
  6
CONTINUOUS
 62
     7
100
AcDbLine
 10
365.9566758885
 20
230.9213303953
 30
0.0
 11
365.9566758885
 21
374.9213316453
 31
0.0
  0
LINE
  5
C6
330
1B
100
AcDbEntity
 67
     1
  8
SLD-0
  6
CONTINUOUS
 62
     7
100
AcDbLine
 10
337.9043248685
 20
374.0499787953
 30
0.0
 11
362.8566731885
 21
374.9213316453
 31
0.0
  0
LINE
  5
C7
330
1B
100
AcDbEntity
 67
     1
  8
SLD-0
  6
CONTINUOUS
 62
     7
100
AcDbLine
 10
362.8566731885
 20
230.9213303953
 30
0.0
 11
339.3519726785
 21
231.7421385053
 31
0.0
  0
LINE
  5
C8
330
1B
100
AcDbEntity
 67
     1
  8
SLD-0
  6
CONTINUOUS
 62
     7
100
AcDbLine
 10
336.456672756
 20
234.7403085477
 30
0.0
 11
336.456672756
 21
372.5508927377
 31
0.0
  0
LINE
  5
C9
330
1B
100
AcDbEntity
 67
     1
  8
SLD-0
  6
CONTINUOUS
 62
     7
100
AcDbLine
 10
870.574569421
 20
573.5157474077
 30
0.0
 11
870.574569421
 21
579.8157495077
 31
0.0
  0
LINE
  5
CA
330
1B
100
AcDbEntity
 67
     1
  8
SLD-0
  6
CONTINUOUS
 62
     7
100
AcDbLine
 10
1069.017447176
 20
265.5213263827
 30
0.0
 11
1069.017447176
 21
271.3713285527
 31
0.0
  0
LINE
  5
CB
330
1B
100
AcDbEntity
 67
     1
  8
SLD-0
 62
     7
100
AcDbLine
 10
278.824568736
 20
553.5157474077
 30
0.0
 11
142.324567776
 21
553.5157474077
 31
0.0
  0
LINE
  5
CC
330
1B
100
AcDbEntity
 67
     1
  8
SLD-0
  6
CONTINUOUS
 62
     7
100
AcDbLine
 10
1069.197989646
 20
271.5174828727
 30
0.0
 11
1069.286189616
 21
271.5888855127
 31
0.0
  0
LINE
  5
CD
330
1B
100
AcDbEntity
 67
     1
  8
SLD-0
  6
CONTINUOUS
 62
     7
100
AcDbLine
 10
470.692390016
 20
257.0692783827
 30
0.0
 11
468.577374826
 21
257.0732271527
 31
0.0
  0
LINE
  5
CE
330
1B
100
AcDbEntity
 67
     1
  8
SLD-0
  6
CONTINUOUS
 62
     7
100
AcDbLine
 10
468.577374826
 20
257.0732271527
 30
0.0
 11
468.593144236
 21
265.5213287627
 31
0.0
  0
LINE
  5
CF
330
1B
100
AcDbEntity
 67
     1
  8
SLD-0
  6
CONTINUOUS
 62
     7
100
AcDbLine
 10
457.8174489084
 20
276.0713310215
 30
0.0
 11
457.8174489084
 21
266.8213309015
 31
0.0
  0
LINE
  5
D0
330
1B
100
AcDbEntity
 67
     1
  8
SLD-0
  6
CONTINUOUS
 62
     7
100
AcDbLine
 10
469.0174447884
 20
266.8213309015
 30
0.0
 11
457.8174489084
 21
266.8213309015
 31
0.0
  0
LINE
  5
D1
330
1B
100
AcDbEntity
 67
     1
  8
SLD-0
  6
CONTINUOUS
 62
     7
100
AcDbLine
 10
454.817445216
 20
265.5213263827
 30
0.0
 11
469.017447176
 21
265.5213263827
 31
0.0
  0
LINE
  5
D2
330
1B
100
AcDbEntity
 67
     1
  8
SLD-0
  6
CONTINUOUS
 62
     7
100
AcDbLine
 10
454.817445216
 20
265.5213263827
 30
0.0
 11
454.817445216
 21
258.1713286227
 31
0.0
  0
LINE
  5
D3
330
1B
100
AcDbEntity
 67
     1
  8
SLD-0
  6
CONTINUOUS
 62
     7
100
AcDbLine
 10
453.717447596
 20
257.0713304927
 30
0.0
 11
444.456672766
 21
257.0713310727
 31
0.0
  0
LINE
  5
D4
330
1B
100
AcDbEntity
 67
     1
  8
SLD-0
  6
CONTINUOUS
 62
     7
100
AcDbLine
 10
444.4566727584
 20
276.0713310215
 30
0.0
 11
457.8174489084
 21
276.0713310215
 31
0.0
  0
LINE
  5
D5
330
1B
100
AcDbEntity
 67
     1
  8
SLD-0
  6
CONTINUOUS
 62
     7
100
AcDbLine
 10
471.1174505284
 20
273.5484005215
 30
0.0
 11
471.1174475884
 21
275.5713292515
 31
0.0
  0
LINE
  5
D6
330
1B
100
AcDbEntity
 67
     1
  8
SLD-0
  6
CONTINUOUS
 62
     7
100
AcDbLine
 10
469.286189616
 20
271.5888855127
 30
0.0
 11
470.746648206
 21
272.7711552427
 31
0.0
  0
LINE
  5
D7
330
1B
100
AcDbEntity
 67
     1
  8
SLD-0
  6
CONTINUOUS
 62
     7
100
AcDbLine
 10
470.6174475884
 20
276.0713292515
 30
0.0
 11
457.8174489084
 21
276.0713310215
 31
0.0
  0
LINE
  5
D8
330
1B
100
AcDbEntity
 67
     1
  8
SLD-0
  6
CONTINUOUS
 62
     7
100
AcDbLine
 10
469.017447176
 20
265.5213263827
 30
0.0
 11
469.017447176
 21
271.3713285527
 31
0.0
  0
LINE
  5
D9
330
1B
100
AcDbEntity
 67
     1
  8
SLD-0
  6
CONTINUOUS
 62
     7
100
AcDbLine
 10
365.956675786
 20
371.2213366377
 30
0.0
 11
469.456672756
 21
371.2213366377
 31
0.0
  0
LINE
  5
DA
330
1B
100
AcDbEntity
 67
     1
  8
SLD-0
 62
     7
100
AcDbLine
 10
469.456672756
 20
371.2213366377
 30
0.0
 11
469.456672756
 21
277.9213310227
 31
0.0
  0
LINE
  5
DB
330
1B
100
AcDbEntity
 67
     1
  8
SLD-0
  6
CONTINUOUS
 62
     7
100
AcDbLine
 10
444.456672756
 20
234.7213323877
 30
0.0
 11
365.956672496
 21
234.7213323877
 31
0.0
  0
LINE
  5
DC
330
1B
100
AcDbEntity
 67
     1
  8
SLD-0
 62
     7
100
AcDbLine
 10
444.456672756
 20
277.9213310227
 30
0.0
 11
469.456672756
 21
277.9213310227
 31
0.0
  0
LINE
  5
DD
330
1B
100
AcDbEntity
 67
     1
  8
SLD-0
  6
CONTINUOUS
 62
     7
100
AcDbLine
 10
469.017447176
 20
271.3713285527
 30
0.0
 11
469.108388956
 21
271.4449477427
 31
0.0
  0
LINE
  5
DE
330
1B
100
AcDbEntity
 67
     1
  8
SLD-0
  6
CONTINUOUS
 62
     7
100
AcDbLine
 10
469.108388956
 20
271.4449477427
 30
0.0
 11
469.197989646
 21
271.5174828727
 31
0.0
  0
LINE
  5
DF
330
1B
100
AcDbEntity
 67
     1
  8
SLD-0
  6
CONTINUOUS
 62
     7
100
AcDbLine
 10
469.197989646
 20
271.5174828727
 30
0.0
 11
469.286189616
 21
271.5888855127
 31
0.0
  0
LINE
  5
E0
330
1B
100
AcDbEntity
 67
     1
  8
SLD-0
 62
     7
100
AcDbLine
 10
1044.456672756
 20
277.9213310227
 30
0.0
 11
1069.456672756
 21
277.9213310227
 31
0.0
  0
LINE
  5
E1
330
1B
100
AcDbEntity
 67
     1
  8
SLD-0
  6
CONTINUOUS
 62
     7
100
AcDbLine
 10
270.074569421
 20
560.3157495077
 30
0.0
 11
235.574568261
 21
560.3157495077
 31
0.0
  0
LINE
  5
E2
330
1B
100
AcDbEntity
 67
     1
  8
SLD-0
  6
PHANTOM
 62
     7
100
AcDbLine
 10
420.756664626
 20
305.0713306877
 30
0.0
 11
397.256669166
 21
305.0713306877
 31
0.0
  0
LINE
  5
E3
330
1B
100
AcDbEntity
 67
     1
  8
SLD-0
  6
PHANTOM
 62
     7
100
AcDbLine
 10
432.456668976
 20
313.9713309277
 30
0.0
 11
432.456668976
 21
317.4713305777
 31
0.0
  0
LINE
  5
E4
330
1B
100
AcDbEntity
 67
     1
  8
SLD-0
  6
PHANTOM
 62
     7
100
AcDbLine
 10
395.256665116
 20
333.8713306577
 30
0.0
 11
395.256665116
 21
326.3713303577
 31
0.0
  0
LINE
  5
E5
330
1B
100
AcDbEntity
 67
     1
  8
SLD-0
  6
PHANTOM
 62
     7
100
AcDbLine
 10
371.956669746
 20
339.4713323177
 30
0.0
 11
371.956669746
 21
299.4713306077
 31
0.0
  0
LINE
  5
E6
330
1B
100
AcDbEntity
 67
     1
  8
SLD-0
 62
     7
100
AcDbLine
 10
444.456672756
 20
277.9213310227
 30
0.0
 11
444.456672756
 21
234.7213323877
 31
0.0
  0
LINE
  5
E7
330
1B
100
AcDbEntity
 67
     1
  8
SLD-0
  6
CONTINUOUS
 62
     7
100
AcDbLine
 10
1069.286189616
 20
271.5888855127
 30
0.0
 11
1070.746648206
 21
272.7711552427
 31
0.0
  0
LINE
  5
E8
330
1B
100
AcDbEntity
 67
     1
  8
SLD-0
 62
     7
100
AcDbLine
 10
1069.456672756
 20
371.2213366377
 30
0.0
 11
1069.456672756
 21
277.9213310227
 31
0.0
  0
LINE
  5
E9
330
1B
100
AcDbEntity
 67
     1
  8
SLD-0
  6
CONTINUOUS
 62
     7
100
AcDbLine
 10
850.842184922
 20
499.273709689
 30
0.0
 11
770.315989452
 21
499.273709689
 31
0.0
  0
LINE
  5
EA
330
1B
100
AcDbEntity
 67
     1
  8
SLD-0
  6
CONTINUOUS
 62
     7
100
AcDbLine
 10
848.079084952
 20
500.604517499
 30
0.0
 11
773.079085692
 21
500.604517499
 31
0.0
  0
LINE
  5
EB
330
1B
100
AcDbEntity
 67
     1
  8
SLD-0
  6
CONTINUOUS
 62
     7
100
AcDbLine
 10
844.068996992
 20
488.193440429
 30
0.0
 11
858.079076192
 21
488.193440429
 31
0.0
  0
LINE
  5
EC
330
1B
100
AcDbEntity
 67
     1
  8
SLD-0
  6
CONTINUOUS
 62
     7
100
AcDbLine
 10
858.579077102
 20
499.542388419
 30
0.0
 11
858.579077102
 21
497.756975989
 31
0.0
  0
LINE
  5
ED
330
1B
100
AcDbEntity
 67
     1
  8
SLD-0
  6
CONTINUOUS
 62
     7
100
AcDbLine
 10
770.579084352
 20
499.542392529
 30
0.0
 11
770.579084352
 21
499.273709689
 31
0.0
  0
LINE
  5
EE
330
1B
100
AcDbEntity
 67
     1
  8
SLD-0
  6
CONTINUOUS
 62
     7
100
AcDbLine
 10
770.871977852
 20
496.945105229
 30
0.0
 11
771.017122612
 21
496.937744059
 31
0.0
  0
LINE
  5
EF
330
1B
100
AcDbEntity
 67
     1
  8
SLD-0
  6
CONTINUOUS
 62
     7
100
AcDbLine
 10
771.149765302
 20
496.916286389
 30
0.0
 11
771.258484172
 21
496.882594859
 31
0.0
  0
LINE
  5
F0
330
1B
100
AcDbEntity
 67
     1
  8
SLD-0
  6
CONTINUOUS
 62
     7
100
AcDbLine
 10
771.333917572
 20
496.839545409
 30
0.0
 11
771.369572332
 21
496.790863309
 31
0.0
  0
LINE
  5
F1
330
1B
100
AcDbEntity
 67
     1
  8
SLD-0
  6
CONTINUOUS
 62
     7
100
AcDbLine
 10
771.362371342
 20
496.740735809
 30
0.0
 11
771.312940472
 21
496.693484219
 31
0.0
  0
LINE
  5
F2
330
1B
100
AcDbEntity
 67
     1
  8
SLD-0
  6
CONTINUOUS
 62
     7
100
AcDbLine
 10
765.079084382
 20
496.945105229
 30
0.0
 11
770.871977852
 21
496.945105229
 31
0.0
  0
LINE
  5
F3
330
1B
100
AcDbEntity
 67
     1
  8
SLD-0
  6
CONTINUOUS
 62
     7
100
AcDbLine
 10
764.588694622
 20
496.807463209
 30
0.0
 11
764.617144662
 21
496.839545409
 31
0.0
  0
LINE
  5
F4
330
1B
100
AcDbEntity
 67
     1
  8
SLD-0
  6
CONTINUOUS
 62
     7
100
AcDbLine
 10
764.663353162
 20
496.869109309
 30
0.0
 11
764.725531982
 21
496.895022429
 31
0.0
  0
LINE
  5
F5
330
1B
100
AcDbEntity
 67
     1
  8
SLD-0
  6
CONTINUOUS
 62
     7
100
AcDbLine
 10
764.801300662
 20
496.916286389
 30
0.0
 11
764.887746022
 21
496.932096519
 31
0.0
  0
LINE
  5
F6
330
1B
100
AcDbEntity
 67
     1
  8
SLD-0
  6
CONTINUOUS
 62
     7
100
AcDbLine
 10
764.981541382
 20
496.941826979
 30
0.0
 11
765.079084382
 21
496.945105229
 31
0.0
  0
LINE
  5
F7
330
1B
100
AcDbEntity
 67
     1
  8
SLD-0
  6
CONTINUOUS
 62
     7
100
AcDbLine
 10
765.432640512
 20
494.671888389
 30
0.0
 11
765.314783502
 21
494.641996659
 31
0.0
  0
LINE
  5
F8
330
1B
100
AcDbEntity
 67
     1
  8
SLD-0
  6
CONTINUOUS
 62
     7
100
AcDbLine
 10
765.176631112
 20
494.625098739
 30
0.0
 11
765.030078192
 21
494.622625149
 31
0.0
  0
LINE
  5
F9
330
1B
100
AcDbEntity
 67
     1
  8
SLD-0
  6
CONTINUOUS
 62
     7
100
AcDbLine
 10
764.887746022
 20
494.634829199
 30
0.0
 11
764.761890822
 21
494.660623109
 31
0.0
  0
LINE
  5
FA
330
1B
100
AcDbEntity
 67
     1
  8
SLD-0
  6
CONTINUOUS
 62
     7
100
AcDbLine
 10
764.663353162
 20
494.697801509
 30
0.0
 11
764.600615552
 21
494.743175539
 31
0.0
  0
LINE
  5
FB
330
1B
100
AcDbEntity
 67
     1
  8
SLD-0
  6
CONTINUOUS
 62
     7
100
AcDbLine
 10
771.225533982
 20
496.653176579
 30
0.0
 11
765.432640512
 21
494.671888389
 31
0.0
  0
LINE
  5
FC
330
1B
100
AcDbEntity
 67
     1
  8
SLD-0
  6
CONTINUOUS
 62
     7
100
AcDbLine
 10
856.579087272
 20
496.774099509
 30
0.0
 11
856.569479752
 21
496.807463209
 31
0.0
  0
LINE
  5
FD
330
1B
100
AcDbEntity
 67
     1
  8
SLD-0
  6
CONTINUOUS
 62
     7
100
AcDbLine
 10
856.541025982
 20
496.839545409
 30
0.0
 11
856.494821212
 21
496.869109309
 31
0.0
  0
LINE
  5
FE
330
1B
100
AcDbEntity
 67
     1
  8
SLD-0
  6
CONTINUOUS
 62
     7
100
AcDbLine
 10
856.432638662
 20
496.895022429
 30
0.0
 11
856.356869982
 21
496.916286389
 31
0.0
  0
LINE
  5
FF
330
1B
100
AcDbEntity
 67
     1
  8
SLD-0
  6
CONTINUOUS
 62
     7
100
AcDbLine
 10
856.270428352
 20
496.932096519
 30
0.0
 11
856.176632992
 21
496.941826979
 31
0.0
  0
LINE
  5
100
330
1B
100
AcDbEntity
 67
     1
  8
SLD-0
  6
CONTINUOUS
 62
     7
100
AcDbLine
 10
856.079086262
 20
496.945105229
 30
0.0
 11
850.286192792
 21
496.945105229
 31
0.0
  0
LINE
  5
101
330
1B
100
AcDbEntity
 67
     1
  8
SLD-0
  6
CONTINUOUS
 62
     7
100
AcDbLine
 10
850.141051762
 20
496.937744059
 30
0.0
 11
850.008409072
 21
496.916286389
 31
0.0
  0
LINE
  5
102
330
1B
100
AcDbEntity
 67
     1
  8
SLD-0
  6
CONTINUOUS
 62
     7
100
AcDbLine
 10
849.899686472
 20
496.882594859
 30
0.0
 11
849.824253072
 21
496.839545409
 31
0.0
  0
LINE
  5
103
330
1B
100
AcDbEntity
 67
     1
  8
SLD-0
  6
CONTINUOUS
 62
     7
100
AcDbLine
 10
849.788602042
 20
496.790863309
 30
0.0
 11
849.795799302
 21
496.740735809
 31
0.0
  0
LINE
  5
104
330
1B
100
AcDbEntity
 67
     1
  8
SLD-0
  6
CONTINUOUS
 62
     7
100
AcDbLine
 10
849.845233902
 20
496.693484219
 30
0.0
 11
849.932640392
 21
496.653176579
 31
0.0
  0
LINE
  5
105
330
1B
100
AcDbEntity
 67
     1
  8
SLD-0
  6
CONTINUOUS
 62
     7
100
AcDbLine
 10
855.725533862
 20
494.671888389
 30
0.0
 11
855.843387142
 21
494.641996659
 31
0.0
  0
LINE
  5
106
330
1B
100
AcDbEntity
 67
     1
  8
SLD-0
  6
CONTINUOUS
 62
     7
100
AcDbLine
 10
855.981539532
 20
494.625098739
 30
0.0
 11
856.128096182
 21
494.622625149
 31
0.0
  0
LINE
  5
107
330
1B
100
AcDbEntity
 67
     1
  8
SLD-0
  6
CONTINUOUS
 62
     7
100
AcDbLine
 10
856.270428352
 20
494.634829199
 30
0.0
 11
856.396283552
 21
494.660623109
 31
0.0
  0
LINE
  5
108
330
1B
100
AcDbEntity
 67
     1
  8
SLD-0
  6
CONTINUOUS
 62
     7
100
AcDbLine
 10
856.494821212
 20
494.697801509
 30
0.0
 11
856.557555102
 21
494.743175539
 31
0.0
  0
LINE
  5
109
330
1B
100
AcDbEntity
 67
     1
  8
SLD-0
  6
CONTINUOUS
 62
     7
100
AcDbLine
 10
858.579075612
 20
501.187339739
 30
0.0
 11
858.579077102
 21
499.542388419
 31
0.0
  0
LINE
  5
10A
330
1B
100
AcDbEntity
 67
     1
  8
SLD-0
  6
CONTINUOUS
 62
     7
100
AcDbLine
 10
850.4236932629
 20
501.1458766814
 30
0.0
 11
850.5790862929
 21
501.1458766814
 31
0.0
  0
LINE
  5
10B
330
1B
100
AcDbEntity
 67
     1
  8
SLD-0
  6
CONTINUOUS
 62
     7
100
AcDbLine
 10
770.579086122
 20
501.187343849
 30
0.0
 11
770.579084352
 21
499.542392529
 31
0.0
  0
LINE
  5
10C
330
1B
100
AcDbEntity
 67
     1
  8
SLD-0
  6
CONTINUOUS
 62
     7
100
AcDbLine
 10
762.579086772
 20
490.210808549
 30
0.0
 11
762.579086772
 21
497.756980099
 31
0.0
  0
LINE
  5
10D
330
1B
100
AcDbEntity
 67
     1
  8
SLD-0
  6
CONTINUOUS
 62
     7
100
AcDbLine
 10
858.579077102
 20
488.886165719
 30
0.0
 11
858.579075612
 21
488.693440319
 31
0.0
  0
LINE
  5
10E
330
1B
100
AcDbEntity
 67
     1
  8
SLD-0
  6
CONTINUOUS
 62
     7
100
AcDbLine
 10
771.289728182
 20
496.868066229
 30
0.0
 11
771.225533982
 21
496.841124929
 31
0.0
  0
LINE
  5
10F
330
1B
100
AcDbEntity
 67
     1
  8
SLD-0
  6
CONTINUOUS
 62
     7
100
AcDbLine
 10
849.932640392
 20
496.841124929
 30
0.0
 11
855.725533862
 21
494.859836729
 31
0.0
  0
LINE
  5
110
330
1B
100
AcDbEntity
 67
     1
  8
SLD-0
  6
CONTINUOUS
 62
     7
100
AcDbLine
 10
855.843387142
 20
494.829930099
 30
0.0
 11
855.981539532
 21
494.813032189
 31
0.0
  0
LINE
  5
111
330
1B
100
AcDbEntity
 67
     1
  8
SLD-0
  6
CONTINUOUS
 62
     7
100
AcDbLine
 10
856.128096182
 20
494.810573499
 30
0.0
 11
856.270428352
 21
494.822762649
 31
0.0
  0
LINE
  5
112
330
1B
100
AcDbEntity
 67
     1
  8
SLD-0
  6
CONTINUOUS
 62
     7
100
AcDbLine
 10
856.396283552
 20
494.848556559
 30
0.0
 11
856.494821212
 21
494.885749849
 31
0.0
  0
LINE
  5
113
330
1B
100
AcDbEntity
 67
     1
  8
SLD-0
  6
CONTINUOUS
 62
     7
100
AcDbLine
 10
856.557555102
 20
494.931108989
 30
0.0
 11
856.579087272
 21
494.980759659
 31
0.0
  0
LINE
  5
114
330
1B
100
AcDbEntity
 67
     1
  8
SLD-0
  6
CONTINUOUS
 62
     7
100
AcDbLine
 10
765.432640512
 20
494.859836729
 30
0.0
 11
765.314783502
 21
494.829930099
 31
0.0
  0
LINE
  5
115
330
1B
100
AcDbEntity
 67
     1
  8
SLD-0
  6
CONTINUOUS
 62
     7
100
AcDbLine
 10
765.176631112
 20
494.813032189
 30
0.0
 11
765.030078192
 21
494.810573499
 31
0.0
  0
LINE
  5
116
330
1B
100
AcDbEntity
 67
     1
  8
SLD-0
  6
CONTINUOUS
 62
     7
100
AcDbLine
 10
764.887746022
 20
494.822762649
 30
0.0
 11
764.761890822
 21
494.848556559
 31
0.0
  0
LINE
  5
117
330
1B
100
AcDbEntity
 67
     1
  8
SLD-0
  6
CONTINUOUS
 62
     7
100
AcDbLine
 10
764.663353162
 20
494.885749849
 30
0.0
 11
764.600615552
 21
494.931108989
 31
0.0
  0
LINE
  5
118
330
1B
100
AcDbEntity
 67
     1
  8
SLD-0
  6
CONTINUOUS
 62
     7
100
AcDbLine
 10
848.579085962
 20
501.275293269
 30
0.0
 11
850.079085282
 21
501.275293269
 31
0.0
  0
LINE
  5
119
330
1B
100
AcDbEntity
 67
     1
  8
SLD-0
  6
CONTINUOUS
 62
     7
100
AcDbLine
 10
773.079085694
 20
501.1458766785
 30
0.0
 11
772.923692664
 21
501.1458766785
 31
0.0
  0
LINE
  5
11A
330
1B
100
AcDbEntity
 67
     1
  8
SLD-0
  6
CONTINUOUS
 62
     7
100
AcDbLine
 10
848.234477982
 20
501.145876679
 30
0.0
 11
848.079084952
 21
501.145876679
 31
0.0
  0
LINE
  5
11B
330
1B
100
AcDbEntity
 67
     1
  8
SLD-0
  6
CONTINUOUS
 62
     7
100
AcDbLine
 10
843.579087012
 20
488.785303869
 30
0.0
 11
843.579087012
 21
495.033852489
 31
0.0
  0
LINE
  5
11C
330
1B
100
AcDbEntity
 67
     1
  8
SLD-0
  6
CONTINUOUS
 62
     7
100
AcDbLine
 10
858.579075612
 20
489.048175219
 30
0.0
 11
858.579077102
 21
488.886165719
 31
0.0
  0
LINE
  5
11D
330
1B
100
AcDbEntity
 67
     1
  8
SLD-0
  6
CONTINUOUS
 62
     7
100
AcDbLine
 10
851.079076207
 20
502.053368784
 30
0.0
 11
851.079076207
 21
509.337414004
 31
0.0
  0
LINE
  5
11E
330
1B
100
AcDbEntity
 67
     1
  8
SLD-0
  6
CONTINUOUS
 62
     7
100
AcDbLine
 10
851.579075612
 20
509.837414849
 30
0.0
 11
858.079075612
 21
509.837414849
 31
0.0
  0
LINE
  5
11F
330
1B
100
AcDbEntity
 67
     1
  8
SLD-0
  6
CONTINUOUS
 62
     7
100
AcDbLine
 10
763.079086122
 20
509.837418959
 30
0.0
 11
769.579086122
 21
509.837418959
 31
0.0
  0
LINE
  5
120
330
1B
100
AcDbEntity
 67
     1
  8
SLD-0
  6
CONTINUOUS
 62
     7
100
AcDbLine
 10
851.079076207
 20
509.337414004
 30
0.0
 11
851.079076207
 21
511.034641364
 31
0.0
  0
LINE
  5
121
330
1B
100
AcDbEntity
 67
     1
  8
SLD-0
  6
CONTINUOUS
 62
     7
100
AcDbLine
 10
770.079087072
 20
511.034644879
 30
0.0
 11
770.079086122
 21
509.337418959
 31
0.0
  0
LINE
  5
122
330
1B
100
AcDbEntity
 67
     1
  8
SLD-0
  6
CONTINUOUS
 62
     7
100
AcDbLine
 10
843.079085992
 20
495.033852489
 30
0.0
 11
843.079085992
 21
490.337423719
 31
0.0
  0
LINE
  5
123
330
1B
100
AcDbEntity
 67
     1
  8
SLD-0
  6
CONTINUOUS
 62
     7
100
AcDbLine
 10
763.079086122
 20
517.837418959
 30
0.0
 11
770.079087072
 21
517.837412389
 31
0.0
  0
LINE
  5
124
330
1B
100
AcDbEntity
 67
     1
  8
SLD-0
  6
CONTINUOUS
 62
     7
100
AcDbLine
 10
851.079080832
 20
517.837412309
 30
0.0
 11
858.079080112
 21
517.837412309
 31
0.0
  0
LINE
  5
125
330
1B
100
AcDbEntity
 67
     1
  8
SLD-0
  6
CONTINUOUS
 62
     7
100
AcDbLine
 10
850.579082832
 20
516.837415679
 30
0.0
 11
850.579083012
 21
517.337415549
 31
0.0
  0
LINE
  5
126
330
1B
100
AcDbEntity
 67
     1
  8
SLD-0
  6
CONTINUOUS
 62
     7
100
AcDbLine
 10
774.579082832
 20
512.837415679
 30
0.0
 11
846.579082832
 21
512.837415679
 31
0.0
  0
LINE
  5
127
330
1B
100
AcDbEntity
 67
     1
  8
SLD-0
  6
CONTINUOUS
 62
     7
100
AcDbLine
 10
778.079084652
 20
489.837415249
 30
0.0
 11
778.079084652
 21
490.337423719
 31
0.0
  0
LINE
  5
128
330
1B
100
AcDbEntity
 67
     1
  8
SLD-0
  6
CONTINUOUS
 62
     7
100
AcDbLine
 10
778.079084652
 20
489.837415249
 30
0.0
 11
777.579087362
 21
489.837415249
 31
0.0
  0
LINE
  5
129
330
1B
100
AcDbEntity
 67
     1
  8
SLD-0
  6
CONTINUOUS
 62
     7
100
AcDbLine
 10
857.579075612
 20
502.187339739
 30
0.0
 11
851.579074092
 21
502.187344529
 31
0.0
  0
LINE
  5
12A
330
1B
100
AcDbEntity
 67
     1
  8
SLD-0
  6
CONTINUOUS
 62
     7
100
AcDbLine
 10
769.579086122
 20
502.187343849
 30
0.0
 11
763.579086122
 21
502.187343849
 31
0.0
  0
LINE
  5
12B
330
1B
100
AcDbEntity
 67
     1
  8
SLD-0
  6
CONTINUOUS
 62
     7
100
AcDbLine
 10
777.250095802
 20
495.0338472886
 30
0.0
 11
843.908074842
 21
495.0338472886
 31
0.0
  0
LINE
  5
12C
330
1B
100
AcDbEntity
 67
     1
  8
SLD-0
  6
CONTINUOUS
 62
     7
100
AcDbLine
 10
763.079087672
 20
488.193444539
 30
0.0
 11
777.089163152
 21
488.193444539
 31
0.0
  0
LINE
  5
12D
330
1B
100
AcDbEntity
 67
     1
  8
SLD-0
  6
CONTINUOUS
 62
     7
100
AcDbLine
 10
762.579086772
 20
497.756980099
 30
0.0
 11
762.579086772
 21
499.542392529
 31
0.0
  0
LINE
  5
12E
330
1B
100
AcDbEntity
 67
     1
  8
SLD-0
  6
CONTINUOUS
 62
     7
100
AcDbLine
 10
850.579073387
 20
499.273707984
 30
0.0
 11
850.579073387
 21
499.542390814
 31
0.0
  0
LINE
  5
12F
330
1B
100
AcDbEntity
 67
     1
  8
SLD-0
  6
CONTINUOUS
 62
     7
100
AcDbLine
 10
771.017122612
 20
496.937744059
 30
0.0
 11
771.149765302
 21
496.916286389
 31
0.0
  0
LINE
  5
130
330
1B
100
AcDbEntity
 67
     1
  8
SLD-0
  6
CONTINUOUS
 62
     7
100
AcDbLine
 10
771.258484172
 20
496.882594859
 30
0.0
 11
771.333917572
 21
496.839545409
 31
0.0
  0
LINE
  5
131
330
1B
100
AcDbEntity
 67
     1
  8
SLD-0
  6
CONTINUOUS
 62
     7
100
AcDbLine
 10
771.369572332
 20
496.790863309
 30
0.0
 11
771.362371342
 21
496.740735809
 31
0.0
  0
LINE
  5
132
330
1B
100
AcDbEntity
 67
     1
  8
SLD-0
  6
CONTINUOUS
 62
     7
100
AcDbLine
 10
771.312940472
 20
496.693484219
 30
0.0
 11
771.225533982
 21
496.653176579
 31
0.0
  0
LINE
  5
133
330
1B
100
AcDbEntity
 67
     1
  8
SLD-0
  6
CONTINUOUS
 62
     7
100
AcDbLine
 10
764.579087102
 20
496.774099509
 30
0.0
 11
764.588694622
 21
496.807463209
 31
0.0
  0
LINE
  5
134
330
1B
100
AcDbEntity
 67
     1
  8
SLD-0
  6
CONTINUOUS
 62
     7
100
AcDbLine
 10
764.617144662
 20
496.839545409
 30
0.0
 11
764.663353162
 21
496.869109309
 31
0.0
  0
LINE
  5
135
330
1B
100
AcDbEntity
 67
     1
  8
SLD-0
  6
CONTINUOUS
 62
     7
100
AcDbLine
 10
764.725531982
 20
496.895022429
 30
0.0
 11
764.801300662
 21
496.916286389
 31
0.0
  0
LINE
  5
136
330
1B
100
AcDbEntity
 67
     1
  8
SLD-0
  6
CONTINUOUS
 62
     7
100
AcDbLine
 10
764.887746022
 20
496.932096519
 30
0.0
 11
764.981541382
 21
496.941826979
 31
0.0
  0
LINE
  5
137
330
1B
100
AcDbEntity
 67
     1
  8
SLD-0
  6
CONTINUOUS
 62
     7
100
AcDbLine
 10
764.579087102
 20
494.792811309
 30
0.0
 11
764.579087102
 21
496.774099509
 31
0.0
  0
LINE
  5
138
330
1B
100
AcDbEntity
 67
     1
  8
SLD-0
  6
CONTINUOUS
 62
     7
100
AcDbLine
 10
765.314783502
 20
494.641996659
 30
0.0
 11
765.176631112
 21
494.625098739
 31
0.0
  0
LINE
  5
139
330
1B
100
AcDbEntity
 67
     1
  8
SLD-0
  6
CONTINUOUS
 62
     7
100
AcDbLine
 10
765.030078192
 20
494.622625149
 30
0.0
 11
764.887746022
 21
494.634829199
 31
0.0
  0
LINE
  5
13A
330
1B
100
AcDbEntity
 67
     1
  8
SLD-0
  6
CONTINUOUS
 62
     7
100
AcDbLine
 10
764.761890822
 20
494.660623109
 30
0.0
 11
764.663353162
 21
494.697801509
 31
0.0
  0
LINE
  5
13B
330
1B
100
AcDbEntity
 67
     1
  8
SLD-0
  6
CONTINUOUS
 62
     7
100
AcDbLine
 10
764.600615552
 20
494.743175539
 30
0.0
 11
764.579087102
 21
494.792811309
 31
0.0
  0
LINE
  5
13C
330
1B
100
AcDbEntity
 67
     1
  8
SLD-0
  6
CONTINUOUS
 62
     7
100
AcDbLine
 10
856.579087272
 20
494.792811309
 30
0.0
 11
856.579087272
 21
496.774099509
 31
0.0
  0
LINE
  5
13D
330
1B
100
AcDbEntity
 67
     1
  8
SLD-0
  6
CONTINUOUS
 62
     7
100
AcDbLine
 10
856.569479752
 20
496.807463209
 30
0.0
 11
856.541025982
 21
496.839545409
 31
0.0
  0
LINE
  5
13E
330
1B
100
AcDbEntity
 67
     1
  8
SLD-0
  6
CONTINUOUS
 62
     7
100
AcDbLine
 10
856.494821212
 20
496.869109309
 30
0.0
 11
856.432638662
 21
496.895022429
 31
0.0
  0
LINE
  5
13F
330
1B
100
AcDbEntity
 67
     1
  8
SLD-0
  6
CONTINUOUS
 62
     7
100
AcDbLine
 10
856.356869982
 20
496.916286389
 30
0.0
 11
856.270428352
 21
496.932096519
 31
0.0
  0
LINE
  5
140
330
1B
100
AcDbEntity
 67
     1
  8
SLD-0
  6
CONTINUOUS
 62
     7
100
AcDbLine
 10
856.176632992
 20
496.941826979
 30
0.0
 11
856.079086262
 21
496.945105229
 31
0.0
  0
LINE
  5
141
330
1B
100
AcDbEntity
 67
     1
  8
SLD-0
  6
CONTINUOUS
 62
     7
100
AcDbLine
 10
850.286192792
 20
496.945105229
 30
0.0
 11
850.141051762
 21
496.937744059
 31
0.0
  0
LINE
  5
142
330
1B
100
AcDbEntity
 67
     1
  8
SLD-0
  6
CONTINUOUS
 62
     7
100
AcDbLine
 10
850.008409072
 20
496.916286389
 30
0.0
 11
849.899686472
 21
496.882594859
 31
0.0
  0
LINE
  5
143
330
1B
100
AcDbEntity
 67
     1
  8
SLD-0
  6
CONTINUOUS
 62
     7
100
AcDbLine
 10
849.824253072
 20
496.839545409
 30
0.0
 11
849.788602042
 21
496.790863309
 31
0.0
  0
LINE
  5
144
330
1B
100
AcDbEntity
 67
     1
  8
SLD-0
  6
CONTINUOUS
 62
     7
100
AcDbLine
 10
849.795799302
 20
496.740735809
 30
0.0
 11
849.845233902
 21
496.693484219
 31
0.0
  0
LINE
  5
145
330
1B
100
AcDbEntity
 67
     1
  8
SLD-0
  6
CONTINUOUS
 62
     7
100
AcDbLine
 10
849.932640392
 20
496.653176579
 30
0.0
 11
855.725533862
 21
494.671888389
 31
0.0
  0
LINE
  5
146
330
1B
100
AcDbEntity
 67
     1
  8
SLD-0
  6
CONTINUOUS
 62
     7
100
AcDbLine
 10
855.843387142
 20
494.641996659
 30
0.0
 11
855.981539532
 21
494.625098739
 31
0.0
  0
LINE
  5
147
330
1B
100
AcDbEntity
 67
     1
  8
SLD-0
  6
CONTINUOUS
 62
     7
100
AcDbLine
 10
856.128096182
 20
494.622625149
 30
0.0
 11
856.270428352
 21
494.634829199
 31
0.0
  0
LINE
  5
148
330
1B
100
AcDbEntity
 67
     1
  8
SLD-0
  6
CONTINUOUS
 62
     7
100
AcDbLine
 10
856.396283552
 20
494.660623109
 30
0.0
 11
856.494821212
 21
494.697801509
 31
0.0
  0
LINE
  5
149
330
1B
100
AcDbEntity
 67
     1
  8
SLD-0
  6
CONTINUOUS
 62
     7
100
AcDbLine
 10
856.557555102
 20
494.743175539
 30
0.0
 11
856.579087272
 21
494.792811309
 31
0.0
  0
LINE
  5
14A
330
1B
100
AcDbEntity
 67
     1
  8
SLD-0
  6
CONTINUOUS
 62
     7
100
AcDbLine
 10
762.579086772
 20
499.542392529
 30
0.0
 11
762.579086122
 21
501.187343849
 31
0.0
  0
LINE
  5
14B
330
1B
100
AcDbEntity
 67
     1
  8
SLD-0
  6
CONTINUOUS
 62
     7
100
AcDbLine
 10
850.579073387
 20
499.542390814
 30
0.0
 11
850.579073217
 21
501.187342134
 31
0.0
  0
LINE
  5
14C
330
1B
100
AcDbEntity
 67
     1
  8
SLD-0
  6
CONTINUOUS
 62
     7
100
AcDbLine
 10
770.579084352
 20
501.145876679
 30
0.0
 11
770.734477392
 21
501.145876679
 31
0.0
  0
LINE
  5
14D
330
1B
100
AcDbEntity
 67
     1
  8
SLD-0
  6
CONTINUOUS
 62
     7
100
AcDbLine
 10
762.579086122
 20
488.693444429
 30
0.0
 11
762.579086772
 21
488.886169829
 31
0.0
  0
LINE
  5
14E
330
1B
100
AcDbEntity
 67
     1
  8
SLD-0
  6
CONTINUOUS
 62
     7
100
AcDbLine
 10
858.579077102
 20
497.756975989
 30
0.0
 11
858.579077102
 21
490.210804439
 31
0.0
  0
LINE
  5
14F
330
1B
100
AcDbEntity
 67
     1
  8
SLD-0
  6
CONTINUOUS
 62
     7
100
AcDbLine
 10
849.868446192
 20
496.868066229
 30
0.0
 11
849.932640392
 21
496.841124929
 31
0.0
  0
LINE
  5
150
330
1B
100
AcDbEntity
 67
     1
  8
SLD-0
  6
CONTINUOUS
 62
     7
100
AcDbLine
 10
855.725533862
 20
494.859836729
 30
0.0
 11
855.843387142
 21
494.829930099
 31
0.0
  0
LINE
  5
151
330
1B
100
AcDbEntity
 67
     1
  8
SLD-0
  6
CONTINUOUS
 62
     7
100
AcDbLine
 10
855.981539532
 20
494.813032189
 30
0.0
 11
856.128096182
 21
494.810573499
 31
0.0
  0
LINE
  5
152
330
1B
100
AcDbEntity
 67
     1
  8
SLD-0
  6
CONTINUOUS
 62
     7
100
AcDbLine
 10
856.270428352
 20
494.822762649
 30
0.0
 11
856.396283552
 21
494.848556559
 31
0.0
  0
LINE
  5
153
330
1B
100
AcDbEntity
 67
     1
  8
SLD-0
  6
CONTINUOUS
 62
     7
100
AcDbLine
 10
856.494821212
 20
494.885749849
 30
0.0
 11
856.557555102
 21
494.931108989
 31
0.0
  0
LINE
  5
154
330
1B
100
AcDbEntity
 67
     1
  8
SLD-0
  6
CONTINUOUS
 62
     7
100
AcDbLine
 10
771.225533982
 20
496.841124929
 30
0.0
 11
765.432640512
 21
494.859836729
 31
0.0
  0
LINE
  5
155
330
1B
100
AcDbEntity
 67
     1
  8
SLD-0
  6
CONTINUOUS
 62
     7
100
AcDbLine
 10
765.314783502
 20
494.829930099
 30
0.0
 11
765.176631112
 21
494.813032189
 31
0.0
  0
LINE
  5
156
330
1B
100
AcDbEntity
 67
     1
  8
SLD-0
  6
CONTINUOUS
 62
     7
100
AcDbLine
 10
765.030078192
 20
494.810573499
 30
0.0
 11
764.887746022
 21
494.822762649
 31
0.0
  0
LINE
  5
157
330
1B
100
AcDbEntity
 67
     1
  8
SLD-0
  6
CONTINUOUS
 62
     7
100
AcDbLine
 10
764.761890822
 20
494.848556559
 30
0.0
 11
764.663353162
 21
494.885749849
 31
0.0
  0
LINE
  5
158
330
1B
100
AcDbEntity
 67
     1
  8
SLD-0
  6
CONTINUOUS
 62
     7
100
AcDbLine
 10
764.600615552
 20
494.931108989
 30
0.0
 11
764.579087102
 21
494.980759659
 31
0.0
  0
LINE
  5
159
330
1B
100
AcDbEntity
 67
     1
  8
SLD-0
  6
CONTINUOUS
 62
     7
100
AcDbLine
 10
772.5790846831
 20
501.2752932661
 30
0.0
 11
771.0790853731
 21
501.2752932661
 31
0.0
  0
LINE
  5
15A
330
1B
100
AcDbEntity
 67
     1
  8
SLD-0
  6
CONTINUOUS
 62
     7
100
AcDbLine
 10
773.079085694
 20
500.2755296585
 30
0.0
 11
773.079085694
 21
501.1458766785
 31
0.0
  0
LINE
  5
15B
330
1B
100
AcDbEntity
 67
     1
  8
SLD-0
  6
CONTINUOUS
 62
     7
100
AcDbLine
 10
848.079084952
 20
501.145876679
 30
0.0
 11
848.079084952
 21
500.275529659
 31
0.0
  0
LINE
  5
15C
330
1B
100
AcDbEntity
 67
     1
  8
SLD-0
  6
CONTINUOUS
 62
     7
100
AcDbLine
 10
777.579087362
 20
495.033852489
 30
0.0
 11
777.579087362
 21
488.785303869
 31
0.0
  0
LINE
  5
15D
330
1B
100
AcDbEntity
 67
     1
  8
SLD-0
  6
CONTINUOUS
 62
     7
100
AcDbLine
 10
762.579086772
 20
488.886169829
 30
0.0
 11
762.579086122
 21
489.048179329
 31
0.0
  0
LINE
  5
15E
330
1B
100
AcDbEntity
 67
     1
  8
SLD-0
  6
CONTINUOUS
 62
     7
100
AcDbLine
 10
858.579075612
 20
509.337414849
 30
0.0
 11
858.579075612
 21
501.187339739
 31
0.0
  0
LINE
  5
15F
330
1B
100
AcDbEntity
 67
     1
  8
SLD-0
  6
CONTINUOUS
 62
     7
100
AcDbLine
 10
762.579086122
 20
501.187343849
 30
0.0
 11
762.579086122
 21
509.337418959
 31
0.0
  0
LINE
  5
160
330
1B
100
AcDbEntity
 67
     1
  8
SLD-0
  6
CONTINUOUS
 62
     7
100
AcDbLine
 10
770.079086122
 20
509.337418959
 30
0.0
 11
770.079087072
 21
502.053372299
 31
0.0
  0
LINE
  5
161
330
1B
100
AcDbEntity
 67
     1
  8
SLD-0
  6
CONTINUOUS
 62
     7
100
AcDbLine
 10
858.579077102
 20
512.837413049
 30
0.0
 11
858.579075612
 21
509.337414849
 31
0.0
  0
LINE
  5
162
330
1B
100
AcDbEntity
 67
     1
  8
SLD-0
  6
CONTINUOUS
 62
     7
100
AcDbLine
 10
762.579086122
 20
509.337418959
 30
0.0
 11
762.579086772
 21
512.837417159
 31
0.0
  0
LINE
  5
163
330
1B
100
AcDbEntity
 67
     1
  8
SLD-0
  6
CONTINUOUS
 62
     7
100
AcDbLine
 10
778.079084652
 20
495.033852489
 30
0.0
 11
778.079084652
 21
490.337423719
 31
0.0
  0
LINE
  5
164
330
1B
100
AcDbEntity
 67
     1
  8
SLD-0
  6
CONTINUOUS
 62
     7
100
AcDbLine
 10
858.579077102
 20
517.337414719
 30
0.0
 11
858.579077102
 21
512.837413049
 31
0.0
  0
LINE
  5
165
330
1B
100
AcDbEntity
 67
     1
  8
SLD-0
  6
CONTINUOUS
 62
     7
100
AcDbLine
 10
762.579086772
 20
512.837417159
 30
0.0
 11
762.579086122
 21
517.337418959
 31
0.0
  0
LINE
  5
166
330
1B
100
AcDbEntity
 67
     1
  8
SLD-0
  6
CONTINUOUS
 62
     7
100
AcDbLine
 10
770.579082832
 20
517.337415679
 30
0.0
 11
770.579082832
 21
516.837415679
 31
0.0
  0
LINE
  5
167
330
1B
100
AcDbEntity
 67
     1
  8
SLD-0
  6
CONTINUOUS
 62
     7
100
AcDbLine
 10
843.079085992
 20
490.337423719
 30
0.0
 11
843.079085992
 21
489.837415249
 31
0.0
  0
LINE
  5
168
330
1B
100
AcDbEntity
 67
     1
  8
SLD-0
  6
CONTINUOUS
 62
     7
100
AcDbLine
 10
843.079085992
 20
489.837415249
 30
0.0
 11
778.079084652
 21
489.837415249
 31
0.0
  0
LINE
  5
169
330
1B
100
AcDbEntity
 67
     1
  8
SLD-0
  6
CONTINUOUS
 62
     7
100
AcDbLine
 10
843.579087012
 20
489.837415249
 30
0.0
 11
843.079085992
 21
489.837415249
 31
0.0
  0
LINE
  5
16A
330
1B
100
AcDbEntity
 67
     1
  8
SLD-0
  6
CONTINUOUS
 62
     7
100
AcDbLine
 10
762.574564666
 20
374.9213349777
 30
0.0
 11
762.574564666
 21
398.9213317977
 31
0.0
  0
LINE
  5
16B
330
1B
100
AcDbEntity
 67
     1
  8
SLD-0
  6
CONTINUOUS
 62
     7
100
AcDbLine
 10
765.0745622821
 20
398.2023485112
 30
0.0
 11
770.8674557521
 21
398.2023485112
 31
0.0
  0
LINE
  5
16C
330
1B
100
AcDbEntity
 67
     1
  8
SLD-0
  6
CONTINUOUS
 62
     7
100
AcDbLine
 10
771.221011875
 20
397.4002711551
 30
0.0
 11
765.428118405
 21
391.9567279651
 31
0.0
  0
LINE
  5
16D
330
1B
100
AcDbEntity
 67
     1
  8
SLD-0
  6
CONTINUOUS
 62
     7
100
AcDbLine
 10
856.0745641564
 20
398.2023485175
 30
0.0
 11
850.2816706864
 21
398.2023485175
 31
0.0
  0
LINE
  5
16E
330
1B
100
AcDbEntity
 67
     1
  8
SLD-0
  6
CONTINUOUS
 62
     7
100
AcDbLine
 10
858.574565496
 20
398.9213317977
 30
0.0
 11
858.574565496
 21
374.9213361177
 31
0.0
  0
LINE
  5
16F
330
1B
100
AcDbEntity
 67
     1
  8
SLD-0
  6
CONTINUOUS
 62
     7
100
AcDbLine
 10
843.574564016
 20
374.9213330577
 30
0.0
 11
843.574564016
 21
392.3931829777
 31
0.0
  0
LINE
  5
170
330
1B
100
AcDbEntity
 67
     1
  8
SLD-0
  6
CONTINUOUS
 62
     7
100
AcDbLine
 10
765.074562276
 20
398.1339447277
 30
0.0
 11
770.867455746
 21
398.1339447277
 31
0.0
  0
LINE
  5
171
330
1B
100
AcDbEntity
 67
     1
  8
SLD-0
  6
CONTINUOUS
 62
     7
100
AcDbLine
 10
764.574564996
 20
392.2889568077
 30
0.0
 11
764.574564996
 21
397.7324999977
 31
0.0
  0
LINE
  5
172
330
1B
100
AcDbEntity
 67
     1
  8
SLD-0
  6
CONTINUOUS
 62
     7
100
AcDbLine
 10
856.5745651674
 20
392.2889568042
 30
0.0
 11
856.5745651674
 21
397.7324999942
 31
0.0
  0
LINE
  5
173
330
1B
100
AcDbEntity
 67
     1
  8
SLD-0
  6
CONTINUOUS
 62
     7
100
AcDbLine
 10
849.928118286
 20
397.4002711577
 30
0.0
 11
855.721011756
 21
391.9567279677
 31
0.0
  0
LINE
  5
174
330
1B
100
AcDbEntity
 67
     1
  8
SLD-0
  6
CONTINUOUS
 62
     7
100
AcDbLine
 10
777.574564016
 20
392.3931829777
 30
0.0
 11
777.574564016
 21
374.9213330577
 31
0.0
  0
LINE
  5
175
330
1B
100
AcDbEntity
 67
     1
  8
SLD-0
  6
CONTINUOUS
 62
     7
100
AcDbLine
 10
856.074564156
 20
398.1339447277
 30
0.0
 11
850.281670686
 21
398.1339447277
 31
0.0
  0
LINE
  5
176
330
1B
100
AcDbEntity
 67
     1
  8
SLD-0
  6
CONTINUOUS
 62
     7
100
AcDbLine
 10
777.574565256
 20
391.9143490577
 30
0.0
 11
843.574564906
 21
391.9143490577
 31
0.0
  0
LINE
  5
177
330
1B
100
AcDbEntity
 67
     1
  8
SLD-0
  6
CONTINUOUS
 62
     7
100
AcDbLine
 10
764.6038657312
 20
227.3901449097
 30
0.0
 11
764.8245653212
 21
230.9213313097
 31
0.0
  0
LINE
  5
178
330
1B
100
AcDbEntity
 67
     1
  8
SLD-0
  6
CONTINUOUS
 62
     7
100
AcDbLine
 10
764.1048395096
 20
226.9213318015
 30
0.0
 11
745.0442907296
 21
226.9213318015
 31
0.0
  0
LINE
  5
179
330
1B
100
AcDbEntity
 67
     1
  8
SLD-0
  6
CONTINUOUS
 62
     7
100
AcDbLine
 10
876.6038673268
 20
227.3901465948
 30
0.0
 11
876.8245634368
 21
230.9213336348
 31
0.0
  0
LINE
  5
17A
330
1B
100
AcDbEntity
 67
     1
  8
SLD-0
  6
CONTINUOUS
 62
     7
100
AcDbLine
 10
876.104839375
 20
226.9213316567
 30
0.0
 11
857.044290595
 21
226.9213316567
 31
0.0
  0
LINE
  5
17B
330
1B
100
AcDbEntity
 67
     1
  8
SLD-0
  6
CONTINUOUS
 62
     7
100
AcDbLine
 10
744.324567846
 20
230.9213308877
 30
0.0
 11
744.545263846
 21
227.3901456077
 31
0.0
  0
LINE
  5
17C
330
1B
100
AcDbEntity
 67
     1
  8
SLD-0
  6
CONTINUOUS
 62
     7
100
AcDbLine
 10
856.324563906
 20
230.9213332177
 30
0.0
 11
856.545263576
 21
227.3901456077
 31
0.0
  0
LINE
  5
17D
330
1B
100
AcDbEntity
 67
     1
  8
SLD-0
  6
CONTINUOUS
 62
     7
100
AcDbLine
 10
1041.2859640963
 20
227.3901373715
 30
0.0
 11
1041.7441624263
 21
234.7213323915
 31
0.0
  0
LINE
  5
17E
330
1B
100
AcDbEntity
 67
     1
  8
SLD-0
  6
CONTINUOUS
 62
     7
100
AcDbLine
 10
1040.7869406579
 20
226.9213272097
 30
0.0
 11
1021.7263918779
 21
226.9213272097
 31
0.0
  0
LINE
  5
17F
330
1B
100
AcDbEntity
 67
     1
  8
SLD-0
  6
CONTINUOUS
 62
     7
100
AcDbLine
 10
993.2859640963
 20
227.3901373715
 30
0.0
 11
993.7441624263
 21
234.7213323915
 31
0.0
  0
LINE
  5
180
330
1B
100
AcDbEntity
 67
     1
  8
SLD-0
  6
CONTINUOUS
 62
     7
100
AcDbLine
 10
1020.769164296
 20
234.7213323877
 30
0.0
 11
1021.227362216
 21
227.3901439577
 31
0.0
  0
LINE
  5
181
330
1B
100
AcDbEntity
 67
     1
  8
SLD-0
  6
CONTINUOUS
 62
     7
100
AcDbLine
 10
972.769164296
 20
234.7213323877
 30
0.0
 11
973.227362216
 21
227.3901439577
 31
0.0
  0
LINE
  5
182
330
1B
100
AcDbEntity
 67
     1
  8
SLD-0
  6
CONTINUOUS
 62
     7
100
AcDbLine
 10
992.7869406579
 20
226.9213272097
 30
0.0
 11
973.7263918779
 21
226.9213272097
 31
0.0
  0
LINE
  5
183
330
1B
100
AcDbEntity
 67
     1
  8
SLD-0
  6
CONTINUOUS
 62
     7
100
AcDbLine
 10
994.0182554054
 20
399.910726819
 30
0.0
 11
995.8036782054
 21
399.260887389
 31
0.0
  0
LINE
  5
184
330
1B
100
AcDbEntity
 67
     1
  8
SLD-0
  6
CONTINUOUS
 62
     7
100
AcDbLine
 10
993.271843236
 20
399.3218437677
 30
0.0
 11
993.301407136
 21
399.4030699977
 31
0.0
  0
LINE
  5
185
330
1B
100
AcDbEntity
 67
     1
  8
SLD-0
  6
CONTINUOUS
 62
     7
100
AcDbLine
 10
993.301407136
 20
399.4030699977
 30
0.0
 11
993.327320256
 21
399.4742677477
 31
0.0
  0
LINE
  5
186
330
1B
100
AcDbEntity
 67
     1
  8
SLD-0
  6
CONTINUOUS
 62
     7
100
AcDbLine
 10
993.348584216
 20
399.5327026477
 30
0.0
 11
993.364394346
 21
399.5761171777
 31
0.0
  0
LINE
  5
187
330
1B
100
AcDbEntity
 67
     1
  8
SLD-0
  6
CONTINUOUS
 62
     7
100
AcDbLine
 10
992.9855224075
 20
392.9799401283
 30
0.0
 11
987.7409842175
 21
378.5707184283
 31
0.0
  0
LINE
  5
188
330
1B
100
AcDbEntity
 67
     1
  8
SLD-0
  6
CONTINUOUS
 62
     7
100
AcDbLine
 10
993.4095371954
 20
392.683039039
 30
0.0
 11
992.9396944554
 21
392.854050969
 31
0.0
  0
LINE
  5
189
330
1B
100
AcDbEntity
 67
     1
  8
SLD-0
  6
CONTINUOUS
 62
     7
100
AcDbLine
 10
984.142870346
 20
374.2401868977
 30
0.0
 11
993.206397336
 21
399.1420389077
 31
0.0
  0
LINE
  5
18A
330
1B
100
AcDbEntity
 67
     1
  8
SLD-0
  6
CONTINUOUS
 62
     7
100
AcDbLine
 10
985.6935332784
 20
373.1437014288
 30
0.0
 11
985.5053316184
 21
373.2122020688
 31
0.0
  0
LINE
  5
18B
330
1B
100
AcDbEntity
 67
     1
  8
SLD-0
  6
CONTINUOUS
 62
     7
100
AcDbLine
 10
985.5053316184
 20
373.2122020688
 30
0.0
 11
985.2015267384
 21
373.3227761388
 31
0.0
  0
LINE
  5
18C
330
1B
100
AcDbEntity
 67
     1
  8
SLD-0
  6
CONTINUOUS
 62
     7
100
AcDbLine
 10
985.2015267384
 20
373.3227761388
 30
0.0
 11
984.7964384084
 21
373.4702168488
 31
0.0
  0
LINE
  5
18D
330
1B
100
AcDbEntity
 67
     1
  8
SLD-0
  6
CONTINUOUS
 62
     7
100
AcDbLine
 10
997.094348706
 20
393.4702322677
 30
0.0
 11
997.120202216
 21
393.4608221877
 31
0.0
  0
LINE
  5
18E
330
1B
100
AcDbEntity
 67
     1
  8
SLD-0
  6
CONTINUOUS
 62
     7
100
AcDbLine
 10
997.142494356
 20
393.4527085077
 30
0.0
 11
997.161016506
 21
393.4459657277
 31
0.0
  0
LINE
  5
18F
330
1B
100
AcDbEntity
 67
     1
  8
SLD-0
  6
CONTINUOUS
 62
     7
100
AcDbLine
 10
882.574566011
 20
231.9213318027
 30
0.0
 11
882.574566011
 21
373.9213290027
 31
0.0
  0
LINE
  5
190
330
1B
100
AcDbEntity
 67
     1
  8
SLD-0
  6
CONTINUOUS
 62
     7
100
AcDbLine
 10
738.574563906
 20
373.9213301877
 30
0.0
 11
738.574563906
 21
231.9213329877
 31
0.0
  0
LINE
  5
191
330
1B
100
AcDbEntity
 67
     1
  8
SLD-0
  6
CONTINUOUS
 62
     7
100
AcDbLine
 10
867.624565406
 20
270.7713331177
 30
0.0
 11
867.624565406
 21
356.2713331577
 31
0.0
  0
LINE
  5
192
330
1B
100
AcDbEntity
 67
     1
  8
SLD-0
  6
CONTINUOUS
 62
     7
100
AcDbLine
 10
867.624565406
 20
356.2713331577
 30
0.0
 11
754.324566026
 21
356.2713331577
 31
0.0
  0
LINE
  5
193
330
1B
100
AcDbEntity
 67
     1
  8
SLD-0
  6
CONTINUOUS
 62
     7
100
AcDbLine
 10
759.900748176
 20
256.2203100877
 30
0.0
 11
759.900748176
 21
252.9203101077
 31
0.0
  0
LINE
  5
194
330
1B
100
AcDbEntity
 67
     1
  8
SLD-0
  6
CONTINUOUS
 62
     7
100
AcDbLine
 10
775.248384611
 20
252.9203109127
 30
0.0
 11
775.248383781
 21
256.2203093527
 31
0.0
  0
LINE
  5
195
330
1B
100
AcDbEntity
 67
     1
  8
SLD-0
  6
CONTINUOUS
 62
     7
100
AcDbLine
 10
861.248385251
 20
252.9203094427
 30
0.0
 11
861.248385251
 21
256.2203094227
 31
0.0
  0
LINE
  5
196
330
1B
100
AcDbEntity
 67
     1
  8
SLD-0
  6
CONTINUOUS
 62
     7
100
AcDbLine
 10
874.274565806
 20
233.2403092677
 30
0.0
 11
746.874570296
 21
233.2403092677
 31
0.0
  0
LINE
  5
197
330
1B
100
AcDbEntity
 67
     1
  8
SLD-0
  6
CONTINUOUS
 62
     7
100
AcDbLine
 10
874.274565806
 20
233.2403092677
 30
0.0
 11
874.274565806
 21
234.7403044477
 31
0.0
  0
LINE
  5
198
330
1B
100
AcDbEntity
 67
     1
  8
SLD-0
  6
CONTINUOUS
 62
     7
100
AcDbLine
 10
862.974568646
 20
251.4203070677
 30
0.0
 11
844.174567056
 21
251.4203070677
 31
0.0
  0
LINE
  5
199
330
1B
100
AcDbEntity
 67
     1
  8
SLD-0
  6
CONTINUOUS
 62
     7
100
AcDbLine
 10
864.2745683091
 20
249.9203077577
 30
0.0
 11
756.874568206
 21
249.9203077577
 31
0.0
  0
LINE
  5
19A
330
1B
100
AcDbEntity
 67
     1
  8
SLD-0
  6
CONTINUOUS
 62
     7
100
AcDbLine
 10
844.174567056
 20
254.3203077277
 30
0.0
 11
776.974565726
 21
254.3203077277
 31
0.0
  0
LINE
  5
19B
330
1B
100
AcDbEntity
 67
     1
  8
SLD-0
  6
CONTINUOUS
 62
     7
100
AcDbLine
 10
756.874568206
 20
235.2403058677
 30
0.0
 11
864.274568306
 21
235.2403058677
 31
0.0
  0
LINE
  5
19C
330
1B
100
AcDbEntity
 67
     1
  8
SLD-0
  6
CONTINUOUS
 62
     7
100
AcDbLine
 10
844.174567056
 20
251.4203070677
 30
0.0
 11
844.174567056
 21
254.3203077277
 31
0.0
  0
LINE
  5
19D
330
1B
100
AcDbEntity
 67
     1
  8
SLD-0
  6
CONTINUOUS
 62
     7
100
AcDbLine
 10
746.874567186
 20
253.3203085477
 30
0.0
 11
746.874570296
 21
234.7403048577
 31
0.0
  0
LINE
  5
19E
330
1B
100
AcDbEntity
 67
     1
  8
SLD-0
  6
CONTINUOUS
 62
     7
100
AcDbLine
 10
776.974565726
 20
251.4203070677
 30
0.0
 11
776.974565726
 21
254.3203077277
 31
0.0
  0
LINE
  5
19F
330
1B
100
AcDbEntity
 67
     1
  8
SLD-0
  6
CONTINUOUS
 62
     7
100
AcDbLine
 10
864.274568306
 20
235.2403058677
 30
0.0
 11
864.274567186
 21
238.4918814177
 31
0.0
  0
LINE
  5
1A0
330
1B
100
AcDbEntity
 67
     1
  8
SLD-0
  6
CONTINUOUS
 62
     7
100
AcDbLine
 10
875.774569256
 20
255.8203070477
 30
0.0
 11
875.774569256
 21
231.7403062277
 31
0.0
  0
LINE
  5
1A1
330
1B
100
AcDbEntity
 67
     1
  8
SLD-0
  6
CONTINUOUS
 62
     7
100
AcDbLine
 10
861.474565606
 20
252.9203101077
 30
0.0
 11
861.474565606
 21
255.8203070477
 31
0.0
  0
LINE
  5
1A2
330
1B
100
AcDbEntity
 67
     1
  8
SLD-0
  6
CONTINUOUS
 62
     7
100
AcDbLine
 10
759.674567176
 20
255.8203070477
 30
0.0
 11
745.374567256
 21
255.8203070477
 31
0.0
  0
LINE
  5
1A3
330
1B
100
AcDbEntity
 67
     1
  8
SLD-0
  6
CONTINUOUS
 62
     7
100
AcDbLine
 10
775.474566416
 20
255.8203070477
 30
0.0
 11
775.474566416
 21
252.9203101077
 31
0.0
  0
LINE
  5
1A4
330
1B
100
AcDbEntity
 67
     1
  8
SLD-0
  6
CONTINUOUS
 62
     7
100
AcDbLine
 10
759.674567176
 20
252.9203101077
 30
0.0
 11
759.674567176
 21
255.8203070477
 31
0.0
  0
LINE
  5
1A5
330
1B
100
AcDbEntity
 67
     1
  8
SLD-0
  6
CONTINUOUS
 62
     7
100
AcDbLine
 10
775.474566416
 20
252.9203101077
 30
0.0
 11
759.674567176
 21
252.9203101077
 31
0.0
  0
LINE
  5
1A6
330
1B
100
AcDbEntity
 67
     1
  8
SLD-0
  6
CONTINUOUS
 62
     7
100
AcDbLine
 10
759.674567176
 20
255.9203087377
 30
0.0
 11
759.875282096
 21
255.9203087377
 31
0.0
  0
LINE
  5
1A7
330
1B
100
AcDbEntity
 67
     1
  8
SLD-0
  6
CONTINUOUS
 62
     7
100
AcDbLine
 10
861.474565606
 20
255.9203087377
 30
0.0
 11
861.474565606
 21
255.8203070477
 31
0.0
  0
LINE
  5
1A8
330
1B
100
AcDbEntity
 67
     1
  8
SLD-0
  6
CONTINUOUS
 62
     7
100
AcDbLine
 10
775.273851496
 20
255.9203087377
 30
0.0
 11
775.474566416
 21
255.9203087377
 31
0.0
  0
LINE
  5
1A9
330
1B
100
AcDbEntity
 67
     1
  8
SLD-0
  6
CONTINUOUS
 62
     7
100
AcDbLine
 10
845.875285016
 20
255.9203087377
 30
0.0
 11
845.674566376
 21
255.9203087377
 31
0.0
  0
LINE
  5
1AA
330
1B
100
AcDbEntity
 67
     1
  8
SLD-0
  6
CONTINUOUS
 62
     7
100
AcDbLine
 10
742.874570046
 20
259.6213329077
 30
0.0
 11
878.274567286
 21
259.6213329077
 31
0.0
  0
LINE
  5
1AB
330
1B
100
AcDbEntity
 67
     1
  8
SLD-0
  6
CONTINUOUS
 62
     7
100
AcDbLine
 10
845.674566376
 20
256.1213328577
 30
0.0
 11
845.674566376
 21
259.0213335177
 31
0.0
  0
LINE
  5
1AC
330
1B
100
AcDbEntity
 67
     1
  8
SLD-0
  6
CONTINUOUS
 62
     7
100
AcDbLine
 10
759.674567176
 20
259.0213335177
 30
0.0
 11
759.674567176
 21
256.1213328577
 31
0.0
  0
LINE
  5
1AD
330
1B
100
AcDbEntity
 67
     1
  8
SLD-0
  6
CONTINUOUS
 62
     7
100
AcDbLine
 10
775.474566416
 20
256.1213328577
 30
0.0
 11
775.474566416
 21
259.0213335177
 31
0.0
  0
LINE
  5
1AE
330
1B
100
AcDbEntity
 67
     1
  8
SLD-0
  6
CONTINUOUS
 62
     7
100
AcDbLine
 10
879.774568301
 20
261.1213336127
 30
0.0
 11
879.774571031
 21
370.6213336327
 31
0.0
  0
LINE
  5
1AF
330
1B
100
AcDbEntity
 67
     1
  8
SLD-0
  6
CONTINUOUS
 62
     7
100
AcDbLine
 10
861.474565606
 20
256.1213328577
 30
0.0
 11
861.273791086
 21
256.1213328577
 31
0.0
  0
LINE
  5
1B0
330
1B
100
AcDbEntity
 67
     1
  8
SLD-0
  6
CONTINUOUS
 62
     7
100
AcDbLine
 10
775.474566416
 20
256.1213328577
 30
0.0
 11
775.273788166
 21
256.1213328577
 31
0.0
  0
LINE
  5
1B1
330
1B
100
AcDbEntity
 67
     1
  8
SLD-0
  6
CONTINUOUS
 62
     7
100
AcDbLine
 10
738.574563906
 20
466.9157465777
 30
0.0
 11
738.574563906
 21
470.0157492677
 31
0.0
  0
LINE
  5
1B2
330
1B
100
AcDbEntity
 67
     1
  8
SLD-0
  6
CONTINUOUS
 62
     7
100
AcDbLine
 10
882.5745656752
 20
466.9157479119
 30
0.0
 11
882.5745656752
 21
470.0157492677
 31
0.0
  0
LINE
  5
1B3
330
1B
100
AcDbEntity
 67
     1
  8
SLD-0
  6
CONTINUOUS
 62
     7
100
AcDbLine
 10
882.5745656752
 20
466.9157479119
 30
0.0
 11
739.5745664552
 21
466.9157479119
 31
0.0
  0
LINE
  5
1B4
330
1B
100
AcDbEntity
 67
     1
  8
SLD-0
  6
CONTINUOUS
 62
     7
100
AcDbLine
 10
882.5745656752
 20
466.9157479119
 30
0.0
 11
881.7032128252
 21
441.9633995919
 31
0.0
  0
LINE
  5
1B5
330
1B
100
AcDbEntity
 67
     1
  8
SLD-0
  6
CONTINUOUS
 62
     7
100
AcDbLine
 10
739.445924206
 20
441.9633982577
 30
0.0
 11
738.574563906
 21
466.9157465777
 31
0.0
  0
LINE
  5
1B6
330
1B
100
AcDbEntity
 67
     1
  8
SLD-0
  6
CONTINUOUS
 62
     7
100
AcDbLine
 10
880.2041263877
 20
440.5157474094
 30
0.0
 11
740.9450114977
 21
440.5157474094
 31
0.0
  0
LINE
  5
1B7
330
1B
100
AcDbEntity
 67
     1
  8
SLD-0
  6
CONTINUOUS
 62
     7
100
AcDbLine
 10
1057.8174489084
 20
276.0713310215
 30
0.0
 11
1057.8174489084
 21
266.8213309015
 31
0.0
  0
LINE
  5
1B8
330
1B
100
AcDbEntity
 67
     1
  8
SLD-0
  6
CONTINUOUS
 62
     7
100
AcDbLine
 10
1069.017447176
 20
271.3713285527
 30
0.0
 11
1069.108388956
 21
271.4449477427
 31
0.0
  0
LINE
  5
1B9
330
1B
100
AcDbEntity
 67
     1
  8
SLD-0
  6
CONTINUOUS
 62
     7
100
AcDbLine
 10
1054.817445216
 20
265.5213263827
 30
0.0
 11
1069.017447176
 21
265.5213263827
 31
0.0
  0
LINE
  5
1BA
330
1B
100
AcDbEntity
 67
     1
  8
SLD-0
  6
CONTINUOUS
 62
     7
100
AcDbLine
 10
1053.717447596
 20
257.0713304927
 30
0.0
 11
1044.456672766
 21
257.0713310727
 31
0.0
  0
LINE
  5
1BB
330
1B
100
AcDbEntity
 67
     1
  8
SLD-0
 62
     7
100
AcDbLine
 10
1044.456672756
 20
277.9213310227
 30
0.0
 11
1044.456672756
 21
234.7213323877
 31
0.0
  0
LINE
  5
1BC
330
1B
100
AcDbEntity
 67
     1
  8
SLD-0
  6
CONTINUOUS
 62
     7
100
AcDbLine
 10
878.824568736
 20
573.5157474077
 30
0.0
 11
878.824568736
 21
470.0157492677
 31
0.0
  0
LINE
  5
1BD
330
1B
100
AcDbEntity
 67
     1
  8
SLD-0
  6
CONTINUOUS
 62
     7
100
AcDbLine
 10
962.8566731885
 20
230.9213303953
 30
0.0
 11
965.9566758885
 21
230.9213303953
 31
0.0
  0
LINE
  5
1BE
330
1B
100
AcDbEntity
 67
     1
  8
SLD-0
  6
CONTINUOUS
 62
     7
100
AcDbLine
 10
962.8566731885
 20
230.9213303953
 30
0.0
 11
962.8566731885
 21
374.9213316453
 31
0.0
  0
LINE
  5
1BF
330
1B
100
AcDbEntity
 67
     1
  8
SLD-0
  6
CONTINUOUS
 62
     7
100
AcDbLine
 10
937.9043248685
 20
374.0499787953
 30
0.0
 11
962.8566731885
 21
374.9213316453
 31
0.0
  0
LINE
  5
1C0
330
1B
100
AcDbEntity
 67
     1
  8
SLD-0
  6
CONTINUOUS
 62
     7
100
AcDbLine
 10
962.8566731885
 20
230.9213303953
 30
0.0
 11
939.3519726785
 21
231.7421385053
 31
0.0
  0
LINE
  5
1C1
330
1B
100
AcDbEntity
 67
     1
  8
SLD-0
  6
CONTINUOUS
 62
     7
100
AcDbLine
 10
1069.108388956
 20
271.4449477427
 30
0.0
 11
1069.197989646
 21
271.5174828727
 31
0.0
  0
LINE
  5
1C2
330
1B
100
AcDbEntity
 67
     1
  8
SLD-0
  6
CONTINUOUS
 62
     7
100
AcDbLine
 10
997.175589836
 20
393.4406609177
 30
0.0
 11
997.186095156
 21
393.4368313177
 31
0.0
  0
LINE
  5
1C3
330
1B
100
AcDbEntity
 67
     1
  8
SLD-0
  6
CONTINUOUS
 62
     7
100
AcDbLine
 10
1070.692390016
 20
257.0692783827
 30
0.0
 11
1068.577374826
 21
257.0732271527
 31
0.0
  0
LINE
  5
1C4
330
1B
100
AcDbEntity
 67
     1
  8
SLD-0
  6
CONTINUOUS
 62
     7
100
AcDbLine
 10
997.192443046
 20
393.4345290877
 30
0.0
 11
997.194559016
 21
393.4337542277
 31
0.0
  0
LINE
  5
1C5
330
1B
100
AcDbEntity
 67
     1
  8
SLD-0
  6
CONTINUOUS
 62
     7
100
AcDbLine
 10
987.7566896682
 20
371.2213402859
 30
0.0
 11
987.7566893182
 21
375.2213375659
 31
0.0
  0
LINE
  5
1C6
330
1B
100
AcDbEntity
 67
     1
  8
SLD-0
  6
CONTINUOUS
 62
     7
100
AcDbLine
 10
1013.756679336
 20
372.7213339077
 30
0.0
 11
1013.756672766
 21
371.2213366377
 31
0.0
  0
LINE
  5
1C7
330
1B
100
AcDbEntity
 67
     1
  8
SLD-0
  6
CONTINUOUS
 62
     7
100
AcDbLine
 10
986.256687611
 20
377.2213374127
 30
0.0
 11
1005.256681411
 21
377.2213374127
 31
0.0
  0
LINE
  5
1C8
330
1B
100
AcDbEntity
 67
     1
  8
SLD-0
  6
CONTINUOUS
 62
     7
100
AcDbLine
 10
993.206397336
 20
399.1420389077
 30
0.0
 11
993.239761036
 21
399.2337033977
 31
0.0
  0
LINE
  5
1C9
330
1B
100
AcDbEntity
 67
     1
  8
SLD-0
  6
CONTINUOUS
 62
     7
100
AcDbLine
 10
993.239761036
 20
399.2337033977
 30
0.0
 11
993.271843236
 21
399.3218437677
 31
0.0
  0
LINE
  5
1CA
330
1B
100
AcDbEntity
 67
     1
  8
SLD-0
  6
CONTINUOUS
 62
     7
100
AcDbLine
 10
993.327320256
 20
399.4742677477
 30
0.0
 11
993.348584216
 21
399.5327026477
 31
0.0
  0
LINE
  5
1CB
330
1B
100
AcDbEntity
 67
     1
  8
SLD-0
  6
CONTINUOUS
 62
     7
100
AcDbLine
 10
993.364394346
 20
399.5761171777
 30
0.0
 11
993.374124806
 21
399.6028573177
 31
0.0
  0
LINE
  5
1CC
330
1B
100
AcDbEntity
 67
     1
  8
SLD-0
  6
CONTINUOUS
 62
     7
100
AcDbLine
 10
993.374124806
 20
399.6028573177
 30
0.0
 11
993.377403056
 21
399.6118874177
 31
0.0
  0
LINE
  5
1CD
330
1B
100
AcDbEntity
 67
     1
  8
SLD-0
  6
CONTINUOUS
 62
     7
100
AcDbLine
 10
984.7964384084
 20
373.4702168488
 30
0.0
 11
984.4417034984
 21
373.5993297988
 31
0.0
  0
LINE
  5
1CE
330
1B
100
AcDbEntity
 67
     1
  8
SLD-0
  6
CONTINUOUS
 62
     7
100
AcDbLine
 10
985.7572804484
 20
373.1205003288
 30
0.0
 11
985.6935332784
 21
373.1437014288
 31
0.0
  0
LINE
  5
1CF
330
1B
100
AcDbEntity
 67
     1
  8
SLD-0
  6
CONTINUOUS
 62
     7
100
AcDbLine
 10
997.194559016
 20
393.4337542277
 30
0.0
 11
991.293728986
 21
377.2213355577
 31
0.0
  0
LINE
  5
1D0
330
1B
100
AcDbEntity
 67
     1
  8
SLD-0
  6
CONTINUOUS
 62
     7
100
AcDbLine
 10
997.065142426
 20
393.4808567977
 30
0.0
 11
997.094348706
 21
393.4702322677
 31
0.0
  0
LINE
  5
1D1
330
1B
100
AcDbEntity
 67
     1
  8
SLD-0
  6
CONTINUOUS
 62
     7
100
AcDbLine
 10
997.120202216
 20
393.4608221877
 30
0.0
 11
997.142494356
 21
393.4527085077
 31
0.0
  0
LINE
  5
1D2
330
1B
100
AcDbEntity
 67
     1
  8
SLD-0
  6
CONTINUOUS
 62
     7
100
AcDbLine
 10
997.161016506
 20
393.4459657277
 30
0.0
 11
997.175589836
 21
393.4406609177
 31
0.0
  0
LINE
  5
1D3
330
1B
100
AcDbEntity
 67
     1
  8
SLD-0
  6
CONTINUOUS
 62
     7
100
AcDbLine
 10
997.186095156
 20
393.4368313177
 30
0.0
 11
997.192443046
 21
393.4345290877
 31
0.0
  0
LINE
  5
1D4
330
1B
100
AcDbEntity
 67
     1
  8
SLD-0
  6
CONTINUOUS
 62
     7
100
AcDbLine
 10
989.7566893182
 20
375.2213375659
 30
0.0
 11
989.7566937282
 21
371.2213402859
 31
0.0
  0
LINE
  5
1D5
330
1B
100
AcDbEntity
 67
     1
  8
SLD-0
  6
CONTINUOUS
 62
     7
100
AcDbLine
 10
1008.756677871
 20
373.2213335727
 30
0.0
 11
1013.256679541
 21
373.2213335727
 31
0.0
  0
LINE
  5
1D6
330
1B
100
AcDbEntity
 67
     1
  8
SLD-0
  6
CONTINUOUS
 62
     7
100
AcDbLine
 10
1005.756686356
 20
376.7213328777
 30
0.0
 11
1005.756679336
 21
376.2213339077
 31
0.0
  0
LINE
  5
1D7
330
1B
100
AcDbEntity
 67
     1
  8
SLD-0
  6
CONTINUOUS
 62
     7
100
AcDbLine
 10
985.756681006
 20
371.2213382977
 30
0.0
 11
985.756681006
 21
376.7213345377
 31
0.0
  0
LINE
  5
1D8
330
1B
100
AcDbEntity
 67
     1
  8
SLD-0
  6
CONTINUOUS
 62
     7
100
AcDbLine
 10
987.756685056
 20
372.7213338877
 30
0.0
 11
989.756689106
 21
372.7213338877
 31
0.0
  0
LINE
  5
1D9
330
1B
100
AcDbEntity
 67
     1
  8
SLD-0
  6
CONTINUOUS
 62
     7
100
AcDbLine
 10
881.574564696
 20
374.9213363977
 30
0.0
 11
739.574563446
 21
374.9213346977
 31
0.0
  0
LINE
  5
1DA
330
1B
100
AcDbEntity
 67
     1
  8
SLD-0
  6
CONTINUOUS
 62
     7
100
AcDbLine
 10
739.574565776
 20
230.9213307877
 30
0.0
 11
881.574567026
 21
230.9213337377
 31
0.0
  0
LINE
  5
1DB
330
1B
100
AcDbEntity
 67
     1
  8
SLD-0
  6
CONTINUOUS
 62
     7
100
AcDbLine
 10
754.324566026
 20
270.7713331177
 30
0.0
 11
867.624565406
 21
270.7713331177
 31
0.0
  0
LINE
  5
1DC
330
1B
100
AcDbEntity
 67
     1
  8
SLD-0
  6
CONTINUOUS
 62
     7
100
AcDbLine
 10
754.324566026
 20
356.2713331577
 30
0.0
 11
754.324566026
 21
270.7713331177
 31
0.0
  0
LINE
  5
1DD
330
1B
100
AcDbEntity
 67
     1
  8
SLD-0
  6
CONTINUOUS
 62
     7
100
AcDbLine
 10
774.774566381
 20
256.6941267527
 30
0.0
 11
760.374566381
 21
256.6941267527
 31
0.0
  0
LINE
  5
1DE
330
1B
100
AcDbEntity
 67
     1
  8
SLD-0
  6
CONTINUOUS
 62
     7
100
AcDbLine
 10
845.900751096
 20
256.2203100877
 30
0.0
 11
845.900751096
 21
252.9203101077
 31
0.0
  0
LINE
  5
1DF
330
1B
100
AcDbEntity
 67
     1
  8
SLD-0
  6
CONTINUOUS
 62
     7
100
AcDbLine
 10
860.774567841
 20
256.6941252927
 30
0.0
 11
846.374567841
 21
256.6941252927
 31
0.0
  0
LINE
  5
1E0
330
1B
100
AcDbEntity
 67
     1
  8
SLD-0
  6
CONTINUOUS
 62
     7
100
AcDbLine
 10
746.874570296
 20
234.7403048577
 30
0.0
 11
746.874570296
 21
233.2403092677
 31
0.0
  0
LINE
  5
1E1
330
1B
100
AcDbEntity
 67
     1
  8
SLD-0
  6
CONTINUOUS
 62
     7
100
AcDbLine
 10
756.874568206
 20
249.9203077577
 30
0.0
 11
756.874568206
 21
235.2403058677
 31
0.0
  0
LINE
  5
1E2
330
1B
100
AcDbEntity
 67
     1
  8
SLD-0
  6
CONTINUOUS
 62
     7
100
AcDbLine
 10
873.274564196
 20
254.3203077277
 30
0.0
 11
862.974568646
 21
254.3203077277
 31
0.0
  0
LINE
  5
1E3
330
1B
100
AcDbEntity
 67
     1
  8
SLD-0
  6
CONTINUOUS
 62
     7
100
AcDbLine
 10
864.2745671891
 20
244.1487356677
 30
0.0
 11
864.2745683091
 21
249.9203077577
 31
0.0
  0
LINE
  5
1E4
330
1B
100
AcDbEntity
 67
     1
  8
SLD-0
  6
CONTINUOUS
 62
     7
100
AcDbLine
 10
758.174567866
 20
254.3203077277
 30
0.0
 11
747.874567186
 21
254.3203085477
 31
0.0
  0
LINE
  5
1E5
330
1B
100
AcDbEntity
 67
     1
  8
SLD-0
  6
CONTINUOUS
 62
     7
100
AcDbLine
 10
862.974568646
 20
254.3203077277
 30
0.0
 11
862.974568646
 21
251.4203070677
 31
0.0
  0
LINE
  5
1E6
330
1B
100
AcDbEntity
 67
     1
  8
SLD-0
  6
CONTINUOUS
 62
     7
100
AcDbLine
 10
758.174567866
 20
251.4203070677
 30
0.0
 11
776.974565726
 21
251.4203070677
 31
0.0
  0
LINE
  5
1E7
330
1B
100
AcDbEntity
 67
     1
  8
SLD-0
  6
CONTINUOUS
 62
     7
100
AcDbLine
 10
758.174567866
 20
254.3203077277
 30
0.0
 11
758.174567866
 21
251.4203070677
 31
0.0
  0
LINE
  5
1E8
330
1B
100
AcDbEntity
 67
     1
  8
SLD-0
  6
CONTINUOUS
 62
     7
100
AcDbLine
 10
874.274565806
 20
234.7403044477
 30
0.0
 11
874.274566776
 21
253.3203081377
 31
0.0
  0
LINE
  5
1E9
330
1B
100
AcDbEntity
 67
     1
  8
SLD-0
  6
CONTINUOUS
 62
     7
100
AcDbLine
 10
875.774569256
 20
231.7403062277
 30
0.0
 11
745.374567256
 21
231.7403062277
 31
0.0
  0
LINE
  5
1EA
330
1B
100
AcDbEntity
 67
     1
  8
SLD-0
  6
CONTINUOUS
 62
     7
100
AcDbLine
 10
745.374567256
 20
234.7403048577
 30
0.0
 11
745.374567256
 21
231.7403062277
 31
0.0
  0
LINE
  5
1EB
330
1B
100
AcDbEntity
 67
     1
  8
SLD-0
  6
CONTINUOUS
 62
     7
100
AcDbLine
 10
845.674566376
 20
252.9203101077
 30
0.0
 11
861.474565606
 21
252.9203101077
 31
0.0
  0
LINE
  5
1EC
330
1B
100
AcDbEntity
 67
     1
  8
SLD-0
  6
CONTINUOUS
 62
     7
100
AcDbLine
 10
745.374567256
 20
255.8203070477
 30
0.0
 11
745.374567256
 21
234.7403048577
 31
0.0
  0
LINE
  5
1ED
330
1B
100
AcDbEntity
 67
     1
  8
SLD-0
  6
CONTINUOUS
 62
     7
100
AcDbLine
 10
845.674566376
 20
255.8203070477
 30
0.0
 11
775.474566416
 21
255.8203070477
 31
0.0
  0
LINE
  5
1EE
330
1B
100
AcDbEntity
 67
     1
  8
SLD-0
  6
CONTINUOUS
 62
     7
100
AcDbLine
 10
875.774569256
 20
255.8203070477
 30
0.0
 11
861.474565606
 21
255.8203070477
 31
0.0
  0
LINE
  5
1EF
330
1B
100
AcDbEntity
 67
     1
  8
SLD-0
  6
CONTINUOUS
 62
     7
100
AcDbLine
 10
845.674566376
 20
255.8203070477
 30
0.0
 11
845.674566376
 21
252.9203101077
 31
0.0
  0
LINE
  5
1F0
330
1B
100
AcDbEntity
 67
     1
  8
SLD-0
  6
CONTINUOUS
 62
     7
100
AcDbLine
 10
759.674567176
 20
255.9203087377
 30
0.0
 11
759.674567176
 21
255.8203070477
 31
0.0
  0
LINE
  5
1F1
330
1B
100
AcDbEntity
 67
     1
  8
SLD-0
  6
CONTINUOUS
 62
     7
100
AcDbLine
 10
861.474565606
 20
255.9203087377
 30
0.0
 11
861.273850696
 21
255.9203087377
 31
0.0
  0
LINE
  5
1F2
330
1B
100
AcDbEntity
 67
     1
  8
SLD-0
  6
CONTINUOUS
 62
     7
100
AcDbLine
 10
775.474566416
 20
255.9203087377
 30
0.0
 11
775.474566416
 21
255.8203070477
 31
0.0
  0
LINE
  5
1F3
330
1B
100
AcDbEntity
 67
     1
  8
SLD-0
  6
CONTINUOUS
 62
     7
100
AcDbLine
 10
845.674566376
 20
255.9203087377
 30
0.0
 11
845.674566376
 21
255.8203070477
 31
0.0
  0
LINE
  5
1F4
330
1B
100
AcDbEntity
 67
     1
  8
SLD-0
  6
CONTINUOUS
 62
     7
100
AcDbLine
 10
741.374566596
 20
370.6213339277
 30
0.0
 11
741.374566596
 21
261.1213355377
 31
0.0
  0
LINE
  5
1F5
330
1B
100
AcDbEntity
 67
     1
  8
SLD-0
  6
CONTINUOUS
 62
     7
100
AcDbLine
 10
845.674566376
 20
259.0213335177
 30
0.0
 11
861.474565606
 21
259.0213335177
 31
0.0
  0
LINE
  5
1F6
330
1B
100
AcDbEntity
 67
     1
  8
SLD-0
  6
CONTINUOUS
 62
     7
100
AcDbLine
 10
845.674566376
 20
256.1213328577
 30
0.0
 11
775.474566416
 21
256.1213328577
 31
0.0
  0
LINE
  5
1F7
330
1B
100
AcDbEntity
 67
     1
  8
SLD-0
  6
CONTINUOUS
 62
     7
100
AcDbLine
 10
775.474566416
 20
259.0213335177
 30
0.0
 11
759.674567176
 21
259.0213335177
 31
0.0
  0
LINE
  5
1F8
330
1B
100
AcDbEntity
 67
     1
  8
SLD-0
  6
CONTINUOUS
 62
     7
100
AcDbLine
 10
878.274566581
 20
372.1213372627
 30
0.0
 11
742.874566891
 21
372.1213342027
 31
0.0
  0
LINE
  5
1F9
330
1B
100
AcDbEntity
 67
     1
  8
SLD-0
  6
CONTINUOUS
 62
     7
100
AcDbLine
 10
861.474565606
 20
259.0213335177
 30
0.0
 11
861.474565606
 21
256.1213328577
 31
0.0
  0
LINE
  5
1FA
330
1B
100
AcDbEntity
 67
     1
  8
SLD-0
  6
CONTINUOUS
 62
     7
100
AcDbLine
 10
845.875344616
 20
256.1213328577
 30
0.0
 11
845.674566376
 21
256.1213328577
 31
0.0
  0
LINE
  5
1FB
330
1B
100
AcDbEntity
 67
     1
  8
SLD-0
  6
CONTINUOUS
 62
     7
100
AcDbLine
 10
759.875345426
 20
256.1213328577
 30
0.0
 11
759.674567176
 21
256.1213328577
 31
0.0
  0
LINE
  5
1FC
330
1B
100
AcDbEntity
 67
     1
  8
SLD-0
  6
CONTINUOUS
 62
     7
100
AcDbLine
 10
739.574565936
 20
470.0157492677
 30
0.0
 11
738.574563906
 21
470.0157492677
 31
0.0
  0
LINE
  5
1FD
330
1B
100
AcDbEntity
 67
     1
  8
SLD-0
  6
CONTINUOUS
 62
     7
100
AcDbLine
 10
882.5745656752
 20
470.0157492677
 30
0.0
 11
881.574570586
 21
470.0157492677
 31
0.0
  0
LINE
  5
1FE
330
1B
100
AcDbEntity
 67
     1
  8
SLD-0
  6
CONTINUOUS
 62
     7
100
AcDbLine
 10
881.574570586
 20
470.0157492677
 30
0.0
 11
739.574565936
 21
470.0157492677
 31
0.0
  0
LINE
  5
1FF
330
1B
100
AcDbEntity
 67
     1
  8
SLD-0
  6
CONTINUOUS
 62
     7
100
AcDbLine
 10
738.574563906
 20
466.9157465777
 30
0.0
 11
739.573954986
 21
466.9157465777
 31
0.0
  0
LINE
  5
200
330
1B
100
AcDbEntity
 67
     1
  8
SLD-0
  6
CONTINUOUS
 62
     7
100
AcDbLine
 10
742.324567776
 20
470.0157492677
 30
0.0
 11
742.324567776
 21
573.5157474077
 31
0.0
  0
LINE
  5
201
330
1B
100
AcDbEntity
 67
     1
  8
SLD-0
  6
CONTINUOUS
 62
     7
100
AcDbLine
 10
962.8566731885
 20
374.9213316453
 30
0.0
 11
965.9566758885
 21
374.9213316453
 31
0.0
  0
LINE
  5
202
330
1B
100
AcDbEntity
 67
     1
  8
SLD-0
  6
CONTINUOUS
 62
     7
100
AcDbLine
 10
965.9566758885
 20
230.9213303953
 30
0.0
 11
965.9566758885
 21
374.9213316453
 31
0.0
  0
LINE
  5
203
330
1B
100
AcDbEntity
 67
     1
  8
SLD-0
  6
CONTINUOUS
 62
     7
100
AcDbLine
 10
936.456672756
 20
234.7403085477
 30
0.0
 11
936.456672756
 21
372.5508927377
 31
0.0
  0
LINE
  5
204
330
1B
100
AcDbEntity
 67
     1
  8
SLD-0
  6
CONTINUOUS
 62
     7
100
AcDbLine
 10
965.956675786
 20
371.2213366377
 30
0.0
 11
1069.456672756
 21
371.2213366377
 31
0.0
  0
LINE
  5
205
330
1B
100
AcDbEntity
 67
     1
  8
SLD-0
  6
CONTINUOUS
 62
     7
100
AcDbLine
 10
1044.456672756
 20
234.7213323877
 30
0.0
 11
965.956672496
 21
234.7213323877
 31
0.0
  0
LINE
  5
206
330
1B
100
AcDbEntity
 67
     1
  8
SLD-0
  6
PHANTOM
 62
     7
100
AcDbLine
 10
433.356669306
 20
339.4713323177
 30
0.0
 11
435.356673366
 21
339.4713323177
 31
0.0
  0
LINE
  5
207
330
1B
100
AcDbEntity
 67
     1
  8
SLD-0
  6
PHANTOM
 62
     7
100
AcDbLine
 10
419.756662466
 20
309.0713310177
 30
0.0
 11
398.256669316
 21
309.0713307577
 31
0.0
  0
LINE
  5
208
330
1B
100
AcDbEntity
 67
     1
  8
SLD-0
  6
PHANTOM
 62
     7
100
AcDbLine
 10
436.956670646
 20
307.4713307977
 30
0.0
 11
435.356673366
 21
307.4713307977
 31
0.0
  0
LINE
  5
209
330
1B
100
AcDbEntity
 67
     1
  8
SLD-0
  6
PHANTOM
 62
     7
100
AcDbLine
 10
416.831668976
 20
317.6878369977
 30
0.0
 11
416.956674816
 21
317.4713305777
 31
0.0
  0
LINE
  5
20A
330
1B
100
AcDbEntity
 67
     1
  8
SLD-0
  6
PHANTOM
 62
     7
100
AcDbLine
 10
416.756671436
 20
323.4713296977
 30
0.0
 11
410.956662656
 21
323.4713296977
 31
0.0
  0
LINE
  5
20B
330
1B
100
AcDbEntity
 67
     1
  8
SLD-0
  6
PHANTOM
 62
     7
100
AcDbLine
 10
395.256665116
 20
312.5713305177
 30
0.0
 11
395.256665116
 21
305.0713306877
 31
0.0
  0
LINE
  5
20C
330
1B
100
AcDbEntity
 67
     1
  8
SLD-0
  6
PHANTOM
 62
     7
100
AcDbLine
 10
420.756664626
 20
305.0713306877
 30
0.0
 11
422.756668676
 21
305.0713306877
 31
0.0
  0
LINE
  5
20D
330
1B
100
AcDbEntity
 67
     1
  8
SLD-0
  6
PHANTOM
 62
     7
100
AcDbLine
 10
416.756671436
 20
315.4713302477
 30
0.0
 11
416.756671436
 21
317.5579323977
 31
0.0
  0
LINE
  5
20E
330
1B
100
AcDbEntity
 67
     1
  8
SLD-0
  6
PHANTOM
 62
     7
100
AcDbLine
 10
422.756668676
 20
312.5713305177
 30
0.0
 11
421.356674776
 21
312.5713305177
 31
0.0
  0
LINE
  5
20F
330
1B
100
AcDbEntity
 67
     1
  8
SLD-0
  6
PHANTOM
 62
     7
100
AcDbLine
 10
435.356673366
 20
313.9713309277
 30
0.0
 11
432.456668976
 21
313.9713309277
 31
0.0
  0
LINE
  5
210
330
1B
100
AcDbEntity
 67
     1
  8
SLD-0
  6
PHANTOM
 62
     7
100
AcDbLine
 10
397.256669166
 20
332.2713296477
 30
0.0
 11
397.256669166
 21
333.8713306577
 31
0.0
  0
LINE
  5
211
330
1B
100
AcDbEntity
 67
     1
  8
SLD-0
  6
PHANTOM
 62
     7
100
AcDbLine
 10
411.356669426
 20
329.6713303377
 30
0.0
 11
410.956662656
 21
329.6713303377
 31
0.0
  0
LINE
  5
212
330
1B
100
AcDbEntity
 67
     1
  8
SLD-0
  6
PHANTOM
 62
     7
100
AcDbLine
 10
432.456668976
 20
321.4713312277
 30
0.0
 11
432.456668976
 21
324.9713308777
 31
0.0
  0
LINE
  5
213
330
1B
100
AcDbEntity
 67
     1
  8
SLD-0
  6
PHANTOM
 62
     7
100
AcDbLine
 10
438.456666236
 20
317.4713305777
 30
0.0
 11
466.656666756
 21
317.4713305777
 31
0.0
  0
LINE
  5
214
330
1B
100
AcDbEntity
 67
     1
  8
SLD-0
  6
PHANTOM
 62
     7
100
AcDbLine
 10
408.956673506
 20
321.2548248077
 30
0.0
 11
386.956666176
 21
321.2548248077
 31
0.0
  0
LINE
  5
215
330
1B
100
AcDbEntity
 67
     1
  8
SLD-0
  6
PHANTOM
 62
     7
100
AcDbLine
 10
422.756668686
 20
326.3713303577
 30
0.0
 11
422.756668686
 21
333.8713306577
 31
0.0
  0
LINE
  5
216
330
1B
100
AcDbEntity
 67
     1
  8
SLD-0
  6
PHANTOM
 62
     7
100
AcDbLine
 10
436.956670646
 20
331.4713310077
 30
0.0
 11
435.356673366
 21
331.4713310077
 31
0.0
  0
LINE
  5
217
330
1B
100
AcDbEntity
 67
     1
  8
SLD-0
  6
PHANTOM
 62
     7
100
AcDbLine
 10
436.956670646
 20
312.4713306877
 30
0.0
 11
436.956670646
 21
307.4713307977
 31
0.0
  0
LINE
  5
218
330
1B
100
AcDbEntity
 67
     1
  8
SLD-0
  6
PHANTOM
 62
     7
100
AcDbLine
 10
435.356673366
 20
337.8713313077
 30
0.0
 11
433.356669306
 21
337.8713313077
 31
0.0
  0
LINE
  5
219
330
1B
100
AcDbEntity
 67
     1
  8
SLD-0
  6
PHANTOM
 62
     7
100
AcDbLine
 10
136.324573976
 20
550.7157431187
 30
0.0
 11
138.758358276
 21
550.7157431187
 31
0.0
  0
LINE
  5
21A
330
1B
100
AcDbEntity
 67
     1
  8
SLD-0
  6
PHANTOM
 62
     7
100
AcDbLine
 10
138.758358276
 20
550.7157431187
 30
0.0
 11
138.608437696
 21
551.0157481987
 31
0.0
  0
LINE
  5
21B
330
1B
100
AcDbEntity
 67
     1
  8
SLD-0
  6
PHANTOM
 62
     7
100
AcDbLine
 10
138.608437696
 20
551.0157481987
 30
0.0
 11
139.575239936
 21
551.0157481987
 31
0.0
  0
LINE
  5
21C
330
1B
100
AcDbEntity
 67
     1
  8
SLD-0
  6
PHANTOM
 62
     7
100
AcDbLine
 10
134.824570936
 20
519.4157497287
 30
0.0
 11
136.824574986
 21
519.4157497287
 31
0.0
  0
LINE
  5
21D
330
1B
100
AcDbEntity
 67
     1
  8
SLD-0
  6
PHANTOM
 62
     7
100
AcDbLine
 10
140.324574626
 20
550.7157431187
 30
0.0
 11
140.024577006
 21
551.0157481987
 31
0.0
  0
LINE
  5
21E
330
1B
100
AcDbEntity
 67
     1
  8
SLD-0
  6
PHANTOM
 62
     7
100
AcDbLine
 10
466.956671836
 20
321.1474638077
 30
0.0
 11
466.956671836
 21
320.6227808777
 31
0.0
  0
LINE
  5
21F
330
1B
100
AcDbEntity
 67
     1
  8
SLD-0
  6
CONTINUOUS
 62
     7
100
AcDbLine
 10
433.3566695711
 20
227.2213322077
 30
0.0
 11
373.9566664711
 21
227.2213322077
 31
0.0
  0
LINE
  5
220
330
1B
100
AcDbEntity
 67
     1
  8
SLD-0
  6
CONTINUOUS
 62
     7
100
AcDbLine
 10
465.7566664311
 20
230.2875440277
 30
0.0
 11
465.7566664311
 21
229.3207417877
 31
0.0
  0
LINE
  5
221
330
1B
100
AcDbEntity
 67
     1
  8
SLD-0
  6
PHANTOM
 62
     7
100
AcDbLine
 10
466.956671836
 20
320.6227808777
 30
0.0
 11
466.956671836
 21
317.7713300677
 31
0.0
  0
LINE
  5
222
330
1B
100
AcDbEntity
 67
     1
  8
SLD-0
  6
PHANTOM
 62
     7
100
AcDbLine
 10
408.956673506
 20
327.6713300077
 30
0.0
 11
408.956673506
 21
329.6713303377
 31
0.0
  0
LINE
  5
223
330
1B
100
AcDbEntity
 67
     1
  8
SLD-0
  6
CONTINUOUS
 62
     7
100
AcDbLine
 10
436.9566706511
 20
233.2213293477
 30
0.0
 11
436.9535414011
 21
233.2213293477
 31
0.0
  0
LINE
  5
224
330
1B
100
AcDbEntity
 67
     1
  8
SLD-0
  6
CONTINUOUS
 62
     7
100
AcDbLine
 10
438.4566662411
 20
228.7213351277
 30
0.0
 11
466.6566667611
 21
228.7213351277
 31
0.0
  0
LINE
  5
225
330
1B
100
AcDbEntity
 67
     1
  8
SLD-0
  6
CONTINUOUS
 62
     7
100
AcDbLine
 10
466.9566718411
 20
230.4374720577
 30
0.0
 11
466.9566718411
 21
229.4706698177
 31
0.0
  0
LINE
  5
226
330
1B
100
AcDbEntity
 67
     1
  8
SLD-0
  6
CONTINUOUS
 62
     7
100
AcDbLine
 10
465.7566664311
 20
230.2875440277
 30
0.0
 11
466.6566667611
 21
230.2875440277
 31
0.0
  0
LINE
  5
227
330
1B
100
AcDbEntity
 67
     1
  8
SLD-0
  6
CONTINUOUS
 62
     7
100
AcDbLine
 10
466.6566667611
 20
229.3207417877
 30
0.0
 11
466.6566667611
 21
228.7213351277
 31
0.0
  0
LINE
  5
228
330
1B
100
AcDbEntity
 67
     1
  8
SLD-0
  6
CONTINUOUS
 62
     7
100
AcDbLine
 10
436.9566720411
 20
232.2213346677
 30
0.0
 11
436.9566720411
 21
227.2213319877
 31
0.0
  0
LINE
  5
229
330
1B
100
AcDbEntity
 67
     1
  8
SLD-0
  6
PHANTOM
 62
     7
100
AcDbLine
 10
383.756671606
 20
315.4713302477
 30
0.0
 11
408.956673506
 21
315.4713302477
 31
0.0
  0
LINE
  5
22A
330
1B
100
AcDbEntity
 67
     1
  8
SLD-0
  6
PHANTOM
 62
     7
100
AcDbLine
 10
435.356673366
 20
301.0713306077
 30
0.0
 11
435.356673366
 21
307.4713307977
 31
0.0
  0
LINE
  5
22B
330
1B
100
AcDbEntity
 67
     1
  8
SLD-0
  6
PHANTOM
 62
     7
100
AcDbLine
 10
422.756668676
 20
305.0713306877
 30
0.0
 11
422.756668676
 21
312.5713305177
 31
0.0
  0
LINE
  5
22C
330
1B
100
AcDbEntity
 67
     1
  8
SLD-0
  6
PHANTOM
 62
     7
100
AcDbLine
 10
416.956674816
 20
321.4713312277
 30
0.0
 11
416.956674816
 21
317.4713305777
 31
0.0
  0
LINE
  5
22D
330
1B
100
AcDbEntity
 67
     1
  8
SLD-0
  6
PHANTOM
 62
     7
100
AcDbLine
 10
435.356673366
 20
331.4713310077
 30
0.0
 11
435.356673366
 21
337.8713313077
 31
0.0
  0
LINE
  5
22E
330
1B
100
AcDbEntity
 67
     1
  8
SLD-0
  6
PHANTOM
 62
     7
100
AcDbLine
 10
408.956673506
 20
312.5713305177
 30
0.0
 11
395.256665116
 21
312.5713305177
 31
0.0
  0
LINE
  5
22F
330
1B
100
AcDbEntity
 67
     1
  8
SLD-0
  6
PHANTOM
 62
     7
100
AcDbLine
 10
435.356673366
 20
301.0713306077
 30
0.0
 11
435.356673366
 21
299.4713306077
 31
0.0
  0
LINE
  5
230
330
1B
100
AcDbEntity
 67
     1
  8
SLD-0
  6
PHANTOM
 62
     7
100
AcDbLine
 10
408.956673506
 20
329.6713303377
 30
0.0
 11
410.956662656
 21
329.6713303377
 31
0.0
  0
LINE
  5
231
330
1B
100
AcDbEntity
 67
     1
  8
SLD-0
  6
PHANTOM
 62
     7
100
AcDbLine
 10
466.656666756
 20
321.4713312277
 30
0.0
 11
438.456666236
 21
321.4713312277
 31
0.0
  0
LINE
  5
232
330
1B
100
AcDbEntity
 67
     1
  8
SLD-0
  6
PHANTOM
 62
     7
100
AcDbLine
 10
410.956662656
 20
311.2713308577
 30
0.0
 11
410.956662656
 21
309.2713305377
 31
0.0
  0
LINE
  5
233
330
1B
100
AcDbEntity
 67
     1
  8
SLD-0
  6
PHANTOM
 62
     7
100
AcDbLine
 10
383.756671606
 20
323.4713296977
 30
0.0
 11
383.756671606
 21
315.4713302477
 31
0.0
  0
LINE
  5
234
330
1B
100
AcDbEntity
 67
     1
  8
SLD-0
  6
PHANTOM
 62
     7
100
AcDbLine
 10
397.256669166
 20
305.0713306877
 30
0.0
 11
397.256669166
 21
306.6713307577
 31
0.0
  0
LINE
  5
235
330
1B
100
AcDbEntity
 67
     1
  8
SLD-0
  6
PHANTOM
 62
     7
100
AcDbLine
 10
466.956671836
 20
321.1713298777
 30
0.0
 11
466.656666756
 21
321.4713312277
 31
0.0
  0
LINE
  5
236
330
1B
100
AcDbEntity
 67
     1
  8
SLD-0
  6
PHANTOM
 62
     7
100
AcDbLine
 10
466.956671836
 20
321.1713298777
 30
0.0
 11
466.956671836
 21
321.1474638077
 31
0.0
  0
LINE
  5
237
330
1B
100
AcDbEntity
 67
     1
  8
SLD-0
  6
PHANTOM
 62
     7
100
AcDbLine
 10
397.256669166
 20
332.2713296477
 30
0.0
 11
397.256669466
 21
330.8713306077
 31
0.0
  0
LINE
  5
238
330
1B
100
AcDbEntity
 67
     1
  8
SLD-0
  6
PHANTOM
 62
     7
100
AcDbLine
 10
466.656666756
 20
317.4713305777
 30
0.0
 11
466.956671836
 21
317.7713300677
 31
0.0
  0
LINE
  5
239
330
1B
100
AcDbEntity
 67
     1
  8
SLD-0
  6
PHANTOM
 62
     7
100
AcDbLine
 10
410.956662656
 20
329.6713303377
 30
0.0
 11
410.956662656
 21
327.6713300077
 31
0.0
  0
LINE
  5
23A
330
1B
100
AcDbEntity
 67
     1
  8
SLD-0
  6
PHANTOM
 62
     7
100
AcDbLine
 10
416.756671436
 20
321.3847275477
 30
0.0
 11
416.756671436
 21
323.4713296977
 31
0.0
  0
LINE
  5
23B
330
1B
100
AcDbEntity
 67
     1
  8
SLD-0
  6
PHANTOM
 62
     7
100
AcDbLine
 10
436.956670646
 20
326.4713301877
 30
0.0
 11
436.956670646
 21
312.4713306877
 31
0.0
  0
LINE
  5
23C
330
1B
100
AcDbEntity
 67
     1
  8
SLD-0
  6
PHANTOM
 62
     7
100
AcDbLine
 10
420.756664626
 20
306.6713310377
 30
0.0
 11
420.756669446
 21
308.0713308877
 31
0.0
  0
LINE
  5
23D
330
1B
100
AcDbEntity
 67
     1
  8
SLD-0
  6
PHANTOM
 62
     7
100
AcDbLine
 10
416.956674816
 20
321.4713312277
 30
0.0
 11
416.831668976
 21
321.2548248077
 31
0.0
  0
LINE
  5
23E
330
1B
100
AcDbEntity
 67
     1
  8
SLD-0
  6
PHANTOM
 62
     7
100
AcDbLine
 10
421.356666956
 20
308.7713281077
 30
0.0
 11
421.356672286
 21
312.9713282677
 31
0.0
  0
LINE
  5
23F
330
1B
100
AcDbEntity
 67
     1
  8
SLD-0
  6
PHANTOM
 62
     7
100
AcDbLine
 10
371.956669746
 20
301.0713306077
 30
0.0
 11
433.356669306
 21
301.0713306077
 31
0.0
  0
LINE
  5
240
330
1B
100
AcDbEntity
 67
     1
  8
SLD-0
  6
PHANTOM
 62
     7
100
AcDbLine
 10
397.256669166
 20
333.8713306577
 30
0.0
 11
420.756664636
 21
333.8713306577
 31
0.0
  0
LINE
  5
241
330
1B
100
AcDbEntity
 67
     1
  8
SLD-0
  6
PHANTOM
 62
     7
100
AcDbLine
 10
136.324573976
 20
550.7157431187
 30
0.0
 11
136.324573976
 21
522.5157425987
 31
0.0
  0
LINE
  5
242
330
1B
100
AcDbEntity
 67
     1
  8
SLD-0
  6
PHANTOM
 62
     7
100
AcDbLine
 10
142.324567926
 20
456.0157466677
 30
0.0
 11
142.324571226
 21
519.4157497287
 31
0.0
  0
LINE
  5
243
330
1B
100
AcDbEntity
 67
     1
  8
SLD-0
  6
CONTINUOUS
 62
     7
100
AcDbLine
 10
435.3566695711
 20
229.2213322077
 30
0.0
 11
435.3566734811
 21
227.2213319877
 31
0.0
  0
LINE
  5
244
330
1B
100
AcDbEntity
 67
     1
  8
SLD-0
  6
CONTINUOUS
 62
     7
100
AcDbLine
 10
466.6566667611
 20
228.7213351277
 30
0.0
 11
466.9566718411
 21
229.0213327577
 31
0.0
  0
LINE
  5
245
330
1B
100
AcDbEntity
 67
     1
  8
SLD-0
  6
CONTINUOUS
 62
     7
100
AcDbLine
 10
466.9566718411
 20
229.4706698177
 30
0.0
 11
466.9566718411
 21
229.0213327577
 31
0.0
  0
LINE
  5
246
330
1B
100
AcDbEntity
 67
     1
  8
SLD-0
  6
PHANTOM
 62
     7
100
AcDbLine
 10
395.256665116
 20
305.0713306877
 30
0.0
 11
397.256669166
 21
305.0713306877
 31
0.0
  0
LINE
  5
247
330
1B
100
AcDbEntity
 67
     1
  8
SLD-0
  6
PHANTOM
 62
     7
100
AcDbLine
 10
420.756664636
 20
332.2713296477
 30
0.0
 11
420.756669466
 21
330.8713306077
 31
0.0
  0
LINE
  5
248
330
1B
100
AcDbEntity
 67
     1
  8
SLD-0
  6
PHANTOM
 62
     7
100
AcDbLine
 10
419.756669466
 20
329.8713306077
 30
0.0
 11
398.256669466
 21
329.8713306077
 31
0.0
  0
LINE
  5
249
330
1B
100
AcDbEntity
 67
     1
  8
SLD-0
  6
PHANTOM
 62
     7
100
AcDbLine
 10
134.824570936
 20
521.0157470087
 30
0.0
 11
134.824570936
 21
519.4157497287
 31
0.0
  0
LINE
  5
24A
330
1B
100
AcDbEntity
 67
     1
  8
SLD-0
  6
PHANTOM
 62
     7
100
AcDbLine
 10
134.824570486
 20
517.4157461087
 30
0.0
 11
134.824573506
 21
458.0157462587
 31
0.0
  0
LINE
  5
24B
330
1B
100
AcDbEntity
 67
     1
  8
SLD-0
  6
PHANTOM
 62
     7
100
AcDbLine
 10
139.824573616
 20
521.0157470087
 30
0.0
 11
140.724573946
 21
521.0157470087
 31
0.0
  0
LINE
  5
24C
330
1B
100
AcDbEntity
 67
     1
  8
SLD-0
  6
PHANTOM
 62
     7
100
AcDbLine
 10
139.725160516
 20
550.7157431187
 30
0.0
 11
140.324574626
 21
550.7157431187
 31
0.0
  0
LINE
  5
24D
330
1B
100
AcDbEntity
 67
     1
  8
SLD-0
  6
PHANTOM
 62
     7
100
AcDbLine
 10
140.824575646
 20
521.0157470087
 30
0.0
 11
141.824577666
 21
521.0157470087
 31
0.0
  0
LINE
  5
24E
330
1B
100
AcDbEntity
 67
     1
  8
SLD-0
  6
CONTINUOUS
 62
     7
100
AcDbLine
 10
436.9566706511
 20
234.2213313677
 30
0.0
 11
436.5185616111
 21
234.2213313677
 31
0.0
  0
LINE
  5
24F
330
1B
100
AcDbEntity
 67
     1
  8
SLD-0
  6
CONTINUOUS
 62
     7
100
AcDbLine
 10
466.6566667611
 20
230.2875440277
 30
0.0
 11
466.9566718411
 21
230.4374720577
 31
0.0
  0
LINE
  5
250
330
1B
100
AcDbEntity
 67
     1
  8
SLD-0
  6
CONTINUOUS
 62
     7
100
AcDbLine
 10
465.7566664311
 20
229.3207417877
 30
0.0
 11
466.6566667611
 21
229.3207417877
 31
0.0
  0
LINE
  5
251
330
1B
100
AcDbEntity
 67
     1
  8
SLD-0
  6
CONTINUOUS
 62
     7
100
AcDbLine
 10
438.4566694711
 20
233.4713323077
 30
0.0
 11
438.4566694711
 21
227.9713323077
 31
0.0
  0
LINE
  5
252
330
1B
100
AcDbEntity
 67
     1
  8
SLD-0
  6
PHANTOM
 62
     7
100
AcDbLine
 10
432.456668976
 20
324.9713308777
 30
0.0
 11
435.356673366
 21
324.9713308777
 31
0.0
  0
LINE
  5
253
330
1B
100
AcDbEntity
 67
     1
  8
SLD-0
  6
PHANTOM
 62
     7
100
AcDbLine
 10
435.356673366
 20
299.4713306077
 30
0.0
 11
433.356669306
 21
299.4713306077
 31
0.0
  0
LINE
  5
254
330
1B
100
AcDbEntity
 67
     1
  8
SLD-0
  6
PHANTOM
 62
     7
100
AcDbLine
 10
420.756664636
 20
333.8713306577
 30
0.0
 11
420.756664636
 21
332.2713296477
 31
0.0
  0
LINE
  5
255
330
1B
100
AcDbEntity
 67
     1
  8
SLD-0
  6
PHANTOM
 62
     7
100
AcDbLine
 10
421.356674796
 20
326.3713303577
 30
0.0
 11
422.756668686
 21
326.3713303577
 31
0.0
  0
LINE
  5
256
330
1B
100
AcDbEntity
 67
     1
  8
SLD-0
  6
PHANTOM
 62
     7
100
AcDbLine
 10
410.956662656
 20
311.2713308577
 30
0.0
 11
410.956662656
 21
327.6713300077
 31
0.0
  0
LINE
  5
257
330
1B
100
AcDbEntity
 67
     1
  8
SLD-0
  6
PHANTOM
 62
     7
100
AcDbLine
 10
386.956666176
 20
321.2548248077
 30
0.0
 11
386.956666176
 21
317.6878369977
 31
0.0
  0
LINE
  5
258
330
1B
100
AcDbEntity
 67
     1
  8
SLD-0
  6
PHANTOM
 62
     7
100
AcDbLine
 10
422.756668686
 20
333.8713306577
 30
0.0
 11
420.756664636
 21
333.8713306577
 31
0.0
  0
LINE
  5
259
330
1B
100
AcDbEntity
 67
     1
  8
SLD-0
  6
PHANTOM
 62
     7
100
AcDbLine
 10
410.956662656
 20
309.2713305377
 30
0.0
 11
408.956673506
 21
309.2713305377
 31
0.0
  0
LINE
  5
25A
330
1B
100
AcDbEntity
 67
     1
  8
SLD-0
  6
PHANTOM
 62
     7
100
AcDbLine
 10
411.356669426
 20
329.8713299977
 30
0.0
 11
411.356669426
 21
329.6713303377
 31
0.0
  0
LINE
  5
25B
330
1B
100
AcDbEntity
 67
     1
  8
SLD-0
  6
PHANTOM
 62
     7
100
AcDbLine
 10
408.956673506
 20
317.6878369977
 30
0.0
 11
386.956666176
 21
317.6878369977
 31
0.0
  0
LINE
  5
25C
330
1B
100
AcDbEntity
 67
     1
  8
SLD-0
  6
PHANTOM
 62
     7
100
AcDbLine
 10
408.956673506
 20
309.2713305377
 30
0.0
 11
408.956673506
 21
311.2713308577
 31
0.0
  0
LINE
  5
25D
330
1B
100
AcDbEntity
 67
     1
  8
SLD-0
  6
PHANTOM
 62
     7
100
AcDbLine
 10
408.956673506
 20
311.2713308577
 30
0.0
 11
408.956673506
 21
327.6713300077
 31
0.0
  0
LINE
  5
25E
330
1B
100
AcDbEntity
 67
     1
  8
SLD-0
  6
PHANTOM
 62
     7
100
AcDbLine
 10
416.831668976
 20
317.6878369977
 30
0.0
 11
410.956662656
 21
317.6878369977
 31
0.0
  0
LINE
  5
25F
330
1B
100
AcDbEntity
 67
     1
  8
SLD-0
  6
CONTINUOUS
 62
     7
100
AcDbLine
 10
436.9566720411
 20
227.2213319877
 30
0.0
 11
435.3566734811
 21
227.2213319877
 31
0.0
  0
LINE
  5
260
330
1B
100
AcDbEntity
 67
     1
  8
SLD-0
  6
CONTINUOUS
 62
     7
100
AcDbLine
 10
435.2931646211
 20
228.7213351277
 30
0.0
 11
435.3566733711
 21
228.7213351277
 31
0.0
  0
LINE
  5
261
330
1B
100
AcDbEntity
 67
     1
  8
SLD-0
  6
CONTINUOUS
 62
     7
100
AcDbLine
 10
466.9566718411
 20
232.4213307077
 30
0.0
 11
466.6566667611
 21
232.7213357777
 31
0.0
  0
LINE
  5
262
330
1B
100
AcDbEntity
 67
     1
  8
SLD-0
  6
CONTINUOUS
 62
     7
100
AcDbLine
 10
436.9566708611
 20
233.1213322077
 30
0.0
 11
436.9566720411
 21
232.2213346677
 31
0.0
  0
LINE
  5
263
330
1B
100
AcDbEntity
 67
     1
  8
SLD-0
  6
CONTINUOUS
 62
     7
100
AcDbLine
 10
436.9566706511
 20
234.2213313677
 30
0.0
 11
436.9566706511
 21
233.2213293477
 31
0.0
  0
LINE
  5
264
330
1B
100
AcDbEntity
 67
     1
  8
SLD-0
  6
PHANTOM
 62
     7
100
AcDbLine
 10
465.756666426
 20
321.4237220177
 30
0.0
 11
465.756666426
 21
320.8990390977
 31
0.0
  0
LINE
  5
265
330
1B
100
AcDbEntity
 67
     1
  8
SLD-0
  6
PHANTOM
 62
     7
100
AcDbLine
 10
421.356669466
 20
325.9713306077
 30
0.0
 11
421.356669466
 21
330.1713306077
 31
0.0
  0
LINE
  5
266
330
1B
100
AcDbEntity
 67
     1
  8
SLD-0
  6
PHANTOM
 62
     7
100
AcDbLine
 10
395.256665116
 20
326.3713303577
 30
0.0
 11
408.956673506
 21
326.3713303577
 31
0.0
  0
LINE
  5
267
330
1B
100
AcDbEntity
 67
     1
  8
SLD-0
  6
PHANTOM
 62
     7
100
AcDbLine
 10
416.956674816
 20
317.4713305777
 30
0.0
 11
435.356673366
 21
317.4713305777
 31
0.0
  0
LINE
  5
268
330
1B
100
AcDbEntity
 67
     1
  8
SLD-0
  6
PHANTOM
 62
     7
100
AcDbLine
 10
466.656666756
 20
321.4713312277
 30
0.0
 11
466.656666756
 21
321.4237220177
 31
0.0
  0
LINE
  5
269
330
1B
100
AcDbEntity
 67
     1
  8
SLD-0
  6
PHANTOM
 62
     7
100
AcDbLine
 10
436.956670646
 20
331.4713310077
 30
0.0
 11
436.956670646
 21
326.4713301877
 31
0.0
  0
LINE
  5
26A
330
1B
100
AcDbEntity
 67
     1
  8
SLD-0
  6
PHANTOM
 62
     7
100
AcDbLine
 10
435.356673366
 20
331.4713310077
 30
0.0
 11
435.356673366
 21
326.4713301877
 31
0.0
  0
LINE
  5
26B
330
1B
100
AcDbEntity
 67
     1
  8
SLD-0
  6
PHANTOM
 62
     7
100
AcDbLine
 10
466.656666756
 20
321.4237220177
 30
0.0
 11
466.956671836
 21
321.1474638077
 31
0.0
  0
LINE
  5
26C
330
1B
100
AcDbEntity
 67
     1
  8
SLD-0
  6
PHANTOM
 62
     7
100
AcDbLine
 10
408.956673506
 20
323.4713296977
 30
0.0
 11
383.756671606
 21
323.4713296977
 31
0.0
  0
LINE
  5
26D
330
1B
100
AcDbEntity
 67
     1
  8
SLD-0
  6
PHANTOM
 62
     7
100
AcDbLine
 10
433.356669306
 20
299.4713306077
 30
0.0
 11
371.956669746
 21
299.4713306077
 31
0.0
  0
LINE
  5
26E
330
1B
100
AcDbEntity
 67
     1
  8
SLD-0
  6
PHANTOM
 62
     7
100
AcDbLine
 10
411.356669426
 20
309.2713305377
 30
0.0
 11
411.356669426
 21
309.0713308777
 31
0.0
  0
LINE
  5
26F
330
1B
100
AcDbEntity
 67
     1
  8
SLD-0
  6
PHANTOM
 62
     7
100
AcDbLine
 10
465.756666426
 20
321.4237220177
 30
0.0
 11
466.656666756
 21
321.4237220177
 31
0.0
  0
LINE
  5
270
330
1B
100
AcDbEntity
 67
     1
  8
SLD-0
  6
PHANTOM
 62
     7
100
AcDbLine
 10
438.456669466
 20
322.2213306077
 30
0.0
 11
438.456669466
 21
316.7213306077
 31
0.0
  0
LINE
  5
271
330
1B
100
AcDbEntity
 67
     1
  8
SLD-0
  6
PHANTOM
 62
     7
100
AcDbLine
 10
435.356673366
 20
321.4713312277
 30
0.0
 11
416.956674816
 21
321.4713312277
 31
0.0
  0
LINE
  5
272
330
1B
100
AcDbEntity
 67
     1
  8
SLD-0
  6
PHANTOM
 62
     7
100
AcDbLine
 10
410.956662656
 20
315.4713302477
 30
0.0
 11
416.756671436
 21
315.4713302477
 31
0.0
  0
LINE
  5
273
330
1B
100
AcDbEntity
 67
     1
  8
SLD-0
  6
PHANTOM
 62
     7
100
AcDbLine
 10
371.956669746
 20
337.8713313077
 30
0.0
 11
433.356669306
 21
337.8713313077
 31
0.0
  0
LINE
  5
274
330
1B
100
AcDbEntity
 67
     1
  8
SLD-0
  6
PHANTOM
 62
     7
100
AcDbLine
 10
397.256669166
 20
306.6713307577
 30
0.0
 11
397.256669166
 21
308.0713307077
 31
0.0
  0
LINE
  5
275
330
1B
100
AcDbEntity
 67
     1
  8
SLD-0
  6
PHANTOM
 62
     7
100
AcDbLine
 10
433.356669306
 20
301.0713306077
 30
0.0
 11
435.356673366
 21
301.0713306077
 31
0.0
  0
LINE
  5
276
330
1B
100
AcDbEntity
 67
     1
  8
SLD-0
  6
PHANTOM
 62
     7
100
AcDbLine
 10
435.356673366
 20
339.4713323177
 30
0.0
 11
435.356673366
 21
337.8713313077
 31
0.0
  0
LINE
  5
277
330
1B
100
AcDbEntity
 67
     1
  8
SLD-0
  6
PHANTOM
 62
     7
100
AcDbLine
 10
420.756664626
 20
306.6713310377
 30
0.0
 11
420.756664626
 21
305.0713306877
 31
0.0
  0
LINE
  5
278
330
1B
100
AcDbEntity
 67
     1
  8
SLD-0
  6
PHANTOM
 62
     7
100
AcDbLine
 10
466.656666756
 20
320.8990390977
 30
0.0
 11
466.656666756
 21
317.4713305777
 31
0.0
  0
LINE
  5
279
330
1B
100
AcDbEntity
 67
     1
  8
SLD-0
  6
PHANTOM
 62
     7
100
AcDbLine
 10
420.356672766
 20
313.9713309277
 30
0.0
 11
410.956662656
 21
313.9713309277
 31
0.0
  0
LINE
  5
27A
330
1B
100
AcDbEntity
 67
     1
  8
SLD-0
  6
PHANTOM
 62
     7
100
AcDbLine
 10
416.831668976
 20
321.2548248077
 30
0.0
 11
410.956662656
 21
321.2548248077
 31
0.0
  0
LINE
  5
27B
330
1B
100
AcDbEntity
 67
     1
  8
SLD-0
  6
PHANTOM
 62
     7
100
AcDbLine
 10
410.956662656
 20
309.2713305377
 30
0.0
 11
411.356669426
 21
309.2713305377
 31
0.0
  0
LINE
  5
27C
330
1B
100
AcDbEntity
 67
     1
  8
SLD-0
  6
PHANTOM
 62
     7
100
AcDbLine
 10
435.356673366
 20
312.4713306877
 30
0.0
 11
435.356673366
 21
307.4713307977
 31
0.0
  0
LINE
  5
27D
330
1B
100
AcDbEntity
 67
     1
  8
SLD-0
  6
PHANTOM
 62
     7
100
AcDbLine
 10
410.956662656
 20
324.9713308777
 30
0.0
 11
420.356669466
 21
324.9713306077
 31
0.0
  0
LINE
  5
27E
330
1B
100
AcDbEntity
 67
     1
  8
SLD-0
  6
PHANTOM
 62
     7
100
AcDbLine
 10
465.756666426
 20
320.8990390977
 30
0.0
 11
466.656666756
 21
320.8990390977
 31
0.0
  0
LINE
  5
27F
330
1B
100
AcDbEntity
 67
     1
  8
SLD-0
  6
PHANTOM
 62
     7
100
AcDbLine
 10
397.256669166
 20
333.8713306577
 30
0.0
 11
395.256665116
 21
333.8713306577
 31
0.0
  0
LINE
  5
280
330
1B
100
AcDbEntity
 67
     1
  8
SLD-0
  6
PHANTOM
 62
     7
100
AcDbLine
 10
435.356673366
 20
326.4713301877
 30
0.0
 11
435.356673366
 21
312.4713306877
 31
0.0
  0
LINE
  5
281
330
1B
100
AcDbEntity
 67
     1
  8
SLD-0
  6
PHANTOM
 62
     7
100
AcDbLine
 10
433.356669306
 20
339.4713323177
 30
0.0
 11
371.956669746
 21
339.4713323177
 31
0.0
  0
LINE
  5
282
330
1B
100
AcDbEntity
 67
     1
  8
SLD-0
  6
CONTINUOUS
 62
     7
100
AcDbLine
 10
435.3566734811
 20
234.7213323877
 30
0.0
 11
435.3566734811
 21
233.1213350077
 31
0.0
  0
LINE
  5
283
330
1B
100
AcDbEntity
 67
     1
  8
SLD-0
  6
PHANTOM
 62
     7
100
AcDbLine
 10
136.624571606
 20
551.0157481987
 30
0.0
 11
138.608437696
 21
551.0157481987
 31
0.0
  0
LINE
  5
284
330
1B
100
AcDbEntity
 67
     1
  8
SLD-0
  6
PHANTOM
 62
     7
100
AcDbLine
 10
135.574573956
 20
522.5157458287
 30
0.0
 11
139.636282546
 21
522.5157425987
 31
0.0
  0
LINE
  5
285
330
1B
100
AcDbEntity
 67
     1
  8
SLD-0
  6
PHANTOM
 62
     7
100
AcDbLine
 10
139.725160516
 20
549.8157427887
 30
0.0
 11
139.725160516
 21
550.7157431187
 31
0.0
  0
LINE
  5
286
330
1B
100
AcDbEntity
 67
     1
  8
SLD-0
  6
PHANTOM
 62
     7
100
AcDbLine
 10
139.575239936
 20
551.0157481987
 30
0.0
 11
140.024577006
 21
551.0157481987
 31
0.0
  0
LINE
  5
287
330
1B
100
AcDbEntity
 67
     1
  8
SLD-0
  6
PHANTOM
 62
     7
100
AcDbLine
 10
136.824573506
 20
456.0157462587
 30
0.0
 11
142.324567926
 21
456.0157466677
 31
0.0
  0
LINE
  5
288
330
1B
100
AcDbEntity
 67
     1
  8
SLD-0
  6
PHANTOM
 62
     7
100
AcDbLine
 10
136.824574986
 20
519.4157497287
 30
0.0
 11
142.324571226
 21
519.4157497287
 31
0.0
  0
LINE
  5
289
330
1B
100
AcDbEntity
 67
     1
  8
SLD-0
  6
PHANTOM
 62
     7
100
AcDbLine
 10
141.824577666
 20
521.0157470087
 30
0.0
 11
141.824577666
 21
520.5776379687
 31
0.0
  0
LINE
  5
28A
330
1B
100
AcDbEntity
 67
     1
  8
SLD-0
  6
PHANTOM
 62
     7
100
AcDbLine
 10
134.824570936
 20
521.0157470087
 30
0.0
 11
139.824573616
 21
521.0157470087
 31
0.0
  0
LINE
  5
28B
330
1B
100
AcDbEntity
 67
     1
  8
SLD-0
  6
PHANTOM
 62
     7
100
AcDbLine
 10
138.758358276
 20
549.8157427887
 30
0.0
 11
138.758358276
 21
550.7157431187
 31
0.0
  0
LINE
  5
28C
330
1B
100
AcDbEntity
 67
     1
  8
SLD-0
  6
CONTINUOUS
 62
     7
100
AcDbLine
 10
466.6566667611
 20
232.7213357777
 30
0.0
 11
466.6566667611
 21
230.2875440277
 31
0.0
  0
LINE
  5
28D
330
1B
100
AcDbEntity
 67
     1
  8
SLD-0
  6
CONTINUOUS
 62
     7
100
AcDbLine
 10
371.9566697511
 20
234.7213323877
 30
0.0
 11
435.3566734811
 21
234.7213323877
 31
0.0
  0
LINE
  5
28E
330
1B
100
AcDbEntity
 67
     1
  8
SLD-0
  6
CONTINUOUS
 62
     7
100
AcDbLine
 10
371.956669777
 20
376.7213281977
 30
0.0
 11
371.956670186
 21
371.2213337777
 31
0.0
  0
LINE
  5
28F
330
1B
100
AcDbEntity
 67
     1
  8
SLD-0
  6
CONTINUOUS
 62
     7
100
AcDbLine
 10
435.3566695711
 20
229.2213322077
 30
0.0
 11
435.3566734811
 21
233.1213350077
 31
0.0
  0
LINE
  5
290
330
1B
100
AcDbEntity
 67
     1
  8
SLD-0
  6
CONTINUOUS
 62
     7
100
AcDbLine
 10
438.456666117
 20
373.9096191577
 30
0.0
 11
438.456669347
 21
372.4713277477
 31
0.0
  0
LINE
  5
291
330
1B
100
AcDbEntity
 67
     1
  8
SLD-0
  6
CONTINUOUS
 62
     7
100
AcDbLine
 10
466.656666637
 20
373.8207411877
 30
0.0
 11
466.656666637
 21
373.2213270777
 31
0.0
  0
LINE
  5
292
330
1B
100
AcDbEntity
 67
     1
  8
SLD-0
  6
CONTINUOUS
 62
     7
100
AcDbLine
 10
466.656666637
 20
373.2213270777
 30
0.0
 11
466.956671717
 21
373.5213246977
 31
0.0
  0
LINE
  5
293
330
1B
100
AcDbEntity
 67
     1
  8
SLD-0
  6
CONTINUOUS
 62
     7
100
AcDbLine
 10
371.9566694711
 20
229.2213323077
 30
0.0
 11
371.9566697511
 21
234.7213323877
 31
0.0
  0
LINE
  5
294
330
1B
100
AcDbEntity
 67
     1
  8
SLD-0
  6
PHANTOM
 62
     7
100
AcDbLine
 10
140.324574626
 20
522.5157425987
 30
0.0
 11
140.324574626
 21
550.7157431187
 31
0.0
  0
LINE
  5
295
330
1B
100
AcDbEntity
 67
     1
  8
SLD-0
  6
PHANTOM
 62
     7
100
AcDbLine
 10
139.636282546
 20
522.5157425987
 30
0.0
 11
141.074573956
 21
522.5157458287
 31
0.0
  0
LINE
  5
296
330
1B
100
AcDbEntity
 67
     1
  8
SLD-0
  6
PHANTOM
 62
     7
100
AcDbLine
 10
138.758358276
 20
549.8157427887
 30
0.0
 11
139.725160516
 21
549.8157427887
 31
0.0
  0
LINE
  5
297
330
1B
100
AcDbEntity
 67
     1
  8
SLD-0
  6
PHANTOM
 62
     7
100
AcDbLine
 10
140.824575646
 20
521.0157470087
 30
0.0
 11
140.824575646
 21
521.0126177587
 31
0.0
  0
LINE
  5
298
330
1B
100
AcDbEntity
 67
     1
  8
SLD-0
  6
PHANTOM
 62
     7
100
AcDbLine
 10
136.324573976
 20
519.4157497287
 30
0.0
 11
136.324573976
 21
519.3522409787
 31
0.0
  0
LINE
  5
299
330
1B
100
AcDbEntity
 67
     1
  8
SLD-0
  6
PHANTOM
 62
     7
100
AcDbLine
 10
136.624571606
 20
551.0157481987
 30
0.0
 11
136.324573976
 21
550.7157431187
 31
0.0
  0
LINE
  5
29A
330
1B
100
AcDbEntity
 67
     1
  8
SLD-0
  6
CONTINUOUS
 62
     7
100
AcDbLine
 10
466.9566718411
 20
232.4213307077
 30
0.0
 11
466.9566718411
 21
230.4374720577
 31
0.0
  0
LINE
  5
29B
330
1B
100
AcDbEntity
 67
     1
  8
SLD-0
  6
CONTINUOUS
 62
     7
100
AcDbLine
 10
466.6566667611
 20
232.7213357777
 30
0.0
 11
438.4566662411
 21
232.7213357777
 31
0.0
  0
LINE
  5
29C
330
1B
100
AcDbEntity
 67
     1
  8
SLD-0
  6
CONTINUOUS
 62
     7
100
AcDbLine
 10
197.274569536
 20
378.7213349677
 30
0.0
 11
180.874568526
 21
378.7213349677
 31
0.0
  0
LINE
  5
29D
330
1B
100
AcDbEntity
 67
     1
  8
SLD-0
  6
CONTINUOUS
 62
     7
100
AcDbLine
 10
169.074566116
 20
376.7213328677
 30
0.0
 11
169.074566116
 21
374.9213322077
 31
0.0
  0
LINE
  5
29E
330
1B
100
AcDbEntity
 67
     1
  8
SLD-0
  6
CONTINUOUS
 62
     7
100
AcDbLine
 10
207.474567246
 20
376.7213328677
 30
0.0
 11
207.474567246
 21
374.9213322077
 31
0.0
  0
LINE
  5
29F
330
1B
100
AcDbEntity
 67
     1
  8
SLD-0
  6
CONTINUOUS
 62
     7
100
AcDbLine
 10
207.474567246
 20
378.7213369277
 30
0.0
 11
209.074567206
 21
378.7213369277
 31
0.0
  0
LINE
  5
2A0
330
1B
100
AcDbEntity
 67
     1
  8
SLD-0
  6
CONTINUOUS
 62
     7
100
AcDbLine
 10
169.074566116
 20
378.7213369277
 30
0.0
 11
170.674567126
 21
378.7213369277
 31
0.0
  0
LINE
  5
2A1
330
1B
100
AcDbEntity
 67
     1
  8
SLD-0
  6
CONTINUOUS
 62
     7
100
AcDbLine
 10
169.074566116
 20
376.7213328677
 30
0.0
 11
169.074566116
 21
378.7213369277
 31
0.0
  0
LINE
  5
2A2
330
1B
100
AcDbEntity
 67
     1
  8
SLD-0
  6
CONTINUOUS
 62
     7
100
AcDbLine
 10
201.874567196
 20
376.5213339077
 30
0.0
 11
200.474566796
 21
376.5213369377
 31
0.0
  0
LINE
  5
2A3
330
1B
100
AcDbEntity
 67
     1
  8
SLD-0
  6
CONTINUOUS
 62
     7
100
AcDbLine
 10
177.674566406
 20
376.5213369377
 30
0.0
 11
178.674566576
 21
376.5213369377
 31
0.0
  0
LINE
  5
2A4
330
1B
100
AcDbEntity
 67
     1
  8
SLD-0
  6
CONTINUOUS
 62
     7
100
AcDbLine
 10
176.274567196
 20
376.5213339077
 30
0.0
 11
177.674566406
 21
376.5213369377
 31
0.0
  0
LINE
  5
2A5
330
1B
100
AcDbEntity
 67
     1
  8
SLD-0
  6
CONTINUOUS
 62
     7
100
AcDbLine
 10
177.932103176
 20
376.5213369377
 30
0.0
 11
178.539033056
 21
377.2568657077
 31
0.0
  0
LINE
  5
2A6
330
1B
100
AcDbEntity
 67
     1
  8
SLD-0
  6
CONTINUOUS
 62
     7
100
AcDbLine
 10
198.952096526
 20
377.8103246377
 30
0.0
 11
199.610101076
 21
377.2568657077
 31
0.0
  0
LINE
  5
2A7
330
1B
100
AcDbEntity
 67
     1
  8
SLD-0
  6
PHANTOM
 62
     7
100
AcDbLine
 10
136.824564566
 20
276.1713337277
 30
0.0
 11
138.574564386
 21
276.1713337277
 31
0.0
  0
LINE
  5
2A8
330
1B
100
AcDbEntity
 67
     1
  8
SLD-0
  6
PHANTOM
 62
     7
100
AcDbLine
 10
136.824564271
 20
296.5713338027
 30
0.0
 11
138.574564091
 21
296.5713338027
 31
0.0
  0
LINE
  5
2A9
330
1B
100
AcDbEntity
 67
     1
  8
SLD-0
  6
PHANTOM
 62
     7
100
AcDbLine
 10
136.824564086
 20
304.7713340277
 30
0.0
 11
134.824567486
 21
304.7713340277
 31
0.0
  0
LINE
  5
2AA
330
1B
100
AcDbEntity
 67
     1
  8
SLD-0
  6
PHANTOM
 62
     7
100
AcDbLine
 10
136.824564086
 20
266.3713349977
 30
0.0
 11
138.574563916
 21
266.3713349977
 31
0.0
  0
LINE
  5
2AB
330
1B
100
AcDbEntity
 67
     1
  8
SLD-0
  6
PHANTOM
 62
     7
100
AcDbLine
 10
136.824564086
 20
306.3713340977
 30
0.0
 11
138.574563916
 21
306.3713340977
 31
0.0
  0
LINE
  5
2AC
330
1B
100
AcDbEntity
 67
     1
  8
SLD-0
  6
PHANTOM
 62
     7
100
AcDbLine
 10
134.824567486
 20
266.3713349977
 30
0.0
 11
134.824567486
 21
267.9713322777
 31
0.0
  0
LINE
  5
2AD
330
1B
100
AcDbEntity
 67
     1
  8
SLD-0
  6
PHANTOM
 62
     7
100
AcDbLine
 10
134.824567486
 20
267.9713322777
 30
0.0
 11
136.824564086
 21
267.9713322777
 31
0.0
  0
LINE
  5
2AE
330
1B
100
AcDbEntity
 67
     1
  8
SLD-0
  6
PHANTOM
 62
     7
100
AcDbLine
 10
137.024567476
 20
296.7713338777
 30
0.0
 11
137.024567476
 21
297.7713339277
 31
0.0
  0
LINE
  5
2AF
330
1B
100
AcDbEntity
 67
     1
  8
SLD-0
  6
PHANTOM
 62
     7
100
AcDbLine
 10
137.024567196
 20
273.5713339077
 30
0.0
 11
137.024567476
 21
274.9713334277
 31
0.0
  0
LINE
  5
2B0
330
1B
100
AcDbEntity
 67
     1
  8
SLD-0
  6
PHANTOM
 62
     7
100
AcDbLine
 10
137.024567476
 20
274.9713334277
 30
0.0
 11
137.024567476
 21
275.9713335877
 31
0.0
  0
LINE
  5
2B1
330
1B
100
AcDbEntity
 67
     1
  8
SLD-0
  6
PHANTOM
 62
     7
100
AcDbLine
 10
136.289031256
 20
275.8358000777
 30
0.0
 11
135.735579776
 21
276.4938036877
 31
0.0
  0
LINE
  5
2B2
330
1B
100
AcDbEntity
 67
     1
  8
SLD-0
  6
PHANTOM
 62
     7
100
AcDbLine
 10
136.289031256
 20
296.9068678577
 30
0.0
 11
137.024567476
 21
297.5137969277
 31
0.0
  0
LINE
  5
2B3
330
1B
100
AcDbEntity
 67
     1
  8
SLD-0
  6
PHANTOM
 62
     7
100
AcDbLine
 10
284.324564196
 20
329.6713346977
 30
0.0
 11
282.574564376
 21
329.6713346977
 31
0.0
  0
LINE
  5
2B4
330
1B
100
AcDbEntity
 67
     1
  8
SLD-0
  6
PHANTOM
 62
     7
100
AcDbLine
 10
284.324564986
 20
301.0713339077
 30
0.0
 11
286.324569036
 21
301.0713339077
 31
0.0
  0
LINE
  5
2B5
330
1B
100
AcDbEntity
 67
     1
  8
SLD-0
  6
PHANTOM
 62
     7
100
AcDbLine
 10
286.324569036
 20
299.4713339077
 30
0.0
 11
284.324564986
 21
299.4713339077
 31
0.0
  0
LINE
  5
2B6
330
1B
100
AcDbEntity
 67
     1
  8
SLD-0
  6
PHANTOM
 62
     7
100
AcDbLine
 10
284.324564986
 20
337.8713346077
 30
0.0
 11
282.574565166
 21
337.8713346077
 31
0.0
  0
LINE
  5
2B7
330
1B
100
AcDbEntity
 67
     1
  8
SLD-0
  6
PHANTOM
 62
     7
100
AcDbLine
 10
284.324564986
 20
299.4713339077
 30
0.0
 11
282.574565166
 21
299.4713339077
 31
0.0
  0
LINE
  5
2B8
330
1B
100
AcDbEntity
 67
     1
  8
SLD-0
  6
PHANTOM
 62
     7
100
AcDbLine
 10
284.324564986
 20
339.4713356177
 30
0.0
 11
286.324569036
 21
339.4713356177
 31
0.0
  0
LINE
  5
2B9
330
1B
100
AcDbEntity
 67
     1
  8
SLD-0
  6
PHANTOM
 62
     7
100
AcDbLine
 10
284.124569046
 20
306.6713340577
 30
0.0
 11
284.124569046
 21
308.0713340077
 31
0.0
  0
LINE
  5
2BA
330
1B
100
AcDbEntity
 67
     1
  8
SLD-0
  6
PHANTOM
 62
     7
100
AcDbLine
 10
284.124569046
 20
309.0713341677
 30
0.0
 11
284.124569046
 21
308.0713340077
 31
0.0
  0
LINE
  5
2BB
330
1B
100
AcDbEntity
 67
     1
  8
SLD-0
  6
PHANTOM
 62
     7
100
AcDbLine
 10
284.124569046
 20
329.8713332977
 30
0.0
 11
282.574565166
 21
329.8713332977
 31
0.0
  0
LINE
  5
2BC
330
1B
100
AcDbEntity
 67
     1
  8
SLD-0
  6
PHANTOM
 62
     7
100
AcDbLine
 10
284.124569046
 20
330.6137985577
 30
0.0
 11
284.860097816
 21
330.0068686677
 31
0.0
  0
LINE
  5
2BD
330
1B
100
AcDbEntity
 67
     1
  8
SLD-0
  6
PHANTOM
 62
     7
100
AcDbLine
 10
285.413556746
 20
309.5938042677
 30
0.0
 11
284.860097816
 21
308.9357997277
 31
0.0
  0
LINE
  5
2BE
330
1B
100
AcDbEntity
 67
     1
  8
SLD-0
  6
CONTINUOUS
 62
     7
100
AcDbLine
 10
242.274567706
 20
229.1213308077
 30
0.0
 11
242.274567706
 21
230.9213314777
 31
0.0
  0
LINE
  5
2BF
330
1B
100
AcDbEntity
 67
     1
  8
SLD-0
  6
CONTINUOUS
 62
     7
100
AcDbLine
 10
221.874566766
 20
229.1213302877
 30
0.0
 11
221.874566766
 21
230.9213309577
 31
0.0
  0
LINE
  5
2C0
330
1B
100
AcDbEntity
 67
     1
  8
SLD-0
  6
CONTINUOUS
 62
     7
100
AcDbLine
 10
250.474565676
 20
229.1213302877
 30
0.0
 11
250.474565676
 21
230.9213309577
 31
0.0
  0
LINE
  5
2C1
330
1B
100
AcDbEntity
 67
     1
  8
SLD-0
  6
CONTINUOUS
 62
     7
100
AcDbLine
 10
213.674567186
 20
229.1213302877
 30
0.0
 11
213.674567186
 21
230.9213309577
 31
0.0
  0
LINE
  5
2C2
330
1B
100
AcDbEntity
 67
     1
  8
SLD-0
  6
CONTINUOUS
 62
     7
100
AcDbLine
 10
213.674567186
 20
229.1213302877
 30
0.0
 11
213.674567186
 21
227.1213336877
 31
0.0
  0
LINE
  5
2C3
330
1B
100
AcDbEntity
 67
     1
  8
SLD-0
  6
CONTINUOUS
 62
     7
100
AcDbLine
 10
252.074566686
 20
227.1213336877
 30
0.0
 11
250.474565676
 21
227.1213336877
 31
0.0
  0
LINE
  5
2C4
330
1B
100
AcDbEntity
 67
     1
  8
SLD-0
  6
CONTINUOUS
 62
     7
100
AcDbLine
 10
252.074566686
 20
229.1213302877
 30
0.0
 11
252.074566686
 21
227.1213336877
 31
0.0
  0
LINE
  5
2C5
330
1B
100
AcDbEntity
 67
     1
  8
SLD-0
  6
CONTINUOUS
 62
     7
100
AcDbLine
 10
221.674567106
 20
230.9213309577
 30
0.0
 11
221.674567106
 21
229.3213336677
 31
0.0
  0
LINE
  5
2C6
330
1B
100
AcDbEntity
 67
     1
  8
SLD-0
  6
CONTINUOUS
 62
     7
100
AcDbLine
 10
242.474568086
 20
229.3213336677
 30
0.0
 11
242.474568086
 21
230.9213309577
 31
0.0
  0
LINE
  5
2C7
330
1B
100
AcDbEntity
 67
     1
  8
SLD-0
  6
CONTINUOUS
 62
     7
100
AcDbLine
 10
243.474566386
 20
229.3213336677
 30
0.0
 11
242.474568086
 21
229.3213336677
 31
0.0
  0
LINE
  5
2C8
330
1B
100
AcDbEntity
 67
     1
  8
SLD-0
  6
CONTINUOUS
 62
     7
100
AcDbLine
 10
243.217029626
 20
229.3213336677
 30
0.0
 11
242.610101606
 21
228.5857974577
 31
0.0
  0
LINE
  5
2C9
330
1B
100
AcDbEntity
 67
     1
  8
SLD-0
  6
CONTINUOUS
 62
     7
100
AcDbLine
 10
242.610101606
 20
228.5857974577
 30
0.0
 11
241.952096126
 21
228.0323459777
 31
0.0
  0
LINE
  5
2CA
330
1B
100
AcDbEntity
 67
     1
  8
SLD-0
  6
CONTINUOUS
 62
     7
100
AcDbLine
 10
178.874568096
 20
376.7213328677
 30
0.0
 11
178.874568096
 21
374.9213322077
 31
0.0
  0
LINE
  5
2CB
330
1B
100
AcDbEntity
 67
     1
  8
SLD-0
  6
CONTINUOUS
 62
     7
100
AcDbLine
 10
199.274570666
 20
376.7213334577
 30
0.0
 11
199.274570446
 21
374.9213317677
 31
0.0
  0
LINE
  5
2CC
330
1B
100
AcDbEntity
 67
     1
  8
SLD-0
  6
CONTINUOUS
 62
     7
100
AcDbLine
 10
170.674567126
 20
376.7213328677
 30
0.0
 11
170.674567126
 21
374.9213322077
 31
0.0
  0
LINE
  5
2CD
330
1B
100
AcDbEntity
 67
     1
  8
SLD-0
  6
CONTINUOUS
 62
     7
100
AcDbLine
 10
209.074567206
 20
376.7213328677
 30
0.0
 11
209.074567206
 21
374.9213322077
 31
0.0
  0
LINE
  5
2CE
330
1B
100
AcDbEntity
 67
     1
  8
SLD-0
  6
CONTINUOUS
 62
     7
100
AcDbLine
 10
207.474567246
 20
376.7213328677
 30
0.0
 11
207.474567246
 21
378.7213369277
 31
0.0
  0
LINE
  5
2CF
330
1B
100
AcDbEntity
 67
     1
  8
SLD-0
  6
CONTINUOUS
 62
     7
100
AcDbLine
 10
209.074567206
 20
378.7213369277
 30
0.0
 11
209.074567206
 21
376.7213328677
 31
0.0
  0
LINE
  5
2D0
330
1B
100
AcDbEntity
 67
     1
  8
SLD-0
  6
CONTINUOUS
 62
     7
100
AcDbLine
 10
170.674567126
 20
378.7213369277
 30
0.0
 11
170.674567126
 21
376.7213328677
 31
0.0
  0
LINE
  5
2D1
330
1B
100
AcDbEntity
 67
     1
  8
SLD-0
  6
CONTINUOUS
 62
     7
100
AcDbLine
 10
199.474567556
 20
374.9213322077
 30
0.0
 11
199.474567556
 21
376.5213369377
 31
0.0
  0
LINE
  5
2D2
330
1B
100
AcDbEntity
 67
     1
  8
SLD-0
  6
CONTINUOUS
 62
     7
100
AcDbLine
 10
199.474567556
 20
376.5213369377
 30
0.0
 11
200.474566796
 21
376.5213369377
 31
0.0
  0
LINE
  5
2D3
330
1B
100
AcDbEntity
 67
     1
  8
SLD-0
  6
CONTINUOUS
 62
     7
100
AcDbLine
 10
178.674566576
 20
376.5213369377
 30
0.0
 11
178.674566576
 21
374.9213322077
 31
0.0
  0
LINE
  5
2D4
330
1B
100
AcDbEntity
 67
     1
  8
SLD-0
  6
CONTINUOUS
 62
     7
100
AcDbLine
 10
178.539033056
 20
377.2568657077
 30
0.0
 11
179.197038536
 21
377.8103246377
 31
0.0
  0
LINE
  5
2D5
330
1B
100
AcDbEntity
 67
     1
  8
SLD-0
  6
CONTINUOUS
 62
     7
100
AcDbLine
 10
199.610101076
 20
377.2568657077
 30
0.0
 11
200.217030026
 21
376.5213369377
 31
0.0
  0
LINE
  5
2D6
330
1B
100
AcDbEntity
 67
     1
  8
SLD-0
  6
PHANTOM
 62
     7
100
AcDbLine
 10
134.824567486
 20
294.5713341177
 30
0.0
 11
134.824567486
 21
278.1713335777
 31
0.0
  0
LINE
  5
2D7
330
1B
100
AcDbEntity
 67
     1
  8
SLD-0
  6
PHANTOM
 62
     7
100
AcDbLine
 10
134.824567486
 20
304.7713340277
 30
0.0
 11
134.824567486
 21
306.3713340977
 31
0.0
  0
LINE
  5
2D8
330
1B
100
AcDbEntity
 67
     1
  8
SLD-0
  6
PHANTOM
 62
     7
100
AcDbLine
 10
134.824567486
 20
306.3713340977
 30
0.0
 11
136.824564086
 21
306.3713340977
 31
0.0
  0
LINE
  5
2D9
330
1B
100
AcDbEntity
 67
     1
  8
SLD-0
  6
PHANTOM
 62
     7
100
AcDbLine
 10
136.824564086
 20
267.9713322777
 30
0.0
 11
138.574563916
 21
267.9713322777
 31
0.0
  0
LINE
  5
2DA
330
1B
100
AcDbEntity
 67
     1
  8
SLD-0
  6
PHANTOM
 62
     7
100
AcDbLine
 10
136.824564086
 20
304.7713340277
 30
0.0
 11
138.574563916
 21
304.7713340277
 31
0.0
  0
LINE
  5
2DB
330
1B
100
AcDbEntity
 67
     1
  8
SLD-0
  6
PHANTOM
 62
     7
100
AcDbLine
 10
136.824564086
 20
266.3713349977
 30
0.0
 11
134.824567486
 21
266.3713349977
 31
0.0
  0
LINE
  5
2DC
330
1B
100
AcDbEntity
 67
     1
  8
SLD-0
  6
PHANTOM
 62
     7
100
AcDbLine
 10
138.574563916
 20
296.7713338777
 30
0.0
 11
137.024567476
 21
296.7713338777
 31
0.0
  0
LINE
  5
2DD
330
1B
100
AcDbEntity
 67
     1
  8
SLD-0
  6
PHANTOM
 62
     7
100
AcDbLine
 10
137.024567196
 20
299.1713339077
 30
0.0
 11
137.024567476
 21
297.7713339277
 31
0.0
  0
LINE
  5
2DE
330
1B
100
AcDbEntity
 67
     1
  8
SLD-0
  6
PHANTOM
 62
     7
100
AcDbLine
 10
137.024567476
 20
275.9713335877
 30
0.0
 11
138.574563916
 21
275.9713335877
 31
0.0
  0
LINE
  5
2DF
330
1B
100
AcDbEntity
 67
     1
  8
SLD-0
  6
PHANTOM
 62
     7
100
AcDbLine
 10
137.024567476
 20
275.2288701977
 30
0.0
 11
136.289031256
 21
275.8358000777
 31
0.0
  0
LINE
  5
2E0
330
1B
100
AcDbEntity
 67
     1
  8
SLD-0
  6
PHANTOM
 62
     7
100
AcDbLine
 10
135.735579776
 20
296.2488630777
 30
0.0
 11
136.289031256
 21
296.9068678577
 31
0.0
  0
LINE
  5
2E1
330
1B
100
AcDbEntity
 67
     1
  8
SLD-0
  6
PHANTOM
 62
     7
100
AcDbLine
 10
286.324568116
 20
311.2713350777
 30
0.0
 11
286.324566276
 21
327.6713348277
 31
0.0
  0
LINE
  5
2E2
330
1B
100
AcDbEntity
 67
     1
  8
SLD-0
  6
PHANTOM
 62
     7
100
AcDbLine
 10
284.324567196
 20
309.2713339077
 30
0.0
 11
282.574565166
 21
309.2713339077
 31
0.0
  0
LINE
  5
2E3
330
1B
100
AcDbEntity
 67
     1
  8
SLD-0
  6
PHANTOM
 62
     7
100
AcDbLine
 10
286.324569036
 20
301.0713339077
 30
0.0
 11
286.324569036
 21
299.4713339077
 31
0.0
  0
LINE
  5
2E4
330
1B
100
AcDbEntity
 67
     1
  8
SLD-0
  6
PHANTOM
 62
     7
100
AcDbLine
 10
284.324564986
 20
339.4713356177
 30
0.0
 11
282.574565166
 21
339.4713356177
 31
0.0
  0
LINE
  5
2E5
330
1B
100
AcDbEntity
 67
     1
  8
SLD-0
  6
PHANTOM
 62
     7
100
AcDbLine
 10
284.324564986
 20
301.0713339077
 30
0.0
 11
282.574565166
 21
301.0713339077
 31
0.0
  0
LINE
  5
2E6
330
1B
100
AcDbEntity
 67
     1
  8
SLD-0
  6
PHANTOM
 62
     7
100
AcDbLine
 10
286.324569036
 20
339.4713356177
 30
0.0
 11
286.324569036
 21
337.8713346077
 31
0.0
  0
LINE
  5
2E7
330
1B
100
AcDbEntity
 67
     1
  8
SLD-0
  6
PHANTOM
 62
     7
100
AcDbLine
 10
286.324569036
 20
337.8713346077
 30
0.0
 11
284.324564986
 21
337.8713346077
 31
0.0
  0
LINE
  5
2E8
330
1B
100
AcDbEntity
 67
     1
  8
SLD-0
  6
PHANTOM
 62
     7
100
AcDbLine
 10
282.574565166
 20
309.0713341677
 30
0.0
 11
284.124569046
 21
309.0713341677
 31
0.0
  0
LINE
  5
2E9
330
1B
100
AcDbEntity
 67
     1
  8
SLD-0
  6
PHANTOM
 62
     7
100
AcDbLine
 10
284.124569046
 20
332.2713329477
 30
0.0
 11
284.124569046
 21
330.8713353177
 31
0.0
  0
LINE
  5
2EA
330
1B
100
AcDbEntity
 67
     1
  8
SLD-0
  6
PHANTOM
 62
     7
100
AcDbLine
 10
284.124569046
 20
330.8713353177
 30
0.0
 11
284.124569046
 21
329.8713332977
 31
0.0
  0
LINE
  5
2EB
330
1B
100
AcDbEntity
 67
     1
  8
SLD-0
  6
PHANTOM
 62
     7
100
AcDbLine
 10
284.860097816
 20
330.0068686677
 30
0.0
 11
285.413556746
 21
329.3488631977
 31
0.0
  0
LINE
  5
2EC
330
1B
100
AcDbEntity
 67
     1
  8
SLD-0
  6
PHANTOM
 62
     7
100
AcDbLine
 10
284.860097816
 20
308.9357997277
 30
0.0
 11
284.124569046
 21
308.3288707777
 31
0.0
  0
LINE
  5
2ED
330
1B
100
AcDbEntity
 67
     1
  8
SLD-0
  6
CONTINUOUS
 62
     7
100
AcDbLine
 10
223.874566986
 20
227.1213335877
 30
0.0
 11
240.274567086
 21
227.1213338077
 31
0.0
  0
LINE
  5
2EE
330
1B
100
AcDbEntity
 67
     1
  8
SLD-0
  6
CONTINUOUS
 62
     7
100
AcDbLine
 10
252.074566686
 20
229.1213302877
 30
0.0
 11
252.074566686
 21
230.9213309577
 31
0.0
  0
LINE
  5
2EF
330
1B
100
AcDbEntity
 67
     1
  8
SLD-0
  6
CONTINUOUS
 62
     7
100
AcDbLine
 10
212.074567116
 20
229.1213302877
 30
0.0
 11
212.074567116
 21
230.9213309577
 31
0.0
  0
LINE
  5
2F0
330
1B
100
AcDbEntity
 67
     1
  8
SLD-0
  6
CONTINUOUS
 62
     7
100
AcDbLine
 10
213.674567186
 20
227.1213336877
 30
0.0
 11
212.074567116
 21
227.1213336877
 31
0.0
  0
LINE
  5
2F1
330
1B
100
AcDbEntity
 67
     1
  8
SLD-0
  6
CONTINUOUS
 62
     7
100
AcDbLine
 10
212.074567116
 20
227.1213336877
 30
0.0
 11
212.074567116
 21
229.1213302877
 31
0.0
  0
LINE
  5
2F2
330
1B
100
AcDbEntity
 67
     1
  8
SLD-0
  6
CONTINUOUS
 62
     7
100
AcDbLine
 10
250.474565676
 20
227.1213336877
 30
0.0
 11
250.474565676
 21
229.1213302877
 31
0.0
  0
LINE
  5
2F3
330
1B
100
AcDbEntity
 67
     1
  8
SLD-0
  6
CONTINUOUS
 62
     7
100
AcDbLine
 10
219.274567196
 20
229.3213339077
 30
0.0
 11
220.674566936
 21
229.3213336677
 31
0.0
  0
LINE
  5
2F4
330
1B
100
AcDbEntity
 67
     1
  8
SLD-0
  6
CONTINUOUS
 62
     7
100
AcDbLine
 10
221.674567106
 20
229.3213336677
 30
0.0
 11
220.674566936
 21
229.3213336677
 31
0.0
  0
LINE
  5
2F5
330
1B
100
AcDbEntity
 67
     1
  8
SLD-0
  6
CONTINUOUS
 62
     7
100
AcDbLine
 10
244.874567196
 20
229.3213339077
 30
0.0
 11
243.474566386
 21
229.3213336677
 31
0.0
  0
LINE
  5
2F6
330
1B
100
AcDbEntity
 67
     1
  8
SLD-0
  6
CONTINUOUS
 62
     7
100
AcDbLine
 10
222.197038136
 20
228.0323459777
 30
0.0
 11
221.539033586
 21
228.5857974577
 31
0.0
  0
LINE
  5
2F7
330
1B
100
AcDbEntity
 67
     1
  8
SLD-0
  6
CONTINUOUS
 62
     7
100
AcDbLine
 10
221.539033586
 20
228.5857974577
 30
0.0
 11
220.932103706
 21
229.3213336677
 31
0.0
  0
LINE
  5
2F8
330
1B
100
AcDbEntity
 67
     1
  8
SLD-0
  6
CONTINUOUS
 62
     7
100
AcDbLine
 10
857.574565496
 20
399.9213317977
 30
0.0
 11
763.574564666
 21
399.9213317977
 31
0.0
  0
LINE
  5
2F9
330
1B
100
AcDbEntity
 67
     1
  8
SLD-0
  6
CONTINUOUS
 62
     7
100
AcDbLine
 10
178.874568086
 20
493.0157502777
 30
0.0
 11
178.874568086
 21
495.0157394277
 31
0.0
  0
LINE
  5
2FA
330
1B
100
AcDbEntity
 67
     1
  8
SLD-0
  6
CONTINUOUS
 62
     7
100
AcDbLine
 10
169.074566106
 20
519.4157501377
 30
0.0
 11
170.674567116
 21
519.4157501377
 31
0.0
  0
LINE
  5
2FB
330
1B
100
AcDbEntity
 67
     1
  8
SLD-0
  6
CONTINUOUS
 62
     7
100
AcDbLine
 10
465.756666307
 20
373.8207411877
 30
0.0
 11
466.656666637
 21
373.8207411877
 31
0.0
  0
LINE
  5
2FC
330
1B
100
AcDbEntity
 67
     1
  8
SLD-0
  6
CONTINUOUS
 62
     7
100
AcDbLine
 10
199.274567886
 20
493.0157502777
 30
0.0
 11
197.274567566
 21
493.0157502777
 31
0.0
  0
LINE
  5
2FD
330
1B
100
AcDbEntity
 67
     1
  8
SLD-0
  6
CONTINUOUS
 62
     7
100
AcDbLine
 10
170.674567116
 20
519.4157501377
 30
0.0
 11
170.674567116
 21
517.4157460777
 31
0.0
  0
LINE
  5
2FE
330
1B
100
AcDbEntity
 67
     1
  8
SLD-0
  6
CONTINUOUS
 62
     7
100
AcDbLine
 10
466.656666637
 20
374.7875434277
 30
0.0
 11
466.956671717
 21
374.9374640077
 31
0.0
  0
LINE
  5
2FF
330
1B
100
AcDbEntity
 67
     1
  8
SLD-0
  6
CONTINUOUS
 62
     7
100
AcDbLine
 10
185.074568726
 20
493.0157502777
 30
0.0
 11
185.074568726
 21
467.8157483777
 31
0.0
  0
LINE
  5
300
330
1B
100
AcDbEntity
 67
     1
  8
SLD-0
  6
CONTINUOUS
 62
     7
100
AcDbLine
 10
203.474567736
 20
506.8157454477
 30
0.0
 11
195.974567906
 21
506.8157454477
 31
0.0
  0
LINE
  5
301
330
1B
100
AcDbEntity
 67
     1
  8
SLD-0
  6
CONTINUOUS
 62
     7
100
AcDbLine
 10
176.274568776
 20
504.8157414077
 30
0.0
 11
177.674567816
 21
504.8157462377
 31
0.0
  0
LINE
  5
302
330
1B
100
AcDbEntity
 67
     1
  8
SLD-0
  6
CONTINUOUS
 62
     7
100
AcDbLine
 10
187.291073616
 20
471.0157429477
 30
0.0
 11
190.858061426
 21
471.0157429477
 31
0.0
  0
LINE
  5
303
330
1B
100
AcDbEntity
 67
     1
  8
SLD-0
  6
CONTINUOUS
 62
     7
100
AcDbLine
 10
201.074567626
 20
521.0157474177
 30
0.0
 11
201.074567626
 21
519.4157501377
 31
0.0
  0
LINE
  5
304
330
1B
100
AcDbEntity
 67
     1
  8
SLD-0
  6
CONTINUOUS
 62
     7
100
AcDbLine
 10
195.974567906
 20
506.8157454477
 30
0.0
 11
195.974567906
 21
505.4157515477
 31
0.0
  0
LINE
  5
305
330
1B
100
AcDbEntity
 67
     1
  8
SLD-0
  6
CONTINUOUS
 62
     7
100
AcDbLine
 10
187.398434616
 20
551.0157486077
 30
0.0
 11
187.923117546
 21
551.0157486077
 31
0.0
  0
LINE
  5
306
330
1B
100
AcDbEntity
 67
     1
  8
SLD-0
  6
CONTINUOUS
 62
     7
100
AcDbLine
 10
203.474567736
 20
504.8157413977
 30
0.0
 11
203.474567736
 21
481.3157459377
 31
0.0
  0
LINE
  5
307
330
1B
100
AcDbEntity
 67
     1
  8
SLD-0
  6
CONTINUOUS
 62
     7
100
AcDbLine
 10
191.074567846
 20
501.0157515877
 30
0.0
 11
191.074567846
 21
519.4157501377
 31
0.0
  0
LINE
  5
308
330
1B
100
AcDbEntity
 67
     1
  8
SLD-0
  6
CONTINUOUS
 62
     7
100
AcDbLine
 10
465.756666307
 20
374.7875434277
 30
0.0
 11
466.656666637
 21
374.7875434277
 31
0.0
  0
LINE
  5
309
330
1B
100
AcDbEntity
 67
     1
  8
SLD-0
  6
CONTINUOUS
 62
     7
100
AcDbLine
 10
191.074567846
 20
522.5157430077
 30
0.0
 11
191.074567846
 21
550.7157435277
 31
0.0
  0
LINE
  5
30A
330
1B
100
AcDbEntity
 67
     1
  8
SLD-0
  6
CONTINUOUS
 62
     7
100
AcDbLine
 10
209.074567816
 20
517.4157460777
 30
0.0
 11
209.074567816
 21
456.0157465177
 31
0.0
  0
LINE
  5
30B
330
1B
100
AcDbEntity
 67
     1
  8
SLD-0
  6
CONTINUOUS
 62
     7
100
AcDbLine
 10
371.956670186
 20
371.2213337777
 30
0.0
 11
435.356673247
 21
371.2213304777
 31
0.0
  0
LINE
  5
30C
330
1B
100
AcDbEntity
 67
     1
  8
SLD-0
  6
CONTINUOUS
 62
     7
100
AcDbLine
 10
187.374568546
 20
551.0157486077
 30
0.0
 11
187.398434616
 21
551.0157486077
 31
0.0
  0
LINE
  5
30D
330
1B
100
AcDbEntity
 67
     1
  8
SLD-0
  6
CONTINUOUS
 62
     7
100
AcDbLine
 10
178.674567816
 20
503.8157462377
 30
0.0
 11
178.674567816
 21
482.3157462377
 31
0.0
  0
LINE
  5
30E
330
1B
100
AcDbEntity
 67
     1
  8
SLD-0
  6
CONTINUOUS
 62
     7
100
AcDbLine
 10
187.074567196
 20
501.0157515877
 30
0.0
 11
191.074567846
 21
501.0157515877
 31
0.0
  0
LINE
  5
30F
330
1B
100
AcDbEntity
 67
     1
  8
SLD-0
  6
CONTINUOUS
 62
     7
100
AcDbLine
 10
197.274567566
 20
493.0157502777
 30
0.0
 11
180.874568416
 21
493.0157502777
 31
0.0
  0
LINE
  5
310
330
1B
100
AcDbEntity
 67
     1
  8
SLD-0
  6
CONTINUOUS
 62
     7
100
AcDbLine
 10
196.074567736
 20
519.4157501377
 30
0.0
 11
201.074567626
 21
519.4157501377
 31
0.0
  0
LINE
  5
311
330
1B
100
AcDbEntity
 67
     1
  8
SLD-0
  6
CONTINUOUS
 62
     7
100
AcDbLine
 10
193.074568176
 20
495.0157394277
 30
0.0
 11
193.074568176
 21
500.8157482077
 31
0.0
  0
LINE
  5
312
330
1B
100
AcDbEntity
 67
     1
  8
SLD-0
  6
CONTINUOUS
 62
     7
100
AcDbLine
 10
201.874567386
 20
504.8157413977
 30
0.0
 11
200.474567536
 21
504.8157462177
 31
0.0
  0
LINE
  5
313
330
1B
100
AcDbEntity
 67
     1
  8
SLD-0
  6
CONTINUOUS
 62
     7
100
AcDbLine
 10
176.274568776
 20
481.3157459377
 30
0.0
 11
177.674567816
 21
481.3157462377
 31
0.0
  0
LINE
  5
314
330
1B
100
AcDbEntity
 67
     1
  8
SLD-0
  6
CONTINUOUS
 62
     7
100
AcDbLine
 10
183.574567546
 20
516.5157457477
 30
0.0
 11
183.574567546
 21
519.4157501377
 31
0.0
  0
LINE
  5
315
330
1B
100
AcDbEntity
 67
     1
  8
SLD-0
  6
CONTINUOUS
 62
     7
100
AcDbLine
 10
187.291073616
 20
493.0157502777
 30
0.0
 11
187.291073616
 21
471.0157429477
 31
0.0
  0
LINE
  5
316
330
1B
100
AcDbEntity
 67
     1
  8
SLD-0
  6
CONTINUOUS
 62
     7
100
AcDbLine
 10
187.074567196
 20
550.7157435277
 30
0.0
 11
187.074567196
 21
522.5157430077
 31
0.0
  0
LINE
  5
317
330
1B
100
AcDbEntity
 67
     1
  8
SLD-0
  6
CONTINUOUS
 62
     7
100
AcDbLine
 10
194.574567496
 20
516.5157457477
 30
0.0
 11
191.074567846
 21
516.5157457477
 31
0.0
  0
LINE
  5
318
330
1B
100
AcDbEntity
 67
     1
  8
SLD-0
  6
CONTINUOUS
 62
     7
100
AcDbLine
 10
183.574567546
 20
495.0157394277
 30
0.0
 11
183.574567816
 21
504.4157462377
 31
0.0
  0
LINE
  5
319
330
1B
100
AcDbEntity
 67
     1
  8
SLD-0
  6
CONTINUOUS
 62
     7
100
AcDbLine
 10
466.656666637
 20
377.2213277277
 30
0.0
 11
438.456666117
 21
377.2213277277
 31
0.0
  0
LINE
  5
31A
330
1B
100
AcDbEntity
 67
     1
  8
SLD-0
  6
CONTINUOUS
 62
     7
100
AcDbLine
 10
190.858061426
 20
500.8907457477
 30
0.0
 11
191.074567846
 21
501.0157515877
 31
0.0
  0
LINE
  5
31B
330
1B
100
AcDbEntity
 67
     1
  8
SLD-0
  6
CONTINUOUS
 62
     7
100
AcDbLine
 10
194.574567496
 20
519.4157501377
 30
0.0
 11
194.574567496
 21
516.5157457477
 31
0.0
  0
LINE
  5
31C
330
1B
100
AcDbEntity
 67
     1
  8
SLD-0
  6
CONTINUOUS
 62
     7
100
AcDbLine
 10
201.874567386
 20
504.8157413977
 30
0.0
 11
203.474567736
 21
504.8157413977
 31
0.0
  0
LINE
  5
31D
330
1B
100
AcDbEntity
 67
     1
  8
SLD-0
  6
CONTINUOUS
 62
     7
100
AcDbLine
 10
187.074567196
 20
501.0157515877
 30
0.0
 11
187.291073616
 21
500.8907457477
 31
0.0
  0
LINE
  5
31E
330
1B
100
AcDbEntity
 67
     1
  8
SLD-0
  6
CONTINUOUS
 62
     7
100
AcDbLine
 10
174.674567766
 20
506.8157454577
 30
0.0
 11
174.674567766
 21
504.8157414077
 31
0.0
  0
LINE
  5
31F
330
1B
100
AcDbEntity
 67
     1
  8
SLD-0
  6
CONTINUOUS
 62
     7
100
AcDbLine
 10
190.858061426
 20
500.8907457477
 30
0.0
 11
190.858061426
 21
495.0157394277
 31
0.0
  0
LINE
  5
320
330
1B
100
AcDbEntity
 67
     1
  8
SLD-0
  6
CONTINUOUS
 62
     7
100
AcDbLine
 10
187.646859326
 20
549.8157431977
 30
0.0
 11
187.646859326
 21
550.7157435277
 31
0.0
  0
LINE
  5
321
330
1B
100
AcDbEntity
 67
     1
  8
SLD-0
  6
CONTINUOUS
 62
     7
100
AcDbLine
 10
170.674567116
 20
456.0157465177
 30
0.0
 11
170.674567116
 21
517.4157460777
 31
0.0
  0
LINE
  5
322
330
1B
100
AcDbEntity
 67
     1
  8
SLD-0
  6
CONTINUOUS
 62
     7
100
AcDbLine
 10
199.774570316
 20
505.4157437277
 30
0.0
 11
195.574570156
 21
505.4157490577
 31
0.0
  0
LINE
  5
323
330
1B
100
AcDbEntity
 67
     1
  8
SLD-0
  6
CONTINUOUS
 62
     7
100
AcDbLine
 10
187.646859326
 20
550.7157435277
 30
0.0
 11
191.074567846
 21
550.7157435277
 31
0.0
  0
LINE
  5
324
330
1B
100
AcDbEntity
 67
     1
  8
SLD-0
  6
CONTINUOUS
 62
     7
100
AcDbLine
 10
209.074567816
 20
519.4157501377
 30
0.0
 11
209.074567816
 21
517.4157460777
 31
0.0
  0
LINE
  5
325
330
1B
100
AcDbEntity
 67
     1
  8
SLD-0
  6
CONTINUOUS
 62
     7
100
AcDbLine
 10
185.074568726
 20
500.8157482077
 30
0.0
 11
185.074568726
 21
495.0157394277
 31
0.0
  0
LINE
  5
326
330
1B
100
AcDbEntity
 67
     1
  8
SLD-0
  6
CONTINUOUS
 62
     7
100
AcDbLine
 10
187.074567196
 20
550.7157435277
 30
0.0
 11
187.122176406
 21
550.7157435277
 31
0.0
  0
LINE
  5
327
330
1B
100
AcDbEntity
 67
     1
  8
SLD-0
  6
CONTINUOUS
 62
     7
100
AcDbLine
 10
199.274567886
 20
495.0157394277
 30
0.0
 11
199.274567886
 21
493.0157502777
 31
0.0
  0
LINE
  5
328
330
1B
100
AcDbEntity
 67
     1
  8
SLD-0
  6
CONTINUOUS
 62
     7
100
AcDbLine
 10
197.274567566
 20
495.0157394277
 30
0.0
 11
199.274567886
 21
495.0157394277
 31
0.0
  0
LINE
  5
329
330
1B
100
AcDbEntity
 67
     1
  8
SLD-0
  6
CONTINUOUS
 62
     7
100
AcDbLine
 10
187.923117546
 20
551.0157486077
 30
0.0
 11
190.774568356
 21
551.0157486077
 31
0.0
  0
LINE
  5
32A
330
1B
100
AcDbEntity
 67
     1
  8
SLD-0
  6
CONTINUOUS
 62
     7
100
AcDbLine
 10
176.274568776
 20
481.3157459377
 30
0.0
 11
174.674567766
 21
481.3157459377
 31
0.0
  0
LINE
  5
32B
330
1B
100
AcDbEntity
 67
     1
  8
SLD-0
  6
CONTINUOUS
 62
     7
100
AcDbLine
 10
191.074567846
 20
550.7157435277
 30
0.0
 11
190.774568356
 21
551.0157486077
 31
0.0
  0
LINE
  5
32C
330
1B
100
AcDbEntity
 67
     1
  8
SLD-0
  6
CONTINUOUS
 62
     7
100
AcDbLine
 10
174.674567766
 20
479.3157418877
 30
0.0
 11
182.174568066
 21
479.3157418877
 31
0.0
  0
LINE
  5
32D
330
1B
100
AcDbEntity
 67
     1
  8
SLD-0
  6
CONTINUOUS
 62
     7
100
AcDbLine
 10
199.274567886
 20
495.4157461977
 30
0.0
 11
199.474567546
 21
495.4157461977
 31
0.0
  0
LINE
  5
32E
330
1B
100
AcDbEntity
 67
     1
  8
SLD-0
  6
CONTINUOUS
 62
     7
100
AcDbLine
 10
187.122176406
 20
549.8157431977
 30
0.0
 11
187.646859326
 21
549.8157431977
 31
0.0
  0
LINE
  5
32F
330
1B
100
AcDbEntity
 67
     1
  8
SLD-0
  6
CONTINUOUS
 62
     7
100
AcDbLine
 10
177.074567416
 20
519.4157501377
 30
0.0
 11
170.674567116
 21
519.4157501377
 31
0.0
  0
LINE
  5
330
330
1B
100
AcDbEntity
 67
     1
  8
SLD-0
  6
CONTINUOUS
 62
     7
100
AcDbLine
 10
182.174568066
 20
506.8157454577
 30
0.0
 11
174.674567766
 21
506.8157454577
 31
0.0
  0
LINE
  5
331
330
1B
100
AcDbEntity
 67
     1
  8
SLD-0
  6
CONTINUOUS
 62
     7
100
AcDbLine
 10
178.874568086
 20
495.0157394277
 30
0.0
 11
180.874568416
 21
495.0157394277
 31
0.0
  0
LINE
  5
332
330
1B
100
AcDbEntity
 67
     1
  8
SLD-0
  6
CONTINUOUS
 62
     7
100
AcDbLine
 10
207.474567816
 20
456.0157465177
 30
0.0
 11
207.474567816
 21
517.4157460777
 31
0.0
  0
LINE
  5
333
330
1B
100
AcDbEntity
 67
     1
  8
SLD-0
  6
CONTINUOUS
 62
     7
100
AcDbLine
 10
169.074566106
 20
456.0157465177
 30
0.0
 11
209.074567816
 21
456.0157465177
 31
0.0
  0
LINE
  5
334
330
1B
100
AcDbEntity
 67
     1
  8
SLD-0
  6
CONTINUOUS
 62
     7
100
AcDbLine
 10
195.974567906
 20
493.0157502777
 30
0.0
 11
195.974567906
 21
479.3157418877
 31
0.0
  0
LINE
  5
335
330
1B
100
AcDbEntity
 67
     1
  8
SLD-0
  6
CONTINUOUS
 62
     7
100
AcDbLine
 10
174.674567766
 20
504.8157414077
 30
0.0
 11
176.274568776
 21
504.8157414077
 31
0.0
  0
LINE
  5
336
330
1B
100
AcDbEntity
 67
     1
  8
SLD-0
  6
CONTINUOUS
 62
     7
100
AcDbLine
 10
187.122176406
 20
549.8157431977
 30
0.0
 11
187.122176406
 21
550.7157435277
 31
0.0
  0
LINE
  5
337
330
1B
100
AcDbEntity
 67
     1
  8
SLD-0
  6
CONTINUOUS
 62
     7
100
AcDbLine
 10
201.874567666
 20
481.3157459377
 30
0.0
 11
200.474567716
 21
481.3157459377
 31
0.0
  0
LINE
  5
338
330
1B
100
AcDbEntity
 67
     1
  8
SLD-0
  6
CONTINUOUS
 62
     7
100
AcDbLine
 10
195.974567906
 20
479.3157418877
 30
0.0
 11
203.474567736
 21
479.3157418877
 31
0.0
  0
LINE
  5
339
330
1B
100
AcDbEntity
 67
     1
  8
SLD-0
  6
CONTINUOUS
 62
     7
100
AcDbLine
 10
177.074567416
 20
521.0157474177
 30
0.0
 11
182.074568236
 21
521.0157474177
 31
0.0
  0
LINE
  5
33A
330
1B
100
AcDbEntity
 67
     1
  8
SLD-0
  6
CONTINUOUS
 62
     7
100
AcDbLine
 10
185.074568726
 20
467.8157483777
 30
0.0
 11
193.074568176
 21
467.8157483777
 31
0.0
  0
LINE
  5
33B
330
1B
100
AcDbEntity
 67
     1
  8
SLD-0
  6
CONTINUOUS
 62
     7
100
AcDbLine
 10
180.874568416
 20
493.0157502777
 30
0.0
 11
178.874568086
 21
493.0157502777
 31
0.0
  0
LINE
  5
33C
330
1B
100
AcDbEntity
 67
     1
  8
SLD-0
  6
CONTINUOUS
 62
     7
100
AcDbLine
 10
177.074567416
 20
519.4157501377
 30
0.0
 11
182.074568236
 21
519.4157501377
 31
0.0
  0
LINE
  5
33D
330
1B
100
AcDbEntity
 67
     1
  8
SLD-0
  6
CONTINUOUS
 62
     7
100
AcDbLine
 10
193.074568176
 20
467.8157483777
 30
0.0
 11
193.074568176
 21
493.0157502777
 31
0.0
  0
LINE
  5
33E
330
1B
100
AcDbEntity
 67
     1
  8
SLD-0
  6
CONTINUOUS
 62
     7
100
AcDbLine
 10
182.574567816
 20
505.4157462377
 30
0.0
 11
178.374567816
 21
505.4157462377
 31
0.0
  0
LINE
  5
33F
330
1B
100
AcDbEntity
 67
     1
  8
SLD-0
  6
CONTINUOUS
 62
     7
100
AcDbLine
 10
194.574567496
 20
504.4157495377
 30
0.0
 11
194.574567496
 21
495.0157394277
 31
0.0
  0
LINE
  5
340
330
1B
100
AcDbEntity
 67
     1
  8
SLD-0
  6
CONTINUOUS
 62
     7
100
AcDbLine
 10
178.674568426
 20
495.4157461977
 30
0.0
 11
178.874568086
 21
495.4157461977
 31
0.0
  0
LINE
  5
341
330
1B
100
AcDbEntity
 67
     1
  8
SLD-0
  6
CONTINUOUS
 62
     7
100
AcDbLine
 10
177.074567416
 20
521.0157474177
 30
0.0
 11
177.074567416
 21
519.4157501377
 31
0.0
  0
LINE
  5
342
330
1B
100
AcDbEntity
 67
     1
  8
SLD-0
  6
CONTINUOUS
 62
     7
100
AcDbLine
 10
174.674567766
 20
481.3157459377
 30
0.0
 11
174.674567766
 21
479.3157418877
 31
0.0
  0
LINE
  5
343
330
1B
100
AcDbEntity
 67
     1
  8
SLD-0
  6
CONTINUOUS
 62
     7
100
AcDbLine
 10
207.474567816
 20
519.4157501377
 30
0.0
 11
209.074567816
 21
519.4157501377
 31
0.0
  0
LINE
  5
344
330
1B
100
AcDbEntity
 67
     1
  8
SLD-0
  6
CONTINUOUS
 62
     7
100
AcDbLine
 10
174.674567766
 20
481.3157459377
 30
0.0
 11
174.674567766
 21
504.8157414077
 31
0.0
  0
LINE
  5
345
330
1B
100
AcDbEntity
 67
     1
  8
SLD-0
  6
CONTINUOUS
 62
     7
100
AcDbLine
 10
186.324567816
 20
522.5157462377
 30
0.0
 11
191.824567816
 21
522.5157462377
 31
0.0
  0
LINE
  5
346
330
1B
100
AcDbEntity
 67
     1
  8
SLD-0
  6
CONTINUOUS
 62
     7
100
AcDbLine
 10
207.474567816
 20
517.4157460777
 30
0.0
 11
207.474567816
 21
519.4157501377
 31
0.0
  0
LINE
  5
347
330
1B
100
AcDbEntity
 67
     1
  8
SLD-0
  6
CONTINUOUS
 62
     7
100
AcDbLine
 10
182.074568236
 20
519.4157501377
 30
0.0
 11
196.074567736
 21
519.4157501377
 31
0.0
  0
LINE
  5
348
330
1B
100
AcDbEntity
 67
     1
  8
SLD-0
  6
CONTINUOUS
 62
     7
100
AcDbLine
 10
178.874568086
 20
495.4157461977
 30
0.0
 11
178.874568086
 21
495.0157394277
 31
0.0
  0
LINE
  5
349
330
1B
100
AcDbEntity
 67
     1
  8
SLD-0
  6
CONTINUOUS
 62
     7
100
AcDbLine
 10
196.074567736
 20
521.0157474177
 30
0.0
 11
201.074567626
 21
521.0157474177
 31
0.0
  0
LINE
  5
34A
330
1B
100
AcDbEntity
 67
     1
  8
SLD-0
  6
CONTINUOUS
 62
     7
100
AcDbLine
 10
187.074567196
 20
516.5157457477
 30
0.0
 11
183.574567546
 21
516.5157457477
 31
0.0
  0
LINE
  5
34B
330
1B
100
AcDbEntity
 67
     1
  8
SLD-0
  6
CONTINUOUS
 62
     7
100
AcDbLine
 10
203.474567736
 20
504.8157413977
 30
0.0
 11
203.474567736
 21
506.8157454477
 31
0.0
  0
LINE
  5
34C
330
1B
100
AcDbEntity
 67
     1
  8
SLD-0
  6
CONTINUOUS
 62
     7
100
AcDbLine
 10
190.858061426
 20
493.0157502777
 30
0.0
 11
190.858061426
 21
471.0157429477
 31
0.0
  0
LINE
  5
34D
330
1B
100
AcDbEntity
 67
     1
  8
SLD-0
  6
CONTINUOUS
 62
     7
100
AcDbLine
 10
169.074566106
 20
517.4157460777
 30
0.0
 11
169.074566106
 21
519.4157501377
 31
0.0
  0
LINE
  5
34E
330
1B
100
AcDbEntity
 67
     1
  8
SLD-0
  6
CONTINUOUS
 62
     7
100
AcDbLine
 10
182.174568066
 20
479.3157418877
 30
0.0
 11
182.174568066
 21
493.0157502777
 31
0.0
  0
LINE
  5
34F
330
1B
100
AcDbEntity
 67
     1
  8
SLD-0
  6
CONTINUOUS
 62
     7
100
AcDbLine
 10
187.122176406
 20
550.7157435277
 30
0.0
 11
187.398434616
 21
551.0157486077
 31
0.0
  0
LINE
  5
350
330
1B
100
AcDbEntity
 67
     1
  8
SLD-0
  6
CONTINUOUS
 62
     7
100
AcDbLine
 10
203.474567736
 20
481.3157459377
 30
0.0
 11
201.874567666
 21
481.3157459377
 31
0.0
  0
LINE
  5
351
330
1B
100
AcDbEntity
 67
     1
  8
SLD-0
  6
CONTINUOUS
 62
     7
100
AcDbLine
 10
182.174568066
 20
505.4157515677
 30
0.0
 11
182.174568066
 21
506.8157454577
 31
0.0
  0
LINE
  5
352
330
1B
100
AcDbEntity
 67
     1
  8
SLD-0
  6
CONTINUOUS
 62
     7
100
AcDbLine
 10
207.474567816
 20
519.4157501377
 30
0.0
 11
201.074567626
 21
519.4157501377
 31
0.0
  0
LINE
  5
353
330
1B
100
AcDbEntity
 67
     1
  8
SLD-0
  6
CONTINUOUS
 62
     7
100
AcDbLine
 10
187.291073616
 20
500.8907457477
 30
0.0
 11
187.291073616
 21
495.0157394277
 31
0.0
  0
LINE
  5
354
330
1B
100
AcDbEntity
 67
     1
  8
SLD-0
  6
CONTINUOUS
 62
     7
100
AcDbLine
 10
187.074567196
 20
519.4157501377
 30
0.0
 11
187.074567196
 21
501.0157515877
 31
0.0
  0
LINE
  5
355
330
1B
100
AcDbEntity
 67
     1
  8
SLD-0
  6
CONTINUOUS
 62
     7
100
AcDbLine
 10
436.956670527
 20
378.7213307677
 30
0.0
 11
435.356673247
 21
378.7213307677
 31
0.0
  0
LINE
  5
356
330
1B
100
AcDbEntity
 67
     1
  8
SLD-0
  6
CONTINUOUS
 62
     7
100
AcDbLine
 10
466.956671717
 20
376.9213300977
 30
0.0
 11
466.656666637
 21
377.2213277277
 31
0.0
  0
LINE
  5
357
330
1B
100
AcDbEntity
 67
     1
  8
SLD-0
  6
CONTINUOUS
 62
     7
100
AcDbLine
 10
187.161170876
 20
500.8157482077
 30
0.0
 11
185.074568726
 21
500.8157482077
 31
0.0
  0
LINE
  5
358
330
1B
100
AcDbEntity
 67
     1
  8
SLD-0
  6
CONTINUOUS
 62
     7
100
AcDbLine
 10
199.274567886
 20
495.0157394277
 30
0.0
 11
199.274567886
 21
495.4157461977
 31
0.0
  0
LINE
  5
359
330
1B
100
AcDbEntity
 67
     1
  8
SLD-0
  6
CONTINUOUS
 62
     7
100
AcDbLine
 10
169.074566106
 20
517.4157460777
 30
0.0
 11
169.074566106
 21
456.0157465177
 31
0.0
  0
LINE
  5
35A
330
1B
100
AcDbEntity
 67
     1
  8
SLD-0
  6
CONTINUOUS
 62
     7
100
AcDbLine
 10
435.356673247
 20
376.7213267177
 30
0.0
 11
435.356673247
 21
371.2213304777
 31
0.0
  0
LINE
  5
35B
330
1B
100
AcDbEntity
 67
     1
  8
SLD-0
  6
CONTINUOUS
 62
     7
100
AcDbLine
 10
187.374568546
 20
551.0157486077
 30
0.0
 11
187.074567196
 21
550.7157435277
 31
0.0
  0
LINE
  5
35C
330
1B
100
AcDbEntity
 67
     1
  8
SLD-0
  6
CONTINUOUS
 62
     7
100
AcDbLine
 10
203.474567736
 20
479.3157418877
 30
0.0
 11
203.474567736
 21
481.3157459377
 31
0.0
  0
LINE
  5
35D
330
1B
100
AcDbEntity
 67
     1
  8
SLD-0
  6
CONTINUOUS
 62
     7
100
AcDbLine
 10
199.474567406
 20
503.8157392377
 30
0.0
 11
199.474567666
 21
482.3157460877
 31
0.0
  0
LINE
  5
35E
330
1B
100
AcDbEntity
 67
     1
  8
SLD-0
  6
CONTINUOUS
 62
     7
100
AcDbLine
 10
197.274567566
 20
495.0157394277
 30
0.0
 11
180.874568416
 21
495.0157394277
 31
0.0
  0
LINE
  5
35F
330
1B
100
AcDbEntity
 67
     1
  8
SLD-0
  6
CONTINUOUS
 62
     7
100
AcDbLine
 10
182.074568236
 20
521.0157474177
 30
0.0
 11
196.074567736
 21
521.0157474177
 31
0.0
  0
LINE
  5
360
330
1B
100
AcDbEntity
 67
     1
  8
SLD-0
  6
CONTINUOUS
 62
     7
100
AcDbLine
 10
193.074568176
 20
500.8157482077
 30
0.0
 11
190.987966026
 21
500.8157482077
 31
0.0
  0
LINE
  5
361
330
1B
100
AcDbEntity
 67
     1
  8
SLD-0
  6
CONTINUOUS
 62
     7
100
AcDbLine
 10
433.356669627
 20
378.7213312177
 30
0.0
 11
373.956669777
 21
378.7213281977
 31
0.0
  0
LINE
  5
362
330
1B
100
AcDbEntity
 67
     1
  8
SLD-0
  6
CONTINUOUS
 62
     7
100
AcDbLine
 10
435.356673247
 20
377.2213277277
 30
0.0
 11
435.293164497
 21
377.2213277277
 31
0.0
  0
LINE
  5
363
330
1B
100
AcDbEntity
 67
     1
  8
SLD-0
  6
CONTINUOUS
 62
     7
100
AcDbLine
 10
435.356673247
 20
378.7213307677
 30
0.0
 11
435.356673247
 21
376.7213267177
 31
0.0
  0
LINE
  5
364
330
1B
100
AcDbEntity
 67
     1
  8
SLD-0
  6
CONTINUOUS
 62
     7
100
AcDbLine
 10
465.756666307
 20
374.7875434277
 30
0.0
 11
465.756666307
 21
373.8207411877
 31
0.0
  0
LINE
  5
365
330
1B
100
AcDbEntity
 67
     1
  8
SLD-0
  6
CONTINUOUS
 62
     7
100
AcDbLine
 10
436.956670527
 20
372.7213260577
 30
0.0
 11
436.953541277
 21
372.7213260577
 31
0.0
  0
LINE
  5
366
330
1B
100
AcDbEntity
 67
     1
  8
SLD-0
  6
CONTINUOUS
 62
     7
100
AcDbLine
 10
466.656666637
 20
377.2213277277
 30
0.0
 11
466.656666637
 21
374.7875434277
 31
0.0
  0
LINE
  5
367
330
1B
100
AcDbEntity
 67
     1
  8
SLD-0
  6
CONTINUOUS
 62
     7
100
AcDbLine
 10
436.956670527
 20
372.7213260577
 30
0.0
 11
436.956670527
 21
371.7213240377
 31
0.0
  0
LINE
  5
368
330
1B
100
AcDbEntity
 67
     1
  8
SLD-0
  6
CONTINUOUS
 62
     7
100
AcDbLine
 10
466.956671717
 20
376.9213300977
 30
0.0
 11
466.956671717
 21
374.9374640077
 31
0.0
  0
LINE
  5
369
330
1B
100
AcDbEntity
 67
     1
  8
SLD-0
  6
CONTINUOUS
 62
     7
100
AcDbLine
 10
438.456669347
 20
377.9713277477
 30
0.0
 11
438.456666117
 21
373.9096191577
 31
0.0
  0
LINE
  5
36A
330
1B
100
AcDbEntity
 67
     1
  8
SLD-0
  6
CONTINUOUS
 62
     7
100
AcDbLine
 10
436.956670527
 20
371.7213240377
 30
0.0
 11
436.518561487
 21
371.7213240377
 31
0.0
  0
LINE
  5
36B
330
1B
100
AcDbEntity
 67
     1
  8
SLD-0
  6
CONTINUOUS
 62
     7
100
AcDbLine
 10
466.956671717
 20
373.9706617677
 30
0.0
 11
466.956671717
 21
373.5213246977
 31
0.0
  0
LINE
  5
36C
330
1B
100
AcDbEntity
 67
     1
  8
SLD-0
  6
CONTINUOUS
 62
     7
100
AcDbLine
 10
466.956671717
 20
374.9374640077
 30
0.0
 11
466.956671717
 21
373.9706617677
 31
0.0
  0
LINE
  5
36D
330
1B
100
AcDbEntity
 67
     1
  8
SLD-0
  6
CONTINUOUS
 62
     7
100
AcDbLine
 10
438.456666117
 20
373.2213270777
 30
0.0
 11
466.656666637
 21
373.2213270777
 31
0.0
  0
LINE
  5
36E
330
1B
100
AcDbEntity
 67
     1
  8
SLD-0
  6
CONTINUOUS
 62
     7
100
AcDbLine
 10
436.956670527
 20
373.7213280877
 30
0.0
 11
436.956670527
 21
372.8213277577
 31
0.0
  0
LINE
  5
36F
330
1B
100
AcDbEntity
 67
     1
  8
SLD-0
  6
CONTINUOUS
 62
     7
100
AcDbLine
 10
436.956670527
 20
378.7213307677
 30
0.0
 11
436.956670527
 21
373.7213280877
 31
0.0
  0
LINE
  5
370
330
1B
100
AcDbEntity
 67
     1
  8
SLD-0
  6
PHANTOM
 62
     7
100
AcDbLine
 10
280.074570766
 20
522.5157457577
 30
0.0
 11
285.574570766
 21
522.5157457577
 31
0.0
  0
LINE
  5
371
330
1B
100
AcDbEntity
 67
     1
  8
SLD-0
  6
PHANTOM
 62
     7
100
AcDbLine
 10
284.075233256
 20
551.0157481277
 30
0.0
 11
284.524570316
 21
551.0157481277
 31
0.0
  0
LINE
  5
372
330
1B
100
AcDbEntity
 67
     1
  8
SLD-0
  6
PHANTOM
 62
     7
100
AcDbLine
 10
283.258359046
 20
550.7157430477
 30
0.0
 11
283.108431016
 21
551.0157481277
 31
0.0
  0
LINE
  5
373
330
1B
100
AcDbEntity
 67
     1
  8
SLD-0
  6
PHANTOM
 62
     7
100
AcDbLine
 10
286.324570866
 20
517.4157458577
 30
0.0
 11
286.324570866
 21
458.0157427577
 31
0.0
  0
LINE
  5
374
330
1B
100
AcDbEntity
 67
     1
  8
SLD-0
  6
PHANTOM
 62
     7
100
AcDbLine
 10
280.424570866
 20
521.0157471477
 30
0.0
 11
281.324568406
 21
521.0157483277
 31
0.0
  0
LINE
  5
375
330
1B
100
AcDbEntity
 67
     1
  8
SLD-0
  6
PHANTOM
 62
     7
100
AcDbLine
 10
286.324571086
 20
521.0157483277
 30
0.0
 11
286.324571086
 21
519.4157497677
 31
0.0
  0
LINE
  5
376
330
1B
100
AcDbEntity
 67
     1
  8
SLD-0
  6
PHANTOM
 62
     7
100
AcDbLine
 10
279.324571706
 20
521.0157469377
 30
0.0
 11
279.324571706
 21
520.5776378977
 31
0.0
  0
LINE
  5
377
330
1B
100
AcDbEntity
 67
     1
  8
SLD-0
  6
PHANTOM
 62
     7
100
AcDbLine
 10
284.225161286
 20
550.7157430477
 30
0.0
 11
284.824567946
 21
550.7157430477
 31
0.0
  0
LINE
  5
378
330
1B
100
AcDbEntity
 67
     1
  8
SLD-0
  6
PHANTOM
 62
     7
100
AcDbLine
 10
281.124572366
 20
551.0157481277
 30
0.0
 11
280.824567296
 21
550.7157430477
 31
0.0
  0
LINE
  5
379
330
1B
100
AcDbEntity
 67
     1
  8
SLD-0
  6
PHANTOM
 62
     7
100
AcDbLine
 10
284.824567946
 20
550.7157430477
 30
0.0
 11
284.524570316
 21
551.0157481277
 31
0.0
  0
LINE
  5
37A
330
1B
100
AcDbEntity
 67
     1
  8
SLD-0
  6
PHANTOM
 62
     7
100
AcDbLine
 10
284.324570766
 20
456.0157457577
 30
0.0
 11
278.824570686
 21
456.0157460377
 31
0.0
  0
LINE
  5
37B
330
1B
100
AcDbEntity
 67
     1
  8
SLD-0
  6
PHANTOM
 62
     7
100
AcDbLine
 10
280.324573726
 20
521.0157469377
 30
0.0
 11
280.324573726
 21
521.0126176877
 31
0.0
  0
LINE
  5
37C
330
1B
100
AcDbEntity
 67
     1
  8
SLD-0
  6
PHANTOM
 62
     7
100
AcDbLine
 10
280.824567296
 20
550.7157430477
 30
0.0
 11
280.824567296
 21
522.5157425277
 31
0.0
  0
LINE
  5
37D
330
1B
100
AcDbEntity
 67
     1
  8
SLD-0
  6
PHANTOM
 62
     7
100
AcDbLine
 10
284.225161286
 20
549.8157427177
 30
0.0
 11
284.225161286
 21
550.7157430477
 31
0.0
  0
LINE
  5
37E
330
1B
100
AcDbEntity
 67
     1
  8
SLD-0
  6
PHANTOM
 62
     7
100
AcDbLine
 10
283.108431016
 20
551.0157481277
 30
0.0
 11
284.075233256
 21
551.0157481277
 31
0.0
  0
LINE
  5
37F
330
1B
100
AcDbEntity
 67
     1
  8
SLD-0
  6
PHANTOM
 62
     7
100
AcDbLine
 10
283.258359046
 20
549.8157427177
 30
0.0
 11
284.225161286
 21
549.8157427177
 31
0.0
  0
LINE
  5
380
330
1B
100
AcDbEntity
 67
     1
  8
SLD-0
  6
PHANTOM
 62
     7
100
AcDbLine
 10
284.324570866
 20
519.4157458577
 30
0.0
 11
280.424568066
 21
519.4157497677
 31
0.0
  0
LINE
  5
381
330
1B
100
AcDbEntity
 67
     1
  8
SLD-0
  6
PHANTOM
 62
     7
100
AcDbLine
 10
278.824570686
 20
456.0157460377
 30
0.0
 11
278.824570686
 21
519.4157497677
 31
0.0
  0
LINE
  5
382
330
1B
100
AcDbEntity
 67
     1
  8
SLD-0
  6
PHANTOM
 62
     7
100
AcDbLine
 10
284.324570866
 20
519.4157458577
 30
0.0
 11
286.324571086
 21
519.4157497677
 31
0.0
  0
LINE
  5
383
330
1B
100
AcDbEntity
 67
     1
  8
SLD-0
  6
PHANTOM
 62
     7
100
AcDbLine
 10
279.324571706
 20
521.0157469377
 30
0.0
 11
280.324573726
 21
521.0157469377
 31
0.0
  0
LINE
  5
384
330
1B
100
AcDbEntity
 67
     1
  8
SLD-0
  6
PHANTOM
 62
     7
100
AcDbLine
 10
284.824567946
 20
519.3522409077
 30
0.0
 11
284.824567946
 21
519.4157496577
 31
0.0
  0
LINE
  5
385
330
1B
100
AcDbEntity
 67
     1
  8
SLD-0
  6
PHANTOM
 62
     7
100
AcDbLine
 10
283.258359046
 20
549.8157427177
 30
0.0
 11
283.258359046
 21
550.7157430477
 31
0.0
  0
LINE
  5
386
330
1B
100
AcDbEntity
 67
     1
  8
SLD-0
  6
PHANTOM
 62
     7
100
AcDbLine
 10
284.824567946
 20
522.5157425277
 30
0.0
 11
284.824567946
 21
550.7157430477
 31
0.0
  0
LINE
  5
387
330
1B
100
AcDbEntity
 67
     1
  8
SLD-0
  6
PHANTOM
 62
     7
100
AcDbLine
 10
278.824570686
 20
519.4157497677
 30
0.0
 11
280.424568066
 21
519.4157497677
 31
0.0
  0
LINE
  5
388
330
1B
100
AcDbEntity
 67
     1
  8
SLD-0
  6
PHANTOM
 62
     7
100
AcDbLine
 10
281.124572366
 20
551.0157481277
 30
0.0
 11
283.108431016
 21
551.0157481277
 31
0.0
  0
LINE
  5
389
330
1B
100
AcDbEntity
 67
     1
  8
SLD-0
  6
PHANTOM
 62
     7
100
AcDbLine
 10
281.324568406
 20
521.0157483277
 30
0.0
 11
286.324571086
 21
521.0157483277
 31
0.0
  0
LINE
  5
38A
330
1B
100
AcDbEntity
 67
     1
  8
SLD-0
  6
PHANTOM
 62
     7
100
AcDbLine
 10
280.824567296
 20
550.7157430477
 30
0.0
 11
283.258359046
 21
550.7157430477
 31
0.0
  0
ARC
  5
38B
330
1B
100
AcDbEntity
 67
     1
  8
SLD-0
  6
CONTINUOUS
 62
     7
100
AcDbCircle
 10
281.574567031
 20
373.9213374177
 30
0.0
 40
0.9999989800189649
100
AcDbArc
 50
359.9995178563
 51
90.0001337867
  0
ARC
  5
38C
330
1B
100
AcDbEntity
 67
     1
  8
SLD-0
  6
CONTINUOUS
 62
     7
100
AcDbCircle
 10
281.574567026
 20
231.9213327227
 30
0.0
 40
0.9999989850003601
100
AcDbArc
 50
270.0
 51
359.9999472878
  0
ARC
  5
38D
330
1B
100
AcDbEntity
 67
     1
  8
SLD-0
  6
CONTINUOUS
 62
     7
100
AcDbCircle
 10
139.574564696
 20
373.9213339077
 30
0.0
 40
1.000000790006921
100
AcDbArc
 50
90.0000716197
 51
180.0002131401
  0
ARC
  5
38E
330
1B
100
AcDbEntity
 67
     1
  8
SLD-0
  6
CONTINUOUS
 62
     7
100
AcDbCircle
 10
139.574567026
 20
231.9213339077
 30
0.0
 40
1.000003120000812
100
AcDbArc
 50
180.000052712
 51
269.9999283805
  0
ARC
  5
38F
330
1B
100
AcDbEntity
 67
     1
  8
SLD-0
  6
CONTINUOUS
 62
     7
100
AcDbCircle
 10
174.774566381
 20
256.2203093527
 30
0.0
 40
0.4738174000000299
100
AcDbArc
 50
0.0
 51
90.0
  0
ARC
  5
390
330
1B
100
AcDbEntity
 67
     1
  8
SLD-0
  6
CONTINUOUS
 62
     7
100
AcDbCircle
 10
160.374566381
 20
256.2203085477
 30
0.0
 40
0.4738182050012101
100
AcDbArc
 50
90.0
 51
179.9998137777
  0
ARC
  5
391
330
1B
100
AcDbEntity
 67
     1
  8
SLD-0
  6
CONTINUOUS
 62
     7
100
AcDbCircle
 10
260.774567841
 20
256.2203078827
 30
0.0
 40
0.47381741000129
100
AcDbArc
 50
0.0001862226
 51
90.0
  0
ARC
  5
392
330
1B
100
AcDbEntity
 67
     1
  8
SLD-0
  6
CONTINUOUS
 62
     7
100
AcDbCircle
 10
246.374567841
 20
256.2203085477
 30
0.0
 40
0.4738167450012456
100
AcDbArc
 50
90.0
 51
179.9998137772
  0
ARC
  5
393
330
1B
100
AcDbEntity
 67
     1
  8
SLD-0
  6
CONTINUOUS
 62
     7
100
AcDbCircle
 10
263.2745671876
 20
241.3203085433
 30
0.0
 40
3.000000000239319
100
AcDbArc
 50
289.471220601
 51
70.5287793353
  0
ARC
  5
394
330
1B
100
AcDbEntity
 67
     1
  8
SLD-0
  6
CONTINUOUS
 62
     7
100
AcDbCircle
 10
147.874567186
 20
253.3203085477
 30
0.0
 40
1.0
100
AcDbArc
 50
90.0
 51
180.0
  0
ARC
  5
395
330
1B
100
AcDbEntity
 67
     1
  8
SLD-0
  6
CONTINUOUS
 62
     7
100
AcDbCircle
 10
273.274567186
 20
253.3203081377
 30
0.0
 40
0.999999590004429
100
AcDbArc
 50
0.0
 51
90.0001713145
  0
ARC
  5
396
330
1B
100
AcDbEntity
 67
     1
  8
SLD-0
  6
CONTINUOUS
 62
     7
100
AcDbCircle
 10
142.874567596
 20
261.1213339077
 30
0.0
 40
1.500001000001941
100
AcDbArc
 50
179.9999377386
 51
270.000093583
  0
ARC
  5
397
330
1B
100
AcDbEntity
 67
     1
  8
SLD-0
  6
CONTINUOUS
 62
     7
100
AcDbCircle
 10
142.874566891
 20
370.6213339077
 30
0.0
 40
1.500000295000035
100
AcDbArc
 50
90.0
 51
179.9999992361
  0
ARC
  5
398
330
1B
100
AcDbEntity
 67
     1
  8
SLD-0
  6
CONTINUOUS
 62
     7
100
AcDbCircle
 10
278.274567596
 20
261.1213336127
 30
0.0
 40
1.500000705000534
100
AcDbArc
 50
269.9999881589
 51
0.0
  0
ARC
  5
399
330
1B
100
AcDbEntity
 67
     1
  8
SLD-0
  6
CONTINUOUS
 62
     7
100
AcDbCircle
 10
278.274568136
 20
370.6213343677
 30
0.0
 40
1.500002895000829
100
AcDbArc
 50
359.9999719251
 51
90.0000593965
  0
ARC
  5
39A
330
1B
100
AcDbEntity
 67
     1
  8
SLD-0
  6
CONTINUOUS
 62
     7
100
AcDbCircle
 10
280.2041263877
 20
422.0157475618
 30
0.0
 40
1.500000152425855
100
AcDbArc
 50
270.0
 51
358.0000489397
  0
ARC
  5
39B
330
1B
100
AcDbEntity
 67
     1
  8
SLD-0
  6
CONTINUOUS
 62
     7
100
AcDbCircle
 10
140.9450093377
 20
422.0157462578
 30
0.0
 40
1.499998848349057
100
AcDbArc
 50
181.9999539518
 51
270.000082506
  0
ARC
  5
39C
330
1B
100
AcDbEntity
 67
     1
  8
SLD-0
  6
CONTINUOUS
 62
     7
100
AcDbCircle
 10
339.4566712828
 20
234.7403095083
 30
0.0
 40
2.999998526837129
100
AcDbArc
 50
180.0000183454
 51
267.9999968352
  0
ARC
  5
39D
330
1B
100
AcDbEntity
 67
     1
  8
SLD-0
  6
CONTINUOUS
 62
     7
100
AcDbCircle
 10
337.9566728384
 20
372.5508924277
 30
0.0
 40
1.500000082447205
100
AcDbArc
 50
91.9999511536
 51
179.9999881589
  0
ARC
  5
39E
330
1B
100
AcDbEntity
 67
     1
  8
SLD-0
  6
CONTINUOUS
 62
     7
100
AcDbCircle
 10
835.574568261
 20
579.8157495077
 30
0.0
 40
0.5
100
AcDbArc
 50
90.0
 51
180.0
  0
ARC
  5
39F
330
1B
100
AcDbEntity
 67
     1
  8
SLD-0
  6
CONTINUOUS
 62
     7
100
AcDbCircle
 10
870.074569421
 20
579.8157495077
 30
0.0
 40
0.5
100
AcDbArc
 50
0.0
 51
90.0
  0
ARC
  5
3A0
330
1B
100
AcDbEntity
 67
     1
  8
SLD-0
  6
CONTINUOUS
 62
     7
100
AcDbCircle
 10
438.756672735
 20
265.878938554
 30
0.0
 40
33.50000000000029
100
AcDbArc
 50
345.41547906
 51
14.98505052
  0
ARC
  5
3A1
330
1B
100
AcDbEntity
 67
     1
  8
SLD-0
  6
CONTINUOUS
 62
     7
100
AcDbCircle
 10
470.693321556
 20
257.5692774238
 30
0.0
 40
0.4999999088275665
100
AcDbArc
 50
269.8932532977
 51
345.4154796411
  0
ARC
  5
3A2
330
1B
100
AcDbEntity
 67
     1
  8
SLD-0
  6
CONTINUOUS
 62
     7
100
AcDbCircle
 10
453.717447596
 20
258.1713281127
 30
0.0
 40
1.099997620000129
100
AcDbArc
 50
270.0
 51
0.0000265645
  0
ARC
  5
3A3
330
1B
100
AcDbEntity
 67
     1
  8
SLD-0
  6
CONTINUOUS
 62
     7
100
AcDbCircle
 10
470.6174475884
 20
275.5713292515
 30
0.0
 40
0.5
100
AcDbArc
 50
0.0
 51
90.0
  0
ARC
  5
3A4
330
1B
100
AcDbEntity
 67
     1
  8
SLD-0
  6
CONTINUOUS
 62
     7
100
AcDbCircle
 10
470.1174490569
 20
273.5484012615
 30
0.0
 40
1.000001471491266
100
AcDbArc
 50
308.9909936396
 51
359.9999576012
  0
ARC
  5
3A5
330
1B
100
AcDbEntity
 67
     1
  8
SLD-0
  6
CONTINUOUS
 62
     7
100
AcDbCircle
 10
1053.717447596
 20
258.1713281127
 30
0.0
 40
1.099997620000011
100
AcDbArc
 50
270.0
 51
0.0000265645
  0
ARC
  5
3A6
330
1B
100
AcDbEntity
 67
     1
  8
SLD-0
  6
CONTINUOUS
 62
     7
100
AcDbCircle
 10
1070.1174490569
 20
273.5484012615
 30
0.0
 40
1.000001471491318
100
AcDbArc
 50
308.9909936396
 51
359.9999576012
  0
ARC
  5
3A7
330
1B
100
AcDbEntity
 67
     1
  8
SLD-0
  6
CONTINUOUS
 62
     7
100
AcDbCircle
 10
1070.693321556
 20
257.5692774238
 30
0.0
 40
0.4999999088275665
100
AcDbArc
 50
269.8932532977
 51
345.4154796411
  0
ARC
  5
3A8
330
1B
100
AcDbEntity
 67
     1
  8
SLD-0
  6
CONTINUOUS
 62
     7
100
AcDbCircle
 10
1038.756672735
 20
265.878938554
 30
0.0
 40
33.50000000000016
100
AcDbArc
 50
345.41547906
 51
14.98505052
  0
ARC
  5
3A9
330
1B
100
AcDbEntity
 67
     1
  8
SLD-0
  6
CONTINUOUS
 62
     7
100
AcDbCircle
 10
1070.6174475884
 20
275.5713292515
 30
0.0
 40
0.5000000000002274
100
AcDbArc
 50
0.0
 51
90.0
  0
ARC
  5
3AA
330
1B
100
AcDbEntity
 67
     1
  8
SLD-0
  6
CONTINUOUS
 62
     7
100
AcDbCircle
 10
992.7869406579
 20
227.4213242213
 30
0.0
 40
0.4999970116367933
100
AcDbArc
 50
270.0
 51
356.4239075156
  0
ARC
  5
3AB
330
1B
100
AcDbEntity
 67
     1
  8
SLD-0
  6
CONTINUOUS
 62
     7
100
AcDbCircle
 10
235.574568261
 20
559.8157495077
 30
0.0
 40
0.5
100
AcDbArc
 50
90.0
 51
180.0
  0
ARC
  5
3AC
330
1B
100
AcDbEntity
 67
     1
  8
SLD-0
  6
CONTINUOUS
 62
     7
100
AcDbCircle
 10
270.074569421
 20
559.8157495077
 30
0.0
 40
0.5
100
AcDbArc
 50
0.0
 51
90.0
  0
ARC
  5
3AD
330
1B
100
AcDbEntity
 67
     1
  8
SLD-0
  6
CONTINUOUS
 62
     7
100
AcDbCircle
 10
973.7263918779
 20
227.4213304078
 30
0.0
 40
0.500003198106511
100
AcDbArc
 50
183.5760022799
 51
270.0
  0
ARC
  5
3AE
330
1B
100
AcDbEntity
 67
     1
  8
SLD-0
  6
CONTINUOUS
 62
     7
100
AcDbCircle
 10
857.579075612
 20
501.187339739
 30
0.0
 40
1.0
100
AcDbArc
 50
0.0
 51
90.0
  0
ARC
  5
3AF
330
1B
100
AcDbEntity
 67
     1
  8
SLD-0
  6
CONTINUOUS
 62
     7
100
AcDbCircle
 10
851.579075612
 20
501.187342134
 30
0.0
 40
1.000002395000593
100
AcDbArc
 50
90.0000870894
 51
180.0
  0
ARC
  5
3B0
330
1B
100
AcDbEntity
 67
     1
  8
SLD-0
  6
CONTINUOUS
 62
     7
100
AcDbCircle
 10
858.079075722
 20
488.693440319
 30
0.0
 40
0.4999998900002474
100
AcDbArc
 50
270.000053858
 51
0.0
  0
ARC
  5
3B1
330
1B
100
AcDbEntity
 67
     1
  8
SLD-0
  6
CONTINUOUS
 62
     7
100
AcDbCircle
 10
763.079086122
 20
489.048179329
 30
0.0
 40
0.5000000000000083
100
AcDbArc
 50
152.71790618
 51
180.0
  0
ARC
  5
3B2
330
1B
100
AcDbEntity
 67
     1
  8
SLD-0
  6
CONTINUOUS
 62
     7
100
AcDbCircle
 10
848.576752912
 20
500.757989659
 30
0.0
 40
0.5173088710008074
100
AcDbArc
 50
89.7415965992
 51
131.4254659065
  0
ARC
  5
3B3
330
1B
100
AcDbEntity
 67
     1
  8
SLD-0
  6
CONTINUOUS
 62
     7
100
AcDbCircle
 10
881.574567026
 20
231.9213327227
 30
0.0
 40
0.9999989850003885
100
AcDbArc
 50
270.0
 51
359.9999472878
  0
ARC
  5
3B4
330
1B
100
AcDbEntity
 67
     1
  8
SLD-0
  6
CONTINUOUS
 62
     7
100
AcDbCircle
 10
739.574567026
 20
231.9213339077
 30
0.0
 40
1.000003120000812
100
AcDbArc
 50
180.000052712
 51
269.9999283805
  0
ARC
  5
3B5
330
1B
100
AcDbEntity
 67
     1
  8
SLD-0
  6
CONTINUOUS
 62
     7
100
AcDbCircle
 10
760.374566381
 20
256.2203085477
 30
0.0
 40
0.4738182050012369
100
AcDbArc
 50
90.0
 51
179.9998137777
  0
ARC
  5
3B6
330
1B
100
AcDbEntity
 67
     1
  8
SLD-0
  6
CONTINUOUS
 62
     7
100
AcDbCircle
 10
846.374567841
 20
256.2203085477
 30
0.0
 40
0.473816745001274
100
AcDbArc
 50
90.0
 51
179.9998137772
  0
ARC
  5
3B7
330
1B
100
AcDbEntity
 67
     1
  8
SLD-0
  6
CONTINUOUS
 62
     7
100
AcDbCircle
 10
747.874567186
 20
253.3203085477
 30
0.0
 40
1.0
100
AcDbArc
 50
90.0
 51
180.0
  0
ARC
  5
3B8
330
1B
100
AcDbEntity
 67
     1
  8
SLD-0
  6
CONTINUOUS
 62
     7
100
AcDbCircle
 10
742.874567596
 20
261.1213339077
 30
0.0
 40
1.500001000001941
100
AcDbArc
 50
179.9999377386
 51
270.000093583
  0
ARC
  5
3B9
330
1B
100
AcDbEntity
 67
     1
  8
SLD-0
  6
CONTINUOUS
 62
     7
100
AcDbCircle
 10
878.274567596
 20
261.1213336127
 30
0.0
 40
1.500000705000534
100
AcDbArc
 50
269.9999881589
 51
0.0
  0
ARC
  5
3BA
330
1B
100
AcDbEntity
 67
     1
  8
SLD-0
  6
CONTINUOUS
 62
     7
100
AcDbCircle
 10
880.2041263877
 20
442.0157475618
 30
0.0
 40
1.500000152425855
100
AcDbArc
 50
270.0
 51
358.0000489397
  0
ARC
  5
3BB
330
1B
100
AcDbEntity
 67
     1
  8
SLD-0
  6
CONTINUOUS
 62
     7
100
AcDbCircle
 10
937.9566728384
 20
372.5508924277
 30
0.0
 40
1.500000082447216
100
AcDbArc
 50
91.9999511536
 51
179.9999881589
  0
ARC
  5
3BC
330
1B
100
AcDbEntity
 67
     1
  8
SLD-0
  6
CONTINUOUS
 62
     7
100
AcDbCircle
 10
771.0767539331
 20
500.7579853578
 30
0.0
 40
0.5173131620821984
100
AcDbArc
 50
89.7417770632
 51
131.4252845019
  0
ARC
  5
3BD
330
1B
100
AcDbEntity
 67
     1
  8
SLD-0
  6
CONTINUOUS
 62
     7
100
AcDbCircle
 10
858.079075612
 20
509.337414849
 30
0.0
 40
0.5
100
AcDbArc
 50
0.0
 51
90.0
  0
ARC
  5
3BE
330
1B
100
AcDbEntity
 67
     1
  8
SLD-0
  6
CONTINUOUS
 62
     7
100
AcDbCircle
 10
769.579086122
 20
509.337418959
 30
0.0
 40
0.5000000000000568
100
AcDbArc
 50
0.0
 51
90.0
  0
ARC
  5
3BF
330
1B
100
AcDbEntity
 67
     1
  8
SLD-0
  6
CONTINUOUS
 62
     7
100
AcDbCircle
 10
846.579082832
 20
516.837415679
 30
0.0
 40
4.0
100
AcDbArc
 50
270.0
 51
0.0
  0
ARC
  5
3C0
330
1B
100
AcDbEntity
 67
     1
  8
SLD-0
  6
CONTINUOUS
 62
     7
100
AcDbCircle
 10
774.579082832
 20
516.837415679
 30
0.0
 40
4.0
100
AcDbArc
 50
180.0
 51
270.0
  0
ARC
  5
3C1
330
1B
100
AcDbEntity
 67
     1
  8
SLD-0
  6
CONTINUOUS
 62
     7
100
AcDbCircle
 10
851.079079642
 20
517.337415679
 30
0.0
 40
0.4999966300014712
100
AcDbArc
 50
89.9998636351
 51
180.000014897
  0
ARC
  5
3C2
330
1B
100
AcDbEntity
 67
     1
  8
SLD-0
  6
CONTINUOUS
 62
     7
100
AcDbCircle
 10
763.579086122
 20
501.187343849
 30
0.0
 40
1.0
100
AcDbArc
 50
90.0
 51
180.0
  0
ARC
  5
3C3
330
1B
100
AcDbEntity
 67
     1
  8
SLD-0
  6
CONTINUOUS
 62
     7
100
AcDbCircle
 10
769.579086122
 20
501.187343849
 30
0.0
 40
1.0
100
AcDbArc
 50
0.0
 51
90.0
  0
ARC
  5
3C4
330
1B
100
AcDbEntity
 67
     1
  8
SLD-0
  6
CONTINUOUS
 62
     7
100
AcDbCircle
 10
763.079086012
 20
488.693444429
 30
0.0
 40
0.4999998900027821
100
AcDbArc
 50
180.0
 51
270.000190222
  0
ARC
  5
3C5
330
1B
100
AcDbEntity
 67
     1
  8
SLD-0
  6
CONTINUOUS
 62
     7
100
AcDbCircle
 10
858.079075612
 20
489.048175219
 30
0.0
 40
0.5000000000000318
100
AcDbArc
 50
0.0
 51
29.19492926
  0
ARC
  5
3C6
330
1B
100
AcDbEntity
 67
     1
  8
SLD-0
  6
CONTINUOUS
 62
     7
100
AcDbCircle
 10
850.081420702
 20
500.7579959603
 30
0.0
 40
0.5173025804094282
100
AcDbArc
 50
48.5742692363
 51
90.2586690433
  0
ARC
  5
3C7
330
1B
100
AcDbEntity
 67
     1
  8
SLD-0
  6
CONTINUOUS
 62
     7
100
AcDbCircle
 10
772.5814201031
 20
500.7579959575
 30
0.0
 40
0.5173025804093533
100
AcDbArc
 50
48.5742692363
 51
90.2586690433
  0
ARC
  5
3C8
330
1B
100
AcDbEntity
 67
     1
  8
SLD-0
  6
CONTINUOUS
 62
     7
100
AcDbCircle
 10
851.579075612
 20
509.337415444
 30
0.0
 40
0.4999994050010059
100
AcDbArc
 50
90.0
 51
180.000165012
  0
ARC
  5
3C9
330
1B
100
AcDbEntity
 67
     1
  8
SLD-0
  6
CONTINUOUS
 62
     7
100
AcDbCircle
 10
763.079086122
 20
509.337418959
 30
0.0
 40
0.5000000000000568
100
AcDbArc
 50
90.0
 51
180.0
  0
ARC
  5
3CA
330
1B
100
AcDbEntity
 67
     1
  8
SLD-0
  6
CONTINUOUS
 62
     7
100
AcDbCircle
 10
763.079086122
 20
517.337418959
 30
0.0
 40
0.5
100
AcDbArc
 50
90.0
 51
180.0
  0
ARC
  5
3CB
330
1B
100
AcDbEntity
 67
     1
  8
SLD-0
  6
CONTINUOUS
 62
     7
100
AcDbCircle
 10
770.079086122
 20
517.337415679
 30
0.0
 40
0.4999967100009074
100
AcDbArc
 50
0.0
 51
89.9998911373
  0
ARC
  5
3CC
330
1B
100
AcDbEntity
 67
     1
  8
SLD-0
  6
CONTINUOUS
 62
     7
100
AcDbCircle
 10
858.079079642
 20
517.337414849
 30
0.0
 40
0.4999974600002523
100
AcDbArc
 50
359.999985103
 51
89.9999461417
  0
ARC
  5
3CD
330
1B
100
AcDbEntity
 67
     1
  8
SLD-0
  6
CONTINUOUS
 62
     7
100
AcDbCircle
 10
770.8947537413
 20
397.7354189382
 30
0.0
 40
0.4677268501365979
100
AcDbArc
 50
314.2299604366
 51
93.3458606524
  0
ARC
  5
3CE
330
1B
100
AcDbEntity
 67
     1
  8
SLD-0
  6
CONTINUOUS
 62
     7
100
AcDbCircle
 10
765.0773060527
 20
392.3180079575
 30
0.0
 40
0.503579724975767
100
AcDbArc
 50
183.3071881944
 51
314.1578221443
  0
ARC
  5
3CF
330
1B
100
AcDbEntity
 67
     1
  8
SLD-0
  6
CONTINUOUS
 62
     7
100
AcDbCircle
 10
850.2543722865
 20
397.7354206382
 30
0.0
 40
0.4677251833204115
100
AcDbArc
 50
86.6540770065
 51
225.7705474018
  0
ARC
  5
3D0
330
1B
100
AcDbEntity
 67
     1
  8
SLD-0
  6
CONTINUOUS
 62
     7
100
AcDbCircle
 10
850.2660379059
 20
397.648605463
 30
0.0
 40
0.4855909653470418
100
AcDbArc
 50
88.1551404823
 51
174.12683208
  0
ARC
  5
3D1
330
1B
100
AcDbEntity
 67
     1
  8
SLD-0
  6
CONTINUOUS
 62
     7
100
AcDbCircle
 10
765.059947276
 20
397.6485329666
 30
0.0
 40
0.4856317288614614
100
AcDbArc
 50
88.2754333721
 51
178.16350262
  0
ARC
  5
3D2
330
1B
100
AcDbEntity
 67
     1
  8
SLD-0
  6
CONTINUOUS
 62
     7
100
AcDbCircle
 10
765.0599472823
 20
397.7169367475
 30
0.0
 40
0.485631731442731
100
AcDbArc
 50
88.2754334077
 51
178.1635029153
  0
ARC
  5
3D3
330
1B
100
AcDbEntity
 67
     1
  8
SLD-0
  6
CONTINUOUS
 62
     7
100
AcDbCircle
 10
856.0891771032
 20
397.7169307213
 30
0.0
 40
0.4856376993885673
100
AcDbArc
 50
1.837185428
 51
91.7243030669
  0
ARC
  5
3D4
330
1B
100
AcDbEntity
 67
     1
  8
SLD-0
  6
CONTINUOUS
 62
     7
100
AcDbCircle
 10
856.0718243028
 20
392.3180074644
 30
0.0
 40
0.5035795049035495
100
AcDbArc
 50
225.8421226923
 51
356.6928661507
  0
ARC
  5
3D5
330
1B
100
AcDbEntity
 67
     1
  8
SLD-0
  6
CONTINUOUS
 62
     7
100
AcDbCircle
 10
856.0891771061
 20
397.6485269344
 30
0.0
 40
0.4856376966511863
100
AcDbArc
 50
1.83718643
 51
91.7243034673
  0
ARC
  5
3D6
330
1B
100
AcDbEntity
 67
     1
  8
SLD-0
  6
CONTINUOUS
 62
     7
100
AcDbCircle
 10
770.8831367961
 20
397.6486607156
 30
0.0
 40
0.4855372979403159
100
AcDbArc
 50
5.86726496
 51
91.8507625547
  0
ARC
  5
3D7
330
1B
100
AcDbEntity
 67
     1
  8
SLD-0
  6
CONTINUOUS
 62
     7
100
AcDbCircle
 10
764.1048395096
 20
227.4213315798
 30
0.0
 40
0.4999997783167134
100
AcDbArc
 50
270.0
 51
356.4239479721
  0
ARC
  5
3D8
330
1B
100
AcDbEntity
 67
     1
  8
SLD-0
  6
CONTINUOUS
 62
     7
100
AcDbCircle
 10
857.044290595
 20
227.4213322276
 30
0.0
 40
0.5000005709784148
100
AcDbArc
 50
183.5760405915
 51
270.0
  0
ARC
  5
3D9
330
1B
100
AcDbEntity
 67
     1
  8
SLD-0
  6
CONTINUOUS
 62
     7
100
AcDbCircle
 10
745.0442907296
 20
227.4213322379
 30
0.0
 40
0.500000436426518
100
AcDbArc
 50
183.5760427358
 51
270.0
  0
ARC
  5
3DA
330
1B
100
AcDbEntity
 67
     1
  8
SLD-0
  6
CONTINUOUS
 62
     7
100
AcDbCircle
 10
876.104839375
 20
227.4213331549
 30
0.0
 40
0.5000014982018973
100
AcDbArc
 50
270.0
 51
356.4239729177
  0
ARC
  5
3DB
330
1B
100
AcDbEntity
 67
     1
  8
SLD-0
  6
CONTINUOUS
 62
     7
100
AcDbCircle
 10
1040.7869406579
 20
227.4213242213
 30
0.0
 40
0.4999970116366796
100
AcDbArc
 50
270.0
 51
356.4239075156
  0
ARC
  5
3DC
330
1B
100
AcDbEntity
 67
     1
  8
SLD-0
  6
CONTINUOUS
 62
     7
100
AcDbCircle
 10
1021.7263918779
 20
227.4213304078
 30
0.0
 40
0.5000031981066244
100
AcDbArc
 50
183.5760022799
 51
270.0
  0
ARC
  5
3DD
330
1B
100
AcDbEntity
 67
     1
  8
SLD-0
  6
CONTINUOUS
 62
     7
100
AcDbCircle
 10
988.7566893182
 20
375.2213375659
 30
0.0
 40
1.0
100
AcDbArc
 50
270.0
 51
0.0
  0
ARC
  5
3DE
330
1B
100
AcDbEntity
 67
     1
  8
SLD-0
  6
CONTINUOUS
 62
     7
100
AcDbCircle
 10
994.6066076976
 20
395.971963215
 30
0.0
 40
3.500000003262956
100
AcDbArc
 50
250.0000000098
 51
69.999999912
  0
ARC
  5
3DF
330
1B
100
AcDbEntity
 67
     1
  8
SLD-0
  6
CONTINUOUS
 62
     7
100
AcDbCircle
 10
993.847251065
 20
399.4408763681
 30
0.0
 40
0.5000019306898084
100
AcDbArc
 50
70.0007794293
 51
159.999961264
  0
ARC
  5
3E0
330
1B
100
AcDbEntity
 67
     1
  8
SLD-0
  6
CONTINUOUS
 62
     7
100
AcDbCircle
 10
984.6127126678
 20
374.069173617
 30
0.0
 40
0.4999973495008092
100
AcDbArc
 50
159.9994981269
 51
249.9999994868
  0
ARC
  5
3E1
330
1B
100
AcDbEntity
 67
     1
  8
SLD-0
  6
CONTINUOUS
 62
     7
100
AcDbCircle
 10
881.574567031
 20
373.9213374177
 30
0.0
 40
0.9999989800189081
100
AcDbArc
 50
359.9995178563
 51
90.0001337867
  0
ARC
  5
3E2
330
1B
100
AcDbEntity
 67
     1
  8
SLD-0
  6
CONTINUOUS
 62
     7
100
AcDbCircle
 10
739.574564696
 20
373.9213339077
 30
0.0
 40
1.000000790006978
100
AcDbArc
 50
90.0000716197
 51
180.0002131401
  0
ARC
  5
3E3
330
1B
100
AcDbEntity
 67
     1
  8
SLD-0
  6
CONTINUOUS
 62
     7
100
AcDbCircle
 10
774.774566381
 20
256.2203093527
 30
0.0
 40
0.4738174000000299
100
AcDbArc
 50
0.0
 51
90.0
  0
ARC
  5
3E4
330
1B
100
AcDbEntity
 67
     1
  8
SLD-0
  6
CONTINUOUS
 62
     7
100
AcDbCircle
 10
860.774567841
 20
256.2203078827
 30
0.0
 40
0.4738174100014036
100
AcDbArc
 50
0.0001862226
 51
90.0
  0
ARC
  5
3E5
330
1B
100
AcDbEntity
 67
     1
  8
SLD-0
  6
CONTINUOUS
 62
     7
100
AcDbCircle
 10
863.2745671876
 20
241.3203085433
 30
0.0
 40
3.000000000239319
100
AcDbArc
 50
289.471220601
 51
70.5287793353
  0
ARC
  5
3E6
330
1B
100
AcDbEntity
 67
     1
  8
SLD-0
  6
CONTINUOUS
 62
     7
100
AcDbCircle
 10
873.274567186
 20
253.3203081377
 30
0.0
 40
0.999999590004429
100
AcDbArc
 50
0.0
 51
90.0001713145
  0
ARC
  5
3E7
330
1B
100
AcDbEntity
 67
     1
  8
SLD-0
  6
CONTINUOUS
 62
     7
100
AcDbCircle
 10
742.874566891
 20
370.6213339077
 30
0.0
 40
1.500000295000064
100
AcDbArc
 50
90.0
 51
179.9999992361
  0
ARC
  5
3E8
330
1B
100
AcDbEntity
 67
     1
  8
SLD-0
  6
CONTINUOUS
 62
     7
100
AcDbCircle
 10
878.274568136
 20
370.6213343677
 30
0.0
 40
1.500002895000829
100
AcDbArc
 50
359.9999719251
 51
90.0000593965
  0
ARC
  5
3E9
330
1B
100
AcDbEntity
 67
     1
  8
SLD-0
  6
CONTINUOUS
 62
     7
100
AcDbCircle
 10
740.9450093377
 20
442.0157462578
 30
0.0
 40
1.499998848349157
100
AcDbArc
 50
181.9999539518
 51
270.000082506
  0
ARC
  5
3EA
330
1B
100
AcDbEntity
 67
     1
  8
SLD-0
  6
CONTINUOUS
 62
     7
100
AcDbCircle
 10
939.4566712828
 20
234.7403095083
 30
0.0
 40
2.999998526837129
100
AcDbArc
 50
180.0000183454
 51
267.9999968352
  0
ARC
  5
3EB
330
1B
100
AcDbEntity
 67
     1
  8
SLD-0
  6
CONTINUOUS
 62
     7
100
AcDbCircle
 10
988.7566893182
 20
375.2213375659
 30
0.0
 40
1.0
100
AcDbArc
 50
0.0
 51
180.0
  0
ARC
  5
3EC
330
1B
100
AcDbEntity
 67
     1
  8
SLD-0
  6
CONTINUOUS
 62
     7
100
AcDbCircle
 10
1008.756679671
 20
376.2213339077
 30
0.0
 40
3.000000335000237
100
AcDbArc
 50
180.0
 51
269.9999656225
  0
ARC
  5
3ED
330
1B
100
AcDbEntity
 67
     1
  8
SLD-0
  6
CONTINUOUS
 62
     7
100
AcDbCircle
 10
986.256682851
 20
376.7213355677
 30
0.0
 40
0.500001845011843
100
AcDbArc
 50
89.9994545462
 51
180.0001180289
  0
ARC
  5
3EE
330
1B
100
AcDbEntity
 67
     1
  8
SLD-0
  6
CONTINUOUS
 62
     7
100
AcDbCircle
 10
988.7566893182
 20
375.2213375659
 30
0.0
 40
1.0
100
AcDbArc
 50
180.0
 51
270.0
  0
ARC
  5
3EF
330
1B
100
AcDbEntity
 67
     1
  8
SLD-0
  6
CONTINUOUS
 62
     7
100
AcDbCircle
 10
988.7566893182
 20
375.2213375659
 30
0.0
 40
3.500001287535642
100
AcDbArc
 50
106.870010971
 51
198.68218745
  0
ARC
  5
3F0
330
1B
100
AcDbEntity
 67
     1
  8
SLD-0
  6
CONTINUOUS
 62
     7
100
AcDbCircle
 10
984.9674484773
 20
373.9400631556
 30
0.0
 40
0.4999999956087647
100
AcDbArc
 50
250.0000001637
 51
18.6821877897
  0
ARC
  5
3F1
330
1B
100
AcDbEntity
 67
     1
  8
SLD-0
  6
CONTINUOUS
 62
     7
100
AcDbCircle
 10
1013.256679671
 20
372.7213339077
 30
0.0
 40
0.4999996650000353
100
AcDbArc
 50
0.0
 51
90.0000148969
  0
ARC
  5
3F2
330
1B
100
AcDbEntity
 67
     1
  8
SLD-0
  6
CONTINUOUS
 62
     7
100
AcDbCircle
 10
1005.256682851
 20
376.7213339077
 30
0.0
 40
0.5000035050017381
100
AcDbArc
 50
359.9998819715
 51
90.0001650107
  0
ARC
  5
3F3
330
1B
100
AcDbEntity
 67
     1
  8
SLD-0
  6
PHANTOM
 62
     7
100
AcDbCircle
 10
141.074573956
 20
521.7657458287
 30
0.0
 40
0.75
100
AcDbArc
 50
270.0
 51
90.0
  0
ARC
  5
3F4
330
1B
100
AcDbEntity
 67
     1
  8
SLD-0
  6
PHANTOM
 62
     7
100
AcDbCircle
 10
419.756669316
 20
308.0713308877
 30
0.0
 40
1.000000130011699
100
AcDbArc
 50
0.0
 51
90.000392476
  0
ARC
  5
3F5
330
1B
100
AcDbEntity
 67
     1
  8
SLD-0
  6
PHANTOM
 62
     7
100
AcDbCircle
 10
437.706669466
 20
322.2213306077
 30
0.0
 40
0.75
100
AcDbArc
 50
0.0
 51
180.0
  0
ARC
  5
3F6
330
1B
100
AcDbEntity
 67
     1
  8
SLD-0
  6
PHANTOM
 62
     7
100
AcDbCircle
 10
420.356669466
 20
330.1713306077
 30
0.0
 40
1.00000000000011
100
AcDbArc
 50
0.0
 51
66.42182152
  0
ARC
  5
3F7
330
1B
100
AcDbEntity
 67
     1
  8
SLD-0
  6
CONTINUOUS
 62
     7
100
AcDbCircle
 10
437.7066694711
 20
233.4713323077
 30
0.0
 40
0.7500000000000568
100
AcDbArc
 50
0.0
 51
180.0
  0
ARC
  5
3F8
330
1B
100
AcDbEntity
 67
     1
  8
SLD-0
  6
CONTINUOUS
 62
     7
100
AcDbCircle
 10
433.3566695711
 20
229.2213322077
 30
0.0
 40
2.0
100
AcDbArc
 50
270.0
 51
0.0
  0
ARC
  5
3F9
330
1B
100
AcDbEntity
 67
     1
  8
SLD-0
  6
PHANTOM
 62
     7
100
AcDbCircle
 10
420.356669466
 20
325.9713306077
 30
0.0
 40
1.0
100
AcDbArc
 50
270.0
 51
0.0
  0
ARC
  5
3FA
330
1B
100
AcDbEntity
 67
     1
  8
SLD-0
  6
PHANTOM
 62
     7
100
AcDbCircle
 10
420.356666956
 20
308.7713281077
 30
0.0
 40
1.000000000000013
100
AcDbArc
 50
293.57817848
 51
0.0
  0
ARC
  5
3FB
330
1B
100
AcDbEntity
 67
     1
  8
SLD-0
  6
PHANTOM
 62
     7
100
AcDbCircle
 10
398.256669316
 20
308.0713306077
 30
0.0
 40
1.00000015000001
100
AcDbArc
 50
90.0
 51
179.9999942704
  0
ARC
  5
3FC
330
1B
100
AcDbEntity
 67
     1
  8
SLD-0
  6
PHANTOM
 62
     7
100
AcDbCircle
 10
398.256669466
 20
330.8713306077
 30
0.0
 40
1.0
100
AcDbArc
 50
180.0
 51
270.0
  0
ARC
  5
3FD
330
1B
100
AcDbEntity
 67
     1
  8
SLD-0
  6
PHANTOM
 62
     7
100
AcDbCircle
 10
437.706669466
 20
316.7213306077
 30
0.0
 40
0.75
100
AcDbArc
 50
180.0
 51
0.0
  0
ARC
  5
3FE
330
1B
100
AcDbEntity
 67
     1
  8
SLD-0
  6
PHANTOM
 62
     7
100
AcDbCircle
 10
420.356669466
 20
312.9713281077
 30
0.0
 40
1.000002820005465
100
AcDbArc
 50
0.0000091673
 51
89.9998109245
  0
ARC
  5
3FF
330
1B
100
AcDbEntity
 67
     1
  8
SLD-0
  6
PHANTOM
 62
     7
100
AcDbCircle
 10
136.824573956
 20
517.4157462587
 30
0.0
 40
2.000003470000289
100
AcDbArc
 50
89.9999704927
 51
180.0000042972
  0
ARC
  5
400
330
1B
100
AcDbEntity
 67
     1
  8
SLD-0
  6
PHANTOM
 62
     7
100
AcDbCircle
 10
135.574573956
 20
521.7657458287
 30
0.0
 40
0.75
100
AcDbArc
 50
90.0
 51
270.0
  0
ARC
  5
401
330
1B
100
AcDbEntity
 67
     1
  8
SLD-0
  6
CONTINUOUS
 62
     7
100
AcDbCircle
 10
437.7066694711
 20
227.9713323077
 30
0.0
 40
0.7500000000000568
100
AcDbArc
 50
180.0
 51
0.0
  0
ARC
  5
402
330
1B
100
AcDbEntity
 67
     1
  8
SLD-0
  6
CONTINUOUS
 62
     7
100
AcDbCircle
 10
435.3566734811
 20
233.1213350077
 30
0.0
 40
1.599997379999996
100
AcDbArc
 50
359.9998997322
 51
90.0
  0
ARC
  5
403
330
1B
100
AcDbEntity
 67
     1
  8
SLD-0
  6
PHANTOM
 62
     7
100
AcDbCircle
 10
419.756669466
 20
330.8713306077
 30
0.0
 40
1.0
100
AcDbArc
 50
270.0
 51
0.0
  0
ARC
  5
404
330
1B
100
AcDbEntity
 67
     1
  8
SLD-0
  6
CONTINUOUS
 62
     7
100
AcDbCircle
 10
373.956669777
 20
376.7213281977
 30
0.0
 40
2.000000000000057
100
AcDbArc
 50
90.0
 51
180.0
  0
ARC
  5
405
330
1B
100
AcDbEntity
 67
     1
  8
SLD-0
  6
CONTINUOUS
 62
     7
100
AcDbCircle
 10
437.706669347
 20
377.9713277477
 30
0.0
 40
0.7500000000000568
100
AcDbArc
 50
0.0
 51
180.0
  0
ARC
  5
406
330
1B
100
AcDbEntity
 67
     1
  8
SLD-0
  6
CONTINUOUS
 62
     7
100
AcDbCircle
 10
373.9566695711
 20
229.2213323077
 30
0.0
 40
2.000000100002425
100
AcDbArc
 50
180.0
 51
269.9999111915
  0
ARC
  5
407
330
1B
100
AcDbEntity
 67
     1
  8
SLD-0
  6
CONTINUOUS
 62
     7
100
AcDbCircle
 10
435.356673247
 20
372.8213277577
 30
0.0
 40
1.599997280000025
100
AcDbArc
 50
270.0
 51
0.0
  0
ARC
  5
408
330
1B
100
AcDbEntity
 67
     1
  8
SLD-0
  6
CONTINUOUS
 62
     7
100
AcDbCircle
 10
437.706669347
 20
372.4713277477
 30
0.0
 40
0.7500000000000568
100
AcDbArc
 50
180.0
 51
0.0
  0
ARC
  5
409
330
1B
100
AcDbEntity
 67
     1
  8
SLD-0
  6
CONTINUOUS
 62
     7
100
AcDbCircle
 10
433.356669777
 20
376.7213277477
 30
0.0
 40
2.000003470000289
100
AcDbArc
 50
359.9999704927
 51
90.0000042972
  0
ARC
  5
40A
330
1B
100
AcDbEntity
 67
     1
  8
SLD-0
  6
PHANTOM
 62
     7
100
AcDbCircle
 10
280.424568066
 20
519.4157497677
 30
0.0
 40
1.599997379999991
100
AcDbArc
 50
89.9998997322
 51
180.0
  0
ARC
  5
40B
330
1B
100
AcDbEntity
 67
     1
  8
SLD-0
  6
PHANTOM
 62
     7
100
AcDbCircle
 10
285.574570766
 20
521.7657457577
 30
0.0
 40
0.75
100
AcDbArc
 50
270.0
 51
90.0
  0
ARC
  5
40C
330
1B
100
AcDbEntity
 67
     1
  8
SLD-0
  6
PHANTOM
 62
     7
100
AcDbCircle
 10
284.324570766
 20
458.0157458577
 30
0.0
 40
2.000000100002368
100
AcDbArc
 50
270.0
 51
359.9999111915
  0
ARC
  5
40D
330
1B
100
AcDbEntity
 67
     1
  8
SLD-0
  6
PHANTOM
 62
     7
100
AcDbCircle
 10
140.724573946
 20
519.4157497287
 30
0.0
 40
1.599997280000025
100
AcDbArc
 50
0.0
 51
90.0
  0
ARC
  5
40E
330
1B
100
AcDbEntity
 67
     1
  8
SLD-0
  6
PHANTOM
 62
     7
100
AcDbCircle
 10
136.824573506
 20
458.0157462587
 30
0.0
 40
2.0
100
AcDbArc
 50
180.0
 51
270.0
  0
ARC
  5
40F
330
1B
100
AcDbEntity
 67
     1
  8
SLD-0
  6
CONTINUOUS
 62
     7
100
AcDbCircle
 10
197.274569156
 20
376.7213334577
 30
0.0
 40
2.00000151000004
100
AcDbArc
 50
0.0
 51
89.9999891138
  0
ARC
  5
410
330
1B
100
AcDbEntity
 67
     1
  8
SLD-0
  6
CONTINUOUS
 62
     7
100
AcDbCircle
 10
189.074567196
 20
375.2213339077
 30
0.0
 40
1.566987300000086
100
AcDbArc
 50
348.96257286
 51
191.03742714
  0
ARC
  5
411
330
1B
100
AcDbEntity
 67
     1
  8
SLD-0
  6
CONTINUOUS
 62
     7
100
AcDbCircle
 10
201.874567196
 20
374.9213339077
 30
0.0
 40
1.60000000000008
100
AcDbArc
 50
0.0
 51
90.0
  0
ARC
  5
412
330
1B
100
AcDbEntity
 67
     1
  8
SLD-0
  6
PHANTOM
 62
     7
100
AcDbCircle
 10
136.824567381
 20
294.5713339077
 30
0.0
 40
1.999999895001255
100
AcDbArc
 50
90.0000890949
 51
179.9999939839
  0
ARC
  5
413
330
1B
100
AcDbEntity
 67
     1
  8
SLD-0
  6
PHANTOM
 62
     7
100
AcDbCircle
 10
138.324567196
 20
286.3713339077
 30
0.0
 40
2.000000000000039
100
AcDbArc
 50
82.81924422
 51
277.18075578
  0
ARC
  5
414
330
1B
100
AcDbEntity
 67
     1
  8
SLD-0
  6
PHANTOM
 62
     7
100
AcDbCircle
 10
138.624567196
 20
273.5713339077
 30
0.0
 40
1.599999999999972
100
AcDbArc
 50
180.0
 51
268.20921534
  0
ARC
  5
415
330
1B
100
AcDbEntity
 67
     1
  8
SLD-0
  6
PHANTOM
 62
     7
100
AcDbCircle
 10
284.324566406
 20
327.6713348277
 30
0.0
 40
1.999999870001232
100
AcDbArc
 50
0.0
 51
90.0000633118
  0
ARC
  5
416
330
1B
100
AcDbEntity
 67
     1
  8
SLD-0
  6
PHANTOM
 62
     7
100
AcDbCircle
 10
282.824567196
 20
319.4713339077
 30
0.0
 40
1.566987300000081
100
AcDbArc
 50
260.81969738
 51
99.18030262
  0
ARC
  5
417
330
1B
100
AcDbEntity
 67
     1
  8
SLD-0
  6
PHANTOM
 62
     7
100
AcDbCircle
 10
282.524568116
 20
306.6713339077
 30
0.0
 40
1.600000930000117
100
AcDbArc
 50
271.79078466
 51
0.0000053715
  0
ARC
  5
418
330
1B
100
AcDbEntity
 67
     1
  8
SLD-0
  6
CONTINUOUS
 62
     7
100
AcDbCircle
 10
223.874567086
 20
229.1213339077
 30
0.0
 40
2.000000320003303
100
AcDbArc
 50
180.0001037053
 51
269.9999971352
  0
ARC
  5
419
330
1B
100
AcDbEntity
 67
     1
  8
SLD-0
  6
CONTINUOUS
 62
     7
100
AcDbCircle
 10
232.074567196
 20
230.6213339077
 30
0.0
 40
1.999999999999982
100
AcDbArc
 50
171.37307344
 51
8.62692656
  0
ARC
  5
41A
330
1B
100
AcDbEntity
 67
     1
  8
SLD-0
  6
CONTINUOUS
 62
     7
100
AcDbCircle
 10
244.874567196
 20
230.9213339077
 30
0.0
 40
1.60000000000008
100
AcDbArc
 50
270.0
 51
0.0
  0
ARC
  5
41B
330
1B
100
AcDbEntity
 67
     1
  8
SLD-0
  6
CONTINUOUS
 62
     7
100
AcDbCircle
 10
180.874569156
 20
376.7213339077
 30
0.0
 40
2.000001060000287
100
AcDbArc
 50
90.0000180482
 51
180.0000297938
  0
ARC
  5
41C
330
1B
100
AcDbEntity
 67
     1
  8
SLD-0
  6
CONTINUOUS
 62
     7
100
AcDbCircle
 10
189.074567196
 20
375.2213339077
 30
0.0
 40
2.000000000000039
100
AcDbArc
 50
351.37307344
 51
188.62692656
  0
ARC
  5
41D
330
1B
100
AcDbEntity
 67
     1
  8
SLD-0
  6
CONTINUOUS
 62
     7
100
AcDbCircle
 10
176.274567196
 20
374.9213339077
 30
0.0
 40
1.60000000000008
100
AcDbArc
 50
90.0
 51
180.0
  0
ARC
  5
41E
330
1B
100
AcDbEntity
 67
     1
  8
SLD-0
  6
PHANTOM
 62
     7
100
AcDbCircle
 10
136.824567666
 20
278.1713339077
 30
0.0
 40
2.000000180002375
100
AcDbArc
 50
180.0000094538
 51
269.9999111916
  0
ARC
  5
41F
330
1B
100
AcDbEntity
 67
     1
  8
SLD-0
  6
PHANTOM
 62
     7
100
AcDbCircle
 10
138.324567196
 20
286.3713339077
 30
0.0
 40
1.566987299999973
100
AcDbArc
 50
80.81969738
 51
279.18030262
  0
ARC
  5
420
330
1B
100
AcDbEntity
 67
     1
  8
SLD-0
  6
PHANTOM
 62
     7
100
AcDbCircle
 10
138.624567196
 20
299.1713339077
 30
0.0
 40
1.600000000000086
100
AcDbArc
 50
91.79078466
 51
180.0
  0
ARC
  5
421
330
1B
100
AcDbEntity
 67
     1
  8
SLD-0
  6
PHANTOM
 62
     7
100
AcDbCircle
 10
284.324567196
 20
311.2713348277
 30
0.0
 40
2.000000920000063
100
AcDbArc
 50
270.0
 51
0.000007162
  0
ARC
  5
422
330
1B
100
AcDbEntity
 67
     1
  8
SLD-0
  6
PHANTOM
 62
     7
100
AcDbCircle
 10
282.824567196
 20
319.4713339077
 30
0.0
 40
2.000000000000043
100
AcDbArc
 50
262.81924422
 51
97.18075578
  0
ARC
  5
423
330
1B
100
AcDbEntity
 67
     1
  8
SLD-0
  6
PHANTOM
 62
     7
100
AcDbCircle
 10
282.524568116
 20
332.2713339077
 30
0.0
 40
1.600000930000288
100
AcDbArc
 50
359.9999656226
 51
88.20921534
  0
ARC
  5
424
330
1B
100
AcDbEntity
 67
     1
  8
SLD-0
  6
CONTINUOUS
 62
     7
100
AcDbCircle
 10
240.274567086
 20
229.1213344277
 30
0.0
 40
2.000000620003256
100
AcDbArc
 50
270.0
 51
359.9998962947
  0
ARC
  5
425
330
1B
100
AcDbEntity
 67
     1
  8
SLD-0
  6
CONTINUOUS
 62
     7
100
AcDbCircle
 10
232.074567196
 20
230.6213339077
 30
0.0
 40
1.566987300000025
100
AcDbArc
 50
168.96257286
 51
11.03742714
  0
ARC
  5
426
330
1B
100
AcDbEntity
 67
     1
  8
SLD-0
  6
CONTINUOUS
 62
     7
100
AcDbCircle
 10
219.274567196
 20
230.9213339077
 30
0.0
 40
1.600000000000051
100
AcDbArc
 50
180.0
 51
270.0
  0
ARC
  5
427
330
1B
100
AcDbEntity
 67
     1
  8
SLD-0
  6
CONTINUOUS
 62
     7
100
AcDbCircle
 10
857.574565496
 20
398.9213317977
 30
0.0
 40
1.0
100
AcDbArc
 50
0.0
 51
90.0
  0
ARC
  5
428
330
1B
100
AcDbEntity
 67
     1
  8
SLD-0
  6
CONTINUOUS
 62
     7
100
AcDbCircle
 10
763.574564666
 20
398.9213317977
 30
0.0
 40
1.0
100
AcDbArc
 50
90.0
 51
180.0
  0
ARC
  5
429
330
1B
100
AcDbEntity
 67
     1
  8
SLD-0
  6
PHANTOM
 62
     7
100
AcDbCircle
 10
284.324570866
 20
517.4157458577
 30
0.0
 40
2.0
100
AcDbArc
 50
0.0
 51
90.0
  0
ARC
  5
42A
330
1B
100
AcDbEntity
 67
     1
  8
SLD-0
  6
CONTINUOUS
 62
     7
100
AcDbCircle
 10
178.374567816
 20
504.4157462377
 30
0.0
 40
1.0
100
AcDbArc
 50
90.0
 51
156.42182152
  0
ARC
  5
42B
330
1B
100
AcDbEntity
 67
     1
  8
SLD-0
  6
CONTINUOUS
 62
     7
100
AcDbCircle
 10
191.824567816
 20
521.7657462377
 30
0.0
 40
0.7500000000001137
100
AcDbArc
 50
270.0
 51
90.0
  0
ARC
  5
42C
330
1B
100
AcDbEntity
 67
     1
  8
SLD-0
  6
CONTINUOUS
 62
     7
100
AcDbCircle
 10
200.474567536
 20
503.8157460877
 30
0.0
 40
1.000000130011813
100
AcDbArc
 50
90.0
 51
180.000392476
  0
ARC
  5
42D
330
1B
100
AcDbEntity
 67
     1
  8
SLD-0
  6
CONTINUOUS
 62
     7
100
AcDbCircle
 10
195.574570316
 20
504.4157462377
 30
0.0
 40
1.000002820005465
100
AcDbArc
 50
90.0000091673
 51
179.9998109245
  0
ARC
  5
42E
330
1B
100
AcDbEntity
 67
     1
  8
SLD-0
  6
PHANTOM
 62
     7
100
AcDbCircle
 10
280.074570766
 20
521.7657457577
 30
0.0
 40
0.75
100
AcDbArc
 50
90.0
 51
270.0
  0
ARC
  5
42F
330
1B
100
AcDbEntity
 67
     1
  8
SLD-0
  6
CONTINUOUS
 62
     7
100
AcDbCircle
 10
177.674567816
 20
503.8157462377
 30
0.0
 40
1.0
100
AcDbArc
 50
0.0
 51
90.0
  0
ARC
  5
430
330
1B
100
AcDbEntity
 67
     1
  8
SLD-0
  6
CONTINUOUS
 62
     7
100
AcDbCircle
 10
199.774570316
 20
504.4157437277
 30
0.0
 40
1.0
100
AcDbArc
 50
23.57817848
 51
90.0
  0
ARC
  5
431
330
1B
100
AcDbEntity
 67
     1
  8
SLD-0
  6
CONTINUOUS
 62
     7
100
AcDbCircle
 10
182.574567816
 20
504.4157462377
 30
0.0
 40
1.0
100
AcDbArc
 50
0.0
 51
90.0
  0
ARC
  5
432
330
1B
100
AcDbEntity
 67
     1
  8
SLD-0
  6
CONTINUOUS
 62
     7
100
AcDbCircle
 10
186.324567816
 20
521.7657462377
 30
0.0
 40
0.7500000000001137
100
AcDbArc
 50
90.0
 51
270.0
  0
ARC
  5
433
330
1B
100
AcDbEntity
 67
     1
  8
SLD-0
  6
CONTINUOUS
 62
     7
100
AcDbCircle
 10
177.674567816
 20
482.3157462377
 30
0.0
 40
1.0
100
AcDbArc
 50
270.0
 51
0.0
  0
ARC
  5
434
330
1B
100
AcDbEntity
 67
     1
  8
SLD-0
  6
CONTINUOUS
 62
     7
100
AcDbCircle
 10
200.474567816
 20
482.3157460877
 30
0.0
 40
1.00000015000001
100
AcDbArc
 50
180.0
 51
269.9999942704
  0
ELLIPSE
  5
435
330
1B
100
AcDbEntity
 67
     1
  8
SLD-0
  6
CONTINUOUS
 62
     7
100
AcDbEllipse
 10
281.573957646
 20
373.9207243677
 30
0.0
 11
0.7079685445991686
 21
0.7079685445992255
 31
0.0
210
0.0
220
0.0
230
1.0
 40
0.99878277
 41
5.498396131367513
 42
7.067974482991593
  0
ELLIPSE
  5
436
330
1B
100
AcDbEntity
 67
     1
  8
SLD-0
  6
CONTINUOUS
 62
     7
100
AcDbEllipse
 10
139.575176736
 20
373.9207243677
 30
0.0
 11
-0.7079685445993391
 21
0.7079685445992255
 31
0.0
210
0.0
220
0.0
230
1.0
 40
0.99878277
 41
5.498396131367937
 42
7.0679744829916
  0
ELLIPSE
  5
437
330
1B
100
AcDbEntity
 67
     1
  8
SLD-0
  6
CONTINUOUS
 62
     7
100
AcDbEllipse
 10
281.573957646
 20
231.9219434477
 30
0.0
 11
0.7079685445991686
 21
-0.707968544599197
 31
0.0
210
0.0
220
0.0
230
1.0
 40
0.99878277
 41
5.498396131367716
 42
7.067974482991539
  0
ELLIPSE
  5
438
330
1B
100
AcDbEntity
 67
     1
  8
SLD-0
  6
CONTINUOUS
 62
     7
100
AcDbEllipse
 10
139.575176736
 20
231.9219434477
 30
0.0
 11
-0.7079685445993391
 21
-0.707968544599197
 31
0.0
210
0.0
220
0.0
230
1.0
 40
0.99878277
 41
5.498396131367873
 42
7.067974482991543
  0
ELLIPSE
  5
439
330
1B
100
AcDbEntity
 67
     1
  8
SLD-0
  6
CONTINUOUS
 62
     7
100
AcDbEllipse
 10
881.573957646
 20
373.9207243677
 30
0.0
 11
0.7079685445991116
 21
0.7079685445992253
 31
0.0
210
0.0
220
0.0
230
1.0
 40
0.99878277
 41
5.498396131367549
 42
7.067974482991079
  0
ELLIPSE
  5
43A
330
1B
100
AcDbEntity
 67
     1
  8
SLD-0
  6
CONTINUOUS
 62
     7
100
AcDbEllipse
 10
881.573957646
 20
231.9219434477
 30
0.0
 11
0.7079685445991117
 21
-0.707968544599197
 31
0.0
210
0.0
220
0.0
230
1.0
 40
0.99878277
 41
5.498396131368221
 42
7.067974482991426
  0
ELLIPSE
  5
43B
330
1B
100
AcDbEntity
 67
     1
  8
SLD-0
  6
CONTINUOUS
 62
     7
100
AcDbEllipse
 10
739.575176736
 20
373.9207243677
 30
0.0
 11
-0.7079685445991116
 21
0.7079685445992253
 31
0.0
210
0.0
220
0.0
230
1.0
 40
0.99878277
 41
5.498396131368034
 42
7.067974482991654
  0
ELLIPSE
  5
43C
330
1B
100
AcDbEntity
 67
     1
  8
SLD-0
  6
CONTINUOUS
 62
     7
100
AcDbEllipse
 10
739.575176736
 20
231.9219434477
 30
0.0
 11
-0.7079685445991117
 21
-0.707968544599197
 31
0.0
210
0.0
220
0.0
230
1.0
 40
0.99878277
 41
5.498396131367885
 42
7.06797448299138
  0
ELLIPSE
  5
43D
330
1B
100
AcDbEntity
 67
     1
  8
SLD-0
  6
CONTINUOUS
 62
     7
100
AcDbEllipse
 10
844.079086122
 20
495.533847289
 30
0.0
 11
0.4095760221447336
 21
0.409576022144563
 31
0.0
210
0.0
220
0.0
230
1.0
 40
0.70020754
 41
3.7524553191178
 42
4.101523742195018
  0
ELLIPSE
  5
43E
330
1B
100
AcDbEntity
 67
     1
  8
SLD-0
  6
CONTINUOUS
 62
     7
100
AcDbEllipse
 10
777.079086122
 20
495.533847289
 30
0.0
 11
0.4095760221445062
 21
-0.4095760221443925
 31
0.0
210
0.0
220
0.0
230
1.0
 40
0.70020754
 41
5.323254218582681
 42
5.672319236278966
  0
MTEXT
  5
440
330
1B
100
AcDbEntity
 67
     1
  8
SLD-0
 62
     7
100
AcDbMText
 10
578.255046026
 20
581.1578787877
 30
0.0
 40
9.525
 41
0.0
 71
     1
 72
     1
  1
Desktop type
  7
SLDTEXTSTYLE0
  0
MTEXT
  5
442
330
1B
100
AcDbEntity
 67
     1
  8
SLD-0
 62
     7
100
AcDbMText
 10
875.5271497655
 20
117.7250878238
 30
0.0
 40
19.05
 41
0.0
 71
     1
 72
     1
  1
000
  7
SLDTEXTSTYLE1
  0
ENDSEC
  0
SECTION
  2
OBJECTS
  0
DICTIONARY
  5
C
330
0
100
AcDbDictionary
  3
ACAD_GROUP
350
D
  3
ACAD_MLINESTYLE
350
17
  3
ACAD_SCALELIST
350
47
  3
DWGPROPS
350
443
  0
DICTIONARY
  5
D
102
{ACAD_REACTORS
330
C
102
}
330
C
100
AcDbDictionary
  0
DICTIONARY
  5
17
102
{ACAD_REACTORS
330
C
102
}
330
C
100
AcDbDictionary
  3
STANDARD
350
18
  0
DICTIONARY
  5
47
102
{ACAD_REACTORS
330
C
102
}
330
C
100
AcDbDictionary
  0
XRECORD
  5
443
102
{ACAD_REACTORS
330
C
102
}
330
C
100
AcDbXrecord
  1
DWGPROPS COOKIE
  2

  3

  4

  6

  7

  8
m9yoshida
  9

300
=
301
=
302
=
303
=
304
=
305
=
306
=
307
=
308
=
309
=
 40
0.0
 41
2460803.191194908
 42
2460803.191197327
  1

 90
        0
  0
MLINESTYLE
  5
18
102
{ACAD_REACTORS
330
17
102
}
330
17
100
AcDbMlineStyle
  2
Standard
 70
     0
  3

 62
   256
 51
90.0
 52
90.0
 71
     2
 49
0.5
 62
   256
  6
BYLAYER
 49
-0.5
 62
   256
  6
BYLAYER
  0
ENDSEC
  0
EOF
