  0
SECTION
  2
HEADER
  9
$ACADVER
  1
AC1014
  9
$ACADMAINTVER
 70
       0
  9
$DWGCODEPAGE
  3
ANSI_932
  9
$INSBASE
 10
0.0
 20
0.0
 30
0.0
  9
$EXTMIN
 10
-71.97351239
 20
-73.8876796
 30
0.0
  9
$EXTMAX
 10
68.72351241
 20
71.3876796
 30
0.0
  9
$LIMMIN
 10
-76.37029441
 20
-78.42753458
  9
$LIMMAX
 10
73.12029444
 20
75.92753458
  9
$ORTHOMODE
 70
       0
  9
$REGENMODE
 70
       1
  9
$FILLMODE
 70
       1
  9
$QTEXTMODE
 70
       0
  9
$MIRRTEXT
 70
       1
  9
$DRAGMODE
 70
       2
  9
$LTSCALE
 40
1.0
  9
$OSMODE
 70
       0
  9
$ATTMODE
 70
       1
  9
$TEXTSIZE
 40
0.2
  9
$TRACEWID
 40
0.05
  9
$TEXTSTYLE
  7
STANDARD
  9
$CLAYER
  8
0
  9
$CELTYPE
  6
CONTINUOUS
  9
$CECOLOR
 62
     256
  9
$CELTSCALE
 40
1.0
  9
$DELOBJ
 70
       1
  9
$DISPSILH
 70
       0
  9
$DIMSCALE
 40
1.0
  9
$DIMASZ
 40
0.18
  9
$DIMEXO
 40
0.0625
  9
$DIMDLI
 40
0.38
  9
$DIMRND
 40
0.0
  9
$DIMDLE
 40
0.0
  9
$DIMEXE
 40
0.18
  9
$DIMTP
 40
0.0
  9
$DIMTM
 40
0.0
  9
$DIMTXT
 40
0.18
  9
$DIMCEN
 40
0.09
  9
$DIMTSZ
 40
0.0
  9
$DIMTOL
 70
       0
  9
$DIMLIM
 70
       0
  9
$DIMTIH
 70
       1
  9
$DIMTOH
 70
       1
  9
$DIMSE1
 70
       0
  9
$DIMSE2
 70
       0
  9
$DIMTAD
 70
       0
  9
$DIMZIN
 70
       0
  9
$DIMBLK
  1

  9
$DIMASO
 70
       1
  9
$DIMSHO
 70
       1
  9
$DIMPOST
  1

  9
$DIMAPOST
  1

  9
$DIMALT
 70
       0
  9
$DIMALTD
 70
       2
  9
$DIMALTF
 40
25.4
  9
$DIMLFAC
 40
1.0
  9
$DIMTOFL
 70
       0
  9
$DIMTVP
 40
0.0
  9
$DIMTIX
 70
       0
  9
$DIMSOXD
 70
       0
  9
$DIMSAH
 70
       0
  9
$DIMBLK1
  1

  9
$DIMBLK2
  1

  9
$DIMSTYLE
  2
STANDARD
  9
$DIMCLRD
 70
       0
  9
$DIMCLRE
 70
       0
  9
$DIMCLRT
 70
       0
  9
$DIMTFAC
 40
1.0
  9
$DIMGAP
 40
0.09
  9
$DIMJUST
 70
       0
  9
$DIMSD1
 70
       0
  9
$DIMSD2
 70
       0
  9
$DIMTOLJ
 70
       1
  9
$DIMTZIN
 70
       0
  9
$DIMALTZ
 70
       0
  9
$DIMALTTZ
 70
       0
  9
$DIMFIT
 70
       3
  9
$DIMUPT
 70
       0
  9
$DIMUNIT
 70
       2
  9
$DIMDEC
 70
       4
  9
$DIMTDEC
 70
       4
  9
$DIMALTU
 70
       2
  9
$DIMALTTD
 70
       2
  9
$DIMTXSTY
  7
STANDARD
  9
$DIMAUNIT
 70
       0
  9
$LUNITS
 70
       2
  9
$LUPREC
 70
       4
  9
$SKETCHINC
 40
0.1
  9
$FILLETRAD
 40
0.0
  9
$AUNITS
 70
       0
  9
$AUPREC
 70
       0
  9
$MENU
  1
acad
  9
$ELEVATION
 40
0.0
  9
$PELEVATION
 40
0.0
  9
$THICKNESS
 40
0.0
  9
$LIMCHECK
 70
       0
  9
$BLIPMODE
 70
       1
  9
$CHAMFERA
 40
0.0
  9
$CHAMFERB
 40
0.0
  9
$CHAMFERC
 40
0.0
  9
$CHAMFERD
 40
0.0
  9
$SKPOLY
 70
       0
  9
$TDCREATE
 40
0.000000000
  9
$TDUPDATE
 40
0.000000000
  9
$TDINDWG
 40
0.0000000000
  9
$TDUSRTIMER
 40
0.0000000000
  9
$USRTIMER
 70
       1
  9
$ANGBASE
 50
0.0
  9
$ANGDIR
 70
       0
  9
$PDMODE
 70
       0
  9
$PDSIZE
 40
1.0
  9
$PLINEWID
 40
0.0
  9
$COORDS
 70
       1
  9
$SPLFRAME
 70
       0
  9
$SPLINETYPE
 70
       6
  9
$SPLINESEGS
 70
       8
  9
$ATTDIA
 70
       0
  9
$ATTREQ
 70
       1
  9
$HANDLING
 70
       1
  9
$HANDSEED
  5
8E
  9
$SURFTAB1
 70
       6
  9
$SURFTAB2
 70
       6
  9
$SURFTYPE
 70
       6
  9
$SURFU
 70
       6
  9
$SURFV
 70
       6
  9
$UCSNAME
  2

  9
$UCSORG
 10
0.0
 20
0.0
 30
0.0
  9
$UCSXDIR
 10
1.0
 20
0.0
 30
0.0
  9
$UCSYDIR
 10
0.0
 20
1.0
 30
0.0
  9
$PUCSNAME
  2

  9
$PUCSORG
 10
0.0
 20
0.0
 30
0.0
  9
$PUCSXDIR
 10
1.0
 20
0.0
 30
0.0
  9
$PUCSYDIR
 10
0.0
 20
1.0
 30
0.0
  9
$USERI1
 70
       0
  9
$USERI2
 70
       0
  9
$USERI3
 70
       0
  9
$USERI4
 70
       0
  9
$USERI5
 70
       0
  9
$USERR1
 40
0.0
  9
$USERR2
 40
0.0
  9
$USERR3
 40
0.0
  9
$USERR4
 40
0.0
  9
$USERR5
 40
0.0
  9
$WORLDVIEW
 70
       1
  9
$SHADEDGE
 70
       3
  9
$SHADEDIF
 70
      70
  9
$TILEMODE
 70
       1
  9
$MAXACTVP
 70
      16
  9
$PINSBASE
 10
0.0
 20
0.0
 30
0.0
  9
$PLIMCHECK
 70
       0
  9
$PEXTMIN
 10
1.00000000E+20
 20
1.00000000E+20
 30
1.00000000E+20
  9
$PEXTMAX
 10
-1.00000000E+20
 20
-1.00000000E+20
 30
-1.00000000E+20
  9
$PLIMMIN
 10
0.0
 20
0.0
  9
$PLIMMAX
 10
12.0
 20
9.0
  9
$UNITMODE
 70
       0
  9
$VISRETAIN
 70
       0
  9
$PLINEGEN
 70
       1
  9
$PSLTSCALE
 70
       0
  9
$TREEDEPTH
 70
    3020
  9
$PICKSTYLE
 70
       1
  9
$CMLSTYLE
  2
STANDARD
  9
$CMLJUST
 70
       0
  9
$CMLSCALE
 40
1.0
  9
$PROXYGRAPHICS
 70
       0
  9
$MEASUREMENT
 70
       0
  0
ENDSEC
  0
SECTION
  2
CLASSES
  0
CLASS
  1
LWPOLYLINE
  2
AcDbPolyline
  3
"AutoCAD"
 90
        0
280
       0
281
       1
  0
CLASS
  1
IMAGE
  2
AcDbRasterImage
  3
ISM
 90
      127
280
       0
281
       1
  0
CLASS
  1
OLE2FRAME
  2
AcDbOle2Frame
  3
""
 90
        0
280
       0
281
       1
  0
CLASS
  1
HATCH
  2
AcDbHatch
  3
"ACAD_SEDONA"
 90
        0
280
       0
281
       1
  0
CLASS
  1
DICTIONARYVAR
  2
AcDbDictionaryVar
  3
"AutoCAD"
 90
        0
280
       0
281
       0
  0
CLASS
  1
RASTERVARIABLES
  2
AcDbRasterVariables
  3
ISM
 90
        0
280
       0
281
       0
  0
CLASS
  1
IMAGEDEF
  2
AcDbRasterImageDef
  3
ISM
 90
        0
280
       0
281
       0
  0
CLASS
  1
IMAGEDEF_REACTOR
  2
AcDbRasterImageDefReactor
  3
ISM
 90
        1
280
       0
281
       0
  0
CLASS
  1
IDBUFFER
  2
AcDbIdBuffer
  3
"Acad"
 90
        0
280
       0
281
       0
  0
CLASS
  1
SPATIAL_FILTER
  2
AcDbSpatialFilter
  3
"Acad"
 90
        0
280
       0
281
       0
  0
CLASS
  1
XRECORD
  2
AcDbXrecord
  3
"<Built In>"
 90
        0
280
       0
281
       0
  0
CLASS
  1
SORTENTSTABLE
  2
AcDbSortentsTable
  3
"AutoCAD"
 90
        0
280
       0
281
       0
  0
CLASS
  1
LAYER_INDEX
  2
AcDbLayerIndex
  3
"Acad"
 90
        0
280
       0
281
       0
  0
CLASS
  1
SPATIAL_INDEX
  2
AcDbSpatialIndex
  3
"Acad"
 90
        0
280
       0
281
       0
  0
CLASS
  1
OBJECT_PTR
  2
CAseDLPNTableRecord
  3
"ASE-LPNTableRecord"
 90
        1
280
       0
281
       0
  0
CLASS
  1
LAYOUT
  2
AcDbLayout
  3
"AutoCAD 2000"
 90
        1
280
       0
281
       0
  0
CLASS
  1
PLOTSETTINGS
  2
AcDbPlotSettings
  3
"AutoCAD 2000"
 90
        1
280
       0
281
       0
  0
CLASS
  1
ACDBDICTIONARYWDFLT
  2
AcDbDictionaryWithDefault
  3
"AutoCAD 2000"
 90
        1
280
       0
281
       0
  0
CLASS
  1
ACDBPLACEHOLDER
  2
AcDbPlaceHolder
  3
"AutoCAD 2000"
 90
        1
280
       0
281
       0
  0
CLASS
  1
VBA_PROJECT
  2
AcDbVbaProject
  3
"acadvba"
 90
        1
280
       0
281
       0
  0
CLASS
  1
WIPEOUT
  2
AcDbWipeout
  3
WipeOut|AutoCAD Express Tool|expresstools@autodesk.com
 90
      127
280
       0
281
       1
  0
CLASS
  1
WIPEOUTVARIABLES
  2
AcDbWipeoutVariables
  3
WipeOut|AutoCAD Express Tool|expresstools@autodesk.com
 90
        0
280
       0
281
       0
  0
CLASS
  1
RTEXT
  2
RText
  3
RText|AutoCAD Express Tool|expresstools@autodesk.com
 90
        0
280
       0
281
       1
  0
CLASS
  1
ARCALIGNEDTEXT
  2
AcDbArcAlignedText
  3
ATEXT|AutoCAD Express Tool|expresstools@autodesk.com
 90
        0
280
       0
281
       1
  0
ENDSEC
  0
SECTION
  2
TABLES
  0
TABLE
  2
VPORT
  5
7
100
AcDbSymbolTable
 70
       1
  0
VPORT
  5
15
100
AcDbSymbolTableRecord
100
AcDbViewportTableRecord
  2
*ACTIVE
 70
       0
 10
0.0
 20
0.0
 11
1.0
 21
1.0
 12
-1.62499999
 22
-1.25
 13
0.0
 23
0.0
 14
1.0
 24
1.0
 15
0.0
 25
0.0
 16
0.0
 26
0.0
 36
1.0
 17
0.0
 27
0.0
 37
0.0
 40
154.35506915
 41
0.96848513
 42
50.0
 43
0.0
 44
0.0
 50
0.0
 51
0.0
 71
       0
 72
     100
 73
       1
 74
       1
 75
       0
 76
       0
 77
       0
 78
       0
  0
ENDTAB
  0
TABLE
  2
LTYPE
  5
4
100
AcDbSymbolTable
 70
      30
  0
LTYPE
  5
11
100
AcDbSymbolTableRecord
100
AcDbLinetypeTableRecord
  2
BYBLOCK
 70
      64
  3

 72
      65
 73
       0
 40
0.0
  0
LTYPE
  5
12
100
AcDbSymbolTableRecord
100
AcDbLinetypeTableRecord
  2
BYLAYER
 70
      64
  3

 72
      65
 73
       0
 40
0.0
  0
LTYPE
  5
13
100
AcDbSymbolTableRecord
100
AcDbLinetypeTableRecord
  2
CONTINUOUS
 70
      64
  3
Solid line
 72
      65
 73
       0
 40
0.0
  0
LTYPE
  5
1D
100
AcDbSymbolTableRecord
100
AcDbLinetypeTableRecord
  2
HIDDENX2
 70
      64
  3
CADPAC LINETYPE
 72
      65
 73
       2
 40
8.06853755
 49
6.05140317
 74
       0
 49
-2.01713439
 74
       0
  0
LTYPE
  5
1E
100
AcDbSymbolTableRecord
100
AcDbLinetypeTableRecord
  2
HIDDEN
 70
      64
  3
CADPAC LINETYPE
 72
      65
 73
       2
 40
6.05140317
 49
4.03426878
 74
       0
 49
-2.01713439
 74
       0
  0
LTYPE
  5
1F
100
AcDbSymbolTableRecord
100
AcDbLinetypeTableRecord
  2
HIDDEN2
 70
      64
  3
CADPAC LINETYPE
 72
      65
 73
       2
 40
5.04283597
 49
3.02570158
 74
       0
 49
-2.01713439
 74
       0
  0
LTYPE
  5
20
100
AcDbSymbolTableRecord
100
AcDbLinetypeTableRecord
  2
DASHED
 70
      64
  3
CADPAC LINETYPE
 72
      65
 73
       2
 40
6.05140317
 49
4.03426878
 74
       0
 49
-2.01713439
 74
       0
  0
LTYPE
  5
21
100
AcDbSymbolTableRecord
100
AcDbLinetypeTableRecord
  2
DASHED2
 70
      64
  3
CADPAC LINETYPE
 72
      65
 73
       2
 40
4.53855237
 49
3.02570158
 74
       0
 49
-1.51285079
 74
       0
  0
LTYPE
  5
22
100
AcDbSymbolTableRecord
100
AcDbLinetypeTableRecord
  2
DASHEDX2
 70
      64
  3
CADPAC LINETYPE
 72
      65
 73
       2
 40
9.07710475
 49
6.05140317
 74
       0
 49
-3.02570158
 74
       0
  0
LTYPE
  5
23
100
AcDbSymbolTableRecord
100
AcDbLinetypeTableRecord
  2
DOTX2
 70
      64
  3
CADPAC LINETYPE
 72
      65
 73
       2
 40
2.52141799
 49
0.0
 74
       0
 49
-2.52141799
 74
       0
  0
LTYPE
  5
24
100
AcDbSymbolTableRecord
100
AcDbLinetypeTableRecord
  2
DOT
 70
      64
  3
CADPAC LINETYPE
 72
      65
 73
       2
 40
2.01713439
 49
0.0
 74
       0
 49
-2.01713439
 74
       0
  0
LTYPE
  5
25
100
AcDbSymbolTableRecord
100
AcDbLinetypeTableRecord
  2
DOT2
 70
      64
  3
CADPAC LINETYPE
 72
      65
 73
       2
 40
1.51285079
 49
0.0
 74
       0
 49
-1.51285079
 74
       0
  0
LTYPE
  5
26
100
AcDbSymbolTableRecord
100
AcDbLinetypeTableRecord
  2
CENTERX2
 70
      64
  3
CADPAC LINETYPE
 72
      65
 73
       4
 40
12.10280633
 49
5.04283597
 74
       0
 49
-2.52141799
 74
       0
 49
2.01713439
 74
       0
 49
-2.52141799
 74
       0
  0
LTYPE
  5
27
100
AcDbSymbolTableRecord
100
AcDbLinetypeTableRecord
  2
CENTER
 70
      64
  3
CADPAC LINETYPE
 72
      65
 73
       4
 40
9.27881819
 49
4.03426878
 74
       0
 49
-2.01713439
 74
       0
 49
1.21028063
 74
       0
 49
-2.01713439
 74
       0
  0
LTYPE
  5
28
100
AcDbSymbolTableRecord
100
AcDbLinetypeTableRecord
  2
CENTER2
 70
      64
  3
CADPAC LINETYPE
 72
      65
 73
       4
 40
6.45483004
 49
3.02570158
 74
       0
 49
-1.51285079
 74
       0
 49
0.40342688
 74
       0
 49
-1.51285079
 74
       0
  0
LTYPE
  5
29
100
AcDbSymbolTableRecord
100
AcDbLinetypeTableRecord
  2
DASHDOTX2
 70
      64
  3
CADPAC LINETYPE
 72
      65
 73
       4
 40
10.08567194
 49
5.04283597
 74
       0
 49
-2.52141799
 74
       0
 49
0.0
 74
       0
 49
-2.52141799
 74
       0
  0
LTYPE
  5
2A
100
AcDbSymbolTableRecord
100
AcDbLinetypeTableRecord
  2
DASHDOT
 70
      64
  3
CADPAC LINETYPE
 72
      65
 73
       4
 40
8.06853755
 49
4.03426878
 74
       0
 49
-2.01713439
 74
       0
 49
0.0
 74
       0
 49
-2.01713439
 74
       0
  0
LTYPE
  5
2B
100
AcDbSymbolTableRecord
100
AcDbLinetypeTableRecord
  2
DASHDOT2
 70
      64
  3
CADPAC LINETYPE
 72
      65
 73
       4
 40
6.05140317
 49
3.02570158
 74
       0
 49
-1.51285079
 74
       0
 49
0.0
 74
       0
 49
-1.51285079
 74
       0
  0
LTYPE
  5
2C
100
AcDbSymbolTableRecord
100
AcDbLinetypeTableRecord
  2
DIVIDEX2
 70
      64
  3
CADPAC LINETYPE
 72
      65
 73
       6
 40
12.60708993
 49
5.04283597
 74
       0
 49
-2.52141799
 74
       0
 49
0.0
 74
       0
 49
-2.52141799
 74
       0
 49
0.0
 74
       0
 49
-2.52141799
 74
       0
  0
LTYPE
  5
2D
100
AcDbSymbolTableRecord
100
AcDbLinetypeTableRecord
  2
DIVIDE
 70
      64
  3
CADPAC LINETYPE
 72
      65
 73
       6
 40
10.08567194
 49
4.03426878
 74
       0
 49
-2.01713439
 74
       0
 49
0.0
 74
       0
 49
-2.01713439
 74
       0
 49
0.0
 74
       0
 49
-2.01713439
 74
       0
  0
LTYPE
  5
2E
100
AcDbSymbolTableRecord
100
AcDbLinetypeTableRecord
  2
DIVIDE2
 70
      64
  3
CADPAC LINETYPE
 72
      65
 73
       6
 40
7.56425396
 49
3.02570158
 74
       0
 49
-1.51285079
 74
       0
 49
0.0
 74
       0
 49
-1.51285079
 74
       0
 49
0.0
 74
       0
 49
-1.51285079
 74
       0
  0
LTYPE
  5
2F
100
AcDbSymbolTableRecord
100
AcDbLinetypeTableRecord
  2
BORDERX2
 70
      64
  3
CADPAC LINETYPE
 72
      65
 73
       6
 40
17.6499259
 49
5.04283597
 74
       0
 49
-2.52141799
 74
       0
 49
5.04283597
 74
       0
 49
-2.52141799
 74
       0
 49
0.0
 74
       0
 49
-2.52141799
 74
       0
  0
LTYPE
  5
30
100
AcDbSymbolTableRecord
100
AcDbLinetypeTableRecord
  2
BORDER
 70
      64
  3
CADPAC LINETYPE
 72
      65
 73
       6
 40
14.11994072
 49
4.03426878
 74
       0
 49
-2.01713439
 74
       0
 49
4.03426878
 74
       0
 49
-2.01713439
 74
       0
 49
0.0
 74
       0
 49
-2.01713439
 74
       0
  0
LTYPE
  5
31
100
AcDbSymbolTableRecord
100
AcDbLinetypeTableRecord
  2
BORDER2
 70
      64
  3
CADPAC LINETYPE
 72
      65
 73
       6
 40
10.58995554
 49
3.02570158
 74
       0
 49
-1.51285079
 74
       0
 49
3.02570158
 74
       0
 49
-1.51285079
 74
       0
 49
0.0
 74
       0
 49
-1.51285079
 74
       0
  0
LTYPE
  5
32
100
AcDbSymbolTableRecord
100
AcDbLinetypeTableRecord
  2
PHANTOMX2
 70
      64
  3
CADPAC LINETYPE
 72
      65
 73
       6
 40
15.12850792
 49
5.04283597
 74
       0
 49
-2.01713439
 74
       0
 49
2.01713439
 74
       0
 49
-2.01713439
 74
       0
 49
2.01713439
 74
       0
 49
-2.01713439
 74
       0
  0
LTYPE
  5
33
100
AcDbSymbolTableRecord
100
AcDbLinetypeTableRecord
  2
PHANTOM
 70
      64
  3
CADPAC LINETYPE
 72
      65
 73
       6
 40
12.50623321
 49
4.03426878
 74
       0
 49
-2.01713439
 74
       0
 49
1.21028063
 74
       0
 49
-2.01713439
 74
       0
 49
1.21028063
 74
       0
 49
-2.01713439
 74
       0
  0
LTYPE
  5
34
100
AcDbSymbolTableRecord
100
AcDbLinetypeTableRecord
  2
PHANTOM2
 70
      64
  3
CADPAC LINETYPE
 72
      65
 73
       6
 40
10.69081226
 49
3.02570158
 74
       0
 49
-2.01713439
 74
       0
 49
0.80685376
 74
       0
 49
-2.01713439
 74
       0
 49
0.80685376
 74
       0
 49
-2.01713439
 74
       0
  0
LTYPE
  5
35
100
AcDbSymbolTableRecord
100
AcDbLinetypeTableRecord
  2
ACAD_ISO06W100
 70
      64
  3
CADPAC LINETYPE
 72
      65
 73
       8
 40
13.61565712
 49
5.04283597
 74
       0
 49
-2.52141799
 74
       0
 49
0.0
 74
       0
 49
-2.01713439
 74
       0
 49
0.0
 74
       0
 49
-2.01713439
 74
       0
 49
0.0
 74
       0
 49
-2.01713439
 74
       0
  0
LTYPE
  5
36
100
AcDbSymbolTableRecord
100
AcDbLinetypeTableRecord
  2
ACAD_ISO13W100
 70
      64
  3
CADPAC LINETYPE
 72
      65
 73
       8
 40
16.13707511
 49
4.03426878
 74
       0
 49
-2.01713439
 74
       0
 49
4.03426878
 74
       0
 49
-2.01713439
 74
       0
 49
0.0
 74
       0
 49
-2.01713439
 74
       0
 49
0.0
 74
       0
 49
-2.01713439
 74
       0
  0
LTYPE
  5
37
100
AcDbSymbolTableRecord
100
AcDbLinetypeTableRecord
  2
ACAD_ISO14W100
 70
      64
  3
CADPAC LINETYPE
 72
      65
 73
       8
 40
12.10280633
 49
4.03426878
 74
       0
 49
-2.01713439
 74
       0
 49
0.0
 74
       0
 49
-2.01713439
 74
       0
 49
0.0
 74
       0
 49
-2.01713439
 74
       0
 49
0.0
 74
       0
 49
-2.01713439
 74
       0
  0
ENDTAB
  0
TABLE
  2
LAYER
  5
2
100
AcDbSymbolTable
 70
       3
  0
LAYER
  5
14
100
AcDbSymbolTableRecord
100
AcDbLayerTableRecord
  2
0
 70
       0
 62
       7
  6
CONTINUOUS
  0
LAYER
  5
38
100
AcDbSymbolTableRecord
100
AcDbLayerTableRecord
  2
SLD-0
 70
       0
 62
       7
  6
CONTINUOUS
  0
LAYER
  5
39
100
AcDbSymbolTableRecord
100
AcDbLayerTableRecord
  2
レイヤー_1
 70
       0
 62
       7
  6
CONTINUOUS
  0
ENDTAB
  0
TABLE
  2
STYLE
  5
3
100
AcDbSymbolTable
 70
       1
  0
STYLE
  5
17
100
AcDbSymbolTableRecord
100
AcDbTextStyleTableRecord
  2
STANDARD
 70
       0
 40
0.0
 41
1.0
 50
0.0
 71
       0
 42
5.0
  3
txt.shx
  4
bigfont.shx
  0
ENDTAB
  0
TABLE
  2
VIEW
  5
5
100
AcDbSymbolTable
 70
       1
  0
VIEW
  5
3A
100
AcDbSymbolTableRecord
100
AcDbViewTableRecord
  2
QQQQ
 70
       0
 40
154.35506915
 10
-1.62499999
 20
-1.25
 41
149.49058885
 11
0.0
 21
0.0
 31
1.0
 12
100.0
 22
100.0
 32
0.0
 42
50.0
 43
0.0
 44
0.0
 50
0.0
 71
       0
  0
ENDTAB
  0
TABLE
  2
UCS
  5
6
100
AcDbSymbolTable
 70
       0
  0
ENDTAB
  0
TABLE
  2
APPID
  5
8
100
AcDbSymbolTable
 70
       1
  0
APPID
  5
16
100
AcDbSymbolTableRecord
100
AcDbRegAppTableRecord
  2
ACAD
 70
       0
  0
ENDTAB
  0
TABLE
  2
DIMSTYLE
  5
9
100
AcDbSymbolTable
 70
       1
  0
DIMSTYLE
105
18
100
AcDbSymbolTableRecord
100
AcDbDimStyleTableRecord
  2
STANDARD
 70
       0
  3

  4

  5

  6

  7

 40
1.0
 41
0.18
 42
0.0625
 43
0.38
 44
0.18
 45
0.0
 46
0.0
 47
0.0
 48
0.0
 71
       0
 72
       0
 73
       1
 74
       1
 75
       0
 76
       0
 77
       0
 78
       0
140
0.18
141
0.09
142
0.0
143
25.4
144
1.0
145
0.0
146
1.0
147
0.09
170
       0
171
       2
172
       0
173
       0
174
       0
175
       0
176
       0
177
       0
178
       0
270
       2
271
       4
272
       4
273
       2
274
       2
275
       0
280
       0
281
       0
282
       0
283
       1
284
       0
285
       0
286
       0
287
       0
288
       0
340
17
  0
ENDTAB
  0
TABLE
  2
BLOCK_RECORD
  5
1
100
AcDbSymbolTable
 70
       0
  0
BLOCK_RECORD
  5
A
100
AcDbSymbolTableRecord
100
AcDbBlockTableRecord
  2
*MODEL_SPACE
  0
BLOCK_RECORD
  5
B
100
AcDbSymbolTableRecord
100
AcDbBlockTableRecord
  2
*PAPER_SPACE
  0
ENDTAB
  0
ENDSEC
  0
SECTION
  2
BLOCKS
  0
BLOCK
  5
D
100
AcDbEntity
  8
0
100
AcDbBlockBegin
  2
*MODEL_SPACE
 70
       0
 10
0.0
 20
0.0
 30
0.0
  3
*MODEL_SPACE
  1

  0
ENDBLK
  5
E
100
AcDbEntity
  8
0
100
AcDbBlockEnd
  0
BLOCK
  5
F
100
AcDbEntity
 67
       1
  8
0
100
AcDbBlockBegin
  2
*PAPER_SPACE
 70
       0
 10
0.0
 20
0.0
 30
0.0
  3
*PAPER_SPACE
  1

  0
ENDBLK
  5
10
100
AcDbEntity
 67
       1
  8
0
100
AcDbBlockEnd
  0
ENDSEC
  0
SECTION
  2
ENTITIES
  0
LINE
  5
3B
100
AcDbEntity
  8
SLD-0
  6
CENTERX2
 62
       7
100
AcDbLine
 10
-59.42978157
 20
-26.93945605
 30
0.0
 11
-50.02316779
 21
-26.93945605
 31
0.0
  0
LINE
  5
3C
100
AcDbEntity
  8
SLD-0
  6
CONTINUOUS
 62
       7
100
AcDbLine
 10
-45.24046981
 20
57.13481694
 30
0.0
 11
-45.24046981
 21
-20.74199716
 31
0.0
  0
LINE
  5
3D
100
AcDbEntity
  8
SLD-0
  6
CONTINUOUS
 62
       7
100
AcDbLine
 10
-48.98976723
 20
57.13481694
 30
0.0
 11
-45.24046981
 21
57.13481694
 31
0.0
  0
LINE
  5
3E
100
AcDbEntity
  8
SLD-0
  6
CONTINUOUS
 62
       7
100
AcDbLine
 10
-48.98976723
 20
65.53346439
 30
0.0
 11
-48.98976723
 21
57.13481694
 31
0.0
  0
LINE
  5
3F
100
AcDbEntity
  8
SLD-0
  6
CONTINUOUS
 62
       7
100
AcDbLine
 10
-48.98976723
 20
65.95609515
 30
0.0
 11
-48.98976723
 21
65.53346439
 31
0.0
  0
LINE
  5
40
100
AcDbEntity
  8
SLD-0
  6
CONTINUOUS
 62
       7
100
AcDbLine
 10
-47.47171709
 20
58.54592805
 30
0.0
 11
-43.22171709
 21
58.54592805
 31
0.0
  0
LINE
  5
41
100
AcDbEntity
  8
SLD-0
  6
CONTINUOUS
 62
       7
100
AcDbLine
 10
-60.45366695
 20
-21.01372904
 30
0.0
 11
-64.20296437
 21
-21.01372904
 31
0.0
  0
LINE
  5
42
100
AcDbEntity
  8
SLD-0
  6
CONTINUOUS
 62
       7
100
AcDbLine
 10
-60.45366695
 20
-29.41237649
 30
0.0
 11
-60.45366695
 21
-21.01372904
 31
0.0
  0
LINE
  5
43
100
AcDbEntity
  8
SLD-0
  6
CONTINUOUS
 62
       7
100
AcDbLine
 10
-60.45366695
 20
-29.83500725
 30
0.0
 11
-60.45366695
 21
-29.41237649
 31
0.0
  0
LINE
  5
44
100
AcDbEntity
  8
SLD-0
  6
CONTINUOUS
 62
       7
100
AcDbLine
 10
-47.47171709
 20
-22.42484015
 30
0.0
 11
-43.22171709
 21
-22.42484015
 31
0.0
  0
LINE
  5
45
100
AcDbEntity
  8
SLD-0
  6
CONTINUOUS
 62
       7
100
AcDbLine
 10
-61.97171709
 20
-22.42484015
 30
0.0
 11
-66.22171709
 21
-22.42484015
 31
0.0
  0
LINE
  5
46
100
AcDbEntity
  8
SLD-0
  6
CONTINUOUS
 62
       7
100
AcDbLine
 10
-48.98976723
 20
-29.83500725
 30
0.0
 11
-48.98976723
 21
-29.41237649
 31
0.0
  0
LINE
  5
47
100
AcDbEntity
  8
SLD-0
  6
CONTINUOUS
 62
       7
100
AcDbLine
 10
-48.98976723
 20
-29.41237649
 30
0.0
 11
-48.98976723
 21
-21.01372904
 31
0.0
  0
LINE
  5
48
100
AcDbEntity
  8
SLD-0
  6
CONTINUOUS
 62
       7
100
AcDbLine
 10
-48.98976723
 20
-21.01372904
 30
0.0
 11
-45.24046981
 21
-21.01372904
 31
0.0
  0
LINE
  5
49
100
AcDbEntity
  8
SLD-0
  6
CONTINUOUS
 62
       7
100
AcDbLine
 10
-59.97171709
 20
-31.93945604
 30
0.0
 11
-49.46772403
 21
-31.93945604
 31
0.0
  0
LINE
  5
4A
100
AcDbEntity
  8
SLD-0
  6
CONTINUOUS
 62
       7
100
AcDbLine
 10
-61.97171709
 20
66.06054394
 30
0.0
 11
-61.97171709
 21
58.54592805
 31
0.0
  0
LINE
  5
4B
100
AcDbEntity
  8
SLD-0
  6
CONTINUOUS
 62
       7
100
AcDbLine
 10
-56.42088772
 20
66.95609515
 30
0.0
 11
-59.45366695
 21
66.95609515
 31
0.0
  0
ARC
  5
4C
100
AcDbEntity
  8
SLD-0
  6
CONTINUOUS
 62
       7
100
AcDbCircle
 10
-59.97171709
 20
66.06054394
 30
0.0
 40
2.0
100
AcDbArc
 50
90.0
 51
180.0
  0
CIRCLE
  5
4D
100
AcDbEntity
  8
SLD-0
  6
CONTINUOUS
 62
       7
100
AcDbCircle
 10
-54.72171709
 20
63.06054395
 30
0.0
 40
2.0
  0
CIRCLE
  5
4E
100
AcDbEntity
  8
SLD-0
  6
CONTINUOUS
 62
       7
100
AcDbCircle
 10
-54.72171709
 20
63.06054395
 30
0.0
 40
3.25
  0
CIRCLE
  5
4F
100
AcDbEntity
  8
SLD-0
  6
CONTINUOUS
 62
       7
100
AcDbCircle
 10
-54.72171709
 20
63.06054395
 30
0.0
 40
4.25
  0
ARC
  5
50
100
AcDbEntity
  8
SLD-0
  6
CONTINUOUS
 62
       7
100
AcDbCircle
 10
-59.45366695
 20
65.95609515
 30
0.0
 40
1.0
100
AcDbArc
 50
90.0
 51
180.0
  0
LINE
  5
51
100
AcDbEntity
  8
SLD-0
  6
CONTINUOUS
 62
       7
100
AcDbLine
 10
-53.02254646
 20
66.95609515
 30
0.0
 11
-49.98976723
 21
66.95609515
 31
0.0
  0
LINE
  5
52
100
AcDbEntity
  8
SLD-0
  6
CONTINUOUS
 62
       7
100
AcDbLine
 10
-47.47171709
 20
66.06054394
 30
0.0
 11
-47.47171709
 21
58.54592805
 31
0.0
  0
LINE
  5
53
100
AcDbEntity
  8
SLD-0
  6
CONTINUOUS
 62
       7
100
AcDbLine
 10
-47.47171709
 20
-29.93945604
 30
0.0
 11
-47.47171709
 21
-22.42484015
 31
0.0
  0
LINE
  5
54
100
AcDbEntity
  8
SLD-0
  6
CONTINUOUS
 62
       7
100
AcDbLine
 10
-53.02254646
 20
-30.83500725
 30
0.0
 11
-49.98976723
 21
-30.83500725
 31
0.0
  0
LINE
  5
55
100
AcDbEntity
  8
SLD-0
  6
CONTINUOUS
 62
       7
100
AcDbLine
 10
-56.42088772
 20
-30.83500725
 30
0.0
 11
-59.45366695
 21
-30.83500725
 31
0.0
  0
LINE
  5
56
100
AcDbEntity
  8
SLD-0
  6
CONTINUOUS
 62
       7
100
AcDbLine
 10
-61.97171709
 20
-29.93945604
 30
0.0
 11
-61.97171709
 21
-22.42484015
 31
0.0
  0
ARC
  5
57
100
AcDbEntity
  8
SLD-0
  6
CONTINUOUS
 62
       7
100
AcDbCircle
 10
-49.47171709
 20
-29.93945604
 30
0.0
 40
2.0
100
AcDbArc
 50
270.0
 51
360.0
  0
ARC
  5
58
100
AcDbEntity
  8
SLD-0
  6
CONTINUOUS
 62
       7
100
AcDbCircle
 10
-59.45366695
 20
-29.83500725
 30
0.0
 40
1.0
100
AcDbArc
 50
180.0
 51
270.0
  0
ARC
  5
59
100
AcDbEntity
  8
SLD-0
  6
CONTINUOUS
 62
       7
100
AcDbCircle
 10
-49.98976723
 20
65.95609515
 30
0.0
 40
1.0
100
AcDbArc
 50
0.0
 51
90.0
  0
CIRCLE
  5
5A
100
AcDbEntity
  8
SLD-0
  6
CONTINUOUS
 62
       7
100
AcDbCircle
 10
-54.72171709
 20
-26.93945605
 30
0.0
 40
4.25
  0
ARC
  5
5B
100
AcDbEntity
  8
SLD-0
  6
CONTINUOUS
 62
       7
100
AcDbCircle
 10
-49.47171709
 20
66.06054394
 30
0.0
 40
2.0
100
AcDbArc
 50
0.0
 51
90.0
  0
CIRCLE
  5
5C
100
AcDbEntity
  8
SLD-0
  6
CONTINUOUS
 62
       7
100
AcDbCircle
 10
-54.72171709
 20
-26.93945605
 30
0.0
 40
3.25
  0
CIRCLE
  5
5D
100
AcDbEntity
  8
SLD-0
  6
CONTINUOUS
 62
       7
100
AcDbCircle
 10
-54.72171709
 20
-26.93945605
 30
0.0
 40
2.0
  0
ARC
  5
5E
100
AcDbEntity
  8
SLD-0
  6
CONTINUOUS
 62
       7
100
AcDbCircle
 10
-49.98976723
 20
-29.83500725
 30
0.0
 40
1.0
100
AcDbArc
 50
270.0
 51
360.0
  0
ARC
  5
5F
100
AcDbEntity
  8
SLD-0
  6
CONTINUOUS
 62
       7
100
AcDbCircle
 10
-59.97171709
 20
-29.93945604
 30
0.0
 40
2.0
100
AcDbArc
 50
180.0
 51
270.0
  0
LINE
  5
60
100
AcDbEntity
  8
レイヤー_1
  6
CONTINUOUS
 62
       7
100
AcDbLine
 10
-59.97171709
 20
68.06054394
 30
0.0
 11
-49.46772403
 21
68.06054394
 31
0.0
  0
LINE
  5
61
100
AcDbEntity
  8
レイヤー_1
  6
CONTINUOUS
 62
       7
100
AcDbLine
 10
14.26995228
 20
-35.93945605
 30
0.0
 11
17.52307186
 21
-35.93945605
 31
0.0
  0
LINE
  5
62
100
AcDbEntity
  8
レイヤー_1
  6
CONTINUOUS
 62
       7
100
AcDbLine
 10
17.52307186
 20
0.52999923
 30
0.0
 11
17.52307186
 21
-35.93945605
 31
0.0
  0
LINE
  5
63
100
AcDbEntity
  8
レイヤー_1
  6
CONTINUOUS
 62
       7
100
AcDbLine
 10
17.52307186
 20
68.06054394
 30
0.0
 11
17.52307186
 21
35.56393027
 31
0.0
  0
LINE
  5
64
100
AcDbEntity
  8
レイヤー_1
  6
CONTINUOUS
 62
       7
100
AcDbLine
 10
9.02307186
 20
-31.93945605
 30
0.0
 11
17.52307186
 21
-31.93945605
 31
0.0
  0
LINE
  5
65
100
AcDbEntity
  8
レイヤー_1
  6
CONTINUOUS
 62
       7
100
AcDbLine
 10
9.02307186
 20
68.06054394
 30
0.0
 11
17.52307186
 21
68.06054394
 31
0.0
  0
LINE
  5
66
100
AcDbEntity
  8
レイヤー_1
  6
CONTINUOUS
 62
       7
100
AcDbLine
 10
-66.22171709
 20
58.54592805
 30
0.0
 11
-66.22171709
 21
-22.42484015
 31
0.0
  0
LINE
  5
67
100
AcDbEntity
  8
レイヤー_1
  6
CONTINUOUS
 62
       7
100
AcDbLine
 10
-43.22171709
 20
58.54592805
 30
0.0
 11
-43.22171709
 21
-22.42484015
 31
0.0
  0
LINE
  5
68
100
AcDbEntity
  8
レイヤー_1
  6
CONTINUOUS
 62
       7
100
AcDbLine
 10
-59.44046437
 20
-35.93945605
 30
0.0
 11
-50.26824215
 21
-35.93945605
 31
0.0
  0
LINE
  5
69
100
AcDbEntity
  8
レイヤー_1
  6
CONTINUOUS
 62
       7
100
AcDbLine
 10
-51.50296437
 20
-33.71476258
 30
0.0
 11
-58.20574215
 21
-33.71476258
 31
0.0
  0
LINE
  5
6A
100
AcDbEntity
  8
レイヤー_1
  6
CONTINUOUS
 62
       7
100
AcDbLine
 10
-58.20574215
 20
-33.71476258
 30
0.0
 11
-58.20574215
 21
-32.83281813
 31
0.0
  0
LINE
  5
6B
100
AcDbEntity
  8
レイヤー_1
  6
CONTINUOUS
 62
       7
100
AcDbLine
 10
-58.20574215
 20
-32.83281813
 30
0.0
 11
-51.50296437
 21
-32.83281813
 31
0.0
  0
LINE
  5
6C
100
AcDbEntity
  8
レイヤー_1
  6
CONTINUOUS
 62
       7
100
AcDbLine
 10
-51.50296437
 20
-32.83281813
 30
0.0
 11
-51.50296437
 21
-33.71476258
 31
0.0
  0
LINE
  5
6D
100
AcDbEntity
  8
レイヤー_1
  6
CONTINUOUS
 62
       7
100
AcDbLine
 10
-50.26824215
 20
-31.93945605
 30
0.0
 11
-50.26824215
 21
-35.93945605
 31
0.0
  0
LINE
  5
6E
100
AcDbEntity
  8
レイヤー_1
  6
CONTINUOUS
 62
       7
100
AcDbLine
 10
-59.44046437
 20
-35.93945605
 30
0.0
 11
-59.44046437
 21
-31.93945605
 31
0.0
  0
LINE
  5
6F
100
AcDbEntity
  8
レイヤー_1
  6
CONTINUOUS
 62
       7
100
AcDbLine
 10
-52.7376866
 20
-16.69151225
 30
0.0
 11
-56.97101993
 21
-16.69151225
 31
0.0
  0
LINE
  5
70
100
AcDbEntity
  8
レイヤー_1
  6
CONTINUOUS
 62
       7
100
AcDbLine
 10
-56.97101993
 20
-16.69151225
 30
0.0
 11
-56.97101993
 21
-8.75332324
 31
0.0
  0
LINE
  5
71
100
AcDbEntity
  8
レイヤー_1
  6
CONTINUOUS
 62
       7
100
AcDbLine
 10
-56.97101993
 20
-8.75332324
 30
0.0
 11
-52.7376866
 21
-8.75332324
 31
0.0
  0
LINE
  5
72
100
AcDbEntity
  8
レイヤー_1
  6
CONTINUOUS
 62
       7
100
AcDbLine
 10
-52.7376866
 20
-8.75332324
 30
0.0
 11
-52.7376866
 21
-16.69151225
 31
0.0
  0
LINE
  5
73
100
AcDbEntity
  8
レイヤー_1
  6
CONTINUOUS
 62
       7
100
AcDbLine
 10
9.02307186
 20
-21.85123176
 30
0.0
 11
17.52307186
 21
-21.85123176
 31
0.0
  0
LINE
  5
74
100
AcDbEntity
  8
レイヤー_1
  6
CONTINUOUS
 62
       7
100
AcDbLine
 10
9.02307186
 20
58.10495583
 30
0.0
 11
17.52307186
 21
58.10495583
 31
0.0
  0
LINE
  5
75
100
AcDbEntity
  8
レイヤー_1
  6
CONTINUOUS
 62
       7
100
AcDbLine
 10
14.26995228
 20
-31.93945605
 30
0.0
 11
14.26995228
 21
-35.93945605
 31
0.0
  0
LINE
  5
76
100
AcDbEntity
  8
レイヤー_1
  6
CONTINUOUS
 62
       7
100
AcDbLine
 10
17.52307186
 20
35.56393027
 30
0.0
 11
16.07862741
 21
32.39386371
 31
0.0
  0
LINE
  5
77
100
AcDbEntity
  8
レイヤー_1
  6
CONTINUOUS
 62
       7
100
AcDbLine
 10
16.07862741
 20
32.39386371
 30
0.0
 11
16.07862741
 21
35.87788877
 31
0.0
  0
LINE
  5
78
100
AcDbEntity
  8
レイヤー_1
  6
CONTINUOUS
 62
       7
100
AcDbLine
 10
17.52307186
 20
0.52999923
 30
0.0
 11
16.07862741
 21
3.41888813
 31
0.0
  0
LINE
  5
79
100
AcDbEntity
  8
レイヤー_1
  6
CONTINUOUS
 62
       7
100
AcDbLine
 10
16.07862741
 20
3.41888813
 30
0.0
 11
16.07862741
 21
0.24388813
 31
0.0
  0
LINE
  5
7A
100
AcDbEntity
  8
レイヤー_1
  6
CONTINUOUS
 62
       7
100
AcDbLine
 10
17.52307186
 20
0.24388813
 30
0.0
 11
14.31473852
 21
0.24388813
 31
0.0
  0
LINE
  5
7B
100
AcDbEntity
  8
レイヤー_1
  6
CONTINUOUS
 62
       7
100
AcDbLine
 10
14.31473852
 20
0.24388813
 30
0.0
 11
14.31473852
 21
35.87788877
 31
0.0
  0
LINE
  5
7C
100
AcDbEntity
  8
レイヤー_1
  6
CONTINUOUS
 62
       7
100
AcDbLine
 10
14.31473852
 20
35.87788877
 30
0.0
 11
17.52307186
 21
35.87788877
 31
0.0
  0
LINE
  5
7D
100
AcDbEntity
  8
レイヤー_1
  6
CONTINUOUS
 62
       7
100
AcDbLine
 10
9.02307186
 20
68.06054394
 30
0.0
 11
9.02307186
 21
-31.93945605
 31
0.0
  0
LINE
  5
7E
100
AcDbEntity
  8
レイヤー_1
  6
CONTINUOUS
 62
       7
100
AcDbLine
 10
-64.24671708
 20
39.63269834
 30
0.0
 11
-45.19671709
 21
39.63269834
 31
0.0
  0
LINE
  5
7F
100
AcDbEntity
  8
レイヤー_1
  6
CONTINUOUS
 62
       7
100
AcDbLine
 10
-45.31453935
 20
4.16544032
 30
0.0
 11
-64.12958384
 21
4.16544032
 31
0.0
  0
LINE
  5
80
100
AcDbEntity
  8
レイヤー_1
  6
CONTINUOUS
 62
       7
100
AcDbLine
 10
-64.18401635
 20
2.66544575
 30
0.0
 11
-45.15296438
 21
2.66544575
 31
0.0
  0
LINE
  5
81
100
AcDbEntity
  8
レイヤー_1
  6
CONTINUOUS
 62
       7
100
AcDbLine
 10
-45.15296438
 20
41.13269292
 30
0.0
 11
-64.18401635
 21
41.13269292
 31
0.0
  0
LINE
  5
82
100
AcDbEntity
  8
レイヤー_1
  6
CONTINUOUS
 62
       7
100
AcDbLine
 10
-61.97171709
 20
58.54592805
 30
0.0
 11
-66.22171709
 21
58.54592805
 31
0.0
  0
LINE
  5
83
100
AcDbEntity
  8
レイヤー_1
  6
CONTINUOUS
 62
       7
100
AcDbLine
 10
-60.45366695
 20
65.95609515
 30
0.0
 11
-60.45366695
 21
65.53346439
 31
0.0
  0
LINE
  5
84
100
AcDbEntity
  8
レイヤー_1
  6
CONTINUOUS
 62
       7
100
AcDbLine
 10
-60.45366695
 20
65.53346439
 30
0.0
 11
-60.45366695
 21
57.13481694
 31
0.0
  0
LINE
  5
85
100
AcDbEntity
  8
レイヤー_1
  6
CONTINUOUS
 62
       7
100
AcDbLine
 10
-60.45366695
 20
57.13481694
 30
0.0
 11
-64.20296437
 21
57.13481694
 31
0.0
  0
LINE
  5
86
100
AcDbEntity
  8
レイヤー_1
  6
CONTINUOUS
 62
       7
100
AcDbLine
 10
-64.20296437
 20
57.13481694
 30
0.0
 11
-64.20296437
 21
-20.74199716
 31
0.0
  0
LINE
  5
87
100
AcDbEntity
  8
レイヤー_1
  6
CENTERX2
 62
       7
100
AcDbLine
 10
-69.26780037
 20
18.06054395
 30
0.0
 11
-40.57620271
 21
18.06054395
 31
0.0
  0
LINE
  5
88
100
AcDbEntity
  8
レイヤー_1
  6
CENTERX2
 62
       7
100
AcDbLine
 10
-59.48436896
 20
63.06054395
 30
0.0
 11
-49.60344521
 21
63.06054395
 31
0.0
  0
LINE
  5
89
100
AcDbEntity
  8
レイヤー_1
  6
CENTERX2
 62
       7
100
AcDbLine
 10
6.03921458
 20
18.06054395
 30
0.0
 11
16.91691168
 21
18.06054395
 31
0.0
  0
LINE
  5
8A
100
AcDbEntity
  8
レイヤー_1
  6
CENTERX2
 62
       7
100
AcDbLine
 10
-54.72171709
 20
68.59392269
 30
0.0
 11
-54.72171709
 21
-39.29810955
 31
0.0
  0
LINE
  5
8B
100
AcDbEntity
  8
レイヤー_1
  6
CENTERX2
 62
       7
100
AcDbLine
 10
7.14302178
 20
-26.93945605
 30
0.0
 11
18.90084963
 21
-26.93945605
 31
0.0
  0
LINE
  5
8C
100
AcDbEntity
  8
レイヤー_1
  6
CENTERX2
 62
       7
100
AcDbLine
 10
7.42132971
 20
63.06054394
 30
0.0
 11
19.25362741
 21
63.06054394
 31
0.0
  0
TEXT
  5
8D
100
AcDbEntity
  8
SLD-0
 62
       7
100
AcDbText
 10
63.0178004
 20
-71.09392269
 30
0.0
 40
5.0
  1
000
 72
       5
 11
78.0178004
 21
-71.09392269
 31
0.0
100
AcDbText
  0
ENDSEC
  0
SECTION
  2
OBJECTS
  0
DICTIONARY
  5
19
100
AcDbDictionary
  3
ACAD_GROUP
350
1A
  3
ACAD_MLINESTYLE
350
1B
  0
DICTIONARY
  5
1A
102
{ACAD_REACTORS
330
19
102
}
100
AcDbDictionary
  0
DICTIONARY
  5
1B
102
{ACAD_REACTORS
330
19
102
}
100
AcDbDictionary
  3
STANDARD
350
1C
  0
MLINESTYLE
  5
1C
102
{ACAD_REACTORS
330
1B
102
}
100
AcDbMlineStyle
  2
STANDARD
 70
       0
  3

 62
       0
 51
90.0
 52
90.0
 71
       2
 49
0.5
 62
     256
  6
BYLAYER
 49
-0.5
 62
     256
  6
BYLAYER
  0
ENDSEC
  0
EOF
