  0
SECTION
  2
HEADER
  9
$ACADVER
  1
AC1014
  9
$ACADMAINTVER
 70
       0
  9
$DWGCODEPAGE
  3
ANSI_932
  9
$INSBASE
 10
0.0
 20
0.0
 30
0.0
  9
$EXTMIN
 10
-120.75159161
 20
-105.07165432
 30
0.0
  9
$EXTMAX
 10
187.89859888
 20
119.72742962
 30
0.0
  9
$LIMMIN
 10
-130.39691007
 20
-112.0966257
  9
$LIMMAX
 10
197.54391733
 20
126.75240099
  9
$ORTHOMODE
 70
       0
  9
$REGENMODE
 70
       1
  9
$FILLMODE
 70
       1
  9
$QTEXTMODE
 70
       0
  9
$MIRRTEXT
 70
       1
  9
$DRAGMODE
 70
       2
  9
$LTSCALE
 40
1.0
  9
$OSMODE
 70
       0
  9
$ATTMODE
 70
       1
  9
$TEXTSIZE
 40
0.2
  9
$TRACEWID
 40
0.05
  9
$TEXTSTYLE
  7
STANDARD
  9
$CLAYER
  8
0
  9
$CELTYPE
  6
CONTINUOUS
  9
$CECOLOR
 62
     256
  9
$CELTSCALE
 40
1.0
  9
$DELOBJ
 70
       1
  9
$DISPSILH
 70
       0
  9
$DIMSCALE
 40
1.0
  9
$DIMASZ
 40
0.18
  9
$DIMEXO
 40
0.0625
  9
$DIMDLI
 40
0.38
  9
$DIMRND
 40
0.0
  9
$DIMDLE
 40
0.0
  9
$DIMEXE
 40
0.18
  9
$DIMTP
 40
0.0
  9
$DIMTM
 40
0.0
  9
$DIMTXT
 40
0.18
  9
$DIMCEN
 40
0.09
  9
$DIMTSZ
 40
0.0
  9
$DIMTOL
 70
       0
  9
$DIMLIM
 70
       0
  9
$DIMTIH
 70
       1
  9
$DIMTOH
 70
       1
  9
$DIMSE1
 70
       0
  9
$DIMSE2
 70
       0
  9
$DIMTAD
 70
       0
  9
$DIMZIN
 70
       0
  9
$DIMBLK
  1

  9
$DIMASO
 70
       1
  9
$DIMSHO
 70
       1
  9
$DIMPOST
  1

  9
$DIMAPOST
  1

  9
$DIMALT
 70
       0
  9
$DIMALTD
 70
       2
  9
$DIMALTF
 40
25.4
  9
$DIMLFAC
 40
1.0
  9
$DIMTOFL
 70
       0
  9
$DIMTVP
 40
0.0
  9
$DIMTIX
 70
       0
  9
$DIMSOXD
 70
       0
  9
$DIMSAH
 70
       0
  9
$DIMBLK1
  1

  9
$DIMBLK2
  1

  9
$DIMSTYLE
  2
STANDARD
  9
$DIMCLRD
 70
       0
  9
$DIMCLRE
 70
       0
  9
$DIMCLRT
 70
       0
  9
$DIMTFAC
 40
1.0
  9
$DIMGAP
 40
0.09
  9
$DIMJUST
 70
       0
  9
$DIMSD1
 70
       0
  9
$DIMSD2
 70
       0
  9
$DIMTOLJ
 70
       1
  9
$DIMTZIN
 70
       0
  9
$DIMALTZ
 70
       0
  9
$DIMALTTZ
 70
       0
  9
$DIMFIT
 70
       3
  9
$DIMUPT
 70
       0
  9
$DIMUNIT
 70
       2
  9
$DIMDEC
 70
       4
  9
$DIMTDEC
 70
       4
  9
$DIMALTU
 70
       2
  9
$DIMALTTD
 70
       2
  9
$DIMTXSTY
  7
STANDARD
  9
$DIMAUNIT
 70
       0
  9
$LUNITS
 70
       2
  9
$LUPREC
 70
       4
  9
$SKETCHINC
 40
0.1
  9
$FILLETRAD
 40
0.0
  9
$AUNITS
 70
       0
  9
$AUPREC
 70
       0
  9
$MENU
  1
acad
  9
$ELEVATION
 40
0.0
  9
$PELEVATION
 40
0.0
  9
$THICKNESS
 40
0.0
  9
$LIMCHECK
 70
       0
  9
$BLIPMODE
 70
       1
  9
$CHAMFERA
 40
0.0
  9
$CHAMFERB
 40
0.0
  9
$CHAMFERC
 40
0.0
  9
$CHAMFERD
 40
0.0
  9
$SKPOLY
 70
       0
  9
$TDCREATE
 40
0.000000000
  9
$TDUPDATE
 40
0.000000000
  9
$TDINDWG
 40
0.0000000000
  9
$TDUSRTIMER
 40
0.0000000000
  9
$USRTIMER
 70
       1
  9
$ANGBASE
 50
0.0
  9
$ANGDIR
 70
       0
  9
$PDMODE
 70
       0
  9
$PDSIZE
 40
1.0
  9
$PLINEWID
 40
0.0
  9
$COORDS
 70
       1
  9
$SPLFRAME
 70
       0
  9
$SPLINETYPE
 70
       6
  9
$SPLINESEGS
 70
       8
  9
$ATTDIA
 70
       0
  9
$ATTREQ
 70
       1
  9
$HANDLING
 70
       1
  9
$HANDSEED
  5
2E2
  9
$SURFTAB1
 70
       6
  9
$SURFTAB2
 70
       6
  9
$SURFTYPE
 70
       6
  9
$SURFU
 70
       6
  9
$SURFV
 70
       6
  9
$UCSNAME
  2

  9
$UCSORG
 10
0.0
 20
0.0
 30
0.0
  9
$UCSXDIR
 10
1.0
 20
0.0
 30
0.0
  9
$UCSYDIR
 10
0.0
 20
1.0
 30
0.0
  9
$PUCSNAME
  2

  9
$PUCSORG
 10
0.0
 20
0.0
 30
0.0
  9
$PUCSXDIR
 10
1.0
 20
0.0
 30
0.0
  9
$PUCSYDIR
 10
0.0
 20
1.0
 30
0.0
  9
$USERI1
 70
       0
  9
$USERI2
 70
       0
  9
$USERI3
 70
       0
  9
$USERI4
 70
       0
  9
$USERI5
 70
       0
  9
$USERR1
 40
0.0
  9
$USERR2
 40
0.0
  9
$USERR3
 40
0.0
  9
$USERR4
 40
0.0
  9
$USERR5
 40
0.0
  9
$WORLDVIEW
 70
       1
  9
$SHADEDGE
 70
       3
  9
$SHADEDIF
 70
      70
  9
$TILEMODE
 70
       1
  9
$MAXACTVP
 70
      16
  9
$PINSBASE
 10
0.0
 20
0.0
 30
0.0
  9
$PLIMCHECK
 70
       0
  9
$PEXTMIN
 10
1.00000000E+20
 20
1.00000000E+20
 30
1.00000000E+20
  9
$PEXTMAX
 10
-1.00000000E+20
 20
-1.00000000E+20
 30
-1.00000000E+20
  9
$PLIMMIN
 10
0.0
 20
0.0
  9
$PLIMMAX
 10
12.0
 20
9.0
  9
$UNITMODE
 70
       0
  9
$VISRETAIN
 70
       0
  9
$PLINEGEN
 70
       1
  9
$PSLTSCALE
 70
       0
  9
$TREEDEPTH
 70
    3020
  9
$PICKSTYLE
 70
       1
  9
$CMLSTYLE
  2
STANDARD
  9
$CMLJUST
 70
       0
  9
$CMLSCALE
 40
1.0
  9
$PROXYGRAPHICS
 70
       0
  9
$MEASUREMENT
 70
       0
  0
ENDSEC
  0
SECTION
  2
CLASSES
  0
CLASS
  1
LWPOLYLINE
  2
AcDbPolyline
  3
"AutoCAD"
 90
        0
280
       0
281
       1
  0
CLASS
  1
IMAGE
  2
AcDbRasterImage
  3
ISM
 90
      127
280
       0
281
       1
  0
CLASS
  1
OLE2FRAME
  2
AcDbOle2Frame
  3
""
 90
        0
280
       0
281
       1
  0
CLASS
  1
HATCH
  2
AcDbHatch
  3
"ACAD_SEDONA"
 90
        0
280
       0
281
       1
  0
CLASS
  1
DICTIONARYVAR
  2
AcDbDictionaryVar
  3
"AutoCAD"
 90
        0
280
       0
281
       0
  0
CLASS
  1
RASTERVARIABLES
  2
AcDbRasterVariables
  3
ISM
 90
        0
280
       0
281
       0
  0
CLASS
  1
IMAGEDEF
  2
AcDbRasterImageDef
  3
ISM
 90
        0
280
       0
281
       0
  0
CLASS
  1
IMAGEDEF_REACTOR
  2
AcDbRasterImageDefReactor
  3
ISM
 90
        1
280
       0
281
       0
  0
CLASS
  1
IDBUFFER
  2
AcDbIdBuffer
  3
"Acad"
 90
        0
280
       0
281
       0
  0
CLASS
  1
SPATIAL_FILTER
  2
AcDbSpatialFilter
  3
"Acad"
 90
        0
280
       0
281
       0
  0
CLASS
  1
XRECORD
  2
AcDbXrecord
  3
"<Built In>"
 90
        0
280
       0
281
       0
  0
CLASS
  1
SORTENTSTABLE
  2
AcDbSortentsTable
  3
"AutoCAD"
 90
        0
280
       0
281
       0
  0
CLASS
  1
LAYER_INDEX
  2
AcDbLayerIndex
  3
"Acad"
 90
        0
280
       0
281
       0
  0
CLASS
  1
SPATIAL_INDEX
  2
AcDbSpatialIndex
  3
"Acad"
 90
        0
280
       0
281
       0
  0
CLASS
  1
OBJECT_PTR
  2
CAseDLPNTableRecord
  3
"ASE-LPNTableRecord"
 90
        1
280
       0
281
       0
  0
CLASS
  1
LAYOUT
  2
AcDbLayout
  3
"AutoCAD 2000"
 90
        1
280
       0
281
       0
  0
CLASS
  1
PLOTSETTINGS
  2
AcDbPlotSettings
  3
"AutoCAD 2000"
 90
        1
280
       0
281
       0
  0
CLASS
  1
ACDBDICTIONARYWDFLT
  2
AcDbDictionaryWithDefault
  3
"AutoCAD 2000"
 90
        1
280
       0
281
       0
  0
CLASS
  1
ACDBPLACEHOLDER
  2
AcDbPlaceHolder
  3
"AutoCAD 2000"
 90
        1
280
       0
281
       0
  0
CLASS
  1
VBA_PROJECT
  2
AcDbVbaProject
  3
"acadvba"
 90
        1
280
       0
281
       0
  0
CLASS
  1
WIPEOUT
  2
AcDbWipeout
  3
WipeOut|AutoCAD Express Tool|expresstools@autodesk.com
 90
      127
280
       0
281
       1
  0
CLASS
  1
WIPEOUTVARIABLES
  2
AcDbWipeoutVariables
  3
WipeOut|AutoCAD Express Tool|expresstools@autodesk.com
 90
        0
280
       0
281
       0
  0
CLASS
  1
RTEXT
  2
RText
  3
RText|AutoCAD Express Tool|expresstools@autodesk.com
 90
        0
280
       0
281
       1
  0
CLASS
  1
ARCALIGNEDTEXT
  2
AcDbArcAlignedText
  3
ATEXT|AutoCAD Express Tool|expresstools@autodesk.com
 90
        0
280
       0
281
       1
  0
ENDSEC
  0
SECTION
  2
TABLES
  0
TABLE
  2
VPORT
  5
7
100
AcDbSymbolTable
 70
       1
  0
VPORT
  5
15
100
AcDbSymbolTableRecord
100
AcDbViewportTableRecord
  2
*ACTIVE
 70
       0
 10
0.0
 20
0.0
 11
1.0
 21
1.0
 12
33.57350363
 22
7.32788765
 13
0.0
 23
0.0
 14
1.0
 24
1.0
 15
0.0
 25
0.0
 16
0.0
 26
0.0
 36
1.0
 17
0.0
 27
0.0
 37
0.0
 40
238.84902669
 41
1.37300466
 42
50.0
 43
0.0
 44
0.0
 50
0.0
 51
0.0
 71
       0
 72
     100
 73
       1
 74
       1
 75
       0
 76
       0
 77
       0
 78
       0
  0
ENDTAB
  0
TABLE
  2
LTYPE
  5
4
100
AcDbSymbolTable
 70
      30
  0
LTYPE
  5
11
100
AcDbSymbolTableRecord
100
AcDbLinetypeTableRecord
  2
BYBLOCK
 70
      64
  3

 72
      65
 73
       0
 40
0.0
  0
LTYPE
  5
12
100
AcDbSymbolTableRecord
100
AcDbLinetypeTableRecord
  2
BYLAYER
 70
      64
  3

 72
      65
 73
       0
 40
0.0
  0
LTYPE
  5
13
100
AcDbSymbolTableRecord
100
AcDbLinetypeTableRecord
  2
CONTINUOUS
 70
      64
  3
Solid line
 72
      65
 73
       0
 40
0.0
  0
LTYPE
  5
1D
100
AcDbSymbolTableRecord
100
AcDbLinetypeTableRecord
  2
HIDDENX2
 70
      64
  3
CADPAC LINETYPE
 72
      65
 73
       2
 40
15.13932312
 49
11.35449234
 74
       0
 49
-3.78483078
 74
       0
  0
LTYPE
  5
1E
100
AcDbSymbolTableRecord
100
AcDbLinetypeTableRecord
  2
HIDDEN
 70
      64
  3
CADPAC LINETYPE
 72
      65
 73
       2
 40
11.35449234
 49
7.56966156
 74
       0
 49
-3.78483078
 74
       0
  0
LTYPE
  5
1F
100
AcDbSymbolTableRecord
100
AcDbLinetypeTableRecord
  2
HIDDEN2
 70
      64
  3
CADPAC LINETYPE
 72
      65
 73
       2
 40
9.46207695
 49
5.67724617
 74
       0
 49
-3.78483078
 74
       0
  0
LTYPE
  5
20
100
AcDbSymbolTableRecord
100
AcDbLinetypeTableRecord
  2
DASHED
 70
      64
  3
CADPAC LINETYPE
 72
      65
 73
       2
 40
11.35449234
 49
7.56966156
 74
       0
 49
-3.78483078
 74
       0
  0
LTYPE
  5
21
100
AcDbSymbolTableRecord
100
AcDbLinetypeTableRecord
  2
DASHED2
 70
      64
  3
CADPAC LINETYPE
 72
      65
 73
       2
 40
8.51586926
 49
5.67724617
 74
       0
 49
-2.83862309
 74
       0
  0
LTYPE
  5
22
100
AcDbSymbolTableRecord
100
AcDbLinetypeTableRecord
  2
DASHEDX2
 70
      64
  3
CADPAC LINETYPE
 72
      65
 73
       2
 40
17.03173851
 49
11.35449234
 74
       0
 49
-5.67724617
 74
       0
  0
LTYPE
  5
23
100
AcDbSymbolTableRecord
100
AcDbLinetypeTableRecord
  2
DOTX2
 70
      64
  3
CADPAC LINETYPE
 72
      65
 73
       2
 40
4.73103848
 49
0.0
 74
       0
 49
-4.73103848
 74
       0
  0
LTYPE
  5
24
100
AcDbSymbolTableRecord
100
AcDbLinetypeTableRecord
  2
DOT
 70
      64
  3
CADPAC LINETYPE
 72
      65
 73
       2
 40
3.78483078
 49
0.0
 74
       0
 49
-3.78483078
 74
       0
  0
LTYPE
  5
25
100
AcDbSymbolTableRecord
100
AcDbLinetypeTableRecord
  2
DOT2
 70
      64
  3
CADPAC LINETYPE
 72
      65
 73
       2
 40
2.83862309
 49
0.0
 74
       0
 49
-2.83862309
 74
       0
  0
LTYPE
  5
26
100
AcDbSymbolTableRecord
100
AcDbLinetypeTableRecord
  2
CENTERX2
 70
      64
  3
CADPAC LINETYPE
 72
      65
 73
       4
 40
22.70898468
 49
9.46207695
 74
       0
 49
-4.73103848
 74
       0
 49
3.78483078
 74
       0
 49
-4.73103848
 74
       0
  0
LTYPE
  5
27
100
AcDbSymbolTableRecord
100
AcDbLinetypeTableRecord
  2
CENTER
 70
      64
  3
CADPAC LINETYPE
 72
      65
 73
       4
 40
17.41022159
 49
7.56966156
 74
       0
 49
-3.78483078
 74
       0
 49
2.27089847
 74
       0
 49
-3.78483078
 74
       0
  0
LTYPE
  5
28
100
AcDbSymbolTableRecord
100
AcDbLinetypeTableRecord
  2
CENTER2
 70
      64
  3
CADPAC LINETYPE
 72
      65
 73
       4
 40
12.1114585
 49
5.67724617
 74
       0
 49
-2.83862309
 74
       0
 49
0.75696616
 74
       0
 49
-2.83862309
 74
       0
  0
LTYPE
  5
29
100
AcDbSymbolTableRecord
100
AcDbLinetypeTableRecord
  2
DASHDOTX2
 70
      64
  3
CADPAC LINETYPE
 72
      65
 73
       4
 40
18.9241539
 49
9.46207695
 74
       0
 49
-4.73103848
 74
       0
 49
0.0
 74
       0
 49
-4.73103848
 74
       0
  0
LTYPE
  5
2A
100
AcDbSymbolTableRecord
100
AcDbLinetypeTableRecord
  2
DASHDOT
 70
      64
  3
CADPAC LINETYPE
 72
      65
 73
       4
 40
15.13932312
 49
7.56966156
 74
       0
 49
-3.78483078
 74
       0
 49
0.0
 74
       0
 49
-3.78483078
 74
       0
  0
LTYPE
  5
2B
100
AcDbSymbolTableRecord
100
AcDbLinetypeTableRecord
  2
DASHDOT2
 70
      64
  3
CADPAC LINETYPE
 72
      65
 73
       4
 40
11.35449234
 49
5.67724617
 74
       0
 49
-2.83862309
 74
       0
 49
0.0
 74
       0
 49
-2.83862309
 74
       0
  0
LTYPE
  5
2C
100
AcDbSymbolTableRecord
100
AcDbLinetypeTableRecord
  2
DIVIDEX2
 70
      64
  3
CADPAC LINETYPE
 72
      65
 73
       6
 40
23.65519238
 49
9.46207695
 74
       0
 49
-4.73103848
 74
       0
 49
0.0
 74
       0
 49
-4.73103848
 74
       0
 49
0.0
 74
       0
 49
-4.73103848
 74
       0
  0
LTYPE
  5
2D
100
AcDbSymbolTableRecord
100
AcDbLinetypeTableRecord
  2
DIVIDE
 70
      64
  3
CADPAC LINETYPE
 72
      65
 73
       6
 40
18.9241539
 49
7.56966156
 74
       0
 49
-3.78483078
 74
       0
 49
0.0
 74
       0
 49
-3.78483078
 74
       0
 49
0.0
 74
       0
 49
-3.78483078
 74
       0
  0
LTYPE
  5
2E
100
AcDbSymbolTableRecord
100
AcDbLinetypeTableRecord
  2
DIVIDE2
 70
      64
  3
CADPAC LINETYPE
 72
      65
 73
       6
 40
14.19311543
 49
5.67724617
 74
       0
 49
-2.83862309
 74
       0
 49
0.0
 74
       0
 49
-2.83862309
 74
       0
 49
0.0
 74
       0
 49
-2.83862309
 74
       0
  0
LTYPE
  5
2F
100
AcDbSymbolTableRecord
100
AcDbLinetypeTableRecord
  2
BORDERX2
 70
      64
  3
CADPAC LINETYPE
 72
      65
 73
       6
 40
33.11726933
 49
9.46207695
 74
       0
 49
-4.73103848
 74
       0
 49
9.46207695
 74
       0
 49
-4.73103848
 74
       0
 49
0.0
 74
       0
 49
-4.73103848
 74
       0
  0
LTYPE
  5
30
100
AcDbSymbolTableRecord
100
AcDbLinetypeTableRecord
  2
BORDER
 70
      64
  3
CADPAC LINETYPE
 72
      65
 73
       6
 40
26.49381546
 49
7.56966156
 74
       0
 49
-3.78483078
 74
       0
 49
7.56966156
 74
       0
 49
-3.78483078
 74
       0
 49
0.0
 74
       0
 49
-3.78483078
 74
       0
  0
LTYPE
  5
31
100
AcDbSymbolTableRecord
100
AcDbLinetypeTableRecord
  2
BORDER2
 70
      64
  3
CADPAC LINETYPE
 72
      65
 73
       6
 40
19.8703616
 49
5.67724617
 74
       0
 49
-2.83862309
 74
       0
 49
5.67724617
 74
       0
 49
-2.83862309
 74
       0
 49
0.0
 74
       0
 49
-2.83862309
 74
       0
  0
LTYPE
  5
32
100
AcDbSymbolTableRecord
100
AcDbLinetypeTableRecord
  2
PHANTOMX2
 70
      64
  3
CADPAC LINETYPE
 72
      65
 73
       6
 40
28.38623085
 49
9.46207695
 74
       0
 49
-3.78483078
 74
       0
 49
3.78483078
 74
       0
 49
-3.78483078
 74
       0
 49
3.78483078
 74
       0
 49
-3.78483078
 74
       0
  0
LTYPE
  5
33
100
AcDbSymbolTableRecord
100
AcDbLinetypeTableRecord
  2
PHANTOM
 70
      64
  3
CADPAC LINETYPE
 72
      65
 73
       6
 40
23.46595084
 49
7.56966156
 74
       0
 49
-3.78483078
 74
       0
 49
2.27089847
 74
       0
 49
-3.78483078
 74
       0
 49
2.27089847
 74
       0
 49
-3.78483078
 74
       0
  0
LTYPE
  5
34
100
AcDbSymbolTableRecord
100
AcDbLinetypeTableRecord
  2
PHANTOM2
 70
      64
  3
CADPAC LINETYPE
 72
      65
 73
       6
 40
20.05960314
 49
5.67724617
 74
       0
 49
-3.78483078
 74
       0
 49
1.51393231
 74
       0
 49
-3.78483078
 74
       0
 49
1.51393231
 74
       0
 49
-3.78483078
 74
       0
  0
LTYPE
  5
35
100
AcDbSymbolTableRecord
100
AcDbLinetypeTableRecord
  2
ACAD_ISO06W100
 70
      64
  3
CADPAC LINETYPE
 72
      65
 73
       8
 40
25.54760777
 49
9.46207695
 74
       0
 49
-4.73103848
 74
       0
 49
0.0
 74
       0
 49
-3.78483078
 74
       0
 49
0.0
 74
       0
 49
-3.78483078
 74
       0
 49
0.0
 74
       0
 49
-3.78483078
 74
       0
  0
LTYPE
  5
36
100
AcDbSymbolTableRecord
100
AcDbLinetypeTableRecord
  2
ACAD_ISO13W100
 70
      64
  3
CADPAC LINETYPE
 72
      65
 73
       8
 40
30.27864624
 49
7.56966156
 74
       0
 49
-3.78483078
 74
       0
 49
7.56966156
 74
       0
 49
-3.78483078
 74
       0
 49
0.0
 74
       0
 49
-3.78483078
 74
       0
 49
0.0
 74
       0
 49
-3.78483078
 74
       0
  0
LTYPE
  5
37
100
AcDbSymbolTableRecord
100
AcDbLinetypeTableRecord
  2
ACAD_ISO14W100
 70
      64
  3
CADPAC LINETYPE
 72
      65
 73
       8
 40
22.70898468
 49
7.56966156
 74
       0
 49
-3.78483078
 74
       0
 49
0.0
 74
       0
 49
-3.78483078
 74
       0
 49
0.0
 74
       0
 49
-3.78483078
 74
       0
 49
0.0
 74
       0
 49
-3.78483078
 74
       0
  0
ENDTAB
  0
TABLE
  2
LAYER
  5
2
100
AcDbSymbolTable
 70
       2
  0
LAYER
  5
14
100
AcDbSymbolTableRecord
100
AcDbLayerTableRecord
  2
0
 70
       0
 62
       7
  6
CONTINUOUS
  0
LAYER
  5
38
100
AcDbSymbolTableRecord
100
AcDbLayerTableRecord
  2
LAYER0001
 70
       0
 62
       7
  6
CONTINUOUS
  0
ENDTAB
  0
TABLE
  2
STYLE
  5
3
100
AcDbSymbolTable
 70
       1
  0
STYLE
  5
17
100
AcDbSymbolTableRecord
100
AcDbTextStyleTableRecord
  2
STANDARD
 70
       0
 40
0.0
 41
1.0
 50
0.0
 71
       0
 42
5.29166667
  3
txt.shx
  4
bigfont.shx
  0
ENDTAB
  0
TABLE
  2
VIEW
  5
5
100
AcDbSymbolTable
 70
       1
  0
VIEW
  5
39
100
AcDbSymbolTableRecord
100
AcDbViewTableRecord
  2
QQQQ
 70
       0
 40
238.84902669
 10
33.57350363
 20
7.32788765
 41
327.9408274
 11
0.0
 21
0.0
 31
1.0
 12
100.0
 22
100.0
 32
0.0
 42
50.0
 43
0.0
 44
0.0
 50
0.0
 71
       0
  0
ENDTAB
  0
TABLE
  2
UCS
  5
6
100
AcDbSymbolTable
 70
       0
  0
ENDTAB
  0
TABLE
  2
APPID
  5
8
100
AcDbSymbolTable
 70
       1
  0
APPID
  5
16
100
AcDbSymbolTableRecord
100
AcDbRegAppTableRecord
  2
ACAD
 70
       0
  0
ENDTAB
  0
TABLE
  2
DIMSTYLE
  5
9
100
AcDbSymbolTable
 70
       1
  0
DIMSTYLE
105
18
100
AcDbSymbolTableRecord
100
AcDbDimStyleTableRecord
  2
STANDARD
 70
       0
  3

  4

  5

  6

  7

 40
1.0
 41
0.18
 42
0.0625
 43
0.38
 44
0.18
 45
0.0
 46
0.0
 47
0.0
 48
0.0
 71
       0
 72
       0
 73
       1
 74
       1
 75
       0
 76
       0
 77
       0
 78
       0
140
0.18
141
0.09
142
0.0
143
25.4
144
1.0
145
0.0
146
1.0
147
0.09
170
       0
171
       2
172
       0
173
       0
174
       0
175
       0
176
       0
177
       0
178
       0
270
       2
271
       4
272
       4
273
       2
274
       2
275
       0
280
       0
281
       0
282
       0
283
       1
284
       0
285
       0
286
       0
287
       0
288
       0
340
17
  0
ENDTAB
  0
TABLE
  2
BLOCK_RECORD
  5
1
100
AcDbSymbolTable
 70
       9
  0
BLOCK_RECORD
  5
A
100
AcDbSymbolTableRecord
100
AcDbBlockTableRecord
  2
*MODEL_SPACE
  0
BLOCK_RECORD
  5
B
100
AcDbSymbolTableRecord
100
AcDbBlockTableRecord
  2
*PAPER_SPACE
  0
BLOCK_RECORD
  5
3A
100
AcDbSymbolTableRecord
100
AcDbBlockTableRecord
  2
GROUP_1
  0
BLOCK_RECORD
  5
3B
100
AcDbSymbolTableRecord
100
AcDbBlockTableRecord
  2
GROUP_2
  0
BLOCK_RECORD
  5
3C
100
AcDbSymbolTableRecord
100
AcDbBlockTableRecord
  2
GROUP_3
  0
BLOCK_RECORD
  5
3D
100
AcDbSymbolTableRecord
100
AcDbBlockTableRecord
  2
GROUP_4
  0
BLOCK_RECORD
  5
3E
100
AcDbSymbolTableRecord
100
AcDbBlockTableRecord
  2
GROUP_5
  0
BLOCK_RECORD
  5
3F
100
AcDbSymbolTableRecord
100
AcDbBlockTableRecord
  2
GROUP_6
  0
BLOCK_RECORD
  5
40
100
AcDbSymbolTableRecord
100
AcDbBlockTableRecord
  2
GROUP_7
  0
BLOCK_RECORD
  5
41
100
AcDbSymbolTableRecord
100
AcDbBlockTableRecord
  2
GROUP_8
  0
BLOCK_RECORD
  5
42
100
AcDbSymbolTableRecord
100
AcDbBlockTableRecord
  2
GROUP_9
  0
ENDTAB
  0
ENDSEC
  0
SECTION
  2
BLOCKS
  0
BLOCK
  5
D
100
AcDbEntity
  8
0
100
AcDbBlockBegin
  2
*MODEL_SPACE
 70
       0
 10
0.0
 20
0.0
 30
0.0
  3
*MODEL_SPACE
  1

  0
ENDBLK
  5
E
100
AcDbEntity
  8
0
100
AcDbBlockEnd
  0
BLOCK
  5
F
100
AcDbEntity
 67
       1
  8
0
100
AcDbBlockBegin
  2
*PAPER_SPACE
 70
       0
 10
0.0
 20
0.0
 30
0.0
  3
*PAPER_SPACE
  1

  0
ENDBLK
  5
10
100
AcDbEntity
 67
       1
  8
0
100
AcDbBlockEnd
  0
BLOCK
  5
43
100
AcDbEntity
  8
0
100
AcDbBlockBegin
  2
GROUP_1
 70
       0
 10
0.0
 20
0.0
 30
0.0
  3
GROUP_1
  1

  0
LINE
  5
44
100
AcDbEntity
  8
LAYER0001
  6
CONTINUOUS
 62
       7
100
AcDbLine
 10
-99.97423745
 20
-1.45140341
 30
0.0
 11
-99.96941771
 21
-1.40305881
 31
0.0
  0
LINE
  5
45
100
AcDbEntity
  8
LAYER0001
  6
CONTINUOUS
 62
       7
100
AcDbLine
 10
-99.96941771
 20
-1.40305881
 30
0.0
 11
-99.96418751
 21
-1.35482652
 31
0.0
  0
LINE
  5
46
100
AcDbEntity
  8
LAYER0001
  6
CONTINUOUS
 62
       7
100
AcDbLine
 10
-99.96418751
 20
-1.35482652
 30
0.0
 11
-99.95813639
 21
-1.30681888
 31
0.0
  0
LINE
  5
47
100
AcDbEntity
  8
LAYER0001
  6
CONTINUOUS
 62
       7
100
AcDbLine
 10
-99.95813639
 20
-1.30681888
 30
0.0
 11
-99.95085388
 21
-1.25914821
 31
0.0
  0
LINE
  5
48
100
AcDbEntity
  8
LAYER0001
  6
CONTINUOUS
 62
       7
100
AcDbLine
 10
-99.95085388
 20
-1.25914821
 30
0.0
 11
-99.94192954
 21
-1.21192684
 31
0.0
  0
LINE
  5
49
100
AcDbEntity
  8
LAYER0001
  6
CONTINUOUS
 62
       7
100
AcDbLine
 10
-99.94192954
 20
-1.21192684
 30
0.0
 11
-99.93095289
 21
-1.16526707
 31
0.0
  0
LINE
  5
4A
100
AcDbEntity
  8
LAYER0001
  6
CONTINUOUS
 62
       7
100
AcDbLine
 10
-99.93095289
 20
-1.16526707
 30
0.0
 11
-99.91751349
 21
-1.11928125
 31
0.0
  0
LINE
  5
4B
100
AcDbEntity
  8
LAYER0001
  6
CONTINUOUS
 62
       7
100
AcDbLine
 10
-99.91751349
 20
-1.11928125
 30
0.0
 11
-99.90130704
 21
-1.07407931
 31
0.0
  0
LINE
  5
4C
100
AcDbEntity
  8
LAYER0001
  6
CONTINUOUS
 62
       7
100
AcDbLine
 10
-99.90130704
 20
-1.07407931
 30
0.0
 11
-99.88241605
 21
-1.02976255
 31
0.0
  0
LINE
  5
4D
100
AcDbEntity
  8
LAYER0001
  6
CONTINUOUS
 62
       7
100
AcDbLine
 10
-99.88241605
 20
-1.02976255
 30
0.0
 11
-99.86101105
 21
-0.98643027
 31
0.0
  0
LINE
  5
4E
100
AcDbEntity
  8
LAYER0001
  6
CONTINUOUS
 62
       7
100
AcDbLine
 10
-99.86101105
 20
-0.98643027
 30
0.0
 11
-99.83726258
 21
-0.9441818
 31
0.0
  0
LINE
  5
4F
100
AcDbEntity
  8
LAYER0001
  6
CONTINUOUS
 62
       7
100
AcDbLine
 10
-99.83726258
 20
-0.9441818
 30
0.0
 11
-99.81134116
 21
-0.90311646
 31
0.0
  0
LINE
  5
50
100
AcDbEntity
  8
LAYER0001
  6
CONTINUOUS
 62
       7
100
AcDbLine
 10
-99.81134116
 20
-0.90311646
 30
0.0
 11
-99.78341734
 21
-0.86333356
 31
0.0
  0
LINE
  5
51
100
AcDbEntity
  8
LAYER0001
  6
CONTINUOUS
 62
       7
100
AcDbLine
 10
-99.78341734
 20
-0.86333356
 30
0.0
 11
-99.75366165
 21
-0.82493243
 31
0.0
  0
LINE
  5
52
100
AcDbEntity
  8
LAYER0001
  6
CONTINUOUS
 62
       7
100
AcDbLine
 10
-99.75366165
 20
-0.82493243
 30
0.0
 11
-99.72222136
 21
-0.78800754
 31
0.0
  0
LINE
  5
53
100
AcDbEntity
  8
LAYER0001
  6
CONTINUOUS
 62
       7
100
AcDbLine
 10
-99.72222136
 20
-0.78800754
 30
0.0
 11
-99.68916654
 21
-0.75263736
 31
0.0
  0
LINE
  5
54
100
AcDbEntity
  8
LAYER0001
  6
CONTINUOUS
 62
       7
100
AcDbLine
 10
-99.68916654
 20
-0.75263736
 30
0.0
 11
-99.65455128
 21
-0.71889706
 31
0.0
  0
LINE
  5
55
100
AcDbEntity
  8
LAYER0001
  6
CONTINUOUS
 62
       7
100
AcDbLine
 10
-99.65455128
 20
-0.71889706
 30
0.0
 11
-99.61842967
 21
-0.68686178
 31
0.0
  0
LINE
  5
56
100
AcDbEntity
  8
LAYER0001
  6
CONTINUOUS
 62
       7
100
AcDbLine
 10
-99.61842967
 20
-0.68686178
 30
0.0
 11
-99.5808558
 21
-0.65660667
 31
0.0
  0
LINE
  5
57
100
AcDbEntity
  8
LAYER0001
  6
CONTINUOUS
 62
       7
100
AcDbLine
 10
-99.5808558
 20
-0.65660667
 30
0.0
 11
-99.54188374
 21
-0.62820688
 31
0.0
  0
LINE
  5
58
100
AcDbEntity
  8
LAYER0001
  6
CONTINUOUS
 62
       7
100
AcDbLine
 10
-99.54188374
 20
-0.62820688
 30
0.0
 11
-99.50156761
 21
-0.60173756
 31
0.0
  0
LINE
  5
59
100
AcDbEntity
  8
LAYER0001
  6
CONTINUOUS
 62
       7
100
AcDbLine
 10
-99.50156761
 20
-0.60173756
 30
0.0
 11
-99.45997412
 21
-0.57726691
 31
0.0
  0
LINE
  5
5A
100
AcDbEntity
  8
LAYER0001
  6
CONTINUOUS
 62
       7
100
AcDbLine
 10
-99.45997412
 20
-0.57726691
 30
0.0
 11
-99.41720875
 21
-0.55484192
 31
0.0
  0
LINE
  5
5B
100
AcDbEntity
  8
LAYER0001
  6
CONTINUOUS
 62
       7
100
AcDbLine
 10
-99.41720875
 20
-0.55484192
 30
0.0
 11
-99.37338432
 21
-0.53450551
 31
0.0
  0
LINE
  5
5C
100
AcDbEntity
  8
LAYER0001
  6
CONTINUOUS
 62
       7
100
AcDbLine
 10
-99.37338432
 20
-0.53450551
 30
0.0
 11
-99.32861366
 21
-0.51630058
 31
0.0
  0
LINE
  5
5D
100
AcDbEntity
  8
LAYER0001
  6
CONTINUOUS
 62
       7
100
AcDbLine
 10
-99.32861366
 20
-0.51630058
 30
0.0
 11
-99.28300961
 21
-0.50027008
 31
0.0
  0
LINE
  5
5E
100
AcDbEntity
  8
LAYER0001
  6
CONTINUOUS
 62
       7
100
AcDbLine
 10
-99.28300961
 20
-0.50027008
 30
0.0
 11
-99.23668501
 21
-0.48645692
 31
0.0
  0
LINE
  5
5F
100
AcDbEntity
  8
LAYER0001
  6
CONTINUOUS
 62
       7
100
AcDbLine
 10
-99.23668501
 20
-0.48645692
 30
0.0
 11
-99.18975269
 21
-0.47490401
 31
0.0
  0
LINE
  5
60
100
AcDbEntity
  8
LAYER0001
  6
CONTINUOUS
 62
       7
100
AcDbLine
 10
-99.18975269
 20
-0.47490401
 30
0.0
 11
-99.14232505
 21
-0.46564589
 31
0.0
  0
LINE
  5
61
100
AcDbEntity
  8
LAYER0001
  6
CONTINUOUS
 62
       7
100
AcDbLine
 10
-99.14232505
 20
-0.46564589
 30
0.0
 11
-99.09451323
 21
-0.45869288
 31
0.0
  0
LINE
  5
62
100
AcDbEntity
  8
LAYER0001
  6
CONTINUOUS
 62
       7
100
AcDbLine
 10
-99.09451323
 20
-0.45869288
 30
0.0
 11
-99.04642815
 21
-0.45405092
 31
0.0
  0
LINE
  5
63
100
AcDbEntity
  8
LAYER0001
  6
CONTINUOUS
 62
       7
100
AcDbLine
 10
-99.04642815
 20
-0.45405092
 30
0.0
 11
-98.99818073
 21
-0.45172596
 31
0.0
  0
LINE
  5
64
100
AcDbEntity
  8
LAYER0001
  6
CONTINUOUS
 62
       7
100
AcDbLine
 10
-98.99818073
 20
-0.45172596
 30
0.0
 11
-98.94988189
 21
-0.45172395
 31
0.0
  0
LINE
  5
65
100
AcDbEntity
  8
LAYER0001
  6
CONTINUOUS
 62
       7
100
AcDbLine
 10
-98.94988189
 20
-0.45172395
 30
0.0
 11
-98.90164253
 21
-0.45405082
 31
0.0
  0
LINE
  5
66
100
AcDbEntity
  8
LAYER0001
  6
CONTINUOUS
 62
       7
100
AcDbLine
 10
-98.90164253
 20
-0.45405082
 30
0.0
 11
-98.85357359
 21
-0.45871252
 31
0.0
  0
LINE
  5
67
100
AcDbEntity
  8
LAYER0001
  6
CONTINUOUS
 62
       7
100
AcDbLine
 10
-98.85357359
 20
-0.45871252
 30
0.0
 11
-98.80578535
 21
-0.46570634
 31
0.0
  0
LINE
  5
68
100
AcDbEntity
  8
LAYER0001
  6
CONTINUOUS
 62
       7
100
AcDbLine
 10
-98.80578535
 20
-0.46570634
 30
0.0
 11
-98.75838633
 21
-0.47500534
 31
0.0
  0
LINE
  5
69
100
AcDbEntity
  8
LAYER0001
  6
CONTINUOUS
 62
       7
100
AcDbLine
 10
-98.75838633
 20
-0.47500534
 30
0.0
 11
-98.71148475
 21
-0.48657841
 31
0.0
  0
LINE
  5
6A
100
AcDbEntity
  8
LAYER0001
  6
CONTINUOUS
 62
       7
100
AcDbLine
 10
-98.71148475
 20
-0.48657841
 30
0.0
 11
-98.66518883
 21
-0.50039443
 31
0.0
  0
LINE
  5
6B
100
AcDbEntity
  8
LAYER0001
  6
CONTINUOUS
 62
       7
100
AcDbLine
 10
-98.66518883
 20
-0.50039443
 30
0.0
 11
-98.6196068
 21
-0.5164223
 31
0.0
  0
LINE
  5
6C
100
AcDbEntity
  8
LAYER0001
  6
CONTINUOUS
 62
       7
100
AcDbLine
 10
-98.6196068
 20
-0.5164223
 30
0.0
 11
-98.57484687
 21
-0.53463088
 31
0.0
  0
LINE
  5
6D
100
AcDbEntity
  8
LAYER0001
  6
CONTINUOUS
 62
       7
100
AcDbLine
 10
-98.57484687
 20
-0.53463088
 30
0.0
 11
-98.53101727
 21
-0.55498905
 31
0.0
  0
LINE
  5
6E
100
AcDbEntity
  8
LAYER0001
  6
CONTINUOUS
 62
       7
100
AcDbLine
 10
-98.53101727
 20
-0.55498905
 30
0.0
 11
-98.48822332
 21
-0.57745716
 31
0.0
  0
LINE
  5
6F
100
AcDbEntity
  8
LAYER0001
  6
CONTINUOUS
 62
       7
100
AcDbLine
 10
-98.48822332
 20
-0.57745716
 30
0.0
 11
-98.44656252
 21
-0.60197235
 31
0.0
  0
LINE
  5
70
100
AcDbEntity
  8
LAYER0001
  6
CONTINUOUS
 62
       7
100
AcDbLine
 10
-98.44656252
 20
-0.60197235
 30
0.0
 11
-98.40613104
 21
-0.62846784
 31
0.0
  0
LINE
  5
71
100
AcDbEntity
  8
LAYER0001
  6
CONTINUOUS
 62
       7
100
AcDbLine
 10
-98.40613104
 20
-0.62846784
 30
0.0
 11
-98.36702505
 21
-0.65687686
 31
0.0
  0
LINE
  5
72
100
AcDbEntity
  8
LAYER0001
  6
CONTINUOUS
 62
       7
100
AcDbLine
 10
-98.36702505
 20
-0.65687686
 30
0.0
 11
-98.32934072
 21
-0.68713263
 31
0.0
  0
LINE
  5
73
100
AcDbEntity
  8
LAYER0001
  6
CONTINUOUS
 62
       7
100
AcDbLine
 10
-98.32934072
 20
-0.68713263
 30
0.0
 11
-98.29317422
 21
-0.71916837
 31
0.0
  0
LINE
  5
74
100
AcDbEntity
  8
LAYER0001
  6
CONTINUOUS
 62
       7
100
AcDbLine
 10
-98.29317422
 20
-0.71916837
 30
0.0
 11
-98.2586217
 21
-0.75291729
 31
0.0
  0
LINE
  5
75
100
AcDbEntity
  8
LAYER0001
  6
CONTINUOUS
 62
       7
100
AcDbLine
 10
-98.2586217
 20
-0.75291729
 30
0.0
 11
-98.22576814
 21
-0.7883071
 31
0.0
  0
LINE
  5
76
100
AcDbEntity
  8
LAYER0001
  6
CONTINUOUS
 62
       7
100
AcDbLine
 10
-98.22576814
 20
-0.7883071
 30
0.0
 11
-98.1946691
 21
-0.82525095
 31
0.0
  0
LINE
  5
77
100
AcDbEntity
  8
LAYER0001
  6
CONTINUOUS
 62
       7
100
AcDbLine
 10
-98.1946691
 20
-0.82525095
 30
0.0
 11
-98.16537531
 21
-0.86365963
 31
0.0
  0
LINE
  5
78
100
AcDbEntity
  8
LAYER0001
  6
CONTINUOUS
 62
       7
100
AcDbLine
 10
-98.16537531
 20
-0.86365963
 30
0.0
 11
-98.13793751
 21
-0.90344394
 31
0.0
  0
LINE
  5
79
100
AcDbEntity
  8
LAYER0001
  6
CONTINUOUS
 62
       7
100
AcDbLine
 10
-98.13793751
 20
-0.90344394
 30
0.0
 11
-98.11240647
 21
-0.94451467
 31
0.0
  0
LINE
  5
7A
100
AcDbEntity
  8
LAYER0001
  6
CONTINUOUS
 62
       7
100
AcDbLine
 10
-98.11240647
 20
-0.94451467
 30
0.0
 11
-98.08883292
 21
-0.98678259
 31
0.0
  0
LINE
  5
7B
100
AcDbEntity
  8
LAYER0001
  6
CONTINUOUS
 62
       7
100
AcDbLine
 10
-98.08883292
 20
-0.98678259
 30
0.0
 11
-98.06726763
 21
-1.03015848
 31
0.0
  0
LINE
  5
7C
100
AcDbEntity
  8
LAYER0001
  6
CONTINUOUS
 62
       7
100
AcDbLine
 10
-98.06726763
 20
-1.03015848
 30
0.0
 11
-98.04777052
 21
-1.07454439
 31
0.0
  0
LINE
  5
7D
100
AcDbEntity
  8
LAYER0001
  6
CONTINUOUS
 62
       7
100
AcDbLine
 10
-98.04777052
 20
-1.07454439
 30
0.0
 11
-98.03042452
 21
-1.11982047
 31
0.0
  0
LINE
  5
7E
100
AcDbEntity
  8
LAYER0001
  6
CONTINUOUS
 62
       7
100
AcDbLine
 10
-98.03042452
 20
-1.11982047
 30
0.0
 11
-98.01531607
 21
-1.16586351
 31
0.0
  0
LINE
  5
7F
100
AcDbEntity
  8
LAYER0001
  6
CONTINUOUS
 62
       7
100
AcDbLine
 10
-98.01531607
 20
-1.16586351
 30
0.0
 11
-98.00253162
 21
-1.21255028
 31
0.0
  0
LINE
  5
80
100
AcDbEntity
  8
LAYER0001
  6
CONTINUOUS
 62
       7
100
AcDbLine
 10
-98.00253162
 20
-1.21255028
 30
0.0
 11
-97.99215765
 21
-1.25975756
 31
0.0
  0
LINE
  5
81
100
AcDbEntity
  8
LAYER0001
  6
CONTINUOUS
 62
       7
100
AcDbLine
 10
-97.99215765
 20
-1.25975756
 30
0.0
 11
-97.9842806
 21
-1.30736214
 31
0.0
  0
LINE
  5
82
100
AcDbEntity
  8
LAYER0001
  6
CONTINUOUS
 62
       7
100
AcDbLine
 10
-97.9842806
 20
-1.30736214
 30
0.0
 11
-97.97898559
 21
-1.35524085
 31
0.0
  0
LINE
  5
83
100
AcDbEntity
  8
LAYER0001
  6
CONTINUOUS
 62
       7
100
AcDbLine
 10
-97.97898559
 20
-1.35524085
 30
0.0
 11
-97.97600356
 21
-1.40328241
 31
0.0
  0
LINE
  5
84
100
AcDbEntity
  8
LAYER0001
  6
CONTINUOUS
 62
       7
100
AcDbLine
 10
-97.97600356
 20
-1.40328241
 30
0.0
 11
-97.97423713
 21
-1.45140341
 31
0.0
  0
ENDBLK
  5
85
100
AcDbEntity
  8
0
100
AcDbBlockEnd
  0
BLOCK
  5
86
100
AcDbEntity
  8
0
100
AcDbBlockBegin
  2
GROUP_2
 70
       0
 10
0.0
 20
0.0
 30
0.0
  3
GROUP_2
  1

  0
LINE
  5
87
100
AcDbEntity
  8
LAYER0001
  6
CONTINUOUS
 62
       7
100
AcDbLine
 10
-103.97423811
 20
-1.45140341
 30
0.0
 11
-103.96941848
 21
-1.40304782
 31
0.0
  0
LINE
  5
88
100
AcDbEntity
  8
LAYER0001
  6
CONTINUOUS
 62
       7
100
AcDbLine
 10
-103.96941848
 20
-1.40304782
 30
0.0
 11
-103.96418801
 21
-1.35480472
 31
0.0
  0
LINE
  5
89
100
AcDbEntity
  8
LAYER0001
  6
CONTINUOUS
 62
       7
100
AcDbLine
 10
-103.96418801
 20
-1.35480472
 30
0.0
 11
-103.95813589
 21
-1.30678662
 31
0.0
  0
LINE
  5
8A
100
AcDbEntity
  8
LAYER0001
  6
CONTINUOUS
 62
       7
100
AcDbLine
 10
-103.95813589
 20
-1.30678662
 30
0.0
 11
-103.95085127
 21
-1.25910602
 31
0.0
  0
LINE
  5
8B
100
AcDbEntity
  8
LAYER0001
  6
CONTINUOUS
 62
       7
100
AcDbLine
 10
-103.95085127
 20
-1.25910602
 30
0.0
 11
-103.94192333
 21
-1.2118754
 31
0.0
  0
LINE
  5
8C
100
AcDbEntity
  8
LAYER0001
  6
CONTINUOUS
 62
       7
100
AcDbLine
 10
-103.94192333
 20
-1.2118754
 30
0.0
 11
-103.93094124
 21
-1.16520728
 31
0.0
  0
LINE
  5
8D
100
AcDbEntity
  8
LAYER0001
  6
CONTINUOUS
 62
       7
100
AcDbLine
 10
-103.93094124
 20
-1.16520728
 30
0.0
 11
-103.91749416
 21
-1.11921414
 31
0.0
  0
LINE
  5
8E
100
AcDbEntity
  8
LAYER0001
  6
CONTINUOUS
 62
       7
100
AcDbLine
 10
-103.91749416
 20
-1.11921414
 30
0.0
 11
-103.90127881
 21
-1.07400606
 31
0.0
  0
LINE
  5
8F
100
AcDbEntity
  8
LAYER0001
  6
CONTINUOUS
 62
       7
100
AcDbLine
 10
-103.90127881
 20
-1.07400606
 30
0.0
 11
-103.88237893
 21
-1.02968433
 31
0.0
  0
LINE
  5
90
100
AcDbEntity
  8
LAYER0001
  6
CONTINUOUS
 62
       7
100
AcDbLine
 10
-103.88237893
 20
-1.02968433
 30
0.0
 11
-103.86096533
 21
-0.98634829
 31
0.0
  0
LINE
  5
91
100
AcDbEntity
  8
LAYER0001
  6
CONTINUOUS
 62
       7
100
AcDbLine
 10
-103.86096533
 20
-0.98634829
 30
0.0
 11
-103.83720883
 21
-0.94409727
 31
0.0
  0
LINE
  5
92
100
AcDbEntity
  8
LAYER0001
  6
CONTINUOUS
 62
       7
100
AcDbLine
 10
-103.83720883
 20
-0.94409727
 30
0.0
 11
-103.81128023
 21
-0.90303061
 31
0.0
  0
LINE
  5
93
100
AcDbEntity
  8
LAYER0001
  6
CONTINUOUS
 62
       7
100
AcDbLine
 10
-103.81128023
 20
-0.90303061
 30
0.0
 11
-103.78335034
 21
-0.86324763
 31
0.0
  0
LINE
  5
94
100
AcDbEntity
  8
LAYER0001
  6
CONTINUOUS
 62
       7
100
AcDbLine
 10
-103.78335034
 20
-0.86324763
 30
0.0
 11
-103.75358995
 21
-0.82484768
 31
0.0
  0
LINE
  5
95
100
AcDbEntity
  8
LAYER0001
  6
CONTINUOUS
 62
       7
100
AcDbLine
 10
-103.75358995
 20
-0.82484768
 30
0.0
 11
-103.72214604
 21
-0.78792511
 31
0.0
  0
LINE
  5
96
100
AcDbEntity
  8
LAYER0001
  6
CONTINUOUS
 62
       7
100
AcDbLine
 10
-103.72214604
 20
-0.78792511
 30
0.0
 11
-103.68908831
 21
-0.75255825
 31
0.0
  0
LINE
  5
97
100
AcDbEntity
  8
LAYER0001
  6
CONTINUOUS
 62
       7
100
AcDbLine
 10
-103.68908831
 20
-0.75255825
 30
0.0
 11
-103.65447089
 21
-0.71882216
 31
0.0
  0
LINE
  5
98
100
AcDbEntity
  8
LAYER0001
  6
CONTINUOUS
 62
       7
100
AcDbLine
 10
-103.65447089
 20
-0.71882216
 30
0.0
 11
-103.6183479
 21
-0.68679191
 31
0.0
  0
LINE
  5
99
100
AcDbEntity
  8
LAYER0001
  6
CONTINUOUS
 62
       7
100
AcDbLine
 10
-103.6183479
 20
-0.68679191
 30
0.0
 11
-103.58077344
 21
-0.65654255
 31
0.0
  0
LINE
  5
9A
100
AcDbEntity
  8
LAYER0001
  6
CONTINUOUS
 62
       7
100
AcDbLine
 10
-103.58077344
 20
-0.65654255
 30
0.0
 11
-103.54180163
 21
-0.62814916
 31
0.0
  0
LINE
  5
9B
100
AcDbEntity
  8
LAYER0001
  6
CONTINUOUS
 62
       7
100
AcDbLine
 10
-103.54180163
 20
-0.62814916
 30
0.0
 11
-103.50148659
 21
-0.6016868
 31
0.0
  0
LINE
  5
9C
100
AcDbEntity
  8
LAYER0001
  6
CONTINUOUS
 62
       7
100
AcDbLine
 10
-103.50148659
 20
-0.6016868
 30
0.0
 11
-103.45989543
 21
-0.57722337
 31
0.0
  0
LINE
  5
9D
100
AcDbEntity
  8
LAYER0001
  6
CONTINUOUS
 62
       7
100
AcDbLine
 10
-103.45989543
 20
-0.57722337
 30
0.0
 11
-103.41713378
 21
-0.55480554
 31
0.0
  0
LINE
  5
9E
100
AcDbEntity
  8
LAYER0001
  6
CONTINUOUS
 62
       7
100
AcDbLine
 10
-103.41713378
 20
-0.55480554
 30
0.0
 11
-103.37331437
 21
-0.53447606
 31
0.0
  0
LINE
  5
9F
100
AcDbEntity
  8
LAYER0001
  6
CONTINUOUS
 62
       7
100
AcDbLine
 10
-103.37331437
 20
-0.53447606
 30
0.0
 11
-103.32854993
 21
-0.5162777
 31
0.0
  0
LINE
  5
A0
100
AcDbEntity
  8
LAYER0001
  6
CONTINUOUS
 62
       7
100
AcDbLine
 10
-103.32854993
 20
-0.5162777
 30
0.0
 11
-103.28295319
 21
-0.50025319
 31
0.0
  0
LINE
  5
A1
100
AcDbEntity
  8
LAYER0001
  6
CONTINUOUS
 62
       7
100
AcDbLine
 10
-103.28295319
 20
-0.50025319
 30
0.0
 11
-103.23663689
 21
-0.48644529
 31
0.0
  0
LINE
  5
A2
100
AcDbEntity
  8
LAYER0001
  6
CONTINUOUS
 62
       7
100
AcDbLine
 10
-103.23663689
 20
-0.48644529
 30
0.0
 11
-103.18971376
 21
-0.47489676
 31
0.0
  0
LINE
  5
A3
100
AcDbEntity
  8
LAYER0001
  6
CONTINUOUS
 62
       7
100
AcDbLine
 10
-103.18971376
 20
-0.47489676
 30
0.0
 11
-103.14229607
 21
-0.46564179
 31
0.0
  0
LINE
  5
A4
100
AcDbEntity
  8
LAYER0001
  6
CONTINUOUS
 62
       7
100
AcDbLine
 10
-103.14229607
 20
-0.46564179
 30
0.0
 11
-103.09449477
 21
-0.45869065
 31
0.0
  0
LINE
  5
A5
100
AcDbEntity
  8
LAYER0001
  6
CONTINUOUS
 62
       7
100
AcDbLine
 10
-103.09449477
 20
-0.45869065
 30
0.0
 11
-103.04642061
 21
-0.45404941
 31
0.0
  0
LINE
  5
A6
100
AcDbEntity
  8
LAYER0001
  6
CONTINUOUS
 62
       7
100
AcDbLine
 10
-103.04642061
 20
-0.45404941
 30
0.0
 11
-102.99818431
 21
-0.45172416
 31
0.0
  0
LINE
  5
A7
100
AcDbEntity
  8
LAYER0001
  6
CONTINUOUS
 62
       7
100
AcDbLine
 10
-102.99818431
 20
-0.45172416
 30
0.0
 11
-102.94989661
 21
-0.45172095
 31
0.0
  0
LINE
  5
A8
100
AcDbEntity
  8
LAYER0001
  6
CONTINUOUS
 62
       7
100
AcDbLine
 10
-102.94989661
 20
-0.45172095
 30
0.0
 11
-102.90166825
 21
-0.45404588
 31
0.0
  0
LINE
  5
A9
100
AcDbEntity
  8
LAYER0001
  6
CONTINUOUS
 62
       7
100
AcDbLine
 10
-102.90166825
 20
-0.45404588
 30
0.0
 11
-102.85360994
 21
-0.458705
 31
0.0
  0
LINE
  5
AA
100
AcDbEntity
  8
LAYER0001
  6
CONTINUOUS
 62
       7
100
AcDbLine
 10
-102.85360994
 20
-0.458705
 30
0.0
 11
-102.80583181
 21
-0.46569556
 31
0.0
  0
LINE
  5
AB
100
AcDbEntity
  8
LAYER0001
  6
CONTINUOUS
 62
       7
100
AcDbLine
 10
-102.80583181
 20
-0.46569556
 30
0.0
 11
-102.75844222
 21
-0.4749906
 31
0.0
  0
LINE
  5
AC
100
AcDbEntity
  8
LAYER0001
  6
CONTINUOUS
 62
       7
100
AcDbLine
 10
-102.75844222
 20
-0.4749906
 30
0.0
 11
-102.71154927
 21
-0.48655907
 31
0.0
  0
LINE
  5
AD
100
AcDbEntity
  8
LAYER0001
  6
CONTINUOUS
 62
       7
100
AcDbLine
 10
-102.71154927
 20
-0.48655907
 30
0.0
 11
-102.66526105
 21
-0.50036992
 31
0.0
  0
LINE
  5
AE
100
AcDbEntity
  8
LAYER0001
  6
CONTINUOUS
 62
       7
100
AcDbLine
 10
-102.66526105
 20
-0.50036992
 30
0.0
 11
-102.61968564
 21
-0.51639208
 31
0.0
  0
LINE
  5
AF
100
AcDbEntity
  8
LAYER0001
  6
CONTINUOUS
 62
       7
100
AcDbLine
 10
-102.61968564
 20
-0.51639208
 30
0.0
 11
-102.57493113
 21
-0.53459451
 31
0.0
  0
LINE
  5
B0
100
AcDbEntity
  8
LAYER0001
  6
CONTINUOUS
 62
       7
100
AcDbLine
 10
-102.57493113
 20
-0.53459451
 30
0.0
 11
-102.53110561
 21
-0.55494613
 31
0.0
  0
LINE
  5
B1
100
AcDbEntity
  8
LAYER0001
  6
CONTINUOUS
 62
       7
100
AcDbLine
 10
-102.53110561
 20
-0.55494613
 30
0.0
 11
-102.48831432
 21
-0.57740735
 31
0.0
  0
LINE
  5
B2
100
AcDbEntity
  8
LAYER0001
  6
CONTINUOUS
 62
       7
100
AcDbLine
 10
-102.48831432
 20
-0.57740735
 30
0.0
 11
-102.4466548
 21
-0.6019155
 31
0.0
  0
LINE
  5
B3
100
AcDbEntity
  8
LAYER0001
  6
CONTINUOUS
 62
       7
100
AcDbLine
 10
-102.4466548
 20
-0.6019155
 30
0.0
 11
-102.40622331
 21
-0.62840404
 31
0.0
  0
LINE
  5
B4
100
AcDbEntity
  8
LAYER0001
  6
CONTINUOUS
 62
       7
100
AcDbLine
 10
-102.40622331
 20
-0.62840404
 30
0.0
 11
-102.36711611
 21
-0.65680643
 31
0.0
  0
LINE
  5
B5
100
AcDbEntity
  8
LAYER0001
  6
CONTINUOUS
 62
       7
100
AcDbLine
 10
-102.36711611
 20
-0.65680643
 30
0.0
 11
-102.32942945
 21
-0.68705612
 31
0.0
  0
LINE
  5
B6
100
AcDbEntity
  8
LAYER0001
  6
CONTINUOUS
 62
       7
100
AcDbLine
 10
-102.32942945
 20
-0.68705612
 30
0.0
 11
-102.2932596
 21
-0.71908657
 31
0.0
  0
LINE
  5
B7
100
AcDbEntity
  8
LAYER0001
  6
CONTINUOUS
 62
       7
100
AcDbLine
 10
-102.2932596
 20
-0.71908657
 30
0.0
 11
-102.25870277
 21
-0.75283124
 31
0.0
  0
LINE
  5
B8
100
AcDbEntity
  8
LAYER0001
  6
CONTINUOUS
 62
       7
100
AcDbLine
 10
-102.25870277
 20
-0.75283124
 30
0.0
 11
-102.22584412
 21
-0.78821802
 31
0.0
  0
LINE
  5
B9
100
AcDbEntity
  8
LAYER0001
  6
CONTINUOUS
 62
       7
100
AcDbLine
 10
-102.22584412
 20
-0.78821802
 30
0.0
 11
-102.19473936
 21
-0.82516011
 31
0.0
  0
LINE
  5
BA
100
AcDbEntity
  8
LAYER0001
  6
CONTINUOUS
 62
       7
100
AcDbLine
 10
-102.19473936
 20
-0.82516011
 30
0.0
 11
-102.16543936
 21
-0.86356828
 31
0.0
  0
LINE
  5
BB
100
AcDbEntity
  8
LAYER0001
  6
CONTINUOUS
 62
       7
100
AcDbLine
 10
-102.16543936
 20
-0.86356828
 30
0.0
 11
-102.13799502
 21
-0.90335332
 31
0.0
  0
LINE
  5
BC
100
AcDbEntity
  8
LAYER0001
  6
CONTINUOUS
 62
       7
100
AcDbLine
 10
-102.13799502
 20
-0.90335332
 30
0.0
 11
-102.11245722
 21
-0.94442601
 31
0.0
  0
LINE
  5
BD
100
AcDbEntity
  8
LAYER0001
  6
CONTINUOUS
 62
       7
100
AcDbLine
 10
-102.11245722
 20
-0.94442601
 30
0.0
 11
-102.08887685
 21
-0.98669713
 31
0.0
  0
LINE
  5
BE
100
AcDbEntity
  8
LAYER0001
  6
CONTINUOUS
 62
       7
100
AcDbLine
 10
-102.08887685
 20
-0.98669713
 30
0.0
 11
-102.06730482
 21
-1.03007744
 31
0.0
  0
LINE
  5
BF
100
AcDbEntity
  8
LAYER0001
  6
CONTINUOUS
 62
       7
100
AcDbLine
 10
-102.06730482
 20
-1.03007744
 30
0.0
 11
-102.04780111
 21
-1.07446901
 31
0.0
  0
LINE
  5
C0
100
AcDbEntity
  8
LAYER0001
  6
CONTINUOUS
 62
       7
100
AcDbLine
 10
-102.04780111
 20
-1.07446901
 30
0.0
 11
-102.03044874
 21
-1.11975192
 31
0.0
  0
LINE
  5
C1
100
AcDbEntity
  8
LAYER0001
  6
CONTINUOUS
 62
       7
100
AcDbLine
 10
-102.03044874
 20
-1.11975192
 30
0.0
 11
-102.0153343
 21
-1.16580281
 31
0.0
  0
LINE
  5
C2
100
AcDbEntity
  8
LAYER0001
  6
CONTINUOUS
 62
       7
100
AcDbLine
 10
-102.0153343
 20
-1.16580281
 30
0.0
 11
-102.00254439
 21
-1.21249832
 31
0.0
  0
LINE
  5
C3
100
AcDbEntity
  8
LAYER0001
  6
CONTINUOUS
 62
       7
100
AcDbLine
 10
-102.00254439
 20
-1.21249832
 30
0.0
 11
-101.99216559
 21
-1.25971509
 31
0.0
  0
LINE
  5
C4
100
AcDbEntity
  8
LAYER0001
  6
CONTINUOUS
 62
       7
100
AcDbLine
 10
-101.99216559
 20
-1.25971509
 30
0.0
 11
-101.98428451
 21
-1.30732977
 31
0.0
  0
LINE
  5
C5
100
AcDbEntity
  8
LAYER0001
  6
CONTINUOUS
 62
       7
100
AcDbLine
 10
-101.98428451
 20
-1.30732977
 30
0.0
 11
-101.97898645
 21
-1.35521903
 31
0.0
  0
LINE
  5
C6
100
AcDbEntity
  8
LAYER0001
  6
CONTINUOUS
 62
       7
100
AcDbLine
 10
-101.97898645
 20
-1.35521903
 30
0.0
 11
-101.97600353
 21
-1.40327144
 31
0.0
  0
LINE
  5
C7
100
AcDbEntity
  8
LAYER0001
  6
CONTINUOUS
 62
       7
100
AcDbLine
 10
-101.97600353
 20
-1.40327144
 30
0.0
 11
-101.97423778
 21
-1.45140341
 31
0.0
  0
ENDBLK
  5
C8
100
AcDbEntity
  8
0
100
AcDbBlockEnd
  0
BLOCK
  5
C9
100
AcDbEntity
  8
0
100
AcDbBlockBegin
  2
GROUP_3
 70
       0
 10
0.0
 20
0.0
 30
0.0
  3
GROUP_3
  1

  0
LINE
  5
CA
100
AcDbEntity
  8
LAYER0001
  6
CONTINUOUS
 62
       7
100
AcDbLine
 10
-95.9742368
 20
-1.45140341
 30
0.0
 11
-95.96941692
 21
-1.40306789
 31
0.0
  0
LINE
  5
CB
100
AcDbEntity
  8
LAYER0001
  6
CONTINUOUS
 62
       7
100
AcDbLine
 10
-95.96941692
 20
-1.40306789
 30
0.0
 11
-95.96418687
 21
-1.35484455
 31
0.0
  0
LINE
  5
CC
100
AcDbEntity
  8
LAYER0001
  6
CONTINUOUS
 62
       7
100
AcDbLine
 10
-95.96418687
 20
-1.35484455
 30
0.0
 11
-95.95813652
 21
-1.30684558
 31
0.0
  0
LINE
  5
CD
100
AcDbEntity
  8
LAYER0001
  6
CONTINUOUS
 62
       7
100
AcDbLine
 10
-95.95813652
 20
-1.30684558
 30
0.0
 11
-95.95085568
 21
-1.25918317
 31
0.0
  0
LINE
  5
CE
100
AcDbEntity
  8
LAYER0001
  6
CONTINUOUS
 62
       7
100
AcDbLine
 10
-95.95085568
 20
-1.25918317
 30
0.0
 11
-95.94193421
 21
-1.21196951
 31
0.0
  0
LINE
  5
CF
100
AcDbEntity
  8
LAYER0001
  6
CONTINUOUS
 62
       7
100
AcDbLine
 10
-95.94193421
 20
-1.21196951
 30
0.0
 11
-95.93096195
 21
-1.16531677
 31
0.0
  0
LINE
  5
D0
100
AcDbEntity
  8
LAYER0001
  6
CONTINUOUS
 62
       7
100
AcDbLine
 10
-95.93096195
 20
-1.16531677
 30
0.0
 11
-95.91752873
 21
-1.11933714
 31
0.0
  0
LINE
  5
D1
100
AcDbEntity
  8
LAYER0001
  6
CONTINUOUS
 62
       7
100
AcDbLine
 10
-95.91752873
 20
-1.11933714
 30
0.0
 11
-95.90132947
 21
-1.07414048
 31
0.0
  0
LINE
  5
D2
100
AcDbEntity
  8
LAYER0001
  6
CONTINUOUS
 62
       7
100
AcDbLine
 10
-95.90132947
 20
-1.07414048
 30
0.0
 11
-95.88244561
 21
-1.02982803
 31
0.0
  0
LINE
  5
D3
100
AcDbEntity
  8
LAYER0001
  6
CONTINUOUS
 62
       7
100
AcDbLine
 10
-95.88244561
 20
-1.02982803
 30
0.0
 11
-95.8610475
 21
-0.98649907
 31
0.0
  0
LINE
  5
D4
100
AcDbEntity
  8
LAYER0001
  6
CONTINUOUS
 62
       7
100
AcDbLine
 10
-95.8610475
 20
-0.98649907
 30
0.0
 11
-95.83730546
 21
-0.94425287
 31
0.0
  0
LINE
  5
D5
100
AcDbEntity
  8
LAYER0001
  6
CONTINUOUS
 62
       7
100
AcDbLine
 10
-95.83730546
 20
-0.94425287
 30
0.0
 11
-95.81138982
 21
-0.90318871
 31
0.0
  0
LINE
  5
D6
100
AcDbEntity
  8
LAYER0001
  6
CONTINUOUS
 62
       7
100
AcDbLine
 10
-95.81138982
 20
-0.90318871
 30
0.0
 11
-95.78347093
 21
-0.86340585
 31
0.0
  0
LINE
  5
D7
100
AcDbEntity
  8
LAYER0001
  6
CONTINUOUS
 62
       7
100
AcDbLine
 10
-95.78347093
 20
-0.86340585
 30
0.0
 11
-95.75371911
 21
-0.82500358
 31
0.0
  0
LINE
  5
D8
100
AcDbEntity
  8
LAYER0001
  6
CONTINUOUS
 62
       7
100
AcDbLine
 10
-95.75371911
 20
-0.82500358
 30
0.0
 11
-95.7222819
 21
-0.78807646
 31
0.0
  0
LINE
  5
D9
100
AcDbEntity
  8
LAYER0001
  6
CONTINUOUS
 62
       7
100
AcDbLine
 10
-95.7222819
 20
-0.78807646
 30
0.0
 11
-95.68922964
 21
-0.75270315
 31
0.0
  0
LINE
  5
DA
100
AcDbEntity
  8
LAYER0001
  6
CONTINUOUS
 62
       7
100
AcDbLine
 10
-95.68922964
 20
-0.75270315
 30
0.0
 11
-95.65461637
 21
-0.71895894
 31
0.0
  0
LINE
  5
DB
100
AcDbEntity
  8
LAYER0001
  6
CONTINUOUS
 62
       7
100
AcDbLine
 10
-95.65461637
 20
-0.71895894
 30
0.0
 11
-95.61849611
 21
-0.6869191
 31
0.0
  0
LINE
  5
DC
100
AcDbEntity
  8
LAYER0001
  6
CONTINUOUS
 62
       7
100
AcDbLine
 10
-95.61849611
 20
-0.6869191
 30
0.0
 11
-95.5809229
 21
-0.65665893
 31
0.0
  0
LINE
  5
DD
100
AcDbEntity
  8
LAYER0001
  6
CONTINUOUS
 62
       7
100
AcDbLine
 10
-95.5809229
 20
-0.65665893
 30
0.0
 11
-95.54195076
 21
-0.62825372
 31
0.0
  0
LINE
  5
DE
100
AcDbEntity
  8
LAYER0001
  6
CONTINUOUS
 62
       7
100
AcDbLine
 10
-95.54195076
 20
-0.62825372
 30
0.0
 11
-95.50163374
 21
-0.60177874
 31
0.0
  0
LINE
  5
DF
100
AcDbEntity
  8
LAYER0001
  6
CONTINUOUS
 62
       7
100
AcDbLine
 10
-95.50163374
 20
-0.60177874
 30
0.0
 11
-95.46003825
 21
-0.5773025
 31
0.0
  0
LINE
  5
E0
100
AcDbEntity
  8
LAYER0001
  6
CONTINUOUS
 62
       7
100
AcDbLine
 10
-95.46003825
 20
-0.5773025
 30
0.0
 11
-95.41726961
 21
-0.55487212
 31
0.0
  0
LINE
  5
E1
100
AcDbEntity
  8
LAYER0001
  6
CONTINUOUS
 62
       7
100
AcDbLine
 10
-95.41726961
 20
-0.55487212
 30
0.0
 11
-95.37344077
 21
-0.53453056
 31
0.0
  0
LINE
  5
E2
100
AcDbEntity
  8
LAYER0001
  6
CONTINUOUS
 62
       7
100
AcDbLine
 10
-95.37344077
 20
-0.53453056
 30
0.0
 11
-95.32866467
 21
-0.51632077
 31
0.0
  0
LINE
  5
E3
100
AcDbEntity
  8
LAYER0001
  6
CONTINUOUS
 62
       7
100
AcDbLine
 10
-95.32866467
 20
-0.51632077
 30
0.0
 11
-95.28305425
 21
-0.50028571
 31
0.0
  0
LINE
  5
E4
100
AcDbEntity
  8
LAYER0001
  6
CONTINUOUS
 62
       7
100
AcDbLine
 10
-95.28305425
 20
-0.50028571
 30
0.0
 11
-95.23672245
 21
-0.48646833
 31
0.0
  0
LINE
  5
E5
100
AcDbEntity
  8
LAYER0001
  6
CONTINUOUS
 62
       7
100
AcDbLine
 10
-95.23672245
 20
-0.48646833
 30
0.0
 11
-95.18978223
 21
-0.47491157
 31
0.0
  0
LINE
  5
E6
100
AcDbEntity
  8
LAYER0001
  6
CONTINUOUS
 62
       7
100
AcDbLine
 10
-95.18978223
 20
-0.47491157
 30
0.0
 11
-95.14234611
 21
-0.46565021
 31
0.0
  0
LINE
  5
E7
100
AcDbEntity
  8
LAYER0001
  6
CONTINUOUS
 62
       7
100
AcDbLine
 10
-95.14234611
 20
-0.46565021
 30
0.0
 11
-95.09452539
 21
-0.45869471
 31
0.0
  0
LINE
  5
E8
100
AcDbEntity
  8
LAYER0001
  6
CONTINUOUS
 62
       7
100
AcDbLine
 10
-95.09452539
 20
-0.45869471
 30
0.0
 11
-95.04643116
 21
-0.45405108
 31
0.0
  0
LINE
  5
E9
100
AcDbEntity
  8
LAYER0001
  6
CONTINUOUS
 62
       7
100
AcDbLine
 10
-95.04643116
 20
-0.45405108
 30
0.0
 11
-94.9981745
 21
-0.45172532
 31
0.0
  0
LINE
  5
EA
100
AcDbEntity
  8
LAYER0001
  6
CONTINUOUS
 62
       7
100
AcDbLine
 10
-94.9981745
 20
-0.45172532
 30
0.0
 11
-94.94986648
 21
-0.45172343
 31
0.0
  0
LINE
  5
EB
100
AcDbEntity
  8
LAYER0001
  6
CONTINUOUS
 62
       7
100
AcDbLine
 10
-94.94986648
 20
-0.45172343
 30
0.0
 11
-94.90161818
 21
-0.45405141
 31
0.0
  0
LINE
  5
EC
100
AcDbEntity
  8
LAYER0001
  6
CONTINUOUS
 62
       7
100
AcDbLine
 10
-94.90161818
 20
-0.45405141
 30
0.0
 11
-94.85354069
 21
-0.45871526
 31
0.0
  0
LINE
  5
ED
100
AcDbEntity
  8
LAYER0001
  6
CONTINUOUS
 62
       7
100
AcDbLine
 10
-94.85354069
 20
-0.45871526
 30
0.0
 11
-94.80574443
 21
-0.46571235
 31
0.0
  0
LINE
  5
EE
100
AcDbEntity
  8
LAYER0001
  6
CONTINUOUS
 62
       7
100
AcDbLine
 10
-94.80574443
 20
-0.46571235
 30
0.0
 11
-94.75833801
 21
-0.47501566
 31
0.0
  0
LINE
  5
EF
100
AcDbEntity
  8
LAYER0001
  6
CONTINUOUS
 62
       7
100
AcDbLine
 10
-94.75833801
 20
-0.47501566
 30
0.0
 11
-94.71142971
 21
-0.48659384
 31
0.0
  0
LINE
  5
F0
100
AcDbEntity
  8
LAYER0001
  6
CONTINUOUS
 62
       7
100
AcDbLine
 10
-94.71142971
 20
-0.48659384
 30
0.0
 11
-94.6651278
 21
-0.50041553
 31
0.0
  0
LINE
  5
F1
100
AcDbEntity
  8
LAYER0001
  6
CONTINUOUS
 62
       7
100
AcDbLine
 10
-94.6651278
 20
-0.50041553
 30
0.0
 11
-94.61954057
 21
-0.5164494
 31
0.0
  0
LINE
  5
F2
100
AcDbEntity
  8
LAYER0001
  6
CONTINUOUS
 62
       7
100
AcDbLine
 10
-94.61954057
 20
-0.5164494
 30
0.0
 11
-94.57477628
 21
-0.53466408
 31
0.0
  0
LINE
  5
F3
100
AcDbEntity
  8
LAYER0001
  6
CONTINUOUS
 62
       7
100
AcDbLine
 10
-94.57477628
 20
-0.53466408
 30
0.0
 11
-94.53094323
 21
-0.55502822
 31
0.0
  0
LINE
  5
F4
100
AcDbEntity
  8
LAYER0001
  6
CONTINUOUS
 62
       7
100
AcDbLine
 10
-94.53094323
 20
-0.55502822
 30
0.0
 11
-94.48814679
 21
-0.57750202
 31
0.0
  0
LINE
  5
F5
100
AcDbEntity
  8
LAYER0001
  6
CONTINUOUS
 62
       7
100
AcDbLine
 10
-94.48814679
 20
-0.57750202
 30
0.0
 11
-94.44648447
 21
-0.60202256
 31
0.0
  0
LINE
  5
F6
100
AcDbEntity
  8
LAYER0001
  6
CONTINUOUS
 62
       7
100
AcDbLine
 10
-94.44648447
 20
-0.60202256
 30
0.0
 11
-94.40605245
 21
-0.62852302
 31
0.0
  0
LINE
  5
F7
100
AcDbEntity
  8
LAYER0001
  6
CONTINUOUS
 62
       7
100
AcDbLine
 10
-94.40605245
 20
-0.62852302
 30
0.0
 11
-94.3669469
 21
-0.65693656
 31
0.0
  0
LINE
  5
F8
100
AcDbEntity
  8
LAYER0001
  6
CONTINUOUS
 62
       7
100
AcDbLine
 10
-94.3669469
 20
-0.65693656
 30
0.0
 11
-94.32926397
 21
-0.68719634
 31
0.0
  0
LINE
  5
F9
100
AcDbEntity
  8
LAYER0001
  6
CONTINUOUS
 62
       7
100
AcDbLine
 10
-94.32926397
 20
-0.68719634
 30
0.0
 11
-94.29309985
 21
-0.71923555
 31
0.0
  0
LINE
  5
FA
100
AcDbEntity
  8
LAYER0001
  6
CONTINUOUS
 62
       7
100
AcDbLine
 10
-94.29309985
 20
-0.71923555
 30
0.0
 11
-94.25855068
 21
-0.75298732
 31
0.0
  0
LINE
  5
FB
100
AcDbEntity
  8
LAYER0001
  6
CONTINUOUS
 62
       7
100
AcDbLine
 10
-94.25855068
 20
-0.75298732
 30
0.0
 11
-94.22570135
 21
-0.7883793
 31
0.0
  0
LINE
  5
FC
100
AcDbEntity
  8
LAYER0001
  6
CONTINUOUS
 62
       7
100
AcDbLine
 10
-94.22570135
 20
-0.7883793
 30
0.0
 11
-94.19460724
 21
-0.82532455
 31
0.0
  0
LINE
  5
FD
100
AcDbEntity
  8
LAYER0001
  6
CONTINUOUS
 62
       7
100
AcDbLine
 10
-94.19460724
 20
-0.82532455
 30
0.0
 11
-94.16531892
 21
-0.86373382
 31
0.0
  0
LINE
  5
FE
100
AcDbEntity
  8
LAYER0001
  6
CONTINUOUS
 62
       7
100
AcDbLine
 10
-94.16531892
 20
-0.86373382
 30
0.0
 11
-94.13788695
 21
-0.90351782
 31
0.0
  0
LINE
  5
FF
100
AcDbEntity
  8
LAYER0001
  6
CONTINUOUS
 62
       7
100
AcDbLine
 10
-94.13788695
 20
-0.90351782
 30
0.0
 11
-94.11236192
 21
-0.94458727
 31
0.0
  0
LINE
  5
100
100
AcDbEntity
  8
LAYER0001
  6
CONTINUOUS
 62
       7
100
AcDbLine
 10
-94.11236192
 20
-0.94458727
 30
0.0
 11
-94.08879439
 21
-0.98685292
 31
0.0
  0
LINE
  5
101
100
AcDbEntity
  8
LAYER0001
  6
CONTINUOUS
 62
       7
100
AcDbLine
 10
-94.08879439
 20
-0.98685292
 30
0.0
 11
-94.06723497
 21
-1.03022546
 31
0.0
  0
LINE
  5
102
100
AcDbEntity
  8
LAYER0001
  6
CONTINUOUS
 62
       7
100
AcDbLine
 10
-94.06723497
 20
-1.03022546
 30
0.0
 11
-94.0477435
 21
-1.07460686
 31
0.0
  0
LINE
  5
103
100
AcDbEntity
  8
LAYER0001
  6
CONTINUOUS
 62
       7
100
AcDbLine
 10
-94.0477435
 20
-1.07460686
 30
0.0
 11
-94.03040286
 21
-1.11987737
 31
0.0
  0
LINE
  5
104
100
AcDbEntity
  8
LAYER0001
  6
CONTINUOUS
 62
       7
100
AcDbLine
 10
-94.03040286
 20
-1.11987737
 30
0.0
 11
-94.01529945
 21
-1.16591392
 31
0.0
  0
LINE
  5
105
100
AcDbEntity
  8
LAYER0001
  6
CONTINUOUS
 62
       7
100
AcDbLine
 10
-94.01529945
 20
-1.16591392
 30
0.0
 11
-94.00251966
 21
-1.21259342
 31
0.0
  0
LINE
  5
106
100
AcDbEntity
  8
LAYER0001
  6
CONTINUOUS
 62
       7
100
AcDbLine
 10
-94.00251966
 20
-1.21259342
 30
0.0
 11
-93.9921499
 21
-1.25979279
 31
0.0
  0
LINE
  5
107
100
AcDbEntity
  8
LAYER0001
  6
CONTINUOUS
 62
       7
100
AcDbLine
 10
-93.9921499
 20
-1.25979279
 30
0.0
 11
-93.98427657
 21
-1.30738896
 31
0.0
  0
LINE
  5
108
100
AcDbEntity
  8
LAYER0001
  6
CONTINUOUS
 62
       7
100
AcDbLine
 10
-93.98427657
 20
-1.30738896
 30
0.0
 11
-93.97898469
 21
-1.35525889
 31
0.0
  0
LINE
  5
109
100
AcDbEntity
  8
LAYER0001
  6
CONTINUOUS
 62
       7
100
AcDbLine
 10
-93.97898469
 20
-1.35525889
 30
0.0
 11
-93.97600427
 21
-1.40329147
 31
0.0
  0
LINE
  5
10A
100
AcDbEntity
  8
LAYER0001
  6
CONTINUOUS
 62
       7
100
AcDbLine
 10
-93.97600427
 20
-1.40329147
 30
0.0
 11
-93.97423833
 21
-1.45140341
 31
0.0
  0
ENDBLK
  5
10B
100
AcDbEntity
  8
0
100
AcDbBlockEnd
  0
BLOCK
  5
10C
100
AcDbEntity
  8
0
100
AcDbBlockBegin
  2
GROUP_4
 70
       0
 10
0.0
 20
0.0
 30
0.0
  3
GROUP_4
  1

  0
LINE
  5
10D
100
AcDbEntity
  8
LAYER0001
  6
CONTINUOUS
 62
       7
100
AcDbLine
 10
-50.07423772
 20
100.74859502
 30
0.0
 11
-50.03500648
 21
100.74469512
 31
0.0
  0
LINE
  5
10E
100
AcDbEntity
  8
LAYER0001
  6
CONTINUOUS
 62
       7
100
AcDbLine
 10
-50.03500648
 20
100.74469512
 30
0.0
 11
-49.99583429
 21
100.74057612
 31
0.0
  0
LINE
  5
10F
100
AcDbEntity
  8
LAYER0001
  6
CONTINUOUS
 62
       7
100
AcDbLine
 10
-49.99583429
 20
100.74057612
 30
0.0
 11
-49.95678021
 21
100.73601893
 31
0.0
  0
LINE
  5
110
100
AcDbEntity
  8
LAYER0001
  6
CONTINUOUS
 62
       7
100
AcDbLine
 10
-49.95678021
 20
100.73601893
 30
0.0
 11
-49.91790329
 21
100.73080445
 31
0.0
  0
LINE
  5
111
100
AcDbEntity
  8
LAYER0001
  6
CONTINUOUS
 62
       7
100
AcDbLine
 10
-49.91790329
 20
100.73080445
 30
0.0
 11
-49.87926259
 21
100.72471359
 31
0.0
  0
LINE
  5
112
100
AcDbEntity
  8
LAYER0001
  6
CONTINUOUS
 62
       7
100
AcDbLine
 10
-49.87926259
 20
100.72471359
 30
0.0
 11
-49.84091716
 21
100.71752723
 31
0.0
  0
LINE
  5
113
100
AcDbEntity
  8
LAYER0001
  6
CONTINUOUS
 62
       7
100
AcDbLine
 10
-49.84091716
 20
100.71752723
 30
0.0
 11
-49.80292605
 21
100.7090263
 31
0.0
  0
LINE
  5
114
100
AcDbEntity
  8
LAYER0001
  6
CONTINUOUS
 62
       7
100
AcDbLine
 10
-49.80292605
 20
100.7090263
 30
0.0
 11
-49.76534833
 21
100.69899169
 31
0.0
  0
LINE
  5
115
100
AcDbEntity
  8
LAYER0001
  6
CONTINUOUS
 62
       7
100
AcDbLine
 10
-49.76534833
 20
100.69899169
 30
0.0
 11
-49.72824302
 21
100.68720746
 31
0.0
  0
LINE
  5
116
100
AcDbEntity
  8
LAYER0001
  6
CONTINUOUS
 62
       7
100
AcDbLine
 10
-49.72824302
 20
100.68720746
 30
0.0
 11
-49.69166814
 21
100.67358498
 31
0.0
  0
LINE
  5
117
100
AcDbEntity
  8
LAYER0001
  6
CONTINUOUS
 62
       7
100
AcDbLine
 10
-49.69166814
 20
100.67358498
 30
0.0
 11
-49.6556804
 21
100.65820364
 31
0.0
  0
LINE
  5
118
100
AcDbEntity
  8
LAYER0001
  6
CONTINUOUS
 62
       7
100
AcDbLine
 10
-49.6556804
 20
100.65820364
 30
0.0
 11
-49.62033641
 21
100.64115434
 31
0.0
  0
LINE
  5
119
100
AcDbEntity
  8
LAYER0001
  6
CONTINUOUS
 62
       7
100
AcDbLine
 10
-49.62033641
 20
100.64115434
 30
0.0
 11
-49.58569278
 21
100.62252796
 31
0.0
  0
LINE
  5
11A
100
AcDbEntity
  8
LAYER0001
  6
CONTINUOUS
 62
       7
100
AcDbLine
 10
-49.58569278
 20
100.62252796
 30
0.0
 11
-49.55180613
 21
100.60241539
 31
0.0
  0
LINE
  5
11B
100
AcDbEntity
  8
LAYER0001
  6
CONTINUOUS
 62
       7
100
AcDbLine
 10
-49.55180613
 20
100.60241539
 30
0.0
 11
-49.51873306
 21
100.58090753
 31
0.0
  0
LINE
  5
11C
100
AcDbEntity
  8
LAYER0001
  6
CONTINUOUS
 62
       7
100
AcDbLine
 10
-49.51873306
 20
100.58090753
 30
0.0
 11
-49.48653018
 21
100.55809527
 31
0.0
  0
LINE
  5
11D
100
AcDbEntity
  8
LAYER0001
  6
CONTINUOUS
 62
       7
100
AcDbLine
 10
-49.48653018
 20
100.55809527
 30
0.0
 11
-49.45525412
 21
100.53406949
 31
0.0
  0
LINE
  5
11E
100
AcDbEntity
  8
LAYER0001
  6
CONTINUOUS
 62
       7
100
AcDbLine
 10
-49.45525412
 20
100.53406949
 30
0.0
 11
-49.42495912
 21
100.50891597
 31
0.0
  0
LINE
  5
11F
100
AcDbEntity
  8
LAYER0001
  6
CONTINUOUS
 62
       7
100
AcDbLine
 10
-49.42495912
 20
100.50891597
 30
0.0
 11
-49.39568135
 21
100.48268097
 31
0.0
  0
LINE
  5
120
100
AcDbEntity
  8
LAYER0001
  6
CONTINUOUS
 62
       7
100
AcDbLine
 10
-49.39568135
 20
100.48268097
 30
0.0
 11
-49.36744858
 21
100.45539243
 31
0.0
  0
LINE
  5
121
100
AcDbEntity
  8
LAYER0001
  6
CONTINUOUS
 62
       7
100
AcDbLine
 10
-49.36744858
 20
100.45539243
 30
0.0
 11
-49.34028853
 21
100.42707823
 31
0.0
  0
LINE
  5
122
100
AcDbEntity
  8
LAYER0001
  6
CONTINUOUS
 62
       7
100
AcDbLine
 10
-49.34028853
 20
100.42707823
 30
0.0
 11
-49.31422892
 21
100.3977662
 31
0.0
  0
LINE
  5
123
100
AcDbEntity
  8
LAYER0001
  6
CONTINUOUS
 62
       7
100
AcDbLine
 10
-49.31422892
 20
100.3977662
 30
0.0
 11
-49.28929748
 21
100.36748421
 31
0.0
  0
LINE
  5
124
100
AcDbEntity
  8
LAYER0001
  6
CONTINUOUS
 62
       7
100
AcDbLine
 10
-49.28929748
 20
100.36748421
 30
0.0
 11
-49.26552193
 21
100.33626011
 31
0.0
  0
LINE
  5
125
100
AcDbEntity
  8
LAYER0001
  6
CONTINUOUS
 62
       7
100
AcDbLine
 10
-49.26552193
 20
100.33626011
 30
0.0
 11
-49.24293
 21
100.30412176
 31
0.0
  0
LINE
  5
126
100
AcDbEntity
  8
LAYER0001
  6
CONTINUOUS
 62
       7
100
AcDbLine
 10
-49.24293
 20
100.30412176
 30
0.0
 11
-49.22154945
 21
100.27109704
 31
0.0
  0
LINE
  5
127
100
AcDbEntity
  8
LAYER0001
  6
CONTINUOUS
 62
       7
100
AcDbLine
 10
-49.22154945
 20
100.27109704
 30
0.0
 11
-49.20142023
 21
100.23722402
 31
0.0
  0
LINE
  5
128
100
AcDbEntity
  8
LAYER0001
  6
CONTINUOUS
 62
       7
100
AcDbLine
 10
-49.20142023
 20
100.23722402
 30
0.0
 11
-49.18261044
 21
100.20256426
 31
0.0
  0
LINE
  5
129
100
AcDbEntity
  8
LAYER0001
  6
CONTINUOUS
 62
       7
100
AcDbLine
 10
-49.18261044
 20
100.20256426
 30
0.0
 11
-49.16519212
 21
100.16718263
 31
0.0
  0
LINE
  5
12A
100
AcDbEntity
  8
LAYER0001
  6
CONTINUOUS
 62
       7
100
AcDbLine
 10
-49.16519212
 20
100.16718263
 30
0.0
 11
-49.14923734
 21
100.13114398
 31
0.0
  0
LINE
  5
12B
100
AcDbEntity
  8
LAYER0001
  6
CONTINUOUS
 62
       7
100
AcDbLine
 10
-49.14923734
 20
100.13114398
 30
0.0
 11
-49.13481814
 21
100.09451319
 31
0.0
  0
LINE
  5
12C
100
AcDbEntity
  8
LAYER0001
  6
CONTINUOUS
 62
       7
100
AcDbLine
 10
-49.13481814
 20
100.09451319
 30
0.0
 11
-49.12200659
 21
100.05735511
 31
0.0
  0
LINE
  5
12D
100
AcDbEntity
  8
LAYER0001
  6
CONTINUOUS
 62
       7
100
AcDbLine
 10
-49.12200659
 20
100.05735511
 30
0.0
 11
-49.11087472
 21
100.01973462
 31
0.0
  0
LINE
  5
12E
100
AcDbEntity
  8
LAYER0001
  6
CONTINUOUS
 62
       7
100
AcDbLine
 10
-49.11087472
 20
100.01973462
 30
0.0
 11
-49.1014946
 21
99.98171658
 31
0.0
  0
LINE
  5
12F
100
AcDbEntity
  8
LAYER0001
  6
CONTINUOUS
 62
       7
100
AcDbLine
 10
-49.1014946
 20
99.98171658
 30
0.0
 11
-49.09392367
 21
99.94336549
 31
0.0
  0
LINE
  5
130
100
AcDbEntity
  8
LAYER0001
  6
CONTINUOUS
 62
       7
100
AcDbLine
 10
-49.09392367
 20
99.94336549
 30
0.0
 11
-49.08800211
 21
99.9047404
 31
0.0
  0
LINE
  5
131
100
AcDbEntity
  8
LAYER0001
  6
CONTINUOUS
 62
       7
100
AcDbLine
 10
-49.08800211
 20
99.9047404
 30
0.0
 11
-49.08340344
 21
99.8658962
 31
0.0
  0
LINE
  5
132
100
AcDbEntity
  8
LAYER0001
  6
CONTINUOUS
 62
       7
100
AcDbLine
 10
-49.08340344
 20
99.8658962
 30
0.0
 11
-49.07979694
 21
99.82688767
 31
0.0
  0
LINE
  5
133
100
AcDbEntity
  8
LAYER0001
  6
CONTINUOUS
 62
       7
100
AcDbLine
 10
-49.07979694
 20
99.82688767
 30
0.0
 11
-49.07685189
 21
99.78776958
 31
0.0
  0
LINE
  5
134
100
AcDbEntity
  8
LAYER0001
  6
CONTINUOUS
 62
       7
100
AcDbLine
 10
-49.07685189
 20
99.78776958
 30
0.0
 11
-49.07423756
 21
99.74859672
 31
0.0
  0
ENDBLK
  5
135
100
AcDbEntity
  8
0
100
AcDbBlockEnd
  0
BLOCK
  5
136
100
AcDbEntity
  8
0
100
AcDbBlockBegin
  2
GROUP_5
 70
       0
 10
0.0
 20
0.0
 30
0.0
  3
GROUP_5
  1

  0
LINE
  5
137
100
AcDbEntity
  8
LAYER0001
  6
CONTINUOUS
 62
       7
100
AcDbLine
 10
-104.47423726
 20
99.74859672
 30
0.0
 11
-104.47033998
 21
99.78789436
 31
0.0
  0
LINE
  5
138
100
AcDbEntity
  8
LAYER0001
  6
CONTINUOUS
 62
       7
100
AcDbLine
 10
-104.47033998
 20
99.78789436
 30
0.0
 11
-104.46622208
 21
99.8271323
 31
0.0
  0
LINE
  5
139
100
AcDbEntity
  8
LAYER0001
  6
CONTINUOUS
 62
       7
100
AcDbLine
 10
-104.46622208
 20
99.8271323
 30
0.0
 11
-104.46166292
 21
99.86625082
 31
0.0
  0
LINE
  5
13A
100
AcDbEntity
  8
LAYER0001
  6
CONTINUOUS
 62
       7
100
AcDbLine
 10
-104.46166292
 20
99.86625082
 30
0.0
 11
-104.45644189
 21
99.90519021
 31
0.0
  0
LINE
  5
13B
100
AcDbEntity
  8
LAYER0001
  6
CONTINUOUS
 62
       7
100
AcDbLine
 10
-104.45644189
 20
99.90519021
 30
0.0
 11
-104.45033836
 21
99.94389077
 31
0.0
  0
LINE
  5
13C
100
AcDbEntity
  8
LAYER0001
  6
CONTINUOUS
 62
       7
100
AcDbLine
 10
-104.45033836
 20
99.94389077
 30
0.0
 11
-104.4431317
 21
99.98229277
 31
0.0
  0
LINE
  5
13D
100
AcDbEntity
  8
LAYER0001
  6
CONTINUOUS
 62
       7
100
AcDbLine
 10
-104.4431317
 20
99.98229277
 30
0.0
 11
-104.43460129
 21
100.02033653
 31
0.0
  0
LINE
  5
13E
100
AcDbEntity
  8
LAYER0001
  6
CONTINUOUS
 62
       7
100
AcDbLine
 10
-104.43460129
 20
100.02033653
 30
0.0
 11
-104.42452651
 21
100.05796231
 31
0.0
  0
LINE
  5
13F
100
AcDbEntity
  8
LAYER0001
  6
CONTINUOUS
 62
       7
100
AcDbLine
 10
-104.42452651
 20
100.05796231
 30
0.0
 11
-104.41269089
 21
100.09511046
 31
0.0
  0
LINE
  5
140
100
AcDbEntity
  8
LAYER0001
  6
CONTINUOUS
 62
       7
100
AcDbLine
 10
-104.41269089
 20
100.09511046
 30
0.0
 11
-104.39901399
 21
100.13172257
 31
0.0
  0
LINE
  5
141
100
AcDbEntity
  8
LAYER0001
  6
CONTINUOUS
 62
       7
100
AcDbLine
 10
-104.39901399
 20
100.13172257
 30
0.0
 11
-104.38357818
 21
100.16774175
 31
0.0
  0
LINE
  5
142
100
AcDbEntity
  8
LAYER0001
  6
CONTINUOUS
 62
       7
100
AcDbLine
 10
-104.38357818
 20
100.16774175
 30
0.0
 11
-104.36647544
 21
100.20311121
 31
0.0
  0
LINE
  5
143
100
AcDbEntity
  8
LAYER0001
  6
CONTINUOUS
 62
       7
100
AcDbLine
 10
-104.36647544
 20
100.20311121
 30
0.0
 11
-104.34779776
 21
100.23777414
 31
0.0
  0
LINE
  5
144
100
AcDbEntity
  8
LAYER0001
  6
CONTINUOUS
 62
       7
100
AcDbLine
 10
-104.34779776
 20
100.23777414
 30
0.0
 11
-104.3276371
 21
100.27167375
 31
0.0
  0
LINE
  5
145
100
AcDbEntity
  8
LAYER0001
  6
CONTINUOUS
 62
       7
100
AcDbLine
 10
-104.3276371
 20
100.27167375
 30
0.0
 11
-104.30608545
 21
100.30475323
 31
0.0
  0
LINE
  5
146
100
AcDbEntity
  8
LAYER0001
  6
CONTINUOUS
 62
       7
100
AcDbLine
 10
-104.30608545
 20
100.30475323
 30
0.0
 11
-104.28323478
 21
100.3369558
 31
0.0
  0
LINE
  5
147
100
AcDbEntity
  8
LAYER0001
  6
CONTINUOUS
 62
       7
100
AcDbLine
 10
-104.28323478
 20
100.3369558
 30
0.0
 11
-104.25917708
 21
100.36822465
 31
0.0
  0
LINE
  5
148
100
AcDbEntity
  8
LAYER0001
  6
CONTINUOUS
 62
       7
100
AcDbLine
 10
-104.25917708
 20
100.36822465
 30
0.0
 11
-104.23399748
 21
100.39850615
 31
0.0
  0
LINE
  5
149
100
AcDbEntity
  8
LAYER0001
  6
CONTINUOUS
 62
       7
100
AcDbLine
 10
-104.23399748
 20
100.39850615
 30
0.0
 11
-104.20773965
 21
100.42776594
 31
0.0
  0
LINE
  5
14A
100
AcDbEntity
  8
LAYER0001
  6
CONTINUOUS
 62
       7
100
AcDbLine
 10
-104.20773965
 20
100.42776594
 30
0.0
 11
-104.18043166
 21
100.4559769
 31
0.0
  0
LINE
  5
14B
100
AcDbEntity
  8
LAYER0001
  6
CONTINUOUS
 62
       7
100
AcDbLine
 10
-104.18043166
 20
100.4559769
 30
0.0
 11
-104.15210157
 21
100.48311191
 31
0.0
  0
LINE
  5
14C
100
AcDbEntity
  8
LAYER0001
  6
CONTINUOUS
 62
       7
100
AcDbLine
 10
-104.15210157
 20
100.48311191
 30
0.0
 11
-104.12277741
 21
100.50914387
 31
0.0
  0
LINE
  5
14D
100
AcDbEntity
  8
LAYER0001
  6
CONTINUOUS
 62
       7
100
AcDbLine
 10
-104.12277741
 20
100.50914387
 30
0.0
 11
-104.09248724
 21
100.53404565
 31
0.0
  0
LINE
  5
14E
100
AcDbEntity
  8
LAYER0001
  6
CONTINUOUS
 62
       7
100
AcDbLine
 10
-104.09248724
 20
100.53404565
 30
0.0
 11
-104.06125911
 21
100.55779014
 31
0.0
  0
LINE
  5
14F
100
AcDbEntity
  8
LAYER0001
  6
CONTINUOUS
 62
       7
100
AcDbLine
 10
-104.06125911
 20
100.55779014
 30
0.0
 11
-104.02912106
 21
100.58035024
 31
0.0
  0
LINE
  5
150
100
AcDbEntity
  8
LAYER0001
  6
CONTINUOUS
 62
       7
100
AcDbLine
 10
-104.02912106
 20
100.58035024
 30
0.0
 11
-103.99610129
 21
100.60169865
 31
0.0
  0
LINE
  5
151
100
AcDbEntity
  8
LAYER0001
  6
CONTINUOUS
 62
       7
100
AcDbLine
 10
-103.99610129
 20
100.60169865
 30
0.0
 11
-103.96224027
 21
100.62179285
 31
0.0
  0
LINE
  5
152
100
AcDbEntity
  8
LAYER0001
  6
CONTINUOUS
 62
       7
100
AcDbLine
 10
-103.96224027
 20
100.62179285
 30
0.0
 11
-103.92760009
 21
100.64056359
 31
0.0
  0
LINE
  5
153
100
AcDbEntity
  8
LAYER0001
  6
CONTINUOUS
 62
       7
100
AcDbLine
 10
-103.92760009
 20
100.64056359
 30
0.0
 11
-103.89224504
 21
100.65793887
 31
0.0
  0
LINE
  5
154
100
AcDbEntity
  8
LAYER0001
  6
CONTINUOUS
 62
       7
100
AcDbLine
 10
-103.89224504
 20
100.65793887
 30
0.0
 11
-103.8562394
 21
100.6738467
 31
0.0
  0
LINE
  5
155
100
AcDbEntity
  8
LAYER0001
  6
CONTINUOUS
 62
       7
100
AcDbLine
 10
-103.8562394
 20
100.6738467
 30
0.0
 11
-103.81964745
 21
100.68821509
 31
0.0
  0
LINE
  5
156
100
AcDbEntity
  8
LAYER0001
  6
CONTINUOUS
 62
       7
100
AcDbLine
 10
-103.81964745
 20
100.68821509
 30
0.0
 11
-103.78253348
 21
100.70097205
 31
0.0
  0
LINE
  5
157
100
AcDbEntity
  8
LAYER0001
  6
CONTINUOUS
 62
       7
100
AcDbLine
 10
-103.78253348
 20
100.70097205
 30
0.0
 11
-103.74496176
 21
100.71204558
 31
0.0
  0
LINE
  5
158
100
AcDbEntity
  8
LAYER0001
  6
CONTINUOUS
 62
       7
100
AcDbLine
 10
-103.74496176
 20
100.71204558
 30
0.0
 11
-103.70699659
 21
100.72136371
 31
0.0
  0
LINE
  5
159
100
AcDbEntity
  8
LAYER0001
  6
CONTINUOUS
 62
       7
100
AcDbLine
 10
-103.70699659
 20
100.72136371
 30
0.0
 11
-103.66870168
 21
100.72887674
 31
0.0
  0
LINE
  5
15A
100
AcDbEntity
  8
LAYER0001
  6
CONTINUOUS
 62
       7
100
AcDbLine
 10
-103.66870168
 20
100.72887674
 30
0.0
 11
-103.63013492
 21
100.73476834
 31
0.0
  0
LINE
  5
15B
100
AcDbEntity
  8
LAYER0001
  6
CONTINUOUS
 62
       7
100
AcDbLine
 10
-103.63013492
 20
100.73476834
 30
0.0
 11
-103.59135073
 21
100.7393613
 31
0.0
  0
LINE
  5
15C
100
AcDbEntity
  8
LAYER0001
  6
CONTINUOUS
 62
       7
100
AcDbLine
 10
-103.59135073
 20
100.7393613
 30
0.0
 11
-103.55240345
 21
100.7429803
 31
0.0
  0
LINE
  5
15D
100
AcDbEntity
  8
LAYER0001
  6
CONTINUOUS
 62
       7
100
AcDbLine
 10
-103.55240345
 20
100.7429803
 30
0.0
 11
-103.51334745
 21
100.74594999
 31
0.0
  0
LINE
  5
15E
100
AcDbEntity
  8
LAYER0001
  6
CONTINUOUS
 62
       7
100
AcDbLine
 10
-103.51334745
 20
100.74594999
 30
0.0
 11
-103.4742371
 21
100.74859502
 31
0.0
  0
ENDBLK
  5
15F
100
AcDbEntity
  8
0
100
AcDbBlockEnd
  0
BLOCK
  5
160
100
AcDbEntity
  8
0
100
AcDbBlockBegin
  2
GROUP_6
 70
       0
 10
0.0
 20
0.0
 30
0.0
  3
GROUP_6
  1

  0
LINE
  5
161
100
AcDbEntity
  8
LAYER0001
  6
CONTINUOUS
 62
       7
100
AcDbLine
 10
-103.4742371
 20
0.54859691
 30
0.0
 11
-103.51346834
 21
0.55249681
 31
0.0
  0
LINE
  5
162
100
AcDbEntity
  8
LAYER0001
  6
CONTINUOUS
 62
       7
100
AcDbLine
 10
-103.51346834
 20
0.55249681
 30
0.0
 11
-103.55264053
 21
0.55661581
 31
0.0
  0
LINE
  5
163
100
AcDbEntity
  8
LAYER0001
  6
CONTINUOUS
 62
       7
100
AcDbLine
 10
-103.55264053
 20
0.55661581
 30
0.0
 11
-103.59169461
 21
0.561173
 31
0.0
  0
LINE
  5
164
100
AcDbEntity
  8
LAYER0001
  6
CONTINUOUS
 62
       7
100
AcDbLine
 10
-103.59169461
 20
0.561173
 30
0.0
 11
-103.63057153
 21
0.56638748
 31
0.0
  0
LINE
  5
165
100
AcDbEntity
  8
LAYER0001
  6
CONTINUOUS
 62
       7
100
AcDbLine
 10
-103.63057153
 20
0.56638748
 30
0.0
 11
-103.66921223
 21
0.57247835
 31
0.0
  0
LINE
  5
166
100
AcDbEntity
  8
LAYER0001
  6
CONTINUOUS
 62
       7
100
AcDbLine
 10
-103.66921223
 20
0.57247835
 30
0.0
 11
-103.70755766
 21
0.5796647
 31
0.0
  0
LINE
  5
167
100
AcDbEntity
  8
LAYER0001
  6
CONTINUOUS
 62
       7
100
AcDbLine
 10
-103.70755766
 20
0.5796647
 30
0.0
 11
-103.74554876
 21
0.58816563
 31
0.0
  0
LINE
  5
168
100
AcDbEntity
  8
LAYER0001
  6
CONTINUOUS
 62
       7
100
AcDbLine
 10
-103.74554876
 20
0.58816563
 30
0.0
 11
-103.78312649
 21
0.59820024
 31
0.0
  0
LINE
  5
169
100
AcDbEntity
  8
LAYER0001
  6
CONTINUOUS
 62
       7
100
AcDbLine
 10
-103.78312649
 20
0.59820024
 30
0.0
 11
-103.8202318
 21
0.60998447
 31
0.0
  0
LINE
  5
16A
100
AcDbEntity
  8
LAYER0001
  6
CONTINUOUS
 62
       7
100
AcDbLine
 10
-103.8202318
 20
0.60998447
 30
0.0
 11
-103.85680668
 21
0.62360695
 31
0.0
  0
LINE
  5
16B
100
AcDbEntity
  8
LAYER0001
  6
CONTINUOUS
 62
       7
100
AcDbLine
 10
-103.85680668
 20
0.62360695
 30
0.0
 11
-103.89279442
 21
0.63898829
 31
0.0
  0
LINE
  5
16C
100
AcDbEntity
  8
LAYER0001
  6
CONTINUOUS
 62
       7
100
AcDbLine
 10
-103.89279442
 20
0.63898829
 30
0.0
 11
-103.92813841
 21
0.65603759
 31
0.0
  0
LINE
  5
16D
100
AcDbEntity
  8
LAYER0001
  6
CONTINUOUS
 62
       7
100
AcDbLine
 10
-103.92813841
 20
0.65603759
 30
0.0
 11
-103.96278204
 21
0.67466398
 31
0.0
  0
LINE
  5
16E
100
AcDbEntity
  8
LAYER0001
  6
CONTINUOUS
 62
       7
100
AcDbLine
 10
-103.96278204
 20
0.67466398
 30
0.0
 11
-103.99666869
 21
0.69477654
 31
0.0
  0
LINE
  5
16F
100
AcDbEntity
  8
LAYER0001
  6
CONTINUOUS
 62
       7
100
AcDbLine
 10
-103.99666869
 20
0.69477654
 30
0.0
 11
-104.02974176
 21
0.7162844
 31
0.0
  0
LINE
  5
170
100
AcDbEntity
  8
LAYER0001
  6
CONTINUOUS
 62
       7
100
AcDbLine
 10
-104.02974176
 20
0.7162844
 30
0.0
 11
-104.06194464
 21
0.73909667
 31
0.0
  0
LINE
  5
171
100
AcDbEntity
  8
LAYER0001
  6
CONTINUOUS
 62
       7
100
AcDbLine
 10
-104.06194464
 20
0.73909667
 30
0.0
 11
-104.0932207
 21
0.76312244
 31
0.0
  0
LINE
  5
172
100
AcDbEntity
  8
LAYER0001
  6
CONTINUOUS
 62
       7
100
AcDbLine
 10
-104.0932207
 20
0.76312244
 30
0.0
 11
-104.1235157
 21
0.78827596
 31
0.0
  0
LINE
  5
173
100
AcDbEntity
  8
LAYER0001
  6
CONTINUOUS
 62
       7
100
AcDbLine
 10
-104.1235157
 20
0.78827596
 30
0.0
 11
-104.15279347
 21
0.81451097
 31
0.0
  0
LINE
  5
174
100
AcDbEntity
  8
LAYER0001
  6
CONTINUOUS
 62
       7
100
AcDbLine
 10
-104.15279347
 20
0.81451097
 30
0.0
 11
-104.18102624
 21
0.8417995
 31
0.0
  0
LINE
  5
175
100
AcDbEntity
  8
LAYER0001
  6
CONTINUOUS
 62
       7
100
AcDbLine
 10
-104.18102624
 20
0.8417995
 30
0.0
 11
-104.20818629
 21
0.8701137
 31
0.0
  0
LINE
  5
176
100
AcDbEntity
  8
LAYER0001
  6
CONTINUOUS
 62
       7
100
AcDbLine
 10
-104.20818629
 20
0.8701137
 30
0.0
 11
-104.2342459
 21
0.89942573
 31
0.0
  0
LINE
  5
177
100
AcDbEntity
  8
LAYER0001
  6
CONTINUOUS
 62
       7
100
AcDbLine
 10
-104.2342459
 20
0.89942573
 30
0.0
 11
-104.25917734
 21
0.92970772
 31
0.0
  0
LINE
  5
178
100
AcDbEntity
  8
LAYER0001
  6
CONTINUOUS
 62
       7
100
AcDbLine
 10
-104.25917734
 20
0.92970772
 30
0.0
 11
-104.28295288
 21
0.96093182
 31
0.0
  0
LINE
  5
179
100
AcDbEntity
  8
LAYER0001
  6
CONTINUOUS
 62
       7
100
AcDbLine
 10
-104.28295288
 20
0.96093182
 30
0.0
 11
-104.30554482
 21
0.99307017
 31
0.0
  0
LINE
  5
17A
100
AcDbEntity
  8
LAYER0001
  6
CONTINUOUS
 62
       7
100
AcDbLine
 10
-104.30554482
 20
0.99307017
 30
0.0
 11
-104.32692537
 21
1.02609489
 31
0.0
  0
LINE
  5
17B
100
AcDbEntity
  8
LAYER0001
  6
CONTINUOUS
 62
       7
100
AcDbLine
 10
-104.32692537
 20
1.02609489
 30
0.0
 11
-104.34705459
 21
1.05996791
 31
0.0
  0
LINE
  5
17C
100
AcDbEntity
  8
LAYER0001
  6
CONTINUOUS
 62
       7
100
AcDbLine
 10
-104.34705459
 20
1.05996791
 30
0.0
 11
-104.36586438
 21
1.09462767
 31
0.0
  0
LINE
  5
17D
100
AcDbEntity
  8
LAYER0001
  6
CONTINUOUS
 62
       7
100
AcDbLine
 10
-104.36586438
 20
1.09462767
 30
0.0
 11
-104.3832827
 21
1.1300093
 31
0.0
  0
LINE
  5
17E
100
AcDbEntity
  8
LAYER0001
  6
CONTINUOUS
 62
       7
100
AcDbLine
 10
-104.3832827
 20
1.1300093
 30
0.0
 11
-104.39923748
 21
1.16604795
 31
0.0
  0
LINE
  5
17F
100
AcDbEntity
  8
LAYER0001
  6
CONTINUOUS
 62
       7
100
AcDbLine
 10
-104.39923748
 20
1.16604795
 30
0.0
 11
-104.41365667
 21
1.20267874
 31
0.0
  0
LINE
  5
180
100
AcDbEntity
  8
LAYER0001
  6
CONTINUOUS
 62
       7
100
AcDbLine
 10
-104.41365667
 20
1.20267874
 30
0.0
 11
-104.42646823
 21
1.23983682
 31
0.0
  0
LINE
  5
181
100
AcDbEntity
  8
LAYER0001
  6
CONTINUOUS
 62
       7
100
AcDbLine
 10
-104.42646823
 20
1.23983682
 30
0.0
 11
-104.4376001
 21
1.27745731
 31
0.0
  0
LINE
  5
182
100
AcDbEntity
  8
LAYER0001
  6
CONTINUOUS
 62
       7
100
AcDbLine
 10
-104.4376001
 20
1.27745731
 30
0.0
 11
-104.44698022
 21
1.31547535
 31
0.0
  0
LINE
  5
183
100
AcDbEntity
  8
LAYER0001
  6
CONTINUOUS
 62
       7
100
AcDbLine
 10
-104.44698022
 20
1.31547535
 30
0.0
 11
-104.45455115
 21
1.35382645
 31
0.0
  0
LINE
  5
184
100
AcDbEntity
  8
LAYER0001
  6
CONTINUOUS
 62
       7
100
AcDbLine
 10
-104.45455115
 20
1.35382645
 30
0.0
 11
-104.46047271
 21
1.39245153
 31
0.0
  0
LINE
  5
185
100
AcDbEntity
  8
LAYER0001
  6
CONTINUOUS
 62
       7
100
AcDbLine
 10
-104.46047271
 20
1.39245153
 30
0.0
 11
-104.46507138
 21
1.43129573
 31
0.0
  0
LINE
  5
186
100
AcDbEntity
  8
LAYER0001
  6
CONTINUOUS
 62
       7
100
AcDbLine
 10
-104.46507138
 20
1.43129573
 30
0.0
 11
-104.46867788
 21
1.47030426
 31
0.0
  0
LINE
  5
187
100
AcDbEntity
  8
LAYER0001
  6
CONTINUOUS
 62
       7
100
AcDbLine
 10
-104.46867788
 20
1.47030426
 30
0.0
 11
-104.47162293
 21
1.50942235
 31
0.0
  0
LINE
  5
188
100
AcDbEntity
  8
LAYER0001
  6
CONTINUOUS
 62
       7
100
AcDbLine
 10
-104.47162293
 20
1.50942235
 30
0.0
 11
-104.47423726
 21
1.54859521
 31
0.0
  0
ENDBLK
  5
189
100
AcDbEntity
  8
0
100
AcDbBlockEnd
  0
BLOCK
  5
18A
100
AcDbEntity
  8
0
100
AcDbBlockBegin
  2
GROUP_7
 70
       0
 10
0.0
 20
0.0
 30
0.0
  3
GROUP_7
  1

  0
LINE
  5
18B
100
AcDbEntity
  8
LAYER0001
  6
CONTINUOUS
 62
       7
100
AcDbLine
 10
-49.07423756
 20
1.54859521
 30
0.0
 11
-49.07813484
 21
1.50929757
 31
0.0
  0
LINE
  5
18C
100
AcDbEntity
  8
LAYER0001
  6
CONTINUOUS
 62
       7
100
AcDbLine
 10
-49.07813484
 20
1.50929757
 30
0.0
 11
-49.08225274
 21
1.47005963
 31
0.0
  0
LINE
  5
18D
100
AcDbEntity
  8
LAYER0001
  6
CONTINUOUS
 62
       7
100
AcDbLine
 10
-49.08225274
 20
1.47005963
 30
0.0
 11
-49.08681189
 21
1.43094111
 31
0.0
  0
LINE
  5
18E
100
AcDbEntity
  8
LAYER0001
  6
CONTINUOUS
 62
       7
100
AcDbLine
 10
-49.08681189
 20
1.43094111
 30
0.0
 11
-49.09203292
 21
1.39200172
 31
0.0
  0
LINE
  5
18F
100
AcDbEntity
  8
LAYER0001
  6
CONTINUOUS
 62
       7
100
AcDbLine
 10
-49.09203292
 20
1.39200172
 30
0.0
 11
-49.09813646
 21
1.35330116
 31
0.0
  0
LINE
  5
190
100
AcDbEntity
  8
LAYER0001
  6
CONTINUOUS
 62
       7
100
AcDbLine
 10
-49.09813646
 20
1.35330116
 30
0.0
 11
-49.10534311
 21
1.31489916
 31
0.0
  0
LINE
  5
191
100
AcDbEntity
  8
LAYER0001
  6
CONTINUOUS
 62
       7
100
AcDbLine
 10
-49.10534311
 20
1.31489916
 30
0.0
 11
-49.11387352
 21
1.27685541
 31
0.0
  0
LINE
  5
192
100
AcDbEntity
  8
LAYER0001
  6
CONTINUOUS
 62
       7
100
AcDbLine
 10
-49.11387352
 20
1.27685541
 30
0.0
 11
-49.12394831
 21
1.23922962
 31
0.0
  0
LINE
  5
193
100
AcDbEntity
  8
LAYER0001
  6
CONTINUOUS
 62
       7
100
AcDbLine
 10
-49.12394831
 20
1.23922962
 30
0.0
 11
-49.13578393
 21
1.20208147
 31
0.0
  0
LINE
  5
194
100
AcDbEntity
  8
LAYER0001
  6
CONTINUOUS
 62
       7
100
AcDbLine
 10
-49.13578393
 20
1.20208147
 30
0.0
 11
-49.14946083
 21
1.16546936
 31
0.0
  0
LINE
  5
195
100
AcDbEntity
  8
LAYER0001
  6
CONTINUOUS
 62
       7
100
AcDbLine
 10
-49.14946083
 20
1.16546936
 30
0.0
 11
-49.16489664
 21
1.12945018
 31
0.0
  0
LINE
  5
196
100
AcDbEntity
  8
LAYER0001
  6
CONTINUOUS
 62
       7
100
AcDbLine
 10
-49.16489664
 20
1.12945018
 30
0.0
 11
-49.18199938
 21
1.09408072
 31
0.0
  0
LINE
  5
197
100
AcDbEntity
  8
LAYER0001
  6
CONTINUOUS
 62
       7
100
AcDbLine
 10
-49.18199938
 20
1.09408072
 30
0.0
 11
-49.20067706
 21
1.05941779
 31
0.0
  0
LINE
  5
198
100
AcDbEntity
  8
LAYER0001
  6
CONTINUOUS
 62
       7
100
AcDbLine
 10
-49.20067706
 20
1.05941779
 30
0.0
 11
-49.22083772
 21
1.02551818
 31
0.0
  0
LINE
  5
199
100
AcDbEntity
  8
LAYER0001
  6
CONTINUOUS
 62
       7
100
AcDbLine
 10
-49.22083772
 20
1.02551818
 30
0.0
 11
-49.24238937
 21
0.9924387
 31
0.0
  0
LINE
  5
19A
100
AcDbEntity
  8
LAYER0001
  6
CONTINUOUS
 62
       7
100
AcDbLine
 10
-49.24238937
 20
0.9924387
 30
0.0
 11
-49.26524003
 21
0.96023613
 31
0.0
  0
LINE
  5
19B
100
AcDbEntity
  8
LAYER0001
  6
CONTINUOUS
 62
       7
100
AcDbLine
 10
-49.26524003
 20
0.96023613
 30
0.0
 11
-49.28929774
 21
0.92896729
 31
0.0
  0
LINE
  5
19C
100
AcDbEntity
  8
LAYER0001
  6
CONTINUOUS
 62
       7
100
AcDbLine
 10
-49.28929774
 20
0.92896729
 30
0.0
 11
-49.31447734
 21
0.89868579
 31
0.0
  0
LINE
  5
19D
100
AcDbEntity
  8
LAYER0001
  6
CONTINUOUS
 62
       7
100
AcDbLine
 10
-49.31447734
 20
0.89868579
 30
0.0
 11
-49.34073517
 21
0.86942599
 31
0.0
  0
LINE
  5
19E
100
AcDbEntity
  8
LAYER0001
  6
CONTINUOUS
 62
       7
100
AcDbLine
 10
-49.34073517
 20
0.86942599
 30
0.0
 11
-49.36804315
 21
0.84121503
 31
0.0
  0
LINE
  5
19F
100
AcDbEntity
  8
LAYER0001
  6
CONTINUOUS
 62
       7
100
AcDbLine
 10
-49.36804315
 20
0.84121503
 30
0.0
 11
-49.39637325
 21
0.81408002
 31
0.0
  0
LINE
  5
1A0
100
AcDbEntity
  8
LAYER0001
  6
CONTINUOUS
 62
       7
100
AcDbLine
 10
-49.39637325
 20
0.81408002
 30
0.0
 11
-49.42569741
 21
0.78804806
 31
0.0
  0
LINE
  5
1A1
100
AcDbEntity
  8
LAYER0001
  6
CONTINUOUS
 62
       7
100
AcDbLine
 10
-49.42569741
 20
0.78804806
 30
0.0
 11
-49.45598758
 21
0.76314628
 31
0.0
  0
LINE
  5
1A2
100
AcDbEntity
  8
LAYER0001
  6
CONTINUOUS
 62
       7
100
AcDbLine
 10
-49.45598758
 20
0.76314628
 30
0.0
 11
-49.48721571
 21
0.73940179
 31
0.0
  0
LINE
  5
1A3
100
AcDbEntity
  8
LAYER0001
  6
CONTINUOUS
 62
       7
100
AcDbLine
 10
-49.48721571
 20
0.73940179
 30
0.0
 11
-49.51935376
 21
0.71684169
 31
0.0
  0
LINE
  5
1A4
100
AcDbEntity
  8
LAYER0001
  6
CONTINUOUS
 62
       7
100
AcDbLine
 10
-49.51935376
 20
0.71684169
 30
0.0
 11
-49.55237353
 21
0.69549329
 31
0.0
  0
LINE
  5
1A5
100
AcDbEntity
  8
LAYER0001
  6
CONTINUOUS
 62
       7
100
AcDbLine
 10
-49.55237353
 20
0.69549329
 30
0.0
 11
-49.58623455
 21
0.67539908
 31
0.0
  0
LINE
  5
1A6
100
AcDbEntity
  8
LAYER0001
  6
CONTINUOUS
 62
       7
100
AcDbLine
 10
-49.58623455
 20
0.67539908
 30
0.0
 11
-49.62087472
 21
0.65662834
 31
0.0
  0
LINE
  5
1A7
100
AcDbEntity
  8
LAYER0001
  6
CONTINUOUS
 62
       7
100
AcDbLine
 10
-49.62087472
 20
0.65662834
 30
0.0
 11
-49.65622977
 21
0.63925306
 31
0.0
  0
LINE
  5
1A8
100
AcDbEntity
  8
LAYER0001
  6
CONTINUOUS
 62
       7
100
AcDbLine
 10
-49.65622977
 20
0.63925306
 30
0.0
 11
-49.69223542
 21
0.62334523
 31
0.0
  0
LINE
  5
1A9
100
AcDbEntity
  8
LAYER0001
  6
CONTINUOUS
 62
       7
100
AcDbLine
 10
-49.69223542
 20
0.62334523
 30
0.0
 11
-49.72882736
 21
0.60897684
 31
0.0
  0
LINE
  5
1AA
100
AcDbEntity
  8
LAYER0001
  6
CONTINUOUS
 62
       7
100
AcDbLine
 10
-49.72882736
 20
0.60897684
 30
0.0
 11
-49.76594134
 21
0.59621988
 31
0.0
  0
LINE
  5
1AB
100
AcDbEntity
  8
LAYER0001
  6
CONTINUOUS
 62
       7
100
AcDbLine
 10
-49.76594134
 20
0.59621988
 30
0.0
 11
-49.80351305
 21
0.58514635
 31
0.0
  0
LINE
  5
1AC
100
AcDbEntity
  8
LAYER0001
  6
CONTINUOUS
 62
       7
100
AcDbLine
 10
-49.80351305
 20
0.58514635
 30
0.0
 11
-49.84147823
 21
0.57582822
 31
0.0
  0
LINE
  5
1AD
100
AcDbEntity
  8
LAYER0001
  6
CONTINUOUS
 62
       7
100
AcDbLine
 10
-49.84147823
 20
0.57582822
 30
0.0
 11
-49.87977314
 21
0.56831519
 31
0.0
  0
LINE
  5
1AE
100
AcDbEntity
  8
LAYER0001
  6
CONTINUOUS
 62
       7
100
AcDbLine
 10
-49.87977314
 20
0.56831519
 30
0.0
 11
-49.9183399
 21
0.5624236
 31
0.0
  0
LINE
  5
1AF
100
AcDbEntity
  8
LAYER0001
  6
CONTINUOUS
 62
       7
100
AcDbLine
 10
-49.9183399
 20
0.5624236
 30
0.0
 11
-49.95712409
 21
0.55783063
 31
0.0
  0
LINE
  5
1B0
100
AcDbEntity
  8
LAYER0001
  6
CONTINUOUS
 62
       7
100
AcDbLine
 10
-49.95712409
 20
0.55783063
 30
0.0
 11
-49.99607137
 21
0.55421163
 31
0.0
  0
LINE
  5
1B1
100
AcDbEntity
  8
LAYER0001
  6
CONTINUOUS
 62
       7
100
AcDbLine
 10
-49.99607137
 20
0.55421163
 30
0.0
 11
-50.03512737
 21
0.55124194
 31
0.0
  0
LINE
  5
1B2
100
AcDbEntity
  8
LAYER0001
  6
CONTINUOUS
 62
       7
100
AcDbLine
 10
-50.03512737
 20
0.55124194
 30
0.0
 11
-50.07423772
 21
0.54859691
 31
0.0
  0
ENDBLK
  5
1B3
100
AcDbEntity
  8
0
100
AcDbBlockEnd
  0
BLOCK
  5
1B4
100
AcDbEntity
  8
0
100
AcDbBlockBegin
  2
GROUP_8
 70
       0
 10
0.0
 20
0.0
 30
0.0
  3
GROUP_8
  1

  0
LINE
  5
1B5
100
AcDbEntity
  8
LAYER0001
  6
CONTINUOUS
 62
       7
100
AcDbLine
 10
20.07778718
 20
100.5485929
 30
0.0
 11
20.08005979
 21
100.544693
 31
0.0
  0
LINE
  5
1B6
100
AcDbEntity
  8
LAYER0001
  6
CONTINUOUS
 62
       7
100
AcDbLine
 10
20.08005979
 20
100.544693
 30
0.0
 11
20.08232942
 21
100.54057401
 31
0.0
  0
LINE
  5
1B7
100
AcDbEntity
  8
LAYER0001
  6
CONTINUOUS
 62
       7
100
AcDbLine
 10
20.08232942
 20
100.54057401
 30
0.0
 11
20.08459309
 21
100.53601682
 31
0.0
  0
LINE
  5
1B8
100
AcDbEntity
  8
LAYER0001
  6
CONTINUOUS
 62
       7
100
AcDbLine
 10
20.08459309
 20
100.53601682
 30
0.0
 11
20.08684781
 21
100.53080234
 31
0.0
  0
LINE
  5
1B9
100
AcDbEntity
  8
LAYER0001
  6
CONTINUOUS
 62
       7
100
AcDbLine
 10
20.08684781
 20
100.53080234
 30
0.0
 11
20.08909061
 21
100.52471147
 31
0.0
  0
LINE
  5
1BA
100
AcDbEntity
  8
LAYER0001
  6
CONTINUOUS
 62
       7
100
AcDbLine
 10
20.08909061
 20
100.52471147
 30
0.0
 11
20.0913185
 21
100.51752512
 31
0.0
  0
LINE
  5
1BB
100
AcDbEntity
  8
LAYER0001
  6
CONTINUOUS
 62
       7
100
AcDbLine
 10
20.0913185
 20
100.51752512
 30
0.0
 11
20.09352851
 21
100.50902418
 31
0.0
  0
LINE
  5
1BC
100
AcDbEntity
  8
LAYER0001
  6
CONTINUOUS
 62
       7
100
AcDbLine
 10
20.09352851
 20
100.50902418
 30
0.0
 11
20.09571765
 21
100.49898957
 31
0.0
  0
LINE
  5
1BD
100
AcDbEntity
  8
LAYER0001
  6
CONTINUOUS
 62
       7
100
AcDbLine
 10
20.09571765
 20
100.49898957
 30
0.0
 11
20.09788293
 21
100.48720535
 31
0.0
  0
LINE
  5
1BE
100
AcDbEntity
  8
LAYER0001
  6
CONTINUOUS
 62
       7
100
AcDbLine
 10
20.09788293
 20
100.48720535
 30
0.0
 11
20.1000211
 21
100.47358287
 31
0.0
  0
LINE
  5
1BF
100
AcDbEntity
  8
LAYER0001
  6
CONTINUOUS
 62
       7
100
AcDbLine
 10
20.1000211
 20
100.47358287
 30
0.0
 11
20.10212855
 21
100.45820153
 31
0.0
  0
LINE
  5
1C0
100
AcDbEntity
  8
LAYER0001
  6
CONTINUOUS
 62
       7
100
AcDbLine
 10
20.10212855
 20
100.45820153
 30
0.0
 11
20.10420162
 21
100.44115222
 31
0.0
  0
LINE
  5
1C1
100
AcDbEntity
  8
LAYER0001
  6
CONTINUOUS
 62
       7
100
AcDbLine
 10
20.10420162
 20
100.44115222
 30
0.0
 11
20.10623668
 21
100.42252584
 31
0.0
  0
LINE
  5
1C2
100
AcDbEntity
  8
LAYER0001
  6
CONTINUOUS
 62
       7
100
AcDbLine
 10
20.10623668
 20
100.42252584
 30
0.0
 11
20.1082301
 21
100.40241327
 31
0.0
  0
LINE
  5
1C3
100
AcDbEntity
  8
LAYER0001
  6
CONTINUOUS
 62
       7
100
AcDbLine
 10
20.1082301
 20
100.40241327
 30
0.0
 11
20.11017823
 21
100.38090541
 31
0.0
  0
LINE
  5
1C4
100
AcDbEntity
  8
LAYER0001
  6
CONTINUOUS
 62
       7
100
AcDbLine
 10
20.11017823
 20
100.38090541
 30
0.0
 11
20.11207744
 21
100.35809315
 31
0.0
  0
LINE
  5
1C5
100
AcDbEntity
  8
LAYER0001
  6
CONTINUOUS
 62
       7
100
AcDbLine
 10
20.11207744
 20
100.35809315
 30
0.0
 11
20.11392408
 21
100.33406738
 31
0.0
  0
LINE
  5
1C6
100
AcDbEntity
  8
LAYER0001
  6
CONTINUOUS
 62
       7
100
AcDbLine
 10
20.11392408
 20
100.33406738
 30
0.0
 11
20.11571466
 21
100.30891386
 31
0.0
  0
LINE
  5
1C7
100
AcDbEntity
  8
LAYER0001
  6
CONTINUOUS
 62
       7
100
AcDbLine
 10
20.11571466
 20
100.30891386
 30
0.0
 11
20.11744685
 21
100.28267885
 31
0.0
  0
LINE
  5
1C8
100
AcDbEntity
  8
LAYER0001
  6
CONTINUOUS
 62
       7
100
AcDbLine
 10
20.11744685
 20
100.28267885
 30
0.0
 11
20.11911885
 21
100.25539032
 31
0.0
  0
LINE
  5
1C9
100
AcDbEntity
  8
LAYER0001
  6
CONTINUOUS
 62
       7
100
AcDbLine
 10
20.11911885
 20
100.25539032
 30
0.0
 11
20.12072883
 21
100.22707611
 31
0.0
  0
LINE
  5
1CA
100
AcDbEntity
  8
LAYER0001
  6
CONTINUOUS
 62
       7
100
AcDbLine
 10
20.12072883
 20
100.22707611
 30
0.0
 11
20.12227502
 21
100.19776409
 31
0.0
  0
LINE
  5
1CB
100
AcDbEntity
  8
LAYER0001
  6
CONTINUOUS
 62
       7
100
AcDbLine
 10
20.12227502
 20
100.19776409
 30
0.0
 11
20.12375559
 21
100.1674821
 31
0.0
  0
LINE
  5
1CC
100
AcDbEntity
  8
LAYER0001
  6
CONTINUOUS
 62
       7
100
AcDbLine
 10
20.12375559
 20
100.1674821
 30
0.0
 11
20.12516876
 21
100.136258
 31
0.0
  0
LINE
  5
1CD
100
AcDbEntity
  8
LAYER0001
  6
CONTINUOUS
 62
       7
100
AcDbLine
 10
20.12516876
 20
100.136258
 30
0.0
 11
20.12651271
 21
100.10411964
 31
0.0
  0
LINE
  5
1CE
100
AcDbEntity
  8
LAYER0001
  6
CONTINUOUS
 62
       7
100
AcDbLine
 10
20.12651271
 20
100.10411964
 30
0.0
 11
20.12778564
 21
100.07109492
 31
0.0
  0
LINE
  5
1CF
100
AcDbEntity
  8
LAYER0001
  6
CONTINUOUS
 62
       7
100
AcDbLine
 10
20.12778564
 20
100.07109492
 30
0.0
 11
20.12898502
 21
100.03722191
 31
0.0
  0
LINE
  5
1D0
100
AcDbEntity
  8
LAYER0001
  6
CONTINUOUS
 62
       7
100
AcDbLine
 10
20.12898502
 20
100.03722191
 30
0.0
 11
20.13010662
 21
100.00256215
 31
0.0
  0
LINE
  5
1D1
100
AcDbEntity
  8
LAYER0001
  6
CONTINUOUS
 62
       7
100
AcDbLine
 10
20.13010662
 20
100.00256215
 30
0.0
 11
20.13114598
 21
99.96718051
 31
0.0
  0
LINE
  5
1D2
100
AcDbEntity
  8
LAYER0001
  6
CONTINUOUS
 62
       7
100
AcDbLine
 10
20.13114598
 20
99.96718051
 30
0.0
 11
20.13209862
 21
99.93114187
 31
0.0
  0
LINE
  5
1D3
100
AcDbEntity
  8
LAYER0001
  6
CONTINUOUS
 62
       7
100
AcDbLine
 10
20.13209862
 20
99.93114187
 30
0.0
 11
20.1329601
 21
99.89451107
 31
0.0
  0
LINE
  5
1D4
100
AcDbEntity
  8
LAYER0001
  6
CONTINUOUS
 62
       7
100
AcDbLine
 10
20.1329601
 20
99.89451107
 30
0.0
 11
20.13372594
 21
99.857353
 31
0.0
  0
LINE
  5
1D5
100
AcDbEntity
  8
LAYER0001
  6
CONTINUOUS
 62
       7
100
AcDbLine
 10
20.13372594
 20
99.857353
 30
0.0
 11
20.13439168
 21
99.81973251
 31
0.0
  0
LINE
  5
1D6
100
AcDbEntity
  8
LAYER0001
  6
CONTINUOUS
 62
       7
100
AcDbLine
 10
20.13439168
 20
99.81973251
 30
0.0
 11
20.13495286
 21
99.78171446
 31
0.0
  0
LINE
  5
1D7
100
AcDbEntity
  8
LAYER0001
  6
CONTINUOUS
 62
       7
100
AcDbLine
 10
20.13495286
 20
99.78171446
 30
0.0
 11
20.1354059
 21
99.74336337
 31
0.0
  0
LINE
  5
1D8
100
AcDbEntity
  8
LAYER0001
  6
CONTINUOUS
 62
       7
100
AcDbLine
 10
20.1354059
 20
99.74336337
 30
0.0
 11
20.13576028
 21
99.70473828
 31
0.0
  0
LINE
  5
1D9
100
AcDbEntity
  8
LAYER0001
  6
CONTINUOUS
 62
       7
100
AcDbLine
 10
20.13576028
 20
99.70473828
 30
0.0
 11
20.13603554
 21
99.66589408
 31
0.0
  0
LINE
  5
1DA
100
AcDbEntity
  8
LAYER0001
  6
CONTINUOUS
 62
       7
100
AcDbLine
 10
20.13603554
 20
99.66589408
 30
0.0
 11
20.13625145
 21
99.62688555
 31
0.0
  0
LINE
  5
1DB
100
AcDbEntity
  8
LAYER0001
  6
CONTINUOUS
 62
       7
100
AcDbLine
 10
20.13625145
 20
99.62688555
 30
0.0
 11
20.1364278
 21
99.58776747
 31
0.0
  0
LINE
  5
1DC
100
AcDbEntity
  8
LAYER0001
  6
CONTINUOUS
 62
       7
100
AcDbLine
 10
20.1364278
 20
99.58776747
 30
0.0
 11
20.13658437
 21
99.5485946
 31
0.0
  0
ENDBLK
  5
1DD
100
AcDbEntity
  8
0
100
AcDbBlockEnd
  0
BLOCK
  5
1DE
100
AcDbEntity
  8
0
100
AcDbBlockBegin
  2
GROUP_9
 70
       0
 10
0.0
 20
0.0
 30
0.0
  3
GROUP_9
  1

  0
LINE
  5
1DF
100
AcDbEntity
  8
LAYER0001
  6
CONTINUOUS
 62
       7
100
AcDbLine
 10
20.13658437
 20
1.7485931
 30
0.0
 11
20.13635065
 21
1.70929545
 31
0.0
  0
LINE
  5
1E0
100
AcDbEntity
  8
LAYER0001
  6
CONTINUOUS
 62
       7
100
AcDbLine
 10
20.13635065
 20
1.70929545
 30
0.0
 11
20.13610377
 21
1.67005751
 31
0.0
  0
LINE
  5
1E1
100
AcDbEntity
  8
LAYER0001
  6
CONTINUOUS
 62
       7
100
AcDbLine
 10
20.13610377
 20
1.67005751
 30
0.0
 11
20.13583057
 21
1.63093899
 31
0.0
  0
LINE
  5
1E2
100
AcDbEntity
  8
LAYER0001
  6
CONTINUOUS
 62
       7
100
AcDbLine
 10
20.13583057
 20
1.63093899
 30
0.0
 11
20.13551789
 21
1.5919996
 31
0.0
  0
LINE
  5
1E3
100
AcDbEntity
  8
LAYER0001
  6
CONTINUOUS
 62
       7
100
AcDbLine
 10
20.13551789
 20
1.5919996
 30
0.0
 11
20.13515257
 21
1.55329905
 31
0.0
  0
LINE
  5
1E4
100
AcDbEntity
  8
LAYER0001
  6
CONTINUOUS
 62
       7
100
AcDbLine
 10
20.13515257
 20
1.55329905
 30
0.0
 11
20.13472146
 21
1.51489704
 31
0.0
  0
LINE
  5
1E5
100
AcDbEntity
  8
LAYER0001
  6
CONTINUOUS
 62
       7
100
AcDbLine
 10
20.13472146
 20
1.51489704
 30
0.0
 11
20.13421138
 21
1.47685329
 31
0.0
  0
LINE
  5
1E6
100
AcDbEntity
  8
LAYER0001
  6
CONTINUOUS
 62
       7
100
AcDbLine
 10
20.13421138
 20
1.47685329
 30
0.0
 11
20.13360919
 21
1.4392275
 31
0.0
  0
LINE
  5
1E7
100
AcDbEntity
  8
LAYER0001
  6
CONTINUOUS
 62
       7
100
AcDbLine
 10
20.13360919
 20
1.4392275
 30
0.0
 11
20.13290198
 21
1.40207935
 31
0.0
  0
LINE
  5
1E8
100
AcDbEntity
  8
LAYER0001
  6
CONTINUOUS
 62
       7
100
AcDbLine
 10
20.13290198
 20
1.40207935
 30
0.0
 11
20.13208503
 21
1.36546724
 31
0.0
  0
LINE
  5
1E9
100
AcDbEntity
  8
LAYER0001
  6
CONTINUOUS
 62
       7
100
AcDbLine
 10
20.13208503
 20
1.36546724
 30
0.0
 11
20.13116344
 21
1.32944806
 31
0.0
  0
LINE
  5
1EA
100
AcDbEntity
  8
LAYER0001
  6
CONTINUOUS
 62
       7
100
AcDbLine
 10
20.13116344
 20
1.32944806
 30
0.0
 11
20.1301429
 21
1.29407861
 31
0.0
  0
LINE
  5
1EB
100
AcDbEntity
  8
LAYER0001
  6
CONTINUOUS
 62
       7
100
AcDbLine
 10
20.1301429
 20
1.29407861
 30
0.0
 11
20.12902907
 21
1.25941568
 31
0.0
  0
LINE
  5
1EC
100
AcDbEntity
  8
LAYER0001
  6
CONTINUOUS
 62
       7
100
AcDbLine
 10
20.12902907
 20
1.25941568
 30
0.0
 11
20.12782765
 21
1.22551607
 31
0.0
  0
LINE
  5
1ED
100
AcDbEntity
  8
LAYER0001
  6
CONTINUOUS
 62
       7
100
AcDbLine
 10
20.12782765
 20
1.22551607
 30
0.0
 11
20.12654432
 21
1.19243658
 31
0.0
  0
LINE
  5
1EE
100
AcDbEntity
  8
LAYER0001
  6
CONTINUOUS
 62
       7
100
AcDbLine
 10
20.12654432
 20
1.19243658
 30
0.0
 11
20.12518474
 21
1.16023402
 31
0.0
  0
LINE
  5
1EF
100
AcDbEntity
  8
LAYER0001
  6
CONTINUOUS
 62
       7
100
AcDbLine
 10
20.12518474
 20
1.16023402
 30
0.0
 11
20.12375461
 21
1.12896517
 31
0.0
  0
LINE
  5
1F0
100
AcDbEntity
  8
LAYER0001
  6
CONTINUOUS
 62
       7
100
AcDbLine
 10
20.12375461
 20
1.12896517
 30
0.0
 11
20.12225919
 21
1.09868367
 31
0.0
  0
LINE
  5
1F1
100
AcDbEntity
  8
LAYER0001
  6
CONTINUOUS
 62
       7
100
AcDbLine
 10
20.12225919
 20
1.09868367
 30
0.0
 11
20.12070124
 21
1.06942388
 31
0.0
  0
LINE
  5
1F2
100
AcDbEntity
  8
LAYER0001
  6
CONTINUOUS
 62
       7
100
AcDbLine
 10
20.12070124
 20
1.06942388
 30
0.0
 11
20.1190826
 21
1.04121292
 31
0.0
  0
LINE
  5
1F3
100
AcDbEntity
  8
LAYER0001
  6
CONTINUOUS
 62
       7
100
AcDbLine
 10
20.1190826
 20
1.04121292
 30
0.0
 11
20.11740508
 21
1.0140779
 31
0.0
  0
LINE
  5
1F4
100
AcDbEntity
  8
LAYER0001
  6
CONTINUOUS
 62
       7
100
AcDbLine
 10
20.11740508
 20
1.0140779
 30
0.0
 11
20.1156705
 21
0.98804595
 31
0.0
  0
LINE
  5
1F5
100
AcDbEntity
  8
LAYER0001
  6
CONTINUOUS
 62
       7
100
AcDbLine
 10
20.1156705
 20
0.98804595
 30
0.0
 11
20.11388071
 21
0.96314417
 31
0.0
  0
LINE
  5
1F6
100
AcDbEntity
  8
LAYER0001
  6
CONTINUOUS
 62
       7
100
AcDbLine
 10
20.11388071
 20
0.96314417
 30
0.0
 11
20.11203751
 21
0.93939967
 31
0.0
  0
LINE
  5
1F7
100
AcDbEntity
  8
LAYER0001
  6
CONTINUOUS
 62
       7
100
AcDbLine
 10
20.11203751
 20
0.93939967
 30
0.0
 11
20.11014273
 21
0.91683958
 31
0.0
  0
LINE
  5
1F8
100
AcDbEntity
  8
LAYER0001
  6
CONTINUOUS
 62
       7
100
AcDbLine
 10
20.11014273
 20
0.91683958
 30
0.0
 11
20.10819821
 21
0.89549117
 31
0.0
  0
LINE
  5
1F9
100
AcDbEntity
  8
LAYER0001
  6
CONTINUOUS
 62
       7
100
AcDbLine
 10
20.10819821
 20
0.89549117
 30
0.0
 11
20.10620652
 21
0.87539696
 31
0.0
  0
LINE
  5
1FA
100
AcDbEntity
  8
LAYER0001
  6
CONTINUOUS
 62
       7
100
AcDbLine
 10
20.10620652
 20
0.87539696
 30
0.0
 11
20.10417154
 21
0.85662622
 31
0.0
  0
LINE
  5
1FB
100
AcDbEntity
  8
LAYER0001
  6
CONTINUOUS
 62
       7
100
AcDbLine
 10
20.10417154
 20
0.85662622
 30
0.0
 11
20.10209728
 21
0.83925094
 31
0.0
  0
LINE
  5
1FC
100
AcDbEntity
  8
LAYER0001
  6
CONTINUOUS
 62
       7
100
AcDbLine
 10
20.10209728
 20
0.83925094
 30
0.0
 11
20.09998775
 21
0.82334312
 31
0.0
  0
LINE
  5
1FD
100
AcDbEntity
  8
LAYER0001
  6
CONTINUOUS
 62
       7
100
AcDbLine
 10
20.09998775
 20
0.82334312
 30
0.0
 11
20.09784696
 21
0.80897473
 31
0.0
  0
LINE
  5
1FE
100
AcDbEntity
  8
LAYER0001
  6
CONTINUOUS
 62
       7
100
AcDbLine
 10
20.09784696
 20
0.80897473
 30
0.0
 11
20.09567892
 21
0.79621777
 31
0.0
  0
LINE
  5
1FF
100
AcDbEntity
  8
LAYER0001
  6
CONTINUOUS
 62
       7
100
AcDbLine
 10
20.09567892
 20
0.79621777
 30
0.0
 11
20.09348765
 21
0.78514423
 31
0.0
  0
LINE
  5
200
100
AcDbEntity
  8
LAYER0001
  6
CONTINUOUS
 62
       7
100
AcDbLine
 10
20.09348765
 20
0.78514423
 30
0.0
 11
20.09127715
 21
0.7758261
 31
0.0
  0
LINE
  5
201
100
AcDbEntity
  8
LAYER0001
  6
CONTINUOUS
 62
       7
100
AcDbLine
 10
20.09127715
 20
0.7758261
 30
0.0
 11
20.08905135
 21
0.76831308
 31
0.0
  0
LINE
  5
202
100
AcDbEntity
  8
LAYER0001
  6
CONTINUOUS
 62
       7
100
AcDbLine
 10
20.08905135
 20
0.76831308
 30
0.0
 11
20.08681326
 21
0.76242148
 31
0.0
  0
LINE
  5
203
100
AcDbEntity
  8
LAYER0001
  6
CONTINUOUS
 62
       7
100
AcDbLine
 10
20.08681326
 20
0.76242148
 30
0.0
 11
20.08456534
 21
0.75782851
 31
0.0
  0
LINE
  5
204
100
AcDbEntity
  8
LAYER0001
  6
CONTINUOUS
 62
       7
100
AcDbLine
 10
20.08456534
 20
0.75782851
 30
0.0
 11
20.08231005
 21
0.75420951
 31
0.0
  0
LINE
  5
205
100
AcDbEntity
  8
LAYER0001
  6
CONTINUOUS
 62
       7
100
AcDbLine
 10
20.08231005
 20
0.75420951
 30
0.0
 11
20.08004984
 21
0.75123983
 31
0.0
  0
LINE
  5
206
100
AcDbEntity
  8
LAYER0001
  6
CONTINUOUS
 62
       7
100
AcDbLine
 10
20.08004984
 20
0.75123983
 30
0.0
 11
20.07778718
 21
0.7485948
 31
0.0
  0
ENDBLK
  5
207
100
AcDbEntity
  8
0
100
AcDbBlockEnd
  0
ENDSEC
  0
SECTION
  2
ENTITIES
  0
LINE
  5
208
100
AcDbEntity
  8
LAYER0001
  6
DIVIDE
 62
       7
100
AcDbLine
 10
-77.52423742
 20
16.54859581
 30
0.0
 11
-76.02423741
 21
16.54859581
 31
0.0
  0
LINE
  5
209
100
AcDbEntity
  8
LAYER0001
  6
DIVIDE
 62
       7
100
AcDbLine
 10
-76.02423741
 20
16.54859581
 30
0.0
 11
-76.02423741
 21
20.48315616
 31
0.0
  0
LINE
  5
20A
100
AcDbEntity
  8
LAYER0001
  6
DIVIDE
 62
       7
100
AcDbLine
 10
-77.52423742
 20
20.48315616
 30
0.0
 11
-77.52423742
 21
16.54859581
 31
0.0
  0
LINE
  5
20B
100
AcDbEntity
  8
LAYER0001
  6
DIVIDE
 62
       7
100
AcDbLine
 10
-76.02423741
 20
20.54859647
 30
0.0
 11
-77.52423742
 21
20.54859647
 31
0.0
  0
LINE
  5
20C
100
AcDbEntity
  8
LAYER0001
  6
DIVIDE
 62
       7
100
AcDbLine
 10
-76.02423741
 20
20.48315616
 30
0.0
 11
-76.02423741
 21
20.54859647
 31
0.0
  0
LINE
  5
20D
100
AcDbEntity
  8
LAYER0001
  6
DIVIDE
 62
       7
100
AcDbLine
 10
-77.52423742
 20
20.54859647
 30
0.0
 11
-77.52423742
 21
20.48315616
 31
0.0
  0
ARC
  5
20E
100
AcDbEntity
  8
LAYER0001
  6
DIVIDE
 62
       7
100
AcDbCircle
 10
-76.77423742
 20
13.54859597
 30
0.0
 40
6.975
100
AcDbArc
 50
96.17277067
 51
443.82722928
  0
ARC
  5
20F
100
AcDbEntity
  8
LAYER0001
  6
DIVIDE
 62
       7
100
AcDbCircle
 10
-76.77423742
 20
13.54859597
 30
0.0
 40
6.975
100
AcDbArc
 50
83.82722928
 51
96.17277067
  0
ELLIPSE
  5
210
100
AcDbEntity
  8
LAYER0001
  6
DIVIDE
 62
       7
100
AcDbEllipse
 10
-60.57502867
 20
51.74989914
 30
0.0
 11
0.0
 21
-4.9000000000000057
 31
0.0
210
0.0
220
0.0
230
1.0
 40
0.94897959
 41
0.0
 42
6.2831853071796004
  0
ELLIPSE
  5
211
100
AcDbEntity
  8
LAYER0001
  6
DIVIDE
 62
       7
100
AcDbEllipse
 10
-60.57502867
 20
34.24989914
 30
0.0
 11
0.0
 21
-4.9000000000000057
 31
0.0
210
0.0
220
0.0
230
1.0
 40
0.94897959
 41
0.0
 42
6.2831853071796004
  0
ELLIPSE
  5
212
100
AcDbEntity
  8
LAYER0001
  6
DIVIDE
 62
       7
100
AcDbEllipse
 10
-92.97502867
 20
51.74989914
 30
0.0
 11
0.0
 21
-4.9000000000000057
 31
0.0
210
0.0
220
0.0
230
1.0
 40
0.94897959
 41
0.0
 42
6.2831853071796004
  0
ELLIPSE
  5
213
100
AcDbEntity
  8
LAYER0001
  6
DIVIDE
 62
       7
100
AcDbEllipse
 10
-92.97423741
 20
34.24859597
 30
0.0
 11
0.0
 21
-4.8999999999999773
 31
0.0
210
0.0
220
0.0
230
1.0
 40
0.94897959
 41
0.0
 42
6.2831853071796004
  0
LINE
  5
214
100
AcDbEntity
  8
LAYER0001
  6
CONTINUOUS
 62
       7
100
AcDbLine
 10
-93.97423833
 20
-10.29690709
 30
0.0
 11
-95.9742368
 21
-10.29690709
 31
0.0
  0
LINE
  5
215
100
AcDbEntity
  8
LAYER0001
  6
CONTINUOUS
 62
       7
100
AcDbLine
 10
-101.97423778
 20
-10.29690709
 30
0.0
 11
-103.97423811
 21
-10.29690709
 31
0.0
  0
LINE
  5
216
100
AcDbEntity
  8
LAYER0001
  6
CONTINUOUS
 62
       7
100
AcDbLine
 10
-97.97423713
 20
-10.29690709
 30
0.0
 11
-99.97423745
 21
-10.29690709
 31
0.0
  0
LINE
  5
217
100
AcDbEntity
  8
LAYER0001
  6
CONTINUOUS
 62
       7
100
AcDbLine
 10
-55.17423699
 20
70.34859685
 30
0.0
 11
-55.17423699
 21
91.14859691
 31
0.0
  0
LINE
  5
218
100
AcDbEntity
  8
LAYER0001
  6
CONTINUOUS
 62
       7
100
AcDbLine
 10
-96.37423744
 20
68.34859601
 30
0.0
 11
-57.17423744
 21
68.34859601
 31
0.0
  0
LINE
  5
219
100
AcDbEntity
  8
LAYER0001
  6
CONTINUOUS
 62
       7
100
AcDbLine
 10
-98.37423831
 20
91.14859642
 30
0.0
 11
-98.37423741
 21
70.34859589
 31
0.0
  0
LINE
  5
21A
100
AcDbEntity
  8
LAYER0001
  6
CONTINUOUS
 62
       7
100
AcDbLine
 10
-57.17423783
 20
93.14859681
 30
0.0
 11
-96.37423747
 21
93.14859681
 31
0.0
  0
LINE
  5
21B
100
AcDbEntity
  8
LAYER0001
  6
CONTINUOUS
 62
       7
100
AcDbLine
 10
-97.97423713
 20
-1.45140341
 30
0.0
 11
-97.97423713
 21
-10.29690709
 31
0.0
  0
LINE
  5
21C
100
AcDbEntity
  8
LAYER0001
  6
CONTINUOUS
 62
       7
100
AcDbLine
 10
-99.97423745
 20
-10.29690709
 30
0.0
 11
-99.97423745
 21
-1.45140341
 31
0.0
  0
LINE
  5
21D
100
AcDbEntity
  8
LAYER0001
  6
CONTINUOUS
 62
       7
100
AcDbLine
 10
-101.97423778
 20
-1.45140341
 30
0.0
 11
-101.97423778
 21
-10.29690709
 31
0.0
  0
LINE
  5
21E
100
AcDbEntity
  8
LAYER0001
  6
CONTINUOUS
 62
       7
100
AcDbLine
 10
-103.97423811
 20
-10.29690709
 30
0.0
 11
-103.97423811
 21
-1.45140341
 31
0.0
  0
LINE
  5
21F
100
AcDbEntity
  8
LAYER0001
  6
CONTINUOUS
 62
       7
100
AcDbLine
 10
-93.97423833
 20
-1.45140341
 30
0.0
 11
-93.97423833
 21
-10.29690709
 31
0.0
  0
LINE
  5
220
100
AcDbEntity
  8
LAYER0001
  6
CONTINUOUS
 62
       7
100
AcDbLine
 10
-95.9742368
 20
-10.29690709
 30
0.0
 11
-95.9742368
 21
-1.45140341
 31
0.0
  0
LINE
  5
221
100
AcDbEntity
  8
LAYER0001
  6
CONTINUOUS
 62
       7
100
AcDbLine
 10
-49.07423756
 20
99.74859672
 30
0.0
 11
-49.07423756
 21
1.54859521
 31
0.0
  0
LINE
  5
222
100
AcDbEntity
  8
LAYER0001
  6
CONTINUOUS
 62
       7
100
AcDbLine
 10
-103.4742371
 20
100.74859502
 30
0.0
 11
-50.07423772
 21
100.74859502
 31
0.0
  0
LINE
  5
223
100
AcDbEntity
  8
LAYER0001
  6
CONTINUOUS
 62
       7
100
AcDbLine
 10
-104.47423726
 20
1.54859521
 30
0.0
 11
-104.47423726
 21
99.74859672
 31
0.0
  0
LINE
  5
224
100
AcDbEntity
  8
LAYER0001
  6
CONTINUOUS
 62
       7
100
AcDbLine
 10
-50.07423772
 20
0.54859691
 30
0.0
 11
-103.4742371
 21
0.54859691
 31
0.0
  0
LINE
  5
225
100
AcDbEntity
  8
LAYER0001
  6
CONTINUOUS
 62
       7
100
AcDbLine
 10
-108.77526549
 20
-10.45140403
 30
0.0
 11
-44.77320944
 21
-10.45140514
 31
0.0
  0
LINE
  5
226
100
AcDbEntity
  8
LAYER0001
  6
CONTINUOUS
 62
       7
100
AcDbLine
 10
-44.77320938
 20
109.54859597
 30
0.0
 11
-108.77526543
 21
109.54859597
 31
0.0
  0
LINE
  5
227
100
AcDbEntity
  8
LAYER0001
  6
CONTINUOUS
 62
       7
100
AcDbLine
 10
-41.77423741
 20
-7.45243317
 30
0.0
 11
-41.77423741
 21
106.549624
 31
0.0
  0
LINE
  5
228
100
AcDbEntity
  8
LAYER0001
  6
CONTINUOUS
 62
       7
100
AcDbLine
 10
-111.77423741
 20
106.549624
 30
0.0
 11
-111.77423741
 21
-7.45243205
 31
0.0
  0
LINE
  5
229
100
AcDbEntity
  8
LAYER0001
  6
CONTINUOUS
 62
       7
100
AcDbLine
 10
32.81383751
 20
-10.45140514
 30
0.0
 11
22.31383724
 21
-10.45140514
 31
0.0
  0
LINE
  5
22A
100
AcDbEntity
  8
LAYER0001
  6
CONTINUOUS
 62
       7
100
AcDbLine
 10
19.31383724
 20
0.7485948
 30
0.0
 11
19.31383724
 21
-7.45140514
 31
0.0
  0
LINE
  5
22B
100
AcDbEntity
  8
LAYER0001
  6
CONTINUOUS
 62
       7
100
AcDbLine
 10
19.31383724
 20
106.54859286
 30
0.0
 11
19.31383724
 21
100.5485929
 31
0.0
  0
LINE
  5
22C
100
AcDbEntity
  8
LAYER0001
  6
CONTINUOUS
 62
       7
100
AcDbLine
 10
42.91383788
 20
26.74859347
 30
0.0
 11
42.91383788
 21
20.34859317
 31
0.0
  0
LINE
  5
22D
100
AcDbEntity
  8
LAYER0001
  6
CONTINUOUS
 62
       7
100
AcDbLine
 10
42.91383788
 20
20.34859317
 30
0.0
 11
39.81383756
 21
20.34859317
 31
0.0
  0
LINE
  5
22E
100
AcDbEntity
  8
LAYER0001
  6
CONTINUOUS
 62
       7
100
AcDbLine
 10
42.91383788
 20
26.74859347
 30
0.0
 11
39.81383756
 21
26.74859347
 31
0.0
  0
LINE
  5
22F
100
AcDbEntity
  8
LAYER0001
  6
CONTINUOUS
 62
       7
100
AcDbLine
 10
20.13658437
 20
99.5485946
 30
0.0
 11
20.13658437
 21
1.7485931
 31
0.0
  0
LINE
  5
230
100
AcDbEntity
  8
LAYER0001
  6
CONTINUOUS
 62
       7
100
AcDbLine
 10
19.31383724
 20
100.5485929
 30
0.0
 11
20.07778718
 21
100.5485929
 31
0.0
  0
LINE
  5
231
100
AcDbEntity
  8
LAYER0001
  6
CONTINUOUS
 62
       7
100
AcDbLine
 10
20.07778718
 20
0.7485948
 30
0.0
 11
19.31383724
 21
0.7485948
 31
0.0
  0
LINE
  5
232
100
AcDbEntity
  8
LAYER0001
  6
CONTINUOUS
 62
       7
100
AcDbLine
 10
32.81383751
 20
-10.45140514
 30
0.0
 11
32.81383751
 21
109.54859286
 31
0.0
  0
LINE
  5
233
100
AcDbEntity
  8
LAYER0001
  6
CONTINUOUS
 62
       7
100
AcDbLine
 10
32.81383751
 20
84.79859386
 30
0.0
 11
45.33478205
 21
82.59081396
 31
0.0
  0
LINE
  5
234
100
AcDbEntity
  8
LAYER0001
  6
CONTINUOUS
 62
       7
100
AcDbLine
 10
37.33478213
 20
15.0957593
 30
0.0
 11
32.81383751
 21
14.29859386
 31
0.0
  0
LINE
  5
235
100
AcDbEntity
  8
LAYER0001
  6
CONTINUOUS
 62
       7
100
AcDbLine
 10
44.97084547
 20
31.81886122
 30
0.0
 11
40.28766942
 21
31.57342606
 31
0.0
  0
LINE
  5
236
100
AcDbEntity
  8
LAYER0001
  6
CONTINUOUS
 62
       7
100
AcDbLine
 10
39.8138372
 20
31.1219691
 30
0.0
 11
39.8138372
 21
18.05018227
 31
0.0
  0
LINE
  5
237
100
AcDbEntity
  8
LAYER0001
  6
CONTINUOUS
 62
       7
100
AcDbLine
 10
47.81383783
 20
79.63639041
 30
0.0
 11
47.81383783
 21
34.81475006
 31
0.0
  0
LINE
  5
238
100
AcDbEntity
  8
LAYER0001
  6
CONTINUOUS
 62
       7
100
AcDbLine
 10
32.81383751
 20
109.54859286
 30
0.0
 11
22.31383724
 21
109.54859286
 31
0.0
  0
LINE
  5
239
100
AcDbEntity
  8
LAYER0001
  6
CONTINUOUS
 62
       7
100
AcDbLine
 10
161.64690217
 20
20.34859417
 30
0.0
 11
161.64690217
 21
26.74859447
 31
0.0
  0
LINE
  5
23A
100
AcDbEntity
  8
LAYER0001
  6
CONTINUOUS
 62
       7
100
AcDbLine
 10
159.64690184
 20
20.34859417
 30
0.0
 11
161.64690217
 21
20.34859417
 31
0.0
  0
LINE
  5
23B
100
AcDbEntity
  8
LAYER0001
  6
CONTINUOUS
 62
       7
100
AcDbLine
 10
159.64690184
 20
21.2485945
 30
0.0
 11
159.64690184
 21
20.34859417
 31
0.0
  0
LINE
  5
23C
100
AcDbEntity
  8
LAYER0001
  6
CONTINUOUS
 62
       7
100
AcDbLine
 10
161.04690132
 20
21.2485945
 30
0.0
 11
159.64690184
 21
21.2485945
 31
0.0
  0
LINE
  5
23D
100
AcDbEntity
  8
LAYER0001
  6
CONTINUOUS
 62
       7
100
AcDbLine
 10
161.04690132
 20
25.84859414
 30
0.0
 11
161.04690132
 21
21.2485945
 31
0.0
  0
LINE
  5
23E
100
AcDbEntity
  8
LAYER0001
  6
CONTINUOUS
 62
       7
100
AcDbLine
 10
159.64690184
 20
25.84859414
 30
0.0
 11
161.04690132
 21
25.84859414
 31
0.0
  0
LINE
  5
23F
100
AcDbEntity
  8
LAYER0001
  6
CONTINUOUS
 62
       7
100
AcDbLine
 10
159.64690184
 20
26.74859447
 30
0.0
 11
159.64690184
 21
25.84859414
 31
0.0
  0
LINE
  5
240
100
AcDbEntity
  8
LAYER0001
  6
CONTINUOUS
 62
       7
100
AcDbLine
 10
161.64690217
 20
26.74859447
 30
0.0
 11
159.64690184
 21
26.74859447
 31
0.0
  0
LINE
  5
241
100
AcDbEntity
  8
LAYER0001
  6
CONTINUOUS
 62
       7
100
AcDbLine
 10
160.74690183
 20
21.54859399
 30
0.0
 11
160.74690183
 21
25.54859465
 31
0.0
  0
LINE
  5
242
100
AcDbEntity
  8
LAYER0001
  6
CONTINUOUS
 62
       7
100
AcDbLine
 10
160.74690183
 20
25.54859465
 30
0.0
 11
161.04690132
 21
25.84859414
 31
0.0
  0
LINE
  5
243
100
AcDbEntity
  8
LAYER0001
  6
CONTINUOUS
 62
       7
100
AcDbLine
 10
160.74690183
 20
21.54859399
 30
0.0
 11
161.04690132
 21
21.2485945
 31
0.0
  0
LINE
  5
244
100
AcDbEntity
  8
LAYER0001
  6
CONTINUOUS
 62
       7
100
AcDbLine
 10
160.74690183
 20
25.54859465
 30
0.0
 11
159.34690235
 21
25.54859465
 31
0.0
  0
LINE
  5
245
100
AcDbEntity
  8
LAYER0001
  6
CONTINUOUS
 62
       7
100
AcDbLine
 10
159.34690235
 20
25.54859465
 30
0.0
 11
159.64690184
 21
25.84859414
 31
0.0
  0
LINE
  5
246
100
AcDbEntity
  8
LAYER0001
  6
CONTINUOUS
 62
       7
100
AcDbLine
 10
159.34690235
 20
21.54859399
 30
0.0
 11
160.74690183
 21
21.54859399
 31
0.0
  0
LINE
  5
247
100
AcDbEntity
  8
LAYER0001
  6
CONTINUOUS
 62
       7
100
AcDbLine
 10
159.34690235
 20
21.54859399
 30
0.0
 11
159.64690184
 21
21.2485945
 31
0.0
  0
LINE
  5
248
100
AcDbEntity
  8
LAYER0001
  6
CONTINUOUS
 62
       7
100
AcDbLine
 10
159.34690235
 20
25.54859465
 30
0.0
 11
159.34690235
 21
26.74859447
 31
0.0
  0
LINE
  5
249
100
AcDbEntity
  8
LAYER0001
  6
CONTINUOUS
 62
       7
100
AcDbLine
 10
159.34690235
 20
26.74859447
 30
0.0
 11
159.64690184
 21
26.74859447
 31
0.0
  0
LINE
  5
24A
100
AcDbEntity
  8
LAYER0001
  6
CONTINUOUS
 62
       7
100
AcDbLine
 10
159.34690235
 20
20.34859417
 30
0.0
 11
159.34690235
 21
21.54859399
 31
0.0
  0
LINE
  5
24B
100
AcDbEntity
  8
LAYER0001
  6
CONTINUOUS
 62
       7
100
AcDbLine
 10
159.64690184
 20
20.34859417
 30
0.0
 11
159.34690235
 21
20.34859417
 31
0.0
  0
LINE
  5
24C
100
AcDbEntity
  8
LAYER0001
  6
CONTINUOUS
 62
       7
100
AcDbLine
 10
146.7469014
 20
26.74859447
 30
0.0
 11
146.7469014
 21
20.34859417
 31
0.0
  0
LINE
  5
24D
100
AcDbEntity
  8
LAYER0001
  6
CONTINUOUS
 62
       7
100
AcDbLine
 10
146.44690144
 20
20.34859417
 30
0.0
 11
146.44690144
 21
26.74859447
 31
0.0
  0
LINE
  5
24E
100
AcDbEntity
  8
LAYER0001
  6
CONTINUOUS
 62
       7
100
AcDbLine
 10
146.7469014
 20
20.34859417
 30
0.0
 11
146.44690144
 21
20.34859417
 31
0.0
  0
LINE
  5
24F
100
AcDbEntity
  8
LAYER0001
  6
CONTINUOUS
 62
       7
100
AcDbLine
 10
146.44690144
 20
26.74859447
 30
0.0
 11
146.7469014
 21
26.74859447
 31
0.0
  0
LINE
  5
250
100
AcDbEntity
  8
LAYER0001
  6
CONTINUOUS
 62
       7
100
AcDbLine
 10
145.84690153
 20
26.74859447
 30
0.0
 11
145.84690153
 21
20.34859417
 31
0.0
  0
LINE
  5
251
100
AcDbEntity
  8
LAYER0001
  6
CONTINUOUS
 62
       7
100
AcDbLine
 10
145.84690153
 20
20.34859417
 30
0.0
 11
146.44690144
 21
20.34859417
 31
0.0
  0
LINE
  5
252
100
AcDbEntity
  8
LAYER0001
  6
CONTINUOUS
 62
       7
100
AcDbLine
 10
146.44690144
 20
26.74859447
 30
0.0
 11
145.84690153
 21
26.74859447
 31
0.0
  0
LINE
  5
253
100
AcDbEntity
  8
LAYER0001
  6
CONTINUOUS
 62
       7
100
AcDbLine
 10
159.34690235
 20
26.04859566
 30
0.0
 11
157.44690185
 21
26.04859566
 31
0.0
  0
LINE
  5
254
100
AcDbEntity
  8
LAYER0001
  6
CONTINUOUS
 62
       7
100
AcDbLine
 10
157.44690185
 20
26.04859566
 30
0.0
 11
157.44690185
 21
26.74859447
 31
0.0
  0
LINE
  5
255
100
AcDbEntity
  8
LAYER0001
  6
CONTINUOUS
 62
       7
100
AcDbLine
 10
159.34690235
 20
26.74859447
 30
0.0
 11
157.44690185
 21
26.74859447
 31
0.0
  0
LINE
  5
256
100
AcDbEntity
  8
LAYER0001
  6
CONTINUOUS
 62
       7
100
AcDbLine
 10
157.44690185
 20
20.34859417
 30
0.0
 11
157.44690185
 21
21.04859484
 31
0.0
  0
LINE
  5
257
100
AcDbEntity
  8
LAYER0001
  6
CONTINUOUS
 62
       7
100
AcDbLine
 10
157.44690185
 20
21.04859484
 30
0.0
 11
159.34690235
 21
21.04859484
 31
0.0
  0
LINE
  5
258
100
AcDbEntity
  8
LAYER0001
  6
CONTINUOUS
 62
       7
100
AcDbLine
 10
157.44690185
 20
20.34859417
 30
0.0
 11
159.34690235
 21
20.34859417
 31
0.0
  0
LINE
  5
259
100
AcDbEntity
  8
LAYER0001
  6
CONTINUOUS
 62
       7
100
AcDbLine
 10
147.74690156
 20
26.04859566
 30
0.0
 11
147.74690156
 21
26.74859447
 31
0.0
  0
LINE
  5
25A
100
AcDbEntity
  8
LAYER0001
  6
CONTINUOUS
 62
       7
100
AcDbLine
 10
147.74690156
 20
26.04859566
 30
0.0
 11
146.7469014
 21
26.04859566
 31
0.0
  0
LINE
  5
25B
100
AcDbEntity
  8
LAYER0001
  6
CONTINUOUS
 62
       7
100
AcDbLine
 10
147.74690156
 20
26.74859447
 30
0.0
 11
146.7469014
 21
26.74859447
 31
0.0
  0
LINE
  5
25C
100
AcDbEntity
  8
LAYER0001
  6
CONTINUOUS
 62
       7
100
AcDbLine
 10
147.74690156
 20
20.34859417
 30
0.0
 11
147.74690156
 21
21.04859484
 31
0.0
  0
LINE
  5
25D
100
AcDbEntity
  8
LAYER0001
  6
CONTINUOUS
 62
       7
100
AcDbLine
 10
146.7469014
 20
21.04859484
 30
0.0
 11
147.74690156
 21
21.04859484
 31
0.0
  0
LINE
  5
25E
100
AcDbEntity
  8
LAYER0001
  6
CONTINUOUS
 62
       7
100
AcDbLine
 10
146.7469014
 20
20.34859417
 30
0.0
 11
147.74690156
 21
20.34859417
 31
0.0
  0
LINE
  5
25F
100
AcDbEntity
  8
LAYER0001
  6
CONTINUOUS
 62
       7
100
AcDbLine
 10
147.74690156
 20
21.04859484
 30
0.0
 11
157.44690185
 21
21.04859484
 31
0.0
  0
LINE
  5
260
100
AcDbEntity
  8
LAYER0001
  6
CONTINUOUS
 62
       7
100
AcDbLine
 10
147.74690156
 20
20.34859417
 30
0.0
 11
157.44690185
 21
20.34859417
 31
0.0
  0
LINE
  5
261
100
AcDbEntity
  8
LAYER0001
  6
CONTINUOUS
 62
       7
100
AcDbLine
 10
157.44690185
 20
26.04859566
 30
0.0
 11
147.74690156
 21
26.04859566
 31
0.0
  0
LINE
  5
262
100
AcDbEntity
  8
LAYER0001
  6
CONTINUOUS
 62
       7
100
AcDbLine
 10
157.44690185
 20
26.74859447
 30
0.0
 11
147.74690156
 21
26.74859447
 31
0.0
  0
LINE
  5
263
100
AcDbEntity
  8
LAYER0001
  6
CONTINUOUS
 62
       7
100
AcDbLine
 10
157.09690151
 20
21.94859518
 30
0.0
 11
148.09690144
 21
21.94859518
 31
0.0
  0
LINE
  5
264
100
AcDbEntity
  8
LAYER0001
  6
CONTINUOUS
 62
       7
100
AcDbLine
 10
148.39690139
 20
22.24859467
 30
0.0
 11
148.09690144
 21
21.94859518
 31
0.0
  0
LINE
  5
265
100
AcDbEntity
  8
LAYER0001
  6
CONTINUOUS
 62
       7
100
AcDbLine
 10
148.39690139
 20
22.24859467
 30
0.0
 11
156.79690109
 21
22.24859467
 31
0.0
  0
LINE
  5
266
100
AcDbEntity
  8
LAYER0001
  6
CONTINUOUS
 62
       7
100
AcDbLine
 10
157.09690151
 20
21.94859518
 30
0.0
 11
156.79690109
 21
22.24859467
 31
0.0
  0
LINE
  5
267
100
AcDbEntity
  8
LAYER0001
  6
CONTINUOUS
 62
       7
100
AcDbLine
 10
148.09690144
 20
25.14859533
 30
0.0
 11
157.09690151
 21
25.14859533
 31
0.0
  0
LINE
  5
268
100
AcDbEntity
  8
LAYER0001
  6
CONTINUOUS
 62
       7
100
AcDbLine
 10
157.09690151
 20
25.14859533
 30
0.0
 11
156.79690109
 21
24.84859398
 31
0.0
  0
LINE
  5
269
100
AcDbEntity
  8
LAYER0001
  6
CONTINUOUS
 62
       7
100
AcDbLine
 10
156.79690109
 20
24.84859398
 30
0.0
 11
148.39690139
 21
24.84859398
 31
0.0
  0
LINE
  5
26A
100
AcDbEntity
  8
LAYER0001
  6
CONTINUOUS
 62
       7
100
AcDbLine
 10
148.39690139
 20
24.84859398
 30
0.0
 11
148.09690144
 21
25.14859533
 31
0.0
  0
LINE
  5
26B
100
AcDbEntity
  8
LAYER0001
  6
CONTINUOUS
 62
       7
100
AcDbLine
 10
157.09690151
 20
25.14859533
 30
0.0
 11
157.09690151
 21
21.94859518
 31
0.0
  0
LINE
  5
26C
100
AcDbEntity
  8
LAYER0001
  6
CONTINUOUS
 62
       7
100
AcDbLine
 10
156.79690109
 20
22.24859467
 30
0.0
 11
156.79690109
 21
24.84859398
 31
0.0
  0
LINE
  5
26D
100
AcDbEntity
  8
LAYER0001
  6
CONTINUOUS
 62
       7
100
AcDbLine
 10
156.39690177
 20
22.89859449
 30
0.0
 11
154.7969017
 21
22.89859449
 31
0.0
  0
LINE
  5
26E
100
AcDbEntity
  8
LAYER0001
  6
CONTINUOUS
 62
       7
100
AcDbLine
 10
156.39690177
 20
24.19859415
 30
0.0
 11
156.39690177
 21
22.89859449
 31
0.0
  0
LINE
  5
26F
100
AcDbEntity
  8
LAYER0001
  6
CONTINUOUS
 62
       7
100
AcDbLine
 10
154.7969017
 20
24.19859415
 30
0.0
 11
156.39690177
 21
24.19859415
 31
0.0
  0
LINE
  5
270
100
AcDbEntity
  8
LAYER0001
  6
CONTINUOUS
 62
       7
100
AcDbLine
 10
154.7969017
 20
22.89859449
 30
0.0
 11
154.7969017
 21
24.19859415
 31
0.0
  0
LINE
  5
271
100
AcDbEntity
  8
LAYER0001
  6
CONTINUOUS
 62
       7
100
AcDbLine
 10
154.39690144
 20
22.89859449
 30
0.0
 11
152.79690137
 21
22.89859449
 31
0.0
  0
LINE
  5
272
100
AcDbEntity
  8
LAYER0001
  6
CONTINUOUS
 62
       7
100
AcDbLine
 10
154.39690144
 20
24.19859415
 30
0.0
 11
154.39690144
 21
22.89859449
 31
0.0
  0
LINE
  5
273
100
AcDbEntity
  8
LAYER0001
  6
CONTINUOUS
 62
       7
100
AcDbLine
 10
152.79690137
 20
24.19859415
 30
0.0
 11
154.39690144
 21
24.19859415
 31
0.0
  0
LINE
  5
274
100
AcDbEntity
  8
LAYER0001
  6
CONTINUOUS
 62
       7
100
AcDbLine
 10
152.79690137
 20
22.89859449
 30
0.0
 11
152.79690137
 21
24.19859415
 31
0.0
  0
LINE
  5
275
100
AcDbEntity
  8
LAYER0001
  6
CONTINUOUS
 62
       7
100
AcDbLine
 10
152.39690112
 20
22.89859449
 30
0.0
 11
150.79690151
 21
22.89859449
 31
0.0
  0
LINE
  5
276
100
AcDbEntity
  8
LAYER0001
  6
CONTINUOUS
 62
       7
100
AcDbLine
 10
152.39690112
 20
24.19859415
 30
0.0
 11
152.39690112
 21
22.89859449
 31
0.0
  0
LINE
  5
277
100
AcDbEntity
  8
LAYER0001
  6
CONTINUOUS
 62
       7
100
AcDbLine
 10
150.79690151
 20
24.19859415
 30
0.0
 11
152.39690112
 21
24.19859415
 31
0.0
  0
LINE
  5
278
100
AcDbEntity
  8
LAYER0001
  6
CONTINUOUS
 62
       7
100
AcDbLine
 10
150.79690151
 20
22.89859449
 30
0.0
 11
150.79690151
 21
24.19859415
 31
0.0
  0
LINE
  5
279
100
AcDbEntity
  8
LAYER0001
  6
CONTINUOUS
 62
       7
100
AcDbLine
 10
150.39690125
 20
22.89859449
 30
0.0
 11
148.79690164
 21
22.89859449
 31
0.0
  0
LINE
  5
27A
100
AcDbEntity
  8
LAYER0001
  6
CONTINUOUS
 62
       7
100
AcDbLine
 10
150.39690125
 20
24.19859415
 30
0.0
 11
150.39690125
 21
22.89859449
 31
0.0
  0
LINE
  5
27B
100
AcDbEntity
  8
LAYER0001
  6
CONTINUOUS
 62
       7
100
AcDbLine
 10
148.79690164
 20
24.19859415
 30
0.0
 11
150.39690125
 21
24.19859415
 31
0.0
  0
LINE
  5
27C
100
AcDbEntity
  8
LAYER0001
  6
CONTINUOUS
 62
       7
100
AcDbLine
 10
148.79690164
 20
22.89859449
 30
0.0
 11
148.79690164
 21
24.19859415
 31
0.0
  0
LINE
  5
27D
100
AcDbEntity
  8
LAYER0001
  6
CONTINUOUS
 62
       7
100
AcDbLine
 10
148.39690139
 20
24.84859398
 30
0.0
 11
148.39690139
 21
22.24859467
 31
0.0
  0
LINE
  5
27E
100
AcDbEntity
  8
LAYER0001
  6
CONTINUOUS
 62
       7
100
AcDbLine
 10
156.09690135
 20
23.19859398
 30
0.0
 11
156.09690135
 21
23.89859466
 31
0.0
  0
LINE
  5
27F
100
AcDbEntity
  8
LAYER0001
  6
CONTINUOUS
 62
       7
100
AcDbLine
 10
156.09690135
 20
23.89859466
 30
0.0
 11
156.39690177
 21
24.19859415
 31
0.0
  0
LINE
  5
280
100
AcDbEntity
  8
LAYER0001
  6
CONTINUOUS
 62
       7
100
AcDbLine
 10
156.09690135
 20
23.19859398
 30
0.0
 11
156.39690177
 21
22.89859449
 31
0.0
  0
LINE
  5
281
100
AcDbEntity
  8
LAYER0001
  6
CONTINUOUS
 62
       7
100
AcDbLine
 10
155.09690119
 20
23.19859398
 30
0.0
 11
156.09690135
 21
23.19859398
 31
0.0
  0
LINE
  5
282
100
AcDbEntity
  8
LAYER0001
  6
CONTINUOUS
 62
       7
100
AcDbLine
 10
154.7969017
 20
22.89859449
 30
0.0
 11
155.09690119
 21
23.19859398
 31
0.0
  0
LINE
  5
283
100
AcDbEntity
  8
LAYER0001
  6
CONTINUOUS
 62
       7
100
AcDbLine
 10
156.09690135
 20
23.89859466
 30
0.0
 11
155.09690119
 21
23.89859466
 31
0.0
  0
LINE
  5
284
100
AcDbEntity
  8
LAYER0001
  6
CONTINUOUS
 62
       7
100
AcDbLine
 10
154.7969017
 20
24.19859415
 30
0.0
 11
155.09690119
 21
23.89859466
 31
0.0
  0
LINE
  5
285
100
AcDbEntity
  8
LAYER0001
  6
CONTINUOUS
 62
       7
100
AcDbLine
 10
155.09690119
 20
23.89859466
 30
0.0
 11
155.09690119
 21
23.19859398
 31
0.0
  0
LINE
  5
286
100
AcDbEntity
  8
LAYER0001
  6
CONTINUOUS
 62
       7
100
AcDbLine
 10
153.09690179
 20
23.19859398
 30
0.0
 11
154.09690102
 21
23.19859398
 31
0.0
  0
LINE
  5
287
100
AcDbEntity
  8
LAYER0001
  6
CONTINUOUS
 62
       7
100
AcDbLine
 10
154.09690102
 20
23.19859398
 30
0.0
 11
154.39690144
 21
22.89859449
 31
0.0
  0
LINE
  5
288
100
AcDbEntity
  8
LAYER0001
  6
CONTINUOUS
 62
       7
100
AcDbLine
 10
152.79690137
 20
22.89859449
 30
0.0
 11
153.09690179
 21
23.19859398
 31
0.0
  0
LINE
  5
289
100
AcDbEntity
  8
LAYER0001
  6
CONTINUOUS
 62
       7
100
AcDbLine
 10
154.09690102
 20
23.19859398
 30
0.0
 11
154.09690102
 21
23.89859466
 31
0.0
  0
LINE
  5
28A
100
AcDbEntity
  8
LAYER0001
  6
CONTINUOUS
 62
       7
100
AcDbLine
 10
154.09690102
 20
23.89859466
 30
0.0
 11
154.39690144
 21
24.19859415
 31
0.0
  0
LINE
  5
28B
100
AcDbEntity
  8
LAYER0001
  6
CONTINUOUS
 62
       7
100
AcDbLine
 10
154.09690102
 20
23.89859466
 30
0.0
 11
153.09690179
 21
23.89859466
 31
0.0
  0
LINE
  5
28C
100
AcDbEntity
  8
LAYER0001
  6
CONTINUOUS
 62
       7
100
AcDbLine
 10
152.79690137
 20
24.19859415
 30
0.0
 11
153.09690179
 21
23.89859466
 31
0.0
  0
LINE
  5
28D
100
AcDbEntity
  8
LAYER0001
  6
CONTINUOUS
 62
       7
100
AcDbLine
 10
153.09690179
 20
23.89859466
 30
0.0
 11
153.09690179
 21
23.19859398
 31
0.0
  0
LINE
  5
28E
100
AcDbEntity
  8
LAYER0001
  6
CONTINUOUS
 62
       7
100
AcDbLine
 10
152.09690163
 20
23.19859398
 30
0.0
 11
152.09690163
 21
23.89859466
 31
0.0
  0
LINE
  5
28F
100
AcDbEntity
  8
LAYER0001
  6
CONTINUOUS
 62
       7
100
AcDbLine
 10
152.09690163
 20
23.89859466
 30
0.0
 11
152.39690112
 21
24.19859415
 31
0.0
  0
LINE
  5
290
100
AcDbEntity
  8
LAYER0001
  6
CONTINUOUS
 62
       7
100
AcDbLine
 10
152.09690163
 20
23.19859398
 30
0.0
 11
152.39690112
 21
22.89859449
 31
0.0
  0
LINE
  5
291
100
AcDbEntity
  8
LAYER0001
  6
CONTINUOUS
 62
       7
100
AcDbLine
 10
152.09690163
 20
23.89859466
 30
0.0
 11
151.09690146
 21
23.89859466
 31
0.0
  0
LINE
  5
292
100
AcDbEntity
  8
LAYER0001
  6
CONTINUOUS
 62
       7
100
AcDbLine
 10
150.79690151
 20
24.19859415
 30
0.0
 11
151.09690146
 21
23.89859466
 31
0.0
  0
LINE
  5
293
100
AcDbEntity
  8
LAYER0001
  6
CONTINUOUS
 62
       7
100
AcDbLine
 10
151.09690146
 20
23.19859398
 30
0.0
 11
152.09690163
 21
23.19859398
 31
0.0
  0
LINE
  5
294
100
AcDbEntity
  8
LAYER0001
  6
CONTINUOUS
 62
       7
100
AcDbLine
 10
150.79690151
 20
22.89859449
 30
0.0
 11
151.09690146
 21
23.19859398
 31
0.0
  0
LINE
  5
295
100
AcDbEntity
  8
LAYER0001
  6
CONTINUOUS
 62
       7
100
AcDbLine
 10
151.09690146
 20
23.89859466
 30
0.0
 11
151.09690146
 21
23.19859398
 31
0.0
  0
LINE
  5
296
100
AcDbEntity
  8
LAYER0001
  6
CONTINUOUS
 62
       7
100
AcDbLine
 10
150.0969013
 20
23.19859398
 30
0.0
 11
150.0969013
 21
23.89859466
 31
0.0
  0
LINE
  5
297
100
AcDbEntity
  8
LAYER0001
  6
CONTINUOUS
 62
       7
100
AcDbLine
 10
150.0969013
 20
23.89859466
 30
0.0
 11
150.39690125
 21
24.19859415
 31
0.0
  0
LINE
  5
298
100
AcDbEntity
  8
LAYER0001
  6
CONTINUOUS
 62
       7
100
AcDbLine
 10
150.0969013
 20
23.19859398
 30
0.0
 11
150.39690125
 21
22.89859449
 31
0.0
  0
LINE
  5
299
100
AcDbEntity
  8
LAYER0001
  6
CONTINUOUS
 62
       7
100
AcDbLine
 10
150.0969013
 20
23.89859466
 30
0.0
 11
149.0969016
 21
23.89859466
 31
0.0
  0
LINE
  5
29A
100
AcDbEntity
  8
LAYER0001
  6
CONTINUOUS
 62
       7
100
AcDbLine
 10
148.79690164
 20
24.19859415
 30
0.0
 11
149.0969016
 21
23.89859466
 31
0.0
  0
LINE
  5
29B
100
AcDbEntity
  8
LAYER0001
  6
CONTINUOUS
 62
       7
100
AcDbLine
 10
149.0969016
 20
23.19859398
 30
0.0
 11
150.0969013
 21
23.19859398
 31
0.0
  0
LINE
  5
29C
100
AcDbEntity
  8
LAYER0001
  6
CONTINUOUS
 62
       7
100
AcDbLine
 10
148.79690164
 20
22.89859449
 30
0.0
 11
149.0969016
 21
23.19859398
 31
0.0
  0
LINE
  5
29D
100
AcDbEntity
  8
LAYER0001
  6
CONTINUOUS
 62
       7
100
AcDbLine
 10
149.0969016
 20
23.89859466
 30
0.0
 11
149.0969016
 21
23.19859398
 31
0.0
  0
LINE
  5
29E
100
AcDbEntity
  8
LAYER0001
  6
CONTINUOUS
 62
       7
100
AcDbLine
 10
148.09690144
 20
21.94859518
 30
0.0
 11
148.09690144
 21
25.14859533
 31
0.0
  0
LINE
  5
29F
100
AcDbEntity
  8
LAYER0001
  6
CONTINUOUS
 62
       7
100
AcDbLine
 10
176.94638701
 20
106.54859368
 30
0.0
 11
176.94638701
 21
-7.45140597
 31
0.0
  0
LINE
  5
2A0
100
AcDbEntity
  8
LAYER0001
  6
CONTINUOUS
 62
       7
100
AcDbLine
 10
175.44690124
 20
-8.95089174
 30
0.0
 11
150.94690125
 21
-8.95089174
 31
0.0
  0
LINE
  5
2A1
100
AcDbEntity
  8
LAYER0001
  6
CONTINUOUS
 62
       7
100
AcDbLine
 10
135.94690159
 20
-8.95089174
 30
0.0
 11
111.44690159
 21
-8.95089174
 31
0.0
  0
LINE
  5
2A2
100
AcDbEntity
  8
LAYER0001
  6
CONTINUOUS
 62
       7
100
AcDbLine
 10
111.44690164
 20
108.04808145
 30
0.0
 11
175.44690129
 21
108.04807945
 31
0.0
  0
LINE
  5
2A3
100
AcDbEntity
  8
LAYER0001
  6
CONTINUOUS
 62
       7
100
AcDbLine
 10
109.94741482
 20
-7.45140497
 30
0.0
 11
109.94741482
 21
106.54859468
 31
0.0
  0
LINE
  5
2A4
100
AcDbEntity
  8
LAYER0001
  6
CONTINUOUS
 62
       7
100
AcDbLine
 10
108.44690142
 20
-7.45243317
 30
0.0
 11
108.44690142
 21
106.54962288
 31
0.0
  0
LINE
  5
2A5
100
AcDbEntity
  8
LAYER0001
  6
CONTINUOUS
 62
       7
100
AcDbLine
 10
111.44587344
 20
109.54859486
 30
0.0
 11
175.44792949
 21
109.54859386
 31
0.0
  0
LINE
  5
2A6
100
AcDbEntity
  8
LAYER0001
  6
CONTINUOUS
 62
       7
100
AcDbLine
 10
178.44690142
 20
106.54962188
 30
0.0
 11
178.44690142
 21
-7.45243417
 31
0.0
  0
LINE
  5
2A7
100
AcDbEntity
  8
LAYER0001
  6
CONTINUOUS
 62
       7
100
AcDbLine
 10
175.4479294
 20
-10.45140614
 30
0.0
 11
111.44587335
 21
-10.45140514
 31
0.0
  0
LINE
  5
2A8
100
AcDbEntity
  8
LAYER0001
  6
CONTINUOUS
 62
       7
100
AcDbLine
 10
150.94690125
 20
-8.95089174
 30
0.0
 11
150.94690125
 21
-10.45140514
 31
0.0
  0
LINE
  5
2A9
100
AcDbEntity
  8
LAYER0001
  6
CONTINUOUS
 62
       7
100
AcDbLine
 10
135.94690159
 20
-8.95089174
 30
0.0
 11
135.94690159
 21
-10.45140514
 31
0.0
  0
LINE
  5
2AA
100
AcDbEntity
  8
LAYER0001
  6
CONTINUOUS
 62
       7
100
AcDbLine
 10
161.94690142
 20
31.54859486
 30
0.0
 11
124.94690142
 21
31.54859486
 31
0.0
  0
LINE
  5
2AB
100
AcDbEntity
  8
LAYER0001
  6
CONTINUOUS
 62
       7
100
AcDbLine
 10
161.94690142
 20
84.79859486
 30
0.0
 11
124.94690142
 21
84.79859486
 31
0.0
  0
LINE
  5
2AC
100
AcDbEntity
  8
LAYER0001
  6
CONTINUOUS
 62
       7
100
AcDbLine
 10
161.94690142
 20
14.29859486
 30
0.0
 11
124.94690142
 21
14.29859486
 31
0.0
  0
LINE
  5
2AD
100
AcDbEntity
  8
LAYER0001
  6
CONTINUOUS
 62
       7
100
AcDbLine
 10
121.94690142
 20
81.79859486
 30
0.0
 11
121.94690142
 21
17.29859486
 31
0.0
  0
LINE
  5
2AE
100
AcDbEntity
  8
LAYER0001
  6
CONTINUOUS
 62
       7
100
AcDbLine
 10
164.94690142
 20
81.79859486
 30
0.0
 11
164.94690142
 21
17.29859486
 31
0.0
  0
LINE
  5
2AF
100
AcDbEntity
  8
LAYER0001
  6
CONTINUOUS
 62
       7
100
AcDbLine
 10
145.84690142
 20
93.39859486
 30
0.0
 11
141.0469013
 21
93.39859581
 31
0.0
  0
LINE
  5
2B0
100
AcDbEntity
  8
LAYER0001
  6
CONTINUOUS
 62
       7
100
AcDbLine
 10
141.04690142
 20
89.19859486
 30
0.0
 11
145.84690142
 21
89.19859486
 31
0.0
  0
LINE
  5
2B1
100
AcDbEntity
  8
LAYER0001
  6
CONTINUOUS
 62
       7
100
AcDbLine
 10
145.84690153
 20
5.69859391
 30
0.0
 11
141.0469013
 21
5.69859391
 31
0.0
  0
LINE
  5
2B2
100
AcDbEntity
  8
LAYER0001
  6
CONTINUOUS
 62
       7
100
AcDbLine
 10
141.04690114
 20
9.89859423
 30
0.0
 11
145.8469012
 21
9.89859486
 31
0.0
  0
ARC
  5
2B3
100
AcDbEntity
  8
LAYER0001
  6
CONTINUOUS
 62
       7
100
AcDbCircle
 10
-57.17423744
 20
70.34859646
 30
0.0
 40
2.00000045
100
AcDbArc
 50
270.0
 51
360.00001136
  0
ARC
  5
2B4
100
AcDbEntity
  8
LAYER0001
  6
CONTINUOUS
 62
       7
100
AcDbCircle
 10
-96.37423744
 20
70.34859597
 30
0.0
 40
1.99999997
100
AcDbArc
 50
180.00000248
 51
270.0
  0
ARC
  5
2B5
100
AcDbEntity
  8
LAYER0001
  6
CONTINUOUS
 62
       7
100
AcDbCircle
 10
-57.17423783
 20
91.14859597
 30
0.0
 40
2.00000084
100
AcDbArc
 50
0.00002685
 51
90.0
  0
ARC
  5
2B6
100
AcDbEntity
  8
LAYER0001
  6
CONTINUOUS
 62
       7
100
AcDbCircle
 10
-96.37423747
 20
91.14859597
 30
0.0
 40
2.00000084
100
AcDbArc
 50
90.0
 51
179.99998702
  0
ARC
  5
2B7
100
AcDbEntity
  8
LAYER0001
  6
CONTINUOUS
 62
       7
100
AcDbCircle
 10
22.31383724
 20
-7.45140514
 30
0.0
 40
3.0
100
AcDbArc
 50
180.0
 51
270.0
  0
ARC
  5
2B8
100
AcDbEntity
  8
LAYER0001
  6
CONTINUOUS
 62
       7
100
AcDbCircle
 10
36.81383746
 20
18.05018227
 30
0.0
 40
2.99999974
100
AcDbArc
 50
280.00000361
 51
360.0
  0
ARC
  5
2B9
100
AcDbEntity
  8
LAYER0001
  6
CONTINUOUS
 62
       7
100
AcDbCircle
 10
44.8138376
 20
34.81475006
 30
0.0
 40
3.00000023
100
AcDbArc
 50
272.9999999
 51
360.0
  0
ARC
  5
2BA
100
AcDbEntity
  8
LAYER0001
  6
CONTINUOUS
 62
       7
100
AcDbCircle
 10
44.81383756
 20
79.63639041
 30
0.0
 40
3.00000028
100
AcDbArc
 50
0.0
 51
80.0000018
  0
ARC
  5
2BB
100
AcDbEntity
  8
LAYER0001
  6
CONTINUOUS
 62
       7
100
AcDbCircle
 10
40.31383761
 20
31.07411169
 30
0.0
 40
0.49999961
100
AcDbArc
 50
93.00002639
 51
180.0
  0
ARC
  5
2BC
100
AcDbEntity
  8
LAYER0001
  6
CONTINUOUS
 62
       7
100
AcDbCircle
 10
22.31383724
 20
106.54859286
 30
0.0
 40
3.0
100
AcDbArc
 50
90.0
 51
180.0
  0
ARC
  5
2BD
100
AcDbEntity
  8
LAYER0001
  6
CONTINUOUS
 62
       7
100
AcDbCircle
 10
161.94690142
 20
34.54859486
 30
0.0
 40
3.0
100
AcDbArc
 50
270.0
 51
360.0
  0
ARC
  5
2BE
100
AcDbEntity
  8
LAYER0001
  6
CONTINUOUS
 62
       7
100
AcDbCircle
 10
161.94690142
 20
81.79859486
 30
0.0
 40
3.0
100
AcDbArc
 50
0.0
 51
90.0
  0
ARC
  5
2BF
100
AcDbEntity
  8
LAYER0001
  6
CONTINUOUS
 62
       7
100
AcDbCircle
 10
124.94690142
 20
34.54859486
 30
0.0
 40
3.0
100
AcDbArc
 50
180.0
 51
270.0
  0
ARC
  5
2C0
100
AcDbEntity
  8
LAYER0001
  6
CONTINUOUS
 62
       7
100
AcDbCircle
 10
124.94690142
 20
81.79859486
 30
0.0
 40
3.0
100
AcDbArc
 50
90.0
 51
180.0
  0
ARC
  5
2C1
100
AcDbEntity
  8
LAYER0001
  6
CONTINUOUS
 62
       7
100
AcDbCircle
 10
161.94690142
 20
17.29859486
 30
0.0
 40
3.0
100
AcDbArc
 50
270.0
 51
360.0
  0
ARC
  5
2C2
100
AcDbEntity
  8
LAYER0001
  6
CONTINUOUS
 62
       7
100
AcDbCircle
 10
124.94690142
 20
17.29859486
 30
0.0
 40
3.0
100
AcDbArc
 50
180.0
 51
270.0
  0
ARC
  5
2C3
100
AcDbEntity
  8
LAYER0001
  6
CONTINUOUS
 62
       7
100
AcDbCircle
 10
145.84690142
 20
91.29859486
 30
0.0
 40
2.1
100
AcDbArc
 50
270.0
 51
450.0
  0
ARC
  5
2C4
100
AcDbEntity
  8
LAYER0001
  6
CONTINUOUS
 62
       7
100
AcDbCircle
 10
141.04690142
 20
91.29859533
 30
0.0
 40
2.10000047
100
AcDbArc
 50
90.00000311
 51
270.0
  0
ARC
  5
2C5
100
AcDbEntity
  8
LAYER0001
  6
CONTINUOUS
 62
       7
100
AcDbCircle
 10
145.84690137
 20
7.79859438
 30
0.0
 40
2.10000047
100
AcDbArc
 50
270.00000455
 51
450.00000455
  0
ARC
  5
2C6
100
AcDbEntity
  8
LAYER0001
  6
CONTINUOUS
 62
       7
100
AcDbCircle
 10
141.04690142
 20
7.79859407
 30
0.0
 40
2.10000016
100
AcDbArc
 50
90.00000754
 51
269.99999689
  0
ELLIPSE
  5
2C7
100
AcDbEntity
  8
LAYER0001
  6
CONTINUOUS
 62
       7
100
AcDbEllipse
 10
-44.77526579
 20
106.54756759
 30
0.0
 11
2.1227744398300388
 21
2.1227744398300388
 31
0.0
210
0.0
220
0.0
230
1.0
 40
0.999315
 41
5.4981297601108494
 42
7.0682408542483799
  0
ELLIPSE
  5
2C8
100
AcDbEntity
  8
LAYER0001
  6
CONTINUOUS
 62
       7
100
AcDbEllipse
 10
-108.77320903
 20
-7.45037565
 30
0.0
 11
-2.1227744398300956
 21
-2.1227744398300672
 31
0.0
210
0.0
220
0.0
230
1.0
 40
0.999315
 41
5.4981297601108325
 42
7.0682408367210332
  0
ELLIPSE
  5
2C9
100
AcDbEntity
  8
LAYER0001
  6
CONTINUOUS
 62
       7
100
AcDbEllipse
 10
-108.77320903
 20
106.54756759
 30
0.0
 11
-2.1227744398300814
 21
2.1227744398300388
 31
0.0
210
0.0
220
0.0
230
1.0
 40
0.999315
 41
5.4981297601108459
 42
7.068240854248339
  0
ELLIPSE
  5
2CA
100
AcDbEntity
  8
LAYER0001
  6
CONTINUOUS
 62
       7
100
AcDbEllipse
 10
-44.77526579
 20
-7.45037676
 30
0.0
 11
2.1227744398300388
 21
-2.122774439830053
 31
0.0
210
0.0
220
0.0
230
1.0
 40
0.999315
 41
5.4981297426501605
 42
7.068240854248339
  0
ELLIPSE
  5
2CB
100
AcDbEntity
  8
LAYER0001
  6
CONTINUOUS
 62
       7
100
AcDbEllipse
 10
175.44587304
 20
-7.45037777
 30
0.0
 11
1.0613870662286899
 21
-1.0613870662286189
 31
0.0
210
0.0
220
0.0
230
1.0
 40
0.999315
 41
5.4981297601100261
 42
7.068240854249022
  0
ELLIPSE
  5
2CC
100
AcDbEntity
  8
LAYER0001
  6
CONTINUOUS
 62
       7
100
AcDbEllipse
 10
175.44587304
 20
106.54756548
 30
0.0
 11
1.0613870662287468
 21
1.0613870662287184
 31
0.0
210
0.0
220
0.0
230
1.0
 40
0.999315
 41
5.4981297601101735
 42
7.0682408228598668
  0
ELLIPSE
  5
2CD
100
AcDbEntity
  8
LAYER0001
  6
CONTINUOUS
 62
       7
100
AcDbEllipse
 10
111.4479298
 20
-7.45037676
 30
0.0
 11
-1.0613877745678906
 21
-1.061387774567919
 31
0.0
210
0.0
220
0.0
230
1.0
 40
0.999315
 41
5.4981297601192392
 42
7.0682408542399164
  0
ELLIPSE
  5
2CE
100
AcDbEntity
  8
LAYER0001
  6
CONTINUOUS
 62
       7
100
AcDbEllipse
 10
111.4479298
 20
106.54756648
 30
0.0
 11
-1.0613877745678906
 21
1.0613877745680327
 31
0.0
210
0.0
220
0.0
230
1.0
 40
0.999315
 41
5.4981297286635211
 42
7.0682408542399555
  0
ELLIPSE
  5
2CF
100
AcDbEntity
  8
LAYER0001
  6
CONTINUOUS
 62
       7
100
AcDbEllipse
 10
111.4479298
 20
-7.45037676
 30
0.0
 11
-2.1227744398300956
 21
-2.1227744398300814
 31
0.0
210
0.0
220
0.0
230
1.0
 40
0.999315
 41
5.4981297601108183
 42
7.0682408384870872
  0
ELLIPSE
  5
2D0
100
AcDbEntity
  8
LAYER0001
  6
CONTINUOUS
 62
       7
100
AcDbEllipse
 10
111.4479298
 20
106.54756648
 30
0.0
 11
-2.1227744398300956
 21
2.1227744398300672
 31
0.0
210
0.0
220
0.0
230
1.0
 40
0.999315
 41
5.4981297444696908
 42
7.0682408542483355
  0
ELLIPSE
  5
2D1
100
AcDbEntity
  8
LAYER0001
  6
CONTINUOUS
 62
       7
100
AcDbEllipse
 10
175.44587304
 20
106.54756548
 30
0.0
 11
2.1227744398300388
 21
2.1227744398300956
 31
0.0
210
0.0
220
0.0
230
1.0
 40
0.999315
 41
5.4981297601441854
 42
7.0682408385537192
  0
ELLIPSE
  5
2D2
100
AcDbEntity
  8
LAYER0001
  6
CONTINUOUS
 62
       7
100
AcDbEllipse
 10
175.44587304
 20
-7.45037777
 30
0.0
 11
2.1227744398300956
 21
-2.1227744398300814
 31
0.0
210
0.0
220
0.0
230
1.0
 40
0.999315
 41
5.4981297444162207
 42
7.0682408542149888
  0
LINE
  5
2D3
100
AcDbEntity
  8
LAYER0001
  6
CENTER
 62
       7
100
AcDbLine
 10
-114.81601103
 20
49.54859597
 30
0.0
 11
-40.97320938
 21
49.54859597
 31
0.0
  0
LINE
  5
2D4
100
AcDbEntity
  8
LAYER0001
  6
CENTER
 62
       7
100
AcDbLine
 10
-76.77423741
 20
115.40437031
 30
0.0
 11
-76.77423741
 21
-14.93159022
 31
0.0
  0
LINE
  5
2D5
100
AcDbEntity
  8
LAYER0001
  6
CENTER
 62
       7
100
AcDbLine
 10
15.61266691
 20
49.54859386
 30
0.0
 11
50.3158984
 21
49.54859386
 31
0.0
  0
LINE
  5
2D6
100
AcDbEntity
  8
LAYER0001
  6
CENTER
 62
       7
100
AcDbLine
 10
181.96301829
 20
49.54859486
 30
0.0
 11
103.89452317
 21
49.54859486
 31
0.0
  0
LINE
  5
2D7
100
AcDbEntity
  8
LAYER0001
  6
CENTER
 62
       7
100
AcDbLine
 10
143.44690142
 20
115.06060316
 30
0.0
 11
143.44690142
 21
-22.05970238
 31
0.0
  0
INSERT
  5
2D8
100
AcDbEntity
  8
LAYER0001
  6
CONTINUOUS
100
AcDbBlockReference
  2
GROUP_1
 10
0.0
 20
0.0
 30
0.0
  0
INSERT
  5
2D9
100
AcDbEntity
  8
LAYER0001
  6
CONTINUOUS
100
AcDbBlockReference
  2
GROUP_2
 10
0.0
 20
0.0
 30
0.0
  0
INSERT
  5
2DA
100
AcDbEntity
  8
LAYER0001
  6
CONTINUOUS
100
AcDbBlockReference
  2
GROUP_3
 10
0.0
 20
0.0
 30
0.0
  0
INSERT
  5
2DB
100
AcDbEntity
  8
LAYER0001
  6
CONTINUOUS
100
AcDbBlockReference
  2
GROUP_4
 10
0.0
 20
0.0
 30
0.0
  0
INSERT
  5
2DC
100
AcDbEntity
  8
LAYER0001
  6
CONTINUOUS
100
AcDbBlockReference
  2
GROUP_5
 10
0.0
 20
0.0
 30
0.0
  0
INSERT
  5
2DD
100
AcDbEntity
  8
LAYER0001
  6
CONTINUOUS
100
AcDbBlockReference
  2
GROUP_6
 10
0.0
 20
0.0
 30
0.0
  0
INSERT
  5
2DE
100
AcDbEntity
  8
LAYER0001
  6
CONTINUOUS
100
AcDbBlockReference
  2
GROUP_7
 10
0.0
 20
0.0
 30
0.0
  0
INSERT
  5
2DF
100
AcDbEntity
  8
LAYER0001
  6
CONTINUOUS
100
AcDbBlockReference
  2
GROUP_8
 10
0.0
 20
0.0
 30
0.0
  0
INSERT
  5
2E0
100
AcDbEntity
  8
LAYER0001
  6
CONTINUOUS
100
AcDbBlockReference
  2
GROUP_9
 10
0.0
 20
0.0
 30
0.0
  0
TEXT
  5
2E1
100
AcDbEntity
  8
LAYER0001
 62
       7
100
AcDbText
 10
161.31659086
 20
-45.51005553
 30
0.0
 40
5.29166667
  1
000
 72
       5
 11
177.19159086
 21
-45.51005553
 31
0.0
100
AcDbText
  0
ENDSEC
  0
SECTION
  2
OBJECTS
  0
DICTIONARY
  5
19
100
AcDbDictionary
  3
ACAD_GROUP
350
1A
  3
ACAD_MLINESTYLE
350
1B
  0
DICTIONARY
  5
1A
102
{ACAD_REACTORS
330
19
102
}
100
AcDbDictionary
  0
DICTIONARY
  5
1B
102
{ACAD_REACTORS
330
19
102
}
100
AcDbDictionary
  3
STANDARD
350
1C
  0
MLINESTYLE
  5
1C
102
{ACAD_REACTORS
330
1B
102
}
100
AcDbMlineStyle
  2
STANDARD
 70
       0
  3

 62
       0
 51
90.0
 52
90.0
 71
       2
 49
0.5
 62
     256
  6
BYLAYER
 49
-0.5
 62
     256
  6
BYLAYER
  0
ENDSEC
  0
EOF

