  0
SECTION
  2
HEADER
  9
$ACADVER
  1
AC1014
  9
$ACADMAINTVER
 70
       0
  9
$DWGCODEPAGE
  3
ANSI_932
  9
$INSBASE
 10
0.0
 20
0.0
 30
0.0
  9
$EXTMIN
 10
-297.29017115
 20
-253.28211641
 30
0.0
  9
$EXTMAX
 10
287.31813445
 20
249.29588292
 30
0.0
  9
$LIMMIN
 10
-315.5591807
 20
-268.98767889
  9
$LIMMAX
 10
305.587144
 20
265.0014454
  9
$ORTHOMODE
 70
       0
  9
$REGENMODE
 70
       1
  9
$FILLMODE
 70
       1
  9
$QTEXTMODE
 70
       0
  9
$MIRRTEXT
 70
       1
  9
$DRAGMODE
 70
       2
  9
$LTSCALE
 40
1.0
  9
$OSMODE
 70
       0
  9
$ATTMODE
 70
       1
  9
$TEXTSIZE
 40
0.2
  9
$TRACEWID
 40
0.05
  9
$TEXTSTYLE
  7
STANDARD
  9
$CLAYER
  8
0
  9
$CELTYPE
  6
CONTINUOUS
  9
$CECOLOR
 62
     256
  9
$CELTSCALE
 40
1.0
  9
$DELOBJ
 70
       1
  9
$DISPSILH
 70
       0
  9
$DIMSCALE
 40
1.0
  9
$DIMASZ
 40
0.18
  9
$DIMEXO
 40
0.0625
  9
$DIMDLI
 40
0.38
  9
$DIMRND
 40
0.0
  9
$DIMDLE
 40
0.0
  9
$DIMEXE
 40
0.18
  9
$DIMTP
 40
0.0
  9
$DIMTM
 40
0.0
  9
$DIMTXT
 40
0.18
  9
$DIMCEN
 40
0.09
  9
$DIMTSZ
 40
0.0
  9
$DIMTOL
 70
       0
  9
$DIMLIM
 70
       0
  9
$DIMTIH
 70
       1
  9
$DIMTOH
 70
       1
  9
$DIMSE1
 70
       0
  9
$DIMSE2
 70
       0
  9
$DIMTAD
 70
       0
  9
$DIMZIN
 70
       0
  9
$DIMBLK
  1

  9
$DIMASO
 70
       1
  9
$DIMSHO
 70
       1
  9
$DIMPOST
  1

  9
$DIMAPOST
  1

  9
$DIMALT
 70
       0
  9
$DIMALTD
 70
       2
  9
$DIMALTF
 40
25.4
  9
$DIMLFAC
 40
1.0
  9
$DIMTOFL
 70
       0
  9
$DIMTVP
 40
0.0
  9
$DIMTIX
 70
       0
  9
$DIMSOXD
 70
       0
  9
$DIMSAH
 70
       0
  9
$DIMBLK1
  1

  9
$DIMBLK2
  1

  9
$DIMSTYLE
  2
STANDARD
  9
$DIMCLRD
 70
       0
  9
$DIMCLRE
 70
       0
  9
$DIMCLRT
 70
       0
  9
$DIMTFAC
 40
1.0
  9
$DIMGAP
 40
0.09
  9
$DIMJUST
 70
       0
  9
$DIMSD1
 70
       0
  9
$DIMSD2
 70
       0
  9
$DIMTOLJ
 70
       1
  9
$DIMTZIN
 70
       0
  9
$DIMALTZ
 70
       0
  9
$DIMALTTZ
 70
       0
  9
$DIMFIT
 70
       3
  9
$DIMUPT
 70
       0
  9
$DIMUNIT
 70
       2
  9
$DIMDEC
 70
       4
  9
$DIMTDEC
 70
       4
  9
$DIMALTU
 70
       2
  9
$DIMALTTD
 70
       2
  9
$DIMTXSTY
  7
STANDARD
  9
$DIMAUNIT
 70
       0
  9
$LUNITS
 70
       2
  9
$LUPREC
 70
       4
  9
$SKETCHINC
 40
0.1
  9
$FILLETRAD
 40
0.0
  9
$AUNITS
 70
       0
  9
$AUPREC
 70
       0
  9
$MENU
  1
acad
  9
$ELEVATION
 40
0.0
  9
$PELEVATION
 40
0.0
  9
$THICKNESS
 40
0.0
  9
$LIMCHECK
 70
       0
  9
$BLIPMODE
 70
       1
  9
$CHAMFERA
 40
0.0
  9
$CHAMFERB
 40
0.0
  9
$CHAMFERC
 40
0.0
  9
$CHAMFERD
 40
0.0
  9
$SKPOLY
 70
       0
  9
$TDCREATE
 40
0.000000000
  9
$TDUPDATE
 40
0.000000000
  9
$TDINDWG
 40
0.0000000000
  9
$TDUSRTIMER
 40
0.0000000000
  9
$USRTIMER
 70
       1
  9
$ANGBASE
 50
0.0
  9
$ANGDIR
 70
       0
  9
$PDMODE
 70
       0
  9
$PDSIZE
 40
1.0
  9
$PLINEWID
 40
0.0
  9
$COORDS
 70
       1
  9
$SPLFRAME
 70
       0
  9
$SPLINETYPE
 70
       6
  9
$SPLINESEGS
 70
       8
  9
$ATTDIA
 70
       0
  9
$ATTREQ
 70
       1
  9
$HANDLING
 70
       1
  9
$HANDSEED
  5
257
  9
$SURFTAB1
 70
       6
  9
$SURFTAB2
 70
       6
  9
$SURFTYPE
 70
       6
  9
$SURFU
 70
       6
  9
$SURFV
 70
       6
  9
$UCSNAME
  2

  9
$UCSORG
 10
0.0
 20
0.0
 30
0.0
  9
$UCSXDIR
 10
1.0
 20
0.0
 30
0.0
  9
$UCSYDIR
 10
0.0
 20
1.0
 30
0.0
  9
$PUCSNAME
  2

  9
$PUCSORG
 10
0.0
 20
0.0
 30
0.0
  9
$PUCSXDIR
 10
1.0
 20
0.0
 30
0.0
  9
$PUCSYDIR
 10
0.0
 20
1.0
 30
0.0
  9
$USERI1
 70
       0
  9
$USERI2
 70
       0
  9
$USERI3
 70
       0
  9
$USERI4
 70
       0
  9
$USERI5
 70
       0
  9
$USERR1
 40
0.0
  9
$USERR2
 40
0.0
  9
$USERR3
 40
0.0
  9
$USERR4
 40
0.0
  9
$USERR5
 40
0.0
  9
$WORLDVIEW
 70
       1
  9
$SHADEDGE
 70
       3
  9
$SHADEDIF
 70
      70
  9
$TILEMODE
 70
       1
  9
$MAXACTVP
 70
      16
  9
$PINSBASE
 10
0.0
 20
0.0
 30
0.0
  9
$PLIMCHECK
 70
       0
  9
$PEXTMIN
 10
1.00000000E+20
 20
1.00000000E+20
 30
1.00000000E+20
  9
$PEXTMAX
 10
-1.00000000E+20
 20
-1.00000000E+20
 30
-1.00000000E+20
  9
$PLIMMIN
 10
0.0
 20
0.0
  9
$PLIMMAX
 10
12.0
 20
9.0
  9
$UNITMODE
 70
       0
  9
$VISRETAIN
 70
       0
  9
$PLINEGEN
 70
       1
  9
$PSLTSCALE
 70
       0
  9
$TREEDEPTH
 70
    3020
  9
$PICKSTYLE
 70
       1
  9
$CMLSTYLE
  2
STANDARD
  9
$CMLJUST
 70
       0
  9
$CMLSCALE
 40
1.0
  9
$PROXYGRAPHICS
 70
       0
  9
$MEASUREMENT
 70
       0
  0
ENDSEC
  0
SECTION
  2
CLASSES
  0
CLASS
  1
LWPOLYLINE
  2
AcDbPolyline
  3
"AutoCAD"
 90
        0
280
       0
281
       1
  0
CLASS
  1
IMAGE
  2
AcDbRasterImage
  3
ISM
 90
      127
280
       0
281
       1
  0
CLASS
  1
OLE2FRAME
  2
AcDbOle2Frame
  3
""
 90
        0
280
       0
281
       1
  0
CLASS
  1
HATCH
  2
AcDbHatch
  3
"ACAD_SEDONA"
 90
        0
280
       0
281
       1
  0
CLASS
  1
DICTIONARYVAR
  2
AcDbDictionaryVar
  3
"AutoCAD"
 90
        0
280
       0
281
       0
  0
CLASS
  1
RASTERVARIABLES
  2
AcDbRasterVariables
  3
ISM
 90
        0
280
       0
281
       0
  0
CLASS
  1
IMAGEDEF
  2
AcDbRasterImageDef
  3
ISM
 90
        0
280
       0
281
       0
  0
CLASS
  1
IMAGEDEF_REACTOR
  2
AcDbRasterImageDefReactor
  3
ISM
 90
        1
280
       0
281
       0
  0
CLASS
  1
IDBUFFER
  2
AcDbIdBuffer
  3
"Acad"
 90
        0
280
       0
281
       0
  0
CLASS
  1
SPATIAL_FILTER
  2
AcDbSpatialFilter
  3
"Acad"
 90
        0
280
       0
281
       0
  0
CLASS
  1
XRECORD
  2
AcDbXrecord
  3
"<Built In>"
 90
        0
280
       0
281
       0
  0
CLASS
  1
SORTENTSTABLE
  2
AcDbSortentsTable
  3
"AutoCAD"
 90
        0
280
       0
281
       0
  0
CLASS
  1
LAYER_INDEX
  2
AcDbLayerIndex
  3
"Acad"
 90
        0
280
       0
281
       0
  0
CLASS
  1
SPATIAL_INDEX
  2
AcDbSpatialIndex
  3
"Acad"
 90
        0
280
       0
281
       0
  0
CLASS
  1
OBJECT_PTR
  2
CAseDLPNTableRecord
  3
"ASE-LPNTableRecord"
 90
        1
280
       0
281
       0
  0
CLASS
  1
LAYOUT
  2
AcDbLayout
  3
"AutoCAD 2000"
 90
        1
280
       0
281
       0
  0
CLASS
  1
PLOTSETTINGS
  2
AcDbPlotSettings
  3
"AutoCAD 2000"
 90
        1
280
       0
281
       0
  0
CLASS
  1
ACDBDICTIONARYWDFLT
  2
AcDbDictionaryWithDefault
  3
"AutoCAD 2000"
 90
        1
280
       0
281
       0
  0
CLASS
  1
ACDBPLACEHOLDER
  2
AcDbPlaceHolder
  3
"AutoCAD 2000"
 90
        1
280
       0
281
       0
  0
CLASS
  1
VBA_PROJECT
  2
AcDbVbaProject
  3
"acadvba"
 90
        1
280
       0
281
       0
  0
CLASS
  1
WIPEOUT
  2
AcDbWipeout
  3
WipeOut|AutoCAD Express Tool|expresstools@autodesk.com
 90
      127
280
       0
281
       1
  0
CLASS
  1
WIPEOUTVARIABLES
  2
AcDbWipeoutVariables
  3
WipeOut|AutoCAD Express Tool|expresstools@autodesk.com
 90
        0
280
       0
281
       0
  0
CLASS
  1
RTEXT
  2
RText
  3
RText|AutoCAD Express Tool|expresstools@autodesk.com
 90
        0
280
       0
281
       1
  0
CLASS
  1
ARCALIGNEDTEXT
  2
AcDbArcAlignedText
  3
ATEXT|AutoCAD Express Tool|expresstools@autodesk.com
 90
        0
280
       0
281
       1
  0
ENDSEC
  0
SECTION
  2
TABLES
  0
TABLE
  2
VPORT
  5
7
100
AcDbSymbolTable
 70
       1
  0
VPORT
  5
15
100
AcDbSymbolTableRecord
100
AcDbViewportTableRecord
  2
*ACTIVE
 70
       0
 10
0.0
 20
0.0
 11
1.0
 21
1.0
 12
-4.98601835
 22
-1.99311674
 13
0.0
 23
0.0
 14
1.0
 24
1.0
 15
0.0
 25
0.0
 16
0.0
 26
0.0
 36
1.0
 17
0.0
 27
0.0
 37
0.0
 40
533.98912429
 41
1.16321906
 42
50.0
 43
0.0
 44
0.0
 50
0.0
 51
0.0
 71
       0
 72
     100
 73
       1
 74
       1
 75
       0
 76
       0
 77
       0
 78
       0
  0
ENDTAB
  0
TABLE
  2
LTYPE
  5
4
100
AcDbSymbolTable
 70
      30
  0
LTYPE
  5
11
100
AcDbSymbolTableRecord
100
AcDbLinetypeTableRecord
  2
BYBLOCK
 70
      64
  3

 72
      65
 73
       0
 40
0.0
  0
LTYPE
  5
12
100
AcDbSymbolTableRecord
100
AcDbLinetypeTableRecord
  2
BYLAYER
 70
      64
  3

 72
      65
 73
       0
 40
0.0
  0
LTYPE
  5
13
100
AcDbSymbolTableRecord
100
AcDbLinetypeTableRecord
  2
CONTINUOUS
 70
      64
  3
Solid line
 72
      65
 73
       0
 40
0.0
  0
LTYPE
  5
1D
100
AcDbSymbolTableRecord
100
AcDbLinetypeTableRecord
  2
HIDDENX2
 70
      64
  3
CADPAC LINETYPE
 72
      65
 73
       2
 40
28.18720686
 49
21.14040515
 74
       0
 49
-7.04680172
 74
       0
  0
LTYPE
  5
1E
100
AcDbSymbolTableRecord
100
AcDbLinetypeTableRecord
  2
HIDDEN
 70
      64
  3
CADPAC LINETYPE
 72
      65
 73
       2
 40
21.14040515
 49
14.09360343
 74
       0
 49
-7.04680172
 74
       0
  0
LTYPE
  5
1F
100
AcDbSymbolTableRecord
100
AcDbLinetypeTableRecord
  2
HIDDEN2
 70
      64
  3
CADPAC LINETYPE
 72
      65
 73
       2
 40
17.61700429
 49
10.57020257
 74
       0
 49
-7.04680172
 74
       0
  0
LTYPE
  5
20
100
AcDbSymbolTableRecord
100
AcDbLinetypeTableRecord
  2
DASHED
 70
      64
  3
CADPAC LINETYPE
 72
      65
 73
       2
 40
21.14040515
 49
14.09360343
 74
       0
 49
-7.04680172
 74
       0
  0
LTYPE
  5
21
100
AcDbSymbolTableRecord
100
AcDbLinetypeTableRecord
  2
DASHED2
 70
      64
  3
CADPAC LINETYPE
 72
      65
 73
       2
 40
15.85530386
 49
10.57020257
 74
       0
 49
-5.28510129
 74
       0
  0
LTYPE
  5
22
100
AcDbSymbolTableRecord
100
AcDbLinetypeTableRecord
  2
DASHEDX2
 70
      64
  3
CADPAC LINETYPE
 72
      65
 73
       2
 40
31.71060772
 49
21.14040515
 74
       0
 49
-10.57020257
 74
       0
  0
LTYPE
  5
23
100
AcDbSymbolTableRecord
100
AcDbLinetypeTableRecord
  2
DOTX2
 70
      64
  3
CADPAC LINETYPE
 72
      65
 73
       2
 40
8.80850215
 49
0.0
 74
       0
 49
-8.80850215
 74
       0
  0
LTYPE
  5
24
100
AcDbSymbolTableRecord
100
AcDbLinetypeTableRecord
  2
DOT
 70
      64
  3
CADPAC LINETYPE
 72
      65
 73
       2
 40
7.04680172
 49
0.0
 74
       0
 49
-7.04680172
 74
       0
  0
LTYPE
  5
25
100
AcDbSymbolTableRecord
100
AcDbLinetypeTableRecord
  2
DOT2
 70
      64
  3
CADPAC LINETYPE
 72
      65
 73
       2
 40
5.28510129
 49
0.0
 74
       0
 49
-5.28510129
 74
       0
  0
LTYPE
  5
26
100
AcDbSymbolTableRecord
100
AcDbLinetypeTableRecord
  2
CENTERX2
 70
      64
  3
CADPAC LINETYPE
 72
      65
 73
       4
 40
42.2808103
 49
17.61700429
 74
       0
 49
-8.80850215
 74
       0
 49
7.04680172
 74
       0
 49
-8.80850215
 74
       0
  0
LTYPE
  5
27
100
AcDbSymbolTableRecord
100
AcDbLinetypeTableRecord
  2
CENTER
 70
      64
  3
CADPAC LINETYPE
 72
      65
 73
       4
 40
32.41528789
 49
14.09360343
 74
       0
 49
-7.04680172
 74
       0
 49
4.22808103
 74
       0
 49
-7.04680172
 74
       0
  0
LTYPE
  5
28
100
AcDbSymbolTableRecord
100
AcDbLinetypeTableRecord
  2
CENTER2
 70
      64
  3
CADPAC LINETYPE
 72
      65
 73
       4
 40
22.54976549
 49
10.57020257
 74
       0
 49
-5.28510129
 74
       0
 49
1.40936034
 74
       0
 49
-5.28510129
 74
       0
  0
LTYPE
  5
29
100
AcDbSymbolTableRecord
100
AcDbLinetypeTableRecord
  2
DASHDOTX2
 70
      64
  3
CADPAC LINETYPE
 72
      65
 73
       4
 40
35.23400858
 49
17.61700429
 74
       0
 49
-8.80850215
 74
       0
 49
0.0
 74
       0
 49
-8.80850215
 74
       0
  0
LTYPE
  5
2A
100
AcDbSymbolTableRecord
100
AcDbLinetypeTableRecord
  2
DASHDOT
 70
      64
  3
CADPAC LINETYPE
 72
      65
 73
       4
 40
28.18720686
 49
14.09360343
 74
       0
 49
-7.04680172
 74
       0
 49
0.0
 74
       0
 49
-7.04680172
 74
       0
  0
LTYPE
  5
2B
100
AcDbSymbolTableRecord
100
AcDbLinetypeTableRecord
  2
DASHDOT2
 70
      64
  3
CADPAC LINETYPE
 72
      65
 73
       4
 40
21.14040515
 49
10.57020257
 74
       0
 49
-5.28510129
 74
       0
 49
0.0
 74
       0
 49
-5.28510129
 74
       0
  0
LTYPE
  5
2C
100
AcDbSymbolTableRecord
100
AcDbLinetypeTableRecord
  2
DIVIDEX2
 70
      64
  3
CADPAC LINETYPE
 72
      65
 73
       6
 40
44.04251073
 49
17.61700429
 74
       0
 49
-8.80850215
 74
       0
 49
0.0
 74
       0
 49
-8.80850215
 74
       0
 49
0.0
 74
       0
 49
-8.80850215
 74
       0
  0
LTYPE
  5
2D
100
AcDbSymbolTableRecord
100
AcDbLinetypeTableRecord
  2
DIVIDE
 70
      64
  3
CADPAC LINETYPE
 72
      65
 73
       6
 40
35.23400858
 49
14.09360343
 74
       0
 49
-7.04680172
 74
       0
 49
0.0
 74
       0
 49
-7.04680172
 74
       0
 49
0.0
 74
       0
 49
-7.04680172
 74
       0
  0
LTYPE
  5
2E
100
AcDbSymbolTableRecord
100
AcDbLinetypeTableRecord
  2
DIVIDE2
 70
      64
  3
CADPAC LINETYPE
 72
      65
 73
       6
 40
26.42550644
 49
10.57020257
 74
       0
 49
-5.28510129
 74
       0
 49
0.0
 74
       0
 49
-5.28510129
 74
       0
 49
0.0
 74
       0
 49
-5.28510129
 74
       0
  0
LTYPE
  5
2F
100
AcDbSymbolTableRecord
100
AcDbLinetypeTableRecord
  2
BORDERX2
 70
      64
  3
CADPAC LINETYPE
 72
      65
 73
       6
 40
61.65951502
 49
17.61700429
 74
       0
 49
-8.80850215
 74
       0
 49
17.61700429
 74
       0
 49
-8.80850215
 74
       0
 49
0.0
 74
       0
 49
-8.80850215
 74
       0
  0
LTYPE
  5
30
100
AcDbSymbolTableRecord
100
AcDbLinetypeTableRecord
  2
BORDER
 70
      64
  3
CADPAC LINETYPE
 72
      65
 73
       6
 40
49.32761201
 49
14.09360343
 74
       0
 49
-7.04680172
 74
       0
 49
14.09360343
 74
       0
 49
-7.04680172
 74
       0
 49
0.0
 74
       0
 49
-7.04680172
 74
       0
  0
LTYPE
  5
31
100
AcDbSymbolTableRecord
100
AcDbLinetypeTableRecord
  2
BORDER2
 70
      64
  3
CADPAC LINETYPE
 72
      65
 73
       6
 40
36.99570901
 49
10.57020257
 74
       0
 49
-5.28510129
 74
       0
 49
10.57020257
 74
       0
 49
-5.28510129
 74
       0
 49
0.0
 74
       0
 49
-5.28510129
 74
       0
  0
LTYPE
  5
32
100
AcDbSymbolTableRecord
100
AcDbLinetypeTableRecord
  2
PHANTOMX2
 70
      64
  3
CADPAC LINETYPE
 72
      65
 73
       6
 40
52.85101287
 49
17.61700429
 74
       0
 49
-7.04680172
 74
       0
 49
7.04680172
 74
       0
 49
-7.04680172
 74
       0
 49
7.04680172
 74
       0
 49
-7.04680172
 74
       0
  0
LTYPE
  5
33
100
AcDbSymbolTableRecord
100
AcDbLinetypeTableRecord
  2
PHANTOM
 70
      64
  3
CADPAC LINETYPE
 72
      65
 73
       6
 40
43.69017064
 49
14.09360343
 74
       0
 49
-7.04680172
 74
       0
 49
4.22808103
 74
       0
 49
-7.04680172
 74
       0
 49
4.22808103
 74
       0
 49
-7.04680172
 74
       0
  0
LTYPE
  5
34
100
AcDbSymbolTableRecord
100
AcDbLinetypeTableRecord
  2
PHANTOM2
 70
      64
  3
CADPAC LINETYPE
 72
      65
 73
       6
 40
37.3480491
 49
10.57020257
 74
       0
 49
-7.04680172
 74
       0
 49
2.81872069
 74
       0
 49
-7.04680172
 74
       0
 49
2.81872069
 74
       0
 49
-7.04680172
 74
       0
  0
LTYPE
  5
35
100
AcDbSymbolTableRecord
100
AcDbLinetypeTableRecord
  2
ACAD_ISO06W100
 70
      64
  3
CADPAC LINETYPE
 72
      65
 73
       8
 40
47.56591158
 49
17.61700429
 74
       0
 49
-8.80850215
 74
       0
 49
0.0
 74
       0
 49
-7.04680172
 74
       0
 49
0.0
 74
       0
 49
-7.04680172
 74
       0
 49
0.0
 74
       0
 49
-7.04680172
 74
       0
  0
LTYPE
  5
36
100
AcDbSymbolTableRecord
100
AcDbLinetypeTableRecord
  2
ACAD_ISO13W100
 70
      64
  3
CADPAC LINETYPE
 72
      65
 73
       8
 40
56.37441373
 49
14.09360343
 74
       0
 49
-7.04680172
 74
       0
 49
14.09360343
 74
       0
 49
-7.04680172
 74
       0
 49
0.0
 74
       0
 49
-7.04680172
 74
       0
 49
0.0
 74
       0
 49
-7.04680172
 74
       0
  0
LTYPE
  5
37
100
AcDbSymbolTableRecord
100
AcDbLinetypeTableRecord
  2
ACAD_ISO14W100
 70
      64
  3
CADPAC LINETYPE
 72
      65
 73
       8
 40
42.2808103
 49
14.09360343
 74
       0
 49
-7.04680172
 74
       0
 49
0.0
 74
       0
 49
-7.04680172
 74
       0
 49
0.0
 74
       0
 49
-7.04680172
 74
       0
 49
0.0
 74
       0
 49
-7.04680172
 74
       0
  0
ENDTAB
  0
TABLE
  2
LAYER
  5
2
100
AcDbSymbolTable
 70
       2
  0
LAYER
  5
14
100
AcDbSymbolTableRecord
100
AcDbLayerTableRecord
  2
0
 70
       0
 62
       7
  6
CONTINUOUS
  0
LAYER
  5
38
100
AcDbSymbolTableRecord
100
AcDbLayerTableRecord
  2
LAYER0005
 70
       0
 62
       7
  6
CONTINUOUS
  0
ENDTAB
  0
TABLE
  2
STYLE
  5
3
100
AcDbSymbolTable
 70
       1
  0
STYLE
  5
17
100
AcDbSymbolTableRecord
100
AcDbTextStyleTableRecord
  2
STANDARD
 70
       0
 40
0.0
 41
1.0
 50
0.0
 71
       0
 42
12.7
  3
txt.shx
  4
bigfont.shx
  0
ENDTAB
  0
TABLE
  2
VIEW
  5
5
100
AcDbSymbolTable
 70
       1
  0
VIEW
  5
39
100
AcDbSymbolTableRecord
100
AcDbViewTableRecord
  2
QQQQ
 70
       0
 40
533.98912429
 10
-4.98601835
 20
-1.99311674
 41
621.1463247
 11
0.0
 21
0.0
 31
1.0
 12
100.0
 22
100.0
 32
0.0
 42
50.0
 43
0.0
 44
0.0
 50
0.0
 71
       0
  0
ENDTAB
  0
TABLE
  2
UCS
  5
6
100
AcDbSymbolTable
 70
       0
  0
ENDTAB
  0
TABLE
  2
APPID
  5
8
100
AcDbSymbolTable
 70
       1
  0
APPID
  5
16
100
AcDbSymbolTableRecord
100
AcDbRegAppTableRecord
  2
ACAD
 70
       0
  0
ENDTAB
  0
TABLE
  2
DIMSTYLE
  5
9
100
AcDbSymbolTable
 70
       1
  0
DIMSTYLE
105
18
100
AcDbSymbolTableRecord
100
AcDbDimStyleTableRecord
  2
STANDARD
 70
       0
  3

  4

  5

  6

  7

 40
1.0
 41
0.18
 42
0.0625
 43
0.38
 44
0.18
 45
0.0
 46
0.0
 47
0.0
 48
0.0
 71
       0
 72
       0
 73
       1
 74
       1
 75
       0
 76
       0
 77
       0
 78
       0
140
0.18
141
0.09
142
0.0
143
25.4
144
1.0
145
0.0
146
1.0
147
0.09
170
       0
171
       2
172
       0
173
       0
174
       0
175
       0
176
       0
177
       0
178
       0
270
       2
271
       4
272
       4
273
       2
274
       2
275
       0
280
       0
281
       0
282
       0
283
       1
284
       0
285
       0
286
       0
287
       0
288
       0
340
17
  0
ENDTAB
  0
TABLE
  2
BLOCK_RECORD
  5
1
100
AcDbSymbolTable
 70
       0
  0
BLOCK_RECORD
  5
A
100
AcDbSymbolTableRecord
100
AcDbBlockTableRecord
  2
*MODEL_SPACE
  0
BLOCK_RECORD
  5
B
100
AcDbSymbolTableRecord
100
AcDbBlockTableRecord
  2
*PAPER_SPACE
  0
ENDTAB
  0
ENDSEC
  0
SECTION
  2
BLOCKS
  0
BLOCK
  5
D
100
AcDbEntity
  8
0
100
AcDbBlockBegin
  2
*MODEL_SPACE
 70
       0
 10
0.0
 20
0.0
 30
0.0
  3
*MODEL_SPACE
  1

  0
ENDBLK
  5
E
100
AcDbEntity
  8
0
100
AcDbBlockEnd
  0
BLOCK
  5
F
100
AcDbEntity
 67
       1
  8
0
100
AcDbBlockBegin
  2
*PAPER_SPACE
 70
       0
 10
0.0
 20
0.0
 30
0.0
  3
*PAPER_SPACE
  1

  0
ENDBLK
  5
10
100
AcDbEntity
 67
       1
  8
0
100
AcDbBlockEnd
  0
ENDSEC
  0
SECTION
  2
ENTITIES
  0
LINE
  5
3A
100
AcDbEntity
  8
LAYER0005
  6
CENTERX2
 62
       7
100
AcDbLine
 10
-286.04770373
 20
-96.2724893
 30
0.0
 11
-135.27768337
 21
-96.2724893
 31
0.0
  0
LINE
  5
3B
100
AcDbEntity
  8
LAYER0005
  6
CENTERX2
 62
       7
100
AcDbLine
 10
-209.04474618
 20
-16.70379515
 30
0.0
 11
-209.04474618
 21
-175.50544156
 31
0.0
  0
LINE
  5
3C
100
AcDbEntity
  8
LAYER0005
  6
CENTERX2
 62
       7
100
AcDbLine
 10
-14.51201543
 20
-177.61667796
 30
0.0
 11
100.01416366
 21
-177.61667796
 31
0.0
  0
LINE
  5
3D
100
AcDbEntity
  8
LAYER0005
  6
CENTERX2
 62
       7
100
AcDbLine
 10
43.19263764
 20
-145.03827599
 30
0.0
 11
43.19263764
 21
-211.09815825
 31
0.0
  0
LINE
  5
3E
100
AcDbEntity
  8
LAYER0005
  6
CENTERX2
 62
       7
100
AcDbLine
 10
-209.04474618
 20
53.7385692
 30
0.0
 11
-209.04474618
 21
236.36017844
 31
0.0
  0
LINE
  5
3F
100
AcDbEntity
  8
LAYER0005
  6
CENTERX2
 62
       7
100
AcDbLine
 10
119.97225803
 20
-40.7777663
 30
0.0
 11
276.07566703
 21
-40.7777663
 31
0.0
  0
LINE
  5
40
100
AcDbEntity
  8
LAYER0005
  6
CENTERX2
 62
       7
100
AcDbLine
 10
198.37561782
 20
39.6309214
 30
0.0
 11
198.37561782
 21
-118.98718318
 31
0.0
  0
LINE
  5
41
100
AcDbEntity
  8
LAYER0005
  6
CONTINUOUS
 62
       7
100
AcDbLine
 10
8.19263764
 20
-152.61667796
 30
0.0
 11
8.19263764
 21
-202.61667796
 31
0.0
  0
LINE
  5
42
100
AcDbEntity
  8
LAYER0005
  6
CONTINUOUS
 62
       7
100
AcDbLine
 10
-6.80736236
 20
-152.61667796
 30
0.0
 11
93.19263764
 21
-152.61667796
 31
0.0
  0
LINE
  5
43
100
AcDbEntity
  8
LAYER0005
  6
CONTINUOUS
 62
       7
100
AcDbLine
 10
-132.39565135
 20
41.5478979
 30
0.0
 11
-114.83474061
 21
41.5478979
 31
0.0
  0
LINE
  5
44
100
AcDbEntity
  8
LAYER0005
  6
CONTINUOUS
 62
       7
100
AcDbLine
 10
-59.77470357
 20
56.40899581
 30
0.0
 11
-114.83397349
 21
56.40899581
 31
0.0
  0
LINE
  5
45
100
AcDbEntity
  8
LAYER0005
  6
CONTINUOUS
 62
       7
100
AcDbLine
 10
-113.76574385
 20
-70.02018547
 30
0.0
 11
-113.76574385
 21
-45.31872309
 31
0.0
  0
LINE
  5
46
100
AcDbEntity
  8
LAYER0005
  6
CONTINUOUS
 62
       7
100
AcDbLine
 10
-113.76574385
 20
-70.02018547
 30
0.0
 11
-126.78508863
 21
-92.36451862
 31
0.0
  0
LINE
  5
47
100
AcDbEntity
  8
LAYER0005
  6
CONTINUOUS
 62
       7
100
AcDbLine
 10
-113.76574385
 20
-122.85305348
 30
0.0
 11
-126.79204334
 21
-100.40763946
 31
0.0
  0
LINE
  5
48
100
AcDbEntity
  8
LAYER0005
  6
CONTINUOUS
 62
       7
100
AcDbLine
 10
-95.8009595
 20
-64.39835525
 30
0.0
 11
-113.78838895
 21
-64.39835525
 31
0.0
  0
LINE
  5
49
100
AcDbEntity
  8
LAYER0005
  6
CONTINUOUS
 62
       7
100
AcDbLine
 10
-6.80736236
 20
-152.61667796
 30
0.0
 11
-6.80736236
 21
-202.61667796
 31
0.0
  0
LINE
  5
4A
100
AcDbEntity
  8
LAYER0005
  6
CONTINUOUS
 62
       7
100
AcDbLine
 10
-6.80736236
 20
-202.61667796
 30
0.0
 11
93.19263764
 21
-202.61667796
 31
0.0
  0
LINE
  5
4B
100
AcDbEntity
  8
LAYER0005
  6
CONTINUOUS
 62
       7
100
AcDbLine
 10
93.19263764
 20
-152.61667796
 30
0.0
 11
93.19263764
 21
-202.61667796
 31
0.0
  0
LINE
  5
4C
100
AcDbEntity
  8
LAYER0005
  6
CONTINUOUS
 62
       7
100
AcDbLine
 10
78.19263764
 20
-152.61667796
 30
0.0
 11
78.19263764
 21
-202.61667796
 31
0.0
  0
LINE
  5
4D
100
AcDbEntity
  8
LAYER0005
  6
CONTINUOUS
 62
       7
100
AcDbLine
 10
-6.80736236
 20
-229.6309214
 30
0.0
 11
8.19263764
 21
-229.6309214
 31
0.0
  0
LINE
  5
4E
100
AcDbEntity
  8
LAYER0005
  6
CONTINUOUS
 62
       7
100
AcDbLine
 10
8.19263764
 20
-229.6309214
 30
0.0
 11
8.19263764
 21
-238.0309214
 31
0.0
  0
LINE
  5
4F
100
AcDbEntity
  8
LAYER0005
  6
CONTINUOUS
 62
       7
100
AcDbLine
 10
8.19263764
 20
-238.0309214
 30
0.0
 11
78.19263764
 21
-238.0309214
 31
0.0
  0
LINE
  5
50
100
AcDbEntity
  8
LAYER0005
  6
CONTINUOUS
 62
       7
100
AcDbLine
 10
78.19263764
 20
-238.0309214
 30
0.0
 11
78.19263764
 21
-229.6309214
 31
0.0
  0
LINE
  5
51
100
AcDbEntity
  8
LAYER0005
  6
CONTINUOUS
 62
       7
100
AcDbLine
 10
78.19263764
 20
-229.6309214
 30
0.0
 11
93.19263764
 21
-229.6309214
 31
0.0
  0
LINE
  5
52
100
AcDbEntity
  8
LAYER0005
  6
CONTINUOUS
 62
       7
100
AcDbLine
 10
-6.80736236
 20
-231.2309214
 30
0.0
 11
6.59263764
 21
-231.2309214
 31
0.0
  0
LINE
  5
53
100
AcDbEntity
  8
LAYER0005
  6
CONTINUOUS
 62
       7
100
AcDbLine
 10
6.59263764
 20
-231.2309214
 30
0.0
 11
6.59263764
 21
-239.6309214
 31
0.0
  0
LINE
  5
54
100
AcDbEntity
  8
LAYER0005
  6
CONTINUOUS
 62
       7
100
AcDbLine
 10
6.59263764
 20
-239.6309214
 30
0.0
 11
79.79263764
 21
-239.6309214
 31
0.0
  0
LINE
  5
55
100
AcDbEntity
  8
LAYER0005
  6
CONTINUOUS
 62
       7
100
AcDbLine
 10
79.79263764
 20
-239.6309214
 30
0.0
 11
79.79263764
 21
-231.2309214
 31
0.0
  0
LINE
  5
56
100
AcDbEntity
  8
LAYER0005
  6
CONTINUOUS
 62
       7
100
AcDbLine
 10
79.79263764
 20
-231.2309214
 30
0.0
 11
93.19263764
 21
-231.2309214
 31
0.0
  0
LINE
  5
57
100
AcDbEntity
  8
LAYER0005
  6
CONTINUOUS
 62
       7
100
AcDbLine
 10
-6.80736236
 20
-229.6309214
 30
0.0
 11
-6.80736236
 21
-231.2309214
 31
0.0
  0
LINE
  5
58
100
AcDbEntity
  8
LAYER0005
  6
CONTINUOUS
 62
       7
100
AcDbLine
 10
-6.80736236
 20
-231.2309214
 30
0.0
 11
-6.55686326
 21
-231.431955
 31
0.0
  0
LINE
  5
59
100
AcDbEntity
  8
LAYER0005
  6
CONTINUOUS
 62
       7
100
AcDbLine
 10
-250.84775549
 20
64.5478979
 30
0.0
 11
-167.24557247
 21
64.5478979
 31
0.0
  0
LINE
  5
5A
100
AcDbEntity
  8
LAYER0005
  6
CONTINUOUS
 62
       7
100
AcDbLine
 10
93.19263764
 20
-229.6309214
 30
0.0
 11
93.19263764
 21
-231.2309214
 31
0.0
  0
LINE
  5
5B
100
AcDbEntity
  8
LAYER0005
  6
CONTINUOUS
 62
       7
100
AcDbLine
 10
-156.40420557
 20
70.24878364
 30
0.0
 11
-141.38629759
 21
70.24878364
 31
0.0
  0
LINE
  5
5C
100
AcDbEntity
  8
LAYER0005
  6
CONTINUOUS
 62
       7
100
AcDbLine
 10
-141.59043511
 20
-129.1559771
 30
0.0
 11
-140.15412312
 21
-96.2724893
 31
0.0
  0
LINE
  5
5D
100
AcDbEntity
  8
LAYER0005
  6
CONTINUOUS
 62
       7
100
AcDbLine
 10
-141.59043511
 20
-63.3890015
 30
0.0
 11
-140.15412312
 21
-96.2724893
 31
0.0
  0
LINE
  5
5E
100
AcDbEntity
  8
LAYER0005
  6
CONTINUOUS
 62
       7
100
AcDbLine
 10
-261.21777354
 20
231.5478979
 30
0.0
 11
-156.87171881
 21
231.5478979
 31
0.0
  0
LINE
  5
5F
100
AcDbEntity
  8
LAYER0005
  6
CONTINUOUS
 62
       7
100
AcDbLine
 10
-271.2162505
 20
221.72242196
 30
0.0
 11
-272.89325112
 21
125.6471206
 31
0.0
  0
ARC
  5
60
100
AcDbEntity
  8
LAYER0005
  6
CONTINUOUS
 62
       7
100
AcDbCircle
 10
-261.21777354
 20
221.5478979
 30
0.0
 40
10.0
100
AcDbArc
 50
90.0
 51
179.0
  0
ARC
  5
61
100
AcDbEntity
  8
LAYER0005
  6
CONTINUOUS
 62
       7
100
AcDbCircle
 10
-158.10685589
 20
-57.75121667
 30
0.0
 40
2.5
100
AcDbArc
 50
217.10587234
 51
315.0
  0
ARC
  5
62
100
AcDbEntity
  8
LAYER0005
  6
CONTINUOUS
 62
       7
100
AcDbCircle
 10
-209.14827035
 20
-96.36175941
 30
0.0
 40
61.5
100
AcDbArc
 50
336.41061488
 51
383.44637599
  0
ARC
  5
63
100
AcDbEntity
  8
LAYER0005
  6
CONTINUOUS
 62
       7
100
AcDbCircle
 10
-150.43256679
 20
-70.89676077
 30
0.0
 40
2.5
100
AcDbArc
 50
90.0
 51
203.44637599
  0
ARC
  5
64
100
AcDbEntity
  8
LAYER0005
  6
CONTINUOUS
 62
       7
100
AcDbCircle
 10
-95.8009595
 20
-96.43499628
 30
0.0
 40
42.03664103
100
AcDbArc
 50
270.0
 51
450.0
  0
ARC
  5
65
100
AcDbEntity
  8
LAYER0005
  6
CONTINUOUS
 62
       7
100
AcDbCircle
 10
-95.8009595
 20
-96.43499628
 30
0.0
 40
32.03664103
100
AcDbArc
 50
270.0
 51
450.0
  0
ARC
  5
66
100
AcDbEntity
  8
LAYER0005
  6
CONTINUOUS
 62
       7
100
AcDbCircle
 10
-119.87285894
 20
-96.39205889
 30
0.0
 40
11.5
100
AcDbArc
 50
149.77198122
 51
210.12893407
  0
ARC
  5
67
100
AcDbEntity
  8
LAYER0005
  6
CONTINUOUS
 62
       7
100
AcDbCircle
 10
-119.87285894
 20
-96.39205889
 30
0.0
 40
8.0
100
AcDbArc
 50
149.77198122
 51
210.12893407
  0
ARC
  5
68
100
AcDbEntity
  8
LAYER0005
  6
CONTINUOUS
 62
       7
100
AcDbCircle
 10
-263.653356
 20
122.1679437
 30
0.0
 40
10.60572157
100
AcDbArc
 50
69.38823509
 51
110.61176491
  0
ARC
  5
69
100
AcDbEntity
  8
LAYER0005
  6
CONTINUOUS
 62
       7
100
AcDbCircle
 10
-269.2955235
 20
129.75139933
 30
0.0
 40
3.02226594
100
AcDbArc
 50
50.83830215
 51
129.16169785
  0
ARC
  5
6A
100
AcDbEntity
  8
LAYER0005
  6
CONTINUOUS
 62
       7
100
AcDbCircle
 10
-258.01157206
 20
129.75247752
 30
0.0
 40
3.02118775
100
AcDbArc
 50
50.83102937
 51
129.16897063
  0
ARC
  5
6B
100
AcDbEntity
  8
LAYER0005
  6
CONTINUOUS
 62
       7
100
AcDbCircle
 10
-276.98606936
 20
116.58775802
 30
0.0
 40
1.0
100
AcDbArc
 50
90.0
 51
178.40985852
  0
ARC
  5
6C
100
AcDbEntity
  8
LAYER0005
  6
CONTINUOUS
 62
       7
100
AcDbCircle
 10
-277.06855977
 20
105.18387049
 30
0.0
 40
1.0
100
AcDbArc
 50
180.91251168
 51
270.0
  0
ARC
  5
6D
100
AcDbEntity
  8
LAYER0005
  6
CONTINUOUS
 62
       7
100
AcDbCircle
 10
-275.53534282
 20
99.58466171
 30
0.0
 40
1.0
100
AcDbArc
 50
180.88054597
 51
270.0
  0
ARC
  5
6E
100
AcDbEntity
  8
LAYER0005
  6
CONTINUOUS
 62
       7
100
AcDbCircle
 10
-221.83352399
 20
65.5478979
 30
0.0
 40
1.0
100
AcDbArc
 50
180.74344765
 51
270.0
  0
ARC
  5
6F
100
AcDbEntity
  8
LAYER0005
  6
CONTINUOUS
 62
       7
100
AcDbCircle
 10
-250.84775549
 20
65.5478979
 30
0.0
 40
1.0
100
AcDbArc
 50
181.11677467
 51
270.0
  0
ARC
  5
70
100
AcDbEntity
  8
LAYER0005
  6
CONTINUOUS
 62
       7
100
AcDbCircle
 10
-196.25980396
 20
65.5478979
 30
0.0
 40
1.0
100
AcDbArc
 50
270.0
 51
359.25655235
  0
ARC
  5
71
100
AcDbEntity
  8
LAYER0005
  6
CONTINUOUS
 62
       7
100
AcDbCircle
 10
-167.24557247
 20
65.5478979
 30
0.0
 40
1.0
100
AcDbArc
 50
270.0
 51
358.88322533
  0
CIRCLE
  5
72
100
AcDbEntity
  8
LAYER0005
  6
CONTINUOUS
 62
       7
100
AcDbCircle
 10
-209.04474618
 20
71.98861176
 30
0.0
 40
4.0
  0
ARC
  5
73
100
AcDbEntity
  8
LAYER0005
  6
CONTINUOUS
 62
       7
100
AcDbCircle
 10
-132.51562273
 20
58.83864095
 30
0.0
 40
3.86751831
100
AcDbArc
 50
141.31788594
 51
218.68211406
  0
ARC
  5
74
100
AcDbEntity
  8
LAYER0005
  6
CONTINUOUS
 62
       7
100
AcDbCircle
 10
-122.25556761
 20
51.50037116
 30
0.0
 40
14.16165603
100
AcDbArc
 50
159.66595476
 51
200.33404524
  0
ARC
  5
75
100
AcDbEntity
  8
LAYER0005
  6
CONTINUOUS
 62
       7
100
AcDbCircle
 10
-132.39103325
 20
44.11875909
 30
0.0
 40
3.99210778
100
AcDbArc
 50
141.9498892
 51
218.0501108
  0
ARC
  5
76
100
AcDbEntity
  8
LAYER0005
  6
CONTINUOUS
 62
       7
100
AcDbCircle
 10
-59.77470357
 20
51.40899581
 30
0.0
 40
5.0
100
AcDbArc
 50
270.0
 51
450.0
  0
ARC
  5
77
100
AcDbEntity
  8
LAYER0005
  6
CONTINUOUS
 62
       7
100
AcDbCircle
 10
224.34640702
 20
-77.89020618
 30
0.0
 40
12.0
100
AcDbArc
 50
143.13010235
 51
180.0
  0
ARC
  5
78
100
AcDbEntity
  8
LAYER0005
  6
CONTINUOUS
 62
       7
100
AcDbCircle
 10
209.34640702
 20
-86.98391072
 30
0.0
 40
3.0
100
AcDbArc
 50
270.0
 51
360.0
  0
ARC
  5
79
100
AcDbEntity
  8
LAYER0005
  6
CONTINUOUS
 62
       7
100
AcDbCircle
 10
226.37759243
 20
-61.95738828
 30
0.0
 40
3.0
100
AcDbArc
 50
180.0
 51
270.0
  0
ARC
  5
7A
100
AcDbEntity
  8
LAYER0005
  6
CONTINUOUS
 62
       7
100
AcDbCircle
 10
234.37292946
 20
-61.95738828
 30
0.0
 40
3.0
100
AcDbArc
 50
270.0
 51
360.0
  0
ARC
  5
7B
100
AcDbEntity
  8
LAYER0005
  6
CONTINUOUS
 62
       7
100
AcDbCircle
 10
218.37759243
 20
-60.87929036
 30
0.0
 40
5.0
100
AcDbArc
 50
0.0
 51
90.0
  0
CIRCLE
  5
7C
100
AcDbEntity
  8
LAYER0005
  6
CONTINUOUS
 62
       7
100
AcDbCircle
 10
198.37561782
 20
-60.7777663
 30
0.0
 40
1.65
  0
CIRCLE
  5
7D
100
AcDbEntity
  8
LAYER0005
  6
CONTINUOUS
 62
       7
100
AcDbCircle
 10
198.37561782
 20
-60.7777663
 30
0.0
 40
2.0
  0
CIRCLE
  5
7E
100
AcDbEntity
  8
LAYER0005
  6
CONTINUOUS
 62
       7
100
AcDbCircle
 10
198.37561782
 20
-40.7777663
 30
0.0
 40
58.5
  0
CIRCLE
  5
7F
100
AcDbEntity
  8
LAYER0005
  6
CONTINUOUS
 62
       7
100
AcDbCircle
 10
198.37561782
 20
-40.7777663
 30
0.0
 40
63.0
  0
CIRCLE
  5
80
100
AcDbEntity
  8
LAYER0005
  6
CONTINUOUS
 62
       7
100
AcDbCircle
 10
198.37561782
 20
-40.7777663
 30
0.0
 40
66.0
  0
CIRCLE
  5
81
100
AcDbEntity
  8
LAYER0005
  6
CONTINUOUS
 62
       7
100
AcDbCircle
 10
88.19263764
 20
-177.61667796
 30
0.0
 40
2.0
  0
CIRCLE
  5
82
100
AcDbEntity
  8
LAYER0005
  6
CONTINUOUS
 62
       7
100
AcDbCircle
 10
88.19263764
 20
-177.61667796
 30
0.0
 40
1.5
  0
LINE
  5
83
100
AcDbEntity
  8
LAYER0005
  6
CONTINUOUS
 62
       7
100
AcDbLine
 10
-146.87324186
 20
221.72242196
 30
0.0
 11
-145.19624123
 21
125.6471206
 31
0.0
  0
LINE
  5
84
100
AcDbEntity
  8
LAYER0005
  6
CONTINUOUS
 62
       7
100
AcDbLine
 10
-95.8009595
 20
-128.14662335
 30
0.0
 11
-113.78838895
 21
-128.14662335
 31
0.0
  0
LINE
  5
85
100
AcDbEntity
  8
LAYER0005
  6
CONTINUOUS
 62
       7
100
AcDbLine
 10
-113.76574385
 20
-122.52479314
 30
0.0
 11
-113.76574385
 21
-147.22625551
 31
0.0
  0
ARC
  5
86
100
AcDbEntity
  8
LAYER0005
  6
CONTINUOUS
 62
       7
100
AcDbCircle
 10
-150.43256679
 20
-121.64821783
 30
0.0
 40
2.5
100
AcDbArc
 50
156.55362401
 51
270.0
  0
ARC
  5
87
100
AcDbEntity
  8
LAYER0005
  6
CONTINUOUS
 62
       7
100
AcDbCircle
 10
-158.10685589
 20
-134.79376194
 30
0.0
 40
2.5
100
AcDbArc
 50
45.0
 51
142.89412766
  0
ARC
  5
88
100
AcDbEntity
  8
LAYER0005
  6
CONTINUOUS
 62
       7
100
AcDbCircle
 10
-142.55414953
 20
99.58466171
 30
0.0
 40
1.0
100
AcDbArc
 50
270.0
 51
359.11945403
  0
ARC
  5
89
100
AcDbEntity
  8
LAYER0005
  6
CONTINUOUS
 62
       7
100
AcDbCircle
 10
-141.02093258
 20
105.18387049
 30
0.0
 40
1.0
100
AcDbArc
 50
270.0
 51
359.08748832
  0
ARC
  5
8A
100
AcDbEntity
  8
LAYER0005
  6
CONTINUOUS
 62
       7
100
AcDbCircle
 10
-141.103423
 20
116.58775802
 30
0.0
 40
1.0
100
AcDbArc
 50
1.59014148
 51
90.0
  0
ARC
  5
8B
100
AcDbEntity
  8
LAYER0005
  6
CONTINUOUS
 62
       7
100
AcDbCircle
 10
-160.07792029
 20
129.75247752
 30
0.0
 40
3.02118775
100
AcDbArc
 50
50.83102937
 51
129.16897063
  0
ARC
  5
8C
100
AcDbEntity
  8
LAYER0005
  6
CONTINUOUS
 62
       7
100
AcDbCircle
 10
-148.79396885
 20
129.75139933
 30
0.0
 40
3.02226594
100
AcDbArc
 50
50.83830215
 51
129.16169785
  0
ARC
  5
8D
100
AcDbEntity
  8
LAYER0005
  6
CONTINUOUS
 62
       7
100
AcDbCircle
 10
-154.43613635
 20
122.1679437
 30
0.0
 40
10.60572157
100
AcDbArc
 50
69.38823509
 51
110.61176491
  0
ARC
  5
8E
100
AcDbEntity
  8
LAYER0005
  6
CONTINUOUS
 62
       7
100
AcDbCircle
 10
-156.87171881
 20
221.5478979
 30
0.0
 40
10.0
100
AcDbArc
 50
1.0
 51
90.0
  0
ARC
  5
8F
100
AcDbEntity
  8
LAYER0005
  6
CONTINUOUS
 62
       7
100
AcDbCircle
 10
212.34640702
 20
-68.89020618
 30
0.0
 40
3.0
100
AcDbArc
 50
323.13010235
 51
450.0
  0
ARC
  5
90
100
AcDbEntity
  8
LAYER0005
  6
CONTINUOUS
 62
       7
100
AcDbCircle
 10
218.37759243
 20
-20.67624224
 30
0.0
 40
5.0
100
AcDbArc
 50
270.0
 51
360.0
  0
ARC
  5
91
100
AcDbEntity
  8
LAYER0005
  6
CONTINUOUS
 62
       7
100
AcDbCircle
 10
234.37292946
 20
-19.59814432
 30
0.0
 40
3.0
100
AcDbArc
 50
0.0
 51
90.0
  0
ARC
  5
92
100
AcDbEntity
  8
LAYER0005
  6
CONTINUOUS
 62
       7
100
AcDbCircle
 10
226.37759243
 20
-19.59814432
 30
0.0
 40
3.0
100
AcDbArc
 50
90.0
 51
180.0
  0
ARC
  5
93
100
AcDbEntity
  8
LAYER0005
  6
CONTINUOUS
 62
       7
100
AcDbCircle
 10
178.37364321
 20
-20.67624224
 30
0.0
 40
5.0
100
AcDbArc
 50
180.0
 51
270.0
  0
ARC
  5
94
100
AcDbEntity
  8
LAYER0005
  6
CONTINUOUS
 62
       7
100
AcDbCircle
 10
178.37364321
 20
-60.87929036
 30
0.0
 40
5.0
100
AcDbArc
 50
90.0
 51
180.0
  0
ARC
  5
95
100
AcDbEntity
  8
LAYER0005
  6
CONTINUOUS
 62
       7
100
AcDbCircle
 10
170.37364321
 20
-19.59814432
 30
0.0
 40
3.0
100
AcDbArc
 50
0.0
 51
90.0
  0
ARC
  5
96
100
AcDbEntity
  8
LAYER0005
  6
CONTINUOUS
 62
       7
100
AcDbCircle
 10
162.37830618
 20
-19.59814432
 30
0.0
 40
3.0
100
AcDbArc
 50
90.0
 51
180.0
  0
ARC
  5
97
100
AcDbEntity
  8
LAYER0005
  6
CONTINUOUS
 62
       7
100
AcDbCircle
 10
187.40482862
 20
-86.98391072
 30
0.0
 40
3.0
100
AcDbArc
 50
180.0
 51
270.0
  0
ARC
  5
98
100
AcDbEntity
  8
LAYER0005
  6
CONTINUOUS
 62
       7
100
AcDbCircle
 10
172.40482862
 20
-77.89020618
 30
0.0
 40
12.0
100
AcDbArc
 50
0.0
 51
36.86989765
  0
ARC
  5
99
100
AcDbEntity
  8
LAYER0005
  6
CONTINUOUS
 62
       7
100
AcDbCircle
 10
162.37830618
 20
-61.95738828
 30
0.0
 40
3.0
100
AcDbArc
 50
180.0
 51
270.0
  0
ARC
  5
9A
100
AcDbEntity
  8
LAYER0005
  6
CONTINUOUS
 62
       7
100
AcDbCircle
 10
170.37364321
 20
-61.95738828
 30
0.0
 40
3.0
100
AcDbArc
 50
270.0
 51
360.0
  0
ARC
  5
9B
100
AcDbEntity
  8
LAYER0005
  6
CONTINUOUS
 62
       7
100
AcDbCircle
 10
184.40482862
 20
-68.89020618
 30
0.0
 40
3.0
100
AcDbArc
 50
90.0
 51
216.86989765
  0
ARC
  5
9C
100
AcDbEntity
  8
LAYER0005
  6
CONTINUOUS
 62
       7
100
AcDbCircle
 10
172.40482862
 20
-3.66532642
 30
0.0
 40
12.0
100
AcDbArc
 50
323.13010235
 51
360.0
  0
ARC
  5
9D
100
AcDbEntity
  8
LAYER0005
  6
CONTINUOUS
 62
       7
100
AcDbCircle
 10
184.40482862
 20
-12.66532642
 30
0.0
 40
3.0
100
AcDbArc
 50
143.13010235
 51
270.0
  0
ARC
  5
9E
100
AcDbEntity
  8
LAYER0005
  6
CONTINUOUS
 62
       7
100
AcDbCircle
 10
187.40482862
 20
5.42837812
 30
0.0
 40
3.0
100
AcDbArc
 50
90.0
 51
180.0
  0
ARC
  5
9F
100
AcDbEntity
  8
LAYER0005
  6
CONTINUOUS
 62
       7
100
AcDbCircle
 10
209.34640702
 20
5.42837812
 30
0.0
 40
3.0
100
AcDbArc
 50
0.0
 51
90.0
  0
ARC
  5
A0
100
AcDbEntity
  8
LAYER0005
  6
CONTINUOUS
 62
       7
100
AcDbCircle
 10
224.34640702
 20
-3.66532642
 30
0.0
 40
12.0
100
AcDbArc
 50
180.0
 51
216.86989765
  0
ARC
  5
A1
100
AcDbEntity
  8
LAYER0005
  6
CONTINUOUS
 62
       7
100
AcDbCircle
 10
212.34640702
 20
-12.66532642
 30
0.0
 40
3.0
100
AcDbArc
 50
270.0
 51
396.86989765
  0
CIRCLE
  5
A2
100
AcDbEntity
  8
LAYER0005
  6
CONTINUOUS
 62
       7
100
AcDbCircle
 10
190.17561782
 20
-20.7777663
 30
0.0
 40
1.65
  0
CIRCLE
  5
A3
100
AcDbEntity
  8
LAYER0005
  6
CONTINUOUS
 62
       7
100
AcDbCircle
 10
190.17561782
 20
-20.7777663
 30
0.0
 40
2.0
  0
CIRCLE
  5
A4
100
AcDbEntity
  8
LAYER0005
  6
CONTINUOUS
 62
       7
100
AcDbCircle
 10
206.57561782
 20
-20.7777663
 30
0.0
 40
1.65
  0
CIRCLE
  5
A5
100
AcDbEntity
  8
LAYER0005
  6
CONTINUOUS
 62
       7
100
AcDbCircle
 10
206.57561782
 20
-20.7777663
 30
0.0
 40
2.0
  0
CIRCLE
  5
A6
100
AcDbEntity
  8
LAYER0005
  6
CONTINUOUS
 62
       7
100
AcDbCircle
 10
198.37561782
 20
-20.7777663
 30
0.0
 40
2.0
  0
CIRCLE
  5
A7
100
AcDbEntity
  8
LAYER0005
  6
CONTINUOUS
 62
       7
100
AcDbCircle
 10
198.37561782
 20
-20.7777663
 30
0.0
 40
1.65
  0
CIRCLE
  5
A8
100
AcDbEntity
  8
LAYER0005
  6
CONTINUOUS
 62
       7
100
AcDbCircle
 10
-1.80736236
 20
-190.11667796
 30
0.0
 40
1.5
  0
CIRCLE
  5
A9
100
AcDbEntity
  8
LAYER0005
  6
CONTINUOUS
 62
       7
100
AcDbCircle
 10
-1.80736236
 20
-190.11667796
 30
0.0
 40
2.0
  0
CIRCLE
  5
AA
100
AcDbEntity
  8
LAYER0005
  6
CONTINUOUS
 62
       7
100
AcDbCircle
 10
-1.80736236
 20
-165.11667796
 30
0.0
 40
1.5
  0
CIRCLE
  5
AB
100
AcDbEntity
  8
LAYER0005
  6
CONTINUOUS
 62
       7
100
AcDbCircle
 10
-1.80736236
 20
-165.11667796
 30
0.0
 40
2.0
  0
CIRCLE
  5
AC
100
AcDbEntity
  8
LAYER0005
  6
CONTINUOUS
 62
       7
100
AcDbCircle
 10
-1.80736236
 20
-177.61667796
 30
0.0
 40
1.5
  0
CIRCLE
  5
AD
100
AcDbEntity
  8
LAYER0005
  6
CONTINUOUS
 62
       7
100
AcDbCircle
 10
-1.80736236
 20
-177.61667796
 30
0.0
 40
2.0
  0
LINE
  5
AE
100
AcDbEntity
  8
LAYER0005
  6
CONTINUOUS
 62
       7
100
AcDbLine
 10
-235.54474618
 20
-149.1514068
 30
0.0
 11
-182.76350007
 21
-149.1514068
 31
0.0
  0
LINE
  5
AF
100
AcDbEntity
  8
LAYER0005
  6
CONTINUOUS
 62
       7
100
AcDbLine
 10
-255.12335887
 20
-160.30325356
 30
0.0
 11
-244.28918898
 21
-149.46908367
 31
0.0
  0
LINE
  5
B0
100
AcDbEntity
  8
LAYER0005
  6
CONTINUOUS
 62
       7
100
AcDbLine
 10
-272.18488737
 20
-143.24172505
 30
0.0
 11
-261.61097317
 21
-132.66781085
 31
0.0
  0
LINE
  5
B1
100
AcDbEntity
  8
LAYER0005
  6
CONTINUOUS
 62
       7
100
AcDbLine
 10
-275.70695367
 20
-152.29894274
 30
0.0
 11
-278.15412312
 21
-96.2724893
 31
0.0
  0
LINE
  5
B2
100
AcDbEntity
  8
LAYER0005
  6
CONTINUOUS
 62
       7
100
AcDbLine
 10
-263.97089968
 20
-163.83265224
 30
0.0
 11
-209.15412312
 21
-165.2724893
 31
0.0
  0
LINE
  5
B3
100
AcDbEntity
  8
LAYER0005
  6
CONTINUOUS
 62
       7
100
AcDbLine
 10
-117.26574385
 20
-69.07489484
 30
0.0
 11
-117.26574385
 21
-45.31872309
 31
0.0
  0
LINE
  5
B4
100
AcDbEntity
  8
LAYER0005
  6
CONTINUOUS
 62
       7
100
AcDbLine
 10
-163.18488737
 20
-160.30325356
 30
0.0
 11
-174.01905726
 21
-149.46908367
 31
0.0
  0
LINE
  5
B5
100
AcDbEntity
  8
LAYER0005
  6
CONTINUOUS
 62
       7
100
AcDbLine
 10
-155.70663303
 20
-133.6584509
 30
0.0
 11
-156.33908894
 21
-133.02599498
 31
0.0
  0
LINE
  5
B6
100
AcDbEntity
  8
LAYER0005
  6
CONTINUOUS
 62
       7
100
AcDbLine
 10
-140.40865633
 20
-136.7335247
 30
0.0
 11
-140.29446989
 21
-137.47333928
 31
0.0
  0
LINE
  5
B7
100
AcDbEntity
  8
LAYER0005
  6
CONTINUOUS
 62
       7
100
AcDbLine
 10
-118.28217783
 20
-50.32648236
 30
0.0
 11
-117.77357728
 21
-50.24056492
 31
0.0
  0
LINE
  5
B8
100
AcDbEntity
  8
LAYER0005
  6
CONTINUOUS
 62
       7
100
AcDbLine
 10
-117.77357728
 20
-50.24056492
 30
0.0
 11
-117.43374313
 21
-49.81711469
 31
0.0
  0
LINE
  5
B9
100
AcDbEntity
  8
LAYER0005
  6
CONTINUOUS
 62
       7
100
AcDbLine
 10
-117.43374313
 20
-49.81711469
 30
0.0
 11
-117.26574385
 21
-49.39059598
 31
0.0
  0
LINE
  5
BA
100
AcDbEntity
  8
LAYER0005
  6
CONTINUOUS
 62
       7
100
AcDbLine
 10
-117.26574385
 20
-68.39676077
 30
0.0
 11
-117.43374313
 21
-67.8873931
 31
0.0
  0
LINE
  5
BB
100
AcDbEntity
  8
LAYER0005
  6
CONTINUOUS
 62
       7
100
AcDbLine
 10
-117.43374313
 20
-67.8873931
 30
0.0
 11
-117.77357728
 21
-67.54679182
 31
0.0
  0
LINE
  5
BC
100
AcDbEntity
  8
LAYER0005
  6
CONTINUOUS
 62
       7
100
AcDbLine
 10
-117.77357728
 20
-67.54679182
 30
0.0
 11
-118.28217783
 21
-67.37802543
 31
0.0
  0
LINE
  5
BD
100
AcDbEntity
  8
LAYER0005
  6
CONTINUOUS
 62
       7
100
AcDbLine
 10
-126.34230753
 20
-50.32648236
 30
0.0
 11
-126.85244233
 21
-50.49524876
 31
0.0
  0
LINE
  5
BE
100
AcDbEntity
  8
LAYER0005
  6
CONTINUOUS
 62
       7
100
AcDbLine
 10
-126.85244233
 20
-50.49524876
 30
0.0
 11
-127.19074224
 21
-50.83278155
 31
0.0
  0
LINE
  5
BF
100
AcDbEntity
  8
LAYER0005
  6
CONTINUOUS
 62
       7
100
AcDbLine
 10
-127.19074224
 20
-50.83278155
 30
0.0
 11
-127.27512544
 21
-51.34214922
 31
0.0
  0
LINE
  5
C0
100
AcDbEntity
  8
LAYER0005
  6
CONTINUOUS
 62
       7
100
AcDbLine
 10
-127.27512544
 20
-66.35929008
 30
0.0
 11
-127.19074224
 21
-66.86865775
 31
0.0
  0
LINE
  5
C1
100
AcDbEntity
  8
LAYER0005
  6
CONTINUOUS
 62
       7
100
AcDbLine
 10
-127.19074224
 20
-66.86865775
 30
0.0
 11
-126.85244233
 21
-67.20619055
 31
0.0
  0
LINE
  5
C2
100
AcDbEntity
  8
LAYER0005
  6
CONTINUOUS
 62
       7
100
AcDbLine
 10
-126.85244233
 20
-67.20619055
 30
0.0
 11
-126.34230753
 21
-67.37802543
 31
0.0
  0
LINE
  5
C3
100
AcDbEntity
  8
LAYER0005
  6
CONTINUOUS
 62
       7
100
AcDbLine
 10
-126.34230753
 20
-67.37802543
 30
0.0
 11
-118.28217783
 21
-67.37802543
 31
0.0
  0
LINE
  5
C4
100
AcDbEntity
  8
LAYER0005
  6
CONTINUOUS
 62
       7
100
AcDbLine
 10
226.37759243
 20
-16.59814432
 30
0.0
 11
234.37292946
 21
-16.59814432
 31
0.0
  0
LINE
  5
C5
100
AcDbEntity
  8
LAYER0005
  6
CONTINUOUS
 62
       7
100
AcDbLine
 10
-118.28217783
 20
-50.32648236
 30
0.0
 11
-126.34230753
 21
-50.32648236
 31
0.0
  0
LINE
  5
C6
100
AcDbEntity
  8
LAYER0005
  6
CONTINUOUS
 62
       7
100
AcDbLine
 10
184.40482862
 20
-77.89020618
 30
0.0
 11
184.40482862
 21
-86.98391072
 31
0.0
  0
LINE
  5
C7
100
AcDbEntity
  8
LAYER0005
  6
CONTINUOUS
 62
       7
100
AcDbLine
 10
-117.26574385
 20
-123.79509773
 30
0.0
 11
-129.81918651
 21
-102.16445595
 31
0.0
  0
LINE
  5
C8
100
AcDbEntity
  8
LAYER0005
  6
CONTINUOUS
 62
       7
100
AcDbLine
 10
-117.26574385
 20
-69.07489484
 30
0.0
 11
-129.80918913
 21
-90.60246975
 31
0.0
  0
LINE
  5
C9
100
AcDbEntity
  8
LAYER0005
  6
CONTINUOUS
 62
       7
100
AcDbLine
 10
223.37759243
 20
-19.59814432
 30
0.0
 11
223.37759243
 21
-20.67624224
 31
0.0
  0
LINE
  5
CA
100
AcDbEntity
  8
LAYER0005
  6
CONTINUOUS
 62
       7
100
AcDbLine
 10
-147.89070796
 20
-45.31872309
 30
0.0
 11
-113.78762183
 21
-45.31872309
 31
0.0
  0
LINE
  5
CB
100
AcDbEntity
  8
LAYER0005
  6
CONTINUOUS
 62
       7
100
AcDbLine
 10
-147.89070796
 20
-63.3890015
 30
0.0
 11
-139.40712803
 21
-63.3890015
 31
0.0
  0
LINE
  5
CC
100
AcDbEntity
  8
LAYER0005
  6
CONTINUOUS
 62
       7
100
AcDbLine
 10
218.37759243
 20
-25.67624224
 30
0.0
 11
178.24332089
 21
-25.67624224
 31
0.0
  0
LINE
  5
CD
100
AcDbEntity
  8
LAYER0005
  6
CONTINUOUS
 62
       7
100
AcDbLine
 10
-193.95933163
 20
-38.36554753
 30
0.0
 11
-194.21171411
 21
-37.34374371
 31
0.0
  0
LINE
  5
CE
100
AcDbEntity
  8
LAYER0005
  6
CONTINUOUS
 62
       7
100
AcDbLine
 10
-194.21171411
 20
-37.34374371
 30
0.0
 11
-194.97576562
 21
-36.5796922
 31
0.0
  0
LINE
  5
CF
100
AcDbEntity
  8
LAYER0005
  6
CONTINUOUS
 62
       7
100
AcDbLine
 10
-194.97576562
 20
-36.5796922
 30
0.0
 11
-195.99526809
 21
-36.32807684
 31
0.0
  0
LINE
  5
D0
100
AcDbEntity
  8
LAYER0005
  6
CONTINUOUS
 62
       7
100
AcDbLine
 10
-195.99526809
 20
-36.32807684
 30
0.0
 11
-220.00382231
 21
-36.32807684
 31
0.0
  0
LINE
  5
D1
100
AcDbEntity
  8
LAYER0005
  6
CONTINUOUS
 62
       7
100
AcDbLine
 10
-220.00382231
 20
-36.32807684
 30
0.0
 11
-221.02025629
 21
-36.5796922
 31
0.0
  0
LINE
  5
D2
100
AcDbEntity
  8
LAYER0005
  6
CONTINUOUS
 62
       7
100
AcDbLine
 10
-221.02025629
 20
-36.5796922
 30
0.0
 11
-221.7843078
 21
-37.34374371
 31
0.0
  0
LINE
  5
D3
100
AcDbEntity
  8
LAYER0005
  6
CONTINUOUS
 62
       7
100
AcDbLine
 10
-221.7843078
 20
-37.34374371
 30
0.0
 11
-222.03822451
 21
-38.36554753
 31
0.0
  0
LINE
  5
D4
100
AcDbEntity
  8
LAYER0005
  6
CONTINUOUS
 62
       7
100
AcDbLine
 10
159.37830618
 20
-19.82311674
 30
0.0
 11
159.37830618
 21
-61.95738828
 31
0.0
  0
LINE
  5
D5
100
AcDbEntity
  8
LAYER0005
  6
CONTINUOUS
 62
       7
100
AcDbLine
 10
170.37364321
 20
-64.95738828
 30
0.0
 11
162.37830618
 21
-64.95738828
 31
0.0
  0
LINE
  5
D6
100
AcDbEntity
  8
LAYER0005
  6
CONTINUOUS
 62
       7
100
AcDbLine
 10
173.37364321
 20
-61.95738828
 30
0.0
 11
173.37364321
 21
-60.87929036
 31
0.0
  0
LINE
  5
D7
100
AcDbEntity
  8
LAYER0005
  6
CONTINUOUS
 62
       7
100
AcDbLine
 10
173.37364321
 20
-19.59814432
 30
0.0
 11
173.37364321
 21
-20.67624224
 31
0.0
  0
LINE
  5
D8
100
AcDbEntity
  8
LAYER0005
  6
CONTINUOUS
 62
       7
100
AcDbLine
 10
170.37364321
 20
-16.59814432
 30
0.0
 11
162.37830618
 21
-16.59814432
 31
0.0
  0
LINE
  5
D9
100
AcDbEntity
  8
LAYER0005
  6
CONTINUOUS
 62
       7
100
AcDbLine
 10
209.34640702
 20
8.42837812
 30
0.0
 11
187.23550137
 21
8.42837812
 31
0.0
  0
LINE
  5
DA
100
AcDbEntity
  8
LAYER0005
  6
CONTINUOUS
 62
       7
100
AcDbLine
 10
212.34640702
 20
-15.66532642
 30
0.0
 11
184.01359743
 21
-15.66532642
 31
0.0
  0
LINE
  5
DB
100
AcDbEntity
  8
LAYER0005
  6
CONTINUOUS
 62
       7
100
AcDbLine
 10
212.34640702
 20
-3.66532642
 30
0.0
 11
212.34640702
 21
5.42837812
 31
0.0
  0
LINE
  5
DC
100
AcDbEntity
  8
LAYER0005
  6
CONTINUOUS
 62
       7
100
AcDbLine
 10
184.40482862
 20
-3.66532642
 30
0.0
 11
184.40482862
 21
5.42837812
 31
0.0
  0
LINE
  5
DD
100
AcDbEntity
  8
LAYER0005
  6
CONTINUOUS
 62
       7
100
AcDbLine
 10
-150.43256679
 20
-68.39676077
 30
0.0
 11
-141.37170209
 21
-68.39676077
 31
0.0
  0
LINE
  5
DE
100
AcDbEntity
  8
LAYER0005
  6
CONTINUOUS
 62
       7
100
AcDbLine
 10
-222.03822451
 20
-41.3935718
 30
0.0
 11
-222.03822451
 21
-38.36554753
 31
0.0
  0
LINE
  5
DF
100
AcDbEntity
  8
LAYER0005
  6
CONTINUOUS
 62
       7
100
AcDbLine
 10
-193.95933163
 20
-41.3935718
 30
0.0
 11
-193.95933163
 21
-38.36554753
 31
0.0
  0
LINE
  5
E0
100
AcDbEntity
  8
LAYER0005
  6
CONTINUOUS
 62
       7
100
AcDbLine
 10
-95.8009595
 20
-54.39835525
 30
0.0
 11
-113.78838895
 21
-54.39835525
 31
0.0
  0
LINE
  5
E1
100
AcDbEntity
  8
LAYER0005
  6
CONTINUOUS
 62
       7
100
AcDbLine
 10
-135.33525514
 20
-54.39835525
 30
0.0
 11
-138.38915981
 21
-54.39835525
 31
0.0
  0
LINE
  5
E2
100
AcDbEntity
  8
LAYER0005
  6
CONTINUOUS
 62
       7
100
AcDbLine
 10
-138.38915981
 20
-64.41080532
 30
0.0
 11
-139.9164957
 21
-62.8827023
 31
0.0
  0
LINE
  5
E3
100
AcDbEntity
  8
LAYER0005
  6
CONTINUOUS
 62
       7
100
AcDbLine
 10
-138.38915981
 20
-54.39835525
 30
0.0
 11
-139.9164957
 21
-55.84054083
 31
0.0
  0
LINE
  5
E4
100
AcDbEntity
  8
LAYER0005
  6
CONTINUOUS
 62
       7
100
AcDbLine
 10
-139.9164957
 20
-55.84054083
 30
0.0
 11
-139.9164957
 21
-62.8827023
 31
0.0
  0
LINE
  5
E5
100
AcDbEntity
  8
LAYER0005
  6
CONTINUOUS
 62
       7
100
AcDbLine
 10
-135.33525514
 20
-64.41080532
 30
0.0
 11
-138.38992693
 21
-64.41080532
 31
0.0
  0
LINE
  5
E6
100
AcDbEntity
  8
LAYER0005
  6
CONTINUOUS
 62
       7
100
AcDbLine
 10
-252.69540766
 20
119.62369446
 30
0.0
 11
-252.35557351
 21
118.60726048
 31
0.0
  0
LINE
  5
E7
100
AcDbEntity
  8
LAYER0005
  6
CONTINUOUS
 62
       7
100
AcDbLine
 10
-252.35557351
 20
118.60726048
 30
0.0
 11
-251.67743944
 21
117.84244185
 31
0.0
  0
LINE
  5
E8
100
AcDbEntity
  8
LAYER0005
  6
CONTINUOUS
 62
       7
100
AcDbLine
 10
-251.67743944
 20
117.84244185
 30
0.0
 11
-250.6587041
 21
117.58775802
 31
0.0
  0
LINE
  5
E9
100
AcDbEntity
  8
LAYER0005
  6
CONTINUOUS
 62
       7
100
AcDbLine
 10
-139.93536923
 20
110.5478979
 30
0.0
 11
-140.10380809
 21
116.61550766
 31
0.0
  0
LINE
  5
EA
100
AcDbEntity
  8
LAYER0005
  6
CONTINUOUS
 62
       7
100
AcDbLine
 10
-141.63944719
 20
124.63068661
 30
0.0
 11
-141.46991367
 21
117.58775802
 31
0.0
  0
LINE
  5
EB
100
AcDbEntity
  8
LAYER0005
  6
CONTINUOUS
 62
       7
100
AcDbLine
 10
-252.69540766
 20
124.63068661
 30
0.0
 11
-252.77979086
 21
125.13852005
 31
0.0
  0
LINE
  5
EC
100
AcDbEntity
  8
LAYER0005
  6
CONTINUOUS
 62
       7
100
AcDbLine
 10
-252.77979086
 20
125.13852005
 30
0.0
 11
-253.11962501
 21
125.47758708
 31
0.0
  0
LINE
  5
ED
100
AcDbEntity
  8
LAYER0005
  6
CONTINUOUS
 62
       7
100
AcDbLine
 10
-253.11962501
 20
125.47758708
 30
0.0
 11
-253.62822557
 21
125.6471206
 31
0.0
  0
LINE
  5
EE
100
AcDbEntity
  8
LAYER0005
  6
CONTINUOUS
 62
       7
100
AcDbLine
 10
-141.54708832
 20
117.58775802
 30
0.0
 11
-141.103423
 21
117.58775802
 31
0.0
  0
LINE
  5
EF
100
AcDbEntity
  8
LAYER0005
  6
CONTINUOUS
 62
       7
100
AcDbLine
 10
-141.80974783
 20
125.13852005
 30
0.0
 11
-141.63944719
 21
124.63068661
 31
0.0
  0
LINE
  5
F0
100
AcDbEntity
  8
LAYER0005
  6
CONTINUOUS
 62
       7
100
AcDbLine
 10
-142.14881486
 20
125.47758708
 30
0.0
 11
-141.80974783
 21
125.13852005
 31
0.0
  0
LINE
  5
F1
100
AcDbEntity
  8
LAYER0005
  6
CONTINUOUS
 62
       7
100
AcDbLine
 10
-252.69540766
 20
124.63068661
 30
0.0
 11
-252.69540766
 21
119.62369446
 31
0.0
  0
LINE
  5
F2
100
AcDbEntity
  8
LAYER0005
  6
CONTINUOUS
 62
       7
100
AcDbLine
 10
-247.85948327
 20
125.6471206
 30
0.0
 11
-247.85948327
 21
119.62369446
 31
0.0
  0
LINE
  5
F3
100
AcDbEntity
  8
LAYER0005
  6
CONTINUOUS
 62
       7
100
AcDbLine
 10
-275.43130983
 20
125.6471206
 30
0.0
 11
-247.85948327
 21
125.6471206
 31
0.0
  0
LINE
  5
F4
100
AcDbEntity
  8
LAYER0005
  6
CONTINUOUS
 62
       7
100
AcDbLine
 10
-142.65741541
 20
125.6471206
 30
0.0
 11
-142.14881486
 21
125.47758708
 31
0.0
  0
LINE
  5
F5
100
AcDbEntity
  8
LAYER0005
  6
CONTINUOUS
 62
       7
100
AcDbLine
 10
-161.98613125
 20
127.17445649
 30
0.0
 11
-161.98613125
 21
132.09476408
 31
0.0
  0
LINE
  5
F6
100
AcDbEntity
  8
LAYER0005
  6
CONTINUOUS
 62
       7
100
AcDbLine
 10
-158.16970932
 20
127.17445649
 30
0.0
 11
-158.16970932
 21
132.09476408
 31
0.0
  0
LINE
  5
F7
100
AcDbEntity
  8
LAYER0005
  6
CONTINUOUS
 62
       7
100
AcDbLine
 10
-278.23129778
 20
110.5478979
 30
0.0
 11
-139.94794762
 21
110.5478979
 31
0.0
  0
LINE
  5
F8
100
AcDbEntity
  8
LAYER0005
  6
CONTINUOUS
 62
       7
100
AcDbLine
 10
-127.27589256
 20
-59.40304604
 30
0.0
 11
-135.33525514
 21
-59.40304604
 31
0.0
  0
LINE
  5
F9
100
AcDbEntity
  8
LAYER0005
  6
CONTINUOUS
 62
       7
100
AcDbLine
 10
-135.33525514
 20
-67.8873931
 30
0.0
 11
-127.27589256
 21
-67.8873931
 31
0.0
  0
LINE
  5
FA
100
AcDbEntity
  8
LAYER0005
  6
CONTINUOUS
 62
       7
100
AcDbLine
 10
-127.27589256
 20
-67.8873931
 30
0.0
 11
-127.27589256
 21
-50.83278155
 31
0.0
  0
LINE
  5
FB
100
AcDbEntity
  8
LAYER0005
  6
CONTINUOUS
 62
       7
100
AcDbLine
 10
-127.27589256
 20
-50.83278155
 30
0.0
 11
-135.33525514
 21
-50.83278155
 31
0.0
  0
LINE
  5
FC
100
AcDbEntity
  8
LAYER0005
  6
CONTINUOUS
 62
       7
100
AcDbLine
 10
-135.33525514
 20
-50.83278155
 30
0.0
 11
-135.33525514
 21
-67.8873931
 31
0.0
  0
LINE
  5
FD
100
AcDbEntity
  8
LAYER0005
  6
CONTINUOUS
 62
       7
100
AcDbLine
 10
-144.07198467
 20
-131.69974698
 30
0.0
 11
-140.34071305
 21
-138.14662335
 31
0.0
  0
LINE
  5
FE
100
AcDbEntity
  8
LAYER0005
  6
CONTINUOUS
 62
       7
100
AcDbLine
 10
-151.62581518
 20
-131.69974698
 30
0.0
 11
-144.07198467
 21
-131.69974698
 31
0.0
  0
LINE
  5
FF
100
AcDbEntity
  8
LAYER0005
  6
CONTINUOUS
 62
       7
100
AcDbLine
 10
-140.34071305
 20
-54.39835525
 30
0.0
 11
-144.07198467
 21
-47.86556144
 31
0.0
  0
LINE
  5
100
100
AcDbEntity
  8
LAYER0005
  6
CONTINUOUS
 62
       7
100
AcDbLine
 10
-144.07198467
 20
-47.86556144
 30
0.0
 11
-151.62581518
 21
-47.86556144
 31
0.0
  0
LINE
  5
101
100
AcDbEntity
  8
LAYER0005
  6
CONTINUOUS
 62
       7
100
AcDbLine
 10
-151.62581518
 20
-47.86556144
 30
0.0
 11
-155.44146999
 21
-54.39835525
 31
0.0
  0
LINE
  5
102
100
AcDbEntity
  8
LAYER0005
  6
CONTINUOUS
 62
       7
100
AcDbLine
 10
-155.44146999
 20
-54.39835525
 30
0.0
 11
-151.62581518
 21
-60.84523162
 31
0.0
  0
LINE
  5
103
100
AcDbEntity
  8
LAYER0005
  6
CONTINUOUS
 62
       7
100
AcDbLine
 10
-151.62581518
 20
-60.84523162
 30
0.0
 11
-144.07198467
 21
-60.84523162
 31
0.0
  0
LINE
  5
104
100
AcDbEntity
  8
LAYER0005
  6
CONTINUOUS
 62
       7
100
AcDbLine
 10
-144.07198467
 20
-60.84523162
 30
0.0
 11
-140.34071305
 21
-54.39835525
 31
0.0
  0
LINE
  5
105
100
AcDbEntity
  8
LAYER0005
  6
CONTINUOUS
 62
       7
100
AcDbLine
 10
-160.03457801
 20
132.77366527
 30
0.0
 11
-148.83616044
 21
132.77366527
 31
0.0
  0
LINE
  5
106
100
AcDbEntity
  8
LAYER0005
  6
CONTINUOUS
 62
       7
100
AcDbLine
 10
-242.00559065
 20
104.18387049
 30
0.0
 11
-242.00559065
 21
98.58389459
 31
0.0
  0
LINE
  5
107
100
AcDbEntity
  8
LAYER0005
  6
CONTINUOUS
 62
       7
100
AcDbLine
 10
-271.69850397
 20
82.46516943
 30
0.0
 11
-271.44458726
 21
81.53235152
 31
0.0
  0
LINE
  5
108
100
AcDbEntity
  8
LAYER0005
  6
CONTINUOUS
 62
       7
100
AcDbLine
 10
-271.44458726
 20
81.53235152
 30
0.0
 11
-270.68053575
 21
80.76983426
 31
0.0
  0
LINE
  5
109
100
AcDbEntity
  8
LAYER0005
  6
CONTINUOUS
 62
       7
100
AcDbLine
 10
-270.68053575
 20
80.76983426
 30
0.0
 11
-269.66256753
 21
80.51361618
 31
0.0
  0
LINE
  5
10A
100
AcDbEntity
  8
LAYER0005
  6
CONTINUOUS
 62
       7
100
AcDbLine
 10
-271.69850397
 20
82.46516943
 30
0.0
 11
-271.95318781
 21
98.58389459
 31
0.0
  0
LINE
  5
10B
100
AcDbEntity
  8
LAYER0005
  6
CONTINUOUS
 62
       7
100
AcDbLine
 10
-146.88537432
 20
127.17445649
 30
0.0
 11
-146.88537432
 21
132.09476408
 31
0.0
  0
LINE
  5
10C
100
AcDbEntity
  8
LAYER0005
  6
CONTINUOUS
 62
       7
100
AcDbLine
 10
-150.70256337
 20
127.17445649
 30
0.0
 11
-150.70256337
 21
132.09476408
 31
0.0
  0
LINE
  5
10D
100
AcDbEntity
  8
LAYER0005
  6
CONTINUOUS
 62
       7
100
AcDbLine
 10
-145.95178929
 20
125.6471206
 30
0.0
 11
-145.95178929
 21
127.17445649
 31
0.0
  0
LINE
  5
10E
100
AcDbEntity
  8
LAYER0005
  6
CONTINUOUS
 62
       7
100
AcDbLine
 10
-162.91894916
 20
127.17445649
 30
0.0
 11
-145.95178929
 21
127.17445649
 31
0.0
  0
LINE
  5
10F
100
AcDbEntity
  8
LAYER0005
  6
CONTINUOUS
 62
       7
100
AcDbLine
 10
-277.06855977
 20
104.18387049
 30
0.0
 11
-276.54240403
 21
104.18387049
 31
0.0
  0
LINE
  5
110
100
AcDbEntity
  8
LAYER0005
  6
CONTINUOUS
 62
       7
100
AcDbLine
 10
-276.70396189
 20
110.5478979
 30
0.0
 11
-276.53522473
 21
99.56929389
 31
0.0
  0
LINE
  5
111
100
AcDbEntity
  8
LAYER0005
  6
CONTINUOUS
 62
       7
100
AcDbLine
 10
-163.95573472
 20
80.51361618
 30
0.0
 11
-164.97370294
 21
80.25969946
 31
0.0
  0
LINE
  5
112
100
AcDbEntity
  8
LAYER0005
  6
CONTINUOUS
 62
       7
100
AcDbLine
 10
-164.97370294
 20
80.25969946
 30
0.0
 11
-165.73698733
 21
79.49564796
 31
0.0
  0
LINE
  5
113
100
AcDbEntity
  8
LAYER0005
  6
CONTINUOUS
 62
       7
100
AcDbLine
 10
-165.73698733
 20
79.49564796
 30
0.0
 11
-165.99167117
 21
78.56283005
 31
0.0
  0
LINE
  5
114
100
AcDbEntity
  8
LAYER0005
  6
CONTINUOUS
 62
       7
100
AcDbLine
 10
-252.10165679
 20
78.56283005
 30
0.0
 11
-252.35634063
 21
79.58079828
 31
0.0
  0
LINE
  5
115
100
AcDbEntity
  8
LAYER0005
  6
CONTINUOUS
 62
       7
100
AcDbLine
 10
-252.35634063
 20
79.58079828
 30
0.0
 11
-253.11962501
 21
80.25969946
 31
0.0
  0
LINE
  5
116
100
AcDbEntity
  8
LAYER0005
  6
CONTINUOUS
 62
       7
100
AcDbLine
 10
-253.11962501
 20
80.25969946
 30
0.0
 11
-254.13759324
 21
80.51361618
 31
0.0
  0
LINE
  5
117
100
AcDbEntity
  8
LAYER0005
  6
CONTINUOUS
 62
       7
100
AcDbLine
 10
-162.91894916
 20
125.6471206
 30
0.0
 11
-162.91894916
 21
127.17445649
 31
0.0
  0
LINE
  5
118
100
AcDbEntity
  8
LAYER0005
  6
CONTINUOUS
 62
       7
100
AcDbLine
 10
-142.55414953
 20
98.58466171
 30
0.0
 11
-176.08390171
 21
98.58466171
 31
0.0
  0
LINE
  5
119
100
AcDbEntity
  8
LAYER0005
  6
CONTINUOUS
 62
       7
100
AcDbLine
 10
-139.93536923
 20
110.5478979
 30
0.0
 11
-140.0210594
 21
105.16794483
 31
0.0
  0
LINE
  5
11A
100
AcDbEntity
  8
LAYER0005
  6
CONTINUOUS
 62
       7
100
AcDbLine
 10
-141.38553047
 20
110.5478979
 30
0.0
 11
-141.55426762
 21
99.56929389
 31
0.0
  0
LINE
  5
11B
100
AcDbEntity
  8
LAYER0005
  6
CONTINUOUS
 62
       7
100
AcDbLine
 10
-141.02093258
 20
104.18387049
 30
0.0
 11
-141.54708832
 21
104.18387049
 31
0.0
  0
LINE
  5
11C
100
AcDbEntity
  8
LAYER0005
  6
CONTINUOUS
 62
       7
100
AcDbLine
 10
-176.08390171
 20
104.18387049
 30
0.0
 11
-176.08390171
 21
98.58389459
 31
0.0
  0
LINE
  5
11D
100
AcDbEntity
  8
LAYER0005
  6
CONTINUOUS
 62
       7
100
AcDbLine
 10
-166.24576242
 20
65.52840774
 30
0.0
 11
-165.99167117
 21
78.56283005
 31
0.0
  0
LINE
  5
11E
100
AcDbEntity
  8
LAYER0005
  6
CONTINUOUS
 62
       7
100
AcDbLine
 10
-251.84756553
 20
65.52840774
 30
0.0
 11
-252.10165679
 21
78.56283005
 31
0.0
  0
LINE
  5
11F
100
AcDbEntity
  8
LAYER0005
  6
CONTINUOUS
 62
       7
100
AcDbLine
 10
-142.65818253
 20
125.6471206
 30
0.0
 11
-170.23000909
 21
125.6471206
 31
0.0
  0
LINE
  5
120
100
AcDbEntity
  8
LAYER0005
  6
CONTINUOUS
 62
       7
100
AcDbLine
 10
-269.66256753
 20
80.51361618
 30
0.0
 11
-141.21906544
 21
80.51361618
 31
0.0
  0
LINE
  5
121
100
AcDbEntity
  8
LAYER0005
  6
CONTINUOUS
 62
       7
100
AcDbLine
 10
-170.23000909
 20
125.6471206
 30
0.0
 11
-170.23000909
 21
119.62369446
 31
0.0
  0
LINE
  5
122
100
AcDbEntity
  8
LAYER0005
  6
CONTINUOUS
 62
       7
100
AcDbLine
 10
-278.15412312
 20
110.5478979
 30
0.0
 11
-278.06843295
 21
105.16794483
 31
0.0
  0
LINE
  5
123
100
AcDbEntity
  8
LAYER0005
  6
CONTINUOUS
 62
       7
100
AcDbLine
 10
-118.31286263
 20
75.00109196
 30
0.0
 11
-118.65269679
 21
76.01752594
 31
0.0
  0
LINE
  5
124
100
AcDbEntity
  8
LAYER0005
  6
CONTINUOUS
 62
       7
100
AcDbLine
 10
-118.65269679
 20
76.01752594
 30
0.0
 11
-119.32929662
 21
76.78157744
 31
0.0
  0
LINE
  5
125
100
AcDbEntity
  8
LAYER0005
  6
CONTINUOUS
 62
       7
100
AcDbLine
 10
-119.32929662
 20
76.78157744
 30
0.0
 11
-120.3495662
 21
77.0370284
 31
0.0
  0
LINE
  5
126
100
AcDbEntity
  8
LAYER0005
  6
CONTINUOUS
 62
       7
100
AcDbLine
 10
-118.31286263
 20
41.99805589
 30
0.0
 11
-118.48316327
 21
42.42227324
 31
0.0
  0
LINE
  5
127
100
AcDbEntity
  8
LAYER0005
  6
CONTINUOUS
 62
       7
100
AcDbLine
 10
-118.48316327
 20
42.42227324
 30
0.0
 11
-118.82069607
 21
42.84649059
 31
0.0
  0
LINE
  5
128
100
AcDbEntity
  8
LAYER0005
  6
CONTINUOUS
 62
       7
100
AcDbLine
 10
-118.82069607
 20
42.84649059
 30
0.0
 11
-119.32929662
 21
42.93087379
 31
0.0
  0
LINE
  5
129
100
AcDbEntity
  8
LAYER0005
  6
CONTINUOUS
 62
       7
100
AcDbLine
 10
-119.32929662
 20
59.98318398
 30
0.0
 11
-118.82069607
 21
60.15271749
 31
0.0
  0
LINE
  5
12A
100
AcDbEntity
  8
LAYER0005
  6
CONTINUOUS
 62
       7
100
AcDbLine
 10
-118.82069607
 20
60.15271749
 30
0.0
 11
-118.48316327
 21
60.49255165
 31
0.0
  0
LINE
  5
12B
100
AcDbEntity
  8
LAYER0005
  6
CONTINUOUS
 62
       7
100
AcDbLine
 10
-118.48316327
 20
60.49255165
 30
0.0
 11
-118.31286263
 21
61.00268644
 31
0.0
  0
LINE
  5
12C
100
AcDbEntity
  8
LAYER0005
  6
CONTINUOUS
 62
       7
100
AcDbLine
 10
-128.32377846
 20
43.94884201
 30
0.0
 11
-128.23786102
 21
43.4417757
 31
0.0
  0
LINE
  5
12D
100
AcDbEntity
  8
LAYER0005
  6
CONTINUOUS
 62
       7
100
AcDbLine
 10
-128.23786102
 20
43.4417757
 30
0.0
 11
-127.90109535
 21
43.10117443
 31
0.0
  0
LINE
  5
12E
100
AcDbEntity
  8
LAYER0005
  6
CONTINUOUS
 62
       7
100
AcDbLine
 10
-127.90109535
 20
43.10117443
 30
0.0
 11
-127.39096056
 21
42.93087379
 31
0.0
  0
LINE
  5
12F
100
AcDbEntity
  8
LAYER0005
  6
CONTINUOUS
 62
       7
100
AcDbLine
 10
-127.39096056
 20
59.98318398
 30
0.0
 11
-127.90109535
 21
59.89880078
 31
0.0
  0
LINE
  5
130
100
AcDbEntity
  8
LAYER0005
  6
CONTINUOUS
 62
       7
100
AcDbLine
 10
-127.90109535
 20
59.89880078
 30
0.0
 11
-128.23786102
 21
59.47458342
 31
0.0
  0
LINE
  5
131
100
AcDbEntity
  8
LAYER0005
  6
CONTINUOUS
 62
       7
100
AcDbLine
 10
-128.23786102
 20
59.47458342
 30
0.0
 11
-128.32377846
 21
58.96521575
 31
0.0
  0
LINE
  5
132
100
AcDbEntity
  8
LAYER0005
  6
CONTINUOUS
 62
       7
100
AcDbLine
 10
-132.39641847
 20
71.5214357
 30
0.0
 11
-122.89410319
 21
71.5214357
 31
0.0
  0
LINE
  5
133
100
AcDbEntity
  8
LAYER0005
  6
CONTINUOUS
 62
       7
100
AcDbLine
 10
-119.32929662
 20
42.93087379
 30
0.0
 11
-127.39096056
 21
42.93087379
 31
0.0
  0
LINE
  5
134
100
AcDbEntity
  8
LAYER0005
  6
CONTINUOUS
 62
       7
100
AcDbLine
 10
-127.39096056
 20
59.98318398
 30
0.0
 11
-119.32929662
 21
59.98318398
 31
0.0
  0
LINE
  5
135
100
AcDbEntity
  8
LAYER0005
  6
CONTINUOUS
 62
       7
100
AcDbLine
 10
-118.31286263
 20
67.02611257
 30
0.0
 11
-128.32377846
 21
77.0370284
 31
0.0
  0
LINE
  5
136
100
AcDbEntity
  8
LAYER0005
  6
CONTINUOUS
 62
       7
100
AcDbLine
 10
-157.93230859
 20
80.5143833
 30
0.0
 11
-157.93230859
 21
77.0370284
 31
0.0
  0
LINE
  5
137
100
AcDbEntity
  8
LAYER0005
  6
CONTINUOUS
 62
       7
100
AcDbLine
 10
-120.3495662
 20
77.0370284
 30
0.0
 11
-157.93230859
 21
77.0370284
 31
0.0
  0
LINE
  5
138
100
AcDbEntity
  8
LAYER0005
  6
CONTINUOUS
 62
       7
100
AcDbLine
 10
-114.83474061
 20
80.5143833
 30
0.0
 11
-157.93230859
 21
80.5143833
 31
0.0
  0
LINE
  5
139
100
AcDbEntity
  8
LAYER0005
  6
CONTINUOUS
 62
       7
100
AcDbLine
 10
-118.31286263
 20
75.00109196
 30
0.0
 11
-118.31286263
 21
41.5478979
 31
0.0
  0
LINE
  5
13A
100
AcDbEntity
  8
LAYER0005
  6
CONTINUOUS
 62
       7
100
AcDbLine
 10
-114.83474061
 20
80.5143833
 30
0.0
 11
-114.83474061
 21
41.5478979
 31
0.0
  0
LINE
  5
13B
100
AcDbEntity
  8
LAYER0005
  6
CONTINUOUS
 62
       7
100
AcDbLine
 10
-165.3940847
 20
124.63068661
 30
0.0
 11
-165.3940847
 21
119.62369446
 31
0.0
  0
LINE
  5
13C
100
AcDbEntity
  8
LAYER0005
  6
CONTINUOUS
 62
       7
100
AcDbLine
 10
-275.53534282
 20
98.58466171
 30
0.0
 11
-242.00559065
 21
98.58466171
 31
0.0
  0
LINE
  5
13D
100
AcDbEntity
  8
LAYER0005
  6
CONTINUOUS
 62
       7
100
AcDbLine
 10
-164.96986735
 20
125.47758708
 30
0.0
 11
-164.46126679
 21
125.6471206
 31
0.0
  0
LINE
  5
13E
100
AcDbEntity
  8
LAYER0005
  6
CONTINUOUS
 62
       7
100
AcDbLine
 10
-165.3097015
 20
125.13852005
 30
0.0
 11
-164.96986735
 21
125.47758708
 31
0.0
  0
LINE
  5
13F
100
AcDbEntity
  8
LAYER0005
  6
CONTINUOUS
 62
       7
100
AcDbLine
 10
-165.3940847
 20
124.63068661
 30
0.0
 11
-165.3097015
 21
125.13852005
 31
0.0
  0
LINE
  5
140
100
AcDbEntity
  8
LAYER0005
  6
CONTINUOUS
 62
       7
100
AcDbLine
 10
-166.41205292
 20
117.84244185
 30
0.0
 11
-167.43078826
 21
117.58775802
 31
0.0
  0
LINE
  5
141
100
AcDbEntity
  8
LAYER0005
  6
CONTINUOUS
 62
       7
100
AcDbLine
 10
-165.73391885
 20
118.60726048
 30
0.0
 11
-166.41205292
 21
117.84244185
 31
0.0
  0
LINE
  5
142
100
AcDbEntity
  8
LAYER0005
  6
CONTINUOUS
 62
       7
100
AcDbLine
 10
-165.3940847
 20
119.62369446
 30
0.0
 11
-165.73391885
 21
118.60726048
 31
0.0
  0
LINE
  5
143
100
AcDbEntity
  8
LAYER0005
  6
CONTINUOUS
 62
       7
100
AcDbLine
 10
-223.00249434
 20
78.56283005
 30
0.0
 11
-223.34156137
 21
79.58079828
 31
0.0
  0
LINE
  5
144
100
AcDbEntity
  8
LAYER0005
  6
CONTINUOUS
 62
       7
100
AcDbLine
 10
-223.34156137
 20
79.58079828
 30
0.0
 11
-224.10561288
 21
80.25969946
 31
0.0
  0
LINE
  5
145
100
AcDbEntity
  8
LAYER0005
  6
CONTINUOUS
 62
       7
100
AcDbLine
 10
-224.10561288
 20
80.25969946
 30
0.0
 11
-225.03843078
 21
80.5143833
 31
0.0
  0
LINE
  5
146
100
AcDbEntity
  8
LAYER0005
  6
CONTINUOUS
 62
       7
100
AcDbLine
 10
-193.05489718
 20
80.5143833
 30
0.0
 11
-194.0728654
 21
80.25969946
 31
0.0
  0
LINE
  5
147
100
AcDbEntity
  8
LAYER0005
  6
CONTINUOUS
 62
       7
100
AcDbLine
 10
-194.0728654
 20
80.25969946
 30
0.0
 11
-194.75176659
 21
79.49641508
 31
0.0
  0
LINE
  5
148
100
AcDbEntity
  8
LAYER0005
  6
CONTINUOUS
 62
       7
100
AcDbLine
 10
-194.75176659
 20
79.49641508
 30
0.0
 11
-195.09083362
 21
78.56283005
 31
0.0
  0
LINE
  5
149
100
AcDbEntity
  8
LAYER0005
  6
CONTINUOUS
 62
       7
100
AcDbLine
 10
-223.00249434
 20
78.56283005
 30
0.0
 11
-222.83343981
 21
65.53492265
 31
0.0
  0
LINE
  5
14A
100
AcDbEntity
  8
LAYER0005
  6
CONTINUOUS
 62
       7
100
AcDbLine
 10
-195.09083362
 20
78.56283005
 30
0.0
 11
-195.25988814
 21
65.53492265
 31
0.0
  0
LINE
  5
14B
100
AcDbEntity
  8
LAYER0005
  6
CONTINUOUS
 62
       7
100
AcDbLine
 10
-140.77130899
 20
104.21552754
 30
0.0
 11
-141.21906544
 21
80.51361618
 31
0.0
  0
LINE
  5
14C
100
AcDbEntity
  8
LAYER0005
  6
CONTINUOUS
 62
       7
100
AcDbLine
 10
-128.32301134
 20
56.42144588
 30
0.0
 11
-135.53470634
 21
56.42144588
 31
0.0
  0
LINE
  5
14D
100
AcDbEntity
  8
LAYER0005
  6
CONTINUOUS
 62
       7
100
AcDbLine
 10
-128.32301134
 20
61.25583603
 30
0.0
 11
-135.53470634
 21
61.25583603
 31
0.0
  0
LINE
  5
14E
100
AcDbEntity
  8
LAYER0005
  6
CONTINUOUS
 62
       7
100
AcDbLine
 10
-136.38314104
 20
44.11837553
 30
0.0
 11
-136.38314104
 21
58.79568224
 31
0.0
  0
LINE
  5
14F
100
AcDbEntity
  8
LAYER0005
  6
CONTINUOUS
 62
       7
100
AcDbLine
 10
-128.32301134
 20
41.65822173
 30
0.0
 11
-128.32301134
 21
61.25583603
 31
0.0
  0
LINE
  5
150
100
AcDbEntity
  8
LAYER0005
  6
CONTINUOUS
 62
       7
100
AcDbLine
 10
-135.53470634
 20
46.57929645
 30
0.0
 11
-128.32301134
 21
46.57929645
 31
0.0
  0
LINE
  5
151
100
AcDbEntity
  8
LAYER0005
  6
CONTINUOUS
 62
       7
100
AcDbLine
 10
-128.32301134
 20
41.65822173
 30
0.0
 11
-135.53470634
 21
41.65822173
 31
0.0
  0
LINE
  5
152
100
AcDbEntity
  8
LAYER0005
  6
CONTINUOUS
 62
       7
100
AcDbLine
 10
-156.65888941
 20
77.0370284
 30
0.0
 11
-156.65888941
 21
75.00109196
 31
0.0
  0
LINE
  5
153
100
AcDbEntity
  8
LAYER0005
  6
CONTINUOUS
 62
       7
100
AcDbLine
 10
-156.65888941
 20
75.00109196
 30
0.0
 11
-141.21829832
 21
75.00109196
 31
0.0
  0
LINE
  5
154
100
AcDbEntity
  8
LAYER0005
  6
CONTINUOUS
 62
       7
100
AcDbLine
 10
-141.21829832
 20
77.0370284
 30
0.0
 11
-141.21829832
 21
75.00109196
 31
0.0
  0
LINE
  5
155
100
AcDbEntity
  8
LAYER0005
  6
CONTINUOUS
 62
       7
100
AcDbLine
 10
-145.11987057
 20
75.00109196
 30
0.0
 11
-145.11987057
 21
70.24878364
 31
0.0
  0
LINE
  5
156
100
AcDbEntity
  8
LAYER0005
  6
CONTINUOUS
 62
       7
100
AcDbLine
 10
-141.38629759
 20
75.00109196
 30
0.0
 11
-141.38629759
 21
70.24878364
 31
0.0
  0
LINE
  5
157
100
AcDbEntity
  8
LAYER0005
  6
CONTINUOUS
 62
       7
100
AcDbLine
 10
-152.67139972
 20
75.00109196
 30
0.0
 11
-152.67139972
 21
70.24878364
 31
0.0
  0
LINE
  5
158
100
AcDbEntity
  8
LAYER0005
  6
CONTINUOUS
 62
       7
100
AcDbLine
 10
-156.40420557
 20
75.00109196
 30
0.0
 11
-156.40420557
 21
70.24878364
 31
0.0
  0
LINE
  5
159
100
AcDbEntity
  8
LAYER0005
  6
CONTINUOUS
 62
       7
100
AcDbLine
 10
-255.17054319
 20
125.6471206
 30
0.0
 11
-255.17054319
 21
127.17445649
 31
0.0
  0
LINE
  5
15A
100
AcDbEntity
  8
LAYER0005
  6
CONTINUOUS
 62
       7
100
AcDbLine
 10
-255.17054319
 20
127.17445649
 30
0.0
 11
-272.13770306
 21
127.17445649
 31
0.0
  0
LINE
  5
15B
100
AcDbEntity
  8
LAYER0005
  6
CONTINUOUS
 62
       7
100
AcDbLine
 10
-272.13770306
 20
125.6471206
 30
0.0
 11
-272.13770306
 21
127.17445649
 31
0.0
  0
LINE
  5
15C
100
AcDbEntity
  8
LAYER0005
  6
CONTINUOUS
 62
       7
100
AcDbLine
 10
-267.38692898
 20
127.17445649
 30
0.0
 11
-267.38692898
 21
132.09476408
 31
0.0
  0
LINE
  5
15D
100
AcDbEntity
  8
LAYER0005
  6
CONTINUOUS
 62
       7
100
AcDbLine
 10
-271.20411803
 20
127.17445649
 30
0.0
 11
-271.20411803
 21
132.09476408
 31
0.0
  0
LINE
  5
15E
100
AcDbEntity
  8
LAYER0005
  6
CONTINUOUS
 62
       7
100
AcDbLine
 10
-258.05491434
 20
132.77366527
 30
0.0
 11
-269.25333191
 21
132.77366527
 31
0.0
  0
LINE
  5
15F
100
AcDbEntity
  8
LAYER0005
  6
CONTINUOUS
 62
       7
100
AcDbLine
 10
-259.91978303
 20
127.17445649
 30
0.0
 11
-259.91978303
 21
132.09476408
 31
0.0
  0
LINE
  5
160
100
AcDbEntity
  8
LAYER0005
  6
CONTINUOUS
 62
       7
100
AcDbLine
 10
-256.1033611
 20
127.17445649
 30
0.0
 11
-256.1033611
 21
132.09476408
 31
0.0
  0
LINE
  5
161
100
AcDbEntity
  8
LAYER0005
  6
CONTINUOUS
 62
       7
100
AcDbLine
 10
-132.39565135
 20
41.65822173
 30
0.0
 11
-132.39565135
 21
41.5478979
 31
0.0
  0
LINE
  5
162
100
AcDbEntity
  8
LAYER0005
  6
CONTINUOUS
 62
       7
100
AcDbLine
 10
-132.39565135
 20
71.5214357
 30
0.0
 11
-132.39565135
 21
61.25583603
 31
0.0
  0
LINE
  5
163
100
AcDbEntity
  8
LAYER0005
  6
CONTINUOUS
 62
       7
100
AcDbLine
 10
-136.38314103
 20
46.40899581
 30
0.0
 11
-139.4370457
 21
46.40899581
 31
0.0
  0
LINE
  5
164
100
AcDbEntity
  8
LAYER0005
  6
CONTINUOUS
 62
       7
100
AcDbLine
 10
-59.77470357
 20
46.40899581
 30
0.0
 11
-114.83397349
 21
46.40899581
 31
0.0
  0
LINE
  5
165
100
AcDbEntity
  8
LAYER0005
  6
CONTINUOUS
 62
       7
100
AcDbLine
 10
-136.38314104
 20
56.50506196
 30
0.0
 11
-139.43704571
 21
56.50506196
 31
0.0
  0
LINE
  5
166
100
AcDbEntity
  8
LAYER0005
  6
CONTINUOUS
 62
       7
100
AcDbLine
 10
-139.4370457
 20
46.40899581
 30
0.0
 11
-140.9643816
 21
47.93633171
 31
0.0
  0
LINE
  5
167
100
AcDbEntity
  8
LAYER0005
  6
CONTINUOUS
 62
       7
100
AcDbLine
 10
-139.43704571
 20
56.50506196
 30
0.0
 11
-140.9643816
 21
54.9792603
 31
0.0
  0
LINE
  5
168
100
AcDbEntity
  8
LAYER0005
  6
CONTINUOUS
 62
       7
100
AcDbLine
 10
-140.9643816
 20
54.9792603
 30
0.0
 11
-140.9643816
 21
47.93633171
 31
0.0
  0
LINE
  5
169
100
AcDbEntity
  8
LAYER0005
  6
CONTINUOUS
 62
       7
100
AcDbLine
 10
-153.09561707
 20
104.06419977
 30
0.0
 11
-264.99617665
 21
104.06419977
 31
0.0
  0
LINE
  5
16A
100
AcDbEntity
  8
LAYER0005
  6
CONTINUOUS
 62
       7
100
AcDbLine
 10
-153.09561707
 20
117.4182245
 30
0.0
 11
-264.99617665
 21
117.4182245
 31
0.0
  0
LINE
  5
16B
100
AcDbEntity
  8
LAYER0005
  6
CONTINUOUS
 62
       7
100
AcDbLine
 10
-275.43207695
 20
125.6471206
 30
0.0
 11
-275.9406775
 21
125.47758708
 31
0.0
  0
LINE
  5
16C
100
AcDbEntity
  8
LAYER0005
  6
CONTINUOUS
 62
       7
100
AcDbLine
 10
-275.9406775
 20
125.47758708
 30
0.0
 11
-276.27974453
 21
125.13852005
 31
0.0
  0
LINE
  5
16D
100
AcDbEntity
  8
LAYER0005
  6
CONTINUOUS
 62
       7
100
AcDbLine
 10
-276.27974453
 20
125.13852005
 30
0.0
 11
-276.45004517
 21
124.63068661
 31
0.0
  0
LINE
  5
16E
100
AcDbEntity
  8
LAYER0005
  6
CONTINUOUS
 62
       7
100
AcDbLine
 10
-276.54240403
 20
117.58775802
 30
0.0
 11
-276.98606936
 21
117.58775802
 31
0.0
  0
LINE
  5
16F
100
AcDbEntity
  8
LAYER0005
  6
CONTINUOUS
 62
       7
100
AcDbLine
 10
-276.45004517
 20
124.63068661
 30
0.0
 11
-276.61957869
 21
117.58775802
 31
0.0
  0
LINE
  5
170
100
AcDbEntity
  8
LAYER0005
  6
CONTINUOUS
 62
       7
100
AcDbLine
 10
-278.15412312
 20
110.5478979
 30
0.0
 11
-277.98568426
 21
116.61550766
 31
0.0
  0
LINE
  5
171
100
AcDbEntity
  8
LAYER0005
  6
CONTINUOUS
 62
       7
100
AcDbLine
 10
218.37759243
 20
-55.87929036
 30
0.0
 11
178.24332089
 21
-55.87929036
 31
0.0
  0
LINE
  5
172
100
AcDbEntity
  8
LAYER0005
  6
CONTINUOUS
 62
       7
100
AcDbLine
 10
223.37759243
 20
-61.95738828
 30
0.0
 11
223.37759243
 21
-60.87929036
 31
0.0
  0
LINE
  5
173
100
AcDbEntity
  8
LAYER0005
  6
CONTINUOUS
 62
       7
100
AcDbLine
 10
226.37759243
 20
-64.95738828
 30
0.0
 11
234.37292946
 21
-64.95738828
 31
0.0
  0
LINE
  5
174
100
AcDbEntity
  8
LAYER0005
  6
CONTINUOUS
 62
       7
100
AcDbLine
 10
237.37292946
 20
-19.82311674
 30
0.0
 11
237.37292946
 21
-61.95738828
 31
0.0
  0
LINE
  5
175
100
AcDbEntity
  8
LAYER0005
  6
CONTINUOUS
 62
       7
100
AcDbLine
 10
212.34640702
 20
-77.89020618
 30
0.0
 11
212.34640702
 21
-86.98391072
 31
0.0
  0
LINE
  5
176
100
AcDbEntity
  8
LAYER0005
  6
CONTINUOUS
 62
       7
100
AcDbLine
 10
212.34640702
 20
-65.89020618
 30
0.0
 11
184.01359743
 21
-65.89020618
 31
0.0
  0
LINE
  5
177
100
AcDbEntity
  8
LAYER0005
  6
CONTINUOUS
 62
       7
100
AcDbLine
 10
209.34640702
 20
-89.98391072
 30
0.0
 11
187.23550137
 21
-89.98391072
 31
0.0
  0
LINE
  5
178
100
AcDbEntity
  8
LAYER0005
  6
CONTINUOUS
 62
       7
100
AcDbLine
 10
-155.44146999
 20
-138.14662335
 30
0.0
 11
-151.62581518
 21
-131.69974698
 31
0.0
  0
LINE
  5
179
100
AcDbEntity
  8
LAYER0005
  6
CONTINUOUS
 62
       7
100
AcDbLine
 10
-151.62581518
 20
-144.67941716
 30
0.0
 11
-155.44146999
 21
-138.14662335
 31
0.0
  0
LINE
  5
17A
100
AcDbEntity
  8
LAYER0005
  6
CONTINUOUS
 62
       7
100
AcDbLine
 10
-144.07198467
 20
-144.67941716
 30
0.0
 11
-151.62581518
 21
-144.67941716
 31
0.0
  0
LINE
  5
17B
100
AcDbEntity
  8
LAYER0005
  6
CONTINUOUS
 62
       7
100
AcDbLine
 10
-140.34071305
 20
-138.14662335
 30
0.0
 11
-144.07198467
 21
-144.67941716
 31
0.0
  0
LINE
  5
17C
100
AcDbEntity
  8
LAYER0005
  6
CONTINUOUS
 62
       7
100
AcDbLine
 10
-135.33525514
 20
-141.71219705
 30
0.0
 11
-135.33525514
 21
-124.6575855
 31
0.0
  0
LINE
  5
17D
100
AcDbEntity
  8
LAYER0005
  6
CONTINUOUS
 62
       7
100
AcDbLine
 10
-127.27589256
 20
-141.71219705
 30
0.0
 11
-135.33525514
 21
-141.71219705
 31
0.0
  0
LINE
  5
17E
100
AcDbEntity
  8
LAYER0005
  6
CONTINUOUS
 62
       7
100
AcDbLine
 10
-127.27589256
 20
-124.6575855
 30
0.0
 11
-127.27589256
 21
-141.71219705
 31
0.0
  0
LINE
  5
17F
100
AcDbEntity
  8
LAYER0005
  6
CONTINUOUS
 62
       7
100
AcDbLine
 10
-135.33525514
 20
-124.6575855
 30
0.0
 11
-127.27589256
 21
-124.6575855
 31
0.0
  0
LINE
  5
180
100
AcDbEntity
  8
LAYER0005
  6
CONTINUOUS
 62
       7
100
AcDbLine
 10
-127.27589256
 20
-133.14193256
 30
0.0
 11
-135.33525514
 21
-133.14193256
 31
0.0
  0
LINE
  5
181
100
AcDbEntity
  8
LAYER0005
  6
CONTINUOUS
 62
       7
100
AcDbLine
 10
-135.33525514
 20
-128.13417328
 30
0.0
 11
-138.38992693
 21
-128.13417328
 31
0.0
  0
LINE
  5
182
100
AcDbEntity
  8
LAYER0005
  6
CONTINUOUS
 62
       7
100
AcDbLine
 10
-139.9164957
 20
-136.70443777
 30
0.0
 11
-139.9164957
 21
-129.6622763
 31
0.0
  0
LINE
  5
183
100
AcDbEntity
  8
LAYER0005
  6
CONTINUOUS
 62
       7
100
AcDbLine
 10
-138.38915981
 20
-138.14662335
 30
0.0
 11
-139.9164957
 21
-136.70443777
 31
0.0
  0
LINE
  5
184
100
AcDbEntity
  8
LAYER0005
  6
CONTINUOUS
 62
       7
100
AcDbLine
 10
-138.38915981
 20
-128.13417328
 30
0.0
 11
-139.9164957
 21
-129.6622763
 31
0.0
  0
LINE
  5
185
100
AcDbEntity
  8
LAYER0005
  6
CONTINUOUS
 62
       7
100
AcDbLine
 10
-135.33525514
 20
-138.14662335
 30
0.0
 11
-138.38915981
 21
-138.14662335
 31
0.0
  0
LINE
  5
186
100
AcDbEntity
  8
LAYER0005
  6
CONTINUOUS
 62
       7
100
AcDbLine
 10
-95.8009595
 20
-138.14662335
 30
0.0
 11
-113.78838895
 21
-138.14662335
 31
0.0
  0
LINE
  5
187
100
AcDbEntity
  8
LAYER0005
  6
CONTINUOUS
 62
       7
100
AcDbLine
 10
-150.43256679
 20
-124.14821783
 30
0.0
 11
-141.37170209
 21
-124.14821783
 31
0.0
  0
LINE
  5
188
100
AcDbEntity
  8
LAYER0005
  6
CONTINUOUS
 62
       7
100
AcDbLine
 10
-147.89070796
 20
-129.1559771
 30
0.0
 11
-139.40712803
 21
-129.1559771
 31
0.0
  0
LINE
  5
189
100
AcDbEntity
  8
LAYER0005
  6
CONTINUOUS
 62
       7
100
AcDbLine
 10
-147.89070796
 20
-147.22625551
 30
0.0
 11
-113.78762183
 21
-147.22625551
 31
0.0
  0
LINE
  5
18A
100
AcDbEntity
  8
LAYER0005
  6
CONTINUOUS
 62
       7
100
AcDbLine
 10
-118.28217783
 20
-142.21849624
 30
0.0
 11
-126.34230753
 21
-142.21849624
 31
0.0
  0
LINE
  5
18B
100
AcDbEntity
  8
LAYER0005
  6
CONTINUOUS
 62
       7
100
AcDbLine
 10
-126.34230753
 20
-125.16695317
 30
0.0
 11
-118.28217783
 21
-125.16695317
 31
0.0
  0
LINE
  5
18C
100
AcDbEntity
  8
LAYER0005
  6
CONTINUOUS
 62
       7
100
AcDbLine
 10
-126.85244233
 20
-125.33878805
 30
0.0
 11
-126.34230753
 21
-125.16695317
 31
0.0
  0
LINE
  5
18D
100
AcDbEntity
  8
LAYER0005
  6
CONTINUOUS
 62
       7
100
AcDbLine
 10
-127.19074224
 20
-125.67632085
 30
0.0
 11
-126.85244233
 21
-125.33878805
 31
0.0
  0
LINE
  5
18E
100
AcDbEntity
  8
LAYER0005
  6
CONTINUOUS
 62
       7
100
AcDbLine
 10
-127.27512544
 20
-126.18568852
 30
0.0
 11
-127.19074224
 21
-125.67632085
 31
0.0
  0
LINE
  5
18F
100
AcDbEntity
  8
LAYER0005
  6
CONTINUOUS
 62
       7
100
AcDbLine
 10
-127.19074224
 20
-141.71219705
 30
0.0
 11
-127.27512544
 21
-141.20282938
 31
0.0
  0
LINE
  5
190
100
AcDbEntity
  8
LAYER0005
  6
CONTINUOUS
 62
       7
100
AcDbLine
 10
-126.85244233
 20
-142.04972984
 30
0.0
 11
-127.19074224
 21
-141.71219705
 31
0.0
  0
LINE
  5
191
100
AcDbEntity
  8
LAYER0005
  6
CONTINUOUS
 62
       7
100
AcDbLine
 10
-126.34230753
 20
-142.21849624
 30
0.0
 11
-126.85244233
 21
-142.04972984
 31
0.0
  0
LINE
  5
192
100
AcDbEntity
  8
LAYER0005
  6
CONTINUOUS
 62
       7
100
AcDbLine
 10
-117.77357728
 20
-124.99818678
 30
0.0
 11
-118.28217783
 21
-125.16695317
 31
0.0
  0
LINE
  5
193
100
AcDbEntity
  8
LAYER0005
  6
CONTINUOUS
 62
       7
100
AcDbLine
 10
-117.43374313
 20
-124.6575855
 30
0.0
 11
-117.77357728
 21
-124.99818678
 31
0.0
  0
LINE
  5
194
100
AcDbEntity
  8
LAYER0005
  6
CONTINUOUS
 62
       7
100
AcDbLine
 10
-117.26574385
 20
-124.14821783
 30
0.0
 11
-117.43374313
 21
-124.6575855
 31
0.0
  0
LINE
  5
195
100
AcDbEntity
  8
LAYER0005
  6
CONTINUOUS
 62
       7
100
AcDbLine
 10
-117.43374313
 20
-142.72786391
 30
0.0
 11
-117.26574385
 21
-143.15438262
 31
0.0
  0
LINE
  5
196
100
AcDbEntity
  8
LAYER0005
  6
CONTINUOUS
 62
       7
100
AcDbLine
 10
-117.77357728
 20
-142.30441368
 30
0.0
 11
-117.43374313
 21
-142.72786391
 31
0.0
  0
LINE
  5
197
100
AcDbEntity
  8
LAYER0005
  6
CONTINUOUS
 62
       7
100
AcDbLine
 10
-118.28217783
 20
-142.21849624
 30
0.0
 11
-117.77357728
 21
-142.30441368
 31
0.0
  0
LINE
  5
198
100
AcDbEntity
  8
LAYER0005
  6
CONTINUOUS
 62
       7
100
AcDbLine
 10
-117.26574385
 20
-123.47008376
 30
0.0
 11
-117.26574385
 21
-147.22625551
 31
0.0
  0
LINE
  5
199
100
AcDbEntity
  8
LAYER0005
  6
CONTINUOUS
 62
       7
100
AcDbLine
 10
-140.40865633
 20
-55.8114539
 30
0.0
 11
-140.29446989
 21
-55.07163932
 31
0.0
  0
LINE
  5
19A
100
AcDbEntity
  8
LAYER0005
  6
CONTINUOUS
 62
       7
100
AcDbLine
 10
-154.33734657
 20
-163.83265224
 30
0.0
 11
-209.15412312
 21
-165.2724893
 31
0.0
  0
LINE
  5
19B
100
AcDbEntity
  8
LAYER0005
  6
CONTINUOUS
 62
       7
100
AcDbLine
 10
-142.60129257
 20
-152.29894274
 30
0.0
 11
-142.37972357
 21
-147.22625551
 31
0.0
  0
LINE
  5
19C
100
AcDbEntity
  8
LAYER0005
  6
CONTINUOUS
 62
       7
100
AcDbLine
 10
-142.60129257
 20
-40.24603587
 30
0.0
 11
-142.37972357
 21
-45.31872309
 31
0.0
  0
LINE
  5
19D
100
AcDbEntity
  8
LAYER0005
  6
CONTINUOUS
 62
       7
100
AcDbLine
 10
-167.26350007
 20
-133.6514068
 30
0.0
 11
-167.26350007
 21
-58.8935718
 31
0.0
  0
LINE
  5
19E
100
AcDbEntity
  8
LAYER0005
  6
CONTINUOUS
 62
       7
100
AcDbLine
 10
-155.70663303
 20
-58.88652771
 30
0.0
 11
-156.33908894
 21
-59.51898362
 31
0.0
  0
LINE
  5
19F
100
AcDbEntity
  8
LAYER0005
  6
CONTINUOUS
 62
       7
100
AcDbLine
 10
-163.18488737
 20
-32.24172505
 30
0.0
 11
-174.01905726
 21
-43.07589494
 31
0.0
  0
LINE
  5
1A0
100
AcDbEntity
  8
LAYER0005
  6
CONTINUOUS
 62
       7
100
AcDbLine
 10
-182.76350007
 20
-43.3935718
 30
0.0
 11
-191.95933163
 21
-43.3935718
 31
0.0
  0
LINE
  5
1A1
100
AcDbEntity
  8
LAYER0005
  6
CONTINUOUS
 62
       7
100
AcDbLine
 10
-154.33734657
 20
-28.71232637
 30
0.0
 11
-209.15412312
 21
-27.2724893
 31
0.0
  0
ARC
  5
1A2
100
AcDbEntity
  8
LAYER0005
  6
CONTINUOUS
 62
       7
100
AcDbCircle
 10
-263.73229351
 20
-130.5464905
 30
0.0
 40
3.0
100
AcDbArc
 50
315.0
 51
392.19239107
  0
ARC
  5
1A3
100
AcDbEntity
  8
LAYER0005
  6
CONTINUOUS
 62
       7
100
AcDbCircle
 10
-235.54474618
 20
-133.6514068
 30
0.0
 40
15.5
100
AcDbArc
 50
180.0
 51
270.0
  0
CIRCLE
  5
1A4
100
AcDbEntity
  8
LAYER0005
  6
CONTINUOUS
 62
       7
100
AcDbCircle
 10
-237.04474618
 20
-134.1514068
 30
0.0
 40
9.25
  0
CIRCLE
  5
1A5
100
AcDbEntity
  8
LAYER0005
  6
CONTINUOUS
 62
       7
100
AcDbCircle
 10
-237.04474618
 20
-134.1514068
 30
0.0
 40
10.5
  0
ARC
  5
1A6
100
AcDbEntity
  8
LAYER0005
  6
CONTINUOUS
 62
       7
100
AcDbCircle
 10
-242.16786864
 20
-151.59040401
 30
0.0
 40
3.0
100
AcDbArc
 50
59.20741105
 51
135.0
  0
CIRCLE
  5
1A7
100
AcDbEntity
  8
LAYER0005
  6
CONTINUOUS
 62
       7
100
AcDbCircle
 10
-263.65412312
 20
-151.7724893
 30
0.0
 40
3.25
  0
CIRCLE
  5
1A8
100
AcDbEntity
  8
LAYER0005
  6
CONTINUOUS
 62
       7
100
AcDbCircle
 10
-263.65412312
 20
-151.7724893
 30
0.0
 40
4.0
  0
ARC
  5
1A9
100
AcDbEntity
  8
LAYER0005
  6
CONTINUOUS
 62
       7
100
AcDbCircle
 10
-263.65412312
 20
-151.7724893
 30
0.0
 40
12.0643225
100
AcDbArc
 50
135.0
 51
315.0
  0
ARC
  5
1AA
100
AcDbEntity
  8
LAYER0005
  6
CONTINUOUS
 62
       7
100
AcDbCircle
 10
-147.89070796
 20
-138.19111631
 30
0.0
 40
9.03513921
100
AcDbArc
 50
90.0
 51
270.0
  0
CIRCLE
  5
1AB
100
AcDbEntity
  8
LAYER0005
  6
CONTINUOUS
 62
       7
100
AcDbCircle
 10
-147.87916467
 20
-138.152169
 30
0.0
 40
6.52724816
  0
CIRCLE
  5
1AC
100
AcDbEntity
  8
LAYER0005
  6
CONTINUOUS
 62
       7
100
AcDbCircle
 10
-147.88324588
 20
-138.23265322
 30
0.0
 40
7.62709953
  0
ARC
  5
1AD
100
AcDbEntity
  8
LAYER0005
  6
CONTINUOUS
 62
       7
100
AcDbCircle
 10
-182.76350007
 20
-133.6514068
 30
0.0
 40
15.5
100
AcDbArc
 50
270.0
 51
360.0
  0
ARC
  5
1AE
100
AcDbEntity
  8
LAYER0005
  6
CONTINUOUS
 62
       7
100
AcDbCircle
 10
-176.14037761
 20
-151.59040401
 30
0.0
 40
3.0
100
AcDbArc
 50
45.0
 51
120.79258895
  0
ARC
  5
1AF
100
AcDbEntity
  8
LAYER0005
  6
CONTINUOUS
 62
       7
100
AcDbCircle
 10
-154.65412312
 20
-151.7724893
 30
0.0
 40
12.0643225
100
AcDbArc
 50
225.0
 51
382.13764342
  0
CIRCLE
  5
1B0
100
AcDbEntity
  8
LAYER0005
  6
CONTINUOUS
 62
       7
100
AcDbCircle
 10
-181.26350007
 20
-58.3935718
 30
0.0
 40
10.5
  0
CIRCLE
  5
1B1
100
AcDbEntity
  8
LAYER0005
  6
CONTINUOUS
 62
       7
100
AcDbCircle
 10
-181.26350007
 20
-58.3935718
 30
0.0
 40
9.25
  0
CIRCLE
  5
1B2
100
AcDbEntity
  8
LAYER0005
  6
CONTINUOUS
 62
       7
100
AcDbCircle
 10
-154.65412312
 20
-40.7724893
 30
0.0
 40
3.25
  0
CIRCLE
  5
1B3
100
AcDbEntity
  8
LAYER0005
  6
CONTINUOUS
 62
       7
100
AcDbCircle
 10
-154.65412312
 20
-40.7724893
 30
0.0
 40
4.0
  0
ARC
  5
1B4
100
AcDbEntity
  8
LAYER0005
  6
CONTINUOUS
 62
       7
100
AcDbCircle
 10
-154.65412312
 20
-40.7724893
 30
0.0
 40
12.0643225
100
AcDbArc
 50
337.86235658
 51
495.0
  0
ARC
  5
1B5
100
AcDbEntity
  8
LAYER0005
  6
CONTINUOUS
 62
       7
100
AcDbCircle
 10
-176.14037761
 20
-40.9545746
 30
0.0
 40
3.0
100
AcDbArc
 50
239.20741105
 51
315.0
  0
ARC
  5
1B6
100
AcDbEntity
  8
LAYER0005
  6
CONTINUOUS
 62
       7
100
AcDbCircle
 10
-182.76350007
 20
-58.8935718
 30
0.0
 40
15.5
100
AcDbArc
 50
0.0
 51
90.0
  0
CIRCLE
  5
1B7
100
AcDbEntity
  8
LAYER0005
  6
CONTINUOUS
 62
       7
100
AcDbCircle
 10
-154.65412312
 20
-151.7724893
 30
0.0
 40
4.0
  0
CIRCLE
  5
1B8
100
AcDbEntity
  8
LAYER0005
  6
CONTINUOUS
 62
       7
100
AcDbCircle
 10
-154.65412312
 20
-151.7724893
 30
0.0
 40
3.25
  0
CIRCLE
  5
1B9
100
AcDbEntity
  8
LAYER0005
  6
CONTINUOUS
 62
       7
100
AcDbCircle
 10
-181.26350007
 20
-134.1514068
 30
0.0
 40
9.25
  0
CIRCLE
  5
1BA
100
AcDbEntity
  8
LAYER0005
  6
CONTINUOUS
 62
       7
100
AcDbCircle
 10
-181.26350007
 20
-134.1514068
 30
0.0
 40
10.5
  0
CIRCLE
  5
1BB
100
AcDbEntity
  8
LAYER0005
  6
CONTINUOUS
 62
       7
100
AcDbCircle
 10
258.37561782
 20
-82.7777663
 30
0.0
 40
4.0
  0
CIRCLE
  5
1BC
100
AcDbEntity
  8
LAYER0005
  6
CONTINUOUS
 62
       7
100
AcDbCircle
 10
258.37561782
 20
-82.7777663
 30
0.0
 40
3.25
  0
LINE
  5
1BD
100
AcDbEntity
  8
LAYER0005
  6
CONTINUOUS
 62
       7
100
AcDbLine
 10
-251.04474618
 20
-133.6514068
 30
0.0
 11
-251.04474618
 21
-58.8935718
 31
0.0
  0
LINE
  5
1BE
100
AcDbEntity
  8
LAYER0005
  6
CONTINUOUS
 62
       7
100
AcDbLine
 10
-235.54474618
 20
-43.3935718
 30
0.0
 11
-224.03822451
 21
-43.3935718
 31
0.0
  0
LINE
  5
1BF
100
AcDbEntity
  8
LAYER0005
  6
CONTINUOUS
 62
       7
100
AcDbLine
 10
-263.97089968
 20
-28.71232637
 30
0.0
 11
-209.15412312
 21
-27.2724893
 31
0.0
  0
LINE
  5
1C0
100
AcDbEntity
  8
LAYER0005
  6
CONTINUOUS
 62
       7
100
AcDbLine
 10
-272.18488737
 20
-49.30325356
 30
0.0
 11
-261.61097317
 21
-59.87716776
 31
0.0
  0
LINE
  5
1C1
100
AcDbEntity
  8
LAYER0005
  6
CONTINUOUS
 62
       7
100
AcDbLine
 10
-255.12335887
 20
-32.24172505
 30
0.0
 11
-244.28918898
 21
-43.07589494
 31
0.0
  0
LINE
  5
1C2
100
AcDbEntity
  8
LAYER0005
  6
CONTINUOUS
 62
       7
100
AcDbLine
 10
-275.70695367
 20
-40.24603587
 30
0.0
 11
-278.15412312
 21
-96.2724893
 31
0.0
  0
CIRCLE
  5
1C3
100
AcDbEntity
  8
LAYER0005
  6
CONTINUOUS
 62
       7
100
AcDbCircle
 10
-237.04474618
 20
-58.3935718
 30
0.0
 40
9.25
  0
CIRCLE
  5
1C4
100
AcDbEntity
  8
LAYER0005
  6
CONTINUOUS
 62
       7
100
AcDbCircle
 10
-237.04474618
 20
-58.3935718
 30
0.0
 40
10.5
  0
ARC
  5
1C5
100
AcDbEntity
  8
LAYER0005
  6
CONTINUOUS
 62
       7
100
AcDbCircle
 10
-235.54474618
 20
-58.8935718
 30
0.0
 40
15.5
100
AcDbArc
 50
90.0
 51
180.0
  0
ARC
  5
1C6
100
AcDbEntity
  8
LAYER0005
  6
CONTINUOUS
 62
       7
100
AcDbCircle
 10
-224.03822451
 20
-41.3935718
 30
0.0
 40
2.0
100
AcDbArc
 50
270.0
 51
360.0
  0
ARC
  5
1C7
100
AcDbEntity
  8
LAYER0005
  6
CONTINUOUS
 62
       7
100
AcDbCircle
 10
-209.14827035
 20
-96.36175941
 30
0.0
 40
61.5
100
AcDbArc
 50
37.10587234
 51
323.00824698
  0
CIRCLE
  5
1C8
100
AcDbEntity
  8
LAYER0005
  6
CONTINUOUS
 62
       7
100
AcDbCircle
 10
-263.65412312
 20
-40.7724893
 30
0.0
 40
4.0
  0
CIRCLE
  5
1C9
100
AcDbEntity
  8
LAYER0005
  6
CONTINUOUS
 62
       7
100
AcDbCircle
 10
-263.65412312
 20
-40.7724893
 30
0.0
 40
3.25
  0
ARC
  5
1CA
100
AcDbEntity
  8
LAYER0005
  6
CONTINUOUS
 62
       7
100
AcDbCircle
 10
-263.65412312
 20
-40.7724893
 30
0.0
 40
12.0643225
100
AcDbArc
 50
45.0
 51
225.0
  0
ARC
  5
1CB
100
AcDbEntity
  8
LAYER0005
  6
CONTINUOUS
 62
       7
100
AcDbCircle
 10
-263.73229351
 20
-61.9984881
 30
0.0
 40
3.0
100
AcDbArc
 50
327.80760893
 51
405.0
  0
ARC
  5
1CC
100
AcDbEntity
  8
LAYER0005
  6
CONTINUOUS
 62
       7
100
AcDbCircle
 10
-242.16786864
 20
-40.9545746
 30
0.0
 40
3.0
100
AcDbArc
 50
225.0
 51
300.79258895
  0
ARC
  5
1CD
100
AcDbEntity
  8
LAYER0005
  6
CONTINUOUS
 62
       7
100
AcDbCircle
 10
-191.95933163
 20
-41.3935718
 30
0.0
 40
2.0
100
AcDbArc
 50
180.0
 51
270.0
  0
CIRCLE
  5
1CE
100
AcDbEntity
  8
LAYER0005
  6
CONTINUOUS
 62
       7
100
AcDbCircle
 10
-147.88324588
 20
-54.31232539
 30
0.0
 40
7.62709953
  0
CIRCLE
  5
1CF
100
AcDbEntity
  8
LAYER0005
  6
CONTINUOUS
 62
       7
100
AcDbCircle
 10
-147.87916467
 20
-54.39280961
 30
0.0
 40
6.52724816
  0
ARC
  5
1D0
100
AcDbEntity
  8
LAYER0005
  6
CONTINUOUS
 62
       7
100
AcDbCircle
 10
-147.89070796
 20
-54.3538623
 30
0.0
 40
9.03513921
100
AcDbArc
 50
90.0
 51
270.0
  0
LINE
  5
1D1
100
AcDbEntity
  8
0
  6
CONTINUOUS
 62
       7
100
AcDbLine
 10
143.55884127
 20
26.78239663
 30
0.0
 11
198.37561782
 21
28.2222337
 31
0.0
  0
LINE
  5
1D2
100
AcDbEntity
  8
0
  6
CONTINUOUS
 62
       7
100
AcDbLine
 10
131.82278727
 20
15.24868713
 30
0.0
 11
129.37561782
 21
-40.7777663
 31
0.0
  0
LINE
  5
1D3
100
AcDbEntity
  8
0
  6
CONTINUOUS
 62
       7
100
AcDbLine
 10
253.19239438
 20
-108.33792924
 30
0.0
 11
198.37561782
 21
-109.7777663
 31
0.0
  0
LINE
  5
1D4
100
AcDbEntity
  8
0
  6
CONTINUOUS
 62
       7
100
AcDbLine
 10
253.19239438
 20
26.78239663
 30
0.0
 11
198.37561782
 21
28.2222337
 31
0.0
  0
LINE
  5
1D5
100
AcDbEntity
  8
0
  6
CONTINUOUS
 62
       7
100
AcDbLine
 10
131.82278727
 20
-96.80421974
 30
0.0
 11
129.37561782
 21
-40.7777663
 31
0.0
  0
LINE
  5
1D6
100
AcDbEntity
  8
0
  6
CONTINUOUS
 62
       7
100
AcDbLine
 10
143.55884127
 20
-108.33792924
 30
0.0
 11
198.37561782
 21
-109.7777663
 31
0.0
  0
LINE
  5
1D7
100
AcDbEntity
  8
0
  6
CONTINUOUS
 62
       7
100
AcDbLine
 10
264.92844837
 20
-96.80421974
 30
0.0
 11
267.37561782
 21
-40.7777663
 31
0.0
  0
LINE
  5
1D8
100
AcDbEntity
  8
0
  6
CONTINUOUS
 62
       7
100
AcDbLine
 10
264.92844837
 20
15.24868713
 30
0.0
 11
267.37561782
 21
-40.7777663
 31
0.0
  0
LINE
  5
1D9
100
AcDbEntity
  8
0
  6
CONTINUOUS
 62
       7
100
AcDbLine
 10
131.82278727
 20
215.24868713
 30
0.0
 11
129.37561782
 21
159.2222337
 31
0.0
  0
LINE
  5
1DA
100
AcDbEntity
  8
0
  6
CONTINUOUS
 62
       7
100
AcDbLine
 10
131.82278727
 20
103.19578026
 30
0.0
 11
129.37561782
 21
159.2222337
 31
0.0
  0
LINE
  5
1DB
100
AcDbEntity
  8
0
  6
CONTINUOUS
 62
       7
100
AcDbLine
 10
143.55884127
 20
91.66207076
 30
0.0
 11
198.37561782
 21
90.2222337
 31
0.0
  0
LINE
  5
1DC
100
AcDbEntity
  8
0
  6
CONTINUOUS
 62
       7
100
AcDbLine
 10
264.92844837
 20
103.19578026
 30
0.0
 11
267.37561782
 21
159.2222337
 31
0.0
  0
LINE
  5
1DD
100
AcDbEntity
  8
0
  6
CONTINUOUS
 62
       7
100
AcDbLine
 10
264.92844837
 20
215.24868713
 30
0.0
 11
267.37561782
 21
159.2222337
 31
0.0
  0
LINE
  5
1DE
100
AcDbEntity
  8
0
  6
CONTINUOUS
 62
       7
100
AcDbLine
 10
184.40482862
 20
122.10979382
 30
0.0
 11
184.40482862
 21
113.01608928
 31
0.0
  0
LINE
  5
1DF
100
AcDbEntity
  8
0
  6
CONTINUOUS
 62
       7
100
AcDbLine
 10
173.37364321
 20
138.04261172
 30
0.0
 11
173.37364321
 21
139.12070964
 31
0.0
  0
LINE
  5
1E0
100
AcDbEntity
  8
0
  6
CONTINUOUS
 62
       7
100
AcDbLine
 10
173.37364321
 20
180.40185568
 30
0.0
 11
173.37364321
 21
179.32375776
 31
0.0
  0
LINE
  5
1E1
100
AcDbEntity
  8
0
  6
CONTINUOUS
 62
       7
100
AcDbLine
 10
170.37364321
 20
183.40185568
 30
0.0
 11
162.37830618
 21
183.40185568
 31
0.0
  0
LINE
  5
1E2
100
AcDbEntity
  8
0
  6
CONTINUOUS
 62
       7
100
AcDbLine
 10
209.34640702
 20
208.42837812
 30
0.0
 11
187.23550137
 21
208.42837812
 31
0.0
  0
LINE
  5
1E3
100
AcDbEntity
  8
0
  6
CONTINUOUS
 62
       7
100
AcDbLine
 10
223.37759243
 20
138.04261172
 30
0.0
 11
223.37759243
 21
139.12070964
 31
0.0
  0
LINE
  5
1E4
100
AcDbEntity
  8
0
  6
CONTINUOUS
 62
       7
100
AcDbLine
 10
237.37292946
 20
180.17688326
 30
0.0
 11
237.37292946
 21
138.04261172
 31
0.0
  0
LINE
  5
1E5
100
AcDbEntity
  8
0
  6
CONTINUOUS
 62
       7
100
AcDbLine
 10
212.34640702
 20
134.10979382
 30
0.0
 11
184.01359743
 21
134.10979382
 31
0.0
  0
LINE
  5
1E6
100
AcDbEntity
  8
0
  6
CONTINUOUS
 62
       7
100
AcDbLine
 10
209.34640702
 20
110.01608928
 30
0.0
 11
187.23550137
 21
110.01608928
 31
0.0
  0
LINE
  5
1E7
100
AcDbEntity
  8
0
  6
CONTINUOUS
 62
       7
100
AcDbLine
 10
143.55884127
 20
226.78239663
 30
0.0
 11
198.37561782
 21
228.2222337
 31
0.0
  0
LINE
  5
1E8
100
AcDbEntity
  8
0
  6
CONTINUOUS
 62
       7
100
AcDbLine
 10
253.19239438
 20
91.66207076
 30
0.0
 11
198.37561782
 21
90.2222337
 31
0.0
  0
LINE
  5
1E9
100
AcDbEntity
  8
0
  6
CONTINUOUS
 62
       7
100
AcDbLine
 10
253.19239438
 20
226.78239663
 30
0.0
 11
198.37561782
 21
228.2222337
 31
0.0
  0
LINE
  5
1EA
100
AcDbEntity
  8
0
  6
CONTINUOUS
 62
       7
100
AcDbLine
 10
226.37759243
 20
183.40185568
 30
0.0
 11
234.37292946
 21
183.40185568
 31
0.0
  0
LINE
  5
1EB
100
AcDbEntity
  8
0
  6
CONTINUOUS
 62
       7
100
AcDbLine
 10
223.37759243
 20
180.40185568
 30
0.0
 11
223.37759243
 21
179.32375776
 31
0.0
  0
LINE
  5
1EC
100
AcDbEntity
  8
0
  6
CONTINUOUS
 62
       7
100
AcDbLine
 10
218.37759243
 20
174.32375776
 30
0.0
 11
178.24332089
 21
174.32375776
 31
0.0
  0
LINE
  5
1ED
100
AcDbEntity
  8
0
  6
CONTINUOUS
 62
       7
100
AcDbLine
 10
159.37830618
 20
180.17688326
 30
0.0
 11
159.37830618
 21
138.04261172
 31
0.0
  0
LINE
  5
1EE
100
AcDbEntity
  8
0
  6
CONTINUOUS
 62
       7
100
AcDbLine
 10
170.37364321
 20
135.04261172
 30
0.0
 11
162.37830618
 21
135.04261172
 31
0.0
  0
LINE
  5
1EF
100
AcDbEntity
  8
0
  6
CONTINUOUS
 62
       7
100
AcDbLine
 10
212.34640702
 20
184.33467358
 30
0.0
 11
184.01359743
 21
184.33467358
 31
0.0
  0
LINE
  5
1F0
100
AcDbEntity
  8
0
  6
CONTINUOUS
 62
       7
100
AcDbLine
 10
212.34640702
 20
196.33467358
 30
0.0
 11
212.34640702
 21
205.42837812
 31
0.0
  0
LINE
  5
1F1
100
AcDbEntity
  8
0
  6
CONTINUOUS
 62
       7
100
AcDbLine
 10
184.40482862
 20
196.33467358
 30
0.0
 11
184.40482862
 21
205.42837812
 31
0.0
  0
LINE
  5
1F2
100
AcDbEntity
  8
0
  6
CONTINUOUS
 62
       7
100
AcDbLine
 10
218.37759243
 20
144.12070964
 30
0.0
 11
178.24332089
 21
144.12070964
 31
0.0
  0
LINE
  5
1F3
100
AcDbEntity
  8
0
  6
CONTINUOUS
 62
       7
100
AcDbLine
 10
226.37759243
 20
135.04261172
 30
0.0
 11
234.37292946
 21
135.04261172
 31
0.0
  0
LINE
  5
1F4
100
AcDbEntity
  8
0
  6
CONTINUOUS
 62
       7
100
AcDbLine
 10
212.34640702
 20
122.10979382
 30
0.0
 11
212.34640702
 21
113.01608928
 31
0.0
  0
ARC
  5
1F5
100
AcDbEntity
  8
0
  6
CONTINUOUS
 62
       7
100
AcDbCircle
 10
143.87561782
 20
-96.2777663
 30
0.0
 40
12.0643225
100
AcDbArc
 50
182.50102241
 51
268.49539452
  0
CIRCLE
  5
1F6
100
AcDbEntity
  8
0
  6
CONTINUOUS
 62
       7
100
AcDbCircle
 10
143.87561782
 20
14.7222337
 30
0.0
 40
4.0
  0
CIRCLE
  5
1F7
100
AcDbEntity
  8
0
  6
CONTINUOUS
 62
       7
100
AcDbCircle
 10
143.87561782
 20
-96.2777663
 30
0.0
 40
3.25
  0
CIRCLE
  5
1F8
100
AcDbEntity
  8
0
  6
CONTINUOUS
 62
       7
100
AcDbCircle
 10
252.87561782
 20
-96.2777663
 30
0.0
 40
4.0
  0
ARC
  5
1F9
100
AcDbEntity
  8
0
  6
CONTINUOUS
 62
       7
100
AcDbCircle
 10
143.87561782
 20
14.7222337
 30
0.0
 40
12.0643225
100
AcDbArc
 50
91.50460548
 51
177.49897759
  0
ARC
  5
1FA
100
AcDbEntity
  8
0
  6
CONTINUOUS
 62
       7
100
AcDbCircle
 10
252.87561782
 20
-96.2777663
 30
0.0
 40
12.0643225
100
AcDbArc
 50
271.50460548
 51
357.49897759
  0
ARC
  5
1FB
100
AcDbEntity
  8
0
  6
CONTINUOUS
 62
       7
100
AcDbCircle
 10
252.87561782
 20
14.7222337
 30
0.0
 40
12.0643225
100
AcDbArc
 50
2.50102241
 51
88.49539452
  0
CIRCLE
  5
1FC
100
AcDbEntity
  8
0
  6
CONTINUOUS
 62
       7
100
AcDbCircle
 10
252.87561782
 20
14.7222337
 30
0.0
 40
3.25
  0
CIRCLE
  5
1FD
100
AcDbEntity
  8
0
  6
CONTINUOUS
 62
       7
100
AcDbCircle
 10
252.87561782
 20
14.7222337
 30
0.0
 40
4.0
  0
CIRCLE
  5
1FE
100
AcDbEntity
  8
0
  6
CONTINUOUS
 62
       7
100
AcDbCircle
 10
143.87561782
 20
14.7222337
 30
0.0
 40
3.25
  0
CIRCLE
  5
1FF
100
AcDbEntity
  8
0
  6
CONTINUOUS
 62
       7
100
AcDbCircle
 10
143.87561782
 20
-96.2777663
 30
0.0
 40
4.0
  0
CIRCLE
  5
200
100
AcDbEntity
  8
0
  6
CONTINUOUS
 62
       7
100
AcDbCircle
 10
252.87561782
 20
-96.2777663
 30
0.0
 40
3.25
  0
CIRCLE
  5
201
100
AcDbEntity
  8
0
  6
CONTINUOUS
 62
       7
100
AcDbCircle
 10
226.26624088
 20
-2.8988488
 30
0.0
 40
9.25
  0
CIRCLE
  5
202
100
AcDbEntity
  8
0
  6
CONTINUOUS
 62
       7
100
AcDbCircle
 10
170.48499477
 20
-2.8988488
 30
0.0
 40
9.25
  0
CIRCLE
  5
203
100
AcDbEntity
  8
0
  6
CONTINUOUS
 62
       7
100
AcDbCircle
 10
170.48499477
 20
-78.6566838
 30
0.0
 40
10.5
  0
CIRCLE
  5
204
100
AcDbEntity
  8
0
  6
CONTINUOUS
 62
       7
100
AcDbCircle
 10
170.48499477
 20
-78.6566838
 30
0.0
 40
9.25
  0
CIRCLE
  5
205
100
AcDbEntity
  8
0
  6
CONTINUOUS
 62
       7
100
AcDbCircle
 10
226.26624088
 20
-2.8988488
 30
0.0
 40
10.5
  0
CIRCLE
  5
206
100
AcDbEntity
  8
0
  6
CONTINUOUS
 62
       7
100
AcDbCircle
 10
170.48499477
 20
-2.8988488
 30
0.0
 40
10.5
  0
CIRCLE
  5
207
100
AcDbEntity
  8
0
  6
CONTINUOUS
 62
       7
100
AcDbCircle
 10
226.26624088
 20
-78.6566838
 30
0.0
 40
10.5
  0
CIRCLE
  5
208
100
AcDbEntity
  8
0
  6
CONTINUOUS
 62
       7
100
AcDbCircle
 10
226.26624088
 20
-78.6566838
 30
0.0
 40
9.25
  0
CIRCLE
  5
209
100
AcDbEntity
  8
0
  6
CONTINUOUS
 62
       7
100
AcDbCircle
 10
258.37561782
 20
1.2222337
 30
0.0
 40
3.25
  0
CIRCLE
  5
20A
100
AcDbEntity
  8
0
  6
CONTINUOUS
 62
       7
100
AcDbCircle
 10
258.37561782
 20
1.2222337
 30
0.0
 40
4.0
  0
CIRCLE
  5
20B
100
AcDbEntity
  8
0
  6
CONTINUOUS
 62
       7
100
AcDbCircle
 10
143.87561782
 20
214.7222337
 30
0.0
 40
4.0
  0
CIRCLE
  5
20C
100
AcDbEntity
  8
0
  6
CONTINUOUS
 62
       7
100
AcDbCircle
 10
252.87561782
 20
103.7222337
 30
0.0
 40
4.0
  0
ARC
  5
20D
100
AcDbEntity
  8
0
  6
CONTINUOUS
 62
       7
100
AcDbCircle
 10
143.87561782
 20
214.7222337
 30
0.0
 40
12.0643225
100
AcDbArc
 50
91.50460548
 51
177.49897759
  0
ARC
  5
20E
100
AcDbEntity
  8
0
  6
CONTINUOUS
 62
       7
100
AcDbCircle
 10
252.87561782
 20
214.7222337
 30
0.0
 40
12.0643225
100
AcDbArc
 50
2.50102241
 51
88.49539452
  0
CIRCLE
  5
20F
100
AcDbEntity
  8
0
  6
CONTINUOUS
 62
       7
100
AcDbCircle
 10
252.87561782
 20
214.7222337
 30
0.0
 40
4.0
  0
CIRCLE
  5
210
100
AcDbEntity
  8
0
  6
CONTINUOUS
 62
       7
100
AcDbCircle
 10
143.87561782
 20
103.7222337
 30
0.0
 40
4.0
  0
CIRCLE
  5
211
100
AcDbEntity
  8
0
  6
CONTINUOUS
 62
       7
100
AcDbCircle
 10
226.26624088
 20
197.1011512
 30
0.0
 40
9.25
  0
CIRCLE
  5
212
100
AcDbEntity
  8
0
  6
CONTINUOUS
 62
       7
100
AcDbCircle
 10
170.48499477
 20
121.3433162
 30
0.0
 40
10.5
  0
CIRCLE
  5
213
100
AcDbEntity
  8
0
  6
CONTINUOUS
 62
       7
100
AcDbCircle
 10
226.26624088
 20
197.1011512
 30
0.0
 40
10.5
  0
CIRCLE
  5
214
100
AcDbEntity
  8
0
  6
CONTINUOUS
 62
       7
100
AcDbCircle
 10
258.37561782
 20
201.2222337
 30
0.0
 40
3.25
  0
CIRCLE
  5
215
100
AcDbEntity
  8
0
  6
CONTINUOUS
 62
       7
100
AcDbCircle
 10
258.37561782
 20
117.2222337
 30
0.0
 40
3.25
  0
ARC
  5
216
100
AcDbEntity
  8
0
  6
CONTINUOUS
 62
       7
100
AcDbCircle
 10
143.87561782
 20
103.7222337
 30
0.0
 40
12.0643225
100
AcDbArc
 50
182.50102241
 51
268.49539452
  0
CIRCLE
  5
217
100
AcDbEntity
  8
0
  6
CONTINUOUS
 62
       7
100
AcDbCircle
 10
143.87561782
 20
103.7222337
 30
0.0
 40
3.25
  0
ARC
  5
218
100
AcDbEntity
  8
0
  6
CONTINUOUS
 62
       7
100
AcDbCircle
 10
252.87561782
 20
103.7222337
 30
0.0
 40
12.0643225
100
AcDbArc
 50
271.50460548
 51
357.49897759
  0
CIRCLE
  5
219
100
AcDbEntity
  8
0
  6
CONTINUOUS
 62
       7
100
AcDbCircle
 10
252.87561782
 20
214.7222337
 30
0.0
 40
3.25
  0
CIRCLE
  5
21A
100
AcDbEntity
  8
0
  6
CONTINUOUS
 62
       7
100
AcDbCircle
 10
143.87561782
 20
214.7222337
 30
0.0
 40
3.25
  0
CIRCLE
  5
21B
100
AcDbEntity
  8
0
  6
CONTINUOUS
 62
       7
100
AcDbCircle
 10
252.87561782
 20
103.7222337
 30
0.0
 40
3.25
  0
CIRCLE
  5
21C
100
AcDbEntity
  8
0
  6
CONTINUOUS
 62
       7
100
AcDbCircle
 10
170.48499477
 20
197.1011512
 30
0.0
 40
9.25
  0
CIRCLE
  5
21D
100
AcDbEntity
  8
0
  6
CONTINUOUS
 62
       7
100
AcDbCircle
 10
170.48499477
 20
121.3433162
 30
0.0
 40
9.25
  0
CIRCLE
  5
21E
100
AcDbEntity
  8
0
  6
CONTINUOUS
 62
       7
100
AcDbCircle
 10
170.48499477
 20
197.1011512
 30
0.0
 40
10.5
  0
CIRCLE
  5
21F
100
AcDbEntity
  8
0
  6
CONTINUOUS
 62
       7
100
AcDbCircle
 10
258.37561782
 20
201.2222337
 30
0.0
 40
4.0
  0
CIRCLE
  5
220
100
AcDbEntity
  8
0
  6
CONTINUOUS
 62
       7
100
AcDbCircle
 10
258.37561782
 20
117.2222337
 30
0.0
 40
4.0
  0
CIRCLE
  5
221
100
AcDbEntity
  8
0
  6
CONTINUOUS
 62
       7
100
AcDbCircle
 10
226.26624088
 20
121.3433162
 30
0.0
 40
4.0
  0
CIRCLE
  5
222
100
AcDbEntity
  8
0
  6
CONTINUOUS
 62
       7
100
AcDbCircle
 10
226.26624088
 20
121.3433162
 30
0.0
 40
3.25
  0
CIRCLE
  5
223
100
AcDbEntity
  8
0
  6
CONTINUOUS
 62
       7
100
AcDbCircle
 10
206.57561782
 20
-60.7777663
 30
0.0
 40
2.0
  0
CIRCLE
  5
224
100
AcDbEntity
  8
0
  6
CONTINUOUS
 62
       7
100
AcDbCircle
 10
206.57561782
 20
-60.7777663
 30
0.0
 40
1.65
  0
CIRCLE
  5
225
100
AcDbEntity
  8
0
  6
CONTINUOUS
 62
       7
100
AcDbCircle
 10
190.17561782
 20
-60.7777663
 30
0.0
 40
2.0
  0
CIRCLE
  5
226
100
AcDbEntity
  8
0
  6
CONTINUOUS
 62
       7
100
AcDbCircle
 10
190.17561782
 20
-60.7777663
 30
0.0
 40
1.65
  0
ARC
  5
227
100
AcDbEntity
  8
0
  6
CONTINUOUS
 62
       7
100
AcDbCircle
 10
162.37830618
 20
138.04261172
 30
0.0
 40
3.0
100
AcDbArc
 50
180.0
 51
270.0
  0
ARC
  5
228
100
AcDbEntity
  8
0
  6
CONTINUOUS
 62
       7
100
AcDbCircle
 10
187.40482862
 20
113.01608928
 30
0.0
 40
3.0
100
AcDbArc
 50
180.0
 51
270.0
  0
CIRCLE
  5
229
100
AcDbEntity
  8
0
  6
CONTINUOUS
 62
       7
100
AcDbCircle
 10
198.37561782
 20
139.2222337
 30
0.0
 40
1.65
  0
CIRCLE
  5
22A
100
AcDbEntity
  8
0
  6
CONTINUOUS
 62
       7
100
AcDbCircle
 10
206.57561782
 20
139.2222337
 30
0.0
 40
2.0
  0
ARC
  5
22B
100
AcDbEntity
  8
0
  6
CONTINUOUS
 62
       7
100
AcDbCircle
 10
172.40482862
 20
122.10979382
 30
0.0
 40
12.0
100
AcDbArc
 50
0.0
 51
36.86989765
  0
CIRCLE
  5
22C
100
AcDbEntity
  8
0
  6
CONTINUOUS
 62
       7
100
AcDbCircle
 10
190.17561782
 20
139.2222337
 30
0.0
 40
1.65
  0
ARC
  5
22D
100
AcDbEntity
  8
0
  6
CONTINUOUS
 62
       7
100
AcDbCircle
 10
184.40482862
 20
187.33467358
 30
0.0
 40
3.0
100
AcDbArc
 50
143.13010235
 51
270.0
  0
ARC
  5
22E
100
AcDbEntity
  8
0
  6
CONTINUOUS
 62
       7
100
AcDbCircle
 10
172.40482862
 20
196.33467358
 30
0.0
 40
12.0
100
AcDbArc
 50
323.13010235
 51
360.0
  0
ARC
  5
22F
100
AcDbEntity
  8
0
  6
CONTINUOUS
 62
       7
100
AcDbCircle
 10
209.34640702
 20
205.42837812
 30
0.0
 40
3.0
100
AcDbArc
 50
0.0
 51
90.0
  0
ARC
  5
230
100
AcDbEntity
  8
0
  6
CONTINUOUS
 62
       7
100
AcDbCircle
 10
224.34640702
 20
196.33467358
 30
0.0
 40
12.0
100
AcDbArc
 50
180.0
 51
216.86989765
  0
CIRCLE
  5
231
100
AcDbEntity
  8
0
  6
CONTINUOUS
 62
       7
100
AcDbCircle
 10
190.17561782
 20
179.2222337
 30
0.0
 40
2.0
  0
CIRCLE
  5
232
100
AcDbEntity
  8
0
  6
CONTINUOUS
 62
       7
100
AcDbCircle
 10
206.57561782
 20
179.2222337
 30
0.0
 40
2.0
  0
CIRCLE
  5
233
100
AcDbEntity
  8
0
  6
CONTINUOUS
 62
       7
100
AcDbCircle
 10
198.37561782
 20
179.2222337
 30
0.0
 40
1.65
  0
CIRCLE
  5
234
100
AcDbEntity
  8
0
  6
CONTINUOUS
 62
       7
100
AcDbCircle
 10
198.37561782
 20
159.2222337
 30
0.0
 40
63.0
  0
ARC
  5
235
100
AcDbEntity
  8
0
  6
CONTINUOUS
 62
       7
100
AcDbCircle
 10
212.34640702
 20
131.10979382
 30
0.0
 40
3.0
100
AcDbArc
 50
323.13010235
 51
450.0
  0
ARC
  5
236
100
AcDbEntity
  8
0
  6
CONTINUOUS
 62
       7
100
AcDbCircle
 10
226.37759243
 20
138.04261172
 30
0.0
 40
3.0
100
AcDbArc
 50
180.0
 51
270.0
  0
ARC
  5
237
100
AcDbEntity
  8
0
  6
CONTINUOUS
 62
       7
100
AcDbCircle
 10
224.34640702
 20
122.10979382
 30
0.0
 40
12.0
100
AcDbArc
 50
143.13010235
 51
180.0
  0
ARC
  5
238
100
AcDbEntity
  8
0
  6
CONTINUOUS
 62
       7
100
AcDbCircle
 10
218.37759243
 20
139.12070964
 30
0.0
 40
5.0
100
AcDbArc
 50
0.0
 51
90.0
  0
ARC
  5
239
100
AcDbEntity
  8
0
  6
CONTINUOUS
 62
       7
100
AcDbCircle
 10
234.37292946
 20
180.40185568
 30
0.0
 40
3.0
100
AcDbArc
 50
0.0
 51
90.0
  0
ARC
  5
23A
100
AcDbEntity
  8
0
  6
CONTINUOUS
 62
       7
100
AcDbCircle
 10
178.37364321
 20
179.32375776
 30
0.0
 40
5.0
100
AcDbArc
 50
180.0
 51
270.0
  0
ARC
  5
23B
100
AcDbEntity
  8
0
  6
CONTINUOUS
 62
       7
100
AcDbCircle
 10
170.37364321
 20
180.40185568
 30
0.0
 40
3.0
100
AcDbArc
 50
0.0
 51
90.0
  0
ARC
  5
23C
100
AcDbEntity
  8
0
  6
CONTINUOUS
 62
       7
100
AcDbCircle
 10
170.37364321
 20
138.04261172
 30
0.0
 40
3.0
100
AcDbArc
 50
270.0
 51
360.0
  0
CIRCLE
  5
23D
100
AcDbEntity
  8
0
  6
CONTINUOUS
 62
       7
100
AcDbCircle
 10
198.37561782
 20
139.2222337
 30
0.0
 40
2.0
  0
CIRCLE
  5
23E
100
AcDbEntity
  8
0
  6
CONTINUOUS
 62
       7
100
AcDbCircle
 10
206.57561782
 20
139.2222337
 30
0.0
 40
1.65
  0
ARC
  5
23F
100
AcDbEntity
  8
0
  6
CONTINUOUS
 62
       7
100
AcDbCircle
 10
184.40482862
 20
131.10979382
 30
0.0
 40
3.0
100
AcDbArc
 50
90.0
 51
216.86989765
  0
CIRCLE
  5
240
100
AcDbEntity
  8
0
  6
CONTINUOUS
 62
       7
100
AcDbCircle
 10
190.17561782
 20
139.2222337
 30
0.0
 40
2.0
  0
ARC
  5
241
100
AcDbEntity
  8
0
  6
CONTINUOUS
 62
       7
100
AcDbCircle
 10
187.40482862
 20
205.42837812
 30
0.0
 40
3.0
100
AcDbArc
 50
90.0
 51
180.0
  0
ARC
  5
242
100
AcDbEntity
  8
0
  6
CONTINUOUS
 62
       7
100
AcDbCircle
 10
212.34640702
 20
187.33467358
 30
0.0
 40
3.0
100
AcDbArc
 50
270.0
 51
396.86989765
  0
CIRCLE
  5
243
100
AcDbEntity
  8
0
  6
CONTINUOUS
 62
       7
100
AcDbCircle
 10
190.17561782
 20
179.2222337
 30
0.0
 40
1.65
  0
CIRCLE
  5
244
100
AcDbEntity
  8
0
  6
CONTINUOUS
 62
       7
100
AcDbCircle
 10
206.57561782
 20
179.2222337
 30
0.0
 40
1.65
  0
CIRCLE
  5
245
100
AcDbEntity
  8
0
  6
CONTINUOUS
 62
       7
100
AcDbCircle
 10
198.37561782
 20
179.2222337
 30
0.0
 40
2.0
  0
CIRCLE
  5
246
100
AcDbEntity
  8
0
  6
CONTINUOUS
 62
       7
100
AcDbCircle
 10
198.37561782
 20
159.2222337
 30
0.0
 40
58.5
  0
CIRCLE
  5
247
100
AcDbEntity
  8
0
  6
CONTINUOUS
 62
       7
100
AcDbCircle
 10
198.37561782
 20
159.2222337
 30
0.0
 40
66.0
  0
CIRCLE
  5
248
100
AcDbEntity
  8
0
  6
CONTINUOUS
 62
       7
100
AcDbCircle
 10
43.19263764
 20
-197.61667796
 30
0.0
 40
2.5
  0
ARC
  5
249
100
AcDbEntity
  8
0
  6
CONTINUOUS
 62
       7
100
AcDbCircle
 10
209.34640702
 20
113.01608928
 30
0.0
 40
3.0
100
AcDbArc
 50
270.0
 51
360.0
  0
ARC
  5
24A
100
AcDbEntity
  8
0
  6
CONTINUOUS
 62
       7
100
AcDbCircle
 10
234.37292946
 20
138.04261172
 30
0.0
 40
3.0
100
AcDbArc
 50
270.0
 51
360.0
  0
ARC
  5
24B
100
AcDbEntity
  8
0
  6
CONTINUOUS
 62
       7
100
AcDbCircle
 10
218.37759243
 20
179.32375776
 30
0.0
 40
5.0
100
AcDbArc
 50
270.0
 51
360.0
  0
ARC
  5
24C
100
AcDbEntity
  8
0
  6
CONTINUOUS
 62
       7
100
AcDbCircle
 10
226.37759243
 20
180.40185568
 30
0.0
 40
3.0
100
AcDbArc
 50
90.0
 51
180.0
  0
ARC
  5
24D
100
AcDbEntity
  8
0
  6
CONTINUOUS
 62
       7
100
AcDbCircle
 10
178.37364321
 20
139.12070964
 30
0.0
 40
5.0
100
AcDbArc
 50
90.0
 51
180.0
  0
ARC
  5
24E
100
AcDbEntity
  8
0
  6
CONTINUOUS
 62
       7
100
AcDbCircle
 10
162.37830618
 20
180.40185568
 30
0.0
 40
3.0
100
AcDbArc
 50
90.0
 51
180.0
  0
CIRCLE
  5
24F
100
AcDbEntity
  8
0
  6
CONTINUOUS
 62
       7
100
AcDbCircle
 10
43.19263764
 20
-157.61667796
 30
0.0
 40
2.5
  0
CIRCLE
  5
250
100
AcDbEntity
  8
0
  6
CONTINUOUS
 62
       7
100
AcDbCircle
 10
88.19263764
 20
-165.11667796
 30
0.0
 40
2.0
  0
CIRCLE
  5
251
100
AcDbEntity
  8
0
  6
CONTINUOUS
 62
       7
100
AcDbCircle
 10
88.19263764
 20
-165.11667796
 30
0.0
 40
1.5
  0
CIRCLE
  5
252
100
AcDbEntity
  8
0
  6
CONTINUOUS
 62
       7
100
AcDbCircle
 10
88.19263764
 20
-190.11667796
 30
0.0
 40
2.0
  0
CIRCLE
  5
253
100
AcDbEntity
  8
0
  6
CONTINUOUS
 62
       7
100
AcDbCircle
 10
88.19263764
 20
-190.11667796
 30
0.0
 40
1.5
  0
LINE
  5
254
100
AcDbEntity
  8
0
  6
CENTERX2
 62
       7
100
AcDbLine
 10
198.37561782
 20
239.6309214
 30
0.0
 11
198.37561782
 21
81.01281682
 31
0.0
  0
LINE
  5
255
100
AcDbEntity
  8
0
  6
CENTERX2
 62
       7
100
AcDbLine
 10
119.97225803
 20
159.2222337
 30
0.0
 11
276.07566703
 21
159.2222337
 31
0.0
  0
TEXT
  5
256
100
AcDbEntity
  8
LAYER0005
 62
       7
100
AcDbText
 10
270.1727038
 20
-243.61715489
 30
0.0
 40
12.7
  1
000
 72
       5
 11
308.2727038
 21
-243.61715489
 31
0.0
100
AcDbText
  0
ENDSEC
  0
SECTION
  2
OBJECTS
  0
DICTIONARY
  5
19
100
AcDbDictionary
  3
ACAD_GROUP
350
1A
  3
ACAD_MLINESTYLE
350
1B
  0
DICTIONARY
  5
1A
102
{ACAD_REACTORS
330
19
102
}
100
AcDbDictionary
  0
DICTIONARY
  5
1B
102
{ACAD_REACTORS
330
19
102
}
100
AcDbDictionary
  3
STANDARD
350
1C
  0
MLINESTYLE
  5
1C
102
{ACAD_REACTORS
330
1B
102
}
100
AcDbMlineStyle
  2
STANDARD
 70
       0
  3

 62
       0
 51
90.0
 52
90.0
 71
       2
 49
0.5
 62
     256
  6
BYLAYER
 49
-0.5
 62
     256
  6
BYLAYER
  0
ENDSEC
  0
EOF
