  0
SECTION
  2
HEADER
  9
$ACADVER
  1
AC1014
  9
$ACADMAINTVER
 70
       0
  9
$DWGCODEPAGE
  3
ANSI_932
  9
$INSBASE
 10
0.0
 20
0.0
 30
0.0
  9
$EXTMIN
 10
-155.60963635
 20
-68.2440529
 30
0.0
  9
$EXTMAX
 10
155.60963635
 20
65.59821956
 30
0.0
  9
$LIMMIN
 10
-165.33523863
 20
-72.42662391
  9
$LIMMAX
 10
165.33523863
 20
69.78079058
  9
$ORTHOMODE
 70
       0
  9
$REGENMODE
 70
       1
  9
$FILLMODE
 70
       1
  9
$QTEXTMODE
 70
       0
  9
$MIRRTEXT
 70
       1
  9
$DRAGMODE
 70
       2
  9
$LTSCALE
 40
1.0
  9
$OSMODE
 70
       0
  9
$ATTMODE
 70
       1
  9
$TEXTSIZE
 40
0.2
  9
$TRACEWID
 40
0.05
  9
$TEXTSTYLE
  7
STANDARD
  9
$CLAYER
  8
0
  9
$CELTYPE
  6
CONTINUOUS
  9
$CECOLOR
 62
     256
  9
$CELTSCALE
 40
1.0
  9
$DELOBJ
 70
       1
  9
$DISPSILH
 70
       0
  9
$DIMSCALE
 40
1.0
  9
$DIMASZ
 40
0.18
  9
$DIMEXO
 40
0.0625
  9
$DIMDLI
 40
0.38
  9
$DIMRND
 40
0.0
  9
$DIMDLE
 40
0.0
  9
$DIMEXE
 40
0.18
  9
$DIMTP
 40
0.0
  9
$DIMTM
 40
0.0
  9
$DIMTXT
 40
0.18
  9
$DIMCEN
 40
0.09
  9
$DIMTSZ
 40
0.0
  9
$DIMTOL
 70
       0
  9
$DIMLIM
 70
       0
  9
$DIMTIH
 70
       1
  9
$DIMTOH
 70
       1
  9
$DIMSE1
 70
       0
  9
$DIMSE2
 70
       0
  9
$DIMTAD
 70
       0
  9
$DIMZIN
 70
       0
  9
$DIMBLK
  1

  9
$DIMASO
 70
       1
  9
$DIMSHO
 70
       1
  9
$DIMPOST
  1

  9
$DIMAPOST
  1

  9
$DIMALT
 70
       0
  9
$DIMALTD
 70
       2
  9
$DIMALTF
 40
25.4
  9
$DIMLFAC
 40
1.0
  9
$DIMTOFL
 70
       0
  9
$DIMTVP
 40
0.0
  9
$DIMTIX
 70
       0
  9
$DIMSOXD
 70
       0
  9
$DIMSAH
 70
       0
  9
$DIMBLK1
  1

  9
$DIMBLK2
  1

  9
$DIMSTYLE
  2
STANDARD
  9
$DIMCLRD
 70
       0
  9
$DIMCLRE
 70
       0
  9
$DIMCLRT
 70
       0
  9
$DIMTFAC
 40
1.0
  9
$DIMGAP
 40
0.09
  9
$DIMJUST
 70
       0
  9
$DIMSD1
 70
       0
  9
$DIMSD2
 70
       0
  9
$DIMTOLJ
 70
       1
  9
$DIMTZIN
 70
       0
  9
$DIMALTZ
 70
       0
  9
$DIMALTTZ
 70
       0
  9
$DIMFIT
 70
       3
  9
$DIMUPT
 70
       0
  9
$DIMUNIT
 70
       2
  9
$DIMDEC
 70
       4
  9
$DIMTDEC
 70
       4
  9
$DIMALTU
 70
       2
  9
$DIMALTTD
 70
       2
  9
$DIMTXSTY
  7
STANDARD
  9
$DIMAUNIT
 70
       0
  9
$LUNITS
 70
       2
  9
$LUPREC
 70
       4
  9
$SKETCHINC
 40
0.1
  9
$FILLETRAD
 40
0.0
  9
$AUNITS
 70
       0
  9
$AUPREC
 70
       0
  9
$MENU
  1
acad
  9
$ELEVATION
 40
0.0
  9
$PELEVATION
 40
0.0
  9
$THICKNESS
 40
0.0
  9
$LIMCHECK
 70
       0
  9
$BLIPMODE
 70
       1
  9
$CHAMFERA
 40
0.0
  9
$CHAMFERB
 40
0.0
  9
$CHAMFERC
 40
0.0
  9
$CHAMFERD
 40
0.0
  9
$SKPOLY
 70
       0
  9
$TDCREATE
 40
0.000000000
  9
$TDUPDATE
 40
0.000000000
  9
$TDINDWG
 40
0.0000000000
  9
$TDUSRTIMER
 40
0.0000000000
  9
$USRTIMER
 70
       1
  9
$ANGBASE
 50
0.0
  9
$ANGDIR
 70
       0
  9
$PDMODE
 70
       0
  9
$PDSIZE
 40
1.0
  9
$PLINEWID
 40
0.0
  9
$COORDS
 70
       1
  9
$SPLFRAME
 70
       0
  9
$SPLINETYPE
 70
       6
  9
$SPLINESEGS
 70
       8
  9
$ATTDIA
 70
       0
  9
$ATTREQ
 70
       1
  9
$HANDLING
 70
       1
  9
$HANDSEED
  5
1DD
  9
$SURFTAB1
 70
       6
  9
$SURFTAB2
 70
       6
  9
$SURFTYPE
 70
       6
  9
$SURFU
 70
       6
  9
$SURFV
 70
       6
  9
$UCSNAME
  2

  9
$UCSORG
 10
0.0
 20
0.0
 30
0.0
  9
$UCSXDIR
 10
1.0
 20
0.0
 30
0.0
  9
$UCSYDIR
 10
0.0
 20
1.0
 30
0.0
  9
$PUCSNAME
  2

  9
$PUCSORG
 10
0.0
 20
0.0
 30
0.0
  9
$PUCSXDIR
 10
1.0
 20
0.0
 30
0.0
  9
$PUCSYDIR
 10
0.0
 20
1.0
 30
0.0
  9
$USERI1
 70
       0
  9
$USERI2
 70
       0
  9
$USERI3
 70
       0
  9
$USERI4
 70
       0
  9
$USERI5
 70
       0
  9
$USERR1
 40
0.0
  9
$USERR2
 40
0.0
  9
$USERR3
 40
0.0
  9
$USERR4
 40
0.0
  9
$USERR5
 40
0.0
  9
$WORLDVIEW
 70
       1
  9
$SHADEDGE
 70
       3
  9
$SHADEDIF
 70
      70
  9
$TILEMODE
 70
       1
  9
$MAXACTVP
 70
      16
  9
$PINSBASE
 10
0.0
 20
0.0
 30
0.0
  9
$PLIMCHECK
 70
       0
  9
$PEXTMIN
 10
1.00000000E+20
 20
1.00000000E+20
 30
1.00000000E+20
  9
$PEXTMAX
 10
-1.00000000E+20
 20
-1.00000000E+20
 30
-1.00000000E+20
  9
$PLIMMIN
 10
0.0
 20
0.0
  9
$PLIMMAX
 10
12.0
 20
9.0
  9
$UNITMODE
 70
       0
  9
$VISRETAIN
 70
       0
  9
$PLINEGEN
 70
       1
  9
$PSLTSCALE
 70
       0
  9
$TREEDEPTH
 70
    3020
  9
$PICKSTYLE
 70
       1
  9
$CMLSTYLE
  2
STANDARD
  9
$CMLJUST
 70
       0
  9
$CMLSCALE
 40
1.0
  9
$PROXYGRAPHICS
 70
       0
  9
$MEASUREMENT
 70
       0
  0
ENDSEC
  0
SECTION
  2
CLASSES
  0
CLASS
  1
LWPOLYLINE
  2
AcDbPolyline
  3
"AutoCAD"
 90
        0
280
       0
281
       1
  0
CLASS
  1
IMAGE
  2
AcDbRasterImage
  3
ISM
 90
      127
280
       0
281
       1
  0
CLASS
  1
OLE2FRAME
  2
AcDbOle2Frame
  3
""
 90
        0
280
       0
281
       1
  0
CLASS
  1
HATCH
  2
AcDbHatch
  3
"ACAD_SEDONA"
 90
        0
280
       0
281
       1
  0
CLASS
  1
DICTIONARYVAR
  2
AcDbDictionaryVar
  3
"AutoCAD"
 90
        0
280
       0
281
       0
  0
CLASS
  1
RASTERVARIABLES
  2
AcDbRasterVariables
  3
ISM
 90
        0
280
       0
281
       0
  0
CLASS
  1
IMAGEDEF
  2
AcDbRasterImageDef
  3
ISM
 90
        0
280
       0
281
       0
  0
CLASS
  1
IMAGEDEF_REACTOR
  2
AcDbRasterImageDefReactor
  3
ISM
 90
        1
280
       0
281
       0
  0
CLASS
  1
IDBUFFER
  2
AcDbIdBuffer
  3
"Acad"
 90
        0
280
       0
281
       0
  0
CLASS
  1
SPATIAL_FILTER
  2
AcDbSpatialFilter
  3
"Acad"
 90
        0
280
       0
281
       0
  0
CLASS
  1
XRECORD
  2
AcDbXrecord
  3
"<Built In>"
 90
        0
280
       0
281
       0
  0
CLASS
  1
SORTENTSTABLE
  2
AcDbSortentsTable
  3
"AutoCAD"
 90
        0
280
       0
281
       0
  0
CLASS
  1
LAYER_INDEX
  2
AcDbLayerIndex
  3
"Acad"
 90
        0
280
       0
281
       0
  0
CLASS
  1
SPATIAL_INDEX
  2
AcDbSpatialIndex
  3
"Acad"
 90
        0
280
       0
281
       0
  0
CLASS
  1
OBJECT_PTR
  2
CAseDLPNTableRecord
  3
"ASE-LPNTableRecord"
 90
        1
280
       0
281
       0
  0
CLASS
  1
LAYOUT
  2
AcDbLayout
  3
"AutoCAD 2000"
 90
        1
280
       0
281
       0
  0
CLASS
  1
PLOTSETTINGS
  2
AcDbPlotSettings
  3
"AutoCAD 2000"
 90
        1
280
       0
281
       0
  0
CLASS
  1
ACDBDICTIONARYWDFLT
  2
AcDbDictionaryWithDefault
  3
"AutoCAD 2000"
 90
        1
280
       0
281
       0
  0
CLASS
  1
ACDBPLACEHOLDER
  2
AcDbPlaceHolder
  3
"AutoCAD 2000"
 90
        1
280
       0
281
       0
  0
CLASS
  1
VBA_PROJECT
  2
AcDbVbaProject
  3
"acadvba"
 90
        1
280
       0
281
       0
  0
CLASS
  1
WIPEOUT
  2
AcDbWipeout
  3
WipeOut|AutoCAD Express Tool|expresstools@autodesk.com
 90
      127
280
       0
281
       1
  0
CLASS
  1
WIPEOUTVARIABLES
  2
AcDbWipeoutVariables
  3
WipeOut|AutoCAD Express Tool|expresstools@autodesk.com
 90
        0
280
       0
281
       0
  0
CLASS
  1
RTEXT
  2
RText
  3
RText|AutoCAD Express Tool|expresstools@autodesk.com
 90
        0
280
       0
281
       1
  0
CLASS
  1
ARCALIGNEDTEXT
  2
AcDbArcAlignedText
  3
ATEXT|AutoCAD Express Tool|expresstools@autodesk.com
 90
        0
280
       0
281
       1
  0
ENDSEC
  0
SECTION
  2
TABLES
  0
TABLE
  2
VPORT
  5
7
100
AcDbSymbolTable
 70
       1
  0
VPORT
  5
15
100
AcDbSymbolTableRecord
100
AcDbViewportTableRecord
  2
*ACTIVE
 70
       0
 10
0.0
 20
0.0
 11
1.0
 21
1.0
 12
0.0
 22
-1.32291667
 13
0.0
 23
0.0
 14
1.0
 24
1.0
 15
0.0
 25
0.0
 16
0.0
 26
0.0
 36
1.0
 17
0.0
 27
0.0
 37
0.0
 40
142.20741449
 41
2.32526889
 42
50.0
 43
0.0
 44
0.0
 50
0.0
 51
0.0
 71
       0
 72
     100
 73
       1
 74
       1
 75
       0
 76
       0
 77
       0
 78
       0
  0
ENDTAB
  0
TABLE
  2
LTYPE
  5
4
100
AcDbSymbolTable
 70
      30
  0
LTYPE
  5
11
100
AcDbSymbolTableRecord
100
AcDbLinetypeTableRecord
  2
BYBLOCK
 70
      64
  3

 72
      65
 73
       0
 40
0.0
  0
LTYPE
  5
12
100
AcDbSymbolTableRecord
100
AcDbLinetypeTableRecord
  2
BYLAYER
 70
      64
  3

 72
      65
 73
       0
 40
0.0
  0
LTYPE
  5
13
100
AcDbSymbolTableRecord
100
AcDbLinetypeTableRecord
  2
CONTINUOUS
 70
      64
  3
Solid line
 72
      65
 73
       0
 40
0.0
  0
LTYPE
  5
1D
100
AcDbSymbolTableRecord
100
AcDbLinetypeTableRecord
  2
HIDDENX2
 70
      64
  3
CADPAC LINETYPE
 72
      65
 73
       2
 40
12.44877091
 49
9.33657818
 74
       0
 49
-3.11219273
 74
       0
  0
LTYPE
  5
1E
100
AcDbSymbolTableRecord
100
AcDbLinetypeTableRecord
  2
HIDDEN
 70
      64
  3
CADPAC LINETYPE
 72
      65
 73
       2
 40
9.33657818
 49
6.22438545
 74
       0
 49
-3.11219273
 74
       0
  0
LTYPE
  5
1F
100
AcDbSymbolTableRecord
100
AcDbLinetypeTableRecord
  2
HIDDEN2
 70
      64
  3
CADPAC LINETYPE
 72
      65
 73
       2
 40
7.78048182
 49
4.66828909
 74
       0
 49
-3.11219273
 74
       0
  0
LTYPE
  5
20
100
AcDbSymbolTableRecord
100
AcDbLinetypeTableRecord
  2
DASHED
 70
      64
  3
CADPAC LINETYPE
 72
      65
 73
       2
 40
9.33657818
 49
6.22438545
 74
       0
 49
-3.11219273
 74
       0
  0
LTYPE
  5
21
100
AcDbSymbolTableRecord
100
AcDbLinetypeTableRecord
  2
DASHED2
 70
      64
  3
CADPAC LINETYPE
 72
      65
 73
       2
 40
7.00243364
 49
4.66828909
 74
       0
 49
-2.33414455
 74
       0
  0
LTYPE
  5
22
100
AcDbSymbolTableRecord
100
AcDbLinetypeTableRecord
  2
DASHEDX2
 70
      64
  3
CADPAC LINETYPE
 72
      65
 73
       2
 40
14.00486727
 49
9.33657818
 74
       0
 49
-4.66828909
 74
       0
  0
LTYPE
  5
23
100
AcDbSymbolTableRecord
100
AcDbLinetypeTableRecord
  2
DOTX2
 70
      64
  3
CADPAC LINETYPE
 72
      65
 73
       2
 40
3.89024091
 49
0.0
 74
       0
 49
-3.89024091
 74
       0
  0
LTYPE
  5
24
100
AcDbSymbolTableRecord
100
AcDbLinetypeTableRecord
  2
DOT
 70
      64
  3
CADPAC LINETYPE
 72
      65
 73
       2
 40
3.11219273
 49
0.0
 74
       0
 49
-3.11219273
 74
       0
  0
LTYPE
  5
25
100
AcDbSymbolTableRecord
100
AcDbLinetypeTableRecord
  2
DOT2
 70
      64
  3
CADPAC LINETYPE
 72
      65
 73
       2
 40
2.33414455
 49
0.0
 74
       0
 49
-2.33414455
 74
       0
  0
LTYPE
  5
26
100
AcDbSymbolTableRecord
100
AcDbLinetypeTableRecord
  2
CENTERX2
 70
      64
  3
CADPAC LINETYPE
 72
      65
 73
       4
 40
18.67315636
 49
7.78048182
 74
       0
 49
-3.89024091
 74
       0
 49
3.11219273
 74
       0
 49
-3.89024091
 74
       0
  0
LTYPE
  5
27
100
AcDbSymbolTableRecord
100
AcDbLinetypeTableRecord
  2
CENTER
 70
      64
  3
CADPAC LINETYPE
 72
      65
 73
       4
 40
14.31608654
 49
6.22438545
 74
       0
 49
-3.11219273
 74
       0
 49
1.86731564
 74
       0
 49
-3.11219273
 74
       0
  0
LTYPE
  5
28
100
AcDbSymbolTableRecord
100
AcDbLinetypeTableRecord
  2
CENTER2
 70
      64
  3
CADPAC LINETYPE
 72
      65
 73
       4
 40
9.95901673
 49
4.66828909
 74
       0
 49
-2.33414455
 74
       0
 49
0.62243855
 74
       0
 49
-2.33414455
 74
       0
  0
LTYPE
  5
29
100
AcDbSymbolTableRecord
100
AcDbLinetypeTableRecord
  2
DASHDOTX2
 70
      64
  3
CADPAC LINETYPE
 72
      65
 73
       4
 40
15.56096364
 49
7.78048182
 74
       0
 49
-3.89024091
 74
       0
 49
0.0
 74
       0
 49
-3.89024091
 74
       0
  0
LTYPE
  5
2A
100
AcDbSymbolTableRecord
100
AcDbLinetypeTableRecord
  2
DASHDOT
 70
      64
  3
CADPAC LINETYPE
 72
      65
 73
       4
 40
12.44877091
 49
6.22438545
 74
       0
 49
-3.11219273
 74
       0
 49
0.0
 74
       0
 49
-3.11219273
 74
       0
  0
LTYPE
  5
2B
100
AcDbSymbolTableRecord
100
AcDbLinetypeTableRecord
  2
DASHDOT2
 70
      64
  3
CADPAC LINETYPE
 72
      65
 73
       4
 40
9.33657818
 49
4.66828909
 74
       0
 49
-2.33414455
 74
       0
 49
0.0
 74
       0
 49
-2.33414455
 74
       0
  0
LTYPE
  5
2C
100
AcDbSymbolTableRecord
100
AcDbLinetypeTableRecord
  2
DIVIDEX2
 70
      64
  3
CADPAC LINETYPE
 72
      65
 73
       6
 40
19.45120454
 49
7.78048182
 74
       0
 49
-3.89024091
 74
       0
 49
0.0
 74
       0
 49
-3.89024091
 74
       0
 49
0.0
 74
       0
 49
-3.89024091
 74
       0
  0
LTYPE
  5
2D
100
AcDbSymbolTableRecord
100
AcDbLinetypeTableRecord
  2
DIVIDE
 70
      64
  3
CADPAC LINETYPE
 72
      65
 73
       6
 40
15.56096364
 49
6.22438545
 74
       0
 49
-3.11219273
 74
       0
 49
0.0
 74
       0
 49
-3.11219273
 74
       0
 49
0.0
 74
       0
 49
-3.11219273
 74
       0
  0
LTYPE
  5
2E
100
AcDbSymbolTableRecord
100
AcDbLinetypeTableRecord
  2
DIVIDE2
 70
      64
  3
CADPAC LINETYPE
 72
      65
 73
       6
 40
11.67072273
 49
4.66828909
 74
       0
 49
-2.33414455
 74
       0
 49
0.0
 74
       0
 49
-2.33414455
 74
       0
 49
0.0
 74
       0
 49
-2.33414455
 74
       0
  0
LTYPE
  5
2F
100
AcDbSymbolTableRecord
100
AcDbLinetypeTableRecord
  2
BORDERX2
 70
      64
  3
CADPAC LINETYPE
 72
      65
 73
       6
 40
27.23168636
 49
7.78048182
 74
       0
 49
-3.89024091
 74
       0
 49
7.78048182
 74
       0
 49
-3.89024091
 74
       0
 49
0.0
 74
       0
 49
-3.89024091
 74
       0
  0
LTYPE
  5
30
100
AcDbSymbolTableRecord
100
AcDbLinetypeTableRecord
  2
BORDER
 70
      64
  3
CADPAC LINETYPE
 72
      65
 73
       6
 40
21.78534909
 49
6.22438545
 74
       0
 49
-3.11219273
 74
       0
 49
6.22438545
 74
       0
 49
-3.11219273
 74
       0
 49
0.0
 74
       0
 49
-3.11219273
 74
       0
  0
LTYPE
  5
31
100
AcDbSymbolTableRecord
100
AcDbLinetypeTableRecord
  2
BORDER2
 70
      64
  3
CADPAC LINETYPE
 72
      65
 73
       6
 40
16.33901182
 49
4.66828909
 74
       0
 49
-2.33414455
 74
       0
 49
4.66828909
 74
       0
 49
-2.33414455
 74
       0
 49
0.0
 74
       0
 49
-2.33414455
 74
       0
  0
LTYPE
  5
32
100
AcDbSymbolTableRecord
100
AcDbLinetypeTableRecord
  2
PHANTOMX2
 70
      64
  3
CADPAC LINETYPE
 72
      65
 73
       6
 40
23.34144545
 49
7.78048182
 74
       0
 49
-3.11219273
 74
       0
 49
3.11219273
 74
       0
 49
-3.11219273
 74
       0
 49
3.11219273
 74
       0
 49
-3.11219273
 74
       0
  0
LTYPE
  5
33
100
AcDbSymbolTableRecord
100
AcDbLinetypeTableRecord
  2
PHANTOM
 70
      64
  3
CADPAC LINETYPE
 72
      65
 73
       6
 40
19.29559491
 49
6.22438545
 74
       0
 49
-3.11219273
 74
       0
 49
1.86731564
 74
       0
 49
-3.11219273
 74
       0
 49
1.86731564
 74
       0
 49
-3.11219273
 74
       0
  0
LTYPE
  5
34
100
AcDbSymbolTableRecord
100
AcDbLinetypeTableRecord
  2
PHANTOM2
 70
      64
  3
CADPAC LINETYPE
 72
      65
 73
       6
 40
16.49462145
 49
4.66828909
 74
       0
 49
-3.11219273
 74
       0
 49
1.24487709
 74
       0
 49
-3.11219273
 74
       0
 49
1.24487709
 74
       0
 49
-3.11219273
 74
       0
  0
LTYPE
  5
35
100
AcDbSymbolTableRecord
100
AcDbLinetypeTableRecord
  2
ACAD_ISO06W100
 70
      64
  3
CADPAC LINETYPE
 72
      65
 73
       8
 40
21.00730091
 49
7.78048182
 74
       0
 49
-3.89024091
 74
       0
 49
0.0
 74
       0
 49
-3.11219273
 74
       0
 49
0.0
 74
       0
 49
-3.11219273
 74
       0
 49
0.0
 74
       0
 49
-3.11219273
 74
       0
  0
LTYPE
  5
36
100
AcDbSymbolTableRecord
100
AcDbLinetypeTableRecord
  2
ACAD_ISO13W100
 70
      64
  3
CADPAC LINETYPE
 72
      65
 73
       8
 40
24.89754182
 49
6.22438545
 74
       0
 49
-3.11219273
 74
       0
 49
6.22438545
 74
       0
 49
-3.11219273
 74
       0
 49
0.0
 74
       0
 49
-3.11219273
 74
       0
 49
0.0
 74
       0
 49
-3.11219273
 74
       0
  0
LTYPE
  5
37
100
AcDbSymbolTableRecord
100
AcDbLinetypeTableRecord
  2
ACAD_ISO14W100
 70
      64
  3
CADPAC LINETYPE
 72
      65
 73
       8
 40
18.67315636
 49
6.22438545
 74
       0
 49
-3.11219273
 74
       0
 49
0.0
 74
       0
 49
-3.11219273
 74
       0
 49
0.0
 74
       0
 49
-3.11219273
 74
       0
 49
0.0
 74
       0
 49
-3.11219273
 74
       0
  0
ENDTAB
  0
TABLE
  2
LAYER
  5
2
100
AcDbSymbolTable
 70
       3
  0
LAYER
  5
14
100
AcDbSymbolTableRecord
100
AcDbLayerTableRecord
  2
0
 70
       0
 62
       7
  6
CONTINUOUS
  0
LAYER
  5
38
100
AcDbSymbolTableRecord
100
AcDbLayerTableRecord
  2
LAYER0002
 70
       0
 62
       7
  6
CONTINUOUS
  0
LAYER
  5
39
100
AcDbSymbolTableRecord
100
AcDbLayerTableRecord
  2
LAYER0003
 70
       0
 62
       7
  6
CONTINUOUS
  0
ENDTAB
  0
TABLE
  2
STYLE
  5
3
100
AcDbSymbolTable
 70
       1
  0
STYLE
  5
17
100
AcDbSymbolTableRecord
100
AcDbTextStyleTableRecord
  2
STANDARD
 70
       0
 40
0.0
 41
1.0
 50
0.0
 71
       0
 42
5.29166667
  3
txt.shx
  4
bigfont.shx
  0
ENDTAB
  0
TABLE
  2
VIEW
  5
5
100
AcDbSymbolTable
 70
       1
  0
VIEW
  5
3A
100
AcDbSymbolTableRecord
100
AcDbViewTableRecord
  2
QQQQ
 70
       0
 40
142.20741449
 10
0.0
 20
-1.32291667
 41
330.67047725
 11
0.0
 21
0.0
 31
1.0
 12
100.0
 22
100.0
 32
0.0
 42
50.0
 43
0.0
 44
0.0
 50
0.0
 71
       0
  0
ENDTAB
  0
TABLE
  2
UCS
  5
6
100
AcDbSymbolTable
 70
       0
  0
ENDTAB
  0
TABLE
  2
APPID
  5
8
100
AcDbSymbolTable
 70
       1
  0
APPID
  5
16
100
AcDbSymbolTableRecord
100
AcDbRegAppTableRecord
  2
ACAD
 70
       0
  0
ENDTAB
  0
TABLE
  2
DIMSTYLE
  5
9
100
AcDbSymbolTable
 70
       1
  0
DIMSTYLE
105
18
100
AcDbSymbolTableRecord
100
AcDbDimStyleTableRecord
  2
STANDARD
 70
       0
  3

  4

  5

  6

  7

 40
1.0
 41
0.18
 42
0.0625
 43
0.38
 44
0.18
 45
0.0
 46
0.0
 47
0.0
 48
0.0
 71
       0
 72
       0
 73
       1
 74
       1
 75
       0
 76
       0
 77
       0
 78
       0
140
0.18
141
0.09
142
0.0
143
25.4
144
1.0
145
0.0
146
1.0
147
0.09
170
       0
171
       2
172
       0
173
       0
174
       0
175
       0
176
       0
177
       0
178
       0
270
       2
271
       4
272
       4
273
       2
274
       2
275
       0
280
       0
281
       0
282
       0
283
       1
284
       0
285
       0
286
       0
287
       0
288
       0
340
17
  0
ENDTAB
  0
TABLE
  2
BLOCK_RECORD
  5
1
100
AcDbSymbolTable
 70
       0
  0
BLOCK_RECORD
  5
A
100
AcDbSymbolTableRecord
100
AcDbBlockTableRecord
  2
*MODEL_SPACE
  0
BLOCK_RECORD
  5
B
100
AcDbSymbolTableRecord
100
AcDbBlockTableRecord
  2
*PAPER_SPACE
  0
ENDTAB
  0
ENDSEC
  0
SECTION
  2
BLOCKS
  0
BLOCK
  5
D
100
AcDbEntity
  8
0
100
AcDbBlockBegin
  2
*MODEL_SPACE
 70
       0
 10
0.0
 20
0.0
 30
0.0
  3
*MODEL_SPACE
  1

  0
ENDBLK
  5
E
100
AcDbEntity
  8
0
100
AcDbBlockEnd
  0
BLOCK
  5
F
100
AcDbEntity
 67
       1
  8
0
100
AcDbBlockBegin
  2
*PAPER_SPACE
 70
       0
 10
0.0
 20
0.0
 30
0.0
  3
*PAPER_SPACE
  1

  0
ENDBLK
  5
10
100
AcDbEntity
 67
       1
  8
0
100
AcDbBlockEnd
  0
ENDSEC
  0
SECTION
  2
ENTITIES
  0
LINE
  5
3B
100
AcDbEntity
  8
LAYER0003
  6
CONTINUOUS
 62
       7
100
AcDbLine
 10
42.00466406
 20
-41.38703184
 30
0.0
 11
38.54049308
 21
-41.38703184
 31
0.0
  0
LINE
  5
3C
100
AcDbEntity
  8
LAYER0003
  6
CONTINUOUS
 62
       7
100
AcDbLine
 10
10.00466406
 20
-20.84693399
 30
0.0
 11
10.00466406
 21
-41.18923277
 31
0.0
  0
LINE
  5
3D
100
AcDbEntity
  8
LAYER0003
  6
CONTINUOUS
 62
       7
100
AcDbLine
 10
-93.99533594
 20
-39.68703184
 30
0.0
 11
-94.99533594
 21
-38.68703184
 31
0.0
  0
LINE
  5
3E
100
AcDbEntity
  8
LAYER0003
  6
CONTINUOUS
 62
       7
100
AcDbLine
 10
38.50466406
 20
25.46296816
 30
0.0
 11
38.50466406
 21
-9.83703184
 31
0.0
  0
LINE
  5
3F
100
AcDbEntity
  8
LAYER0003
  6
CONTINUOUS
 62
       7
100
AcDbLine
 10
27.50466406
 20
12.81296816
 30
0.0
 11
27.50466406
 21
2.81296816
 31
0.0
  0
LINE
  5
40
100
AcDbEntity
  8
LAYER0003
  6
CONTINUOUS
 62
       7
100
AcDbLine
 10
38.50466406
 20
10.06296816
 30
0.0
 11
27.50466406
 21
10.06296816
 31
0.0
  0
LINE
  5
41
100
AcDbEntity
  8
LAYER0003
  6
CONTINUOUS
 62
       7
100
AcDbLine
 10
38.50466406
 20
5.56296816
 30
0.0
 11
27.50466406
 21
5.56296816
 31
0.0
  0
LINE
  5
42
100
AcDbEntity
  8
LAYER0003
  6
CONTINUOUS
 62
       7
100
AcDbLine
 10
27.50466406
 20
12.81296816
 30
0.0
 11
19.78070104
 21
12.81296816
 31
0.0
  0
LINE
  5
43
100
AcDbEntity
  8
LAYER0003
  6
CONTINUOUS
 62
       7
100
AcDbLine
 10
27.50466406
 20
2.81296816
 30
0.0
 11
19.78070104
 21
2.81296816
 31
0.0
  0
LINE
  5
44
100
AcDbEntity
  8
LAYER0003
  6
CONTINUOUS
 62
       7
100
AcDbLine
 10
-94.99533594
 20
-38.68703184
 30
0.0
 11
-94.99533594
 21
54.31296816
 31
0.0
  0
LINE
  5
45
100
AcDbEntity
  8
LAYER0003
  6
CONTINUOUS
 62
       7
100
AcDbLine
 10
-118.19101845
 20
-38.68703184
 30
0.0
 11
-118.19101845
 21
54.31296816
 31
0.0
  0
LINE
  5
46
100
AcDbEntity
  8
LAYER0003
  6
CONTINUOUS
 62
       7
100
AcDbLine
 10
-142.69101845
 20
-38.68703184
 30
0.0
 11
-142.69101845
 21
54.31296816
 31
0.0
  0
LINE
  5
47
100
AcDbEntity
  8
LAYER0003
  6
CONTINUOUS
 62
       7
100
AcDbLine
 10
-119.19101845
 20
55.31296816
 30
0.0
 11
-141.69101845
 21
55.31296816
 31
0.0
  0
LINE
  5
48
100
AcDbEntity
  8
LAYER0003
  6
CONTINUOUS
 62
       7
100
AcDbLine
 10
-37.83575559
 20
57.81296816
 30
0.0
 11
-38.38153689
 21
57.26672315
 31
0.0
  0
LINE
  5
49
100
AcDbEntity
  8
LAYER0003
  6
CONTINUOUS
 62
       7
100
AcDbLine
 10
-123.44101845
 20
57.81296816
 30
0.0
 11
-137.44101845
 21
57.81296816
 31
0.0
  0
LINE
  5
4A
100
AcDbEntity
  8
LAYER0003
  6
CONTINUOUS
 62
       7
100
AcDbLine
 10
-122.44101845
 20
55.31296816
 30
0.0
 11
-122.44101845
 21
56.81296816
 31
0.0
  0
LINE
  5
4B
100
AcDbEntity
  8
LAYER0003
  6
CONTINUOUS
 62
       7
100
AcDbLine
 10
-138.44101845
 20
55.31296816
 30
0.0
 11
-138.44101845
 21
56.81296816
 31
0.0
  0
LINE
  5
4C
100
AcDbEntity
  8
LAYER0003
  6
CONTINUOUS
 62
       7
100
AcDbLine
 10
126.31187397
 20
-41.38703184
 30
0.0
 11
138.55849379
 21
-41.38703184
 31
0.0
  0
LINE
  5
4D
100
AcDbEntity
  8
LAYER0003
  6
CONTINUOUS
 62
       7
100
AcDbLine
 10
133.42014529
 20
52.82808033
 30
0.0
 11
141.32536474
 21
52.82808033
 31
0.0
  0
LINE
  5
4E
100
AcDbEntity
  8
LAYER0003
  6
CONTINUOUS
 62
       7
100
AcDbLine
 10
123.55010864
 20
52.82808033
 30
0.0
 11
131.4553281
 21
52.82808033
 31
0.0
  0
LINE
  5
4F
100
AcDbEntity
  8
LAYER0003
  6
CONTINUOUS
 62
       7
100
AcDbLine
 10
122.06777363
 20
29.10217515
 30
0.0
 11
121.06621891
 21
29.10217515
 31
0.0
  0
LINE
  5
50
100
AcDbEntity
  8
LAYER0003
  6
CONTINUOUS
 62
       7
100
AcDbLine
 10
124.88285115
 20
5.56296816
 30
0.0
 11
119.68285115
 21
5.56296816
 31
0.0
  0
LINE
  5
51
100
AcDbEntity
  8
LAYER0003
  6
CONTINUOUS
 62
       7
100
AcDbLine
 10
139.88285115
 20
2.81296816
 30
0.0
 11
145.08285115
 21
2.81296816
 31
0.0
  0
LINE
  5
52
100
AcDbEntity
  8
LAYER0003
  6
CONTINUOUS
 62
       7
100
AcDbLine
 10
122.06777363
 20
19.71334427
 30
0.0
 11
122.06777363
 21
29.10217515
 31
0.0
  0
LINE
  5
53
100
AcDbEntity
  8
LAYER0003
  6
CONTINUOUS
 62
       7
100
AcDbLine
 10
121.06621891
 20
19.71334427
 30
0.0
 11
122.06777363
 21
19.71334427
 31
0.0
  0
LINE
  5
54
100
AcDbEntity
  8
LAYER0003
  6
CONTINUOUS
 62
       7
100
AcDbLine
 10
139.88285115
 20
5.56296816
 30
0.0
 11
145.08285115
 21
5.56296816
 31
0.0
  0
LINE
  5
55
100
AcDbEntity
  8
LAYER0003
  6
CONTINUOUS
 62
       7
100
AcDbLine
 10
142.81110351
 20
29.10217515
 30
0.0
 11
143.81265823
 21
29.10217515
 31
0.0
  0
LINE
  5
56
100
AcDbEntity
  8
LAYER0003
  6
CONTINUOUS
 62
       7
100
AcDbLine
 10
124.88285115
 20
2.81296816
 30
0.0
 11
119.68285115
 21
2.81296816
 31
0.0
  0
LINE
  5
57
100
AcDbEntity
  8
LAYER0003
  6
CONTINUOUS
 62
       7
100
AcDbLine
 10
-37.83575559
 20
-42.18703184
 30
0.0
 11
9.00686499
 21
-42.18703184
 31
0.0
  0
LINE
  5
58
100
AcDbEntity
  8
LAYER0003
  6
CONTINUOUS
 62
       7
100
AcDbLine
 10
145.08285115
 20
-2.77953126
 30
0.0
 11
145.08285115
 21
5.56296816
 31
0.0
  0
LINE
  5
59
100
AcDbEntity
  8
LAYER0003
  6
CONTINUOUS
 62
       7
100
AcDbLine
 10
119.68285115
 20
-2.68037696
 30
0.0
 11
119.68285115
 21
5.56296816
 31
0.0
  0
LINE
  5
5A
100
AcDbEntity
  8
LAYER0003
  6
CONTINUOUS
 62
       7
100
AcDbLine
 10
145.08285115
 20
-28.68703184
 30
0.0
 11
145.08285115
 21
-18.68703184
 31
0.0
  0
LINE
  5
5B
100
AcDbEntity
  8
LAYER0003
  6
CONTINUOUS
 62
       7
100
AcDbLine
 10
119.68285115
 20
-28.68703184
 30
0.0
 11
119.68285115
 21
-18.68703184
 31
0.0
  0
LINE
  5
5C
100
AcDbEntity
  8
LAYER0003
  6
CONTINUOUS
 62
       7
100
AcDbLine
 10
121.05941141
 20
-38.68703184
 30
0.0
 11
143.8032979
 21
-38.68703184
 31
0.0
  0
LINE
  5
5D
100
AcDbEntity
  8
LAYER0003
  6
CONTINUOUS
 62
       7
100
AcDbLine
 10
-37.83575559
 20
57.81296816
 30
0.0
 11
9.00686499
 21
57.81296816
 31
0.0
  0
LINE
  5
5E
100
AcDbEntity
  8
LAYER0003
  6
CONTINUOUS
 62
       7
100
AcDbLine
 10
42.00466406
 20
54.31296816
 30
0.0
 11
22.50466406
 21
54.31296816
 31
0.0
  0
LINE
  5
5F
100
AcDbEntity
  8
LAYER0003
  6
CONTINUOUS
 62
       7
100
AcDbLine
 10
10.00466406
 20
36.47287032
 30
0.0
 11
10.00466406
 21
56.81516909
 31
0.0
  0
LINE
  5
60
100
AcDbEntity
  8
LAYER0003
  6
CONTINUOUS
 62
       7
100
AcDbLine
 10
-93.99533594
 20
55.31296816
 30
0.0
 11
-94.99533594
 21
54.31296816
 31
0.0
  0
LINE
  5
61
100
AcDbEntity
  8
LAYER0003
  6
CONTINUOUS
 62
       7
100
AcDbLine
 10
-138.44101845
 20
-39.68703184
 30
0.0
 11
-138.44101845
 21
-41.18703184
 31
0.0
  0
LINE
  5
62
100
AcDbEntity
  8
LAYER0003
  6
CONTINUOUS
 62
       7
100
AcDbLine
 10
-122.44101845
 20
-39.68703184
 30
0.0
 11
-122.44101845
 21
-41.18703184
 31
0.0
  0
LINE
  5
63
100
AcDbEntity
  8
LAYER0003
  6
CONTINUOUS
 62
       7
100
AcDbLine
 10
-123.44101845
 20
-42.18703184
 30
0.0
 11
-137.44101845
 21
-42.18703184
 31
0.0
  0
LINE
  5
64
100
AcDbEntity
  8
LAYER0003
  6
CONTINUOUS
 62
       7
100
AcDbLine
 10
-119.19101845
 20
-39.68703184
 30
0.0
 11
-141.69101845
 21
-39.68703184
 31
0.0
  0
LINE
  5
65
100
AcDbEntity
  8
LAYER0003
  6
CONTINUOUS
 62
       7
100
AcDbLine
 10
-143.14101845
 20
-28.49857707
 30
0.0
 11
-143.14101845
 21
-19.38307591
 31
0.0
  0
LINE
  5
66
100
AcDbEntity
  8
LAYER0003
  6
CONTINUOUS
 62
       7
100
AcDbLine
 10
-143.14101845
 20
-2.77953126
 30
0.0
 11
-143.14101845
 21
5.56296816
 31
0.0
  0
LINE
  5
67
100
AcDbEntity
  8
LAYER0003
  6
CONTINUOUS
 62
       7
100
AcDbLine
 10
-142.69101845
 20
2.81296816
 30
0.0
 11
-143.14101845
 21
2.81296816
 31
0.0
  0
LINE
  5
68
100
AcDbEntity
  8
LAYER0003
  6
CONTINUOUS
 62
       7
100
AcDbLine
 10
-142.69101845
 20
5.56296816
 30
0.0
 11
-143.14101845
 21
5.56296816
 31
0.0
  0
LINE
  5
69
100
AcDbEntity
  8
LAYER0003
  6
CONTINUOUS
 62
       7
100
AcDbLine
 10
-143.14101845
 20
10.06296816
 30
0.0
 11
-143.14101845
 21
18.34766322
 31
0.0
  0
LINE
  5
6A
100
AcDbEntity
  8
LAYER0003
  6
CONTINUOUS
 62
       7
100
AcDbLine
 10
-142.69101845
 20
12.81296816
 30
0.0
 11
-143.14101845
 21
12.81296816
 31
0.0
  0
LINE
  5
6B
100
AcDbEntity
  8
LAYER0003
  6
CONTINUOUS
 62
       7
100
AcDbLine
 10
-142.69101845
 20
10.06296816
 30
0.0
 11
-143.14101845
 21
10.06296816
 31
0.0
  0
LINE
  5
6C
100
AcDbEntity
  8
LAYER0003
  6
CONTINUOUS
 62
       7
100
AcDbLine
 10
-143.14101845
 20
44.12451339
 30
0.0
 11
-143.14101845
 21
35.00901223
 31
0.0
  0
LINE
  5
6D
100
AcDbEntity
  8
LAYER0003
  6
CONTINUOUS
 62
       7
100
AcDbLine
 10
142.81110351
 20
19.71334427
 30
0.0
 11
142.81110351
 21
29.10217515
 31
0.0
  0
LINE
  5
6E
100
AcDbEntity
  8
LAYER0003
  6
CONTINUOUS
 62
       7
100
AcDbLine
 10
143.81265823
 20
19.71334427
 30
0.0
 11
142.81110351
 21
19.71334427
 31
0.0
  0
LINE
  5
6F
100
AcDbEntity
  8
LAYER0003
  6
CONTINUOUS
 62
       7
100
AcDbLine
 10
123.04975676
 20
32.06471783
 30
0.0
 11
123.04975676
 21
30.08245639
 31
0.0
  0
LINE
  5
70
100
AcDbEntity
  8
LAYER0003
  6
CONTINUOUS
 62
       7
100
AcDbLine
 10
10.00466406
 20
-20.84693399
 30
0.0
 11
12.00466406
 21
-18.84736317
 31
0.0
  0
LINE
  5
71
100
AcDbEntity
  8
LAYER0003
  6
CONTINUOUS
 62
       7
100
AcDbLine
 10
12.00466406
 20
-18.84736317
 30
0.0
 11
12.00466406
 21
34.50180594
 31
0.0
  0
LINE
  5
72
100
AcDbEntity
  8
LAYER0003
  6
CONTINUOUS
 62
       7
100
AcDbLine
 10
20.76098229
 20
44.35099459
 30
0.0
 11
12.20991686
 21
44.35099459
 31
0.0
  0
LINE
  5
73
100
AcDbEntity
  8
LAYER0003
  6
CONTINUOUS
 62
       7
100
AcDbLine
 10
20.76098229
 20
-28.73526953
 30
0.0
 11
42.00466406
 21
-28.73526953
 31
0.0
  0
LINE
  5
74
100
AcDbEntity
  8
LAYER0003
  6
CONTINUOUS
 62
       7
100
AcDbLine
 10
-93.99533594
 20
-39.68703184
 30
0.0
 11
10.02197716
 21
-39.68703184
 31
0.0
  0
LINE
  5
75
100
AcDbEntity
  8
LAYER0003
  6
CONTINUOUS
 62
       7
100
AcDbLine
 10
-2.80932576
 20
-39.67256588
 30
0.0
 11
-2.80932576
 21
-37.68987898
 31
0.0
  0
LINE
  5
76
100
AcDbEntity
  8
LAYER0003
  6
CONTINUOUS
 62
       7
100
AcDbLine
 10
-2.80932576
 20
-37.68987898
 30
0.0
 11
0.65484522
 21
-37.68987898
 31
0.0
  0
LINE
  5
77
100
AcDbEntity
  8
LAYER0003
  6
CONTINUOUS
 62
       7
100
AcDbLine
 10
0.65484522
 20
-37.68987898
 30
0.0
 11
0.65484522
 21
-39.67256588
 31
0.0
  0
LINE
  5
78
100
AcDbEntity
  8
LAYER0003
  6
CONTINUOUS
 62
       7
100
AcDbLine
 10
-8.23491018
 20
-39.67256588
 30
0.0
 11
-8.23491018
 21
-37.68987898
 31
0.0
  0
LINE
  5
79
100
AcDbEntity
  8
LAYER0003
  6
CONTINUOUS
 62
       7
100
AcDbLine
 10
-8.23491018
 20
-37.68987898
 30
0.0
 11
-4.7928636
 21
-37.68987898
 31
0.0
  0
LINE
  5
7A
100
AcDbEntity
  8
LAYER0003
  6
CONTINUOUS
 62
       7
100
AcDbLine
 10
-4.7928636
 20
-37.68987898
 30
0.0
 11
-4.7928636
 21
-39.67256588
 31
0.0
  0
LINE
  5
7B
100
AcDbEntity
  8
LAYER0003
  6
CONTINUOUS
 62
       7
100
AcDbLine
 10
-13.68219353
 20
-39.67256588
 30
0.0
 11
-13.68219353
 21
-37.68987898
 31
0.0
  0
LINE
  5
7C
100
AcDbEntity
  8
LAYER0003
  6
CONTINUOUS
 62
       7
100
AcDbLine
 10
-13.68219353
 20
-37.68987898
 30
0.0
 11
-10.21759708
 21
-37.68987898
 31
0.0
  0
LINE
  5
7D
100
AcDbEntity
  8
LAYER0003
  6
CONTINUOUS
 62
       7
100
AcDbLine
 10
-10.21759708
 20
-37.68987898
 30
0.0
 11
-10.21759708
 21
-39.67256588
 31
0.0
  0
LINE
  5
7E
100
AcDbEntity
  8
LAYER0003
  6
CONTINUOUS
 62
       7
100
AcDbLine
 10
-19.10735248
 20
-39.67256588
 30
0.0
 11
-19.10735248
 21
-37.68987898
 31
0.0
  0
LINE
  5
7F
100
AcDbEntity
  8
LAYER0003
  6
CONTINUOUS
 62
       7
100
AcDbLine
 10
-19.10735248
 20
-37.68987898
 30
0.0
 11
-15.64275603
 21
-37.68987898
 31
0.0
  0
LINE
  5
80
100
AcDbEntity
  8
LAYER0003
  6
CONTINUOUS
 62
       7
100
AcDbLine
 10
-15.64275603
 20
-37.68987898
 30
0.0
 11
-15.64275603
 21
-39.67256588
 31
0.0
  0
LINE
  5
81
100
AcDbEntity
  8
LAYER0003
  6
CONTINUOUS
 62
       7
100
AcDbLine
 10
-45.79789213
 20
-39.67256588
 30
0.0
 11
-45.79789213
 21
-37.68987898
 31
0.0
  0
LINE
  5
82
100
AcDbEntity
  8
LAYER0003
  6
CONTINUOUS
 62
       7
100
AcDbLine
 10
-45.79789213
 20
-37.68987898
 30
0.0
 11
-42.33329568
 21
-37.68987898
 31
0.0
  0
LINE
  5
83
100
AcDbEntity
  8
LAYER0003
  6
CONTINUOUS
 62
       7
100
AcDbLine
 10
-42.33329568
 20
-37.68987898
 30
0.0
 11
-42.33329568
 21
-39.67256588
 31
0.0
  0
LINE
  5
84
100
AcDbEntity
  8
LAYER0003
  6
CONTINUOUS
 62
       7
100
AcDbLine
 10
-51.22305108
 20
-39.67256588
 30
0.0
 11
-51.22305108
 21
-37.68987898
 31
0.0
  0
LINE
  5
85
100
AcDbEntity
  8
LAYER0003
  6
CONTINUOUS
 62
       7
100
AcDbLine
 10
-51.22305108
 20
-37.68987898
 30
0.0
 11
-47.75845463
 21
-37.68987898
 31
0.0
  0
LINE
  5
86
100
AcDbEntity
  8
LAYER0003
  6
CONTINUOUS
 62
       7
100
AcDbLine
 10
-47.75845463
 20
-37.68987898
 30
0.0
 11
-47.75845463
 21
-39.67256588
 31
0.0
  0
LINE
  5
87
100
AcDbEntity
  8
LAYER0003
  6
CONTINUOUS
 62
       7
100
AcDbLine
 10
-56.6707599
 20
-39.67256588
 30
0.0
 11
-56.6707599
 21
-37.68987898
 31
0.0
  0
LINE
  5
88
100
AcDbEntity
  8
LAYER0003
  6
CONTINUOUS
 62
       7
100
AcDbLine
 10
-56.6707599
 20
-37.68987898
 30
0.0
 11
-53.20616345
 21
-37.68987898
 31
0.0
  0
LINE
  5
89
100
AcDbEntity
  8
LAYER0003
  6
CONTINUOUS
 62
       7
100
AcDbLine
 10
-53.20616345
 20
-37.68987898
 30
0.0
 11
-53.20616345
 21
-39.67256588
 31
0.0
  0
LINE
  5
8A
100
AcDbEntity
  8
LAYER0003
  6
CONTINUOUS
 62
       7
100
AcDbLine
 10
-62.09591885
 20
-39.67256588
 30
0.0
 11
-62.09591885
 21
-37.68987898
 31
0.0
  0
LINE
  5
8B
100
AcDbEntity
  8
LAYER0003
  6
CONTINUOUS
 62
       7
100
AcDbLine
 10
-62.09591885
 20
-37.68987898
 30
0.0
 11
-58.6313224
 21
-37.68987898
 31
0.0
  0
LINE
  5
8C
100
AcDbEntity
  8
LAYER0003
  6
CONTINUOUS
 62
       7
100
AcDbLine
 10
-58.6313224
 20
-37.68987898
 30
0.0
 11
-58.6313224
 21
-39.67256588
 31
0.0
  0
LINE
  5
8D
100
AcDbEntity
  8
LAYER0003
  6
CONTINUOUS
 62
       7
100
AcDbLine
 10
-67.52065232
 20
-39.67256588
 30
0.0
 11
-67.52065232
 21
-37.68987898
 31
0.0
  0
LINE
  5
8E
100
AcDbEntity
  8
LAYER0003
  6
CONTINUOUS
 62
       7
100
AcDbLine
 10
-67.52065232
 20
-37.68987898
 30
0.0
 11
-64.07818028
 21
-37.68987898
 31
0.0
  0
LINE
  5
8F
100
AcDbEntity
  8
LAYER0003
  6
CONTINUOUS
 62
       7
100
AcDbLine
 10
-64.07818028
 20
-37.68987898
 30
0.0
 11
-64.07818028
 21
-39.67256588
 31
0.0
  0
LINE
  5
90
100
AcDbEntity
  8
LAYER0003
  6
CONTINUOUS
 62
       7
100
AcDbLine
 10
-72.96793568
 20
-39.67256588
 30
0.0
 11
-72.96793568
 21
-37.68987898
 31
0.0
  0
LINE
  5
91
100
AcDbEntity
  8
LAYER0003
  6
CONTINUOUS
 62
       7
100
AcDbLine
 10
-72.96793568
 20
-37.68987898
 30
0.0
 11
-69.50333923
 21
-37.68987898
 31
0.0
  0
LINE
  5
92
100
AcDbEntity
  8
LAYER0003
  6
CONTINUOUS
 62
       7
100
AcDbLine
 10
-69.50333923
 20
-37.68987898
 30
0.0
 11
-69.50333923
 21
-39.67256588
 31
0.0
  0
LINE
  5
93
100
AcDbEntity
  8
LAYER0003
  6
CONTINUOUS
 62
       7
100
AcDbLine
 10
-78.39266915
 20
-39.67256588
 30
0.0
 11
-78.39266915
 21
-37.68987898
 31
0.0
  0
LINE
  5
94
100
AcDbEntity
  8
LAYER0003
  6
CONTINUOUS
 62
       7
100
AcDbLine
 10
-78.39266915
 20
-37.68987898
 30
0.0
 11
-74.95104805
 21
-37.68987898
 31
0.0
  0
LINE
  5
95
100
AcDbEntity
  8
LAYER0003
  6
CONTINUOUS
 62
       7
100
AcDbLine
 10
-74.95104805
 20
-37.68987898
 30
0.0
 11
-74.95104805
 21
-39.67256588
 31
0.0
  0
LINE
  5
96
100
AcDbEntity
  8
LAYER0003
  6
CONTINUOUS
 62
       7
100
AcDbLine
 10
-83.84080344
 20
-39.67256588
 30
0.0
 11
-83.84080344
 21
-37.68987898
 31
0.0
  0
LINE
  5
97
100
AcDbEntity
  8
LAYER0003
  6
CONTINUOUS
 62
       7
100
AcDbLine
 10
-83.84080344
 20
-37.68987898
 30
0.0
 11
-80.376207
 21
-37.68987898
 31
0.0
  0
LINE
  5
98
100
AcDbEntity
  8
LAYER0003
  6
CONTINUOUS
 62
       7
100
AcDbLine
 10
-80.376207
 20
-37.68987898
 30
0.0
 11
-80.376207
 21
-39.67256588
 31
0.0
  0
LINE
  5
99
100
AcDbEntity
  8
LAYER0003
  6
CONTINUOUS
 62
       7
100
AcDbLine
 10
42.00466406
 20
25.46296816
 30
0.0
 11
42.00466406
 21
54.31296816
 31
0.0
  0
LINE
  5
9A
100
AcDbEntity
  8
LAYER0003
  6
CONTINUOUS
 62
       7
100
AcDbLine
 10
11.00991686
 20
43.15099459
 30
0.0
 11
11.00991686
 21
35.48846922
 31
0.0
  0
LINE
  5
9B
100
AcDbEntity
  8
LAYER0003
  6
CONTINUOUS
 62
       7
100
AcDbLine
 10
10.02963561
 20
43.87531992
 30
0.0
 11
11.00991686
 21
42.89503867
 31
0.0
  0
LINE
  5
9C
100
AcDbEntity
  8
LAYER0003
  6
CONTINUOUS
 62
       7
100
AcDbLine
 10
19.78070104
 20
-2.57103539
 30
0.0
 11
19.78070104
 21
19.65122575
 31
0.0
  0
LINE
  5
9D
100
AcDbEntity
  8
LAYER0003
  6
CONTINUOUS
 62
       7
100
AcDbLine
 10
41.02353187
 20
24.46946011
 30
0.0
 11
42.00466406
 21
25.46296816
 31
0.0
  0
LINE
  5
9E
100
AcDbEntity
  8
LAYER0003
  6
CONTINUOUS
 62
       7
100
AcDbLine
 10
40.02197715
 20
24.46946011
 30
0.0
 11
41.02353187
 21
24.46946011
 31
0.0
  0
LINE
  5
9F
100
AcDbEntity
  8
LAYER0003
  6
CONTINUOUS
 62
       7
100
AcDbLine
 10
40.02197715
 20
25.46296816
 30
0.0
 11
40.02197715
 21
24.46946011
 31
0.0
  0
LINE
  5
A0
100
AcDbEntity
  8
LAYER0003
  6
CONTINUOUS
 62
       7
100
AcDbLine
 10
19.75942757
 20
18.6709445
 30
0.0
 11
38.53028182
 21
18.6709445
 31
0.0
  0
LINE
  5
A1
100
AcDbEntity
  8
LAYER0003
  6
CONTINUOUS
 62
       7
100
AcDbLine
 10
19.78070104
 20
19.65122575
 30
0.0
 11
38.53028182
 21
19.65122575
 31
0.0
  0
LINE
  5
A2
100
AcDbEntity
  8
LAYER0003
  6
CONTINUOUS
 62
       7
100
AcDbLine
 10
12.85150814
 20
34.46521558
 30
0.0
 11
42.00466406
 21
34.46521558
 31
0.0
  0
LINE
  5
A3
100
AcDbEntity
  8
LAYER0003
  6
CONTINUOUS
 62
       7
100
AcDbLine
 10
12.85150814
 20
33.0058559
 30
0.0
 11
42.00466406
 21
33.0058559
 31
0.0
  0
LINE
  5
A4
100
AcDbEntity
  8
LAYER0003
  6
CONTINUOUS
 62
       7
100
AcDbLine
 10
42.00466406
 20
-38.68703184
 30
0.0
 11
22.50466406
 21
-38.68703184
 31
0.0
  0
LINE
  5
A5
100
AcDbEntity
  8
LAYER0003
  6
CONTINUOUS
 62
       7
100
AcDbLine
 10
20.76098229
 20
44.36120585
 30
0.0
 11
42.00466406
 21
44.36120585
 31
0.0
  0
LINE
  5
A6
100
AcDbEntity
  8
LAYER0003
  6
CONTINUOUS
 62
       7
100
AcDbLine
 10
42.00466406
 20
17.69066325
 30
0.0
 11
38.54049308
 21
18.19271702
 31
0.0
  0
LINE
  5
A7
100
AcDbEntity
  8
LAYER0003
  6
CONTINUOUS
 62
       7
100
AcDbLine
 10
42.00466406
 20
14.72897151
 30
0.0
 11
42.00466406
 21
17.69066325
 31
0.0
  0
LINE
  5
A8
100
AcDbEntity
  8
LAYER0003
  6
CONTINUOUS
 62
       7
100
AcDbLine
 10
38.54049308
 20
14.24989308
 30
0.0
 11
42.00466406
 21
14.72897151
 31
0.0
  0
LINE
  5
A9
100
AcDbEntity
  8
LAYER0003
  6
CONTINUOUS
 62
       7
100
AcDbLine
 10
10.00466406
 20
36.47287032
 30
0.0
 11
12.00466406
 21
34.47329949
 31
0.0
  0
LINE
  5
AA
100
AcDbEntity
  8
LAYER0003
  6
CONTINUOUS
 62
       7
100
AcDbLine
 10
-26.52838788
 20
55.30616065
 30
0.0
 11
-26.52838788
 21
57.76792598
 31
0.0
  0
LINE
  5
AB
100
AcDbEntity
  8
LAYER0003
  6
CONTINUOUS
 62
       7
100
AcDbLine
 10
-21.58273282
 20
55.30616065
 30
0.0
 11
-21.58273282
 21
57.76792598
 31
0.0
  0
LINE
  5
AC
100
AcDbEntity
  8
LAYER0003
  6
CONTINUOUS
 62
       7
100
AcDbLine
 10
9.00686499
 20
57.81296816
 30
0.0
 11
10.00466406
 21
56.81516909
 31
0.0
  0
LINE
  5
AD
100
AcDbEntity
  8
LAYER0003
  6
CONTINUOUS
 62
       7
100
AcDbLine
 10
-38.38153689
 20
55.30616065
 30
0.0
 11
-38.38153689
 21
57.26672315
 31
0.0
  0
LINE
  5
AE
100
AcDbEntity
  8
LAYER0003
  6
CONTINUOUS
 62
       7
100
AcDbLine
 10
-80.376207
 20
53.3158153
 30
0.0
 11
-80.376207
 21
55.2985022
 31
0.0
  0
LINE
  5
AF
100
AcDbEntity
  8
LAYER0003
  6
CONTINUOUS
 62
       7
100
AcDbLine
 10
-83.84080344
 20
53.3158153
 30
0.0
 11
-80.376207
 21
53.3158153
 31
0.0
  0
LINE
  5
B0
100
AcDbEntity
  8
LAYER0003
  6
CONTINUOUS
 62
       7
100
AcDbLine
 10
-83.84080344
 20
55.2985022
 30
0.0
 11
-83.84080344
 21
53.3158153
 31
0.0
  0
LINE
  5
B1
100
AcDbEntity
  8
LAYER0003
  6
CONTINUOUS
 62
       7
100
AcDbLine
 10
-74.95104805
 20
53.3158153
 30
0.0
 11
-74.95104805
 21
55.2985022
 31
0.0
  0
LINE
  5
B2
100
AcDbEntity
  8
LAYER0003
  6
CONTINUOUS
 62
       7
100
AcDbLine
 10
-78.39266915
 20
53.3158153
 30
0.0
 11
-74.95104805
 21
53.3158153
 31
0.0
  0
LINE
  5
B3
100
AcDbEntity
  8
LAYER0003
  6
CONTINUOUS
 62
       7
100
AcDbLine
 10
-38.38153689
 20
-39.68022433
 30
0.0
 11
-38.38153689
 21
-41.64078683
 31
0.0
  0
LINE
  5
B4
100
AcDbEntity
  8
LAYER0003
  6
CONTINUOUS
 62
       7
100
AcDbLine
 10
-38.38153689
 20
-41.64078683
 30
0.0
 11
-37.83575559
 21
-42.18703184
 31
0.0
  0
LINE
  5
B5
100
AcDbEntity
  8
LAYER0003
  6
CONTINUOUS
 62
       7
100
AcDbLine
 10
-78.39266915
 20
55.2985022
 30
0.0
 11
-78.39266915
 21
53.3158153
 31
0.0
  0
LINE
  5
B6
100
AcDbEntity
  8
LAYER0003
  6
CONTINUOUS
 62
       7
100
AcDbLine
 10
9.00686499
 20
-42.18703184
 30
0.0
 11
10.00466406
 21
-41.18923277
 31
0.0
  0
LINE
  5
B7
100
AcDbEntity
  8
LAYER0003
  6
CONTINUOUS
 62
       7
100
AcDbLine
 10
-69.50333923
 20
53.3158153
 30
0.0
 11
-69.50333923
 21
55.2985022
 31
0.0
  0
LINE
  5
B8
100
AcDbEntity
  8
LAYER0003
  6
CONTINUOUS
 62
       7
100
AcDbLine
 10
38.54049308
 20
1.37604324
 30
0.0
 11
42.00466406
 21
0.89696481
 31
0.0
  0
LINE
  5
B9
100
AcDbEntity
  8
LAYER0003
  6
CONTINUOUS
 62
       7
100
AcDbLine
 10
42.00466406
 20
0.89696481
 30
0.0
 11
42.00466406
 21
-2.06472693
 31
0.0
  0
LINE
  5
BA
100
AcDbEntity
  8
LAYER0003
  6
CONTINUOUS
 62
       7
100
AcDbLine
 10
42.00466406
 20
-2.06472693
 30
0.0
 11
38.54049308
 21
-2.5667807
 31
0.0
  0
LINE
  5
BB
100
AcDbEntity
  8
LAYER0003
  6
CONTINUOUS
 62
       7
100
AcDbLine
 10
-72.96793568
 20
53.3158153
 30
0.0
 11
-69.50333923
 21
53.3158153
 31
0.0
  0
LINE
  5
BC
100
AcDbEntity
  8
LAYER0003
  6
CONTINUOUS
 62
       7
100
AcDbLine
 10
-72.96793568
 20
55.2985022
 30
0.0
 11
-72.96793568
 21
53.3158153
 31
0.0
  0
LINE
  5
BD
100
AcDbEntity
  8
LAYER0003
  6
CONTINUOUS
 62
       7
100
AcDbLine
 10
-64.07818028
 20
53.3158153
 30
0.0
 11
-64.07818028
 21
55.2985022
 31
0.0
  0
LINE
  5
BE
100
AcDbEntity
  8
LAYER0003
  6
CONTINUOUS
 62
       7
100
AcDbLine
 10
-67.52065232
 20
53.3158153
 30
0.0
 11
-64.07818028
 21
53.3158153
 31
0.0
  0
LINE
  5
BF
100
AcDbEntity
  8
LAYER0003
  6
CONTINUOUS
 62
       7
100
AcDbLine
 10
-67.52065232
 20
55.2985022
 30
0.0
 11
-67.52065232
 21
53.3158153
 31
0.0
  0
LINE
  5
C0
100
AcDbEntity
  8
LAYER0003
  6
CONTINUOUS
 62
       7
100
AcDbLine
 10
-58.6313224
 20
53.3158153
 30
0.0
 11
-58.6313224
 21
55.2985022
 31
0.0
  0
LINE
  5
C1
100
AcDbEntity
  8
LAYER0003
  6
CONTINUOUS
 62
       7
100
AcDbLine
 10
-62.09591885
 20
53.3158153
 30
0.0
 11
-58.6313224
 21
53.3158153
 31
0.0
  0
LINE
  5
C2
100
AcDbEntity
  8
LAYER0003
  6
CONTINUOUS
 62
       7
100
AcDbLine
 10
-62.09591885
 20
55.2985022
 30
0.0
 11
-62.09591885
 21
53.3158153
 31
0.0
  0
LINE
  5
C3
100
AcDbEntity
  8
LAYER0003
  6
CONTINUOUS
 62
       7
100
AcDbLine
 10
-53.20616345
 20
53.3158153
 30
0.0
 11
-53.20616345
 21
55.2985022
 31
0.0
  0
LINE
  5
C4
100
AcDbEntity
  8
LAYER0003
  6
CONTINUOUS
 62
       7
100
AcDbLine
 10
-56.6707599
 20
53.3158153
 30
0.0
 11
-53.20616345
 21
53.3158153
 31
0.0
  0
LINE
  5
C5
100
AcDbEntity
  8
LAYER0003
  6
CONTINUOUS
 62
       7
100
AcDbLine
 10
-56.6707599
 20
55.2985022
 30
0.0
 11
-56.6707599
 21
53.3158153
 31
0.0
  0
LINE
  5
C6
100
AcDbEntity
  8
LAYER0003
  6
CONTINUOUS
 62
       7
100
AcDbLine
 10
-47.75845463
 20
53.3158153
 30
0.0
 11
-47.75845463
 21
55.2985022
 31
0.0
  0
LINE
  5
C7
100
AcDbEntity
  8
LAYER0003
  6
CONTINUOUS
 62
       7
100
AcDbLine
 10
-51.22305108
 20
53.3158153
 30
0.0
 11
-47.75845463
 21
53.3158153
 31
0.0
  0
LINE
  5
C8
100
AcDbEntity
  8
LAYER0003
  6
CONTINUOUS
 62
       7
100
AcDbLine
 10
-51.22305108
 20
55.2985022
 30
0.0
 11
-51.22305108
 21
53.3158153
 31
0.0
  0
LINE
  5
C9
100
AcDbEntity
  8
LAYER0003
  6
CONTINUOUS
 62
       7
100
AcDbLine
 10
-42.33329568
 20
53.3158153
 30
0.0
 11
-42.33329568
 21
55.2985022
 31
0.0
  0
LINE
  5
CA
100
AcDbEntity
  8
LAYER0003
  6
CONTINUOUS
 62
       7
100
AcDbLine
 10
12.85150814
 20
-17.37991958
 30
0.0
 11
42.00466406
 21
-17.37991958
 31
0.0
  0
LINE
  5
CB
100
AcDbEntity
  8
LAYER0003
  6
CONTINUOUS
 62
       7
100
AcDbLine
 10
12.85150814
 20
-18.83927926
 30
0.0
 11
42.00466406
 21
-18.83927926
 31
0.0
  0
LINE
  5
CC
100
AcDbEntity
  8
LAYER0003
  6
CONTINUOUS
 62
       7
100
AcDbLine
 10
-45.79789213
 20
53.3158153
 30
0.0
 11
-42.33329568
 21
53.3158153
 31
0.0
  0
LINE
  5
CD
100
AcDbEntity
  8
LAYER0003
  6
CONTINUOUS
 62
       7
100
AcDbLine
 10
19.78070104
 20
-4.02528943
 30
0.0
 11
38.53028182
 21
-4.02528943
 31
0.0
  0
LINE
  5
CE
100
AcDbEntity
  8
LAYER0003
  6
CONTINUOUS
 62
       7
100
AcDbLine
 10
19.75942757
 20
-3.04500818
 30
0.0
 11
38.53028182
 21
-3.04500818
 31
0.0
  0
LINE
  5
CF
100
AcDbEntity
  8
LAYER0003
  6
CONTINUOUS
 62
       7
100
AcDbLine
 10
-45.79789213
 20
55.2985022
 30
0.0
 11
-45.79789213
 21
53.3158153
 31
0.0
  0
LINE
  5
D0
100
AcDbEntity
  8
LAYER0003
  6
CONTINUOUS
 62
       7
100
AcDbLine
 10
-15.64275603
 20
53.3158153
 30
0.0
 11
-15.64275603
 21
55.2985022
 31
0.0
  0
LINE
  5
D1
100
AcDbEntity
  8
LAYER0003
  6
CONTINUOUS
 62
       7
100
AcDbLine
 10
-19.10735248
 20
53.3158153
 30
0.0
 11
-15.64275603
 21
53.3158153
 31
0.0
  0
LINE
  5
D2
100
AcDbEntity
  8
LAYER0003
  6
CONTINUOUS
 62
       7
100
AcDbLine
 10
-19.10735248
 20
55.2985022
 30
0.0
 11
-19.10735248
 21
53.3158153
 31
0.0
  0
LINE
  5
D3
100
AcDbEntity
  8
LAYER0003
  6
CONTINUOUS
 62
       7
100
AcDbLine
 10
-10.21759708
 20
53.3158153
 30
0.0
 11
-10.21759708
 21
55.2985022
 31
0.0
  0
LINE
  5
D4
100
AcDbEntity
  8
LAYER0003
  6
CONTINUOUS
 62
       7
100
AcDbLine
 10
-13.68219353
 20
53.3158153
 30
0.0
 11
-10.21759708
 21
53.3158153
 31
0.0
  0
LINE
  5
D5
100
AcDbEntity
  8
LAYER0003
  6
CONTINUOUS
 62
       7
100
AcDbLine
 10
-13.68219353
 20
55.2985022
 30
0.0
 11
-13.68219353
 21
53.3158153
 31
0.0
  0
LINE
  5
D6
100
AcDbEntity
  8
LAYER0003
  6
CONTINUOUS
 62
       7
100
AcDbLine
 10
-4.7928636
 20
53.3158153
 30
0.0
 11
-4.7928636
 21
55.2985022
 31
0.0
  0
LINE
  5
D7
100
AcDbEntity
  8
LAYER0003
  6
CONTINUOUS
 62
       7
100
AcDbLine
 10
-8.23491018
 20
53.3158153
 30
0.0
 11
-4.7928636
 21
53.3158153
 31
0.0
  0
LINE
  5
D8
100
AcDbEntity
  8
LAYER0003
  6
CONTINUOUS
 62
       7
100
AcDbLine
 10
-8.23491018
 20
55.2985022
 30
0.0
 11
-8.23491018
 21
53.3158153
 31
0.0
  0
LINE
  5
D9
100
AcDbEntity
  8
LAYER0003
  6
CONTINUOUS
 62
       7
100
AcDbLine
 10
0.65484522
 20
53.3158153
 30
0.0
 11
0.65484522
 21
55.2985022
 31
0.0
  0
LINE
  5
DA
100
AcDbEntity
  8
LAYER0003
  6
CONTINUOUS
 62
       7
100
AcDbLine
 10
-2.80932576
 20
53.3158153
 30
0.0
 11
0.65484522
 21
53.3158153
 31
0.0
  0
LINE
  5
DB
100
AcDbEntity
  8
LAYER0003
  6
CONTINUOUS
 62
       7
100
AcDbLine
 10
-2.80932576
 20
55.2985022
 30
0.0
 11
-2.80932576
 21
53.3158153
 31
0.0
  0
LINE
  5
DC
100
AcDbEntity
  8
LAYER0003
  6
CONTINUOUS
 62
       7
100
AcDbLine
 10
-93.99533594
 20
55.31296816
 30
0.0
 11
10.02197716
 21
55.31296816
 31
0.0
  0
LINE
  5
DD
100
AcDbEntity
  8
LAYER0003
  6
CONTINUOUS
 62
       7
100
AcDbLine
 10
-21.58273282
 20
-39.68022433
 30
0.0
 11
-21.58273282
 21
-42.14198966
 31
0.0
  0
LINE
  5
DE
100
AcDbEntity
  8
LAYER0003
  6
CONTINUOUS
 62
       7
100
AcDbLine
 10
-26.52838788
 20
-39.68022433
 30
0.0
 11
-26.52838788
 21
-42.14198966
 31
0.0
  0
LINE
  5
DF
100
AcDbEntity
  8
LAYER0003
  6
CONTINUOUS
 62
       7
100
AcDbLine
 10
38.54049308
 20
-38.62530323
 30
0.0
 11
38.54049308
 21
-41.38703184
 31
0.0
  0
LINE
  5
E0
100
AcDbEntity
  8
LAYER0003
  6
CONTINUOUS
 62
       7
100
AcDbLine
 10
42.00466406
 20
-41.38703184
 30
0.0
 11
42.00466406
 21
-38.62530323
 31
0.0
  0
LINE
  5
E1
100
AcDbEntity
  8
LAYER0003
  6
CONTINUOUS
 62
       7
100
AcDbLine
 10
40.02197715
 20
-9.83703184
 30
0.0
 11
40.02197715
 21
-8.84352379
 31
0.0
  0
LINE
  5
E2
100
AcDbEntity
  8
LAYER0003
  6
CONTINUOUS
 62
       7
100
AcDbLine
 10
40.02197715
 20
-8.84352379
 30
0.0
 11
41.02353187
 21
-8.84352379
 31
0.0
  0
LINE
  5
E3
100
AcDbEntity
  8
LAYER0003
  6
CONTINUOUS
 62
       7
100
AcDbLine
 10
41.02353187
 20
-8.84352379
 30
0.0
 11
42.00466406
 21
-9.83703184
 31
0.0
  0
LINE
  5
E4
100
AcDbEntity
  8
LAYER0003
  6
CONTINUOUS
 62
       7
100
AcDbLine
 10
19.78070104
 20
18.19697171
 30
0.0
 11
19.78070104
 21
-4.02528943
 31
0.0
  0
LINE
  5
E5
100
AcDbEntity
  8
LAYER0003
  6
CONTINUOUS
 62
       7
100
AcDbLine
 10
10.02963561
 20
-28.2493836
 30
0.0
 11
11.00991686
 21
-27.26910235
 31
0.0
  0
LINE
  5
E6
100
AcDbEntity
  8
LAYER0003
  6
CONTINUOUS
 62
       7
100
AcDbLine
 10
11.00991686
 20
-27.52505827
 30
0.0
 11
11.00991686
 21
-19.8625329
 31
0.0
  0
LINE
  5
E7
100
AcDbEntity
  8
LAYER0003
  6
CONTINUOUS
 62
       7
100
AcDbLine
 10
42.00466406
 20
-9.83703184
 30
0.0
 11
42.00466406
 21
-38.68703184
 31
0.0
  0
LINE
  5
E8
100
AcDbEntity
  8
LAYER0003
  6
CONTINUOUS
 62
       7
100
AcDbLine
 10
20.76098229
 20
-28.72505827
 30
0.0
 11
12.20991686
 21
-28.72505827
 31
0.0
  0
LINE
  5
E9
100
AcDbEntity
  8
LAYER0003
  6
CONTINUOUS
 62
       7
100
AcDbLine
 10
-143.14101845
 20
-19.38307591
 30
0.0
 11
-142.69101845
 21
-18.70299778
 31
0.0
  0
LINE
  5
EA
100
AcDbEntity
  8
LAYER0003
  6
CONTINUOUS
 62
       7
100
AcDbLine
 10
-142.69101845
 20
-28.94857707
 30
0.0
 11
-143.14101845
 21
-28.49857707
 31
0.0
  0
LINE
  5
EB
100
AcDbEntity
  8
LAYER0003
  6
CONTINUOUS
 62
       7
100
AcDbLine
 10
-142.69101845
 20
-3.23949219
 30
0.0
 11
-143.14101845
 21
-2.77953126
 31
0.0
  0
LINE
  5
EC
100
AcDbEntity
  8
LAYER0003
  6
CONTINUOUS
 62
       7
100
AcDbLine
 10
-142.69101845
 20
18.86542852
 30
0.0
 11
-143.14101845
 21
18.40546758
 31
0.0
  0
LINE
  5
ED
100
AcDbEntity
  8
LAYER0003
  6
CONTINUOUS
 62
       7
100
AcDbLine
 10
-122.54813761
 20
-21.57972697
 30
0.0
 11
-122.54813761
 21
-25.5225509
 31
0.0
  0
LINE
  5
EE
100
AcDbEntity
  8
LAYER0003
  6
CONTINUOUS
 62
       7
100
AcDbLine
 10
-142.69101845
 20
44.57451339
 30
0.0
 11
-143.14101845
 21
44.12451339
 31
0.0
  0
LINE
  5
EF
100
AcDbEntity
  8
LAYER0003
  6
CONTINUOUS
 62
       7
100
AcDbLine
 10
-143.14101845
 20
35.00901223
 30
0.0
 11
-142.69101845
 21
34.32893411
 31
0.0
  0
LINE
  5
F0
100
AcDbEntity
  8
LAYER0003
  6
CONTINUOUS
 62
       7
100
AcDbLine
 10
-120.06467335
 20
19.91884594
 30
0.0
 11
-120.06467335
 21
-21.57972697
 31
0.0
  0
LINE
  5
F1
100
AcDbEntity
  8
LAYER0003
  6
CONTINUOUS
 62
       7
100
AcDbLine
 10
-118.19101845
 20
23.86081893
 30
0.0
 11
-123.02806697
 21
23.86081893
 31
0.0
  0
LINE
  5
F2
100
AcDbEntity
  8
LAYER0003
  6
CONTINUOUS
 62
       7
100
AcDbLine
 10
-123.02806697
 20
23.86081893
 30
0.0
 11
-123.02806697
 21
28.80562305
 31
0.0
  0
LINE
  5
F3
100
AcDbEntity
  8
LAYER0003
  6
CONTINUOUS
 62
       7
100
AcDbLine
 10
-123.02806697
 20
28.80562305
 30
0.0
 11
-122.02523584
 21
28.80562305
 31
0.0
  0
LINE
  5
F4
100
AcDbEntity
  8
LAYER0003
  6
CONTINUOUS
 62
       7
100
AcDbLine
 10
-122.02523584
 20
28.80562305
 30
0.0
 11
-122.02523584
 21
40.66132488
 31
0.0
  0
LINE
  5
F5
100
AcDbEntity
  8
LAYER0003
  6
CONTINUOUS
 62
       7
100
AcDbLine
 10
-122.02523584
 20
40.66132488
 30
0.0
 11
-141.80275043
 21
40.66132488
 31
0.0
  0
LINE
  5
F6
100
AcDbEntity
  8
LAYER0003
  6
CONTINUOUS
 62
       7
100
AcDbLine
 10
-141.80275043
 20
40.66132488
 30
0.0
 11
-141.80275043
 21
-38.37512729
 31
0.0
  0
LINE
  5
F7
100
AcDbEntity
  8
LAYER0003
  6
CONTINUOUS
 62
       7
100
AcDbLine
 10
-141.80275043
 20
-38.37512729
 30
0.0
 11
-122.02523584
 21
-38.37512729
 31
0.0
  0
LINE
  5
F8
100
AcDbEntity
  8
LAYER0003
  6
CONTINUOUS
 62
       7
100
AcDbLine
 10
-122.02523584
 20
-38.37512729
 30
0.0
 11
-122.02523584
 21
-26.52495655
 31
0.0
  0
LINE
  5
F9
100
AcDbEntity
  8
LAYER0003
  6
CONTINUOUS
 62
       7
100
AcDbLine
 10
-122.02523584
 20
-26.52495655
 30
0.0
 11
-123.03019431
 21
-26.52580749
 31
0.0
  0
LINE
  5
FA
100
AcDbEntity
  8
LAYER0003
  6
CONTINUOUS
 62
       7
100
AcDbLine
 10
-123.03019431
 20
-26.52580749
 30
0.0
 11
-123.02806697
 21
-21.57972697
 31
0.0
  0
LINE
  5
FB
100
AcDbEntity
  8
LAYER0003
  6
CONTINUOUS
 62
       7
100
AcDbLine
 10
-123.02806697
 20
-21.57972697
 30
0.0
 11
-118.19101845
 21
-21.57972697
 31
0.0
  0
LINE
  5
FC
100
AcDbEntity
  8
LAYER0003
  6
CONTINUOUS
 62
       7
100
AcDbLine
 10
-118.19101845
 20
19.91884594
 30
0.0
 11
-124.53124998
 21
19.91884594
 31
0.0
  0
LINE
  5
FD
100
AcDbEntity
  8
LAYER0003
  6
CONTINUOUS
 62
       7
100
AcDbLine
 10
-124.53124998
 20
19.91884594
 30
0.0
 11
-124.53124998
 21
38.67906345
 31
0.0
  0
LINE
  5
FE
100
AcDbEntity
  8
LAYER0003
  6
CONTINUOUS
 62
       7
100
AcDbLine
 10
-124.53124998
 20
38.67906345
 30
0.0
 11
-139.81921259
 21
38.67906345
 31
0.0
  0
LINE
  5
FF
100
AcDbEntity
  8
LAYER0003
  6
CONTINUOUS
 62
       7
100
AcDbLine
 10
-139.81921259
 20
38.67906345
 30
0.0
 11
-139.81921259
 21
-36.37116692
 31
0.0
  0
LINE
  5
100
100
AcDbEntity
  8
LAYER0003
  6
CONTINUOUS
 62
       7
100
AcDbLine
 10
-139.81921259
 20
-36.37116692
 30
0.0
 11
-124.53124998
 21
-36.37116692
 31
0.0
  0
LINE
  5
101
100
AcDbEntity
  8
LAYER0003
  6
CONTINUOUS
 62
       7
100
AcDbLine
 10
-124.53124998
 20
-36.37116692
 30
0.0
 11
-124.53124998
 21
-17.63690304
 31
0.0
  0
LINE
  5
102
100
AcDbEntity
  8
LAYER0003
  6
CONTINUOUS
 62
       7
100
AcDbLine
 10
-124.53124998
 20
-17.63690304
 30
0.0
 11
-118.19101845
 21
-17.63690304
 31
0.0
  0
LINE
  5
103
100
AcDbEntity
  8
LAYER0003
  6
CONTINUOUS
 62
       7
100
AcDbLine
 10
-121.0449546
 20
19.41679217
 30
0.0
 11
-126.47011354
 21
19.41679217
 31
0.0
  0
LINE
  5
104
100
AcDbEntity
  8
LAYER0003
  6
CONTINUOUS
 62
       7
100
AcDbLine
 10
-126.47011354
 20
19.41679217
 30
0.0
 11
-126.47011354
 21
36.71339532
 31
0.0
  0
LINE
  5
105
100
AcDbEntity
  8
LAYER0003
  6
CONTINUOUS
 62
       7
100
AcDbLine
 10
-126.47011354
 20
36.71339532
 30
0.0
 11
-137.35787274
 21
36.71339532
 31
0.0
  0
LINE
  5
106
100
AcDbEntity
  8
LAYER0003
  6
CONTINUOUS
 62
       7
100
AcDbLine
 10
-137.35787274
 20
36.71339532
 30
0.0
 11
-137.35787274
 21
-34.41060442
 31
0.0
  0
LINE
  5
107
100
AcDbEntity
  8
LAYER0003
  6
CONTINUOUS
 62
       7
100
AcDbLine
 10
-137.35787274
 20
-34.41060442
 30
0.0
 11
-126.47011354
 21
-34.41060442
 31
0.0
  0
LINE
  5
108
100
AcDbEntity
  8
LAYER0003
  6
CONTINUOUS
 62
       7
100
AcDbLine
 10
-126.47011354
 20
-34.41060442
 30
0.0
 11
-126.47011354
 21
-17.13612568
 31
0.0
  0
LINE
  5
109
100
AcDbEntity
  8
LAYER0003
  6
CONTINUOUS
 62
       7
100
AcDbLine
 10
-126.47011354
 20
-17.13612568
 30
0.0
 11
-121.0449546
 21
-17.13612568
 31
0.0
  0
LINE
  5
10A
100
AcDbEntity
  8
LAYER0003
  6
CONTINUOUS
 62
       7
100
AcDbLine
 10
-121.0449546
 20
-17.13612568
 30
0.0
 11
-121.0449546
 21
19.41679217
 31
0.0
  0
LINE
  5
10B
100
AcDbEntity
  8
LAYER0003
  6
CONTINUOUS
 62
       7
100
AcDbLine
 10
-118.19101845
 20
-22.0809298
 30
0.0
 11
-122.54813761
 21
-22.0809298
 31
0.0
  0
LINE
  5
10C
100
AcDbEntity
  8
LAYER0003
  6
CONTINUOUS
 62
       7
100
AcDbLine
 10
-122.54813761
 20
-22.0809298
 30
0.0
 11
-122.54813761
 21
-26.01949904
 31
0.0
  0
LINE
  5
10D
100
AcDbEntity
  8
LAYER0003
  6
CONTINUOUS
 62
       7
100
AcDbLine
 10
-122.54813761
 20
-26.01949904
 30
0.0
 11
-121.0449546
 21
-26.01949904
 31
0.0
  0
LINE
  5
10E
100
AcDbEntity
  8
LAYER0003
  6
CONTINUOUS
 62
       7
100
AcDbLine
 10
-142.69101845
 20
41.40206692
 30
0.0
 11
-118.19101845
 21
41.40206692
 31
0.0
  0
LINE
  5
10F
100
AcDbEntity
  8
LAYER0003
  6
CONTINUOUS
 62
       7
100
AcDbLine
 10
-118.19101845
 20
-26.02375373
 30
0.0
 11
-121.0449546
 21
-26.02375373
 31
0.0
  0
LINE
  5
110
100
AcDbEntity
  8
LAYER0003
  6
CONTINUOUS
 62
       7
100
AcDbLine
 10
-121.0449546
 20
-26.02375373
 30
0.0
 11
-121.0449546
 21
-37.11190896
 31
0.0
  0
LINE
  5
111
100
AcDbEntity
  8
LAYER0003
  6
CONTINUOUS
 62
       7
100
AcDbLine
 10
-121.0449546
 20
-37.11190896
 30
0.0
 11
-122.02523584
 21
-37.11190896
 31
0.0
  0
LINE
  5
112
100
AcDbEntity
  8
LAYER0003
  6
CONTINUOUS
 62
       7
100
AcDbLine
 10
-121.0449546
 20
41.40206692
 30
0.0
 11
-121.0449546
 21
28.30995132
 31
0.0
  0
LINE
  5
113
100
AcDbEntity
  8
LAYER0003
  6
CONTINUOUS
 62
       7
100
AcDbLine
 10
-121.0449546
 20
28.30995132
 30
0.0
 11
-118.19101845
 21
28.30995132
 31
0.0
  0
LINE
  5
114
100
AcDbEntity
  8
LAYER0003
  6
CONTINUOUS
 62
       7
100
AcDbLine
 10
-118.60531367
 20
41.40206692
 30
0.0
 11
-118.60531367
 21
28.30995132
 31
0.0
  0
LINE
  5
115
100
AcDbEntity
  8
LAYER0003
  6
CONTINUOUS
 62
       7
100
AcDbLine
 10
-121.0449546
 20
28.30484569
 30
0.0
 11
-122.54813761
 21
28.31335508
 31
0.0
  0
LINE
  5
116
100
AcDbEntity
  8
LAYER0003
  6
CONTINUOUS
 62
       7
100
AcDbLine
 10
-122.54813761
 20
28.31335508
 30
0.0
 11
-122.54813761
 21
24.36159629
 31
0.0
  0
LINE
  5
117
100
AcDbEntity
  8
LAYER0003
  6
CONTINUOUS
 62
       7
100
AcDbLine
 10
-122.54813761
 20
24.36159629
 30
0.0
 11
-118.19101845
 21
24.36159629
 31
0.0
  0
LINE
  5
118
100
AcDbEntity
  8
LAYER0003
  6
CONTINUOUS
 62
       7
100
AcDbLine
 10
138.85849379
 20
-41.08703184
 30
0.0
 11
138.85849379
 21
-38.68703184
 31
0.0
  0
LINE
  5
119
100
AcDbEntity
  8
LAYER0003
  6
CONTINUOUS
 62
       7
100
AcDbLine
 10
126.01187397
 20
-38.68703184
 30
0.0
 11
126.01187397
 21
-41.08703184
 31
0.0
  0
LINE
  5
11A
100
AcDbEntity
  8
LAYER0003
  6
CONTINUOUS
 62
       7
100
AcDbLine
 10
119.68285115
 20
-2.68037696
 30
0.0
 11
121.05941141
 21
-4.08740795
 31
0.0
  0
LINE
  5
11B
100
AcDbEntity
  8
LAYER0003
  6
CONTINUOUS
 62
       7
100
AcDbLine
 10
121.05941141
 20
-4.08740795
 30
0.0
 11
121.05941141
 21
-17.4199137
 31
0.0
  0
LINE
  5
11C
100
AcDbEntity
  8
LAYER0003
  6
CONTINUOUS
 62
       7
100
AcDbLine
 10
121.05941141
 20
-17.44930664
 30
0.0
 11
119.68285115
 21
-18.68703184
 31
0.0
  0
LINE
  5
11D
100
AcDbEntity
  8
LAYER0003
  6
CONTINUOUS
 62
       7
100
AcDbLine
 10
119.68285115
 20
-28.68703184
 30
0.0
 11
121.05941141
 21
-29.77813032
 31
0.0
  0
LINE
  5
11E
100
AcDbEntity
  8
LAYER0003
  6
CONTINUOUS
 62
       7
100
AcDbLine
 10
121.05941141
 20
-29.77813032
 30
0.0
 11
121.05941141
 21
-38.68703184
 31
0.0
  0
LINE
  5
11F
100
AcDbEntity
  8
LAYER0003
  6
CONTINUOUS
 62
       7
100
AcDbLine
 10
143.8032979
 20
-38.68703184
 30
0.0
 11
143.8032979
 21
-29.77813032
 31
0.0
  0
LINE
  5
120
100
AcDbEntity
  8
LAYER0003
  6
CONTINUOUS
 62
       7
100
AcDbLine
 10
143.8032979
 20
-29.77813032
 30
0.0
 11
145.08285115
 21
-28.68703184
 31
0.0
  0
LINE
  5
121
100
AcDbEntity
  8
LAYER0003
  6
CONTINUOUS
 62
       7
100
AcDbLine
 10
145.08285115
 20
-18.68703184
 30
0.0
 11
143.8032979
 21
-17.44930664
 31
0.0
  0
LINE
  5
122
100
AcDbEntity
  8
LAYER0003
  6
CONTINUOUS
 62
       7
100
AcDbLine
 10
143.8032979
 20
-17.4199137
 30
0.0
 11
143.8032979
 21
-4.08740795
 31
0.0
  0
LINE
  5
123
100
AcDbEntity
  8
LAYER0003
  6
CONTINUOUS
 62
       7
100
AcDbLine
 10
143.8032979
 20
-4.08740795
 30
0.0
 11
145.08285115
 21
-2.77953126
 31
0.0
  0
LINE
  5
124
100
AcDbEntity
  8
LAYER0003
  6
CONTINUOUS
 62
       7
100
AcDbLine
 10
129.47689589
 20
32.06471783
 30
0.0
 11
123.04975676
 21
32.06471783
 31
0.0
  0
LINE
  5
125
100
AcDbEntity
  8
LAYER0003
  6
CONTINUOUS
 62
       7
100
AcDbLine
 10
129.47689589
 20
30.08245639
 30
0.0
 11
129.47689589
 21
32.06471783
 31
0.0
  0
LINE
  5
126
100
AcDbEntity
  8
LAYER0003
  6
CONTINUOUS
 62
       7
100
AcDbLine
 10
123.04975676
 20
30.08245639
 30
0.0
 11
129.47689589
 21
30.08245639
 31
0.0
  0
LINE
  5
127
100
AcDbEntity
  8
LAYER0003
  6
CONTINUOUS
 62
       7
100
AcDbLine
 10
124.03003801
 20
27.38115186
 30
0.0
 11
124.03003801
 21
25.39889042
 31
0.0
  0
LINE
  5
128
100
AcDbEntity
  8
LAYER0003
  6
CONTINUOUS
 62
       7
100
AcDbLine
 10
130.45717714
 20
27.38115186
 30
0.0
 11
124.03003801
 21
27.38115186
 31
0.0
  0
LINE
  5
129
100
AcDbEntity
  8
LAYER0003
  6
CONTINUOUS
 62
       7
100
AcDbLine
 10
130.45717714
 20
25.39889042
 30
0.0
 11
130.45717714
 21
27.38115186
 31
0.0
  0
LINE
  5
12A
100
AcDbEntity
  8
LAYER0003
  6
CONTINUOUS
 62
       7
100
AcDbLine
 10
124.03003801
 20
25.39889042
 30
0.0
 11
130.45717714
 21
25.39889042
 31
0.0
  0
LINE
  5
12B
100
AcDbEntity
  8
LAYER0003
  6
CONTINUOUS
 62
       7
100
AcDbLine
 10
135.40283219
 20
32.06471783
 30
0.0
 11
135.40283219
 21
30.08245639
 31
0.0
  0
LINE
  5
12C
100
AcDbEntity
  8
LAYER0003
  6
CONTINUOUS
 62
       7
100
AcDbLine
 10
141.82997132
 20
32.06471783
 30
0.0
 11
135.40283219
 21
32.06471783
 31
0.0
  0
LINE
  5
12D
100
AcDbEntity
  8
LAYER0003
  6
CONTINUOUS
 62
       7
100
AcDbLine
 10
141.82997132
 20
30.08245639
 30
0.0
 11
141.82997132
 21
32.06471783
 31
0.0
  0
LINE
  5
12E
100
AcDbEntity
  8
LAYER0003
  6
CONTINUOUS
 62
       7
100
AcDbLine
 10
135.40283219
 20
30.08245639
 30
0.0
 11
141.82997132
 21
30.08245639
 31
0.0
  0
LINE
  5
12F
100
AcDbEntity
  8
LAYER0003
  6
CONTINUOUS
 62
       7
100
AcDbLine
 10
134.42255094
 20
27.38115186
 30
0.0
 11
134.42255094
 21
25.39889042
 31
0.0
  0
LINE
  5
130
100
AcDbEntity
  8
LAYER0003
  6
CONTINUOUS
 62
       7
100
AcDbLine
 10
140.84969007
 20
27.38115186
 30
0.0
 11
134.42255094
 21
27.38115186
 31
0.0
  0
LINE
  5
131
100
AcDbEntity
  8
LAYER0003
  6
CONTINUOUS
 62
       7
100
AcDbLine
 10
140.84969007
 20
25.39889042
 30
0.0
 11
140.84969007
 21
27.38115186
 31
0.0
  0
LINE
  5
132
100
AcDbEntity
  8
LAYER0003
  6
CONTINUOUS
 62
       7
100
AcDbLine
 10
134.42255094
 20
25.39889042
 30
0.0
 11
140.84969007
 21
25.39889042
 31
0.0
  0
LINE
  5
133
100
AcDbEntity
  8
LAYER0003
  6
CONTINUOUS
 62
       7
100
AcDbLine
 10
123.04975676
 20
21.67390677
 30
0.0
 11
123.04975676
 21
18.23186019
 31
0.0
  0
LINE
  5
134
100
AcDbEntity
  8
LAYER0003
  6
CONTINUOUS
 62
       7
100
AcDbLine
 10
131.45958279
 20
21.67390677
 30
0.0
 11
123.04975676
 21
21.67390677
 31
0.0
  0
LINE
  5
135
100
AcDbEntity
  8
LAYER0003
  6
CONTINUOUS
 62
       7
100
AcDbLine
 10
131.45958279
 20
18.23186019
 30
0.0
 11
131.45958279
 21
21.67390677
 31
0.0
  0
LINE
  5
136
100
AcDbEntity
  8
LAYER0003
  6
CONTINUOUS
 62
       7
100
AcDbLine
 10
123.04975676
 20
18.23186019
 30
0.0
 11
131.45958279
 21
18.23186019
 31
0.0
  0
LINE
  5
137
100
AcDbEntity
  8
LAYER0003
  6
CONTINUOUS
 62
       7
100
AcDbLine
 10
133.42014529
 20
21.67390677
 30
0.0
 11
133.42014529
 21
18.23186019
 31
0.0
  0
LINE
  5
138
100
AcDbEntity
  8
LAYER0003
  6
CONTINUOUS
 62
       7
100
AcDbLine
 10
141.83082226
 20
21.67390677
 30
0.0
 11
133.42014529
 21
21.67390677
 31
0.0
  0
LINE
  5
139
100
AcDbEntity
  8
LAYER0003
  6
CONTINUOUS
 62
       7
100
AcDbLine
 10
141.83082226
 20
18.23186019
 30
0.0
 11
141.83082226
 21
21.67390677
 31
0.0
  0
LINE
  5
13A
100
AcDbEntity
  8
LAYER0003
  6
CONTINUOUS
 62
       7
100
AcDbLine
 10
133.42014529
 20
18.23186019
 30
0.0
 11
141.83082226
 21
18.23186019
 31
0.0
  0
LINE
  5
13B
100
AcDbEntity
  8
LAYER0003
  6
CONTINUOUS
 62
       7
100
AcDbLine
 10
133.42014529
 20
27.38115186
 30
0.0
 11
131.45873185
 21
27.38115186
 31
0.0
  0
LINE
  5
13C
100
AcDbEntity
  8
LAYER0003
  6
CONTINUOUS
 62
       7
100
AcDbLine
 10
133.42014529
 20
29.10217515
 30
0.0
 11
133.42014529
 21
27.38115186
 31
0.0
  0
LINE
  5
13D
100
AcDbEntity
  8
LAYER0003
  6
CONTINUOUS
 62
       7
100
AcDbLine
 10
134.42255094
 20
29.10217515
 30
0.0
 11
133.42014529
 21
29.10217515
 31
0.0
  0
LINE
  5
13E
100
AcDbEntity
  8
LAYER0003
  6
CONTINUOUS
 62
       7
100
AcDbLine
 10
134.42255094
 20
32.81296816
 30
0.0
 11
134.42255094
 21
29.10217515
 31
0.0
  0
LINE
  5
13F
100
AcDbEntity
  8
LAYER0003
  6
CONTINUOUS
 62
       7
100
AcDbLine
 10
130.45717714
 20
29.10217515
 30
0.0
 11
130.45717714
 21
32.81296816
 31
0.0
  0
LINE
  5
140
100
AcDbEntity
  8
LAYER0003
  6
CONTINUOUS
 62
       7
100
AcDbLine
 10
131.45873185
 20
29.10217515
 30
0.0
 11
130.45717714
 21
29.10217515
 31
0.0
  0
LINE
  5
141
100
AcDbEntity
  8
LAYER0003
  6
CONTINUOUS
 62
       7
100
AcDbLine
 10
131.45873185
 20
27.38115186
 30
0.0
 11
131.45873185
 21
29.10217515
 31
0.0
  0
LINE
  5
142
100
AcDbEntity
  8
LAYER0003
  6
CONTINUOUS
 62
       7
100
AcDbLine
 10
122.06777363
 20
29.10217515
 30
0.0
 11
122.06777363
 21
32.81296816
 31
0.0
  0
LINE
  5
143
100
AcDbEntity
  8
LAYER0003
  6
CONTINUOUS
 62
       7
100
AcDbLine
 10
123.04975676
 20
29.10217515
 30
0.0
 11
122.06777363
 21
29.10217515
 31
0.0
  0
LINE
  5
144
100
AcDbEntity
  8
LAYER0003
  6
CONTINUOUS
 62
       7
100
AcDbLine
 10
123.04975676
 20
23.6561682
 30
0.0
 11
123.04975676
 21
29.10217515
 31
0.0
  0
LINE
  5
145
100
AcDbEntity
  8
LAYER0003
  6
CONTINUOUS
 62
       7
100
AcDbLine
 10
131.45873185
 20
23.6561682
 30
0.0
 11
123.04975676
 21
23.6561682
 31
0.0
  0
LINE
  5
146
100
AcDbEntity
  8
LAYER0003
  6
CONTINUOUS
 62
       7
100
AcDbLine
 10
131.45873185
 20
25.39889042
 30
0.0
 11
131.45873185
 21
23.6561682
 31
0.0
  0
LINE
  5
147
100
AcDbEntity
  8
LAYER0003
  6
CONTINUOUS
 62
       7
100
AcDbLine
 10
133.42014529
 20
25.39889042
 30
0.0
 11
131.45873185
 21
25.39889042
 31
0.0
  0
LINE
  5
148
100
AcDbEntity
  8
LAYER0003
  6
CONTINUOUS
 62
       7
100
AcDbLine
 10
133.42014529
 20
23.6561682
 30
0.0
 11
133.42014529
 21
25.39889042
 31
0.0
  0
LINE
  5
149
100
AcDbEntity
  8
LAYER0003
  6
CONTINUOUS
 62
       7
100
AcDbLine
 10
141.83082226
 20
23.6561682
 30
0.0
 11
133.42014529
 21
23.6561682
 31
0.0
  0
LINE
  5
14A
100
AcDbEntity
  8
LAYER0003
  6
CONTINUOUS
 62
       7
100
AcDbLine
 10
141.83082226
 20
29.10217515
 30
0.0
 11
141.83082226
 21
23.6561682
 31
0.0
  0
LINE
  5
14B
100
AcDbEntity
  8
LAYER0003
  6
CONTINUOUS
 62
       7
100
AcDbLine
 10
142.81110351
 20
29.10217515
 30
0.0
 11
141.83082226
 21
29.10217515
 31
0.0
  0
LINE
  5
14C
100
AcDbEntity
  8
LAYER0003
  6
CONTINUOUS
 62
       7
100
AcDbLine
 10
142.81110351
 20
32.81296816
 30
0.0
 11
142.81110351
 21
29.10217515
 31
0.0
  0
LINE
  5
14D
100
AcDbEntity
  8
LAYER0003
  6
CONTINUOUS
 62
       7
100
AcDbLine
 10
134.42255094
 20
46.40604683
 30
0.0
 11
133.42014529
 21
46.40604683
 31
0.0
  0
LINE
  5
14E
100
AcDbEntity
  8
LAYER0003
  6
CONTINUOUS
 62
       7
100
AcDbLine
 10
134.42255094
 20
34.31296816
 30
0.0
 11
134.42255094
 21
46.40604683
 31
0.0
  0
LINE
  5
14F
100
AcDbEntity
  8
LAYER0003
  6
CONTINUOUS
 62
       7
100
AcDbLine
 10
142.33202509
 20
34.31296816
 30
0.0
 11
142.33202509
 21
44.31296816
 31
0.0
  0
LINE
  5
150
100
AcDbEntity
  8
LAYER0003
  6
CONTINUOUS
 62
       7
100
AcDbLine
 10
130.45717714
 20
46.40604683
 30
0.0
 11
131.45873185
 21
46.40604683
 31
0.0
  0
LINE
  5
151
100
AcDbEntity
  8
LAYER0003
  6
CONTINUOUS
 62
       7
100
AcDbLine
 10
130.45717714
 20
34.31296816
 30
0.0
 11
130.45717714
 21
46.40604683
 31
0.0
  0
LINE
  5
152
100
AcDbEntity
  8
LAYER0003
  6
CONTINUOUS
 62
       7
100
AcDbLine
 10
122.54770299
 20
34.31296816
 30
0.0
 11
122.54770299
 21
44.31296816
 31
0.0
  0
LINE
  5
153
100
AcDbEntity
  8
LAYER0003
  6
CONTINUOUS
 62
       7
100
AcDbLine
 10
131.45873185
 20
44.31296816
 30
0.0
 11
131.45873185
 21
54.33551803
 31
0.0
  0
LINE
  5
154
100
AcDbEntity
  8
LAYER0003
  6
CONTINUOUS
 62
       7
100
AcDbLine
 10
123.55010864
 20
44.31296816
 30
0.0
 11
123.55010864
 21
54.33551803
 31
0.0
  0
LINE
  5
155
100
AcDbEntity
  8
LAYER0003
  6
CONTINUOUS
 62
       7
100
AcDbLine
 10
133.42014529
 20
44.31296816
 30
0.0
 11
133.42014529
 21
54.33551803
 31
0.0
  0
LINE
  5
156
100
AcDbEntity
  8
LAYER0003
  6
CONTINUOUS
 62
       7
100
AcDbLine
 10
141.32961944
 20
44.31296816
 30
0.0
 11
141.32961944
 21
54.33551803
 31
0.0
  0
LINE
  5
157
100
AcDbEntity
  8
LAYER0003
  6
CONTINUOUS
 62
       7
100
AcDbLine
 10
143.8032979
 20
19.71334427
 30
0.0
 11
145.08285115
 21
18.40546758
 31
0.0
  0
LINE
  5
158
100
AcDbEntity
  8
LAYER0003
  6
CONTINUOUS
 62
       7
100
AcDbLine
 10
143.8032979
 20
33.04585002
 30
0.0
 11
143.8032979
 21
19.71334427
 31
0.0
  0
LINE
  5
159
100
AcDbEntity
  8
LAYER0003
  6
CONTINUOUS
 62
       7
100
AcDbLine
 10
145.08285115
 20
34.31296816
 30
0.0
 11
143.8032979
 21
33.07524296
 31
0.0
  0
LINE
  5
15A
100
AcDbEntity
  8
LAYER0003
  6
CONTINUOUS
 62
       7
100
AcDbLine
 10
143.8032979
 20
45.40406664
 30
0.0
 11
145.08285115
 21
44.31296816
 31
0.0
  0
LINE
  5
15B
100
AcDbEntity
  8
LAYER0003
  6
CONTINUOUS
 62
       7
100
AcDbLine
 10
143.8032979
 20
54.31296816
 30
0.0
 11
143.8032979
 21
45.40406664
 31
0.0
  0
LINE
  5
15C
100
AcDbEntity
  8
LAYER0003
  6
CONTINUOUS
 62
       7
100
AcDbLine
 10
141.32961944
 20
-28.68703184
 30
0.0
 11
141.32961944
 21
-38.70958171
 31
0.0
  0
LINE
  5
15D
100
AcDbEntity
  8
LAYER0003
  6
CONTINUOUS
 62
       7
100
AcDbLine
 10
133.42014529
 20
-28.68703184
 30
0.0
 11
133.42014529
 21
-38.70958171
 31
0.0
  0
LINE
  5
15E
100
AcDbEntity
  8
LAYER0003
  6
CONTINUOUS
 62
       7
100
AcDbLine
 10
123.55010864
 20
-28.68703184
 30
0.0
 11
123.55010864
 21
-38.70958171
 31
0.0
  0
LINE
  5
15F
100
AcDbEntity
  8
LAYER0003
  6
CONTINUOUS
 62
       7
100
AcDbLine
 10
131.45873185
 20
-28.68703184
 30
0.0
 11
131.45873185
 21
-38.70958171
 31
0.0
  0
LINE
  5
160
100
AcDbEntity
  8
LAYER0003
  6
CONTINUOUS
 62
       7
100
AcDbLine
 10
122.54770299
 20
-18.68703184
 30
0.0
 11
122.54770299
 21
-28.68703184
 31
0.0
  0
LINE
  5
161
100
AcDbEntity
  8
LAYER0003
  6
CONTINUOUS
 62
       7
100
AcDbLine
 10
130.45717714
 20
-18.68703184
 30
0.0
 11
130.45717714
 21
-30.78011051
 31
0.0
  0
LINE
  5
162
100
AcDbEntity
  8
LAYER0003
  6
CONTINUOUS
 62
       7
100
AcDbLine
 10
130.45717714
 20
-30.78011051
 30
0.0
 11
131.45873185
 21
-30.78011051
 31
0.0
  0
LINE
  5
163
100
AcDbEntity
  8
LAYER0003
  6
CONTINUOUS
 62
       7
100
AcDbLine
 10
142.33202509
 20
-18.68703184
 30
0.0
 11
142.33202509
 21
-28.68703184
 31
0.0
  0
LINE
  5
164
100
AcDbEntity
  8
LAYER0003
  6
CONTINUOUS
 62
       7
100
AcDbLine
 10
134.42255094
 20
-18.68703184
 30
0.0
 11
134.42255094
 21
-30.78011051
 31
0.0
  0
LINE
  5
165
100
AcDbEntity
  8
LAYER0003
  6
CONTINUOUS
 62
       7
100
AcDbLine
 10
134.42255094
 20
-30.78011051
 30
0.0
 11
133.42014529
 21
-30.78011051
 31
0.0
  0
LINE
  5
166
100
AcDbEntity
  8
LAYER0003
  6
CONTINUOUS
 62
       7
100
AcDbLine
 10
121.05941141
 20
45.40406664
 30
0.0
 11
121.05941141
 21
54.31296816
 31
0.0
  0
LINE
  5
167
100
AcDbEntity
  8
LAYER0003
  6
CONTINUOUS
 62
       7
100
AcDbLine
 10
119.68285115
 20
44.31296816
 30
0.0
 11
121.05941141
 21
45.40406664
 31
0.0
  0
LINE
  5
168
100
AcDbEntity
  8
LAYER0003
  6
CONTINUOUS
 62
       7
100
AcDbLine
 10
121.05941141
 20
33.07524296
 30
0.0
 11
119.68285115
 21
34.31296816
 31
0.0
  0
LINE
  5
169
100
AcDbEntity
  8
LAYER0003
  6
CONTINUOUS
 62
       7
100
AcDbLine
 10
121.05941141
 20
19.71334427
 30
0.0
 11
121.05941141
 21
33.04585002
 31
0.0
  0
LINE
  5
16A
100
AcDbEntity
  8
LAYER0003
  6
CONTINUOUS
 62
       7
100
AcDbLine
 10
119.68285115
 20
18.30631328
 30
0.0
 11
121.05941141
 21
19.71334427
 31
0.0
  0
LINE
  5
16B
100
AcDbEntity
  8
LAYER0003
  6
CONTINUOUS
 62
       7
100
AcDbLine
 10
121.05941141
 20
54.31296816
 30
0.0
 11
143.8032979
 21
54.31296816
 31
0.0
  0
LINE
  5
16C
100
AcDbEntity
  8
LAYER0003
  6
CONTINUOUS
 62
       7
100
AcDbLine
 10
119.68285115
 20
44.31296816
 30
0.0
 11
119.68285115
 21
34.31296816
 31
0.0
  0
LINE
  5
16D
100
AcDbEntity
  8
LAYER0003
  6
CONTINUOUS
 62
       7
100
AcDbLine
 10
145.08285115
 20
44.31296816
 30
0.0
 11
145.08285115
 21
34.31296816
 31
0.0
  0
LINE
  5
16E
100
AcDbEntity
  8
LAYER0003
  6
CONTINUOUS
 62
       7
100
AcDbLine
 10
119.68285115
 20
18.30631328
 30
0.0
 11
119.68285115
 21
10.06296816
 31
0.0
  0
LINE
  5
16F
100
AcDbEntity
  8
LAYER0003
  6
CONTINUOUS
 62
       7
100
AcDbLine
 10
145.08285115
 20
18.40546758
 30
0.0
 11
145.08285115
 21
10.06296816
 31
0.0
  0
LINE
  5
170
100
AcDbEntity
  8
LAYER0003
  6
CONTINUOUS
 62
       7
100
AcDbLine
 10
124.88285115
 20
12.81296816
 30
0.0
 11
119.68285115
 21
12.81296816
 31
0.0
  0
LINE
  5
171
100
AcDbEntity
  8
LAYER0003
  6
CONTINUOUS
 62
       7
100
AcDbLine
 10
139.88285115
 20
10.06296816
 30
0.0
 11
145.08285115
 21
10.06296816
 31
0.0
  0
LINE
  5
172
100
AcDbEntity
  8
LAYER0003
  6
CONTINUOUS
 62
       7
100
AcDbLine
 10
139.88285115
 20
12.81296816
 30
0.0
 11
145.08285115
 21
12.81296816
 31
0.0
  0
LINE
  5
173
100
AcDbEntity
  8
LAYER0003
  6
CONTINUOUS
 62
       7
100
AcDbLine
 10
124.88285115
 20
10.06296816
 30
0.0
 11
119.68285115
 21
10.06296816
 31
0.0
  0
LINE
  5
174
100
AcDbEntity
  8
LAYER0003
  6
CONTINUOUS
 62
       7
100
AcDbLine
 10
142.81110351
 20
-17.18703184
 30
0.0
 11
142.81110351
 21
-13.47623883
 31
0.0
  0
LINE
  5
175
100
AcDbEntity
  8
LAYER0003
  6
CONTINUOUS
 62
       7
100
AcDbLine
 10
142.81110351
 20
-13.47623883
 30
0.0
 11
141.83082226
 21
-13.47623883
 31
0.0
  0
LINE
  5
176
100
AcDbEntity
  8
LAYER0003
  6
CONTINUOUS
 62
       7
100
AcDbLine
 10
141.83082226
 20
-13.47623883
 30
0.0
 11
141.83082226
 21
-8.03023188
 31
0.0
  0
LINE
  5
177
100
AcDbEntity
  8
LAYER0003
  6
CONTINUOUS
 62
       7
100
AcDbLine
 10
141.83082226
 20
-8.03023188
 30
0.0
 11
133.42014529
 21
-8.03023188
 31
0.0
  0
LINE
  5
178
100
AcDbEntity
  8
LAYER0003
  6
CONTINUOUS
 62
       7
100
AcDbLine
 10
133.42014529
 20
-8.03023188
 30
0.0
 11
133.42014529
 21
-9.7729541
 31
0.0
  0
LINE
  5
179
100
AcDbEntity
  8
LAYER0003
  6
CONTINUOUS
 62
       7
100
AcDbLine
 10
133.42014529
 20
-9.7729541
 30
0.0
 11
131.45873185
 21
-9.7729541
 31
0.0
  0
LINE
  5
17A
100
AcDbEntity
  8
LAYER0003
  6
CONTINUOUS
 62
       7
100
AcDbLine
 10
131.45873185
 20
-9.7729541
 30
0.0
 11
131.45873185
 21
-8.03023188
 31
0.0
  0
LINE
  5
17B
100
AcDbEntity
  8
LAYER0003
  6
CONTINUOUS
 62
       7
100
AcDbLine
 10
131.45873185
 20
-8.03023188
 30
0.0
 11
123.04975676
 21
-8.03023188
 31
0.0
  0
LINE
  5
17C
100
AcDbEntity
  8
LAYER0003
  6
CONTINUOUS
 62
       7
100
AcDbLine
 10
123.04975676
 20
-8.03023188
 30
0.0
 11
123.04975676
 21
-13.47623883
 31
0.0
  0
LINE
  5
17D
100
AcDbEntity
  8
LAYER0003
  6
CONTINUOUS
 62
       7
100
AcDbLine
 10
123.04975676
 20
-13.47623883
 30
0.0
 11
122.06777363
 21
-13.47623883
 31
0.0
  0
LINE
  5
17E
100
AcDbEntity
  8
LAYER0003
  6
CONTINUOUS
 62
       7
100
AcDbLine
 10
122.06777363
 20
-13.47623883
 30
0.0
 11
122.06777363
 21
-17.18703184
 31
0.0
  0
LINE
  5
17F
100
AcDbEntity
  8
LAYER0003
  6
CONTINUOUS
 62
       7
100
AcDbLine
 10
131.45873185
 20
-11.75521554
 30
0.0
 11
131.45873185
 21
-13.47623883
 31
0.0
  0
LINE
  5
180
100
AcDbEntity
  8
LAYER0003
  6
CONTINUOUS
 62
       7
100
AcDbLine
 10
131.45873185
 20
-13.47623883
 30
0.0
 11
130.45717714
 21
-13.47623883
 31
0.0
  0
LINE
  5
181
100
AcDbEntity
  8
LAYER0003
  6
CONTINUOUS
 62
       7
100
AcDbLine
 10
130.45717714
 20
-13.47623883
 30
0.0
 11
130.45717714
 21
-17.18703184
 31
0.0
  0
LINE
  5
182
100
AcDbEntity
  8
LAYER0003
  6
CONTINUOUS
 62
       7
100
AcDbLine
 10
134.42255094
 20
-17.18703184
 30
0.0
 11
134.42255094
 21
-13.47623883
 31
0.0
  0
LINE
  5
183
100
AcDbEntity
  8
LAYER0003
  6
CONTINUOUS
 62
       7
100
AcDbLine
 10
134.42255094
 20
-13.47623883
 30
0.0
 11
133.42014529
 21
-13.47623883
 31
0.0
  0
LINE
  5
184
100
AcDbEntity
  8
LAYER0003
  6
CONTINUOUS
 62
       7
100
AcDbLine
 10
133.42014529
 20
-13.47623883
 30
0.0
 11
133.42014529
 21
-11.75521554
 31
0.0
  0
LINE
  5
185
100
AcDbEntity
  8
LAYER0003
  6
CONTINUOUS
 62
       7
100
AcDbLine
 10
133.42014529
 20
-11.75521554
 30
0.0
 11
131.45873185
 21
-11.75521554
 31
0.0
  0
LINE
  5
186
100
AcDbEntity
  8
LAYER0003
  6
CONTINUOUS
 62
       7
100
AcDbLine
 10
133.42014529
 20
-2.60592387
 30
0.0
 11
141.83082226
 21
-2.60592387
 31
0.0
  0
LINE
  5
187
100
AcDbEntity
  8
LAYER0003
  6
CONTINUOUS
 62
       7
100
AcDbLine
 10
141.83082226
 20
-2.60592387
 30
0.0
 11
141.83082226
 21
-6.04797045
 31
0.0
  0
LINE
  5
188
100
AcDbEntity
  8
LAYER0003
  6
CONTINUOUS
 62
       7
100
AcDbLine
 10
141.83082226
 20
-6.04797045
 30
0.0
 11
133.42014529
 21
-6.04797045
 31
0.0
  0
LINE
  5
189
100
AcDbEntity
  8
LAYER0003
  6
CONTINUOUS
 62
       7
100
AcDbLine
 10
133.42014529
 20
-6.04797045
 30
0.0
 11
133.42014529
 21
-2.60592387
 31
0.0
  0
LINE
  5
18A
100
AcDbEntity
  8
LAYER0003
  6
CONTINUOUS
 62
       7
100
AcDbLine
 10
123.04975676
 20
-2.60592387
 30
0.0
 11
131.45958279
 21
-2.60592387
 31
0.0
  0
LINE
  5
18B
100
AcDbEntity
  8
LAYER0003
  6
CONTINUOUS
 62
       7
100
AcDbLine
 10
131.45958279
 20
-2.60592387
 30
0.0
 11
131.45958279
 21
-6.04797045
 31
0.0
  0
LINE
  5
18C
100
AcDbEntity
  8
LAYER0003
  6
CONTINUOUS
 62
       7
100
AcDbLine
 10
131.45958279
 20
-6.04797045
 30
0.0
 11
123.04975676
 21
-6.04797045
 31
0.0
  0
LINE
  5
18D
100
AcDbEntity
  8
LAYER0003
  6
CONTINUOUS
 62
       7
100
AcDbLine
 10
123.04975676
 20
-6.04797045
 30
0.0
 11
123.04975676
 21
-2.60592387
 31
0.0
  0
LINE
  5
18E
100
AcDbEntity
  8
LAYER0003
  6
CONTINUOUS
 62
       7
100
AcDbLine
 10
134.42255094
 20
-9.7729541
 30
0.0
 11
140.84969007
 21
-9.7729541
 31
0.0
  0
LINE
  5
18F
100
AcDbEntity
  8
LAYER0003
  6
CONTINUOUS
 62
       7
100
AcDbLine
 10
140.84969007
 20
-9.7729541
 30
0.0
 11
140.84969007
 21
-11.75521554
 31
0.0
  0
LINE
  5
190
100
AcDbEntity
  8
LAYER0003
  6
CONTINUOUS
 62
       7
100
AcDbLine
 10
140.84969007
 20
-11.75521554
 30
0.0
 11
134.42255094
 21
-11.75521554
 31
0.0
  0
LINE
  5
191
100
AcDbEntity
  8
LAYER0003
  6
CONTINUOUS
 62
       7
100
AcDbLine
 10
134.42255094
 20
-11.75521554
 30
0.0
 11
134.42255094
 21
-9.7729541
 31
0.0
  0
LINE
  5
192
100
AcDbEntity
  8
LAYER0003
  6
CONTINUOUS
 62
       7
100
AcDbLine
 10
135.40283219
 20
-14.45652007
 30
0.0
 11
141.82997132
 21
-14.45652007
 31
0.0
  0
LINE
  5
193
100
AcDbEntity
  8
LAYER0003
  6
CONTINUOUS
 62
       7
100
AcDbLine
 10
141.82997132
 20
-14.45652007
 30
0.0
 11
141.82997132
 21
-16.43878151
 31
0.0
  0
LINE
  5
194
100
AcDbEntity
  8
LAYER0003
  6
CONTINUOUS
 62
       7
100
AcDbLine
 10
141.82997132
 20
-16.43878151
 30
0.0
 11
135.40283219
 21
-16.43878151
 31
0.0
  0
LINE
  5
195
100
AcDbEntity
  8
LAYER0003
  6
CONTINUOUS
 62
       7
100
AcDbLine
 10
135.40283219
 20
-16.43878151
 30
0.0
 11
135.40283219
 21
-14.45652007
 31
0.0
  0
LINE
  5
196
100
AcDbEntity
  8
LAYER0003
  6
CONTINUOUS
 62
       7
100
AcDbLine
 10
124.03003801
 20
-9.7729541
 30
0.0
 11
130.45717714
 21
-9.7729541
 31
0.0
  0
LINE
  5
197
100
AcDbEntity
  8
LAYER0003
  6
CONTINUOUS
 62
       7
100
AcDbLine
 10
130.45717714
 20
-9.7729541
 30
0.0
 11
130.45717714
 21
-11.75521554
 31
0.0
  0
LINE
  5
198
100
AcDbEntity
  8
LAYER0003
  6
CONTINUOUS
 62
       7
100
AcDbLine
 10
130.45717714
 20
-11.75521554
 30
0.0
 11
124.03003801
 21
-11.75521554
 31
0.0
  0
LINE
  5
199
100
AcDbEntity
  8
LAYER0003
  6
CONTINUOUS
 62
       7
100
AcDbLine
 10
124.03003801
 20
-11.75521554
 30
0.0
 11
124.03003801
 21
-9.7729541
 31
0.0
  0
LINE
  5
19A
100
AcDbEntity
  8
LAYER0003
  6
CONTINUOUS
 62
       7
100
AcDbLine
 10
123.04975676
 20
-14.45652007
 30
0.0
 11
129.47689589
 21
-14.45652007
 31
0.0
  0
LINE
  5
19B
100
AcDbEntity
  8
LAYER0003
  6
CONTINUOUS
 62
       7
100
AcDbLine
 10
129.47689589
 20
-14.45652007
 30
0.0
 11
129.47689589
 21
-16.43878151
 31
0.0
  0
LINE
  5
19C
100
AcDbEntity
  8
LAYER0003
  6
CONTINUOUS
 62
       7
100
AcDbLine
 10
129.47689589
 20
-16.43878151
 30
0.0
 11
123.04975676
 21
-16.43878151
 31
0.0
  0
LINE
  5
19D
100
AcDbEntity
  8
LAYER0003
  6
CONTINUOUS
 62
       7
100
AcDbLine
 10
123.04975676
 20
-16.43878151
 30
0.0
 11
123.04975676
 21
-14.45652007
 31
0.0
  0
LINE
  5
19E
100
AcDbEntity
  8
LAYER0003
  6
CONTINUOUS
 62
       7
100
AcDbLine
 10
129.47604495
 20
-39.68220451
 30
0.0
 11
135.40453407
 21
-39.68220451
 31
0.0
  0
LINE
  5
19F
100
AcDbEntity
  8
LAYER0003
  6
CONTINUOUS
 62
       7
100
AcDbLine
 10
135.40453407
 20
-39.68220451
 30
0.0
 11
135.40453407
 21
-38.68703184
 31
0.0
  0
LINE
  5
1A0
100
AcDbEntity
  8
LAYER0003
  6
CONTINUOUS
 62
       7
100
AcDbLine
 10
129.47604495
 20
-38.69383935
 30
0.0
 11
129.47604495
 21
-39.68220451
 31
0.0
  0
LINE
  5
1A1
100
AcDbEntity
  8
LAYER0003
  6
CONTINUOUS
 62
       7
100
AcDbLine
 10
143.81265823
 20
-4.08740795
 30
0.0
 11
142.81110351
 21
-4.08740795
 31
0.0
  0
LINE
  5
1A2
100
AcDbEntity
  8
LAYER0003
  6
CONTINUOUS
 62
       7
100
AcDbLine
 10
142.81110351
 20
-4.08740795
 30
0.0
 11
142.81110351
 21
-13.47623883
 31
0.0
  0
LINE
  5
1A3
100
AcDbEntity
  8
LAYER0003
  6
CONTINUOUS
 62
       7
100
AcDbLine
 10
142.81110351
 20
-13.47623883
 30
0.0
 11
143.81265823
 21
-13.47623883
 31
0.0
  0
LINE
  5
1A4
100
AcDbEntity
  8
LAYER0003
  6
CONTINUOUS
 62
       7
100
AcDbLine
 10
121.06621891
 20
-4.08740795
 30
0.0
 11
122.06777363
 21
-4.08740795
 31
0.0
  0
LINE
  5
1A5
100
AcDbEntity
  8
LAYER0003
  6
CONTINUOUS
 62
       7
100
AcDbLine
 10
122.06777363
 20
-4.08740795
 30
0.0
 11
122.06777363
 21
-13.47623883
 31
0.0
  0
LINE
  5
1A6
100
AcDbEntity
  8
LAYER0003
  6
CONTINUOUS
 62
       7
100
AcDbLine
 10
122.06777363
 20
-13.47623883
 30
0.0
 11
121.06621891
 21
-13.47623883
 31
0.0
  0
LINE
  5
1A7
100
AcDbEntity
  8
LAYER0003
  6
CONTINUOUS
 62
       7
100
AcDbLine
 10
123.55010864
 20
-37.20214401
 30
0.0
 11
131.4553281
 21
-37.20214401
 31
0.0
  0
LINE
  5
1A8
100
AcDbEntity
  8
LAYER0003
  6
CONTINUOUS
 62
       7
100
AcDbLine
 10
133.42014529
 20
-37.20214401
 30
0.0
 11
141.32536474
 21
-37.20214401
 31
0.0
  0
LINE
  5
1A9
100
AcDbEntity
  8
LAYER0003
  6
CONTINUOUS
 62
       7
100
AcDbLine
 10
38.50466406
 20
25.46296816
 30
0.0
 11
42.00466406
 21
25.46296816
 31
0.0
  0
LINE
  5
1AA
100
AcDbEntity
  8
LAYER0003
  6
CONTINUOUS
 62
       7
100
AcDbLine
 10
38.50466406
 20
-9.83703184
 30
0.0
 11
42.00466406
 21
-9.83703184
 31
0.0
  0
ARC
  5
1AB
100
AcDbEntity
  8
LAYER0003
  6
CONTINUOUS
 62
       7
100
AcDbCircle
 10
-119.19101845
 20
54.31296816
 30
0.0
 40
1.0
100
AcDbArc
 50
0.0
 51
90.0
  0
ARC
  5
1AC
100
AcDbEntity
  8
LAYER0003
  6
CONTINUOUS
 62
       7
100
AcDbCircle
 10
-141.69101845
 20
54.31296816
 30
0.0
 40
1.0
100
AcDbArc
 50
90.0
 51
180.0
  0
ARC
  5
1AD
100
AcDbEntity
  8
LAYER0003
  6
CONTINUOUS
 62
       7
100
AcDbCircle
 10
139.88285115
 20
7.81296816
 30
0.0
 40
2.25
100
AcDbArc
 50
90.0
 51
270.0
  0
ARC
  5
1AE
100
AcDbEntity
  8
LAYER0003
  6
CONTINUOUS
 62
       7
100
AcDbCircle
 10
124.88285115
 20
7.81296816
 30
0.0
 40
2.25
100
AcDbArc
 50
270.0
 51
450.0
  0
ARC
  5
1AF
100
AcDbEntity
  8
LAYER0003
  6
CONTINUOUS
 62
       7
100
AcDbCircle
 10
139.88285115
 20
7.81296816
 30
0.0
 40
5.0
100
AcDbArc
 50
90.0
 51
270.0
  0
ARC
  5
1B0
100
AcDbEntity
  8
LAYER0003
  6
CONTINUOUS
 62
       7
100
AcDbCircle
 10
124.88285115
 20
7.81296816
 30
0.0
 40
5.0
100
AcDbArc
 50
270.0
 51
450.0
  0
ARC
  5
1B1
100
AcDbEntity
  8
LAYER0003
  6
CONTINUOUS
 62
       7
100
AcDbCircle
 10
138.55849379
 20
-41.08703184
 30
0.0
 40
0.3
100
AcDbArc
 50
270.0
 51
360.0
  0
ARC
  5
1B2
100
AcDbEntity
  8
LAYER0003
  6
CONTINUOUS
 62
       7
100
AcDbCircle
 10
126.31187397
 20
-41.08703184
 30
0.0
 40
0.3
100
AcDbArc
 50
180.0
 51
270.0
  0
ARC
  5
1B3
100
AcDbEntity
  8
LAYER0003
  6
CONTINUOUS
 62
       7
100
AcDbCircle
 10
12.20991686
 20
-27.52505827
 30
0.0
 40
1.2
100
AcDbArc
 50
180.0
 51
270.0
  0
ARC
  5
1B4
100
AcDbEntity
  8
LAYER0003
  6
CONTINUOUS
 62
       7
100
AcDbCircle
 10
-123.44101845
 20
56.81296816
 30
0.0
 40
1.0
100
AcDbArc
 50
0.0
 51
90.0
  0
ARC
  5
1B5
100
AcDbEntity
  8
LAYER0003
  6
CONTINUOUS
 62
       7
100
AcDbCircle
 10
-137.44101845
 20
56.81296816
 30
0.0
 40
1.0
100
AcDbArc
 50
90.0
 51
180.0
  0
ARC
  5
1B6
100
AcDbEntity
  8
LAYER0003
  6
CONTINUOUS
 62
       7
100
AcDbCircle
 10
-137.44101845
 20
-41.18703184
 30
0.0
 40
1.0
100
AcDbArc
 50
180.0
 51
270.0
  0
ARC
  5
1B7
100
AcDbEntity
  8
LAYER0003
  6
CONTINUOUS
 62
       7
100
AcDbCircle
 10
-123.44101845
 20
-41.18703184
 30
0.0
 40
1.0
100
AcDbArc
 50
270.0
 51
360.0
  0
ARC
  5
1B8
100
AcDbEntity
  8
LAYER0003
  6
CONTINUOUS
 62
       7
100
AcDbCircle
 10
-141.69101845
 20
-38.68703184
 30
0.0
 40
1.0
100
AcDbArc
 50
180.0
 51
270.0
  0
ARC
  5
1B9
100
AcDbEntity
  8
LAYER0003
  6
CONTINUOUS
 62
       7
100
AcDbCircle
 10
-119.19101845
 20
-38.68703184
 30
0.0
 40
1.0
100
AcDbArc
 50
270.0
 51
360.0
  0
ARC
  5
1BA
100
AcDbEntity
  8
LAYER0003
  6
CONTINUOUS
 62
       7
100
AcDbCircle
 10
12.20991686
 20
43.15099459
 30
0.0
 40
1.2
100
AcDbArc
 50
90.0
 51
180.0
  0
LINE
  5
1BB
100
AcDbEntity
  8
LAYER0003
  6
CONTINUOUS
 62
       7
100
AcDbLine
 10
20.50466406
 20
-28.72505827
 30
0.0
 11
20.50466406
 21
-36.68703184
 31
0.0
  0
LINE
  5
1BC
100
AcDbEntity
  8
LAYER0003
  6
CONTINUOUS
 62
       7
100
AcDbLine
 10
142.81110351
 20
32.81296816
 30
0.0
 11
143.8032979
 21
32.81296816
 31
0.0
  0
LINE
  5
1BD
100
AcDbEntity
  8
LAYER0003
  6
CONTINUOUS
 62
       7
100
AcDbLine
 10
130.45717714
 20
32.81296816
 30
0.0
 11
134.42255094
 21
32.81296816
 31
0.0
  0
LINE
  5
1BE
100
AcDbEntity
  8
LAYER0003
  6
CONTINUOUS
 62
       7
100
AcDbLine
 10
121.05941141
 20
32.81296816
 30
0.0
 11
122.06777363
 21
32.81296816
 31
0.0
  0
LINE
  5
1BF
100
AcDbEntity
  8
LAYER0003
  6
CONTINUOUS
 62
       7
100
AcDbLine
 10
119.68285115
 20
34.31296816
 30
0.0
 11
145.08285115
 21
34.31296816
 31
0.0
  0
LINE
  5
1C0
100
AcDbEntity
  8
LAYER0003
  6
CONTINUOUS
 62
       7
100
AcDbLine
 10
119.68285115
 20
44.31296816
 30
0.0
 11
145.08285115
 21
44.31296816
 31
0.0
  0
ARC
  5
1C1
100
AcDbEntity
  8
LAYER0003
  6
CONTINUOUS
 62
       7
100
AcDbCircle
 10
22.50466406
 20
-36.68703184
 30
0.0
 40
2.0
100
AcDbArc
 50
180.0
 51
270.0
  0
LINE
  5
1C2
100
AcDbEntity
  8
LAYER0003
  6
CONTINUOUS
 62
       7
100
AcDbLine
 10
119.68285115
 20
-28.68703184
 30
0.0
 11
145.08285115
 21
-28.68703184
 31
0.0
  0
LINE
  5
1C3
100
AcDbEntity
  8
LAYER0003
  6
CONTINUOUS
 62
       7
100
AcDbLine
 10
119.68285115
 20
-18.68703184
 30
0.0
 11
145.08285115
 21
-18.68703184
 31
0.0
  0
LINE
  5
1C4
100
AcDbEntity
  8
LAYER0003
  6
CONTINUOUS
 62
       7
100
AcDbLine
 10
121.05941141
 20
-17.18703184
 30
0.0
 11
122.06777363
 21
-17.18703184
 31
0.0
  0
LINE
  5
1C5
100
AcDbEntity
  8
LAYER0003
  6
CONTINUOUS
 62
       7
100
AcDbLine
 10
130.45717714
 20
-17.18703184
 30
0.0
 11
134.42255094
 21
-17.18703184
 31
0.0
  0
LINE
  5
1C6
100
AcDbEntity
  8
LAYER0003
  6
CONTINUOUS
 62
       7
100
AcDbLine
 10
142.81110351
 20
-17.18703184
 30
0.0
 11
143.8032979
 21
-17.18703184
 31
0.0
  0
LINE
  5
1C7
100
AcDbEntity
  8
LAYER0003
  6
CONTINUOUS
 62
       7
100
AcDbLine
 10
20.50466406
 20
44.35099459
 30
0.0
 11
20.50466406
 21
52.31296816
 31
0.0
  0
ARC
  5
1C8
100
AcDbEntity
  8
LAYER0003
  6
CONTINUOUS
 62
       7
100
AcDbCircle
 10
22.50466406
 20
52.31296816
 30
0.0
 40
2.0
100
AcDbArc
 50
90.0
 51
180.0
  0
LINE
  5
1C9
100
AcDbEntity
  8
LAYER0003
  6
CENTERX2
 62
       7
100
AcDbLine
 10
132.38285115
 20
-44.08790348
 30
0.0
 11
132.38285115
 21
60.42880665
 31
0.0
  0
LINE
  5
1CA
100
AcDbEntity
  8
LAYER0003
  6
CENTERX2
 62
       7
100
AcDbLine
 10
113.46700477
 20
7.81296816
 30
0.0
 11
149.62465034
 21
7.81296816
 31
0.0
  0
LINE
  5
1CB
100
AcDbEntity
  8
LAYER0003
  6
CENTERX2
 62
       7
100
AcDbLine
 10
-97.81177841
 20
7.81296816
 30
0.0
 11
48.44456727
 21
7.81296816
 31
0.0
  0
LINE
  5
1CC
100
AcDbEntity
  8
LAYER0003
  6
CENTERX2
 62
       7
100
AcDbLine
 10
-130.44101845
 20
-44.08790348
 30
0.0
 11
-130.44101845
 21
63.02432971
 31
0.0
  0
LINE
  5
1CD
100
AcDbEntity
  8
LAYER0003
  6
CENTERX2
 62
       7
100
AcDbLine
 10
-149.62465034
 20
7.81296816
 30
0.0
 11
-113.17334722
 21
7.81296816
 31
0.0
  0
LINE
  5
1CE
100
AcDbEntity
  8
LAYER0002
  6
CONTINUOUS
 62
       7
100
AcDbLine
 10
-118.19101845
 20
10.06296816
 30
0.0
 11
-117.74101845
 21
10.06296816
 31
0.0
  0
LINE
  5
1CF
100
AcDbEntity
  8
LAYER0002
  6
CONTINUOUS
 62
       7
100
AcDbLine
 10
-118.19101845
 20
5.56296816
 30
0.0
 11
-117.74101845
 21
5.56296816
 31
0.0
  0
LINE
  5
1D0
100
AcDbEntity
  8
LAYER0002
  6
CONTINUOUS
 62
       7
100
AcDbLine
 10
-118.19101845
 20
2.81296816
 30
0.0
 11
-117.74101845
 21
2.81296816
 31
0.0
  0
LINE
  5
1D1
100
AcDbEntity
  8
LAYER0002
  6
CONTINUOUS
 62
       7
100
AcDbLine
 10
-117.74101845
 20
-28.49857707
 30
0.0
 11
-117.74101845
 21
-19.38307591
 31
0.0
  0
LINE
  5
1D2
100
AcDbEntity
  8
LAYER0002
  6
CONTINUOUS
 62
       7
100
AcDbLine
 10
-117.74101845
 20
44.12451339
 30
0.0
 11
-117.74101845
 21
35.00901223
 31
0.0
  0
LINE
  5
1D3
100
AcDbEntity
  8
LAYER0002
  6
CONTINUOUS
 62
       7
100
AcDbLine
 10
-118.19101845
 20
12.81296816
 30
0.0
 11
-117.74101845
 21
12.81296816
 31
0.0
  0
LINE
  5
1D4
100
AcDbEntity
  8
LAYER0002
  6
CONTINUOUS
 62
       7
100
AcDbLine
 10
-117.74101845
 20
10.06296816
 30
0.0
 11
-117.74101845
 21
18.34766322
 31
0.0
  0
LINE
  5
1D5
100
AcDbEntity
  8
LAYER0002
  6
CONTINUOUS
 62
       7
100
AcDbLine
 10
-117.74101845
 20
-2.77953126
 30
0.0
 11
-117.74101845
 21
5.56296816
 31
0.0
  0
LINE
  5
1D6
100
AcDbEntity
  8
LAYER0002
  6
CONTINUOUS
 62
       7
100
AcDbLine
 10
-118.19101845
 20
-3.23949219
 30
0.0
 11
-117.74101845
 21
-2.77953126
 31
0.0
  0
LINE
  5
1D7
100
AcDbEntity
  8
LAYER0002
  6
CONTINUOUS
 62
       7
100
AcDbLine
 10
-118.19101845
 20
18.86542852
 30
0.0
 11
-117.74101845
 21
18.40546758
 31
0.0
  0
LINE
  5
1D8
100
AcDbEntity
  8
LAYER0002
  6
CONTINUOUS
 62
       7
100
AcDbLine
 10
-118.19101845
 20
-28.94857707
 30
0.0
 11
-117.74101845
 21
-28.49857707
 31
0.0
  0
LINE
  5
1D9
100
AcDbEntity
  8
LAYER0002
  6
CONTINUOUS
 62
       7
100
AcDbLine
 10
-117.74101845
 20
-19.38307591
 30
0.0
 11
-118.19101845
 21
-18.70299778
 31
0.0
  0
LINE
  5
1DA
100
AcDbEntity
  8
LAYER0002
  6
CONTINUOUS
 62
       7
100
AcDbLine
 10
-117.74101845
 20
35.00901223
 30
0.0
 11
-118.19101845
 21
34.32893411
 31
0.0
  0
LINE
  5
1DB
100
AcDbEntity
  8
LAYER0002
  6
CONTINUOUS
 62
       7
100
AcDbLine
 10
-118.19101845
 20
44.57451339
 30
0.0
 11
-117.74101845
 21
44.12451339
 31
0.0
  0
TEXT
  5
1DC
100
AcDbEntity
  8
LAYER0003
 62
       7
100
AcDbText
 10
137.02119659
 20
-65.67016304
 30
0.0
 40
5.29166667
  1
000
 72
       5
 11
152.8961966
 21
-65.67016304
 31
0.0
100
AcDbText
  0
ENDSEC
  0
SECTION
  2
OBJECTS
  0
DICTIONARY
  5
19
100
AcDbDictionary
  3
ACAD_GROUP
350
1A
  3
ACAD_MLINESTYLE
350
1B
  0
DICTIONARY
  5
1A
102
{ACAD_REACTORS
330
19
102
}
100
AcDbDictionary
  0
DICTIONARY
  5
1B
102
{ACAD_REACTORS
330
19
102
}
100
AcDbDictionary
  3
STANDARD
350
1C
  0
MLINESTYLE
  5
1C
102
{ACAD_REACTORS
330
1B
102
}
100
AcDbMlineStyle
  2
STANDARD
 70
       0
  3

 62
       0
 51
90.0
 52
90.0
 71
       2
 49
0.5
 62
     256
  6
BYLAYER
 49
-0.5
 62
     256
  6
BYLAYER
  0
ENDSEC
  0
EOF
