  0
SECTION
  2
HEADER
  9
$ACADVER
  1
AC1014
  9
$ACADMAINTVER
 70
       0
  9
$DWGCODEPAGE
  3
ANSI_932
  9
$INSBASE
 10
0.0
 20
0.0
 30
0.0
  9
$EXTMIN
 10
-127.36624807
 20
-100.58981226
 30
0.0
  9
$EXTMAX
 10
127.36624807
 20
55.18630739
 30
0.0
  9
$LIMMIN
 10
-135.32663857
 20
-105.45781599
  9
$LIMMAX
 10
135.32663857
 20
60.05431113
  9
$ORTHOMODE
 70
       0
  9
$REGENMODE
 70
       1
  9
$FILLMODE
 70
       1
  9
$QTEXTMODE
 70
       0
  9
$MIRRTEXT
 70
       1
  9
$DRAGMODE
 70
       2
  9
$LTSCALE
 40
1.0
  9
$OSMODE
 70
       0
  9
$ATTMODE
 70
       1
  9
$TEXTSIZE
 40
0.2
  9
$TRACEWID
 40
0.05
  9
$TEXTSTYLE
  7
STANDARD
  9
$CLAYER
  8
0
  9
$CELTYPE
  6
CONTINUOUS
  9
$CECOLOR
 62
     256
  9
$CELTSCALE
 40
1.0
  9
$DELOBJ
 70
       1
  9
$DISPSILH
 70
       0
  9
$DIMSCALE
 40
1.0
  9
$DIMASZ
 40
0.18
  9
$DIMEXO
 40
0.0625
  9
$DIMDLI
 40
0.38
  9
$DIMRND
 40
0.0
  9
$DIMDLE
 40
0.0
  9
$DIMEXE
 40
0.18
  9
$DIMTP
 40
0.0
  9
$DIMTM
 40
0.0
  9
$DIMTXT
 40
0.18
  9
$DIMCEN
 40
0.09
  9
$DIMTSZ
 40
0.0
  9
$DIMTOL
 70
       0
  9
$DIMLIM
 70
       0
  9
$DIMTIH
 70
       1
  9
$DIMTOH
 70
       1
  9
$DIMSE1
 70
       0
  9
$DIMSE2
 70
       0
  9
$DIMTAD
 70
       0
  9
$DIMZIN
 70
       0
  9
$DIMBLK
  1

  9
$DIMASO
 70
       1
  9
$DIMSHO
 70
       1
  9
$DIMPOST
  1

  9
$DIMAPOST
  1

  9
$DIMALT
 70
       0
  9
$DIMALTD
 70
       2
  9
$DIMALTF
 40
25.4
  9
$DIMLFAC
 40
1.0
  9
$DIMTOFL
 70
       0
  9
$DIMTVP
 40
0.0
  9
$DIMTIX
 70
       0
  9
$DIMSOXD
 70
       0
  9
$DIMSAH
 70
       0
  9
$DIMBLK1
  1

  9
$DIMBLK2
  1

  9
$DIMSTYLE
  2
STANDARD
  9
$DIMCLRD
 70
       0
  9
$DIMCLRE
 70
       0
  9
$DIMCLRT
 70
       0
  9
$DIMTFAC
 40
1.0
  9
$DIMGAP
 40
0.09
  9
$DIMJUST
 70
       0
  9
$DIMSD1
 70
       0
  9
$DIMSD2
 70
       0
  9
$DIMTOLJ
 70
       1
  9
$DIMTZIN
 70
       0
  9
$DIMALTZ
 70
       0
  9
$DIMALTTZ
 70
       0
  9
$DIMFIT
 70
       3
  9
$DIMUPT
 70
       0
  9
$DIMUNIT
 70
       2
  9
$DIMDEC
 70
       4
  9
$DIMTDEC
 70
       4
  9
$DIMALTU
 70
       2
  9
$DIMALTTD
 70
       2
  9
$DIMTXSTY
  7
STANDARD
  9
$DIMAUNIT
 70
       0
  9
$LUNITS
 70
       2
  9
$LUPREC
 70
       4
  9
$SKETCHINC
 40
0.1
  9
$FILLETRAD
 40
0.0
  9
$AUNITS
 70
       0
  9
$AUPREC
 70
       0
  9
$MENU
  1
acad
  9
$ELEVATION
 40
0.0
  9
$PELEVATION
 40
0.0
  9
$THICKNESS
 40
0.0
  9
$LIMCHECK
 70
       0
  9
$BLIPMODE
 70
       1
  9
$CHAMFERA
 40
0.0
  9
$CHAMFERB
 40
0.0
  9
$CHAMFERC
 40
0.0
  9
$CHAMFERD
 40
0.0
  9
$SKPOLY
 70
       0
  9
$TDCREATE
 40
0.000000000
  9
$TDUPDATE
 40
0.000000000
  9
$TDINDWG
 40
0.0000000000
  9
$TDUSRTIMER
 40
0.0000000000
  9
$USRTIMER
 70
       1
  9
$ANGBASE
 50
0.0
  9
$ANGDIR
 70
       0
  9
$PDMODE
 70
       0
  9
$PDSIZE
 40
1.0
  9
$PLINEWID
 40
0.0
  9
$COORDS
 70
       1
  9
$SPLFRAME
 70
       0
  9
$SPLINETYPE
 70
       6
  9
$SPLINESEGS
 70
       8
  9
$ATTDIA
 70
       0
  9
$ATTREQ
 70
       1
  9
$HANDLING
 70
       1
  9
$HANDSEED
  5
3C7
  9
$SURFTAB1
 70
       6
  9
$SURFTAB2
 70
       6
  9
$SURFTYPE
 70
       6
  9
$SURFU
 70
       6
  9
$SURFV
 70
       6
  9
$UCSNAME
  2

  9
$UCSORG
 10
0.0
 20
0.0
 30
0.0
  9
$UCSXDIR
 10
1.0
 20
0.0
 30
0.0
  9
$UCSYDIR
 10
0.0
 20
1.0
 30
0.0
  9
$PUCSNAME
  2

  9
$PUCSORG
 10
0.0
 20
0.0
 30
0.0
  9
$PUCSXDIR
 10
1.0
 20
0.0
 30
0.0
  9
$PUCSYDIR
 10
0.0
 20
1.0
 30
0.0
  9
$USERI1
 70
       0
  9
$USERI2
 70
       0
  9
$USERI3
 70
       0
  9
$USERI4
 70
       0
  9
$USERI5
 70
       0
  9
$USERR1
 40
0.0
  9
$USERR2
 40
0.0
  9
$USERR3
 40
0.0
  9
$USERR4
 40
0.0
  9
$USERR5
 40
0.0
  9
$WORLDVIEW
 70
       1
  9
$SHADEDGE
 70
       3
  9
$SHADEDIF
 70
      70
  9
$TILEMODE
 70
       1
  9
$MAXACTVP
 70
      16
  9
$PINSBASE
 10
0.0
 20
0.0
 30
0.0
  9
$PLIMCHECK
 70
       0
  9
$PEXTMIN
 10
1.00000000E+20
 20
1.00000000E+20
 30
1.00000000E+20
  9
$PEXTMAX
 10
-1.00000000E+20
 20
-1.00000000E+20
 30
-1.00000000E+20
  9
$PLIMMIN
 10
0.0
 20
0.0
  9
$PLIMMAX
 10
12.0
 20
9.0
  9
$UNITMODE
 70
       0
  9
$VISRETAIN
 70
       0
  9
$PLINEGEN
 70
       1
  9
$PSLTSCALE
 70
       0
  9
$TREEDEPTH
 70
    3020
  9
$PICKSTYLE
 70
       1
  9
$CMLSTYLE
  2
STANDARD
  9
$CMLJUST
 70
       0
  9
$CMLSCALE
 40
1.0
  9
$PROXYGRAPHICS
 70
       0
  9
$MEASUREMENT
 70
       0
  0
ENDSEC
  0
SECTION
  2
CLASSES
  0
CLASS
  1
LWPOLYLINE
  2
AcDbPolyline
  3
"AutoCAD"
 90
        0
280
       0
281
       1
  0
CLASS
  1
IMAGE
  2
AcDbRasterImage
  3
ISM
 90
      127
280
       0
281
       1
  0
CLASS
  1
OLE2FRAME
  2
AcDbOle2Frame
  3
""
 90
        0
280
       0
281
       1
  0
CLASS
  1
HATCH
  2
AcDbHatch
  3
"ACAD_SEDONA"
 90
        0
280
       0
281
       1
  0
CLASS
  1
DICTIONARYVAR
  2
AcDbDictionaryVar
  3
"AutoCAD"
 90
        0
280
       0
281
       0
  0
CLASS
  1
RASTERVARIABLES
  2
AcDbRasterVariables
  3
ISM
 90
        0
280
       0
281
       0
  0
CLASS
  1
IMAGEDEF
  2
AcDbRasterImageDef
  3
ISM
 90
        0
280
       0
281
       0
  0
CLASS
  1
IMAGEDEF_REACTOR
  2
AcDbRasterImageDefReactor
  3
ISM
 90
        1
280
       0
281
       0
  0
CLASS
  1
IDBUFFER
  2
AcDbIdBuffer
  3
"Acad"
 90
        0
280
       0
281
       0
  0
CLASS
  1
SPATIAL_FILTER
  2
AcDbSpatialFilter
  3
"Acad"
 90
        0
280
       0
281
       0
  0
CLASS
  1
XRECORD
  2
AcDbXrecord
  3
"<Built In>"
 90
        0
280
       0
281
       0
  0
CLASS
  1
SORTENTSTABLE
  2
AcDbSortentsTable
  3
"AutoCAD"
 90
        0
280
       0
281
       0
  0
CLASS
  1
LAYER_INDEX
  2
AcDbLayerIndex
  3
"Acad"
 90
        0
280
       0
281
       0
  0
CLASS
  1
SPATIAL_INDEX
  2
AcDbSpatialIndex
  3
"Acad"
 90
        0
280
       0
281
       0
  0
CLASS
  1
OBJECT_PTR
  2
CAseDLPNTableRecord
  3
"ASE-LPNTableRecord"
 90
        1
280
       0
281
       0
  0
CLASS
  1
LAYOUT
  2
AcDbLayout
  3
"AutoCAD 2000"
 90
        1
280
       0
281
       0
  0
CLASS
  1
PLOTSETTINGS
  2
AcDbPlotSettings
  3
"AutoCAD 2000"
 90
        1
280
       0
281
       0
  0
CLASS
  1
ACDBDICTIONARYWDFLT
  2
AcDbDictionaryWithDefault
  3
"AutoCAD 2000"
 90
        1
280
       0
281
       0
  0
CLASS
  1
ACDBPLACEHOLDER
  2
AcDbPlaceHolder
  3
"AutoCAD 2000"
 90
        1
280
       0
281
       0
  0
CLASS
  1
VBA_PROJECT
  2
AcDbVbaProject
  3
"acadvba"
 90
        1
280
       0
281
       0
  0
CLASS
  1
WIPEOUT
  2
AcDbWipeout
  3
WipeOut|AutoCAD Express Tool|expresstools@autodesk.com
 90
      127
280
       0
281
       1
  0
CLASS
  1
WIPEOUTVARIABLES
  2
AcDbWipeoutVariables
  3
WipeOut|AutoCAD Express Tool|expresstools@autodesk.com
 90
        0
280
       0
281
       0
  0
CLASS
  1
RTEXT
  2
RText
  3
RText|AutoCAD Express Tool|expresstools@autodesk.com
 90
        0
280
       0
281
       1
  0
CLASS
  1
ARCALIGNEDTEXT
  2
AcDbArcAlignedText
  3
ATEXT|AutoCAD Express Tool|expresstools@autodesk.com
 90
        0
280
       0
281
       1
  0
ENDSEC
  0
SECTION
  2
TABLES
  0
TABLE
  2
VPORT
  5
7
100
AcDbSymbolTable
 70
       1
  0
VPORT
  5
15
100
AcDbSymbolTableRecord
100
AcDbViewportTableRecord
  2
*ACTIVE
 70
       0
 10
0.0
 20
0.0
 11
1.0
 21
1.0
 12
0.0
 22
-22.70175243
 13
0.0
 23
0.0
 14
1.0
 24
1.0
 15
0.0
 25
0.0
 16
0.0
 26
0.0
 36
1.0
 17
0.0
 27
0.0
 37
0.0
 40
165.51212712
 41
1.63524741
 42
50.0
 43
0.0
 44
0.0
 50
0.0
 51
0.0
 71
       0
 72
     100
 73
       1
 74
       1
 75
       0
 76
       0
 77
       0
 78
       0
  0
ENDTAB
  0
TABLE
  2
LTYPE
  5
4
100
AcDbSymbolTable
 70
      30
  0
LTYPE
  5
11
100
AcDbSymbolTableRecord
100
AcDbLinetypeTableRecord
  2
BYBLOCK
 70
      64
  3

 72
      65
 73
       0
 40
0.0
  0
LTYPE
  5
12
100
AcDbSymbolTableRecord
100
AcDbLinetypeTableRecord
  2
BYLAYER
 70
      64
  3

 72
      65
 73
       0
 40
0.0
  0
LTYPE
  5
13
100
AcDbSymbolTableRecord
100
AcDbLinetypeTableRecord
  2
CONTINUOUS
 70
      64
  3
Solid line
 72
      65
 73
       0
 40
0.0
  0
LTYPE
  5
1D
100
AcDbSymbolTableRecord
100
AcDbLinetypeTableRecord
  2
HIDDENX2
 70
      64
  3
CADPAC LINETYPE
 72
      65
 73
       2
 40
11.88
 49
8.91
 74
       0
 49
-2.97
 74
       0
  0
LTYPE
  5
1E
100
AcDbSymbolTableRecord
100
AcDbLinetypeTableRecord
  2
HIDDEN
 70
      64
  3
CADPAC LINETYPE
 72
      65
 73
       2
 40
8.91
 49
5.94
 74
       0
 49
-2.97
 74
       0
  0
LTYPE
  5
1F
100
AcDbSymbolTableRecord
100
AcDbLinetypeTableRecord
  2
HIDDEN2
 70
      64
  3
CADPAC LINETYPE
 72
      65
 73
       2
 40
7.425
 49
4.455
 74
       0
 49
-2.97
 74
       0
  0
LTYPE
  5
20
100
AcDbSymbolTableRecord
100
AcDbLinetypeTableRecord
  2
DASHED
 70
      64
  3
CADPAC LINETYPE
 72
      65
 73
       2
 40
8.91
 49
5.94
 74
       0
 49
-2.97
 74
       0
  0
LTYPE
  5
21
100
AcDbSymbolTableRecord
100
AcDbLinetypeTableRecord
  2
DASHED2
 70
      64
  3
CADPAC LINETYPE
 72
      65
 73
       2
 40
6.6825
 49
4.455
 74
       0
 49
-2.2275
 74
       0
  0
LTYPE
  5
22
100
AcDbSymbolTableRecord
100
AcDbLinetypeTableRecord
  2
DASHEDX2
 70
      64
  3
CADPAC LINETYPE
 72
      65
 73
       2
 40
13.365
 49
8.91
 74
       0
 49
-4.455
 74
       0
  0
LTYPE
  5
23
100
AcDbSymbolTableRecord
100
AcDbLinetypeTableRecord
  2
DOTX2
 70
      64
  3
CADPAC LINETYPE
 72
      65
 73
       2
 40
3.7125
 49
0.0
 74
       0
 49
-3.7125
 74
       0
  0
LTYPE
  5
24
100
AcDbSymbolTableRecord
100
AcDbLinetypeTableRecord
  2
DOT
 70
      64
  3
CADPAC LINETYPE
 72
      65
 73
       2
 40
2.97
 49
0.0
 74
       0
 49
-2.97
 74
       0
  0
LTYPE
  5
25
100
AcDbSymbolTableRecord
100
AcDbLinetypeTableRecord
  2
DOT2
 70
      64
  3
CADPAC LINETYPE
 72
      65
 73
       2
 40
2.2275
 49
0.0
 74
       0
 49
-2.2275
 74
       0
  0
LTYPE
  5
26
100
AcDbSymbolTableRecord
100
AcDbLinetypeTableRecord
  2
CENTERX2
 70
      64
  3
CADPAC LINETYPE
 72
      65
 73
       4
 40
17.82
 49
7.425
 74
       0
 49
-3.7125
 74
       0
 49
2.97
 74
       0
 49
-3.7125
 74
       0
  0
LTYPE
  5
27
100
AcDbSymbolTableRecord
100
AcDbLinetypeTableRecord
  2
CENTER
 70
      64
  3
CADPAC LINETYPE
 72
      65
 73
       4
 40
13.662
 49
5.94
 74
       0
 49
-2.97
 74
       0
 49
1.782
 74
       0
 49
-2.97
 74
       0
  0
LTYPE
  5
28
100
AcDbSymbolTableRecord
100
AcDbLinetypeTableRecord
  2
CENTER2
 70
      64
  3
CADPAC LINETYPE
 72
      65
 73
       4
 40
9.504
 49
4.455
 74
       0
 49
-2.2275
 74
       0
 49
0.594
 74
       0
 49
-2.2275
 74
       0
  0
LTYPE
  5
29
100
AcDbSymbolTableRecord
100
AcDbLinetypeTableRecord
  2
DASHDOTX2
 70
      64
  3
CADPAC LINETYPE
 72
      65
 73
       4
 40
14.85
 49
7.425
 74
       0
 49
-3.7125
 74
       0
 49
0.0
 74
       0
 49
-3.7125
 74
       0
  0
LTYPE
  5
2A
100
AcDbSymbolTableRecord
100
AcDbLinetypeTableRecord
  2
DASHDOT
 70
      64
  3
CADPAC LINETYPE
 72
      65
 73
       4
 40
11.88
 49
5.94
 74
       0
 49
-2.97
 74
       0
 49
0.0
 74
       0
 49
-2.97
 74
       0
  0
LTYPE
  5
2B
100
AcDbSymbolTableRecord
100
AcDbLinetypeTableRecord
  2
DASHDOT2
 70
      64
  3
CADPAC LINETYPE
 72
      65
 73
       4
 40
8.91
 49
4.455
 74
       0
 49
-2.2275
 74
       0
 49
0.0
 74
       0
 49
-2.2275
 74
       0
  0
LTYPE
  5
2C
100
AcDbSymbolTableRecord
100
AcDbLinetypeTableRecord
  2
DIVIDEX2
 70
      64
  3
CADPAC LINETYPE
 72
      65
 73
       6
 40
18.5625
 49
7.425
 74
       0
 49
-3.7125
 74
       0
 49
0.0
 74
       0
 49
-3.7125
 74
       0
 49
0.0
 74
       0
 49
-3.7125
 74
       0
  0
LTYPE
  5
2D
100
AcDbSymbolTableRecord
100
AcDbLinetypeTableRecord
  2
DIVIDE
 70
      64
  3
CADPAC LINETYPE
 72
      65
 73
       6
 40
14.85
 49
5.94
 74
       0
 49
-2.97
 74
       0
 49
0.0
 74
       0
 49
-2.97
 74
       0
 49
0.0
 74
       0
 49
-2.97
 74
       0
  0
LTYPE
  5
2E
100
AcDbSymbolTableRecord
100
AcDbLinetypeTableRecord
  2
DIVIDE2
 70
      64
  3
CADPAC LINETYPE
 72
      65
 73
       6
 40
11.1375
 49
4.455
 74
       0
 49
-2.2275
 74
       0
 49
0.0
 74
       0
 49
-2.2275
 74
       0
 49
0.0
 74
       0
 49
-2.2275
 74
       0
  0
LTYPE
  5
2F
100
AcDbSymbolTableRecord
100
AcDbLinetypeTableRecord
  2
BORDERX2
 70
      64
  3
CADPAC LINETYPE
 72
      65
 73
       6
 40
25.9875
 49
7.425
 74
       0
 49
-3.7125
 74
       0
 49
7.425
 74
       0
 49
-3.7125
 74
       0
 49
0.0
 74
       0
 49
-3.7125
 74
       0
  0
LTYPE
  5
30
100
AcDbSymbolTableRecord
100
AcDbLinetypeTableRecord
  2
BORDER
 70
      64
  3
CADPAC LINETYPE
 72
      65
 73
       6
 40
20.79
 49
5.94
 74
       0
 49
-2.97
 74
       0
 49
5.94
 74
       0
 49
-2.97
 74
       0
 49
0.0
 74
       0
 49
-2.97
 74
       0
  0
LTYPE
  5
31
100
AcDbSymbolTableRecord
100
AcDbLinetypeTableRecord
  2
BORDER2
 70
      64
  3
CADPAC LINETYPE
 72
      65
 73
       6
 40
15.5925
 49
4.455
 74
       0
 49
-2.2275
 74
       0
 49
4.455
 74
       0
 49
-2.2275
 74
       0
 49
0.0
 74
       0
 49
-2.2275
 74
       0
  0
LTYPE
  5
32
100
AcDbSymbolTableRecord
100
AcDbLinetypeTableRecord
  2
PHANTOMX2
 70
      64
  3
CADPAC LINETYPE
 72
      65
 73
       6
 40
22.275
 49
7.425
 74
       0
 49
-2.97
 74
       0
 49
2.97
 74
       0
 49
-2.97
 74
       0
 49
2.97
 74
       0
 49
-2.97
 74
       0
  0
LTYPE
  5
33
100
AcDbSymbolTableRecord
100
AcDbLinetypeTableRecord
  2
PHANTOM
 70
      64
  3
CADPAC LINETYPE
 72
      65
 73
       6
 40
18.414
 49
5.94
 74
       0
 49
-2.97
 74
       0
 49
1.782
 74
       0
 49
-2.97
 74
       0
 49
1.782
 74
       0
 49
-2.97
 74
       0
  0
LTYPE
  5
34
100
AcDbSymbolTableRecord
100
AcDbLinetypeTableRecord
  2
PHANTOM2
 70
      64
  3
CADPAC LINETYPE
 72
      65
 73
       6
 40
15.741
 49
4.455
 74
       0
 49
-2.97
 74
       0
 49
1.188
 74
       0
 49
-2.97
 74
       0
 49
1.188
 74
       0
 49
-2.97
 74
       0
  0
LTYPE
  5
35
100
AcDbSymbolTableRecord
100
AcDbLinetypeTableRecord
  2
ACAD_ISO06W100
 70
      64
  3
CADPAC LINETYPE
 72
      65
 73
       8
 40
20.0475
 49
7.425
 74
       0
 49
-3.7125
 74
       0
 49
0.0
 74
       0
 49
-2.97
 74
       0
 49
0.0
 74
       0
 49
-2.97
 74
       0
 49
0.0
 74
       0
 49
-2.97
 74
       0
  0
LTYPE
  5
36
100
AcDbSymbolTableRecord
100
AcDbLinetypeTableRecord
  2
ACAD_ISO13W100
 70
      64
  3
CADPAC LINETYPE
 72
      65
 73
       8
 40
23.76
 49
5.94
 74
       0
 49
-2.97
 74
       0
 49
5.94
 74
       0
 49
-2.97
 74
       0
 49
0.0
 74
       0
 49
-2.97
 74
       0
 49
0.0
 74
       0
 49
-2.97
 74
       0
  0
LTYPE
  5
37
100
AcDbSymbolTableRecord
100
AcDbLinetypeTableRecord
  2
ACAD_ISO14W100
 70
      64
  3
CADPAC LINETYPE
 72
      65
 73
       8
 40
17.82
 49
5.94
 74
       0
 49
-2.97
 74
       0
 49
0.0
 74
       0
 49
-2.97
 74
       0
 49
0.0
 74
       0
 49
-2.97
 74
       0
 49
0.0
 74
       0
 49
-2.97
 74
       0
  0
ENDTAB
  0
TABLE
  2
LAYER
  5
2
100
AcDbSymbolTable
 70
       2
  0
LAYER
  5
14
100
AcDbSymbolTableRecord
100
AcDbLayerTableRecord
  2
0
 70
       0
 62
       7
  6
CONTINUOUS
  0
LAYER
  5
38
100
AcDbSymbolTableRecord
100
AcDbLayerTableRecord
  2
レイヤー_1
 70
       0
 62
       7
  6
CONTINUOUS
  0
ENDTAB
  0
TABLE
  2
STYLE
  5
3
100
AcDbSymbolTable
 70
       1
  0
STYLE
  5
17
100
AcDbSymbolTableRecord
100
AcDbTextStyleTableRecord
  2
STANDARD
 70
       0
 40
0.0
 41
0.8
 50
0.0
 71
       0
 42
5.0
  3
txt.shx
  4
bigfont.shx
  0
ENDTAB
  0
TABLE
  2
VIEW
  5
5
100
AcDbSymbolTable
 70
       1
  0
VIEW
  5
39
100
AcDbSymbolTableRecord
100
AcDbViewTableRecord
  2
QQQQ
 70
       0
 40
165.51212712
 10
0.0
 20
-22.70175243
 41
270.65327715
 11
0.0
 21
0.0
 31
1.0
 12
100.0
 22
100.0
 32
0.0
 42
50.0
 43
0.0
 44
0.0
 50
0.0
 71
       0
  0
ENDTAB
  0
TABLE
  2
UCS
  5
6
100
AcDbSymbolTable
 70
       0
  0
ENDTAB
  0
TABLE
  2
APPID
  5
8
100
AcDbSymbolTable
 70
       1
  0
APPID
  5
16
100
AcDbSymbolTableRecord
100
AcDbRegAppTableRecord
  2
ACAD
 70
       0
  0
ENDTAB
  0
TABLE
  2
DIMSTYLE
  5
9
100
AcDbSymbolTable
 70
       1
  0
DIMSTYLE
105
18
100
AcDbSymbolTableRecord
100
AcDbDimStyleTableRecord
  2
STANDARD
 70
       0
  3

  4

  5

  6

  7

 40
1.0
 41
0.18
 42
0.0625
 43
0.38
 44
0.18
 45
0.0
 46
0.0
 47
0.0
 48
0.0
 71
       0
 72
       0
 73
       1
 74
       1
 75
       0
 76
       0
 77
       0
 78
       0
140
0.18
141
0.09
142
0.0
143
25.4
144
1.0
145
0.0
146
1.0
147
0.09
170
       0
171
       2
172
       0
173
       0
174
       0
175
       0
176
       0
177
       0
178
       0
270
       2
271
       4
272
       4
273
       2
274
       2
275
       0
280
       0
281
       0
282
       0
283
       1
284
       0
285
       0
286
       0
287
       0
288
       0
340
17
  0
ENDTAB
  0
TABLE
  2
BLOCK_RECORD
  5
1
100
AcDbSymbolTable
 70
       0
  0
BLOCK_RECORD
  5
A
100
AcDbSymbolTableRecord
100
AcDbBlockTableRecord
  2
*MODEL_SPACE
  0
BLOCK_RECORD
  5
B
100
AcDbSymbolTableRecord
100
AcDbBlockTableRecord
  2
*PAPER_SPACE
  0
ENDTAB
  0
ENDSEC
  0
SECTION
  2
BLOCKS
  0
BLOCK
  5
D
100
AcDbEntity
  8
0
100
AcDbBlockBegin
  2
*MODEL_SPACE
 70
       0
 10
0.0
 20
0.0
 30
0.0
  3
*MODEL_SPACE
  1

  0
ENDBLK
  5
E
100
AcDbEntity
  8
0
100
AcDbBlockEnd
  0
BLOCK
  5
F
100
AcDbEntity
 67
       1
  8
0
100
AcDbBlockBegin
  2
*PAPER_SPACE
 70
       0
 10
0.0
 20
0.0
 30
0.0
  3
*PAPER_SPACE
  1

  0
ENDBLK
  5
10
100
AcDbEntity
 67
       1
  8
0
100
AcDbBlockEnd
  0
ENDSEC
  0
SECTION
  2
ENTITIES
  0
LINE
  5
3A
100
AcDbEntity
  8
レイヤー_1
  6
CONTINUOUS
 62
       3
100
AcDbLine
 10
12.388994
 20
-36.09986368
 30
0.0
 11
15.49320814
 21
-36.09986368
 31
0.0
  0
LINE
  5
3B
100
AcDbEntity
  8
レイヤー_1
  6
CONTINUOUS
 62
       3
100
AcDbLine
 10
15.49320814
 20
-49.62746174
 30
0.0
 11
12.49320814
 21
-49.62746174
 31
0.0
  0
LINE
  5
3C
100
AcDbEntity
  8
レイヤー_1
  6
CONTINUOUS
 62
       3
100
AcDbLine
 10
12.49320814
 20
-49.62746174
 30
0.0
 11
12.49320814
 21
49.64899359
 31
0.0
  0
LINE
  5
3D
100
AcDbEntity
  8
レイヤー_1
  6
CONTINUOUS
 62
       3
100
AcDbLine
 10
12.49320814
 20
49.64899359
 30
0.0
 11
15.49320814
 21
49.64899359
 31
0.0
  0
LINE
  5
3E
100
AcDbEntity
  8
レイヤー_1
  6
CONTINUOUS
 62
       3
100
AcDbLine
 10
15.49320814
 20
36.09986368
 30
0.0
 11
12.388994
 21
36.09986368
 31
0.0
  0
LINE
  5
3F
100
AcDbEntity
  8
レイヤー_1
  6
CONTINUOUS
 62
       3
100
AcDbLine
 10
12.48115031
 20
39.11948988
 30
0.0
 11
-35.58044675
 21
39.11948988
 31
0.0
  0
LINE
  5
40
100
AcDbEntity
  8
レイヤー_1
  6
CONTINUOUS
 62
       3
100
AcDbLine
 10
-35.51404726
 20
-41.10386487
 30
0.0
 11
12.48115031
 21
-41.10386487
 31
0.0
  0
LINE
  5
41
100
AcDbEntity
  8
レイヤー_1
  6
CONTINUOUS
 62
       3
100
AcDbLine
 10
16.7995775
 20
19.87260267
 30
0.0
 11
18.54968601
 21
19.87260267
 31
0.0
  0
LINE
  5
42
100
AcDbEntity
  8
レイヤー_1
  6
CONTINUOUS
 62
       3
100
AcDbLine
 10
18.54968601
 20
19.87260267
 30
0.0
 11
18.54968601
 21
29.89912245
 31
0.0
  0
LINE
  5
43
100
AcDbEntity
  8
レイヤー_1
  6
CONTINUOUS
 62
       3
100
AcDbLine
 10
18.54968601
 20
29.89912245
 30
0.0
 11
16.7995775
 21
29.89912245
 31
0.0
  0
LINE
  5
44
100
AcDbEntity
  8
レイヤー_1
  6
CONTINUOUS
 62
       3
100
AcDbLine
 10
16.7995775
 20
29.89912245
 30
0.0
 11
16.7995775
 21
19.87260267
 31
0.0
  0
LINE
  5
45
100
AcDbEntity
  8
レイヤー_1
  6
CONTINUOUS
 62
       3
100
AcDbLine
 10
16.7995775
 20
-30.27076211
 30
0.0
 11
18.54968601
 21
-30.27076211
 31
0.0
  0
LINE
  5
46
100
AcDbEntity
  8
レイヤー_1
  6
CONTINUOUS
 62
       3
100
AcDbLine
 10
18.54968601
 20
-30.27076211
 30
0.0
 11
18.54968601
 21
-20.24424234
 31
0.0
  0
LINE
  5
47
100
AcDbEntity
  8
レイヤー_1
  6
CONTINUOUS
 62
       3
100
AcDbLine
 10
18.54968601
 20
-20.24424234
 30
0.0
 11
16.7995775
 21
-20.24424234
 31
0.0
  0
LINE
  5
48
100
AcDbEntity
  8
レイヤー_1
  6
CONTINUOUS
 62
       3
100
AcDbLine
 10
16.7995775
 20
-20.24424234
 30
0.0
 11
16.7995775
 21
-30.27076211
 31
0.0
  0
LINE
  5
49
100
AcDbEntity
  8
レイヤー_1
  6
CONTINUOUS
 62
       3
100
AcDbLine
 10
16.7995775
 20
-5.19907972
 30
0.0
 11
18.54968601
 21
-5.19907972
 31
0.0
  0
LINE
  5
4A
100
AcDbEntity
  8
レイヤー_1
  6
CONTINUOUS
 62
       3
100
AcDbLine
 10
18.54968601
 20
-5.19907972
 30
0.0
 11
18.54968601
 21
4.82744005
 31
0.0
  0
LINE
  5
4B
100
AcDbEntity
  8
レイヤー_1
  6
CONTINUOUS
 62
       3
100
AcDbLine
 10
18.54968601
 20
4.82744005
 30
0.0
 11
16.7995775
 21
4.82744005
 31
0.0
  0
LINE
  5
4C
100
AcDbEntity
  8
レイヤー_1
  6
CONTINUOUS
 62
       3
100
AcDbLine
 10
16.7995775
 20
4.82744005
 30
0.0
 11
16.7995775
 21
-5.19907972
 31
0.0
  0
LINE
  5
4D
100
AcDbEntity
  8
レイヤー_1
  6
CONTINUOUS
 62
       3
100
AcDbLine
 10
-106.02324419
 20
-37.59417384
 30
0.0
 11
-114.00682234
 21
-37.59417384
 31
0.0
  0
LINE
  5
4E
100
AcDbEntity
  8
レイヤー_1
  6
CONTINUOUS
 62
       3
100
AcDbLine
 10
-106.02324419
 20
-41.11376952
 30
0.0
 11
-106.02324419
 21
-28.56974622
 31
0.0
  0
LINE
  5
4F
100
AcDbEntity
  8
レイヤー_1
  6
CONTINUOUS
 62
       3
100
AcDbLine
 10
-106.02324419
 20
-28.56974622
 30
0.0
 11
-114.00682234
 21
-28.56974622
 31
0.0
  0
LINE
  5
50
100
AcDbEntity
  8
レイヤー_1
  6
CONTINUOUS
 62
       3
100
AcDbLine
 10
-114.00682234
 20
-28.56974622
 30
0.0
 11
-114.00682234
 21
-41.11376952
 31
0.0
  0
LINE
  5
51
100
AcDbEntity
  8
レイヤー_1
  6
CONTINUOUS
 62
       3
100
AcDbLine
 10
-96.02342391
 20
-41.11376952
 30
0.0
 11
-96.02342391
 21
-28.56974622
 31
0.0
  0
LINE
  5
52
100
AcDbEntity
  8
レイヤー_1
  6
CONTINUOUS
 62
       3
100
AcDbLine
 10
-96.02342391
 20
-28.56974622
 30
0.0
 11
-104.00700206
 21
-28.56974622
 31
0.0
  0
LINE
  5
53
100
AcDbEntity
  8
レイヤー_1
  6
CONTINUOUS
 62
       3
100
AcDbLine
 10
-104.00700206
 20
-28.56974622
 30
0.0
 11
-104.00700206
 21
-41.11376952
 31
0.0
  0
LINE
  5
54
100
AcDbEntity
  8
レイヤー_1
  6
CONTINUOUS
 62
       3
100
AcDbLine
 10
-116.005839
 20
-41.11376952
 30
0.0
 11
-94.02354598
 21
-41.11376952
 31
0.0
  0
LINE
  5
55
100
AcDbEntity
  8
レイヤー_1
  6
CONTINUOUS
 62
       3
100
AcDbLine
 10
-94.02354598
 20
-41.11376952
 30
0.0
 11
-94.02354598
 21
-26.56513128
 31
0.0
  0
LINE
  5
56
100
AcDbEntity
  8
レイヤー_1
  6
CONTINUOUS
 62
       3
100
AcDbLine
 10
-94.02354598
 20
-26.56513128
 30
0.0
 11
-116.005839
 21
-26.56513128
 31
0.0
  0
LINE
  5
57
100
AcDbEntity
  8
レイヤー_1
  6
CONTINUOUS
 62
       3
100
AcDbLine
 10
-116.005839
 20
-26.56513128
 30
0.0
 11
-116.005839
 21
-41.11376952
 31
0.0
  0
LINE
  5
58
100
AcDbEntity
  8
レイヤー_1
  6
CONTINUOUS
 62
       3
100
AcDbLine
 10
-97.50826006
 20
-47.8816596
 30
0.0
 11
-95.50838214
 21
-47.8816596
 31
0.0
  0
LINE
  5
59
100
AcDbEntity
  8
レイヤー_1
  6
CONTINUOUS
 62
       3
100
AcDbLine
 10
-95.50838214
 20
-47.8816596
 30
0.0
 11
-95.50838214
 21
-43.36944579
 31
0.0
  0
LINE
  5
5A
100
AcDbEntity
  8
レイヤー_1
  6
CONTINUOUS
 62
       3
100
AcDbLine
 10
-95.50838214
 20
-43.36944579
 30
0.0
 11
-97.50826006
 21
-43.36944579
 31
0.0
  0
LINE
  5
5B
100
AcDbEntity
  8
レイヤー_1
  6
CONTINUOUS
 62
       3
100
AcDbLine
 10
-97.50826006
 20
-43.36944579
 30
0.0
 11
-97.50826006
 21
-47.8816596
 31
0.0
  0
LINE
  5
5C
100
AcDbEntity
  8
レイヤー_1
  6
CONTINUOUS
 62
       3
100
AcDbLine
 10
-96.02256264
 20
-37.59417384
 30
0.0
 11
-104.00700206
 21
-37.59417384
 31
0.0
  0
LINE
  5
5D
100
AcDbEntity
  8
レイヤー_1
  6
CONTINUOUS
 62
       3
100
AcDbLine
 10
-106.02324419
 20
0.99520196
 30
0.0
 11
-114.00682234
 21
0.99520196
 31
0.0
  0
LINE
  5
5E
100
AcDbEntity
  8
レイヤー_1
  6
CONTINUOUS
 62
       3
100
AcDbLine
 10
-106.02324419
 20
-2.02227105
 30
0.0
 11
-106.02324419
 21
11.02215237
 31
0.0
  0
LINE
  5
5F
100
AcDbEntity
  8
レイヤー_1
  6
CONTINUOUS
 62
       3
100
AcDbLine
 10
-114.00682234
 20
11.02215237
 30
0.0
 11
-114.00682234
 21
-2.02227105
 31
0.0
  0
LINE
  5
60
100
AcDbEntity
  8
レイヤー_1
  6
CONTINUOUS
 62
       3
100
AcDbLine
 10
-96.02342391
 20
-2.02227105
 30
0.0
 11
-96.02342391
 21
11.02215237
 31
0.0
  0
LINE
  5
61
100
AcDbEntity
  8
レイヤー_1
  6
CONTINUOUS
 62
       3
100
AcDbLine
 10
-104.00700206
 20
11.02215237
 30
0.0
 11
-104.00700206
 21
-2.02227105
 31
0.0
  0
LINE
  5
62
100
AcDbEntity
  8
レイヤー_1
  6
CONTINUOUS
 62
       3
100
AcDbLine
 10
-94.02440726
 20
11.02215237
 30
0.0
 11
-116.005839
 21
11.02215237
 31
0.0
  0
LINE
  5
63
100
AcDbEntity
  8
レイヤー_1
  6
CONTINUOUS
 62
       3
100
AcDbLine
 10
-96.02256264
 20
0.99520196
 30
0.0
 11
-104.00700206
 21
0.99520196
 31
0.0
  0
LINE
  5
64
100
AcDbEntity
  8
レイヤー_1
  6
CONTINUOUS
 62
       3
100
AcDbLine
 10
-101.02354937
 20
14.03101264
 30
0.0
 11
-109.00712752
 21
14.03101264
 31
0.0
  0
LINE
  5
65
100
AcDbEntity
  8
レイヤー_1
  6
CONTINUOUS
 62
       3
100
AcDbLine
 10
-111.00700545
 20
11.01353963
 30
0.0
 11
-99.02410208
 21
11.01353963
 31
0.0
  0
LINE
  5
66
100
AcDbEntity
  8
レイヤー_1
  6
CONTINUOUS
 62
       3
100
AcDbLine
 10
-99.02410208
 20
11.01353963
 30
0.0
 11
-99.02410208
 21
24.05796305
 31
0.0
  0
LINE
  5
67
100
AcDbEntity
  8
レイヤー_1
  6
CONTINUOUS
 62
       3
100
AcDbLine
 10
-99.02410208
 20
24.05796305
 30
0.0
 11
-111.00700545
 21
24.05796305
 31
0.0
  0
LINE
  5
68
100
AcDbEntity
  8
レイヤー_1
  6
CONTINUOUS
 62
       3
100
AcDbLine
 10
-111.00700545
 20
24.05796305
 30
0.0
 11
-111.00700545
 21
11.01353963
 31
0.0
  0
LINE
  5
69
100
AcDbEntity
  8
レイヤー_1
  6
CONTINUOUS
 62
       3
100
AcDbLine
 10
-101.02354937
 20
11.01353963
 30
0.0
 11
-101.02354937
 21
24.05796305
 31
0.0
  0
LINE
  5
6A
100
AcDbEntity
  8
レイヤー_1
  6
CONTINUOUS
 62
       3
100
AcDbLine
 10
-109.00712752
 20
24.05796305
 30
0.0
 11
-109.00712752
 21
11.01353963
 31
0.0
  0
LINE
  5
6B
100
AcDbEntity
  8
レイヤー_1
  6
CONTINUOUS
 62
       3
100
AcDbLine
 10
-106.02324419
 20
27.07758924
 30
0.0
 11
-114.00682234
 21
27.07758924
 31
0.0
  0
LINE
  5
6C
100
AcDbEntity
  8
レイヤー_1
  6
CONTINUOUS
 62
       3
100
AcDbLine
 10
-106.02324419
 20
24.06743706
 30
0.0
 11
-106.02324419
 21
36.10158623
 31
0.0
  0
LINE
  5
6D
100
AcDbEntity
  8
レイヤー_1
  6
CONTINUOUS
 62
       3
100
AcDbLine
 10
-106.02324419
 20
36.10158623
 30
0.0
 11
-114.00682234
 21
36.10158623
 31
0.0
  0
LINE
  5
6E
100
AcDbEntity
  8
レイヤー_1
  6
CONTINUOUS
 62
       3
100
AcDbLine
 10
-114.00682234
 20
36.10158623
 30
0.0
 11
-114.00682234
 21
24.06743706
 31
0.0
  0
LINE
  5
6F
100
AcDbEntity
  8
レイヤー_1
  6
CONTINUOUS
 62
       3
100
AcDbLine
 10
-96.02342391
 20
24.06743706
 30
0.0
 11
-96.02342391
 21
36.10158623
 31
0.0
  0
LINE
  5
70
100
AcDbEntity
  8
レイヤー_1
  6
CONTINUOUS
 62
       3
100
AcDbLine
 10
-96.02342391
 20
36.10158623
 30
0.0
 11
-104.00700206
 21
36.10158623
 31
0.0
  0
LINE
  5
71
100
AcDbEntity
  8
レイヤー_1
  6
CONTINUOUS
 62
       3
100
AcDbLine
 10
-104.00700206
 20
36.10158623
 30
0.0
 11
-104.00700206
 21
24.06743706
 31
0.0
  0
LINE
  5
72
100
AcDbEntity
  8
レイヤー_1
  6
CONTINUOUS
 62
       3
100
AcDbLine
 10
-116.005839
 20
-2.02227105
 30
0.0
 11
-94.02354598
 21
-2.02227105
 31
0.0
  0
LINE
  5
73
100
AcDbEntity
  8
レイヤー_1
  6
CONTINUOUS
 62
       3
100
AcDbLine
 10
-94.02354598
 20
-2.02227105
 30
0.0
 11
-94.02354598
 21
38.10749308
 31
0.0
  0
LINE
  5
74
100
AcDbEntity
  8
レイヤー_1
  6
CONTINUOUS
 62
       3
100
AcDbLine
 10
-94.02354598
 20
38.10749308
 30
0.0
 11
-116.005839
 21
38.10749308
 31
0.0
  0
LINE
  5
75
100
AcDbEntity
  8
レイヤー_1
  6
CONTINUOUS
 62
       3
100
AcDbLine
 10
-116.005839
 20
38.10749308
 30
0.0
 11
-116.005839
 21
-2.02227105
 31
0.0
  0
LINE
  5
76
100
AcDbEntity
  8
レイヤー_1
  6
CONTINUOUS
 62
       3
100
AcDbLine
 10
-116.005839
 20
24.06743706
 30
0.0
 11
-94.02440726
 21
24.06743706
 31
0.0
  0
LINE
  5
77
100
AcDbEntity
  8
レイヤー_1
  6
CONTINUOUS
 62
       3
100
AcDbLine
 10
-96.02256264
 20
27.07758924
 30
0.0
 11
-104.00700206
 21
27.07758924
 31
0.0
  0
LINE
  5
78
100
AcDbEntity
  8
レイヤー_1
  6
CONTINUOUS
 62
       3
100
AcDbLine
 10
12.4845954
 20
-26.56513128
 30
0.0
 11
12.29928947
 21
-26.56513128
 31
0.0
  0
LINE
  5
79
100
AcDbEntity
  8
レイヤー_1
  6
CONTINUOUS
 62
       3
100
AcDbLine
 10
12.29928947
 20
-26.56513128
 30
0.0
 11
11.77559879
 21
-26.56513128
 31
0.0
  0
LINE
  5
7A
100
AcDbEntity
  8
レイヤー_1
  6
CONTINUOUS
 62
       3
100
AcDbLine
 10
11.77559879
 20
-26.56513128
 30
0.0
 11
10.96186404
 21
-26.56513128
 31
0.0
  0
LINE
  5
7B
100
AcDbEntity
  8
レイヤー_1
  6
CONTINUOUS
 62
       3
100
AcDbLine
 10
10.96186404
 20
-26.56513128
 30
0.0
 11
9.9064259
 21
-26.56513128
 31
0.0
  0
LINE
  5
7C
100
AcDbEntity
  8
レイヤー_1
  6
CONTINUOUS
 62
       3
100
AcDbLine
 10
9.9064259
 20
-26.56513128
 30
0.0
 11
8.65762505
 21
-26.56513128
 31
0.0
  0
LINE
  5
7D
100
AcDbEntity
  8
レイヤー_1
  6
CONTINUOUS
 62
       3
100
AcDbLine
 10
8.65762505
 20
-26.56513128
 30
0.0
 11
7.26380216
 21
-26.56513128
 31
0.0
  0
LINE
  5
7E
100
AcDbEntity
  8
レイヤー_1
  6
CONTINUOUS
 62
       3
100
AcDbLine
 10
7.26380216
 20
-26.56513128
 30
0.0
 11
5.77329791
 21
-26.56513128
 31
0.0
  0
LINE
  5
7F
100
AcDbEntity
  8
レイヤー_1
  6
CONTINUOUS
 62
       3
100
AcDbLine
 10
5.77329791
 20
-26.56513128
 30
0.0
 11
4.23445299
 21
-26.56513128
 31
0.0
  0
LINE
  5
80
100
AcDbEntity
  8
レイヤー_1
  6
CONTINUOUS
 62
       3
100
AcDbLine
 10
4.23445299
 20
-26.56513128
 30
0.0
 11
2.69560807
 21
-26.56513128
 31
0.0
  0
LINE
  5
81
100
AcDbEntity
  8
レイヤー_1
  6
CONTINUOUS
 62
       3
100
AcDbLine
 10
2.69560807
 20
-26.56513128
 30
0.0
 11
1.20510382
 21
-26.56513128
 31
0.0
  0
LINE
  5
82
100
AcDbEntity
  8
レイヤー_1
  6
CONTINUOUS
 62
       3
100
AcDbLine
 10
1.20510382
 20
-26.56513128
 30
0.0
 11
-0.18871907
 21
-26.56513128
 31
0.0
  0
LINE
  5
83
100
AcDbEntity
  8
レイヤー_1
  6
CONTINUOUS
 62
       3
100
AcDbLine
 10
-0.18871907
 20
-26.56513128
 30
0.0
 11
-1.43751992
 21
-26.56513128
 31
0.0
  0
LINE
  5
84
100
AcDbEntity
  8
レイヤー_1
  6
CONTINUOUS
 62
       3
100
AcDbLine
 10
-1.43751992
 20
-26.56513128
 30
0.0
 11
-2.49295806
 21
-26.56513128
 31
0.0
  0
LINE
  5
85
100
AcDbEntity
  8
レイヤー_1
  6
CONTINUOUS
 62
       3
100
AcDbLine
 10
-2.49295806
 20
-26.56513128
 30
0.0
 11
-3.30669281
 21
-26.56513128
 31
0.0
  0
LINE
  5
86
100
AcDbEntity
  8
レイヤー_1
  6
CONTINUOUS
 62
       3
100
AcDbLine
 10
-3.30669281
 20
-26.56513128
 30
0.0
 11
-3.83038349
 21
-26.56513128
 31
0.0
  0
LINE
  5
87
100
AcDbEntity
  8
レイヤー_1
  6
CONTINUOUS
 62
       3
100
AcDbLine
 10
-3.83038349
 20
-26.56513128
 30
0.0
 11
-4.01568942
 21
-26.56513128
 31
0.0
  0
LINE
  5
88
100
AcDbEntity
  8
レイヤー_1
  6
CONTINUOUS
 62
       3
100
AcDbLine
 10
-4.01568942
 20
-26.56513128
 30
0.0
 11
-4.06671822
 21
-26.56771847
 31
0.0
  0
LINE
  5
89
100
AcDbEntity
  8
レイヤー_1
  6
CONTINUOUS
 62
       3
100
AcDbLine
 10
-4.06671822
 20
-26.56771847
 30
0.0
 11
-4.11628352
 21
-26.57531181
 31
0.0
  0
LINE
  5
8A
100
AcDbEntity
  8
レイヤー_1
  6
CONTINUOUS
 62
       3
100
AcDbLine
 10
-4.11628352
 20
-26.57531181
 30
0.0
 11
-4.164133
 21
-26.58765898
 31
0.0
  0
LINE
  5
8B
100
AcDbEntity
  8
レイヤー_1
  6
CONTINUOUS
 62
       3
100
AcDbLine
 10
-4.164133
 20
-26.58765898
 30
0.0
 11
-4.21001434
 21
-26.60450765
 31
0.0
  0
LINE
  5
8C
100
AcDbEntity
  8
レイヤー_1
  6
CONTINUOUS
 62
       3
100
AcDbLine
 10
-4.21001434
 20
-26.60450765
 30
0.0
 11
-4.25367521
 21
-26.62560549
 31
0.0
  0
LINE
  5
8D
100
AcDbEntity
  8
レイヤー_1
  6
CONTINUOUS
 62
       3
100
AcDbLine
 10
-4.25367521
 20
-26.62560549
 30
0.0
 11
-4.29486327
 21
-26.65070019
 31
0.0
  0
LINE
  5
8E
100
AcDbEntity
  8
レイヤー_1
  6
CONTINUOUS
 62
       3
100
AcDbLine
 10
-4.29486327
 20
-26.65070019
 30
0.0
 11
-4.33332622
 21
-26.67953941
 31
0.0
  0
LINE
  5
8F
100
AcDbEntity
  8
レイヤー_1
  6
CONTINUOUS
 62
       3
100
AcDbLine
 10
-4.33332622
 20
-26.67953941
 30
0.0
 11
-4.36881171
 21
-26.71187082
 31
0.0
  0
LINE
  5
90
100
AcDbEntity
  8
レイヤー_1
  6
CONTINUOUS
 62
       3
100
AcDbLine
 10
-4.36881171
 20
-26.71187082
 30
0.0
 11
-4.40106743
 21
-26.7474421
 31
0.0
  0
LINE
  5
91
100
AcDbEntity
  8
レイヤー_1
  6
CONTINUOUS
 62
       3
100
AcDbLine
 10
-4.40106743
 20
-26.7474421
 30
0.0
 11
-4.42984104
 21
-26.78600093
 31
0.0
  0
LINE
  5
92
100
AcDbEntity
  8
レイヤー_1
  6
CONTINUOUS
 62
       3
100
AcDbLine
 10
-4.42984104
 20
-26.78600093
 30
0.0
 11
-4.45488022
 21
-26.82729498
 31
0.0
  0
LINE
  5
93
100
AcDbEntity
  8
レイヤー_1
  6
CONTINUOUS
 62
       3
100
AcDbLine
 10
-4.45488022
 20
-26.82729498
 30
0.0
 11
-4.47593265
 21
-26.87107191
 31
0.0
  0
LINE
  5
94
100
AcDbEntity
  8
レイヤー_1
  6
CONTINUOUS
 62
       3
100
AcDbLine
 10
-4.47593265
 20
-26.87107191
 30
0.0
 11
-4.49274599
 21
-26.91707941
 31
0.0
  0
LINE
  5
95
100
AcDbEntity
  8
レイヤー_1
  6
CONTINUOUS
 62
       3
100
AcDbLine
 10
-4.49274599
 20
-26.91707941
 30
0.0
 11
-4.50506793
 21
-26.96506515
 31
0.0
  0
LINE
  5
96
100
AcDbEntity
  8
レイヤー_1
  6
CONTINUOUS
 62
       3
100
AcDbLine
 10
-4.50506793
 20
-26.96506515
 30
0.0
 11
-4.51264613
 21
-27.0147768
 31
0.0
  0
LINE
  5
97
100
AcDbEntity
  8
レイヤー_1
  6
CONTINUOUS
 62
       3
100
AcDbLine
 10
-4.51264613
 20
-27.0147768
 30
0.0
 11
-4.51522827
 21
-27.06596204
 31
0.0
  0
LINE
  5
98
100
AcDbEntity
  8
レイヤー_1
  6
CONTINUOUS
 62
       3
100
AcDbLine
 10
-4.51522827
 20
-27.06596204
 30
0.0
 11
-4.51522827
 21
-27.21800421
 31
0.0
  0
LINE
  5
99
100
AcDbEntity
  8
レイヤー_1
  6
CONTINUOUS
 62
       3
100
AcDbLine
 10
-4.51522827
 20
-27.21800421
 30
0.0
 11
-4.51522827
 21
-27.64768862
 31
0.0
  0
LINE
  5
9A
100
AcDbEntity
  8
レイヤー_1
  6
CONTINUOUS
 62
       3
100
AcDbLine
 10
-4.51522827
 20
-27.64768862
 30
0.0
 11
-4.51522827
 21
-28.31535207
 31
0.0
  0
LINE
  5
9B
100
AcDbEntity
  8
レイヤー_1
  6
CONTINUOUS
 62
       3
100
AcDbLine
 10
-4.51522827
 20
-28.31535207
 30
0.0
 11
-4.51522827
 21
-29.18133141
 31
0.0
  0
LINE
  5
9C
100
AcDbEntity
  8
レイヤー_1
  6
CONTINUOUS
 62
       3
100
AcDbLine
 10
-4.51522827
 20
-29.18133141
 30
0.0
 11
-4.51522827
 21
-30.20596345
 31
0.0
  0
LINE
  5
9D
100
AcDbEntity
  8
レイヤー_1
  6
CONTINUOUS
 62
       3
100
AcDbLine
 10
-4.51522827
 20
-30.20596345
 30
0.0
 11
-4.51522827
 21
-31.34958502
 31
0.0
  0
LINE
  5
9E
100
AcDbEntity
  8
レイヤー_1
  6
CONTINUOUS
 62
       3
100
AcDbLine
 10
-4.51522827
 20
-31.34958502
 30
0.0
 11
-4.51522827
 21
-32.57253294
 31
0.0
  0
LINE
  5
9F
100
AcDbEntity
  8
レイヤー_1
  6
CONTINUOUS
 62
       3
100
AcDbLine
 10
-4.51522827
 20
-32.57253294
 30
0.0
 11
-4.51522827
 21
-33.83514403
 31
0.0
  0
LINE
  5
A0
100
AcDbEntity
  8
レイヤー_1
  6
CONTINUOUS
 62
       3
100
AcDbLine
 10
-4.51522827
 20
-33.83514403
 30
0.0
 11
-4.51522827
 21
-35.09775512
 31
0.0
  0
LINE
  5
A1
100
AcDbEntity
  8
レイヤー_1
  6
CONTINUOUS
 62
       3
100
AcDbLine
 10
-4.51522827
 20
-35.09775512
 30
0.0
 11
-4.51522827
 21
-36.32070304
 31
0.0
  0
LINE
  5
A2
100
AcDbEntity
  8
レイヤー_1
  6
CONTINUOUS
 62
       3
100
AcDbLine
 10
-4.51522827
 20
-36.32070304
 30
0.0
 11
-4.51522827
 21
-37.46432461
 31
0.0
  0
LINE
  5
A3
100
AcDbEntity
  8
レイヤー_1
  6
CONTINUOUS
 62
       3
100
AcDbLine
 10
-4.51522827
 20
-37.46432461
 30
0.0
 11
-4.51522827
 21
-38.48895665
 31
0.0
  0
LINE
  5
A4
100
AcDbEntity
  8
レイヤー_1
  6
CONTINUOUS
 62
       3
100
AcDbLine
 10
-4.51522827
 20
-38.48895665
 30
0.0
 11
-4.51522827
 21
-39.35493599
 31
0.0
  0
LINE
  5
A5
100
AcDbEntity
  8
レイヤー_1
  6
CONTINUOUS
 62
       3
100
AcDbLine
 10
-4.51522827
 20
-39.35493599
 30
0.0
 11
-4.51522827
 21
-40.02259945
 31
0.0
  0
LINE
  5
A6
100
AcDbEntity
  8
レイヤー_1
  6
CONTINUOUS
 62
       3
100
AcDbLine
 10
-4.51522827
 20
-40.02259945
 30
0.0
 11
-4.51522827
 21
-40.45228385
 31
0.0
  0
LINE
  5
A7
100
AcDbEntity
  8
レイヤー_1
  6
CONTINUOUS
 62
       3
100
AcDbLine
 10
-4.51522827
 20
-40.45228385
 30
0.0
 11
-4.51522827
 21
-40.60432602
 31
0.0
  0
LINE
  5
A8
100
AcDbEntity
  8
レイヤー_1
  6
CONTINUOUS
 62
       3
100
AcDbLine
 10
-4.51522827
 20
-40.60432602
 30
0.0
 11
-4.51264613
 21
-40.65544513
 31
0.0
  0
LINE
  5
A9
100
AcDbEntity
  8
レイヤー_1
  6
CONTINUOUS
 62
       3
100
AcDbLine
 10
-4.51264613
 20
-40.65544513
 30
0.0
 11
-4.50506793
 21
-40.70511777
 31
0.0
  0
LINE
  5
AA
100
AcDbEntity
  8
レイヤー_1
  6
CONTINUOUS
 62
       3
100
AcDbLine
 10
-4.50506793
 20
-40.70511777
 30
0.0
 11
-4.49274599
 21
-40.75308848
 31
0.0
  0
LINE
  5
AB
100
AcDbEntity
  8
レイヤー_1
  6
CONTINUOUS
 62
       3
100
AcDbLine
 10
-4.49274599
 20
-40.75308848
 30
0.0
 11
-4.47593265
 21
-40.79910176
 31
0.0
  0
LINE
  5
AC
100
AcDbEntity
  8
レイヤー_1
  6
CONTINUOUS
 62
       3
100
AcDbLine
 10
-4.47593265
 20
-40.79910176
 30
0.0
 11
-4.45488022
 21
-40.84290214
 31
0.0
  0
LINE
  5
AD
100
AcDbEntity
  8
レイヤー_1
  6
CONTINUOUS
 62
       3
100
AcDbLine
 10
-4.45488022
 20
-40.84290214
 30
0.0
 11
-4.42984104
 21
-40.88423414
 31
0.0
  0
LINE
  5
AE
100
AcDbEntity
  8
レイヤー_1
  6
CONTINUOUS
 62
       3
100
AcDbLine
 10
-4.42984104
 20
-40.88423414
 30
0.0
 11
-4.40106743
 21
-40.92284228
 31
0.0
  0
LINE
  5
AF
100
AcDbEntity
  8
レイヤー_1
  6
CONTINUOUS
 62
       3
100
AcDbLine
 10
-4.40106743
 20
-40.92284228
 30
0.0
 11
-4.36881171
 21
-40.95847107
 31
0.0
  0
LINE
  5
B0
100
AcDbEntity
  8
レイヤー_1
  6
CONTINUOUS
 62
       3
100
AcDbLine
 10
-4.36881171
 20
-40.95847107
 30
0.0
 11
-4.33332622
 21
-40.99086504
 31
0.0
  0
LINE
  5
B1
100
AcDbEntity
  8
レイヤー_1
  6
CONTINUOUS
 62
       3
100
AcDbLine
 10
-4.33332622
 20
-40.99086504
 30
0.0
 11
-4.29486327
 21
-41.01976871
 31
0.0
  0
LINE
  5
B2
100
AcDbEntity
  8
レイヤー_1
  6
CONTINUOUS
 62
       3
100
AcDbLine
 10
-4.29486327
 20
-41.01976871
 30
0.0
 11
-4.25367521
 21
-41.04492659
 31
0.0
  0
LINE
  5
B3
100
AcDbEntity
  8
レイヤー_1
  6
CONTINUOUS
 62
       3
100
AcDbLine
 10
-4.25367521
 20
-41.04492659
 30
0.0
 11
-4.21001434
 21
-41.06608321
 31
0.0
  0
LINE
  5
B4
100
AcDbEntity
  8
レイヤー_1
  6
CONTINUOUS
 62
       3
100
AcDbLine
 10
-4.21001434
 20
-41.06608321
 30
0.0
 11
-4.164133
 21
-41.08298308
 31
0.0
  0
LINE
  5
B5
100
AcDbEntity
  8
レイヤー_1
  6
CONTINUOUS
 62
       3
100
AcDbLine
 10
-4.164133
 20
-41.08298308
 30
0.0
 11
-4.11628352
 21
-41.09537072
 31
0.0
  0
LINE
  5
B6
100
AcDbEntity
  8
レイヤー_1
  6
CONTINUOUS
 62
       3
100
AcDbLine
 10
-4.11628352
 20
-41.09537072
 30
0.0
 11
-4.06671822
 21
-41.10299066
 31
0.0
  0
LINE
  5
B7
100
AcDbEntity
  8
レイヤー_1
  6
CONTINUOUS
 62
       3
100
AcDbLine
 10
-4.06671822
 20
-41.10299066
 30
0.0
 11
-4.01568942
 21
-41.10558742
 31
0.0
  0
LINE
  5
B8
100
AcDbEntity
  8
レイヤー_1
  6
CONTINUOUS
 62
       3
100
AcDbLine
 10
-4.01568942
 20
-41.10558742
 30
0.0
 11
-3.83038349
 21
-41.10558742
 31
0.0
  0
LINE
  5
B9
100
AcDbEntity
  8
レイヤー_1
  6
CONTINUOUS
 62
       3
100
AcDbLine
 10
-3.83038349
 20
-41.10558742
 30
0.0
 11
-3.30669281
 21
-41.10558742
 31
0.0
  0
LINE
  5
BA
100
AcDbEntity
  8
レイヤー_1
  6
CONTINUOUS
 62
       3
100
AcDbLine
 10
-3.30669281
 20
-41.10558742
 30
0.0
 11
-2.49295806
 21
-41.10558742
 31
0.0
  0
LINE
  5
BB
100
AcDbEntity
  8
レイヤー_1
  6
CONTINUOUS
 62
       3
100
AcDbLine
 10
-2.49295806
 20
-41.10558742
 30
0.0
 11
-1.43751992
 21
-41.10558742
 31
0.0
  0
LINE
  5
BC
100
AcDbEntity
  8
レイヤー_1
  6
CONTINUOUS
 62
       3
100
AcDbLine
 10
-1.43751992
 20
-41.10558742
 30
0.0
 11
-0.18871907
 21
-41.10558742
 31
0.0
  0
LINE
  5
BD
100
AcDbEntity
  8
レイヤー_1
  6
CONTINUOUS
 62
       3
100
AcDbLine
 10
-0.18871907
 20
-41.10558742
 30
0.0
 11
1.20510382
 21
-41.10558742
 31
0.0
  0
LINE
  5
BE
100
AcDbEntity
  8
レイヤー_1
  6
CONTINUOUS
 62
       3
100
AcDbLine
 10
1.20510382
 20
-41.10558742
 30
0.0
 11
2.69560807
 21
-41.10558742
 31
0.0
  0
LINE
  5
BF
100
AcDbEntity
  8
レイヤー_1
  6
CONTINUOUS
 62
       3
100
AcDbLine
 10
2.69560807
 20
-41.10558742
 30
0.0
 11
4.23445299
 21
-41.10558742
 31
0.0
  0
LINE
  5
C0
100
AcDbEntity
  8
レイヤー_1
  6
CONTINUOUS
 62
       3
100
AcDbLine
 10
4.23445299
 20
-41.10558742
 30
0.0
 11
5.77329791
 21
-41.10558742
 31
0.0
  0
LINE
  5
C1
100
AcDbEntity
  8
レイヤー_1
  6
CONTINUOUS
 62
       3
100
AcDbLine
 10
5.77329791
 20
-41.10558742
 30
0.0
 11
7.26380216
 21
-41.10558742
 31
0.0
  0
LINE
  5
C2
100
AcDbEntity
  8
レイヤー_1
  6
CONTINUOUS
 62
       3
100
AcDbLine
 10
7.26380216
 20
-41.10558742
 30
0.0
 11
8.65762505
 21
-41.10558742
 31
0.0
  0
LINE
  5
C3
100
AcDbEntity
  8
レイヤー_1
  6
CONTINUOUS
 62
       3
100
AcDbLine
 10
8.65762505
 20
-41.10558742
 30
0.0
 11
9.9064259
 21
-41.10558742
 31
0.0
  0
LINE
  5
C4
100
AcDbEntity
  8
レイヤー_1
  6
CONTINUOUS
 62
       3
100
AcDbLine
 10
9.9064259
 20
-41.10558742
 30
0.0
 11
10.96186404
 21
-41.10558742
 31
0.0
  0
LINE
  5
C5
100
AcDbEntity
  8
レイヤー_1
  6
CONTINUOUS
 62
       3
100
AcDbLine
 10
10.96186404
 20
-41.10558742
 30
0.0
 11
11.77559879
 21
-41.10558742
 31
0.0
  0
LINE
  5
C6
100
AcDbEntity
  8
レイヤー_1
  6
CONTINUOUS
 62
       3
100
AcDbLine
 10
11.77559879
 20
-41.10558742
 30
0.0
 11
12.29928947
 21
-41.10558742
 31
0.0
  0
LINE
  5
C7
100
AcDbEntity
  8
レイヤー_1
  6
CONTINUOUS
 62
       3
100
AcDbLine
 10
12.29928947
 20
-41.10558742
 30
0.0
 11
12.4845954
 21
-41.10558742
 31
0.0
  0
LINE
  5
C8
100
AcDbEntity
  8
レイヤー_1
  6
CONTINUOUS
 62
       3
100
AcDbLine
 10
12.48028903
 20
-2.01193576
 30
0.0
 11
12.28833531
 21
-2.01193576
 31
0.0
  0
LINE
  5
C9
100
AcDbEntity
  8
レイヤー_1
  6
CONTINUOUS
 62
       3
100
AcDbLine
 10
12.28833531
 20
-2.01193576
 30
0.0
 11
11.74649124
 21
-2.01193576
 31
0.0
  0
LINE
  5
CA
100
AcDbEntity
  8
レイヤー_1
  6
CONTINUOUS
 62
       3
100
AcDbLine
 10
11.74649124
 20
-2.01193576
 30
0.0
 11
10.90578252
 21
-2.01193576
 31
0.0
  0
LINE
  5
CB
100
AcDbEntity
  8
レイヤー_1
  6
CONTINUOUS
 62
       3
100
AcDbLine
 10
10.90578252
 20
-2.01193576
 30
0.0
 11
9.8172348
 21
-2.01193576
 31
0.0
  0
LINE
  5
CC
100
AcDbEntity
  8
レイヤー_1
  6
CONTINUOUS
 62
       3
100
AcDbLine
 10
9.8172348
 20
-2.01193576
 30
0.0
 11
8.53187377
 21
-2.01193576
 31
0.0
  0
LINE
  5
CD
100
AcDbEntity
  8
レイヤー_1
  6
CONTINUOUS
 62
       3
100
AcDbLine
 10
8.53187377
 20
-2.01193576
 30
0.0
 11
7.1007251
 21
-2.01193576
 31
0.0
  0
LINE
  5
CE
100
AcDbEntity
  8
レイヤー_1
  6
CONTINUOUS
 62
       3
100
AcDbLine
 10
7.1007251
 20
-2.01193576
 30
0.0
 11
5.57481446
 21
-2.01193576
 31
0.0
  0
LINE
  5
CF
100
AcDbEntity
  8
レイヤー_1
  6
CONTINUOUS
 62
       3
100
AcDbLine
 10
5.57481446
 20
-2.01193576
 30
0.0
 11
4.00516753
 21
-2.01193576
 31
0.0
  0
LINE
  5
D0
100
AcDbEntity
  8
レイヤー_1
  6
CONTINUOUS
 62
       3
100
AcDbLine
 10
4.00516753
 20
-2.01193576
 30
0.0
 11
2.44280998
 21
-2.01193576
 31
0.0
  0
LINE
  5
D1
100
AcDbEntity
  8
レイヤー_1
  6
CONTINUOUS
 62
       3
100
AcDbLine
 10
2.44280998
 20
-2.01193576
 30
0.0
 11
0.93876749
 21
-2.01193576
 31
0.0
  0
LINE
  5
D2
100
AcDbEntity
  8
レイヤー_1
  6
CONTINUOUS
 62
       3
100
AcDbLine
 10
0.93876749
 20
-2.01193576
 30
0.0
 11
-0.45593427
 21
-2.01193576
 31
0.0
  0
LINE
  5
D3
100
AcDbEntity
  8
レイヤー_1
  6
CONTINUOUS
 62
       3
100
AcDbLine
 10
-0.45593427
 20
-2.01193576
 30
0.0
 11
-1.69026963
 21
-2.01193576
 31
0.0
  0
LINE
  5
D4
100
AcDbEntity
  8
レイヤー_1
  6
CONTINUOUS
 62
       3
100
AcDbLine
 10
-1.69026963
 20
-2.01193576
 30
0.0
 11
-2.7132129
 21
-2.01193576
 31
0.0
  0
LINE
  5
D5
100
AcDbEntity
  8
レイヤー_1
  6
CONTINUOUS
 62
       3
100
AcDbLine
 10
-2.7132129
 20
-2.01193576
 30
0.0
 11
-3.47373843
 21
-2.01193576
 31
0.0
  0
LINE
  5
D6
100
AcDbEntity
  8
レイヤー_1
  6
CONTINUOUS
 62
       3
100
AcDbLine
 10
-3.47373843
 20
-2.01193576
 30
0.0
 11
-3.92082053
 21
-2.01193576
 31
0.0
  0
LINE
  5
D7
100
AcDbEntity
  8
レイヤー_1
  6
CONTINUOUS
 62
       3
100
AcDbLine
 10
-3.92082053
 20
-2.01193576
 30
0.0
 11
-4.03502278
 21
-2.01171429
 31
0.0
  0
LINE
  5
D8
100
AcDbEntity
  8
レイヤー_1
  6
CONTINUOUS
 62
       3
100
AcDbLine
 10
-4.03502278
 20
-2.01171429
 30
0.0
 11
-4.08670737
 21
-2.00752433
 31
0.0
  0
LINE
  5
D9
100
AcDbEntity
  8
レイヤー_1
  6
CONTINUOUS
 62
       3
100
AcDbLine
 10
-4.08670737
 20
-2.00752433
 30
0.0
 11
-4.1367747
 21
-1.99822537
 31
0.0
  0
LINE
  5
DA
100
AcDbEntity
  8
レイヤー_1
  6
CONTINUOUS
 62
       3
100
AcDbLine
 10
-4.1367747
 20
-1.99822537
 30
0.0
 11
-4.18495976
 21
-1.98408375
 31
0.0
  0
LINE
  5
DB
100
AcDbEntity
  8
レイヤー_1
  6
CONTINUOUS
 62
       3
100
AcDbLine
 10
-4.18495976
 20
-1.98408375
 30
0.0
 11
-4.23099754
 21
-1.96536582
 31
0.0
  0
LINE
  5
DC
100
AcDbEntity
  8
レイヤー_1
  6
CONTINUOUS
 62
       3
100
AcDbLine
 10
-4.23099754
 20
-1.96536582
 30
0.0
 11
-4.27462302
 21
-1.94233792
 31
0.0
  0
LINE
  5
DD
100
AcDbEntity
  8
レイヤー_1
  6
CONTINUOUS
 62
       3
100
AcDbLine
 10
-4.27462302
 20
-1.94233792
 30
0.0
 11
-4.3155712
 21
-1.91526638
 31
0.0
  0
LINE
  5
DE
100
AcDbEntity
  8
レイヤー_1
  6
CONTINUOUS
 62
       3
100
AcDbLine
 10
-4.3155712
 20
-1.91526638
 30
0.0
 11
-4.35357708
 21
-1.88441755
 31
0.0
  0
LINE
  5
DF
100
AcDbEntity
  8
レイヤー_1
  6
CONTINUOUS
 62
       3
100
AcDbLine
 10
-4.35357708
 20
-1.88441755
 30
0.0
 11
-4.38837563
 21
-1.85005778
 31
0.0
  0
LINE
  5
E0
100
AcDbEntity
  8
レイヤー_1
  6
CONTINUOUS
 62
       3
100
AcDbLine
 10
-4.38837563
 20
-1.85005778
 30
0.0
 11
-4.41970185
 21
-1.81245339
 31
0.0
  0
LINE
  5
E1
100
AcDbEntity
  8
レイヤー_1
  6
CONTINUOUS
 62
       3
100
AcDbLine
 10
-4.41970185
 20
-1.81245339
 30
0.0
 11
-4.44729073
 21
-1.77187074
 31
0.0
  0
LINE
  5
E2
100
AcDbEntity
  8
レイヤー_1
  6
CONTINUOUS
 62
       3
100
AcDbLine
 10
-4.44729073
 20
-1.77187074
 30
0.0
 11
-4.47087726
 21
-1.72857616
 31
0.0
  0
LINE
  5
E3
100
AcDbEntity
  8
レイヤー_1
  6
CONTINUOUS
 62
       3
100
AcDbLine
 10
-4.47087726
 20
-1.72857616
 30
0.0
 11
-4.49019644
 21
-1.682836
 31
0.0
  0
LINE
  5
E4
100
AcDbEntity
  8
レイヤー_1
  6
CONTINUOUS
 62
       3
100
AcDbLine
 10
-4.49019644
 20
-1.682836
 30
0.0
 11
-4.50498324
 21
-1.63491659
 31
0.0
  0
LINE
  5
E5
100
AcDbEntity
  8
レイヤー_1
  6
CONTINUOUS
 62
       3
100
AcDbLine
 10
-4.50498324
 20
-1.63491659
 30
0.0
 11
-4.51497267
 21
-1.58508429
 31
0.0
  0
LINE
  5
E6
100
AcDbEntity
  8
レイヤー_1
  6
CONTINUOUS
 62
       3
100
AcDbLine
 10
-4.51497267
 20
-1.58508429
 30
0.0
 11
-4.51989971
 21
-1.53360542
 31
0.0
  0
LINE
  5
E7
100
AcDbEntity
  8
レイヤー_1
  6
CONTINUOUS
 62
       3
100
AcDbLine
 10
-4.51989971
 20
-1.53360542
 30
0.0
 11
-4.52038924
 21
-1.41205458
 31
0.0
  0
LINE
  5
E8
100
AcDbEntity
  8
レイヤー_1
  6
CONTINUOUS
 62
       3
100
AcDbLine
 10
-4.52038924
 20
-1.41205458
 30
0.0
 11
-4.52034768
 21
-0.79460438
 31
0.0
  0
LINE
  5
E9
100
AcDbEntity
  8
レイヤー_1
  6
CONTINUOUS
 62
       3
100
AcDbLine
 10
-4.52034768
 20
-0.79460438
 30
0.0
 11
-4.52027263
 21
0.32025121
 31
0.0
  0
LINE
  5
EA
100
AcDbEntity
  8
レイヤー_1
  6
CONTINUOUS
 62
       3
100
AcDbLine
 10
-4.52027263
 20
0.32025121
 30
0.0
 11
-4.52016943
 21
1.85337952
 31
0.0
  0
LINE
  5
EB
100
AcDbEntity
  8
レイヤー_1
  6
CONTINUOUS
 62
       3
100
AcDbLine
 10
-4.52016943
 20
1.85337952
 30
0.0
 11
-4.5200434
 21
3.72564786
 31
0.0
  0
LINE
  5
EC
100
AcDbEntity
  8
レイヤー_1
  6
CONTINUOUS
 62
       3
100
AcDbLine
 10
-4.5200434
 20
3.72564786
 30
0.0
 11
-4.51989986
 21
5.85792358
 31
0.0
  0
LINE
  5
ED
100
AcDbEntity
  8
レイヤー_1
  6
CONTINUOUS
 62
       3
100
AcDbLine
 10
-4.51989986
 20
5.85792358
 30
0.0
 11
-4.51974415
 21
8.17107397
 31
0.0
  0
LINE
  5
EE
100
AcDbEntity
  8
レイヤー_1
  6
CONTINUOUS
 62
       3
100
AcDbLine
 10
-4.51974415
 20
8.17107397
 30
0.0
 11
-4.5195816
 21
10.58596638
 31
0.0
  0
LINE
  5
EF
100
AcDbEntity
  8
レイヤー_1
  6
CONTINUOUS
 62
       3
100
AcDbLine
 10
-4.5195816
 20
10.58596638
 30
0.0
 11
-4.51941751
 21
13.02346813
 31
0.0
  0
LINE
  5
F0
100
AcDbEntity
  8
レイヤー_1
  6
CONTINUOUS
 62
       3
100
AcDbLine
 10
-4.51941751
 20
13.02346813
 30
0.0
 11
-4.51925724
 21
15.40444654
 31
0.0
  0
LINE
  5
F1
100
AcDbEntity
  8
レイヤー_1
  6
CONTINUOUS
 62
       3
100
AcDbLine
 10
-4.51925724
 20
15.40444654
 30
0.0
 11
-4.51910609
 21
17.64976893
 31
0.0
  0
LINE
  5
F2
100
AcDbEntity
  8
レイヤー_1
  6
CONTINUOUS
 62
       3
100
AcDbLine
 10
-4.51910609
 20
17.64976893
 30
0.0
 11
-4.51896941
 21
19.68030263
 31
0.0
  0
LINE
  5
F3
100
AcDbEntity
  8
レイヤー_1
  6
CONTINUOUS
 62
       3
100
AcDbLine
 10
-4.51896941
 20
19.68030263
 30
0.0
 11
-4.51885251
 21
21.41691496
 31
0.0
  0
LINE
  5
F4
100
AcDbEntity
  8
レイヤー_1
  6
CONTINUOUS
 62
       3
100
AcDbLine
 10
-4.51885251
 20
21.41691496
 30
0.0
 11
-4.51876072
 21
22.78047324
 31
0.0
  0
LINE
  5
F5
100
AcDbEntity
  8
レイヤー_1
  6
CONTINUOUS
 62
       3
100
AcDbLine
 10
-4.51876072
 20
22.78047324
 30
0.0
 11
-4.51869937
 21
23.69184481
 31
0.0
  0
LINE
  5
F6
100
AcDbEntity
  8
レイヤー_1
  6
CONTINUOUS
 62
       3
100
AcDbLine
 10
-4.51869937
 20
23.69184481
 30
0.0
 11
-4.51867379
 21
24.07189698
 31
0.0
  0
LINE
  5
F7
100
AcDbEntity
  8
レイヤー_1
  6
CONTINUOUS
 62
       3
100
AcDbLine
 10
-4.51867379
 20
24.07189698
 30
0.0
 11
-4.75521008
 21
24.07820299
 31
0.0
  0
LINE
  5
F8
100
AcDbEntity
  8
レイヤー_1
  6
CONTINUOUS
 62
       3
100
AcDbLine
 10
-4.75521008
 20
24.07820299
 30
0.0
 11
-5.58019591
 21
24.07820299
 31
0.0
  0
LINE
  5
F9
100
AcDbEntity
  8
レイヤー_1
  6
CONTINUOUS
 62
       3
100
AcDbLine
 10
-5.58019591
 20
24.07820299
 30
0.0
 11
-6.91544648
 21
24.07820299
 31
0.0
  0
LINE
  5
FA
100
AcDbEntity
  8
レイヤー_1
  6
CONTINUOUS
 62
       3
100
AcDbLine
 10
-6.91544648
 20
24.07820299
 30
0.0
 11
-8.67591766
 21
24.07820299
 31
0.0
  0
LINE
  5
FB
100
AcDbEntity
  8
レイヤー_1
  6
CONTINUOUS
 62
       3
100
AcDbLine
 10
-8.67591766
 20
24.07820299
 30
0.0
 11
-10.77656533
 21
24.07820299
 31
0.0
  0
LINE
  5
FC
100
AcDbEntity
  8
レイヤー_1
  6
CONTINUOUS
 62
       3
100
AcDbLine
 10
-10.77656533
 20
24.07820299
 30
0.0
 11
-13.13234536
 21
24.07820299
 31
0.0
  0
LINE
  5
FD
100
AcDbEntity
  8
レイヤー_1
  6
CONTINUOUS
 62
       3
100
AcDbLine
 10
-13.13234536
 20
24.07820299
 30
0.0
 11
-15.65821364
 21
24.07820299
 31
0.0
  0
LINE
  5
FE
100
AcDbEntity
  8
レイヤー_1
  6
CONTINUOUS
 62
       3
100
AcDbLine
 10
-15.65821364
 20
24.07820299
 30
0.0
 11
-18.26912604
 21
24.07820299
 31
0.0
  0
LINE
  5
FF
100
AcDbEntity
  8
レイヤー_1
  6
CONTINUOUS
 62
       3
100
AcDbLine
 10
-18.26912604
 20
24.07820299
 30
0.0
 11
-20.88003844
 21
24.07820299
 31
0.0
  0
LINE
  5
100
100
AcDbEntity
  8
レイヤー_1
  6
CONTINUOUS
 62
       3
100
AcDbLine
 10
-20.88003844
 20
24.07820299
 30
0.0
 11
-23.40590671
 21
24.07820299
 31
0.0
  0
LINE
  5
101
100
AcDbEntity
  8
レイヤー_1
  6
CONTINUOUS
 62
       3
100
AcDbLine
 10
-23.40590671
 20
24.07820299
 30
0.0
 11
-25.76168675
 21
24.07820299
 31
0.0
  0
LINE
  5
102
100
AcDbEntity
  8
レイヤー_1
  6
CONTINUOUS
 62
       3
100
AcDbLine
 10
-25.76168675
 20
24.07820299
 30
0.0
 11
-27.86233441
 21
24.07820299
 31
0.0
  0
LINE
  5
103
100
AcDbEntity
  8
レイヤー_1
  6
CONTINUOUS
 62
       3
100
AcDbLine
 10
-27.86233441
 20
24.07820299
 30
0.0
 11
-29.62280559
 21
24.07820299
 31
0.0
  0
LINE
  5
104
100
AcDbEntity
  8
レイヤー_1
  6
CONTINUOUS
 62
       3
100
AcDbLine
 10
-29.62280559
 20
24.07820299
 30
0.0
 11
-30.95805616
 21
24.07820299
 31
0.0
  0
LINE
  5
105
100
AcDbEntity
  8
レイヤー_1
  6
CONTINUOUS
 62
       3
100
AcDbLine
 10
-30.95805616
 20
24.07820299
 30
0.0
 11
-31.783042
 21
24.07820299
 31
0.0
  0
LINE
  5
106
100
AcDbEntity
  8
レイヤー_1
  6
CONTINUOUS
 62
       3
100
AcDbLine
 10
-31.783042
 20
24.07820299
 30
0.0
 11
-32.02711715
 21
24.07825848
 31
0.0
  0
LINE
  5
107
100
AcDbEntity
  8
レイヤー_1
  6
CONTINUOUS
 62
       3
100
AcDbLine
 10
-32.02711715
 20
24.07825848
 30
0.0
 11
-32.0790804
 21
24.08169685
 31
0.0
  0
LINE
  5
108
100
AcDbEntity
  8
レイヤー_1
  6
CONTINUOUS
 62
       3
100
AcDbLine
 10
-32.0790804
 20
24.08169685
 30
0.0
 11
-32.12944561
 21
24.09028226
 31
0.0
  0
LINE
  5
109
100
AcDbEntity
  8
レイヤー_1
  6
CONTINUOUS
 62
       3
100
AcDbLine
 10
-32.12944561
 20
24.09028226
 30
0.0
 11
-32.17794975
 21
24.10374837
 31
0.0
  0
LINE
  5
10A
100
AcDbEntity
  8
レイヤー_1
  6
CONTINUOUS
 62
       3
100
AcDbLine
 10
-32.17794975
 20
24.10374837
 30
0.0
 11
-32.22432982
 21
24.12182885
 31
0.0
  0
LINE
  5
10B
100
AcDbEntity
  8
レイヤー_1
  6
CONTINUOUS
 62
       3
100
AcDbLine
 10
-32.22432982
 20
24.12182885
 30
0.0
 11
-32.26832281
 21
24.14425735
 31
0.0
  0
LINE
  5
10C
100
AcDbEntity
  8
レイヤー_1
  6
CONTINUOUS
 62
       3
100
AcDbLine
 10
-32.26832281
 20
24.14425735
 30
0.0
 11
-32.3096657
 21
24.17076753
 31
0.0
  0
LINE
  5
10D
100
AcDbEntity
  8
レイヤー_1
  6
CONTINUOUS
 62
       3
100
AcDbLine
 10
-32.3096657
 20
24.17076753
 30
0.0
 11
-32.34809548
 21
24.20109305
 31
0.0
  0
LINE
  5
10E
100
AcDbEntity
  8
レイヤー_1
  6
CONTINUOUS
 62
       3
100
AcDbLine
 10
-32.34809548
 20
24.20109305
 30
0.0
 11
-32.38334915
 21
24.23496757
 31
0.0
  0
LINE
  5
10F
100
AcDbEntity
  8
レイヤー_1
  6
CONTINUOUS
 62
       3
100
AcDbLine
 10
-32.38334915
 20
24.23496757
 30
0.0
 11
-32.41516368
 21
24.27212475
 31
0.0
  0
LINE
  5
110
100
AcDbEntity
  8
レイヤー_1
  6
CONTINUOUS
 62
       3
100
AcDbLine
 10
-32.41516368
 20
24.27212475
 30
0.0
 11
-32.44327606
 21
24.31229824
 31
0.0
  0
LINE
  5
111
100
AcDbEntity
  8
レイヤー_1
  6
CONTINUOUS
 62
       3
100
AcDbLine
 10
-32.44327606
 20
24.31229824
 30
0.0
 11
-32.46742329
 21
24.3552217
 31
0.0
  0
LINE
  5
112
100
AcDbEntity
  8
レイヤー_1
  6
CONTINUOUS
 62
       3
100
AcDbLine
 10
-32.46742329
 20
24.3552217
 30
0.0
 11
-32.48734235
 21
24.4006288
 31
0.0
  0
LINE
  5
113
100
AcDbEntity
  8
レイヤー_1
  6
CONTINUOUS
 62
       3
100
AcDbLine
 10
-32.48734235
 20
24.4006288
 30
0.0
 11
-32.50277023
 21
24.44825319
 31
0.0
  0
LINE
  5
114
100
AcDbEntity
  8
レイヤー_1
  6
CONTINUOUS
 62
       3
100
AcDbLine
 10
-32.50277023
 20
24.44825319
 30
0.0
 11
-32.51344392
 21
24.49782854
 31
0.0
  0
LINE
  5
115
100
AcDbEntity
  8
レイヤー_1
  6
CONTINUOUS
 62
       3
100
AcDbLine
 10
-32.51344392
 20
24.49782854
 30
0.0
 11
-32.5191004
 21
24.54908849
 31
0.0
  0
LINE
  5
116
100
AcDbEntity
  8
レイヤー_1
  6
CONTINUOUS
 62
       3
100
AcDbLine
 10
-32.5191004
 20
24.54908849
 30
0.0
 11
-32.51997883
 21
24.60869311
 31
0.0
  0
LINE
  5
117
100
AcDbEntity
  8
レイヤー_1
  6
CONTINUOUS
 62
       3
100
AcDbLine
 10
-32.51997883
 20
24.60869311
 30
0.0
 11
-32.51997883
 21
24.89434248
 31
0.0
  0
LINE
  5
118
100
AcDbEntity
  8
レイヤー_1
  6
CONTINUOUS
 62
       3
100
AcDbLine
 10
-32.51997883
 20
24.89434248
 30
0.0
 11
-32.51997883
 21
25.44912313
 31
0.0
  0
LINE
  5
119
100
AcDbEntity
  8
レイヤー_1
  6
CONTINUOUS
 62
       3
100
AcDbLine
 10
-32.51997883
 20
25.44912313
 30
0.0
 11
-32.51997883
 21
26.23117017
 31
0.0
  0
LINE
  5
11A
100
AcDbEntity
  8
レイヤー_1
  6
CONTINUOUS
 62
       3
100
AcDbLine
 10
-32.51997883
 20
26.23117017
 30
0.0
 11
-32.51997883
 21
27.19861876
 31
0.0
  0
LINE
  5
11B
100
AcDbEntity
  8
レイヤー_1
  6
CONTINUOUS
 62
       3
100
AcDbLine
 10
-32.51997883
 20
27.19861876
 30
0.0
 11
-32.51997883
 21
28.30960402
 31
0.0
  0
LINE
  5
11C
100
AcDbEntity
  8
レイヤー_1
  6
CONTINUOUS
 62
       3
100
AcDbLine
 10
-32.51997883
 20
28.30960402
 30
0.0
 11
-32.51997883
 21
29.5222611
 31
0.0
  0
LINE
  5
11D
100
AcDbEntity
  8
レイヤー_1
  6
CONTINUOUS
 62
       3
100
AcDbLine
 10
-32.51997883
 20
29.5222611
 30
0.0
 11
-32.51997883
 21
30.79472512
 31
0.0
  0
LINE
  5
11E
100
AcDbEntity
  8
レイヤー_1
  6
CONTINUOUS
 62
       3
100
AcDbLine
 10
-32.51997883
 20
30.79472512
 30
0.0
 11
-32.51997883
 21
32.08513122
 31
0.0
  0
LINE
  5
11F
100
AcDbEntity
  8
レイヤー_1
  6
CONTINUOUS
 62
       3
100
AcDbLine
 10
-32.51997883
 20
32.08513122
 30
0.0
 11
-32.51997883
 21
33.35161455
 31
0.0
  0
LINE
  5
120
100
AcDbEntity
  8
レイヤー_1
  6
CONTINUOUS
 62
       3
100
AcDbLine
 10
-32.51997883
 20
33.35161455
 30
0.0
 11
-32.51997883
 21
34.55231024
 31
0.0
  0
LINE
  5
121
100
AcDbEntity
  8
レイヤー_1
  6
CONTINUOUS
 62
       3
100
AcDbLine
 10
-32.51997883
 20
34.55231024
 30
0.0
 11
-32.51997883
 21
35.64535341
 31
0.0
  0
LINE
  5
122
100
AcDbEntity
  8
レイヤー_1
  6
CONTINUOUS
 62
       3
100
AcDbLine
 10
-32.51997883
 20
35.64535341
 30
0.0
 11
-32.51997883
 21
36.58887922
 31
0.0
  0
LINE
  5
123
100
AcDbEntity
  8
レイヤー_1
  6
CONTINUOUS
 62
       3
100
AcDbLine
 10
-32.51997883
 20
36.58887922
 30
0.0
 11
-32.51997883
 21
37.34102279
 31
0.0
  0
LINE
  5
124
100
AcDbEntity
  8
レイヤー_1
  6
CONTINUOUS
 62
       3
100
AcDbLine
 10
-32.51997883
 20
37.34102279
 30
0.0
 11
-32.51997883
 21
37.85991927
 31
0.0
  0
LINE
  5
125
100
AcDbEntity
  8
レイヤー_1
  6
CONTINUOUS
 62
       3
100
AcDbLine
 10
-32.51997883
 20
37.85991927
 30
0.0
 11
-32.51997883
 21
38.10370378
 31
0.0
  0
LINE
  5
126
100
AcDbEntity
  8
レイヤー_1
  6
CONTINUOUS
 62
       3
100
AcDbLine
 10
-32.51997883
 20
38.10370378
 30
0.0
 11
-32.24948319
 21
38.11696709
 31
0.0
  0
LINE
  5
127
100
AcDbEntity
  8
レイヤー_1
  6
CONTINUOUS
 62
       3
100
AcDbLine
 10
-32.24948319
 20
38.11696709
 30
0.0
 11
-31.03008882
 21
38.11696709
 31
0.0
  0
LINE
  5
128
100
AcDbEntity
  8
レイヤー_1
  6
CONTINUOUS
 62
       3
100
AcDbLine
 10
-31.03008882
 20
38.11696709
 30
0.0
 11
-28.95579296
 21
38.11696709
 31
0.0
  0
LINE
  5
129
100
AcDbEntity
  8
レイヤー_1
  6
CONTINUOUS
 62
       3
100
AcDbLine
 10
-28.95579296
 20
38.11696709
 30
0.0
 11
-26.16576563
 21
38.11696709
 31
0.0
  0
LINE
  5
12A
100
AcDbEntity
  8
レイヤー_1
  6
CONTINUOUS
 62
       3
100
AcDbLine
 10
-26.16576563
 20
38.11696709
 30
0.0
 11
-22.79917683
 21
38.11696709
 31
0.0
  0
LINE
  5
12B
100
AcDbEntity
  8
レイヤー_1
  6
CONTINUOUS
 62
       3
100
AcDbLine
 10
-22.79917683
 20
38.11696709
 30
0.0
 11
-18.99519657
 21
38.11696709
 31
0.0
  0
LINE
  5
12C
100
AcDbEntity
  8
レイヤー_1
  6
CONTINUOUS
 62
       3
100
AcDbLine
 10
-18.99519657
 20
38.11696709
 30
0.0
 11
-14.89299487
 21
38.11696709
 31
0.0
  0
LINE
  5
12D
100
AcDbEntity
  8
レイヤー_1
  6
CONTINUOUS
 62
       3
100
AcDbLine
 10
-14.89299487
 20
38.11696709
 30
0.0
 11
-10.63174172
 21
38.11696709
 31
0.0
  0
LINE
  5
12E
100
AcDbEntity
  8
レイヤー_1
  6
CONTINUOUS
 62
       3
100
AcDbLine
 10
-10.63174172
 20
38.11696709
 30
0.0
 11
-6.35060715
 21
38.11696709
 31
0.0
  0
LINE
  5
12F
100
AcDbEntity
  8
レイヤー_1
  6
CONTINUOUS
 62
       3
100
AcDbLine
 10
-6.35060715
 20
38.11696709
 30
0.0
 11
-2.18876115
 21
38.11696709
 31
0.0
  0
LINE
  5
130
100
AcDbEntity
  8
レイヤー_1
  6
CONTINUOUS
 62
       3
100
AcDbLine
 10
-2.18876115
 20
38.11696709
 30
0.0
 11
1.71462626
 21
38.11696709
 31
0.0
  0
LINE
  5
131
100
AcDbEntity
  8
レイヤー_1
  6
CONTINUOUS
 62
       3
100
AcDbLine
 10
1.71462626
 20
38.11696709
 30
0.0
 11
5.22038507
 21
38.11696709
 31
0.0
  0
LINE
  5
132
100
AcDbEntity
  8
レイヤー_1
  6
CONTINUOUS
 62
       3
100
AcDbLine
 10
5.22038507
 20
38.11696709
 30
0.0
 11
8.18934527
 21
38.11696709
 31
0.0
  0
LINE
  5
133
100
AcDbEntity
  8
レイヤー_1
  6
CONTINUOUS
 62
       3
100
AcDbLine
 10
8.18934527
 20
38.11696709
 30
0.0
 11
10.48233685
 21
38.11696709
 31
0.0
  0
LINE
  5
134
100
AcDbEntity
  8
レイヤー_1
  6
CONTINUOUS
 62
       3
100
AcDbLine
 10
10.48233685
 20
38.11696709
 30
0.0
 11
11.96018981
 21
38.11696709
 31
0.0
  0
LINE
  5
135
100
AcDbEntity
  8
レイヤー_1
  6
CONTINUOUS
 62
       3
100
AcDbLine
 10
11.96018981
 20
38.11696709
 30
0.0
 11
12.48373413
 21
38.11696709
 31
0.0
  0
LINE
  5
136
100
AcDbEntity
  8
レイヤー_1
  6
CONTINUOUS
 62
       3
100
AcDbLine
 10
-4.51867336
 20
11.03248766
 30
0.0
 11
-4.65865514
 21
11.03248766
 31
0.0
  0
LINE
  5
137
100
AcDbEntity
  8
レイヤー_1
  6
CONTINUOUS
 62
       3
100
AcDbLine
 10
-4.65865514
 20
11.03248766
 30
0.0
 11
-5.05527019
 21
11.03248766
 31
0.0
  0
LINE
  5
138
100
AcDbEntity
  8
レイヤー_1
  6
CONTINUOUS
 62
       3
100
AcDbLine
 10
-5.05527019
 20
11.03248766
 30
0.0
 11
-5.67352306
 21
11.03248766
 31
0.0
  0
LINE
  5
139
100
AcDbEntity
  8
レイヤー_1
  6
CONTINUOUS
 62
       3
100
AcDbLine
 10
-5.67352306
 20
11.03248766
 30
0.0
 11
-6.4784183
 21
11.03248766
 31
0.0
  0
LINE
  5
13A
100
AcDbEntity
  8
レイヤー_1
  6
CONTINUOUS
 62
       3
100
AcDbLine
 10
-6.4784183
 20
11.03248766
 30
0.0
 11
-7.43496047
 21
11.03248766
 31
0.0
  0
LINE
  5
13B
100
AcDbEntity
  8
レイヤー_1
  6
CONTINUOUS
 62
       3
100
AcDbLine
 10
-7.43496047
 20
11.03248766
 30
0.0
 11
-8.50815413
 21
11.03248766
 31
0.0
  0
LINE
  5
13C
100
AcDbEntity
  8
レイヤー_1
  6
CONTINUOUS
 62
       3
100
AcDbLine
 10
-8.50815413
 20
11.03248766
 30
0.0
 11
-9.66300382
 21
11.03248766
 31
0.0
  0
LINE
  5
13D
100
AcDbEntity
  8
レイヤー_1
  6
CONTINUOUS
 62
       3
100
AcDbLine
 10
-9.66300382
 20
11.03248766
 30
0.0
 11
-10.86451411
 21
11.03248766
 31
0.0
  0
LINE
  5
13E
100
AcDbEntity
  8
レイヤー_1
  6
CONTINUOUS
 62
       3
100
AcDbLine
 10
-10.86451411
 20
11.03248766
 30
0.0
 11
-12.07768955
 21
11.03248766
 31
0.0
  0
LINE
  5
13F
100
AcDbEntity
  8
レイヤー_1
  6
CONTINUOUS
 62
       3
100
AcDbLine
 10
-12.07768955
 20
11.03248766
 30
0.0
 11
-13.26753469
 21
11.03248766
 31
0.0
  0
LINE
  5
140
100
AcDbEntity
  8
レイヤー_1
  6
CONTINUOUS
 62
       3
100
AcDbLine
 10
-13.26753469
 20
11.03248766
 30
0.0
 11
-14.39905409
 21
11.03248766
 31
0.0
  0
LINE
  5
141
100
AcDbEntity
  8
レイヤー_1
  6
CONTINUOUS
 62
       3
100
AcDbLine
 10
-14.39905409
 20
11.03248766
 30
0.0
 11
-15.4372523
 21
11.03248766
 31
0.0
  0
LINE
  5
142
100
AcDbEntity
  8
レイヤー_1
  6
CONTINUOUS
 62
       3
100
AcDbLine
 10
-15.4372523
 20
11.03248766
 30
0.0
 11
-16.34713388
 21
11.03248766
 31
0.0
  0
LINE
  5
143
100
AcDbEntity
  8
レイヤー_1
  6
CONTINUOUS
 62
       3
100
AcDbLine
 10
-16.34713388
 20
11.03248766
 30
0.0
 11
-17.09370338
 21
11.03248766
 31
0.0
  0
LINE
  5
144
100
AcDbEntity
  8
レイヤー_1
  6
CONTINUOUS
 62
       3
100
AcDbLine
 10
-17.09370338
 20
11.03248766
 30
0.0
 11
-17.64196535
 21
11.03248766
 31
0.0
  0
LINE
  5
145
100
AcDbEntity
  8
レイヤー_1
  6
CONTINUOUS
 62
       3
100
AcDbLine
 10
-17.64196535
 20
11.03248766
 30
0.0
 11
-17.95692436
 21
11.03248766
 31
0.0
  0
LINE
  5
146
100
AcDbEntity
  8
レイヤー_1
  6
CONTINUOUS
 62
       3
100
AcDbLine
 10
-17.95692436
 20
11.03248766
 30
0.0
 11
-18.03652629
 21
11.03275603
 31
0.0
  0
LINE
  5
147
100
AcDbEntity
  8
レイヤー_1
  6
CONTINUOUS
 62
       3
100
AcDbLine
 10
-18.03652629
 20
11.03275603
 30
0.0
 11
-18.08525863
 21
11.03671526
 31
0.0
  0
LINE
  5
148
100
AcDbEntity
  8
レイヤー_1
  6
CONTINUOUS
 62
       3
100
AcDbLine
 10
-18.08525863
 20
11.03671526
 30
0.0
 11
-18.13255999
 21
11.04523161
 31
0.0
  0
LINE
  5
149
100
AcDbEntity
  8
レイヤー_1
  6
CONTINUOUS
 62
       3
100
AcDbLine
 10
-18.13255999
 20
11.04523161
 30
0.0
 11
-18.17820825
 21
11.05808127
 31
0.0
  0
LINE
  5
14A
100
AcDbEntity
  8
レイヤー_1
  6
CONTINUOUS
 62
       3
100
AcDbLine
 10
-18.17820825
 20
11.05808127
 30
0.0
 11
-18.22198126
 21
11.07504045
 31
0.0
  0
LINE
  5
14B
100
AcDbEntity
  8
レイヤー_1
  6
CONTINUOUS
 62
       3
100
AcDbLine
 10
-18.22198126
 20
11.07504045
 30
0.0
 11
-18.26365692
 21
11.09588535
 31
0.0
  0
LINE
  5
14C
100
AcDbEntity
  8
レイヤー_1
  6
CONTINUOUS
 62
       3
100
AcDbLine
 10
-18.26365692
 20
11.09588535
 30
0.0
 11
-18.30301309
 21
11.12039217
 31
0.0
  0
LINE
  5
14D
100
AcDbEntity
  8
レイヤー_1
  6
CONTINUOUS
 62
       3
100
AcDbLine
 10
-18.30301309
 20
11.12039217
 30
0.0
 11
-18.33982765
 21
11.1483371
 31
0.0
  0
LINE
  5
14E
100
AcDbEntity
  8
レイヤー_1
  6
CONTINUOUS
 62
       3
100
AcDbLine
 10
-18.33982765
 20
11.1483371
 30
0.0
 11
-18.37387847
 21
11.17949634
 31
0.0
  0
LINE
  5
14F
100
AcDbEntity
  8
レイヤー_1
  6
CONTINUOUS
 62
       3
100
AcDbLine
 10
-18.37387847
 20
11.17949634
 30
0.0
 11
-18.40494343
 21
11.2136461
 31
0.0
  0
LINE
  5
150
100
AcDbEntity
  8
レイヤー_1
  6
CONTINUOUS
 62
       3
100
AcDbLine
 10
-18.40494343
 20
11.2136461
 30
0.0
 11
-18.4328004
 21
11.25056258
 31
0.0
  0
LINE
  5
151
100
AcDbEntity
  8
レイヤー_1
  6
CONTINUOUS
 62
       3
100
AcDbLine
 10
-18.4328004
 20
11.25056258
 30
0.0
 11
-18.45722725
 21
11.29002197
 31
0.0
  0
LINE
  5
152
100
AcDbEntity
  8
レイヤー_1
  6
CONTINUOUS
 62
       3
100
AcDbLine
 10
-18.45722725
 20
11.29002197
 30
0.0
 11
-18.47800185
 21
11.33180047
 31
0.0
  0
LINE
  5
153
100
AcDbEntity
  8
レイヤー_1
  6
CONTINUOUS
 62
       3
100
AcDbLine
 10
-18.47800185
 20
11.33180047
 30
0.0
 11
-18.49490209
 21
11.37567429
 31
0.0
  0
LINE
  5
154
100
AcDbEntity
  8
レイヤー_1
  6
CONTINUOUS
 62
       3
100
AcDbLine
 10
-18.49490209
 20
11.37567429
 30
0.0
 11
-18.50770584
 21
11.42141962
 31
0.0
  0
LINE
  5
155
100
AcDbEntity
  8
レイヤー_1
  6
CONTINUOUS
 62
       3
100
AcDbLine
 10
-18.50770584
 20
11.42141962
 30
0.0
 11
-18.51619096
 21
11.46881267
 31
0.0
  0
LINE
  5
156
100
AcDbEntity
  8
レイヤー_1
  6
CONTINUOUS
 62
       3
100
AcDbLine
 10
-18.51619096
 20
11.46881267
 30
0.0
 11
-18.52013534
 21
11.51762963
 31
0.0
  0
LINE
  5
157
100
AcDbEntity
  8
レイヤー_1
  6
CONTINUOUS
 62
       3
100
AcDbLine
 10
-18.52013534
 20
11.51762963
 30
0.0
 11
-18.52040269
 21
11.59274311
 31
0.0
  0
LINE
  5
158
100
AcDbEntity
  8
レイヤー_1
  6
CONTINUOUS
 62
       3
100
AcDbLine
 10
-18.52040269
 20
11.59274311
 30
0.0
 11
-18.52040269
 21
11.88515913
 31
0.0
  0
LINE
  5
159
100
AcDbEntity
  8
レイヤー_1
  6
CONTINUOUS
 62
       3
100
AcDbLine
 10
-18.52040269
 20
11.88515913
 30
0.0
 11
-18.52040269
 21
12.39417959
 31
0.0
  0
LINE
  5
15A
100
AcDbEntity
  8
レイヤー_1
  6
CONTINUOUS
 62
       3
100
AcDbLine
 10
-18.52040269
 20
12.39417959
 30
0.0
 11
-18.52040269
 21
13.08731384
 31
0.0
  0
LINE
  5
15B
100
AcDbEntity
  8
レイヤー_1
  6
CONTINUOUS
 62
       3
100
AcDbLine
 10
-18.52040269
 20
13.08731384
 30
0.0
 11
-18.52040269
 21
13.93207121
 31
0.0
  0
LINE
  5
15C
100
AcDbEntity
  8
レイヤー_1
  6
CONTINUOUS
 62
       3
100
AcDbLine
 10
-18.52040269
 20
13.93207121
 30
0.0
 11
-18.52040269
 21
14.89596102
 31
0.0
  0
LINE
  5
15D
100
AcDbEntity
  8
レイヤー_1
  6
CONTINUOUS
 62
       3
100
AcDbLine
 10
-18.52040269
 20
14.89596102
 30
0.0
 11
-18.52040269
 21
15.94649262
 31
0.0
  0
LINE
  5
15E
100
AcDbEntity
  8
レイヤー_1
  6
CONTINUOUS
 62
       3
100
AcDbLine
 10
-18.52040269
 20
15.94649262
 30
0.0
 11
-18.52040269
 21
17.05117533
 31
0.0
  0
LINE
  5
15F
100
AcDbEntity
  8
レイヤー_1
  6
CONTINUOUS
 62
       3
100
AcDbLine
 10
-18.52040269
 20
17.05117533
 30
0.0
 11
-18.52040269
 21
18.17751849
 31
0.0
  0
LINE
  5
160
100
AcDbEntity
  8
レイヤー_1
  6
CONTINUOUS
 62
       3
100
AcDbLine
 10
-18.52040269
 20
18.17751849
 30
0.0
 11
-18.52040269
 21
19.29303142
 31
0.0
  0
LINE
  5
161
100
AcDbEntity
  8
レイヤー_1
  6
CONTINUOUS
 62
       3
100
AcDbLine
 10
-18.52040269
 20
19.29303142
 30
0.0
 11
-18.52040269
 21
20.36522346
 31
0.0
  0
LINE
  5
162
100
AcDbEntity
  8
レイヤー_1
  6
CONTINUOUS
 62
       3
100
AcDbLine
 10
-18.52040269
 20
20.36522346
 30
0.0
 11
-18.52040269
 21
21.36160395
 31
0.0
  0
LINE
  5
163
100
AcDbEntity
  8
レイヤー_1
  6
CONTINUOUS
 62
       3
100
AcDbLine
 10
-18.52040269
 20
21.36160395
 30
0.0
 11
-18.52040269
 21
22.24968221
 31
0.0
  0
LINE
  5
164
100
AcDbEntity
  8
レイヤー_1
  6
CONTINUOUS
 62
       3
100
AcDbLine
 10
-18.52040269
 20
22.24968221
 30
0.0
 11
-18.52040269
 21
22.99696757
 31
0.0
  0
LINE
  5
165
100
AcDbEntity
  8
レイヤー_1
  6
CONTINUOUS
 62
       3
100
AcDbLine
 10
-18.52040269
 20
22.99696757
 30
0.0
 11
-18.52040269
 21
23.57096937
 31
0.0
  0
LINE
  5
166
100
AcDbEntity
  8
レイヤー_1
  6
CONTINUOUS
 62
       3
100
AcDbLine
 10
-18.52040269
 20
23.57096937
 30
0.0
 11
-18.52040269
 21
23.93919694
 31
0.0
  0
LINE
  5
167
100
AcDbEntity
  8
レイヤー_1
  6
CONTINUOUS
 62
       3
100
AcDbLine
 10
-18.52040269
 20
23.93919694
 30
0.0
 11
-18.52040269
 21
24.06915961
 31
0.0
  0
LINE
  5
168
100
AcDbEntity
  8
レイヤー_1
  6
CONTINUOUS
 62
       3
100
AcDbLine
 10
12.46909247
 20
-43.36470878
 30
0.0
 11
12.46364069
 21
-43.36470878
 31
0.0
  0
LINE
  5
169
100
AcDbEntity
  8
レイヤー_1
  6
CONTINUOUS
 62
       3
100
AcDbLine
 10
12.46364069
 20
-43.36470878
 30
0.0
 11
12.44821825
 21
-43.36470878
 31
0.0
  0
LINE
  5
16A
100
AcDbEntity
  8
レイヤー_1
  6
CONTINUOUS
 62
       3
100
AcDbLine
 10
12.44821825
 20
-43.36470878
 30
0.0
 11
12.42422455
 21
-43.36470878
 31
0.0
  0
LINE
  5
16B
100
AcDbEntity
  8
レイヤー_1
  6
CONTINUOUS
 62
       3
100
AcDbLine
 10
12.42422455
 20
-43.36470878
 30
0.0
 11
12.39305899
 21
-43.36470878
 31
0.0
  0
LINE
  5
16C
100
AcDbEntity
  8
レイヤー_1
  6
CONTINUOUS
 62
       3
100
AcDbLine
 10
12.39305899
 20
-43.36470878
 30
0.0
 11
12.35612094
 21
-43.36470878
 31
0.0
  0
LINE
  5
16D
100
AcDbEntity
  8
レイヤー_1
  6
CONTINUOUS
 62
       3
100
AcDbLine
 10
12.35612094
 20
-43.36470878
 30
0.0
 11
12.3148098
 21
-43.36470878
 31
0.0
  0
LINE
  5
16E
100
AcDbEntity
  8
レイヤー_1
  6
CONTINUOUS
 62
       3
100
AcDbLine
 10
12.3148098
 20
-43.36470878
 30
0.0
 11
12.27052496
 21
-43.36470878
 31
0.0
  0
LINE
  5
16F
100
AcDbEntity
  8
レイヤー_1
  6
CONTINUOUS
 62
       3
100
AcDbLine
 10
12.27052496
 20
-43.36470878
 30
0.0
 11
12.22466581
 21
-43.36470878
 31
0.0
  0
LINE
  5
170
100
AcDbEntity
  8
レイヤー_1
  6
CONTINUOUS
 62
       3
100
AcDbLine
 10
12.22466581
 20
-43.36470878
 30
0.0
 11
12.17863173
 21
-43.36470878
 31
0.0
  0
LINE
  5
171
100
AcDbEntity
  8
レイヤー_1
  6
CONTINUOUS
 62
       3
100
AcDbLine
 10
12.17863173
 20
-43.36470878
 30
0.0
 11
12.13382212
 21
-43.36470878
 31
0.0
  0
LINE
  5
172
100
AcDbEntity
  8
レイヤー_1
  6
CONTINUOUS
 62
       3
100
AcDbLine
 10
12.13382212
 20
-43.36470878
 30
0.0
 11
12.09163636
 21
-43.36470878
 31
0.0
  0
LINE
  5
173
100
AcDbEntity
  8
レイヤー_1
  6
CONTINUOUS
 62
       3
100
AcDbLine
 10
12.09163636
 20
-43.36470878
 30
0.0
 11
12.05347385
 21
-43.36470878
 31
0.0
  0
LINE
  5
174
100
AcDbEntity
  8
レイヤー_1
  6
CONTINUOUS
 62
       3
100
AcDbLine
 10
12.05347385
 20
-43.36470878
 30
0.0
 11
12.02073397
 21
-43.36470878
 31
0.0
  0
LINE
  5
175
100
AcDbEntity
  8
レイヤー_1
  6
CONTINUOUS
 62
       3
100
AcDbLine
 10
12.02073397
 20
-43.36470878
 30
0.0
 11
11.99481611
 21
-43.36470878
 31
0.0
  0
LINE
  5
176
100
AcDbEntity
  8
レイヤー_1
  6
CONTINUOUS
 62
       3
100
AcDbLine
 10
11.99481611
 20
-43.36470878
 30
0.0
 11
11.97711967
 21
-43.36470878
 31
0.0
  0
LINE
  5
177
100
AcDbEntity
  8
レイヤー_1
  6
CONTINUOUS
 62
       3
100
AcDbLine
 10
11.97711967
 20
-43.36470878
 30
0.0
 11
11.96904402
 21
-43.36470878
 31
0.0
  0
LINE
  5
178
100
AcDbEntity
  8
レイヤー_1
  6
CONTINUOUS
 62
       3
100
AcDbLine
 10
11.96904402
 20
-43.36470878
 30
0.0
 11
11.79830222
 21
-43.37109147
 31
0.0
  0
LINE
  5
179
100
AcDbEntity
  8
レイヤー_1
  6
CONTINUOUS
 62
       3
100
AcDbLine
 10
11.79830222
 20
-43.37109147
 30
0.0
 11
11.57656153
 21
-43.39890546
 31
0.0
  0
LINE
  5
17A
100
AcDbEntity
  8
レイヤー_1
  6
CONTINUOUS
 62
       3
100
AcDbLine
 10
11.57656153
 20
-43.39890546
 30
0.0
 11
11.36203637
 21
-43.44778675
 31
0.0
  0
LINE
  5
17B
100
AcDbEntity
  8
レイヤー_1
  6
CONTINUOUS
 62
       3
100
AcDbLine
 10
11.36203637
 20
-43.44778675
 30
0.0
 11
11.1558082
 21
-43.5166509
 31
0.0
  0
LINE
  5
17C
100
AcDbEntity
  8
レイヤー_1
  6
CONTINUOUS
 62
       3
100
AcDbLine
 10
11.1558082
 20
-43.5166509
 30
0.0
 11
10.95895846
 21
-43.60441342
 31
0.0
  0
LINE
  5
17D
100
AcDbEntity
  8
レイヤー_1
  6
CONTINUOUS
 62
       3
100
AcDbLine
 10
10.95895846
 20
-43.60441342
 30
0.0
 11
10.77256861
 21
-43.70998986
 31
0.0
  0
LINE
  5
17E
100
AcDbEntity
  8
レイヤー_1
  6
CONTINUOUS
 62
       3
100
AcDbLine
 10
10.77256861
 20
-43.70998986
 30
0.0
 11
10.59772012
 21
-43.83229574
 31
0.0
  0
LINE
  5
17F
100
AcDbEntity
  8
レイヤー_1
  6
CONTINUOUS
 62
       3
100
AcDbLine
 10
10.59772012
 20
-43.83229574
 30
0.0
 11
10.43549442
 21
-43.9702466
 31
0.0
  0
LINE
  5
180
100
AcDbEntity
  8
レイヤー_1
  6
CONTINUOUS
 62
       3
100
AcDbLine
 10
10.43549442
 20
-43.9702466
 30
0.0
 11
10.28697299
 21
-44.12275798
 31
0.0
  0
LINE
  5
181
100
AcDbEntity
  8
レイヤー_1
  6
CONTINUOUS
 62
       3
100
AcDbLine
 10
10.28697299
 20
-44.12275798
 30
0.0
 11
10.15323728
 21
-44.2887454
 31
0.0
  0
LINE
  5
182
100
AcDbEntity
  8
レイヤー_1
  6
CONTINUOUS
 62
       3
100
AcDbLine
 10
10.15323728
 20
-44.2887454
 30
0.0
 11
10.03536873
 21
-44.4671244
 31
0.0
  0
LINE
  5
183
100
AcDbEntity
  8
レイヤー_1
  6
CONTINUOUS
 62
       3
100
AcDbLine
 10
10.03536873
 20
-44.4671244
 30
0.0
 11
9.93444882
 21
-44.65681052
 31
0.0
  0
LINE
  5
184
100
AcDbEntity
  8
レイヤー_1
  6
CONTINUOUS
 62
       3
100
AcDbLine
 10
9.93444882
 20
-44.65681052
 30
0.0
 11
9.85155899
 21
-44.85671929
 31
0.0
  0
LINE
  5
185
100
AcDbEntity
  8
レイヤー_1
  6
CONTINUOUS
 62
       3
100
AcDbLine
 10
9.85155899
 20
-44.85671929
 30
0.0
 11
9.7877807
 21
-45.06576623
 31
0.0
  0
LINE
  5
186
100
AcDbEntity
  8
レイヤー_1
  6
CONTINUOUS
 62
       3
100
AcDbLine
 10
9.7877807
 20
-45.06576623
 30
0.0
 11
9.7441954
 21
-45.28286689
 31
0.0
  0
LINE
  5
187
100
AcDbEntity
  8
レイヤー_1
  6
CONTINUOUS
 62
       3
100
AcDbLine
 10
9.7441954
 20
-45.28286689
 30
0.0
 11
9.72188455
 21
-45.5069368
 31
0.0
  0
LINE
  5
188
100
AcDbEntity
  8
レイヤー_1
  6
CONTINUOUS
 62
       3
100
AcDbLine
 10
9.72188455
 20
-45.5069368
 30
0.0
 11
9.72188455
 21
-45.73559319
 31
0.0
  0
LINE
  5
189
100
AcDbEntity
  8
レイヤー_1
  6
CONTINUOUS
 62
       3
100
AcDbLine
 10
9.72188455
 20
-45.73559319
 30
0.0
 11
9.7441954
 21
-45.95972401
 31
0.0
  0
LINE
  5
18A
100
AcDbEntity
  8
レイヤー_1
  6
CONTINUOUS
 62
       3
100
AcDbLine
 10
9.7441954
 20
-45.95972401
 30
0.0
 11
9.7877807
 21
-46.17686872
 31
0.0
  0
LINE
  5
18B
100
AcDbEntity
  8
レイヤー_1
  6
CONTINUOUS
 62
       3
100
AcDbLine
 10
9.7877807
 20
-46.17686872
 30
0.0
 11
9.85155899
 21
-46.38594466
 31
0.0
  0
LINE
  5
18C
100
AcDbEntity
  8
レイヤー_1
  6
CONTINUOUS
 62
       3
100
AcDbLine
 10
9.85155899
 20
-46.38594466
 30
0.0
 11
9.93444882
 21
-46.58586918
 31
0.0
  0
LINE
  5
18D
100
AcDbEntity
  8
レイヤー_1
  6
CONTINUOUS
 62
       3
100
AcDbLine
 10
9.93444882
 20
-46.58586918
 30
0.0
 11
10.03536873
 21
-46.7755596
 31
0.0
  0
LINE
  5
18E
100
AcDbEntity
  8
レイヤー_1
  6
CONTINUOUS
 62
       3
100
AcDbLine
 10
10.03536873
 20
-46.7755596
 30
0.0
 11
10.15323728
 21
-46.95393328
 31
0.0
  0
LINE
  5
18F
100
AcDbEntity
  8
レイヤー_1
  6
CONTINUOUS
 62
       3
100
AcDbLine
 10
10.15323728
 20
-46.95393328
 30
0.0
 11
10.28697299
 21
-47.11990755
 31
0.0
  0
LINE
  5
190
100
AcDbEntity
  8
レイヤー_1
  6
CONTINUOUS
 62
       3
100
AcDbLine
 10
10.28697299
 20
-47.11990755
 30
0.0
 11
10.43549442
 21
-47.27239975
 31
0.0
  0
LINE
  5
191
100
AcDbEntity
  8
レイヤー_1
  6
CONTINUOUS
 62
       3
100
AcDbLine
 10
10.43549442
 20
-47.27239975
 30
0.0
 11
10.59772012
 21
-47.41032722
 31
0.0
  0
LINE
  5
192
100
AcDbEntity
  8
レイヤー_1
  6
CONTINUOUS
 62
       3
100
AcDbLine
 10
10.59772012
 20
-47.41032722
 30
0.0
 11
10.77256861
 21
-47.53260731
 31
0.0
  0
LINE
  5
193
100
AcDbEntity
  8
レイヤー_1
  6
CONTINUOUS
 62
       3
100
AcDbLine
 10
10.77256861
 20
-47.53260731
 30
0.0
 11
10.95895846
 21
-47.63815734
 31
0.0
  0
LINE
  5
194
100
AcDbEntity
  8
レイヤー_1
  6
CONTINUOUS
 62
       3
100
AcDbLine
 10
10.95895846
 20
-47.63815734
 30
0.0
 11
11.1558082
 21
-47.72589467
 31
0.0
  0
LINE
  5
195
100
AcDbEntity
  8
レイヤー_1
  6
CONTINUOUS
 62
       3
100
AcDbLine
 10
11.1558082
 20
-47.72589467
 30
0.0
 11
11.36203637
 21
-47.79473663
 31
0.0
  0
LINE
  5
196
100
AcDbEntity
  8
レイヤー_1
  6
CONTINUOUS
 62
       3
100
AcDbLine
 10
11.36203637
 20
-47.79473663
 30
0.0
 11
11.57656153
 21
-47.84360056
 31
0.0
  0
LINE
  5
197
100
AcDbEntity
  8
レイヤー_1
  6
CONTINUOUS
 62
       3
100
AcDbLine
 10
11.57656153
 20
-47.84360056
 30
0.0
 11
11.79830222
 21
-47.8714038
 31
0.0
  0
LINE
  5
198
100
AcDbEntity
  8
レイヤー_1
  6
CONTINUOUS
 62
       3
100
AcDbLine
 10
11.79830222
 20
-47.8714038
 30
0.0
 11
11.96904402
 21
-47.87778387
 31
0.0
  0
LINE
  5
199
100
AcDbEntity
  8
レイヤー_1
  6
CONTINUOUS
 62
       3
100
AcDbLine
 10
11.96904402
 20
-47.87778387
 30
0.0
 11
11.97711967
 21
-47.87778387
 31
0.0
  0
LINE
  5
19A
100
AcDbEntity
  8
レイヤー_1
  6
CONTINUOUS
 62
       3
100
AcDbLine
 10
11.97711967
 20
-47.87778387
 30
0.0
 11
11.99481611
 21
-47.87778387
 31
0.0
  0
LINE
  5
19B
100
AcDbEntity
  8
レイヤー_1
  6
CONTINUOUS
 62
       3
100
AcDbLine
 10
11.99481611
 20
-47.87778387
 30
0.0
 11
12.02073397
 21
-47.87778387
 31
0.0
  0
LINE
  5
19C
100
AcDbEntity
  8
レイヤー_1
  6
CONTINUOUS
 62
       3
100
AcDbLine
 10
12.02073397
 20
-47.87778387
 30
0.0
 11
12.05347385
 21
-47.87778387
 31
0.0
  0
LINE
  5
19D
100
AcDbEntity
  8
レイヤー_1
  6
CONTINUOUS
 62
       3
100
AcDbLine
 10
12.05347385
 20
-47.87778387
 30
0.0
 11
12.09163636
 21
-47.87778387
 31
0.0
  0
LINE
  5
19E
100
AcDbEntity
  8
レイヤー_1
  6
CONTINUOUS
 62
       3
100
AcDbLine
 10
12.09163636
 20
-47.87778387
 30
0.0
 11
12.13382212
 21
-47.87778387
 31
0.0
  0
LINE
  5
19F
100
AcDbEntity
  8
レイヤー_1
  6
CONTINUOUS
 62
       3
100
AcDbLine
 10
12.13382212
 20
-47.87778387
 30
0.0
 11
12.17863173
 21
-47.87778387
 31
0.0
  0
LINE
  5
1A0
100
AcDbEntity
  8
レイヤー_1
  6
CONTINUOUS
 62
       3
100
AcDbLine
 10
12.17863173
 20
-47.87778387
 30
0.0
 11
12.22466581
 21
-47.87778387
 31
0.0
  0
LINE
  5
1A1
100
AcDbEntity
  8
レイヤー_1
  6
CONTINUOUS
 62
       3
100
AcDbLine
 10
12.22466581
 20
-47.87778387
 30
0.0
 11
12.27052496
 21
-47.87778387
 31
0.0
  0
LINE
  5
1A2
100
AcDbEntity
  8
レイヤー_1
  6
CONTINUOUS
 62
       3
100
AcDbLine
 10
12.27052496
 20
-47.87778387
 30
0.0
 11
12.3148098
 21
-47.87778387
 31
0.0
  0
LINE
  5
1A3
100
AcDbEntity
  8
レイヤー_1
  6
CONTINUOUS
 62
       3
100
AcDbLine
 10
12.3148098
 20
-47.87778387
 30
0.0
 11
12.35612094
 21
-47.87778387
 31
0.0
  0
LINE
  5
1A4
100
AcDbEntity
  8
レイヤー_1
  6
CONTINUOUS
 62
       3
100
AcDbLine
 10
12.35612094
 20
-47.87778387
 30
0.0
 11
12.39305899
 21
-47.87778387
 31
0.0
  0
LINE
  5
1A5
100
AcDbEntity
  8
レイヤー_1
  6
CONTINUOUS
 62
       3
100
AcDbLine
 10
12.39305899
 20
-47.87778387
 30
0.0
 11
12.42422455
 21
-47.87778387
 31
0.0
  0
LINE
  5
1A6
100
AcDbEntity
  8
レイヤー_1
  6
CONTINUOUS
 62
       3
100
AcDbLine
 10
12.42422455
 20
-47.87778387
 30
0.0
 11
12.44821825
 21
-47.87778387
 31
0.0
  0
LINE
  5
1A7
100
AcDbEntity
  8
レイヤー_1
  6
CONTINUOUS
 62
       3
100
AcDbLine
 10
12.44821825
 20
-47.87778387
 30
0.0
 11
12.46364069
 21
-47.87778387
 31
0.0
  0
LINE
  5
1A8
100
AcDbEntity
  8
レイヤー_1
  6
CONTINUOUS
 62
       3
100
AcDbLine
 10
12.46364069
 20
-47.87778387
 30
0.0
 11
12.46909247
 21
-47.87778387
 31
0.0
  0
LINE
  5
1A9
100
AcDbEntity
  8
レイヤー_1
  6
CONTINUOUS
 62
       3
100
AcDbLine
 10
12.46909247
 20
-44.36809284
 30
0.0
 11
12.46364069
 21
-44.36809284
 31
0.0
  0
LINE
  5
1AA
100
AcDbEntity
  8
レイヤー_1
  6
CONTINUOUS
 62
       3
100
AcDbLine
 10
12.46364069
 20
-44.36809284
 30
0.0
 11
12.44821825
 21
-44.36809284
 31
0.0
  0
LINE
  5
1AB
100
AcDbEntity
  8
レイヤー_1
  6
CONTINUOUS
 62
       3
100
AcDbLine
 10
12.44821825
 20
-44.36809284
 30
0.0
 11
12.42422455
 21
-44.36809284
 31
0.0
  0
LINE
  5
1AC
100
AcDbEntity
  8
レイヤー_1
  6
CONTINUOUS
 62
       3
100
AcDbLine
 10
12.42422455
 20
-44.36809284
 30
0.0
 11
12.39305899
 21
-44.36809284
 31
0.0
  0
LINE
  5
1AD
100
AcDbEntity
  8
レイヤー_1
  6
CONTINUOUS
 62
       3
100
AcDbLine
 10
12.39305899
 20
-44.36809284
 30
0.0
 11
12.35612094
 21
-44.36809284
 31
0.0
  0
LINE
  5
1AE
100
AcDbEntity
  8
レイヤー_1
  6
CONTINUOUS
 62
       3
100
AcDbLine
 10
12.35612094
 20
-44.36809284
 30
0.0
 11
12.3148098
 21
-44.36809284
 31
0.0
  0
LINE
  5
1AF
100
AcDbEntity
  8
レイヤー_1
  6
CONTINUOUS
 62
       3
100
AcDbLine
 10
12.3148098
 20
-44.36809284
 30
0.0
 11
12.27052496
 21
-44.36809284
 31
0.0
  0
LINE
  5
1B0
100
AcDbEntity
  8
レイヤー_1
  6
CONTINUOUS
 62
       3
100
AcDbLine
 10
12.27052496
 20
-44.36809284
 30
0.0
 11
12.22466581
 21
-44.36809284
 31
0.0
  0
LINE
  5
1B1
100
AcDbEntity
  8
レイヤー_1
  6
CONTINUOUS
 62
       3
100
AcDbLine
 10
12.22466581
 20
-44.36809284
 30
0.0
 11
12.17863173
 21
-44.36809284
 31
0.0
  0
LINE
  5
1B2
100
AcDbEntity
  8
レイヤー_1
  6
CONTINUOUS
 62
       3
100
AcDbLine
 10
12.17863173
 20
-44.36809284
 30
0.0
 11
12.13382212
 21
-44.36809284
 31
0.0
  0
LINE
  5
1B3
100
AcDbEntity
  8
レイヤー_1
  6
CONTINUOUS
 62
       3
100
AcDbLine
 10
12.13382212
 20
-44.36809284
 30
0.0
 11
12.09163636
 21
-44.36809284
 31
0.0
  0
LINE
  5
1B4
100
AcDbEntity
  8
レイヤー_1
  6
CONTINUOUS
 62
       3
100
AcDbLine
 10
12.09163636
 20
-44.36809284
 30
0.0
 11
12.05347385
 21
-44.36809284
 31
0.0
  0
LINE
  5
1B5
100
AcDbEntity
  8
レイヤー_1
  6
CONTINUOUS
 62
       3
100
AcDbLine
 10
12.05347385
 20
-44.36809284
 30
0.0
 11
12.02073397
 21
-44.36809284
 31
0.0
  0
LINE
  5
1B6
100
AcDbEntity
  8
レイヤー_1
  6
CONTINUOUS
 62
       3
100
AcDbLine
 10
12.02073397
 20
-44.36809284
 30
0.0
 11
11.99481611
 21
-44.36809284
 31
0.0
  0
LINE
  5
1B7
100
AcDbEntity
  8
レイヤー_1
  6
CONTINUOUS
 62
       3
100
AcDbLine
 10
11.99481611
 20
-44.36809284
 30
0.0
 11
11.97711967
 21
-44.36809284
 31
0.0
  0
LINE
  5
1B8
100
AcDbEntity
  8
レイヤー_1
  6
CONTINUOUS
 62
       3
100
AcDbLine
 10
11.97711967
 20
-44.36809284
 30
0.0
 11
11.96904402
 21
-44.36809284
 31
0.0
  0
LINE
  5
1B9
100
AcDbEntity
  8
レイヤー_1
  6
CONTINUOUS
 62
       3
100
AcDbLine
 10
11.96904402
 20
-44.36809284
 30
0.0
 11
11.87404381
 21
-44.3716364
 31
0.0
  0
LINE
  5
1BA
100
AcDbEntity
  8
レイヤー_1
  6
CONTINUOUS
 62
       3
100
AcDbLine
 10
11.87404381
 20
-44.3716364
 30
0.0
 11
11.75086961
 21
-44.38707851
 31
0.0
  0
LINE
  5
1BB
100
AcDbEntity
  8
レイヤー_1
  6
CONTINUOUS
 62
       3
100
AcDbLine
 10
11.75086961
 20
-44.38707851
 30
0.0
 11
11.63170208
 21
-44.41421763
 31
0.0
  0
LINE
  5
1BC
100
AcDbEntity
  8
レイヤー_1
  6
CONTINUOUS
 62
       3
100
AcDbLine
 10
11.63170208
 20
-44.41421763
 30
0.0
 11
11.51714218
 21
-44.4524522
 31
0.0
  0
LINE
  5
1BD
100
AcDbEntity
  8
レイヤー_1
  6
CONTINUOUS
 62
       3
100
AcDbLine
 10
11.51714218
 20
-44.4524522
 30
0.0
 11
11.40779086
 21
-44.5011807
 31
0.0
  0
LINE
  5
1BE
100
AcDbEntity
  8
レイヤー_1
  6
CONTINUOUS
 62
       3
100
AcDbLine
 10
11.40779086
 20
-44.5011807
 30
0.0
 11
11.30424904
 21
-44.55980156
 31
0.0
  0
LINE
  5
1BF
100
AcDbEntity
  8
レイヤー_1
  6
CONTINUOUS
 62
       3
100
AcDbLine
 10
11.30424904
 20
-44.55980156
 30
0.0
 11
11.20711769
 21
-44.62771324
 31
0.0
  0
LINE
  5
1C0
100
AcDbEntity
  8
レイヤー_1
  6
CONTINUOUS
 62
       3
100
AcDbLine
 10
11.20711769
 20
-44.62771324
 30
0.0
 11
11.11699773
 21
-44.70431421
 31
0.0
  0
LINE
  5
1C1
100
AcDbEntity
  8
レイヤー_1
  6
CONTINUOUS
 62
       3
100
AcDbLine
 10
11.11699773
 20
-44.70431421
 30
0.0
 11
11.03449011
 21
-44.78900291
 31
0.0
  0
LINE
  5
1C2
100
AcDbEntity
  8
レイヤー_1
  6
CONTINUOUS
 62
       3
100
AcDbLine
 10
11.03449011
 20
-44.78900291
 30
0.0
 11
10.96019577
 21
-44.8811778
 31
0.0
  0
LINE
  5
1C3
100
AcDbEntity
  8
レイヤー_1
  6
CONTINUOUS
 62
       3
100
AcDbLine
 10
10.96019577
 20
-44.8811778
 30
0.0
 11
10.89471566
 21
-44.98023734
 31
0.0
  0
LINE
  5
1C4
100
AcDbEntity
  8
レイヤー_1
  6
CONTINUOUS
 62
       3
100
AcDbLine
 10
10.89471566
 20
-44.98023734
 30
0.0
 11
10.83865072
 21
-45.08557998
 31
0.0
  0
LINE
  5
1C5
100
AcDbEntity
  8
レイヤー_1
  6
CONTINUOUS
 62
       3
100
AcDbLine
 10
10.83865072
 20
-45.08557998
 30
0.0
 11
10.79260189
 21
-45.19660418
 31
0.0
  0
LINE
  5
1C6
100
AcDbEntity
  8
レイヤー_1
  6
CONTINUOUS
 62
       3
100
AcDbLine
 10
10.79260189
 20
-45.19660418
 30
0.0
 11
10.75717011
 21
-45.31270839
 31
0.0
  0
LINE
  5
1C7
100
AcDbEntity
  8
レイヤー_1
  6
CONTINUOUS
 62
       3
100
AcDbLine
 10
10.75717011
 20
-45.31270839
 30
0.0
 11
10.73295633
 21
-45.43329106
 31
0.0
  0
LINE
  5
1C8
100
AcDbEntity
  8
レイヤー_1
  6
CONTINUOUS
 62
       3
100
AcDbLine
 10
10.73295633
 20
-45.43329106
 30
0.0
 11
10.72056149
 21
-45.55775066
 31
0.0
  0
LINE
  5
1C9
100
AcDbEntity
  8
レイヤー_1
  6
CONTINUOUS
 62
       3
100
AcDbLine
 10
10.72056149
 20
-45.55775066
 30
0.0
 11
10.72056149
 21
-45.68478053
 31
0.0
  0
LINE
  5
1CA
100
AcDbEntity
  8
レイヤー_1
  6
CONTINUOUS
 62
       3
100
AcDbLine
 10
10.72056149
 20
-45.68478053
 30
0.0
 11
10.73295633
 21
-45.80931017
 31
0.0
  0
LINE
  5
1CB
100
AcDbEntity
  8
レイヤー_1
  6
CONTINUOUS
 62
       3
100
AcDbLine
 10
10.73295633
 20
-45.80931017
 30
0.0
 11
10.75717011
 21
-45.92995401
 31
0.0
  0
LINE
  5
1CC
100
AcDbEntity
  8
レイヤー_1
  6
CONTINUOUS
 62
       3
100
AcDbLine
 10
10.75717011
 20
-45.92995401
 30
0.0
 11
10.79260189
 21
-46.0461111
 31
0.0
  0
LINE
  5
1CD
100
AcDbEntity
  8
レイヤー_1
  6
CONTINUOUS
 62
       3
100
AcDbLine
 10
10.79260189
 20
-46.0461111
 30
0.0
 11
10.83865072
 21
-46.1571805
 31
0.0
  0
LINE
  5
1CE
100
AcDbEntity
  8
レイヤー_1
  6
CONTINUOUS
 62
       3
100
AcDbLine
 10
10.83865072
 20
-46.1571805
 30
0.0
 11
10.89471566
 21
-46.26256127
 31
0.0
  0
LINE
  5
1CF
100
AcDbEntity
  8
レイヤー_1
  6
CONTINUOUS
 62
       3
100
AcDbLine
 10
10.89471566
 20
-46.26256127
 30
0.0
 11
10.96019577
 21
-46.36165246
 31
0.0
  0
LINE
  5
1D0
100
AcDbEntity
  8
レイヤー_1
  6
CONTINUOUS
 62
       3
100
AcDbLine
 10
10.96019577
 20
-46.36165246
 30
0.0
 11
11.03449011
 21
-46.45385314
 31
0.0
  0
LINE
  5
1D1
100
AcDbEntity
  8
レイヤー_1
  6
CONTINUOUS
 62
       3
100
AcDbLine
 10
11.03449011
 20
-46.45385314
 30
0.0
 11
11.11699773
 21
-46.53856236
 31
0.0
  0
LINE
  5
1D2
100
AcDbEntity
  8
レイヤー_1
  6
CONTINUOUS
 62
       3
100
AcDbLine
 10
11.11699773
 20
-46.53856236
 30
0.0
 11
11.20711769
 21
-46.61517918
 31
0.0
  0
LINE
  5
1D3
100
AcDbEntity
  8
レイヤー_1
  6
CONTINUOUS
 62
       3
100
AcDbLine
 10
11.20711769
 20
-46.61517918
 30
0.0
 11
11.30424904
 21
-46.68310265
 31
0.0
  0
LINE
  5
1D4
100
AcDbEntity
  8
レイヤー_1
  6
CONTINUOUS
 62
       3
100
AcDbLine
 10
11.30424904
 20
-46.68310265
 30
0.0
 11
11.40779086
 21
-46.74173183
 31
0.0
  0
LINE
  5
1D5
100
AcDbEntity
  8
レイヤー_1
  6
CONTINUOUS
 62
       3
100
AcDbLine
 10
11.40779086
 20
-46.74173183
 30
0.0
 11
11.51714218
 21
-46.79046579
 31
0.0
  0
LINE
  5
1D6
100
AcDbEntity
  8
レイヤー_1
  6
CONTINUOUS
 62
       3
100
AcDbLine
 10
11.51714218
 20
-46.79046579
 30
0.0
 11
11.63170208
 21
-46.82870357
 31
0.0
  0
LINE
  5
1D7
100
AcDbEntity
  8
レイヤー_1
  6
CONTINUOUS
 62
       3
100
AcDbLine
 10
11.63170208
 20
-46.82870357
 30
0.0
 11
11.75086961
 21
-46.85584423
 31
0.0
  0
LINE
  5
1D8
100
AcDbEntity
  8
レイヤー_1
  6
CONTINUOUS
 62
       3
100
AcDbLine
 10
11.75086961
 20
-46.85584423
 30
0.0
 11
11.87404381
 21
-46.87128684
 31
0.0
  0
LINE
  5
1D9
100
AcDbEntity
  8
レイヤー_1
  6
CONTINUOUS
 62
       3
100
AcDbLine
 10
11.87404381
 20
-46.87128684
 30
0.0
 11
11.96904402
 21
-46.87483044
 31
0.0
  0
LINE
  5
1DA
100
AcDbEntity
  8
レイヤー_1
  6
CONTINUOUS
 62
       3
100
AcDbLine
 10
11.96904402
 20
-46.87483044
 30
0.0
 11
11.97711967
 21
-46.87483044
 31
0.0
  0
LINE
  5
1DB
100
AcDbEntity
  8
レイヤー_1
  6
CONTINUOUS
 62
       3
100
AcDbLine
 10
11.97711967
 20
-46.87483044
 30
0.0
 11
11.99481611
 21
-46.87483044
 31
0.0
  0
LINE
  5
1DC
100
AcDbEntity
  8
レイヤー_1
  6
CONTINUOUS
 62
       3
100
AcDbLine
 10
11.99481611
 20
-46.87483044
 30
0.0
 11
12.02073397
 21
-46.87483044
 31
0.0
  0
LINE
  5
1DD
100
AcDbEntity
  8
レイヤー_1
  6
CONTINUOUS
 62
       3
100
AcDbLine
 10
12.02073397
 20
-46.87483044
 30
0.0
 11
12.05347385
 21
-46.87483044
 31
0.0
  0
LINE
  5
1DE
100
AcDbEntity
  8
レイヤー_1
  6
CONTINUOUS
 62
       3
100
AcDbLine
 10
12.05347385
 20
-46.87483044
 30
0.0
 11
12.09163636
 21
-46.87483044
 31
0.0
  0
LINE
  5
1DF
100
AcDbEntity
  8
レイヤー_1
  6
CONTINUOUS
 62
       3
100
AcDbLine
 10
12.09163636
 20
-46.87483044
 30
0.0
 11
12.13382212
 21
-46.87483044
 31
0.0
  0
LINE
  5
1E0
100
AcDbEntity
  8
レイヤー_1
  6
CONTINUOUS
 62
       3
100
AcDbLine
 10
12.13382212
 20
-46.87483044
 30
0.0
 11
12.17863173
 21
-46.87483044
 31
0.0
  0
LINE
  5
1E1
100
AcDbEntity
  8
レイヤー_1
  6
CONTINUOUS
 62
       3
100
AcDbLine
 10
12.17863173
 20
-46.87483044
 30
0.0
 11
12.22466581
 21
-46.87483044
 31
0.0
  0
LINE
  5
1E2
100
AcDbEntity
  8
レイヤー_1
  6
CONTINUOUS
 62
       3
100
AcDbLine
 10
12.22466581
 20
-46.87483044
 30
0.0
 11
12.27052496
 21
-46.87483044
 31
0.0
  0
LINE
  5
1E3
100
AcDbEntity
  8
レイヤー_1
  6
CONTINUOUS
 62
       3
100
AcDbLine
 10
12.27052496
 20
-46.87483044
 30
0.0
 11
12.3148098
 21
-46.87483044
 31
0.0
  0
LINE
  5
1E4
100
AcDbEntity
  8
レイヤー_1
  6
CONTINUOUS
 62
       3
100
AcDbLine
 10
12.3148098
 20
-46.87483044
 30
0.0
 11
12.35612094
 21
-46.87483044
 31
0.0
  0
LINE
  5
1E5
100
AcDbEntity
  8
レイヤー_1
  6
CONTINUOUS
 62
       3
100
AcDbLine
 10
12.35612094
 20
-46.87483044
 30
0.0
 11
12.39305899
 21
-46.87483044
 31
0.0
  0
LINE
  5
1E6
100
AcDbEntity
  8
レイヤー_1
  6
CONTINUOUS
 62
       3
100
AcDbLine
 10
12.39305899
 20
-46.87483044
 30
0.0
 11
12.42422455
 21
-46.87483044
 31
0.0
  0
LINE
  5
1E7
100
AcDbEntity
  8
レイヤー_1
  6
CONTINUOUS
 62
       3
100
AcDbLine
 10
12.42422455
 20
-46.87483044
 30
0.0
 11
12.44821825
 21
-46.87483044
 31
0.0
  0
LINE
  5
1E8
100
AcDbEntity
  8
レイヤー_1
  6
CONTINUOUS
 62
       3
100
AcDbLine
 10
12.44821825
 20
-46.87483044
 30
0.0
 11
12.46364069
 21
-46.87483044
 31
0.0
  0
LINE
  5
1E9
100
AcDbEntity
  8
レイヤー_1
  6
CONTINUOUS
 62
       3
100
AcDbLine
 10
12.46364069
 20
-46.87483044
 30
0.0
 11
12.46909247
 21
-46.87483044
 31
0.0
  0
LINE
  5
1EA
100
AcDbEntity
  8
レイヤー_1
  6
CONTINUOUS
 62
       3
100
AcDbLine
 10
-110.00921967
 20
-36.61232163
 30
0.0
 11
-109.65677744
 21
-36.5947497
 31
0.0
  0
LINE
  5
1EB
100
AcDbEntity
  8
レイヤー_1
  6
CONTINUOUS
 62
       3
100
AcDbLine
 10
-109.65677744
 20
-36.5947497
 30
0.0
 11
-109.31434034
 21
-36.54315633
 31
0.0
  0
LINE
  5
1EC
100
AcDbEntity
  8
レイヤー_1
  6
CONTINUOUS
 62
       3
100
AcDbLine
 10
-109.31434034
 20
-36.54315633
 30
0.0
 11
-108.98358654
 21
-36.45922511
 31
0.0
  0
LINE
  5
1ED
100
AcDbEntity
  8
レイヤー_1
  6
CONTINUOUS
 62
       3
100
AcDbLine
 10
-108.98358654
 20
-36.45922511
 30
0.0
 11
-108.66619423
 21
-36.34463965
 31
0.0
  0
LINE
  5
1EE
100
AcDbEntity
  8
レイヤー_1
  6
CONTINUOUS
 62
       3
100
AcDbLine
 10
-108.66619423
 20
-36.34463965
 30
0.0
 11
-108.3638416
 21
-36.20108354
 31
0.0
  0
LINE
  5
1EF
100
AcDbEntity
  8
レイヤー_1
  6
CONTINUOUS
 62
       3
100
AcDbLine
 10
-108.3638416
 20
-36.20108354
 30
0.0
 11
-108.07820681
 21
-36.0302404
 31
0.0
  0
LINE
  5
1F0
100
AcDbEntity
  8
レイヤー_1
  6
CONTINUOUS
 62
       3
100
AcDbLine
 10
-108.07820681
 20
-36.0302404
 30
0.0
 11
-107.81096807
 21
-35.83379383
 31
0.0
  0
LINE
  5
1F1
100
AcDbEntity
  8
レイヤー_1
  6
CONTINUOUS
 62
       3
100
AcDbLine
 10
-107.81096807
 20
-35.83379383
 30
0.0
 11
-107.56380355
 21
-35.61342742
 31
0.0
  0
LINE
  5
1F2
100
AcDbEntity
  8
レイヤー_1
  6
CONTINUOUS
 62
       3
100
AcDbLine
 10
-107.56380355
 20
-35.61342742
 30
0.0
 11
-107.33839143
 21
-35.37082478
 31
0.0
  0
LINE
  5
1F3
100
AcDbEntity
  8
レイヤー_1
  6
CONTINUOUS
 62
       3
100
AcDbLine
 10
-107.33839143
 20
-35.37082478
 30
0.0
 11
-107.1364099
 21
-35.10766951
 31
0.0
  0
LINE
  5
1F4
100
AcDbEntity
  8
レイヤー_1
  6
CONTINUOUS
 62
       3
100
AcDbLine
 10
-107.1364099
 20
-35.10766951
 30
0.0
 11
-106.95953714
 21
-34.82564522
 31
0.0
  0
LINE
  5
1F5
100
AcDbEntity
  8
レイヤー_1
  6
CONTINUOUS
 62
       3
100
AcDbLine
 10
-106.95953714
 20
-34.82564522
 30
0.0
 11
-106.80945134
 21
-34.52643551
 31
0.0
  0
LINE
  5
1F6
100
AcDbEntity
  8
レイヤー_1
  6
CONTINUOUS
 62
       3
100
AcDbLine
 10
-106.80945134
 20
-34.52643551
 30
0.0
 11
-106.68783067
 21
-34.21172397
 31
0.0
  0
LINE
  5
1F7
100
AcDbEntity
  8
レイヤー_1
  6
CONTINUOUS
 62
       3
100
AcDbLine
 10
-106.68783067
 20
-34.21172397
 30
0.0
 11
-106.59635333
 21
-33.88319422
 31
0.0
  0
LINE
  5
1F8
100
AcDbEntity
  8
レイヤー_1
  6
CONTINUOUS
 62
       3
100
AcDbLine
 10
-106.59635333
 20
-33.88319422
 30
0.0
 11
-106.53669749
 21
-33.54252986
 31
0.0
  0
LINE
  5
1F9
100
AcDbEntity
  8
レイヤー_1
  6
CONTINUOUS
 62
       3
100
AcDbLine
 10
-106.53669749
 20
-33.54252986
 30
0.0
 11
-106.51054134
 21
-33.19141448
 31
0.0
  0
LINE
  5
1FA
100
AcDbEntity
  8
レイヤー_1
  6
CONTINUOUS
 62
       3
100
AcDbLine
 10
-106.51054134
 20
-33.19141448
 30
0.0
 11
-106.51932707
 21
-32.83628353
 31
0.0
  0
LINE
  5
1FB
100
AcDbEntity
  8
レイヤー_1
  6
CONTINUOUS
 62
       3
100
AcDbLine
 10
-106.51932707
 20
-32.83628353
 30
0.0
 11
-106.56244284
 21
-32.49025097
 31
0.0
  0
LINE
  5
1FC
100
AcDbEntity
  8
レイヤー_1
  6
CONTINUOUS
 62
       3
100
AcDbLine
 10
-106.56244284
 20
-32.49025097
 30
0.0
 11
-106.6382192
 21
-32.1555025
 31
0.0
  0
LINE
  5
1FD
100
AcDbEntity
  8
レイヤー_1
  6
CONTINUOUS
 62
       3
100
AcDbLine
 10
-106.6382192
 20
-32.1555025
 30
0.0
 11
-106.74497798
 21
-31.83372232
 31
0.0
  0
LINE
  5
1FE
100
AcDbEntity
  8
レイヤー_1
  6
CONTINUOUS
 62
       3
100
AcDbLine
 10
-106.74497798
 20
-31.83372232
 30
0.0
 11
-106.88104098
 21
-31.52659462
 31
0.0
  0
LINE
  5
1FF
100
AcDbEntity
  8
レイヤー_1
  6
CONTINUOUS
 62
       3
100
AcDbLine
 10
-106.88104098
 20
-31.52659462
 30
0.0
 11
-107.04473004
 21
-31.23580362
 31
0.0
  0
LINE
  5
200
100
AcDbEntity
  8
レイヤー_1
  6
CONTINUOUS
 62
       3
100
AcDbLine
 10
-107.04473004
 20
-31.23580362
 30
0.0
 11
-107.23436695
 21
-30.96303353
 31
0.0
  0
LINE
  5
201
100
AcDbEntity
  8
レイヤー_1
  6
CONTINUOUS
 62
       3
100
AcDbLine
 10
-107.23436695
 20
-30.96303353
 30
0.0
 11
-107.44827355
 21
-30.70996854
 31
0.0
  0
LINE
  5
202
100
AcDbEntity
  8
レイヤー_1
  6
CONTINUOUS
 62
       3
100
AcDbLine
 10
-107.44827355
 20
-30.70996854
 30
0.0
 11
-107.68477164
 21
-30.47829286
 31
0.0
  0
LINE
  5
203
100
AcDbEntity
  8
レイヤー_1
  6
CONTINUOUS
 62
       3
100
AcDbLine
 10
-107.68477164
 20
-30.47829286
 30
0.0
 11
-107.94218305
 21
-30.26969069
 31
0.0
  0
LINE
  5
204
100
AcDbEntity
  8
レイヤー_1
  6
CONTINUOUS
 62
       3
100
AcDbLine
 10
-107.94218305
 20
-30.26969069
 30
0.0
 11
-108.21882959
 21
-30.08584624
 31
0.0
  0
LINE
  5
205
100
AcDbEntity
  8
レイヤー_1
  6
CONTINUOUS
 62
       3
100
AcDbLine
 10
-108.21882959
 20
-30.08584624
 30
0.0
 11
-108.51303307
 21
-29.92844372
 31
0.0
  0
LINE
  5
206
100
AcDbEntity
  8
レイヤー_1
  6
CONTINUOUS
 62
       3
100
AcDbLine
 10
-108.51303307
 20
-29.92844372
 30
0.0
 11
-108.82311532
 21
-29.79916733
 31
0.0
  0
LINE
  5
207
100
AcDbEntity
  8
レイヤー_1
  6
CONTINUOUS
 62
       3
100
AcDbLine
 10
-108.82311532
 20
-29.79916733
 30
0.0
 11
-109.14739814
 21
-29.69970128
 31
0.0
  0
LINE
  5
208
100
AcDbEntity
  8
レイヤー_1
  6
CONTINUOUS
 62
       3
100
AcDbLine
 10
-109.14739814
 20
-29.69970128
 30
0.0
 11
-109.48420337
 21
-29.63172976
 31
0.0
  0
LINE
  5
209
100
AcDbEntity
  8
レイヤー_1
  6
CONTINUOUS
 62
       3
100
AcDbLine
 10
-109.48420337
 20
-29.63172976
 30
0.0
 11
-109.8318528
 21
-29.59693698
 31
0.0
  0
LINE
  5
20A
100
AcDbEntity
  8
レイヤー_1
  6
CONTINUOUS
 62
       3
100
AcDbLine
 10
-109.8318528
 20
-29.59693698
 30
0.0
 11
-110.18658654
 21
-29.59693698
 31
0.0
  0
LINE
  5
20B
100
AcDbEntity
  8
レイヤー_1
  6
CONTINUOUS
 62
       3
100
AcDbLine
 10
-110.18658654
 20
-29.59693698
 30
0.0
 11
-110.53423597
 21
-29.63172976
 31
0.0
  0
LINE
  5
20C
100
AcDbEntity
  8
レイヤー_1
  6
CONTINUOUS
 62
       3
100
AcDbLine
 10
-110.53423597
 20
-29.63172976
 30
0.0
 11
-110.8710412
 21
-29.69970128
 31
0.0
  0
LINE
  5
20D
100
AcDbEntity
  8
レイヤー_1
  6
CONTINUOUS
 62
       3
100
AcDbLine
 10
-110.8710412
 20
-29.69970128
 30
0.0
 11
-111.19532402
 21
-29.79916733
 31
0.0
  0
LINE
  5
20E
100
AcDbEntity
  8
レイヤー_1
  6
CONTINUOUS
 62
       3
100
AcDbLine
 10
-111.19532402
 20
-29.79916733
 30
0.0
 11
-111.50540627
 21
-29.92844372
 31
0.0
  0
LINE
  5
20F
100
AcDbEntity
  8
レイヤー_1
  6
CONTINUOUS
 62
       3
100
AcDbLine
 10
-111.50540627
 20
-29.92844372
 30
0.0
 11
-111.79960975
 21
-30.08584624
 31
0.0
  0
LINE
  5
210
100
AcDbEntity
  8
レイヤー_1
  6
CONTINUOUS
 62
       3
100
AcDbLine
 10
-111.79960975
 20
-30.08584624
 30
0.0
 11
-112.07625629
 21
-30.26969069
 31
0.0
  0
LINE
  5
211
100
AcDbEntity
  8
レイヤー_1
  6
CONTINUOUS
 62
       3
100
AcDbLine
 10
-112.07625629
 20
-30.26969069
 30
0.0
 11
-112.3336677
 21
-30.47829286
 31
0.0
  0
LINE
  5
212
100
AcDbEntity
  8
レイヤー_1
  6
CONTINUOUS
 62
       3
100
AcDbLine
 10
-112.3336677
 20
-30.47829286
 30
0.0
 11
-112.57016579
 21
-30.70996854
 31
0.0
  0
LINE
  5
213
100
AcDbEntity
  8
レイヤー_1
  6
CONTINUOUS
 62
       3
100
AcDbLine
 10
-112.57016579
 20
-30.70996854
 30
0.0
 11
-112.78407239
 21
-30.96303353
 31
0.0
  0
LINE
  5
214
100
AcDbEntity
  8
レイヤー_1
  6
CONTINUOUS
 62
       3
100
AcDbLine
 10
-112.78407239
 20
-30.96303353
 30
0.0
 11
-112.9737093
 21
-31.23580362
 31
0.0
  0
LINE
  5
215
100
AcDbEntity
  8
レイヤー_1
  6
CONTINUOUS
 62
       3
100
AcDbLine
 10
-112.9737093
 20
-31.23580362
 30
0.0
 11
-113.13739836
 21
-31.52659462
 31
0.0
  0
LINE
  5
216
100
AcDbEntity
  8
レイヤー_1
  6
CONTINUOUS
 62
       3
100
AcDbLine
 10
-113.13739836
 20
-31.52659462
 30
0.0
 11
-113.27346136
 21
-31.83372232
 31
0.0
  0
LINE
  5
217
100
AcDbEntity
  8
レイヤー_1
  6
CONTINUOUS
 62
       3
100
AcDbLine
 10
-113.27346136
 20
-31.83372232
 30
0.0
 11
-113.38022014
 21
-32.1555025
 31
0.0
  0
LINE
  5
218
100
AcDbEntity
  8
レイヤー_1
  6
CONTINUOUS
 62
       3
100
AcDbLine
 10
-113.38022014
 20
-32.1555025
 30
0.0
 11
-113.4559965
 21
-32.49025097
 31
0.0
  0
LINE
  5
219
100
AcDbEntity
  8
レイヤー_1
  6
CONTINUOUS
 62
       3
100
AcDbLine
 10
-113.4559965
 20
-32.49025097
 30
0.0
 11
-113.49911227
 21
-32.83628353
 31
0.0
  0
LINE
  5
21A
100
AcDbEntity
  8
レイヤー_1
  6
CONTINUOUS
 62
       3
100
AcDbLine
 10
-113.49911227
 20
-32.83628353
 30
0.0
 11
-113.507898
 21
-33.19141448
 31
0.0
  0
LINE
  5
21B
100
AcDbEntity
  8
レイヤー_1
  6
CONTINUOUS
 62
       3
100
AcDbLine
 10
-113.507898
 20
-33.19141448
 30
0.0
 11
-113.48174185
 21
-33.54252986
 31
0.0
  0
LINE
  5
21C
100
AcDbEntity
  8
レイヤー_1
  6
CONTINUOUS
 62
       3
100
AcDbLine
 10
-113.48174185
 20
-33.54252986
 30
0.0
 11
-113.42208601
 21
-33.88319422
 31
0.0
  0
LINE
  5
21D
100
AcDbEntity
  8
レイヤー_1
  6
CONTINUOUS
 62
       3
100
AcDbLine
 10
-113.42208601
 20
-33.88319422
 30
0.0
 11
-113.33060867
 21
-34.21172397
 31
0.0
  0
LINE
  5
21E
100
AcDbEntity
  8
レイヤー_1
  6
CONTINUOUS
 62
       3
100
AcDbLine
 10
-113.33060867
 20
-34.21172397
 30
0.0
 11
-113.208988
 21
-34.52643551
 31
0.0
  0
LINE
  5
21F
100
AcDbEntity
  8
レイヤー_1
  6
CONTINUOUS
 62
       3
100
AcDbLine
 10
-113.208988
 20
-34.52643551
 30
0.0
 11
-113.0589022
 21
-34.82564522
 31
0.0
  0
LINE
  5
220
100
AcDbEntity
  8
レイヤー_1
  6
CONTINUOUS
 62
       3
100
AcDbLine
 10
-113.0589022
 20
-34.82564522
 30
0.0
 11
-112.88202944
 21
-35.10766951
 31
0.0
  0
LINE
  5
221
100
AcDbEntity
  8
レイヤー_1
  6
CONTINUOUS
 62
       3
100
AcDbLine
 10
-112.88202944
 20
-35.10766951
 30
0.0
 11
-112.68004791
 21
-35.37082478
 31
0.0
  0
LINE
  5
222
100
AcDbEntity
  8
レイヤー_1
  6
CONTINUOUS
 62
       3
100
AcDbLine
 10
-112.68004791
 20
-35.37082478
 30
0.0
 11
-112.45463579
 21
-35.61342742
 31
0.0
  0
LINE
  5
223
100
AcDbEntity
  8
レイヤー_1
  6
CONTINUOUS
 62
       3
100
AcDbLine
 10
-112.45463579
 20
-35.61342742
 30
0.0
 11
-112.20747127
 21
-35.83379383
 31
0.0
  0
LINE
  5
224
100
AcDbEntity
  8
レイヤー_1
  6
CONTINUOUS
 62
       3
100
AcDbLine
 10
-112.20747127
 20
-35.83379383
 30
0.0
 11
-111.94023253
 21
-36.0302404
 31
0.0
  0
LINE
  5
225
100
AcDbEntity
  8
レイヤー_1
  6
CONTINUOUS
 62
       3
100
AcDbLine
 10
-111.94023253
 20
-36.0302404
 30
0.0
 11
-111.65459774
 21
-36.20108354
 31
0.0
  0
LINE
  5
226
100
AcDbEntity
  8
レイヤー_1
  6
CONTINUOUS
 62
       3
100
AcDbLine
 10
-111.65459774
 20
-36.20108354
 30
0.0
 11
-111.35224511
 21
-36.34463965
 31
0.0
  0
LINE
  5
227
100
AcDbEntity
  8
レイヤー_1
  6
CONTINUOUS
 62
       3
100
AcDbLine
 10
-111.35224511
 20
-36.34463965
 30
0.0
 11
-111.0348528
 21
-36.45922511
 31
0.0
  0
LINE
  5
228
100
AcDbEntity
  8
レイヤー_1
  6
CONTINUOUS
 62
       3
100
AcDbLine
 10
-111.0348528
 20
-36.45922511
 30
0.0
 11
-110.704099
 21
-36.54315633
 31
0.0
  0
LINE
  5
229
100
AcDbEntity
  8
レイヤー_1
  6
CONTINUOUS
 62
       3
100
AcDbLine
 10
-110.704099
 20
-36.54315633
 30
0.0
 11
-110.36166189
 21
-36.5947497
 31
0.0
  0
LINE
  5
22A
100
AcDbEntity
  8
レイヤー_1
  6
CONTINUOUS
 62
       3
100
AcDbLine
 10
-110.36166189
 20
-36.5947497
 30
0.0
 11
-110.00921967
 21
-36.61232163
 31
0.0
  0
LINE
  5
22B
100
AcDbEntity
  8
レイヤー_1
  6
CONTINUOUS
 62
       3
100
AcDbLine
 10
-100.00983002
 20
-36.61232163
 30
0.0
 11
-99.65731309
 21
-36.5947497
 31
0.0
  0
LINE
  5
22C
100
AcDbEntity
  8
レイヤー_1
  6
CONTINUOUS
 62
       3
100
AcDbLine
 10
-99.65731309
 20
-36.5947497
 30
0.0
 11
-99.31481046
 21
-36.54315633
 31
0.0
  0
LINE
  5
22D
100
AcDbEntity
  8
レイヤー_1
  6
CONTINUOUS
 62
       3
100
AcDbLine
 10
-99.31481046
 20
-36.54315633
 30
0.0
 11
-98.98399971
 21
-36.45922511
 31
0.0
  0
LINE
  5
22E
100
AcDbEntity
  8
レイヤー_1
  6
CONTINUOUS
 62
       3
100
AcDbLine
 10
-98.98399971
 20
-36.45922511
 30
0.0
 11
-98.66655843
 21
-36.34463965
 31
0.0
  0
LINE
  5
22F
100
AcDbEntity
  8
レイヤー_1
  6
CONTINUOUS
 62
       3
100
AcDbLine
 10
-98.66655843
 20
-36.34463965
 30
0.0
 11
-98.3641642
 21
-36.20108354
 31
0.0
  0
LINE
  5
230
100
AcDbEntity
  8
レイヤー_1
  6
CONTINUOUS
 62
       3
100
AcDbLine
 10
-98.3641642
 20
-36.20108354
 30
0.0
 11
-98.0784946
 21
-36.0302404
 31
0.0
  0
LINE
  5
231
100
AcDbEntity
  8
レイヤー_1
  6
CONTINUOUS
 62
       3
100
AcDbLine
 10
-98.0784946
 20
-36.0302404
 30
0.0
 11
-97.81122721
 21
-35.83379383
 31
0.0
  0
LINE
  5
232
100
AcDbEntity
  8
レイヤー_1
  6
CONTINUOUS
 62
       3
100
AcDbLine
 10
-97.81122721
 20
-35.83379383
 30
0.0
 11
-97.56403961
 21
-35.61342742
 31
0.0
  0
LINE
  5
233
100
AcDbEntity
  8
レイヤー_1
  6
CONTINUOUS
 62
       3
100
AcDbLine
 10
-97.56403961
 20
-35.61342742
 30
0.0
 11
-97.33860939
 21
-35.37082478
 31
0.0
  0
LINE
  5
234
100
AcDbEntity
  8
レイヤー_1
  6
CONTINUOUS
 62
       3
100
AcDbLine
 10
-97.33860939
 20
-35.37082478
 30
0.0
 11
-97.13661412
 21
-35.10766951
 31
0.0
  0
LINE
  5
235
100
AcDbEntity
  8
レイヤー_1
  6
CONTINUOUS
 62
       3
100
AcDbLine
 10
-97.13661412
 20
-35.10766951
 30
0.0
 11
-96.95973138
 21
-34.82564522
 31
0.0
  0
LINE
  5
236
100
AcDbEntity
  8
レイヤー_1
  6
CONTINUOUS
 62
       3
100
AcDbLine
 10
-96.95973138
 20
-34.82564522
 30
0.0
 11
-96.80963876
 21
-34.52643551
 31
0.0
  0
LINE
  5
237
100
AcDbEntity
  8
レイヤー_1
  6
CONTINUOUS
 62
       3
100
AcDbLine
 10
-96.80963876
 20
-34.52643551
 30
0.0
 11
-96.68801384
 21
-34.21172397
 31
0.0
  0
LINE
  5
238
100
AcDbEntity
  8
レイヤー_1
  6
CONTINUOUS
 62
       3
100
AcDbLine
 10
-96.68801384
 20
-34.21172397
 30
0.0
 11
-96.59653419
 21
-33.88319422
 31
0.0
  0
LINE
  5
239
100
AcDbEntity
  8
レイヤー_1
  6
CONTINUOUS
 62
       3
100
AcDbLine
 10
-96.59653419
 20
-33.88319422
 30
0.0
 11
-96.53687741
 21
-33.54252986
 31
0.0
  0
LINE
  5
23A
100
AcDbEntity
  8
レイヤー_1
  6
CONTINUOUS
 62
       3
100
AcDbLine
 10
-96.53687741
 20
-33.54252986
 30
0.0
 11
-96.51072106
 21
-33.19141448
 31
0.0
  0
LINE
  5
23B
100
AcDbEntity
  8
レイヤー_1
  6
CONTINUOUS
 62
       3
100
AcDbLine
 10
-96.51072106
 20
-33.19141448
 30
0.0
 11
-96.51950683
 21
-32.83628353
 31
0.0
  0
LINE
  5
23C
100
AcDbEntity
  8
レイヤー_1
  6
CONTINUOUS
 62
       3
100
AcDbLine
 10
-96.51950683
 20
-32.83628353
 30
0.0
 11
-96.56262309
 21
-32.49025097
 31
0.0
  0
LINE
  5
23D
100
AcDbEntity
  8
レイヤー_1
  6
CONTINUOUS
 62
       3
100
AcDbLine
 10
-96.56262309
 20
-32.49025097
 30
0.0
 11
-96.638401
 21
-32.1555025
 31
0.0
  0
LINE
  5
23E
100
AcDbEntity
  8
レイヤー_1
  6
CONTINUOUS
 62
       3
100
AcDbLine
 10
-96.638401
 20
-32.1555025
 30
0.0
 11
-96.74516299
 21
-31.83372232
 31
0.0
  0
LINE
  5
23F
100
AcDbEntity
  8
レイヤー_1
  6
CONTINUOUS
 62
       3
100
AcDbLine
 10
-96.74516299
 20
-31.83372232
 30
0.0
 11
-96.88123146
 21
-31.52659462
 31
0.0
  0
LINE
  5
240
100
AcDbEntity
  8
レイヤー_1
  6
CONTINUOUS
 62
       3
100
AcDbLine
 10
-96.88123146
 20
-31.52659462
 30
0.0
 11
-97.04492883
 21
-31.23580362
 31
0.0
  0
LINE
  5
241
100
AcDbEntity
  8
レイヤー_1
  6
CONTINUOUS
 62
       3
100
AcDbLine
 10
-97.04492883
 20
-31.23580362
 30
0.0
 11
-97.23457753
 21
-30.96303353
 31
0.0
  0
LINE
  5
242
100
AcDbEntity
  8
レイヤー_1
  6
CONTINUOUS
 62
       3
100
AcDbLine
 10
-97.23457753
 20
-30.96303353
 30
0.0
 11
-97.44849998
 21
-30.70996854
 31
0.0
  0
LINE
  5
243
100
AcDbEntity
  8
レイヤー_1
  6
CONTINUOUS
 62
       3
100
AcDbLine
 10
-97.44849998
 20
-30.70996854
 30
0.0
 11
-97.68501859
 21
-30.47829286
 31
0.0
  0
LINE
  5
244
100
AcDbEntity
  8
レイヤー_1
  6
CONTINUOUS
 62
       3
100
AcDbLine
 10
-97.68501859
 20
-30.47829286
 30
0.0
 11
-97.94245578
 21
-30.26969069
 31
0.0
  0
LINE
  5
245
100
AcDbEntity
  8
レイヤー_1
  6
CONTINUOUS
 62
       3
100
AcDbLine
 10
-97.94245578
 20
-30.26969069
 30
0.0
 11
-98.21913398
 21
-30.08584624
 31
0.0
  0
LINE
  5
246
100
AcDbEntity
  8
レイヤー_1
  6
CONTINUOUS
 62
       3
100
AcDbLine
 10
-98.21913398
 20
-30.08584624
 30
0.0
 11
-98.51337559
 21
-29.92844372
 31
0.0
  0
LINE
  5
247
100
AcDbEntity
  8
レイヤー_1
  6
CONTINUOUS
 62
       3
100
AcDbLine
 10
-98.51337559
 20
-29.92844372
 30
0.0
 11
-98.82350304
 21
-29.79916733
 31
0.0
  0
LINE
  5
248
100
AcDbEntity
  8
レイヤー_1
  6
CONTINUOUS
 62
       3
100
AcDbLine
 10
-98.82350304
 20
-29.79916733
 30
0.0
 11
-99.14783875
 21
-29.69970128
 31
0.0
  0
LINE
  5
249
100
AcDbEntity
  8
レイヤー_1
  6
CONTINUOUS
 62
       3
100
AcDbLine
 10
-99.14783875
 20
-29.69970128
 30
0.0
 11
-99.48470514
 21
-29.63172976
 31
0.0
  0
LINE
  5
24A
100
AcDbEntity
  8
レイヤー_1
  6
CONTINUOUS
 62
       3
100
AcDbLine
 10
-99.48470514
 20
-29.63172976
 30
0.0
 11
-99.83242462
 21
-29.59693698
 31
0.0
  0
LINE
  5
24B
100
AcDbEntity
  8
レイヤー_1
  6
CONTINUOUS
 62
       3
100
AcDbLine
 10
-99.83242462
 20
-29.59693698
 30
0.0
 11
-100.18719689
 21
-29.59693698
 31
0.0
  0
LINE
  5
24C
100
AcDbEntity
  8
レイヤー_1
  6
CONTINUOUS
 62
       3
100
AcDbLine
 10
-100.18719689
 20
-29.59693698
 30
0.0
 11
-100.53484633
 21
-29.63172976
 31
0.0
  0
LINE
  5
24D
100
AcDbEntity
  8
レイヤー_1
  6
CONTINUOUS
 62
       3
100
AcDbLine
 10
-100.53484633
 20
-29.63172976
 30
0.0
 11
-100.87165155
 21
-29.69970128
 31
0.0
  0
LINE
  5
24E
100
AcDbEntity
  8
レイヤー_1
  6
CONTINUOUS
 62
       3
100
AcDbLine
 10
-100.87165155
 20
-29.69970128
 30
0.0
 11
-101.19593438
 21
-29.79916733
 31
0.0
  0
LINE
  5
24F
100
AcDbEntity
  8
レイヤー_1
  6
CONTINUOUS
 62
       3
100
AcDbLine
 10
-101.19593438
 20
-29.79916733
 30
0.0
 11
-101.50601662
 21
-29.92844372
 31
0.0
  0
LINE
  5
250
100
AcDbEntity
  8
レイヤー_1
  6
CONTINUOUS
 62
       3
100
AcDbLine
 10
-101.50601662
 20
-29.92844372
 30
0.0
 11
-101.80022011
 21
-30.08584624
 31
0.0
  0
LINE
  5
251
100
AcDbEntity
  8
レイヤー_1
  6
CONTINUOUS
 62
       3
100
AcDbLine
 10
-101.80022011
 20
-30.08584624
 30
0.0
 11
-102.07686664
 21
-30.26969069
 31
0.0
  0
LINE
  5
252
100
AcDbEntity
  8
レイヤー_1
  6
CONTINUOUS
 62
       3
100
AcDbLine
 10
-102.07686664
 20
-30.26969069
 30
0.0
 11
-102.33427805
 21
-30.47829286
 31
0.0
  0
LINE
  5
253
100
AcDbEntity
  8
レイヤー_1
  6
CONTINUOUS
 62
       3
100
AcDbLine
 10
-102.33427805
 20
-30.47829286
 30
0.0
 11
-102.57077614
 21
-30.70996854
 31
0.0
  0
LINE
  5
254
100
AcDbEntity
  8
レイヤー_1
  6
CONTINUOUS
 62
       3
100
AcDbLine
 10
-102.57077614
 20
-30.70996854
 30
0.0
 11
-102.78468274
 21
-30.96303353
 31
0.0
  0
LINE
  5
255
100
AcDbEntity
  8
レイヤー_1
  6
CONTINUOUS
 62
       3
100
AcDbLine
 10
-102.78468274
 20
-30.96303353
 30
0.0
 11
-102.97431966
 21
-31.23580362
 31
0.0
  0
LINE
  5
256
100
AcDbEntity
  8
レイヤー_1
  6
CONTINUOUS
 62
       3
100
AcDbLine
 10
-102.97431966
 20
-31.23580362
 30
0.0
 11
-103.13800871
 21
-31.52659462
 31
0.0
  0
LINE
  5
257
100
AcDbEntity
  8
レイヤー_1
  6
CONTINUOUS
 62
       3
100
AcDbLine
 10
-103.13800871
 20
-31.52659462
 30
0.0
 11
-103.27407172
 21
-31.83372232
 31
0.0
  0
LINE
  5
258
100
AcDbEntity
  8
レイヤー_1
  6
CONTINUOUS
 62
       3
100
AcDbLine
 10
-103.27407172
 20
-31.83372232
 30
0.0
 11
-103.38083049
 21
-32.1555025
 31
0.0
  0
LINE
  5
259
100
AcDbEntity
  8
レイヤー_1
  6
CONTINUOUS
 62
       3
100
AcDbLine
 10
-103.38083049
 20
-32.1555025
 30
0.0
 11
-103.45660686
 21
-32.49025097
 31
0.0
  0
LINE
  5
25A
100
AcDbEntity
  8
レイヤー_1
  6
CONTINUOUS
 62
       3
100
AcDbLine
 10
-103.45660686
 20
-32.49025097
 30
0.0
 11
-103.49972262
 21
-32.83628353
 31
0.0
  0
LINE
  5
25B
100
AcDbEntity
  8
レイヤー_1
  6
CONTINUOUS
 62
       3
100
AcDbLine
 10
-103.49972262
 20
-32.83628353
 30
0.0
 11
-103.50850835
 21
-33.19141448
 31
0.0
  0
LINE
  5
25C
100
AcDbEntity
  8
レイヤー_1
  6
CONTINUOUS
 62
       3
100
AcDbLine
 10
-103.50850835
 20
-33.19141448
 30
0.0
 11
-103.4823522
 21
-33.54252986
 31
0.0
  0
LINE
  5
25D
100
AcDbEntity
  8
レイヤー_1
  6
CONTINUOUS
 62
       3
100
AcDbLine
 10
-103.4823522
 20
-33.54252986
 30
0.0
 11
-103.42269636
 21
-33.88319422
 31
0.0
  0
LINE
  5
25E
100
AcDbEntity
  8
レイヤー_1
  6
CONTINUOUS
 62
       3
100
AcDbLine
 10
-103.42269636
 20
-33.88319422
 30
0.0
 11
-103.33121902
 21
-34.21172397
 31
0.0
  0
LINE
  5
25F
100
AcDbEntity
  8
レイヤー_1
  6
CONTINUOUS
 62
       3
100
AcDbLine
 10
-103.33121902
 20
-34.21172397
 30
0.0
 11
-103.20959836
 21
-34.52643551
 31
0.0
  0
LINE
  5
260
100
AcDbEntity
  8
レイヤー_1
  6
CONTINUOUS
 62
       3
100
AcDbLine
 10
-103.20959836
 20
-34.52643551
 30
0.0
 11
-103.05951255
 21
-34.82564522
 31
0.0
  0
LINE
  5
261
100
AcDbEntity
  8
レイヤー_1
  6
CONTINUOUS
 62
       3
100
AcDbLine
 10
-103.05951255
 20
-34.82564522
 30
0.0
 11
-102.8826398
 21
-35.10766951
 31
0.0
  0
LINE
  5
262
100
AcDbEntity
  8
レイヤー_1
  6
CONTINUOUS
 62
       3
100
AcDbLine
 10
-102.8826398
 20
-35.10766951
 30
0.0
 11
-102.68065827
 21
-35.37082478
 31
0.0
  0
LINE
  5
263
100
AcDbEntity
  8
レイヤー_1
  6
CONTINUOUS
 62
       3
100
AcDbLine
 10
-102.68065827
 20
-35.37082478
 30
0.0
 11
-102.45524615
 21
-35.61342742
 31
0.0
  0
LINE
  5
264
100
AcDbEntity
  8
レイヤー_1
  6
CONTINUOUS
 62
       3
100
AcDbLine
 10
-102.45524615
 20
-35.61342742
 30
0.0
 11
-102.20808163
 21
-35.83379383
 31
0.0
  0
LINE
  5
265
100
AcDbEntity
  8
レイヤー_1
  6
CONTINUOUS
 62
       3
100
AcDbLine
 10
-102.20808163
 20
-35.83379383
 30
0.0
 11
-101.94084288
 21
-36.0302404
 31
0.0
  0
LINE
  5
266
100
AcDbEntity
  8
レイヤー_1
  6
CONTINUOUS
 62
       3
100
AcDbLine
 10
-101.94084288
 20
-36.0302404
 30
0.0
 11
-101.6552081
 21
-36.20108354
 31
0.0
  0
LINE
  5
267
100
AcDbEntity
  8
レイヤー_1
  6
CONTINUOUS
 62
       3
100
AcDbLine
 10
-101.6552081
 20
-36.20108354
 30
0.0
 11
-101.35285546
 21
-36.34463965
 31
0.0
  0
LINE
  5
268
100
AcDbEntity
  8
レイヤー_1
  6
CONTINUOUS
 62
       3
100
AcDbLine
 10
-101.35285546
 20
-36.34463965
 30
0.0
 11
-101.03546315
 21
-36.45922511
 31
0.0
  0
LINE
  5
269
100
AcDbEntity
  8
レイヤー_1
  6
CONTINUOUS
 62
       3
100
AcDbLine
 10
-101.03546315
 20
-36.45922511
 30
0.0
 11
-100.70470935
 21
-36.54315633
 31
0.0
  0
LINE
  5
26A
100
AcDbEntity
  8
レイヤー_1
  6
CONTINUOUS
 62
       3
100
AcDbLine
 10
-100.70470935
 20
-36.54315633
 30
0.0
 11
-100.36227225
 21
-36.5947497
 31
0.0
  0
LINE
  5
26B
100
AcDbEntity
  8
レイヤー_1
  6
CONTINUOUS
 62
       3
100
AcDbLine
 10
-100.36227225
 20
-36.5947497
 30
0.0
 11
-100.00983002
 21
-36.61232163
 31
0.0
  0
LINE
  5
26C
100
AcDbEntity
  8
レイヤー_1
  6
CONTINUOUS
 62
       3
100
AcDbLine
 10
-110.00921967
 20
1.97748481
 30
0.0
 11
-109.65677744
 21
1.99505664
 31
0.0
  0
LINE
  5
26D
100
AcDbEntity
  8
レイヤー_1
  6
CONTINUOUS
 62
       3
100
AcDbLine
 10
-109.65677744
 20
1.99505664
 30
0.0
 11
-109.31434034
 21
2.04664931
 31
0.0
  0
LINE
  5
26E
100
AcDbEntity
  8
レイヤー_1
  6
CONTINUOUS
 62
       3
100
AcDbLine
 10
-109.31434034
 20
2.04664931
 30
0.0
 11
-108.98358654
 21
2.13057862
 31
0.0
  0
LINE
  5
26F
100
AcDbEntity
  8
レイヤー_1
  6
CONTINUOUS
 62
       3
100
AcDbLine
 10
-108.98358654
 20
2.13057862
 30
0.0
 11
-108.66619423
 21
2.24516037
 31
0.0
  0
LINE
  5
270
100
AcDbEntity
  8
レイヤー_1
  6
CONTINUOUS
 62
       3
100
AcDbLine
 10
-108.66619423
 20
2.24516037
 30
0.0
 11
-108.3638416
 21
2.38871035
 31
0.0
  0
LINE
  5
271
100
AcDbEntity
  8
レイヤー_1
  6
CONTINUOUS
 62
       3
100
AcDbLine
 10
-108.3638416
 20
2.38871035
 30
0.0
 11
-108.07820681
 21
2.55954436
 31
0.0
  0
LINE
  5
272
100
AcDbEntity
  8
レイヤー_1
  6
CONTINUOUS
 62
       3
100
AcDbLine
 10
-108.07820681
 20
2.55954436
 30
0.0
 11
-107.81096807
 21
2.75597819
 31
0.0
  0
LINE
  5
273
100
AcDbEntity
  8
レイヤー_1
  6
CONTINUOUS
 62
       3
100
AcDbLine
 10
-107.81096807
 20
2.75597819
 30
0.0
 11
-107.56380355
 21
2.97632764
 31
0.0
  0
LINE
  5
274
100
AcDbEntity
  8
レイヤー_1
  6
CONTINUOUS
 62
       3
100
AcDbLine
 10
-107.56380355
 20
2.97632764
 30
0.0
 11
-107.33839143
 21
3.2189085
 31
0.0
  0
LINE
  5
275
100
AcDbEntity
  8
レイヤー_1
  6
CONTINUOUS
 62
       3
100
AcDbLine
 10
-107.33839143
 20
3.2189085
 30
0.0
 11
-107.1364099
 21
3.48203657
 31
0.0
  0
LINE
  5
276
100
AcDbEntity
  8
レイヤー_1
  6
CONTINUOUS
 62
       3
100
AcDbLine
 10
-107.1364099
 20
3.48203657
 30
0.0
 11
-106.95953714
 21
3.76402764
 31
0.0
  0
LINE
  5
277
100
AcDbEntity
  8
レイヤー_1
  6
CONTINUOUS
 62
       3
100
AcDbLine
 10
-106.95953714
 20
3.76402764
 30
0.0
 11
-106.80945134
 21
4.06319752
 31
0.0
  0
LINE
  5
278
100
AcDbEntity
  8
レイヤー_1
  6
CONTINUOUS
 62
       3
100
AcDbLine
 10
-106.80945134
 20
4.06319752
 30
0.0
 11
-106.68783067
 21
4.37786198
 31
0.0
  0
LINE
  5
279
100
AcDbEntity
  8
レイヤー_1
  6
CONTINUOUS
 62
       3
100
AcDbLine
 10
-106.68783067
 20
4.37786198
 30
0.0
 11
-106.59635333
 21
4.70633684
 31
0.0
  0
LINE
  5
27A
100
AcDbEntity
  8
レイヤー_1
  6
CONTINUOUS
 62
       3
100
AcDbLine
 10
-106.59635333
 20
4.70633684
 30
0.0
 11
-106.53669749
 21
5.04693787
 31
0.0
  0
LINE
  5
27B
100
AcDbEntity
  8
レイヤー_1
  6
CONTINUOUS
 62
       3
100
AcDbLine
 10
-106.53669749
 20
5.04693787
 30
0.0
 11
-106.51054134
 21
5.39798089
 31
0.0
  0
LINE
  5
27C
100
AcDbEntity
  8
レイヤー_1
  6
CONTINUOUS
 62
       3
100
AcDbLine
 10
-106.51054134
 20
5.39798089
 30
0.0
 11
-106.51932707
 21
5.75314653
 31
0.0
  0
LINE
  5
27D
100
AcDbEntity
  8
レイヤー_1
  6
CONTINUOUS
 62
       3
100
AcDbLine
 10
-106.51932707
 20
5.75314653
 30
0.0
 11
-106.56244284
 21
6.09923561
 31
0.0
  0
LINE
  5
27E
100
AcDbEntity
  8
レイヤー_1
  6
CONTINUOUS
 62
       3
100
AcDbLine
 10
-106.56244284
 20
6.09923561
 30
0.0
 11
-106.6382192
 21
6.4340242
 31
0.0
  0
LINE
  5
27F
100
AcDbEntity
  8
レイヤー_1
  6
CONTINUOUS
 62
       3
100
AcDbLine
 10
-106.6382192
 20
6.4340242
 30
0.0
 11
-106.74497798
 21
6.7558299
 31
0.0
  0
LINE
  5
280
100
AcDbEntity
  8
レイヤー_1
  6
CONTINUOUS
 62
       3
100
AcDbLine
 10
-106.74497798
 20
6.7558299
 30
0.0
 11
-106.88104098
 21
7.06297031
 31
0.0
  0
LINE
  5
281
100
AcDbEntity
  8
レイヤー_1
  6
CONTINUOUS
 62
       3
100
AcDbLine
 10
-106.88104098
 20
7.06297031
 30
0.0
 11
-107.04473004
 21
7.35376304
 31
0.0
  0
LINE
  5
282
100
AcDbEntity
  8
レイヤー_1
  6
CONTINUOUS
 62
       3
100
AcDbLine
 10
-107.04473004
 20
7.35376304
 30
0.0
 11
-107.23436695
 21
7.62652569
 31
0.0
  0
LINE
  5
283
100
AcDbEntity
  8
レイヤー_1
  6
CONTINUOUS
 62
       3
100
AcDbLine
 10
-107.23436695
 20
7.62652569
 30
0.0
 11
-107.44827355
 21
7.87957585
 31
0.0
  0
LINE
  5
284
100
AcDbEntity
  8
レイヤー_1
  6
CONTINUOUS
 62
       3
100
AcDbLine
 10
-107.44827355
 20
7.87957585
 30
0.0
 11
-107.68477164
 21
8.11123113
 31
0.0
  0
LINE
  5
285
100
AcDbEntity
  8
レイヤー_1
  6
CONTINUOUS
 62
       3
100
AcDbLine
 10
-107.68477164
 20
8.11123113
 30
0.0
 11
-107.94218305
 21
8.31980914
 31
0.0
  0
LINE
  5
286
100
AcDbEntity
  8
レイヤー_1
  6
CONTINUOUS
 62
       3
100
AcDbLine
 10
-107.94218305
 20
8.31980914
 30
0.0
 11
-108.21882959
 21
8.50362747
 31
0.0
  0
LINE
  5
287
100
AcDbEntity
  8
レイヤー_1
  6
CONTINUOUS
 62
       3
100
AcDbLine
 10
-108.21882959
 20
8.50362747
 30
0.0
 11
-108.51303307
 21
8.66100372
 31
0.0
  0
LINE
  5
288
100
AcDbEntity
  8
レイヤー_1
  6
CONTINUOUS
 62
       3
100
AcDbLine
 10
-108.51303307
 20
8.66100372
 30
0.0
 11
-108.82311532
 21
8.7902555
 31
0.0
  0
LINE
  5
289
100
AcDbEntity
  8
レイヤー_1
  6
CONTINUOUS
 62
       3
100
AcDbLine
 10
-108.82311532
 20
8.7902555
 30
0.0
 11
-109.14739814
 21
8.8897004
 31
0.0
  0
LINE
  5
28A
100
AcDbEntity
  8
レイヤー_1
  6
CONTINUOUS
 62
       3
100
AcDbLine
 10
-109.14739814
 20
8.8897004
 30
0.0
 11
-109.48420337
 21
8.95765604
 31
0.0
  0
LINE
  5
28B
100
AcDbEntity
  8
レイヤー_1
  6
CONTINUOUS
 62
       3
100
AcDbLine
 10
-109.48420337
 20
8.95765604
 30
0.0
 11
-109.8318528
 21
8.99244001
 31
0.0
  0
LINE
  5
28C
100
AcDbEntity
  8
レイヤー_1
  6
CONTINUOUS
 62
       3
100
AcDbLine
 10
-109.8318528
 20
8.99244001
 30
0.0
 11
-110.18658654
 21
8.99244001
 31
0.0
  0
LINE
  5
28D
100
AcDbEntity
  8
レイヤー_1
  6
CONTINUOUS
 62
       3
100
AcDbLine
 10
-110.18658654
 20
8.99244001
 30
0.0
 11
-110.53423597
 21
8.95765604
 31
0.0
  0
LINE
  5
28E
100
AcDbEntity
  8
レイヤー_1
  6
CONTINUOUS
 62
       3
100
AcDbLine
 10
-110.53423597
 20
8.95765604
 30
0.0
 11
-110.8710412
 21
8.8897004
 31
0.0
  0
LINE
  5
28F
100
AcDbEntity
  8
レイヤー_1
  6
CONTINUOUS
 62
       3
100
AcDbLine
 10
-110.8710412
 20
8.8897004
 30
0.0
 11
-111.19532402
 21
8.7902555
 31
0.0
  0
LINE
  5
290
100
AcDbEntity
  8
レイヤー_1
  6
CONTINUOUS
 62
       3
100
AcDbLine
 10
-111.19532402
 20
8.7902555
 30
0.0
 11
-111.50540627
 21
8.66100372
 31
0.0
  0
LINE
  5
291
100
AcDbEntity
  8
レイヤー_1
  6
CONTINUOUS
 62
       3
100
AcDbLine
 10
-111.50540627
 20
8.66100372
 30
0.0
 11
-111.79960975
 21
8.50362747
 31
0.0
  0
LINE
  5
292
100
AcDbEntity
  8
レイヤー_1
  6
CONTINUOUS
 62
       3
100
AcDbLine
 10
-111.79960975
 20
8.50362747
 30
0.0
 11
-112.07625629
 21
8.31980914
 31
0.0
  0
LINE
  5
293
100
AcDbEntity
  8
レイヤー_1
  6
CONTINUOUS
 62
       3
100
AcDbLine
 10
-112.07625629
 20
8.31980914
 30
0.0
 11
-112.3336677
 21
8.11123113
 31
0.0
  0
LINE
  5
294
100
AcDbEntity
  8
レイヤー_1
  6
CONTINUOUS
 62
       3
100
AcDbLine
 10
-112.3336677
 20
8.11123113
 30
0.0
 11
-112.57016579
 21
7.87957585
 31
0.0
  0
LINE
  5
295
100
AcDbEntity
  8
レイヤー_1
  6
CONTINUOUS
 62
       3
100
AcDbLine
 10
-112.57016579
 20
7.87957585
 30
0.0
 11
-112.78407239
 21
7.62652569
 31
0.0
  0
LINE
  5
296
100
AcDbEntity
  8
レイヤー_1
  6
CONTINUOUS
 62
       3
100
AcDbLine
 10
-112.78407239
 20
7.62652569
 30
0.0
 11
-112.9737093
 21
7.35376304
 31
0.0
  0
LINE
  5
297
100
AcDbEntity
  8
レイヤー_1
  6
CONTINUOUS
 62
       3
100
AcDbLine
 10
-112.9737093
 20
7.35376304
 30
0.0
 11
-113.13739836
 21
7.06297031
 31
0.0
  0
LINE
  5
298
100
AcDbEntity
  8
レイヤー_1
  6
CONTINUOUS
 62
       3
100
AcDbLine
 10
-113.13739836
 20
7.06297031
 30
0.0
 11
-113.27346136
 21
6.7558299
 31
0.0
  0
LINE
  5
299
100
AcDbEntity
  8
レイヤー_1
  6
CONTINUOUS
 62
       3
100
AcDbLine
 10
-113.27346136
 20
6.7558299
 30
0.0
 11
-113.38022014
 21
6.4340242
 31
0.0
  0
LINE
  5
29A
100
AcDbEntity
  8
レイヤー_1
  6
CONTINUOUS
 62
       3
100
AcDbLine
 10
-113.38022014
 20
6.4340242
 30
0.0
 11
-113.4559965
 21
6.09923561
 31
0.0
  0
LINE
  5
29B
100
AcDbEntity
  8
レイヤー_1
  6
CONTINUOUS
 62
       3
100
AcDbLine
 10
-113.4559965
 20
6.09923561
 30
0.0
 11
-113.49911227
 21
5.75314653
 31
0.0
  0
LINE
  5
29C
100
AcDbEntity
  8
レイヤー_1
  6
CONTINUOUS
 62
       3
100
AcDbLine
 10
-113.49911227
 20
5.75314653
 30
0.0
 11
-113.507898
 21
5.39798089
 31
0.0
  0
LINE
  5
29D
100
AcDbEntity
  8
レイヤー_1
  6
CONTINUOUS
 62
       3
100
AcDbLine
 10
-113.507898
 20
5.39798089
 30
0.0
 11
-113.48174185
 21
5.04693787
 31
0.0
  0
LINE
  5
29E
100
AcDbEntity
  8
レイヤー_1
  6
CONTINUOUS
 62
       3
100
AcDbLine
 10
-113.48174185
 20
5.04693787
 30
0.0
 11
-113.42208601
 21
4.70633684
 31
0.0
  0
LINE
  5
29F
100
AcDbEntity
  8
レイヤー_1
  6
CONTINUOUS
 62
       3
100
AcDbLine
 10
-113.42208601
 20
4.70633684
 30
0.0
 11
-113.33060867
 21
4.37786198
 31
0.0
  0
LINE
  5
2A0
100
AcDbEntity
  8
レイヤー_1
  6
CONTINUOUS
 62
       3
100
AcDbLine
 10
-113.33060867
 20
4.37786198
 30
0.0
 11
-113.208988
 21
4.06319752
 31
0.0
  0
LINE
  5
2A1
100
AcDbEntity
  8
レイヤー_1
  6
CONTINUOUS
 62
       3
100
AcDbLine
 10
-113.208988
 20
4.06319752
 30
0.0
 11
-113.0589022
 21
3.76402764
 31
0.0
  0
LINE
  5
2A2
100
AcDbEntity
  8
レイヤー_1
  6
CONTINUOUS
 62
       3
100
AcDbLine
 10
-113.0589022
 20
3.76402764
 30
0.0
 11
-112.88202944
 21
3.48203657
 31
0.0
  0
LINE
  5
2A3
100
AcDbEntity
  8
レイヤー_1
  6
CONTINUOUS
 62
       3
100
AcDbLine
 10
-112.88202944
 20
3.48203657
 30
0.0
 11
-112.68004791
 21
3.2189085
 31
0.0
  0
LINE
  5
2A4
100
AcDbEntity
  8
レイヤー_1
  6
CONTINUOUS
 62
       3
100
AcDbLine
 10
-112.68004791
 20
3.2189085
 30
0.0
 11
-112.45463579
 21
2.97632764
 31
0.0
  0
LINE
  5
2A5
100
AcDbEntity
  8
レイヤー_1
  6
CONTINUOUS
 62
       3
100
AcDbLine
 10
-112.45463579
 20
2.97632764
 30
0.0
 11
-112.20747127
 21
2.75597819
 31
0.0
  0
LINE
  5
2A6
100
AcDbEntity
  8
レイヤー_1
  6
CONTINUOUS
 62
       3
100
AcDbLine
 10
-112.20747127
 20
2.75597819
 30
0.0
 11
-111.94023253
 21
2.55954436
 31
0.0
  0
LINE
  5
2A7
100
AcDbEntity
  8
レイヤー_1
  6
CONTINUOUS
 62
       3
100
AcDbLine
 10
-111.94023253
 20
2.55954436
 30
0.0
 11
-111.65459774
 21
2.38871035
 31
0.0
  0
LINE
  5
2A8
100
AcDbEntity
  8
レイヤー_1
  6
CONTINUOUS
 62
       3
100
AcDbLine
 10
-111.65459774
 20
2.38871035
 30
0.0
 11
-111.35224511
 21
2.24516037
 31
0.0
  0
LINE
  5
2A9
100
AcDbEntity
  8
レイヤー_1
  6
CONTINUOUS
 62
       3
100
AcDbLine
 10
-111.35224511
 20
2.24516037
 30
0.0
 11
-111.0348528
 21
2.13057862
 31
0.0
  0
LINE
  5
2AA
100
AcDbEntity
  8
レイヤー_1
  6
CONTINUOUS
 62
       3
100
AcDbLine
 10
-111.0348528
 20
2.13057862
 30
0.0
 11
-110.704099
 21
2.04664931
 31
0.0
  0
LINE
  5
2AB
100
AcDbEntity
  8
レイヤー_1
  6
CONTINUOUS
 62
       3
100
AcDbLine
 10
-110.704099
 20
2.04664931
 30
0.0
 11
-110.36166189
 21
1.99505664
 31
0.0
  0
LINE
  5
2AC
100
AcDbEntity
  8
レイヤー_1
  6
CONTINUOUS
 62
       3
100
AcDbLine
 10
-110.36166189
 20
1.99505664
 30
0.0
 11
-110.00921967
 21
1.97748481
 31
0.0
  0
LINE
  5
2AD
100
AcDbEntity
  8
レイヤー_1
  6
CONTINUOUS
 62
       3
100
AcDbLine
 10
-100.00983002
 20
1.97748481
 30
0.0
 11
-99.65731309
 21
1.99505664
 31
0.0
  0
LINE
  5
2AE
100
AcDbEntity
  8
レイヤー_1
  6
CONTINUOUS
 62
       3
100
AcDbLine
 10
-99.65731309
 20
1.99505664
 30
0.0
 11
-99.31481046
 21
2.04664931
 31
0.0
  0
LINE
  5
2AF
100
AcDbEntity
  8
レイヤー_1
  6
CONTINUOUS
 62
       3
100
AcDbLine
 10
-99.31481046
 20
2.04664931
 30
0.0
 11
-98.98399971
 21
2.13057862
 31
0.0
  0
LINE
  5
2B0
100
AcDbEntity
  8
レイヤー_1
  6
CONTINUOUS
 62
       3
100
AcDbLine
 10
-98.98399971
 20
2.13057862
 30
0.0
 11
-98.66655843
 21
2.24516037
 31
0.0
  0
LINE
  5
2B1
100
AcDbEntity
  8
レイヤー_1
  6
CONTINUOUS
 62
       3
100
AcDbLine
 10
-98.66655843
 20
2.24516037
 30
0.0
 11
-98.3641642
 21
2.38871035
 31
0.0
  0
LINE
  5
2B2
100
AcDbEntity
  8
レイヤー_1
  6
CONTINUOUS
 62
       3
100
AcDbLine
 10
-98.3641642
 20
2.38871035
 30
0.0
 11
-98.0784946
 21
2.55954436
 31
0.0
  0
LINE
  5
2B3
100
AcDbEntity
  8
レイヤー_1
  6
CONTINUOUS
 62
       3
100
AcDbLine
 10
-98.0784946
 20
2.55954436
 30
0.0
 11
-97.81122721
 21
2.75597819
 31
0.0
  0
LINE
  5
2B4
100
AcDbEntity
  8
レイヤー_1
  6
CONTINUOUS
 62
       3
100
AcDbLine
 10
-97.81122721
 20
2.75597819
 30
0.0
 11
-97.56403961
 21
2.97632764
 31
0.0
  0
LINE
  5
2B5
100
AcDbEntity
  8
レイヤー_1
  6
CONTINUOUS
 62
       3
100
AcDbLine
 10
-97.56403961
 20
2.97632764
 30
0.0
 11
-97.33860939
 21
3.2189085
 31
0.0
  0
LINE
  5
2B6
100
AcDbEntity
  8
レイヤー_1
  6
CONTINUOUS
 62
       3
100
AcDbLine
 10
-97.33860939
 20
3.2189085
 30
0.0
 11
-97.13661412
 21
3.48203657
 31
0.0
  0
LINE
  5
2B7
100
AcDbEntity
  8
レイヤー_1
  6
CONTINUOUS
 62
       3
100
AcDbLine
 10
-97.13661412
 20
3.48203657
 30
0.0
 11
-96.95973138
 21
3.76402764
 31
0.0
  0
LINE
  5
2B8
100
AcDbEntity
  8
レイヤー_1
  6
CONTINUOUS
 62
       3
100
AcDbLine
 10
-96.95973138
 20
3.76402764
 30
0.0
 11
-96.80963876
 21
4.06319752
 31
0.0
  0
LINE
  5
2B9
100
AcDbEntity
  8
レイヤー_1
  6
CONTINUOUS
 62
       3
100
AcDbLine
 10
-96.80963876
 20
4.06319752
 30
0.0
 11
-96.68801384
 21
4.37786198
 31
0.0
  0
LINE
  5
2BA
100
AcDbEntity
  8
レイヤー_1
  6
CONTINUOUS
 62
       3
100
AcDbLine
 10
-96.68801384
 20
4.37786198
 30
0.0
 11
-96.59653419
 21
4.70633684
 31
0.0
  0
LINE
  5
2BB
100
AcDbEntity
  8
レイヤー_1
  6
CONTINUOUS
 62
       3
100
AcDbLine
 10
-96.59653419
 20
4.70633684
 30
0.0
 11
-96.53687741
 21
5.04693787
 31
0.0
  0
LINE
  5
2BC
100
AcDbEntity
  8
レイヤー_1
  6
CONTINUOUS
 62
       3
100
AcDbLine
 10
-96.53687741
 20
5.04693787
 30
0.0
 11
-96.51072106
 21
5.39798089
 31
0.0
  0
LINE
  5
2BD
100
AcDbEntity
  8
レイヤー_1
  6
CONTINUOUS
 62
       3
100
AcDbLine
 10
-96.51072106
 20
5.39798089
 30
0.0
 11
-96.51950683
 21
5.75314653
 31
0.0
  0
LINE
  5
2BE
100
AcDbEntity
  8
レイヤー_1
  6
CONTINUOUS
 62
       3
100
AcDbLine
 10
-96.51950683
 20
5.75314653
 30
0.0
 11
-96.56262309
 21
6.09923561
 31
0.0
  0
LINE
  5
2BF
100
AcDbEntity
  8
レイヤー_1
  6
CONTINUOUS
 62
       3
100
AcDbLine
 10
-96.56262309
 20
6.09923561
 30
0.0
 11
-96.638401
 21
6.4340242
 31
0.0
  0
LINE
  5
2C0
100
AcDbEntity
  8
レイヤー_1
  6
CONTINUOUS
 62
       3
100
AcDbLine
 10
-96.638401
 20
6.4340242
 30
0.0
 11
-96.74516299
 21
6.7558299
 31
0.0
  0
LINE
  5
2C1
100
AcDbEntity
  8
レイヤー_1
  6
CONTINUOUS
 62
       3
100
AcDbLine
 10
-96.74516299
 20
6.7558299
 30
0.0
 11
-96.88123146
 21
7.06297031
 31
0.0
  0
LINE
  5
2C2
100
AcDbEntity
  8
レイヤー_1
  6
CONTINUOUS
 62
       3
100
AcDbLine
 10
-96.88123146
 20
7.06297031
 30
0.0
 11
-97.04492883
 21
7.35376304
 31
0.0
  0
LINE
  5
2C3
100
AcDbEntity
  8
レイヤー_1
  6
CONTINUOUS
 62
       3
100
AcDbLine
 10
-97.04492883
 20
7.35376304
 30
0.0
 11
-97.23457753
 21
7.62652569
 31
0.0
  0
LINE
  5
2C4
100
AcDbEntity
  8
レイヤー_1
  6
CONTINUOUS
 62
       3
100
AcDbLine
 10
-97.23457753
 20
7.62652569
 30
0.0
 11
-97.44849998
 21
7.87957585
 31
0.0
  0
LINE
  5
2C5
100
AcDbEntity
  8
レイヤー_1
  6
CONTINUOUS
 62
       3
100
AcDbLine
 10
-97.44849998
 20
7.87957585
 30
0.0
 11
-97.68501859
 21
8.11123113
 31
0.0
  0
LINE
  5
2C6
100
AcDbEntity
  8
レイヤー_1
  6
CONTINUOUS
 62
       3
100
AcDbLine
 10
-97.68501859
 20
8.11123113
 30
0.0
 11
-97.94245578
 21
8.31980914
 31
0.0
  0
LINE
  5
2C7
100
AcDbEntity
  8
レイヤー_1
  6
CONTINUOUS
 62
       3
100
AcDbLine
 10
-97.94245578
 20
8.31980914
 30
0.0
 11
-98.21913398
 21
8.50362747
 31
0.0
  0
LINE
  5
2C8
100
AcDbEntity
  8
レイヤー_1
  6
CONTINUOUS
 62
       3
100
AcDbLine
 10
-98.21913398
 20
8.50362747
 30
0.0
 11
-98.51337559
 21
8.66100372
 31
0.0
  0
LINE
  5
2C9
100
AcDbEntity
  8
レイヤー_1
  6
CONTINUOUS
 62
       3
100
AcDbLine
 10
-98.51337559
 20
8.66100372
 30
0.0
 11
-98.82350304
 21
8.7902555
 31
0.0
  0
LINE
  5
2CA
100
AcDbEntity
  8
レイヤー_1
  6
CONTINUOUS
 62
       3
100
AcDbLine
 10
-98.82350304
 20
8.7902555
 30
0.0
 11
-99.14783875
 21
8.8897004
 31
0.0
  0
LINE
  5
2CB
100
AcDbEntity
  8
レイヤー_1
  6
CONTINUOUS
 62
       3
100
AcDbLine
 10
-99.14783875
 20
8.8897004
 30
0.0
 11
-99.48470514
 21
8.95765604
 31
0.0
  0
LINE
  5
2CC
100
AcDbEntity
  8
レイヤー_1
  6
CONTINUOUS
 62
       3
100
AcDbLine
 10
-99.48470514
 20
8.95765604
 30
0.0
 11
-99.83242462
 21
8.99244001
 31
0.0
  0
LINE
  5
2CD
100
AcDbEntity
  8
レイヤー_1
  6
CONTINUOUS
 62
       3
100
AcDbLine
 10
-99.83242462
 20
8.99244001
 30
0.0
 11
-100.18719689
 21
8.99244001
 31
0.0
  0
LINE
  5
2CE
100
AcDbEntity
  8
レイヤー_1
  6
CONTINUOUS
 62
       3
100
AcDbLine
 10
-100.18719689
 20
8.99244001
 30
0.0
 11
-100.53484633
 21
8.95765604
 31
0.0
  0
LINE
  5
2CF
100
AcDbEntity
  8
レイヤー_1
  6
CONTINUOUS
 62
       3
100
AcDbLine
 10
-100.53484633
 20
8.95765604
 30
0.0
 11
-100.87165155
 21
8.8897004
 31
0.0
  0
LINE
  5
2D0
100
AcDbEntity
  8
レイヤー_1
  6
CONTINUOUS
 62
       3
100
AcDbLine
 10
-100.87165155
 20
8.8897004
 30
0.0
 11
-101.19593438
 21
8.7902555
 31
0.0
  0
LINE
  5
2D1
100
AcDbEntity
  8
レイヤー_1
  6
CONTINUOUS
 62
       3
100
AcDbLine
 10
-101.19593438
 20
8.7902555
 30
0.0
 11
-101.50601662
 21
8.66100372
 31
0.0
  0
LINE
  5
2D2
100
AcDbEntity
  8
レイヤー_1
  6
CONTINUOUS
 62
       3
100
AcDbLine
 10
-101.50601662
 20
8.66100372
 30
0.0
 11
-101.80022011
 21
8.50362747
 31
0.0
  0
LINE
  5
2D3
100
AcDbEntity
  8
レイヤー_1
  6
CONTINUOUS
 62
       3
100
AcDbLine
 10
-101.80022011
 20
8.50362747
 30
0.0
 11
-102.07686664
 21
8.31980914
 31
0.0
  0
LINE
  5
2D4
100
AcDbEntity
  8
レイヤー_1
  6
CONTINUOUS
 62
       3
100
AcDbLine
 10
-102.07686664
 20
8.31980914
 30
0.0
 11
-102.33427805
 21
8.11123113
 31
0.0
  0
LINE
  5
2D5
100
AcDbEntity
  8
レイヤー_1
  6
CONTINUOUS
 62
       3
100
AcDbLine
 10
-102.33427805
 20
8.11123113
 30
0.0
 11
-102.57077614
 21
7.87957585
 31
0.0
  0
LINE
  5
2D6
100
AcDbEntity
  8
レイヤー_1
  6
CONTINUOUS
 62
       3
100
AcDbLine
 10
-102.57077614
 20
7.87957585
 30
0.0
 11
-102.78468274
 21
7.62652569
 31
0.0
  0
LINE
  5
2D7
100
AcDbEntity
  8
レイヤー_1
  6
CONTINUOUS
 62
       3
100
AcDbLine
 10
-102.78468274
 20
7.62652569
 30
0.0
 11
-102.97431966
 21
7.35376304
 31
0.0
  0
LINE
  5
2D8
100
AcDbEntity
  8
レイヤー_1
  6
CONTINUOUS
 62
       3
100
AcDbLine
 10
-102.97431966
 20
7.35376304
 30
0.0
 11
-103.13800871
 21
7.06297031
 31
0.0
  0
LINE
  5
2D9
100
AcDbEntity
  8
レイヤー_1
  6
CONTINUOUS
 62
       3
100
AcDbLine
 10
-103.13800871
 20
7.06297031
 30
0.0
 11
-103.27407172
 21
6.7558299
 31
0.0
  0
LINE
  5
2DA
100
AcDbEntity
  8
レイヤー_1
  6
CONTINUOUS
 62
       3
100
AcDbLine
 10
-103.27407172
 20
6.7558299
 30
0.0
 11
-103.38083049
 21
6.4340242
 31
0.0
  0
LINE
  5
2DB
100
AcDbEntity
  8
レイヤー_1
  6
CONTINUOUS
 62
       3
100
AcDbLine
 10
-103.38083049
 20
6.4340242
 30
0.0
 11
-103.45660686
 21
6.09923561
 31
0.0
  0
LINE
  5
2DC
100
AcDbEntity
  8
レイヤー_1
  6
CONTINUOUS
 62
       3
100
AcDbLine
 10
-103.45660686
 20
6.09923561
 30
0.0
 11
-103.49972262
 21
5.75314653
 31
0.0
  0
LINE
  5
2DD
100
AcDbEntity
  8
レイヤー_1
  6
CONTINUOUS
 62
       3
100
AcDbLine
 10
-103.49972262
 20
5.75314653
 30
0.0
 11
-103.50850835
 21
5.39798089
 31
0.0
  0
LINE
  5
2DE
100
AcDbEntity
  8
レイヤー_1
  6
CONTINUOUS
 62
       3
100
AcDbLine
 10
-103.50850835
 20
5.39798089
 30
0.0
 11
-103.4823522
 21
5.04693787
 31
0.0
  0
LINE
  5
2DF
100
AcDbEntity
  8
レイヤー_1
  6
CONTINUOUS
 62
       3
100
AcDbLine
 10
-103.4823522
 20
5.04693787
 30
0.0
 11
-103.42269636
 21
4.70633684
 31
0.0
  0
LINE
  5
2E0
100
AcDbEntity
  8
レイヤー_1
  6
CONTINUOUS
 62
       3
100
AcDbLine
 10
-103.42269636
 20
4.70633684
 30
0.0
 11
-103.33121902
 21
4.37786198
 31
0.0
  0
LINE
  5
2E1
100
AcDbEntity
  8
レイヤー_1
  6
CONTINUOUS
 62
       3
100
AcDbLine
 10
-103.33121902
 20
4.37786198
 30
0.0
 11
-103.20959836
 21
4.06319752
 31
0.0
  0
LINE
  5
2E2
100
AcDbEntity
  8
レイヤー_1
  6
CONTINUOUS
 62
       3
100
AcDbLine
 10
-103.20959836
 20
4.06319752
 30
0.0
 11
-103.05951255
 21
3.76402764
 31
0.0
  0
LINE
  5
2E3
100
AcDbEntity
  8
レイヤー_1
  6
CONTINUOUS
 62
       3
100
AcDbLine
 10
-103.05951255
 20
3.76402764
 30
0.0
 11
-102.8826398
 21
3.48203657
 31
0.0
  0
LINE
  5
2E4
100
AcDbEntity
  8
レイヤー_1
  6
CONTINUOUS
 62
       3
100
AcDbLine
 10
-102.8826398
 20
3.48203657
 30
0.0
 11
-102.68065827
 21
3.2189085
 31
0.0
  0
LINE
  5
2E5
100
AcDbEntity
  8
レイヤー_1
  6
CONTINUOUS
 62
       3
100
AcDbLine
 10
-102.68065827
 20
3.2189085
 30
0.0
 11
-102.45524615
 21
2.97632764
 31
0.0
  0
LINE
  5
2E6
100
AcDbEntity
  8
レイヤー_1
  6
CONTINUOUS
 62
       3
100
AcDbLine
 10
-102.45524615
 20
2.97632764
 30
0.0
 11
-102.20808163
 21
2.75597819
 31
0.0
  0
LINE
  5
2E7
100
AcDbEntity
  8
レイヤー_1
  6
CONTINUOUS
 62
       3
100
AcDbLine
 10
-102.20808163
 20
2.75597819
 30
0.0
 11
-101.94084288
 21
2.55954436
 31
0.0
  0
LINE
  5
2E8
100
AcDbEntity
  8
レイヤー_1
  6
CONTINUOUS
 62
       3
100
AcDbLine
 10
-101.94084288
 20
2.55954436
 30
0.0
 11
-101.6552081
 21
2.38871035
 31
0.0
  0
LINE
  5
2E9
100
AcDbEntity
  8
レイヤー_1
  6
CONTINUOUS
 62
       3
100
AcDbLine
 10
-101.6552081
 20
2.38871035
 30
0.0
 11
-101.35285546
 21
2.24516037
 31
0.0
  0
LINE
  5
2EA
100
AcDbEntity
  8
レイヤー_1
  6
CONTINUOUS
 62
       3
100
AcDbLine
 10
-101.35285546
 20
2.24516037
 30
0.0
 11
-101.03546315
 21
2.13057862
 31
0.0
  0
LINE
  5
2EB
100
AcDbEntity
  8
レイヤー_1
  6
CONTINUOUS
 62
       3
100
AcDbLine
 10
-101.03546315
 20
2.13057862
 30
0.0
 11
-100.70470935
 21
2.04664931
 31
0.0
  0
LINE
  5
2EC
100
AcDbEntity
  8
レイヤー_1
  6
CONTINUOUS
 62
       3
100
AcDbLine
 10
-100.70470935
 20
2.04664931
 30
0.0
 11
-100.36227225
 21
1.99505664
 31
0.0
  0
LINE
  5
2ED
100
AcDbEntity
  8
レイヤー_1
  6
CONTINUOUS
 62
       3
100
AcDbLine
 10
-100.36227225
 20
1.99505664
 30
0.0
 11
-100.00983002
 21
1.97748481
 31
0.0
  0
LINE
  5
2EE
100
AcDbEntity
  8
レイヤー_1
  6
CONTINUOUS
 62
       3
100
AcDbLine
 10
-105.00952485
 20
15.01329549
 30
0.0
 11
-104.65721797
 21
15.03087191
 31
0.0
  0
LINE
  5
2EF
100
AcDbEntity
  8
レイヤー_1
  6
CONTINUOUS
 62
       3
100
AcDbLine
 10
-104.65721797
 20
15.03087191
 30
0.0
 11
-104.3148721
 21
15.08247715
 31
0.0
  0
LINE
  5
2F0
100
AcDbEntity
  8
レイヤー_1
  6
CONTINUOUS
 62
       3
100
AcDbLine
 10
-104.3148721
 20
15.08247715
 30
0.0
 11
-103.98417025
 21
15.1664252
 31
0.0
  0
LINE
  5
2F1
100
AcDbEntity
  8
レイヤー_1
  6
CONTINUOUS
 62
       3
100
AcDbLine
 10
-103.98417025
 20
15.1664252
 30
0.0
 11
-103.66679542
 21
15.28103006
 31
0.0
  0
LINE
  5
2F2
100
AcDbEntity
  8
レイヤー_1
  6
CONTINUOUS
 62
       3
100
AcDbLine
 10
-103.66679542
 20
15.28103006
 30
0.0
 11
-103.3644306
 21
15.42460571
 31
0.0
  0
LINE
  5
2F3
100
AcDbEntity
  8
レイヤー_1
  6
CONTINUOUS
 62
       3
100
AcDbLine
 10
-103.3644306
 20
15.42460571
 30
0.0
 11
-103.07875879
 21
15.59546614
 31
0.0
  0
LINE
  5
2F4
100
AcDbEntity
  8
レイヤー_1
  6
CONTINUOUS
 62
       3
100
AcDbLine
 10
-103.07875879
 20
15.59546614
 30
0.0
 11
-102.81146301
 21
15.79192533
 31
0.0
  0
LINE
  5
2F5
100
AcDbEntity
  8
レイヤー_1
  6
CONTINUOUS
 62
       3
100
AcDbLine
 10
-102.81146301
 20
15.79192533
 30
0.0
 11
-102.56422624
 21
16.01229729
 31
0.0
  0
LINE
  5
2F6
100
AcDbEntity
  8
レイヤー_1
  6
CONTINUOUS
 62
       3
100
AcDbLine
 10
-102.56422624
 20
16.01229729
 30
0.0
 11
-102.33873149
 21
16.25489599
 31
0.0
  0
LINE
  5
2F7
100
AcDbEntity
  8
レイヤー_1
  6
CONTINUOUS
 62
       3
100
AcDbLine
 10
-102.33873149
 20
16.25489599
 30
0.0
 11
-102.13666176
 21
16.51803542
 31
0.0
  0
LINE
  5
2F8
100
AcDbEntity
  8
レイヤー_1
  6
CONTINUOUS
 62
       3
100
AcDbLine
 10
-102.13666176
 20
16.51803542
 30
0.0
 11
-101.95970005
 21
16.80002958
 31
0.0
  0
LINE
  5
2F9
100
AcDbEntity
  8
レイヤー_1
  6
CONTINUOUS
 62
       3
100
AcDbLine
 10
-101.95970005
 20
16.80002958
 30
0.0
 11
-101.80952935
 21
17.09919245
 31
0.0
  0
LINE
  5
2FA
100
AcDbEntity
  8
レイヤー_1
  6
CONTINUOUS
 62
       3
100
AcDbLine
 10
-101.80952935
 20
17.09919245
 30
0.0
 11
-101.68783268
 21
17.41383803
 31
0.0
  0
LINE
  5
2FB
100
AcDbEntity
  8
レイヤー_1
  6
CONTINUOUS
 62
       3
100
AcDbLine
 10
-101.68783268
 20
17.41383803
 30
0.0
 11
-101.59629303
 21
17.74228029
 31
0.0
  0
LINE
  5
2FC
100
AcDbEntity
  8
レイヤー_1
  6
CONTINUOUS
 62
       3
100
AcDbLine
 10
-101.59629303
 20
17.74228029
 30
0.0
 11
-101.5365934
 21
18.08283323
 31
0.0
  0
LINE
  5
2FD
100
AcDbEntity
  8
レイヤー_1
  6
CONTINUOUS
 62
       3
100
AcDbLine
 10
-101.5365934
 20
18.08283323
 30
0.0
 11
-101.51041679
 21
18.43381084
 31
0.0
  0
LINE
  5
2FE
100
AcDbEntity
  8
レイヤー_1
  6
CONTINUOUS
 62
       3
100
AcDbLine
 10
-101.51041679
 20
18.43381084
 30
0.0
 11
-101.51920953
 21
18.78895721
 31
0.0
  0
LINE
  5
2FF
100
AcDbEntity
  8
レイヤー_1
  6
CONTINUOUS
 62
       3
100
AcDbLine
 10
-101.51920953
 20
18.78895721
 30
0.0
 11
-101.56235802
 21
19.13504629
 31
0.0
  0
LINE
  5
300
100
AcDbEntity
  8
レイヤー_1
  6
CONTINUOUS
 62
       3
100
AcDbLine
 10
-101.56235802
 20
19.13504629
 30
0.0
 11
-101.63818804
 21
19.46983488
 31
0.0
  0
LINE
  5
301
100
AcDbEntity
  8
レイヤー_1
  6
CONTINUOUS
 62
       3
100
AcDbLine
 10
-101.63818804
 20
19.46983488
 30
0.0
 11
-101.74501658
 21
19.79164058
 31
0.0
  0
LINE
  5
302
100
AcDbEntity
  8
レイヤー_1
  6
CONTINUOUS
 62
       3
100
AcDbLine
 10
-101.74501658
 20
19.79164058
 30
0.0
 11
-101.88116064
 21
20.09878099
 31
0.0
  0
LINE
  5
303
100
AcDbEntity
  8
レイヤー_1
  6
CONTINUOUS
 62
       3
100
AcDbLine
 10
-101.88116064
 20
20.09878099
 30
0.0
 11
-102.04493721
 21
20.38957372
 31
0.0
  0
LINE
  5
304
100
AcDbEntity
  8
レイヤー_1
  6
CONTINUOUS
 62
       3
100
AcDbLine
 10
-102.04493721
 20
20.38957372
 30
0.0
 11
-102.23466331
 21
20.66233637
 31
0.0
  0
LINE
  5
305
100
AcDbEntity
  8
レイヤー_1
  6
CONTINUOUS
 62
       3
100
AcDbLine
 10
-102.23466331
 20
20.66233637
 30
0.0
 11
-102.44865593
 21
20.91538653
 31
0.0
  0
LINE
  5
306
100
AcDbEntity
  8
レイヤー_1
  6
CONTINUOUS
 62
       3
100
AcDbLine
 10
-102.44865593
 20
20.91538653
 30
0.0
 11
-102.68523206
 21
21.14704181
 31
0.0
  0
LINE
  5
307
100
AcDbEntity
  8
レイヤー_1
  6
CONTINUOUS
 62
       3
100
AcDbLine
 10
-102.68523206
 20
21.14704181
 30
0.0
 11
-102.94270871
 21
21.35561982
 31
0.0
  0
LINE
  5
308
100
AcDbEntity
  8
レイヤー_1
  6
CONTINUOUS
 62
       3
100
AcDbLine
 10
-102.94270871
 20
21.35561982
 30
0.0
 11
-103.21940288
 21
21.53943814
 31
0.0
  0
LINE
  5
309
100
AcDbEntity
  8
レイヤー_1
  6
CONTINUOUS
 62
       3
100
AcDbLine
 10
-103.21940288
 20
21.53943814
 30
0.0
 11
-103.51363157
 21
21.6968144
 31
0.0
  0
LINE
  5
30A
100
AcDbEntity
  8
レイヤー_1
  6
CONTINUOUS
 62
       3
100
AcDbLine
 10
-103.51363157
 20
21.6968144
 30
0.0
 11
-103.82371177
 21
21.82606617
 31
0.0
  0
LINE
  5
30B
100
AcDbEntity
  8
レイヤー_1
  6
CONTINUOUS
 62
       3
100
AcDbLine
 10
-103.82371177
 20
21.82606617
 30
0.0
 11
-104.14796049
 21
21.92551108
 31
0.0
  0
LINE
  5
30C
100
AcDbEntity
  8
レイヤー_1
  6
CONTINUOUS
 62
       3
100
AcDbLine
 10
-104.14796049
 20
21.92551108
 30
0.0
 11
-104.48469472
 21
21.99346672
 31
0.0
  0
LINE
  5
30D
100
AcDbEntity
  8
レイヤー_1
  6
CONTINUOUS
 62
       3
100
AcDbLine
 10
-104.48469472
 20
21.99346672
 30
0.0
 11
-104.83223147
 21
22.02825068
 31
0.0
  0
LINE
  5
30E
100
AcDbEntity
  8
レイヤー_1
  6
CONTINUOUS
 62
       3
100
AcDbLine
 10
-104.83223147
 20
22.02825068
 30
0.0
 11
-105.18689171
 21
22.02825068
 31
0.0
  0
LINE
  5
30F
100
AcDbEntity
  8
レイヤー_1
  6
CONTINUOUS
 62
       3
100
AcDbLine
 10
-105.18689171
 20
22.02825068
 30
0.0
 11
-105.53454115
 21
21.99346672
 31
0.0
  0
LINE
  5
310
100
AcDbEntity
  8
レイヤー_1
  6
CONTINUOUS
 62
       3
100
AcDbLine
 10
-105.53454115
 20
21.99346672
 30
0.0
 11
-105.87134637
 21
21.92551108
 31
0.0
  0
LINE
  5
311
100
AcDbEntity
  8
レイヤー_1
  6
CONTINUOUS
 62
       3
100
AcDbLine
 10
-105.87134637
 20
21.92551108
 30
0.0
 11
-106.1956292
 21
21.82606617
 31
0.0
  0
LINE
  5
312
100
AcDbEntity
  8
レイヤー_1
  6
CONTINUOUS
 62
       3
100
AcDbLine
 10
-106.1956292
 20
21.82606617
 30
0.0
 11
-106.50571145
 21
21.6968144
 31
0.0
  0
LINE
  5
313
100
AcDbEntity
  8
レイヤー_1
  6
CONTINUOUS
 62
       3
100
AcDbLine
 10
-106.50571145
 20
21.6968144
 30
0.0
 11
-106.79991493
 21
21.53943814
 31
0.0
  0
LINE
  5
314
100
AcDbEntity
  8
レイヤー_1
  6
CONTINUOUS
 62
       3
100
AcDbLine
 10
-106.79991493
 20
21.53943814
 30
0.0
 11
-107.07656147
 21
21.35561982
 31
0.0
  0
LINE
  5
315
100
AcDbEntity
  8
レイヤー_1
  6
CONTINUOUS
 62
       3
100
AcDbLine
 10
-107.07656147
 20
21.35561982
 30
0.0
 11
-107.33397287
 21
21.14704181
 31
0.0
  0
LINE
  5
316
100
AcDbEntity
  8
レイヤー_1
  6
CONTINUOUS
 62
       3
100
AcDbLine
 10
-107.33397287
 20
21.14704181
 30
0.0
 11
-107.57047097
 21
20.91538653
 31
0.0
  0
LINE
  5
317
100
AcDbEntity
  8
レイヤー_1
  6
CONTINUOUS
 62
       3
100
AcDbLine
 10
-107.57047097
 20
20.91538653
 30
0.0
 11
-107.78437756
 21
20.66233637
 31
0.0
  0
LINE
  5
318
100
AcDbEntity
  8
レイヤー_1
  6
CONTINUOUS
 62
       3
100
AcDbLine
 10
-107.78437756
 20
20.66233637
 30
0.0
 11
-107.97401448
 21
20.38957372
 31
0.0
  0
LINE
  5
319
100
AcDbEntity
  8
レイヤー_1
  6
CONTINUOUS
 62
       3
100
AcDbLine
 10
-107.97401448
 20
20.38957372
 30
0.0
 11
-108.13770353
 21
20.09878099
 31
0.0
  0
LINE
  5
31A
100
AcDbEntity
  8
レイヤー_1
  6
CONTINUOUS
 62
       3
100
AcDbLine
 10
-108.13770353
 20
20.09878099
 30
0.0
 11
-108.27376654
 21
19.79164058
 31
0.0
  0
LINE
  5
31B
100
AcDbEntity
  8
レイヤー_1
  6
CONTINUOUS
 62
       3
100
AcDbLine
 10
-108.27376654
 20
19.79164058
 30
0.0
 11
-108.38052532
 21
19.46983488
 31
0.0
  0
LINE
  5
31C
100
AcDbEntity
  8
レイヤー_1
  6
CONTINUOUS
 62
       3
100
AcDbLine
 10
-108.38052532
 20
19.46983488
 30
0.0
 11
-108.45630168
 21
19.13504629
 31
0.0
  0
LINE
  5
31D
100
AcDbEntity
  8
レイヤー_1
  6
CONTINUOUS
 62
       3
100
AcDbLine
 10
-108.45630168
 20
19.13504629
 30
0.0
 11
-108.49941745
 21
18.78895721
 31
0.0
  0
LINE
  5
31E
100
AcDbEntity
  8
レイヤー_1
  6
CONTINUOUS
 62
       3
100
AcDbLine
 10
-108.49941745
 20
18.78895721
 30
0.0
 11
-108.50820317
 21
18.43381084
 31
0.0
  0
LINE
  5
31F
100
AcDbEntity
  8
レイヤー_1
  6
CONTINUOUS
 62
       3
100
AcDbLine
 10
-108.50820317
 20
18.43381084
 30
0.0
 11
-108.48204702
 21
18.08283323
 31
0.0
  0
LINE
  5
320
100
AcDbEntity
  8
レイヤー_1
  6
CONTINUOUS
 62
       3
100
AcDbLine
 10
-108.48204702
 20
18.08283323
 30
0.0
 11
-108.42239119
 21
17.74228029
 31
0.0
  0
LINE
  5
321
100
AcDbEntity
  8
レイヤー_1
  6
CONTINUOUS
 62
       3
100
AcDbLine
 10
-108.42239119
 20
17.74228029
 30
0.0
 11
-108.33091384
 21
17.41383803
 31
0.0
  0
LINE
  5
322
100
AcDbEntity
  8
レイヤー_1
  6
CONTINUOUS
 62
       3
100
AcDbLine
 10
-108.33091384
 20
17.41383803
 30
0.0
 11
-108.20929318
 21
17.09919245
 31
0.0
  0
LINE
  5
323
100
AcDbEntity
  8
レイヤー_1
  6
CONTINUOUS
 62
       3
100
AcDbLine
 10
-108.20929318
 20
17.09919245
 30
0.0
 11
-108.05920738
 21
16.80002958
 31
0.0
  0
LINE
  5
324
100
AcDbEntity
  8
レイヤー_1
  6
CONTINUOUS
 62
       3
100
AcDbLine
 10
-108.05920738
 20
16.80002958
 30
0.0
 11
-107.88233462
 21
16.51803542
 31
0.0
  0
LINE
  5
325
100
AcDbEntity
  8
レイヤー_1
  6
CONTINUOUS
 62
       3
100
AcDbLine
 10
-107.88233462
 20
16.51803542
 30
0.0
 11
-107.68035309
 21
16.25489599
 31
0.0
  0
LINE
  5
326
100
AcDbEntity
  8
レイヤー_1
  6
CONTINUOUS
 62
       3
100
AcDbLine
 10
-107.68035309
 20
16.25489599
 30
0.0
 11
-107.45494097
 21
16.01229729
 31
0.0
  0
LINE
  5
327
100
AcDbEntity
  8
レイヤー_1
  6
CONTINUOUS
 62
       3
100
AcDbLine
 10
-107.45494097
 20
16.01229729
 30
0.0
 11
-107.20777645
 21
15.79192533
 31
0.0
  0
LINE
  5
328
100
AcDbEntity
  8
レイヤー_1
  6
CONTINUOUS
 62
       3
100
AcDbLine
 10
-107.20777645
 20
15.79192533
 30
0.0
 11
-106.9405377
 21
15.59546614
 31
0.0
  0
LINE
  5
329
100
AcDbEntity
  8
レイヤー_1
  6
CONTINUOUS
 62
       3
100
AcDbLine
 10
-106.9405377
 20
15.59546614
 30
0.0
 11
-106.65490292
 21
15.42460571
 31
0.0
  0
LINE
  5
32A
100
AcDbEntity
  8
レイヤー_1
  6
CONTINUOUS
 62
       3
100
AcDbLine
 10
-106.65490292
 20
15.42460571
 30
0.0
 11
-106.35255028
 21
15.28103006
 31
0.0
  0
LINE
  5
32B
100
AcDbEntity
  8
レイヤー_1
  6
CONTINUOUS
 62
       3
100
AcDbLine
 10
-106.35255028
 20
15.28103006
 30
0.0
 11
-106.03515797
 21
15.1664252
 31
0.0
  0
LINE
  5
32C
100
AcDbEntity
  8
レイヤー_1
  6
CONTINUOUS
 62
       3
100
AcDbLine
 10
-106.03515797
 20
15.1664252
 30
0.0
 11
-105.70440418
 21
15.08247715
 31
0.0
  0
LINE
  5
32D
100
AcDbEntity
  8
レイヤー_1
  6
CONTINUOUS
 62
       3
100
AcDbLine
 10
-105.70440418
 20
15.08247715
 30
0.0
 11
-105.36196707
 21
15.03087191
 31
0.0
  0
LINE
  5
32E
100
AcDbEntity
  8
レイヤー_1
  6
CONTINUOUS
 62
       3
100
AcDbLine
 10
-105.36196707
 20
15.03087191
 30
0.0
 11
-105.00952485
 21
15.01329549
 31
0.0
  0
LINE
  5
32F
100
AcDbEntity
  8
レイヤー_1
  6
CONTINUOUS
 62
       3
100
AcDbLine
 10
-110.00921967
 20
28.06030273
 30
0.0
 11
-109.65677744
 21
28.07787466
 31
0.0
  0
LINE
  5
330
100
AcDbEntity
  8
レイヤー_1
  6
CONTINUOUS
 62
       3
100
AcDbLine
 10
-109.65677744
 20
28.07787466
 30
0.0
 11
-109.31434034
 21
28.12946803
 31
0.0
  0
LINE
  5
331
100
AcDbEntity
  8
レイヤー_1
  6
CONTINUOUS
 62
       3
100
AcDbLine
 10
-109.31434034
 20
28.12946803
 30
0.0
 11
-108.98358654
 21
28.21339925
 31
0.0
  0
LINE
  5
332
100
AcDbEntity
  8
レイヤー_1
  6
CONTINUOUS
 62
       3
100
AcDbLine
 10
-108.98358654
 20
28.21339925
 30
0.0
 11
-108.66619423
 21
28.32798471
 31
0.0
  0
LINE
  5
333
100
AcDbEntity
  8
レイヤー_1
  6
CONTINUOUS
 62
       3
100
AcDbLine
 10
-108.66619423
 20
28.32798471
 30
0.0
 11
-108.3638416
 21
28.47154082
 31
0.0
  0
LINE
  5
334
100
AcDbEntity
  8
レイヤー_1
  6
CONTINUOUS
 62
       3
100
AcDbLine
 10
-108.3638416
 20
28.47154082
 30
0.0
 11
-108.07820681
 21
28.64238396
 31
0.0
  0
LINE
  5
335
100
AcDbEntity
  8
レイヤー_1
  6
CONTINUOUS
 62
       3
100
AcDbLine
 10
-108.07820681
 20
28.64238396
 30
0.0
 11
-107.81096807
 21
28.83883053
 31
0.0
  0
LINE
  5
336
100
AcDbEntity
  8
レイヤー_1
  6
CONTINUOUS
 62
       3
100
AcDbLine
 10
-107.81096807
 20
28.83883053
 30
0.0
 11
-107.56380355
 21
29.05919694
 31
0.0
  0
LINE
  5
337
100
AcDbEntity
  8
レイヤー_1
  6
CONTINUOUS
 62
       3
100
AcDbLine
 10
-107.56380355
 20
29.05919694
 30
0.0
 11
-107.33839143
 21
29.30179958
 31
0.0
  0
LINE
  5
338
100
AcDbEntity
  8
レイヤー_1
  6
CONTINUOUS
 62
       3
100
AcDbLine
 10
-107.33839143
 20
29.30179958
 30
0.0
 11
-107.1364099
 21
29.56495485
 31
0.0
  0
LINE
  5
339
100
AcDbEntity
  8
レイヤー_1
  6
CONTINUOUS
 62
       3
100
AcDbLine
 10
-107.1364099
 20
29.56495485
 30
0.0
 11
-106.95953714
 21
29.84697914
 31
0.0
  0
LINE
  5
33A
100
AcDbEntity
  8
レイヤー_1
  6
CONTINUOUS
 62
       3
100
AcDbLine
 10
-106.95953714
 20
29.84697914
 30
0.0
 11
-106.80945134
 21
30.14618885
 31
0.0
  0
LINE
  5
33B
100
AcDbEntity
  8
レイヤー_1
  6
CONTINUOUS
 62
       3
100
AcDbLine
 10
-106.80945134
 20
30.14618885
 30
0.0
 11
-106.68783067
 21
30.46090039
 31
0.0
  0
LINE
  5
33C
100
AcDbEntity
  8
レイヤー_1
  6
CONTINUOUS
 62
       3
100
AcDbLine
 10
-106.68783067
 20
30.46090039
 30
0.0
 11
-106.59635333
 21
30.78943014
 31
0.0
  0
LINE
  5
33D
100
AcDbEntity
  8
レイヤー_1
  6
CONTINUOUS
 62
       3
100
AcDbLine
 10
-106.59635333
 20
30.78943014
 30
0.0
 11
-106.53669749
 21
31.1300945
 31
0.0
  0
LINE
  5
33E
100
AcDbEntity
  8
レイヤー_1
  6
CONTINUOUS
 62
       3
100
AcDbLine
 10
-106.53669749
 20
31.1300945
 30
0.0
 11
-106.51054134
 21
31.48120988
 31
0.0
  0
LINE
  5
33F
100
AcDbEntity
  8
レイヤー_1
  6
CONTINUOUS
 62
       3
100
AcDbLine
 10
-106.51054134
 20
31.48120988
 30
0.0
 11
-106.51932707
 21
31.83634083
 31
0.0
  0
LINE
  5
340
100
AcDbEntity
  8
レイヤー_1
  6
CONTINUOUS
 62
       3
100
AcDbLine
 10
-106.51932707
 20
31.83634083
 30
0.0
 11
-106.56244284
 21
32.18237339
 31
0.0
  0
LINE
  5
341
100
AcDbEntity
  8
レイヤー_1
  6
CONTINUOUS
 62
       3
100
AcDbLine
 10
-106.56244284
 20
32.18237339
 30
0.0
 11
-106.6382192
 21
32.51712186
 31
0.0
  0
LINE
  5
342
100
AcDbEntity
  8
レイヤー_1
  6
CONTINUOUS
 62
       3
100
AcDbLine
 10
-106.6382192
 20
32.51712186
 30
0.0
 11
-106.74497798
 21
32.83890204
 31
0.0
  0
LINE
  5
343
100
AcDbEntity
  8
レイヤー_1
  6
CONTINUOUS
 62
       3
100
AcDbLine
 10
-106.74497798
 20
32.83890204
 30
0.0
 11
-106.88104098
 21
33.14602974
 31
0.0
  0
LINE
  5
344
100
AcDbEntity
  8
レイヤー_1
  6
CONTINUOUS
 62
       3
100
AcDbLine
 10
-106.88104098
 20
33.14602974
 30
0.0
 11
-107.04473004
 21
33.43682074
 31
0.0
  0
LINE
  5
345
100
AcDbEntity
  8
レイヤー_1
  6
CONTINUOUS
 62
       3
100
AcDbLine
 10
-107.04473004
 20
33.43682074
 30
0.0
 11
-107.23436695
 21
33.70959083
 31
0.0
  0
LINE
  5
346
100
AcDbEntity
  8
レイヤー_1
  6
CONTINUOUS
 62
       3
100
AcDbLine
 10
-107.23436695
 20
33.70959083
 30
0.0
 11
-107.44827355
 21
33.96265582
 31
0.0
  0
LINE
  5
347
100
AcDbEntity
  8
レイヤー_1
  6
CONTINUOUS
 62
       3
100
AcDbLine
 10
-107.44827355
 20
33.96265582
 30
0.0
 11
-107.68477164
 21
34.1943315
 31
0.0
  0
LINE
  5
348
100
AcDbEntity
  8
レイヤー_1
  6
CONTINUOUS
 62
       3
100
AcDbLine
 10
-107.68477164
 20
34.1943315
 30
0.0
 11
-107.94218305
 21
34.40293367
 31
0.0
  0
LINE
  5
349
100
AcDbEntity
  8
レイヤー_1
  6
CONTINUOUS
 62
       3
100
AcDbLine
 10
-107.94218305
 20
34.40293367
 30
0.0
 11
-108.21882959
 21
34.58677812
 31
0.0
  0
LINE
  5
34A
100
AcDbEntity
  8
レイヤー_1
  6
CONTINUOUS
 62
       3
100
AcDbLine
 10
-108.21882959
 20
34.58677812
 30
0.0
 11
-108.51303307
 21
34.74418064
 31
0.0
  0
LINE
  5
34B
100
AcDbEntity
  8
レイヤー_1
  6
CONTINUOUS
 62
       3
100
AcDbLine
 10
-108.51303307
 20
34.74418064
 30
0.0
 11
-108.82311532
 21
34.87345703
 31
0.0
  0
LINE
  5
34C
100
AcDbEntity
  8
レイヤー_1
  6
CONTINUOUS
 62
       3
100
AcDbLine
 10
-108.82311532
 20
34.87345703
 30
0.0
 11
-109.14739814
 21
34.97292308
 31
0.0
  0
LINE
  5
34D
100
AcDbEntity
  8
レイヤー_1
  6
CONTINUOUS
 62
       3
100
AcDbLine
 10
-109.14739814
 20
34.97292308
 30
0.0
 11
-109.48420337
 21
35.0408946
 31
0.0
  0
LINE
  5
34E
100
AcDbEntity
  8
レイヤー_1
  6
CONTINUOUS
 62
       3
100
AcDbLine
 10
-109.48420337
 20
35.0408946
 30
0.0
 11
-109.8318528
 21
35.07568738
 31
0.0
  0
LINE
  5
34F
100
AcDbEntity
  8
レイヤー_1
  6
CONTINUOUS
 62
       3
100
AcDbLine
 10
-109.8318528
 20
35.07568738
 30
0.0
 11
-110.18658654
 21
35.07568738
 31
0.0
  0
LINE
  5
350
100
AcDbEntity
  8
レイヤー_1
  6
CONTINUOUS
 62
       3
100
AcDbLine
 10
-110.18658654
 20
35.07568738
 30
0.0
 11
-110.53423597
 21
35.0408946
 31
0.0
  0
LINE
  5
351
100
AcDbEntity
  8
レイヤー_1
  6
CONTINUOUS
 62
       3
100
AcDbLine
 10
-110.53423597
 20
35.0408946
 30
0.0
 11
-110.8710412
 21
34.97292308
 31
0.0
  0
LINE
  5
352
100
AcDbEntity
  8
レイヤー_1
  6
CONTINUOUS
 62
       3
100
AcDbLine
 10
-110.8710412
 20
34.97292308
 30
0.0
 11
-111.19532402
 21
34.87345703
 31
0.0
  0
LINE
  5
353
100
AcDbEntity
  8
レイヤー_1
  6
CONTINUOUS
 62
       3
100
AcDbLine
 10
-111.19532402
 20
34.87345703
 30
0.0
 11
-111.50540627
 21
34.74418064
 31
0.0
  0
LINE
  5
354
100
AcDbEntity
  8
レイヤー_1
  6
CONTINUOUS
 62
       3
100
AcDbLine
 10
-111.50540627
 20
34.74418064
 30
0.0
 11
-111.79960975
 21
34.58677812
 31
0.0
  0
LINE
  5
355
100
AcDbEntity
  8
レイヤー_1
  6
CONTINUOUS
 62
       3
100
AcDbLine
 10
-111.79960975
 20
34.58677812
 30
0.0
 11
-112.07625629
 21
34.40293367
 31
0.0
  0
LINE
  5
356
100
AcDbEntity
  8
レイヤー_1
  6
CONTINUOUS
 62
       3
100
AcDbLine
 10
-112.07625629
 20
34.40293367
 30
0.0
 11
-112.3336677
 21
34.1943315
 31
0.0
  0
LINE
  5
357
100
AcDbEntity
  8
レイヤー_1
  6
CONTINUOUS
 62
       3
100
AcDbLine
 10
-112.3336677
 20
34.1943315
 30
0.0
 11
-112.57016579
 21
33.96265582
 31
0.0
  0
LINE
  5
358
100
AcDbEntity
  8
レイヤー_1
  6
CONTINUOUS
 62
       3
100
AcDbLine
 10
-112.57016579
 20
33.96265582
 30
0.0
 11
-112.78407239
 21
33.70959083
 31
0.0
  0
LINE
  5
359
100
AcDbEntity
  8
レイヤー_1
  6
CONTINUOUS
 62
       3
100
AcDbLine
 10
-112.78407239
 20
33.70959083
 30
0.0
 11
-112.9737093
 21
33.43682074
 31
0.0
  0
LINE
  5
35A
100
AcDbEntity
  8
レイヤー_1
  6
CONTINUOUS
 62
       3
100
AcDbLine
 10
-112.9737093
 20
33.43682074
 30
0.0
 11
-113.13739836
 21
33.14602974
 31
0.0
  0
LINE
  5
35B
100
AcDbEntity
  8
レイヤー_1
  6
CONTINUOUS
 62
       3
100
AcDbLine
 10
-113.13739836
 20
33.14602974
 30
0.0
 11
-113.27346136
 21
32.83890204
 31
0.0
  0
LINE
  5
35C
100
AcDbEntity
  8
レイヤー_1
  6
CONTINUOUS
 62
       3
100
AcDbLine
 10
-113.27346136
 20
32.83890204
 30
0.0
 11
-113.38022014
 21
32.51712186
 31
0.0
  0
LINE
  5
35D
100
AcDbEntity
  8
レイヤー_1
  6
CONTINUOUS
 62
       3
100
AcDbLine
 10
-113.38022014
 20
32.51712186
 30
0.0
 11
-113.4559965
 21
32.18237339
 31
0.0
  0
LINE
  5
35E
100
AcDbEntity
  8
レイヤー_1
  6
CONTINUOUS
 62
       3
100
AcDbLine
 10
-113.4559965
 20
32.18237339
 30
0.0
 11
-113.49911227
 21
31.83634083
 31
0.0
  0
LINE
  5
35F
100
AcDbEntity
  8
レイヤー_1
  6
CONTINUOUS
 62
       3
100
AcDbLine
 10
-113.49911227
 20
31.83634083
 30
0.0
 11
-113.507898
 21
31.48120988
 31
0.0
  0
LINE
  5
360
100
AcDbEntity
  8
レイヤー_1
  6
CONTINUOUS
 62
       3
100
AcDbLine
 10
-113.507898
 20
31.48120988
 30
0.0
 11
-113.48174185
 21
31.1300945
 31
0.0
  0
LINE
  5
361
100
AcDbEntity
  8
レイヤー_1
  6
CONTINUOUS
 62
       3
100
AcDbLine
 10
-113.48174185
 20
31.1300945
 30
0.0
 11
-113.42208601
 21
30.78943014
 31
0.0
  0
LINE
  5
362
100
AcDbEntity
  8
レイヤー_1
  6
CONTINUOUS
 62
       3
100
AcDbLine
 10
-113.42208601
 20
30.78943014
 30
0.0
 11
-113.33060867
 21
30.46090039
 31
0.0
  0
LINE
  5
363
100
AcDbEntity
  8
レイヤー_1
  6
CONTINUOUS
 62
       3
100
AcDbLine
 10
-113.33060867
 20
30.46090039
 30
0.0
 11
-113.208988
 21
30.14618885
 31
0.0
  0
LINE
  5
364
100
AcDbEntity
  8
レイヤー_1
  6
CONTINUOUS
 62
       3
100
AcDbLine
 10
-113.208988
 20
30.14618885
 30
0.0
 11
-113.0589022
 21
29.84697914
 31
0.0
  0
LINE
  5
365
100
AcDbEntity
  8
レイヤー_1
  6
CONTINUOUS
 62
       3
100
AcDbLine
 10
-113.0589022
 20
29.84697914
 30
0.0
 11
-112.88202944
 21
29.56495485
 31
0.0
  0
LINE
  5
366
100
AcDbEntity
  8
レイヤー_1
  6
CONTINUOUS
 62
       3
100
AcDbLine
 10
-112.88202944
 20
29.56495485
 30
0.0
 11
-112.68004791
 21
29.30179958
 31
0.0
  0
LINE
  5
367
100
AcDbEntity
  8
レイヤー_1
  6
CONTINUOUS
 62
       3
100
AcDbLine
 10
-112.68004791
 20
29.30179958
 30
0.0
 11
-112.45463579
 21
29.05919694
 31
0.0
  0
LINE
  5
368
100
AcDbEntity
  8
レイヤー_1
  6
CONTINUOUS
 62
       3
100
AcDbLine
 10
-112.45463579
 20
29.05919694
 30
0.0
 11
-112.20747127
 21
28.83883053
 31
0.0
  0
LINE
  5
369
100
AcDbEntity
  8
レイヤー_1
  6
CONTINUOUS
 62
       3
100
AcDbLine
 10
-112.20747127
 20
28.83883053
 30
0.0
 11
-111.94023253
 21
28.64238396
 31
0.0
  0
LINE
  5
36A
100
AcDbEntity
  8
レイヤー_1
  6
CONTINUOUS
 62
       3
100
AcDbLine
 10
-111.94023253
 20
28.64238396
 30
0.0
 11
-111.65459774
 21
28.47154082
 31
0.0
  0
LINE
  5
36B
100
AcDbEntity
  8
レイヤー_1
  6
CONTINUOUS
 62
       3
100
AcDbLine
 10
-111.65459774
 20
28.47154082
 30
0.0
 11
-111.35224511
 21
28.32798471
 31
0.0
  0
LINE
  5
36C
100
AcDbEntity
  8
レイヤー_1
  6
CONTINUOUS
 62
       3
100
AcDbLine
 10
-111.35224511
 20
28.32798471
 30
0.0
 11
-111.0348528
 21
28.21339925
 31
0.0
  0
LINE
  5
36D
100
AcDbEntity
  8
レイヤー_1
  6
CONTINUOUS
 62
       3
100
AcDbLine
 10
-111.0348528
 20
28.21339925
 30
0.0
 11
-110.704099
 21
28.12946803
 31
0.0
  0
LINE
  5
36E
100
AcDbEntity
  8
レイヤー_1
  6
CONTINUOUS
 62
       3
100
AcDbLine
 10
-110.704099
 20
28.12946803
 30
0.0
 11
-110.36166189
 21
28.07787466
 31
0.0
  0
LINE
  5
36F
100
AcDbEntity
  8
レイヤー_1
  6
CONTINUOUS
 62
       3
100
AcDbLine
 10
-110.36166189
 20
28.07787466
 30
0.0
 11
-110.00921967
 21
28.06030273
 31
0.0
  0
LINE
  5
370
100
AcDbEntity
  8
レイヤー_1
  6
CONTINUOUS
 62
       3
100
AcDbLine
 10
-100.00983002
 20
28.06030273
 30
0.0
 11
-99.65731309
 21
28.07787466
 31
0.0
  0
LINE
  5
371
100
AcDbEntity
  8
レイヤー_1
  6
CONTINUOUS
 62
       3
100
AcDbLine
 10
-99.65731309
 20
28.07787466
 30
0.0
 11
-99.31481046
 21
28.12946803
 31
0.0
  0
LINE
  5
372
100
AcDbEntity
  8
レイヤー_1
  6
CONTINUOUS
 62
       3
100
AcDbLine
 10
-99.31481046
 20
28.12946803
 30
0.0
 11
-98.98399971
 21
28.21339925
 31
0.0
  0
LINE
  5
373
100
AcDbEntity
  8
レイヤー_1
  6
CONTINUOUS
 62
       3
100
AcDbLine
 10
-98.98399971
 20
28.21339925
 30
0.0
 11
-98.66655843
 21
28.32798471
 31
0.0
  0
LINE
  5
374
100
AcDbEntity
  8
レイヤー_1
  6
CONTINUOUS
 62
       3
100
AcDbLine
 10
-98.66655843
 20
28.32798471
 30
0.0
 11
-98.3641642
 21
28.47154082
 31
0.0
  0
LINE
  5
375
100
AcDbEntity
  8
レイヤー_1
  6
CONTINUOUS
 62
       3
100
AcDbLine
 10
-98.3641642
 20
28.47154082
 30
0.0
 11
-98.0784946
 21
28.64238396
 31
0.0
  0
LINE
  5
376
100
AcDbEntity
  8
レイヤー_1
  6
CONTINUOUS
 62
       3
100
AcDbLine
 10
-98.0784946
 20
28.64238396
 30
0.0
 11
-97.81122721
 21
28.83883053
 31
0.0
  0
LINE
  5
377
100
AcDbEntity
  8
レイヤー_1
  6
CONTINUOUS
 62
       3
100
AcDbLine
 10
-97.81122721
 20
28.83883053
 30
0.0
 11
-97.56403961
 21
29.05919694
 31
0.0
  0
LINE
  5
378
100
AcDbEntity
  8
レイヤー_1
  6
CONTINUOUS
 62
       3
100
AcDbLine
 10
-97.56403961
 20
29.05919694
 30
0.0
 11
-97.33860939
 21
29.30179958
 31
0.0
  0
LINE
  5
379
100
AcDbEntity
  8
レイヤー_1
  6
CONTINUOUS
 62
       3
100
AcDbLine
 10
-97.33860939
 20
29.30179958
 30
0.0
 11
-97.13661412
 21
29.56495485
 31
0.0
  0
LINE
  5
37A
100
AcDbEntity
  8
レイヤー_1
  6
CONTINUOUS
 62
       3
100
AcDbLine
 10
-97.13661412
 20
29.56495485
 30
0.0
 11
-96.95973138
 21
29.84697914
 31
0.0
  0
LINE
  5
37B
100
AcDbEntity
  8
レイヤー_1
  6
CONTINUOUS
 62
       3
100
AcDbLine
 10
-96.95973138
 20
29.84697914
 30
0.0
 11
-96.80963876
 21
30.14618885
 31
0.0
  0
LINE
  5
37C
100
AcDbEntity
  8
レイヤー_1
  6
CONTINUOUS
 62
       3
100
AcDbLine
 10
-96.80963876
 20
30.14618885
 30
0.0
 11
-96.68801384
 21
30.46090039
 31
0.0
  0
LINE
  5
37D
100
AcDbEntity
  8
レイヤー_1
  6
CONTINUOUS
 62
       3
100
AcDbLine
 10
-96.68801384
 20
30.46090039
 30
0.0
 11
-96.59653419
 21
30.78943014
 31
0.0
  0
LINE
  5
37E
100
AcDbEntity
  8
レイヤー_1
  6
CONTINUOUS
 62
       3
100
AcDbLine
 10
-96.59653419
 20
30.78943014
 30
0.0
 11
-96.53687741
 21
31.1300945
 31
0.0
  0
LINE
  5
37F
100
AcDbEntity
  8
レイヤー_1
  6
CONTINUOUS
 62
       3
100
AcDbLine
 10
-96.53687741
 20
31.1300945
 30
0.0
 11
-96.51072106
 21
31.48120988
 31
0.0
  0
LINE
  5
380
100
AcDbEntity
  8
レイヤー_1
  6
CONTINUOUS
 62
       3
100
AcDbLine
 10
-96.51072106
 20
31.48120988
 30
0.0
 11
-96.51950683
 21
31.83634083
 31
0.0
  0
LINE
  5
381
100
AcDbEntity
  8
レイヤー_1
  6
CONTINUOUS
 62
       3
100
AcDbLine
 10
-96.51950683
 20
31.83634083
 30
0.0
 11
-96.56262309
 21
32.18237339
 31
0.0
  0
LINE
  5
382
100
AcDbEntity
  8
レイヤー_1
  6
CONTINUOUS
 62
       3
100
AcDbLine
 10
-96.56262309
 20
32.18237339
 30
0.0
 11
-96.638401
 21
32.51712186
 31
0.0
  0
LINE
  5
383
100
AcDbEntity
  8
レイヤー_1
  6
CONTINUOUS
 62
       3
100
AcDbLine
 10
-96.638401
 20
32.51712186
 30
0.0
 11
-96.74516299
 21
32.83890204
 31
0.0
  0
LINE
  5
384
100
AcDbEntity
  8
レイヤー_1
  6
CONTINUOUS
 62
       3
100
AcDbLine
 10
-96.74516299
 20
32.83890204
 30
0.0
 11
-96.88123146
 21
33.14602974
 31
0.0
  0
LINE
  5
385
100
AcDbEntity
  8
レイヤー_1
  6
CONTINUOUS
 62
       3
100
AcDbLine
 10
-96.88123146
 20
33.14602974
 30
0.0
 11
-97.04492883
 21
33.43682074
 31
0.0
  0
LINE
  5
386
100
AcDbEntity
  8
レイヤー_1
  6
CONTINUOUS
 62
       3
100
AcDbLine
 10
-97.04492883
 20
33.43682074
 30
0.0
 11
-97.23457753
 21
33.70959083
 31
0.0
  0
LINE
  5
387
100
AcDbEntity
  8
レイヤー_1
  6
CONTINUOUS
 62
       3
100
AcDbLine
 10
-97.23457753
 20
33.70959083
 30
0.0
 11
-97.44849998
 21
33.96265582
 31
0.0
  0
LINE
  5
388
100
AcDbEntity
  8
レイヤー_1
  6
CONTINUOUS
 62
       3
100
AcDbLine
 10
-97.44849998
 20
33.96265582
 30
0.0
 11
-97.68501859
 21
34.1943315
 31
0.0
  0
LINE
  5
389
100
AcDbEntity
  8
レイヤー_1
  6
CONTINUOUS
 62
       3
100
AcDbLine
 10
-97.68501859
 20
34.1943315
 30
0.0
 11
-97.94245578
 21
34.40293367
 31
0.0
  0
LINE
  5
38A
100
AcDbEntity
  8
レイヤー_1
  6
CONTINUOUS
 62
       3
100
AcDbLine
 10
-97.94245578
 20
34.40293367
 30
0.0
 11
-98.21913398
 21
34.58677812
 31
0.0
  0
LINE
  5
38B
100
AcDbEntity
  8
レイヤー_1
  6
CONTINUOUS
 62
       3
100
AcDbLine
 10
-98.21913398
 20
34.58677812
 30
0.0
 11
-98.51337559
 21
34.74418064
 31
0.0
  0
LINE
  5
38C
100
AcDbEntity
  8
レイヤー_1
  6
CONTINUOUS
 62
       3
100
AcDbLine
 10
-98.51337559
 20
34.74418064
 30
0.0
 11
-98.82350304
 21
34.87345703
 31
0.0
  0
LINE
  5
38D
100
AcDbEntity
  8
レイヤー_1
  6
CONTINUOUS
 62
       3
100
AcDbLine
 10
-98.82350304
 20
34.87345703
 30
0.0
 11
-99.14783875
 21
34.97292308
 31
0.0
  0
LINE
  5
38E
100
AcDbEntity
  8
レイヤー_1
  6
CONTINUOUS
 62
       3
100
AcDbLine
 10
-99.14783875
 20
34.97292308
 30
0.0
 11
-99.48470514
 21
35.0408946
 31
0.0
  0
LINE
  5
38F
100
AcDbEntity
  8
レイヤー_1
  6
CONTINUOUS
 62
       3
100
AcDbLine
 10
-99.48470514
 20
35.0408946
 30
0.0
 11
-99.83242462
 21
35.07568738
 31
0.0
  0
LINE
  5
390
100
AcDbEntity
  8
レイヤー_1
  6
CONTINUOUS
 62
       3
100
AcDbLine
 10
-99.83242462
 20
35.07568738
 30
0.0
 11
-100.18719689
 21
35.07568738
 31
0.0
  0
LINE
  5
391
100
AcDbEntity
  8
レイヤー_1
  6
CONTINUOUS
 62
       3
100
AcDbLine
 10
-100.18719689
 20
35.07568738
 30
0.0
 11
-100.53484633
 21
35.0408946
 31
0.0
  0
LINE
  5
392
100
AcDbEntity
  8
レイヤー_1
  6
CONTINUOUS
 62
       3
100
AcDbLine
 10
-100.53484633
 20
35.0408946
 30
0.0
 11
-100.87165155
 21
34.97292308
 31
0.0
  0
LINE
  5
393
100
AcDbEntity
  8
レイヤー_1
  6
CONTINUOUS
 62
       3
100
AcDbLine
 10
-100.87165155
 20
34.97292308
 30
0.0
 11
-101.19593438
 21
34.87345703
 31
0.0
  0
LINE
  5
394
100
AcDbEntity
  8
レイヤー_1
  6
CONTINUOUS
 62
       3
100
AcDbLine
 10
-101.19593438
 20
34.87345703
 30
0.0
 11
-101.50601662
 21
34.74418064
 31
0.0
  0
LINE
  5
395
100
AcDbEntity
  8
レイヤー_1
  6
CONTINUOUS
 62
       3
100
AcDbLine
 10
-101.50601662
 20
34.74418064
 30
0.0
 11
-101.80022011
 21
34.58677812
 31
0.0
  0
LINE
  5
396
100
AcDbEntity
  8
レイヤー_1
  6
CONTINUOUS
 62
       3
100
AcDbLine
 10
-101.80022011
 20
34.58677812
 30
0.0
 11
-102.07686664
 21
34.40293367
 31
0.0
  0
LINE
  5
397
100
AcDbEntity
  8
レイヤー_1
  6
CONTINUOUS
 62
       3
100
AcDbLine
 10
-102.07686664
 20
34.40293367
 30
0.0
 11
-102.33427805
 21
34.1943315
 31
0.0
  0
LINE
  5
398
100
AcDbEntity
  8
レイヤー_1
  6
CONTINUOUS
 62
       3
100
AcDbLine
 10
-102.33427805
 20
34.1943315
 30
0.0
 11
-102.57077614
 21
33.96265582
 31
0.0
  0
LINE
  5
399
100
AcDbEntity
  8
レイヤー_1
  6
CONTINUOUS
 62
       3
100
AcDbLine
 10
-102.57077614
 20
33.96265582
 30
0.0
 11
-102.78468274
 21
33.70959083
 31
0.0
  0
LINE
  5
39A
100
AcDbEntity
  8
レイヤー_1
  6
CONTINUOUS
 62
       3
100
AcDbLine
 10
-102.78468274
 20
33.70959083
 30
0.0
 11
-102.97431966
 21
33.43682074
 31
0.0
  0
LINE
  5
39B
100
AcDbEntity
  8
レイヤー_1
  6
CONTINUOUS
 62
       3
100
AcDbLine
 10
-102.97431966
 20
33.43682074
 30
0.0
 11
-103.13800871
 21
33.14602974
 31
0.0
  0
LINE
  5
39C
100
AcDbEntity
  8
レイヤー_1
  6
CONTINUOUS
 62
       3
100
AcDbLine
 10
-103.13800871
 20
33.14602974
 30
0.0
 11
-103.27407172
 21
32.83890204
 31
0.0
  0
LINE
  5
39D
100
AcDbEntity
  8
レイヤー_1
  6
CONTINUOUS
 62
       3
100
AcDbLine
 10
-103.27407172
 20
32.83890204
 30
0.0
 11
-103.38083049
 21
32.51712186
 31
0.0
  0
LINE
  5
39E
100
AcDbEntity
  8
レイヤー_1
  6
CONTINUOUS
 62
       3
100
AcDbLine
 10
-103.38083049
 20
32.51712186
 30
0.0
 11
-103.45660686
 21
32.18237339
 31
0.0
  0
LINE
  5
39F
100
AcDbEntity
  8
レイヤー_1
  6
CONTINUOUS
 62
       3
100
AcDbLine
 10
-103.45660686
 20
32.18237339
 30
0.0
 11
-103.49972262
 21
31.83634083
 31
0.0
  0
LINE
  5
3A0
100
AcDbEntity
  8
レイヤー_1
  6
CONTINUOUS
 62
       3
100
AcDbLine
 10
-103.49972262
 20
31.83634083
 30
0.0
 11
-103.50850835
 21
31.48120988
 31
0.0
  0
LINE
  5
3A1
100
AcDbEntity
  8
レイヤー_1
  6
CONTINUOUS
 62
       3
100
AcDbLine
 10
-103.50850835
 20
31.48120988
 30
0.0
 11
-103.4823522
 21
31.1300945
 31
0.0
  0
LINE
  5
3A2
100
AcDbEntity
  8
レイヤー_1
  6
CONTINUOUS
 62
       3
100
AcDbLine
 10
-103.4823522
 20
31.1300945
 30
0.0
 11
-103.42269636
 21
30.78943014
 31
0.0
  0
LINE
  5
3A3
100
AcDbEntity
  8
レイヤー_1
  6
CONTINUOUS
 62
       3
100
AcDbLine
 10
-103.42269636
 20
30.78943014
 30
0.0
 11
-103.33121902
 21
30.46090039
 31
0.0
  0
LINE
  5
3A4
100
AcDbEntity
  8
レイヤー_1
  6
CONTINUOUS
 62
       3
100
AcDbLine
 10
-103.33121902
 20
30.46090039
 30
0.0
 11
-103.20959836
 21
30.14618885
 31
0.0
  0
LINE
  5
3A5
100
AcDbEntity
  8
レイヤー_1
  6
CONTINUOUS
 62
       3
100
AcDbLine
 10
-103.20959836
 20
30.14618885
 30
0.0
 11
-103.05951255
 21
29.84697914
 31
0.0
  0
LINE
  5
3A6
100
AcDbEntity
  8
レイヤー_1
  6
CONTINUOUS
 62
       3
100
AcDbLine
 10
-103.05951255
 20
29.84697914
 30
0.0
 11
-102.8826398
 21
29.56495485
 31
0.0
  0
LINE
  5
3A7
100
AcDbEntity
  8
レイヤー_1
  6
CONTINUOUS
 62
       3
100
AcDbLine
 10
-102.8826398
 20
29.56495485
 30
0.0
 11
-102.68065827
 21
29.30179958
 31
0.0
  0
LINE
  5
3A8
100
AcDbEntity
  8
レイヤー_1
  6
CONTINUOUS
 62
       3
100
AcDbLine
 10
-102.68065827
 20
29.30179958
 30
0.0
 11
-102.45524615
 21
29.05919694
 31
0.0
  0
LINE
  5
3A9
100
AcDbEntity
  8
レイヤー_1
  6
CONTINUOUS
 62
       3
100
AcDbLine
 10
-102.45524615
 20
29.05919694
 30
0.0
 11
-102.20808163
 21
28.83883053
 31
0.0
  0
LINE
  5
3AA
100
AcDbEntity
  8
レイヤー_1
  6
CONTINUOUS
 62
       3
100
AcDbLine
 10
-102.20808163
 20
28.83883053
 30
0.0
 11
-101.94084288
 21
28.64238396
 31
0.0
  0
LINE
  5
3AB
100
AcDbEntity
  8
レイヤー_1
  6
CONTINUOUS
 62
       3
100
AcDbLine
 10
-101.94084288
 20
28.64238396
 30
0.0
 11
-101.6552081
 21
28.47154082
 31
0.0
  0
LINE
  5
3AC
100
AcDbEntity
  8
レイヤー_1
  6
CONTINUOUS
 62
       3
100
AcDbLine
 10
-101.6552081
 20
28.47154082
 30
0.0
 11
-101.35285546
 21
28.32798471
 31
0.0
  0
LINE
  5
3AD
100
AcDbEntity
  8
レイヤー_1
  6
CONTINUOUS
 62
       3
100
AcDbLine
 10
-101.35285546
 20
28.32798471
 30
0.0
 11
-101.03546315
 21
28.21339925
 31
0.0
  0
LINE
  5
3AE
100
AcDbEntity
  8
レイヤー_1
  6
CONTINUOUS
 62
       3
100
AcDbLine
 10
-101.03546315
 20
28.21339925
 30
0.0
 11
-100.70470935
 21
28.12946803
 31
0.0
  0
LINE
  5
3AF
100
AcDbEntity
  8
レイヤー_1
  6
CONTINUOUS
 62
       3
100
AcDbLine
 10
-100.70470935
 20
28.12946803
 30
0.0
 11
-100.36227225
 21
28.07787466
 31
0.0
  0
LINE
  5
3B0
100
AcDbEntity
  8
レイヤー_1
  6
CONTINUOUS
 62
       3
100
AcDbLine
 10
-100.36227225
 20
28.07787466
 30
0.0
 11
-100.00983002
 21
28.06030273
 31
0.0
  0
LINE
  5
3B1
100
AcDbEntity
  8
レイヤー_1
  6
CONTINUOUS
 62
       3
100
AcDbLine
 10
15.49320814
 20
-49.62746174
 30
0.0
 11
15.49320814
 21
-36.09986368
 31
0.0
  0
LINE
  5
3B2
100
AcDbEntity
  8
レイヤー_1
  6
CONTINUOUS
 62
       3
100
AcDbLine
 10
15.49320814
 20
36.09986368
 30
0.0
 11
15.49320814
 21
49.64899359
 31
0.0
  0
LINE
  5
3B3
100
AcDbEntity
  8
レイヤー_1
  6
CONTINUOUS
 62
       3
100
AcDbLine
 10
-35.58044675
 20
39.11948988
 30
0.0
 11
-35.51404726
 21
-41.10386487
 31
0.0
  0
LINE
  5
3B4
100
AcDbEntity
  8
レイヤー_1
  6
CONTINUOUS
 62
       3
100
AcDbLine
 10
-92.5043572
 20
49.4672716
 30
0.0
 11
-117.5043572
 21
49.4672716
 31
0.0
  0
LINE
  5
3B5
100
AcDbEntity
  8
レイヤー_1
  6
CONTINUOUS
 62
       3
100
AcDbLine
 10
-92.5043572
 20
-49.5327284
 30
0.0
 11
-117.5043572
 21
-49.5327284
 31
0.0
  0
LINE
  5
3B6
100
AcDbEntity
  8
レイヤー_1
  6
CONTINUOUS
 62
       3
100
AcDbLine
 10
-117.5043572
 20
49.4672716
 30
0.0
 11
-117.5043572
 21
-49.5327284
 31
0.0
  0
LINE
  5
3B7
100
AcDbEntity
  8
レイヤー_1
  6
CONTINUOUS
 62
       3
100
AcDbLine
 10
-92.5043572
 20
49.4672716
 30
0.0
 11
-92.5043572
 21
-49.5327284
 31
0.0
  0
LINE
  5
3B8
100
AcDbEntity
  8
レイヤー_1
  6
CONTINUOUS
 62
       3
100
AcDbLine
 10
12.49320814
 20
-47.6827284
 30
0.0
 11
15.4896359
 21
-47.6827284
 31
0.0
  0
LINE
  5
3B9
100
AcDbEntity
  8
レイヤー_1
  6
CONTINUOUS
 62
       3
100
AcDbLine
 10
12.49320814
 20
-43.3827284
 30
0.0
 11
15.4896359
 21
-43.3827284
 31
0.0
  0
LINE
  5
3BA
100
AcDbEntity
  8
レイヤー_1
  6
CONTINUOUS
 62
       3
100
AcDbLine
 10
12.49320814
 20
43.3172716
 30
0.0
 11
15.48779271
 21
43.3172716
 31
0.0
  0
LINE
  5
3BB
100
AcDbEntity
  8
レイヤー_1
  6
CONTINUOUS
 62
       3
100
AcDbLine
 10
12.49320814
 20
47.6172716
 30
0.0
 11
15.49134609
 21
47.6172716
 31
0.0
  0
LINE
  5
3BC
100
AcDbEntity
  8
レイヤー_1
  6
CONTINUOUS
 62
       3
100
AcDbLine
 10
116.4197313
 20
39.9672716
 30
0.0
 11
15.48502438
 21
39.9672716
 31
0.0
  0
LINE
  5
3BD
100
AcDbEntity
  8
レイヤー_1
  6
CONTINUOUS
 62
       3
100
AcDbLine
 10
116.48429056
 20
-40.0327284
 30
0.0
 11
15.48508364
 21
-40.0327284
 31
0.0
  0
LINE
  5
3BE
100
AcDbEntity
  8
レイヤー_1
  6
CONTINUOUS
 62
       3
100
AcDbLine
 10
117.41973096
 20
38.96809928
 30
0.0
 11
117.48429021
 21
-39.03190072
 31
0.0
  0
CIRCLE
  5
3BF
100
AcDbEntity
  8
レイヤー_1
  6
CONTINUOUS
 62
       3
100
AcDbCircle
 10
-104.97507389
 20
-45.5327284
 30
0.0
 40
2.15
  0
CIRCLE
  5
3C0
100
AcDbEntity
  8
レイヤー_1
  6
CONTINUOUS
 62
       3
100
AcDbCircle
 10
-104.97507389
 20
45.4672716
 30
0.0
 40
2.15
  0
ARC
  5
3C1
100
AcDbEntity
  8
レイヤー_1
  6
CONTINUOUS
 62
       3
100
AcDbCircle
 10
116.48429056
 20
-39.0327284
 30
0.0
 40
1.0
100
AcDbArc
 50
270.0
 51
360.04742272
  0
ARC
  5
3C2
100
AcDbEntity
  8
レイヤー_1
  6
CONTINUOUS
 62
       3
100
AcDbCircle
 10
116.4197313
 20
38.9672716
 30
0.0
 40
1.0
100
AcDbArc
 50
0.04742272
 51
90.0
  0
LINE
  5
3C3
100
AcDbEntity
  8
レイヤー_1
  6
CENTERX2
 62
       3
100
AcDbLine
 10
122.46754622
 20
-0.0327284
 30
0.0
 11
-39.46356878
 21
-0.0327284
 31
0.0
  0
LINE
  5
3C4
100
AcDbEntity
  8
レイヤー_1
  6
CENTERX2
 62
       3
100
AcDbLine
 10
-87.48260157
 20
-0.0327284
 30
0.0
 11
-122.46754622
 21
-0.0327284
 31
0.0
  0
LINE
  5
3C5
100
AcDbEntity
  8
レイヤー_1
  6
CENTERX2
 62
       3
100
AcDbLine
 10
-105.0043572
 20
52.19061278
 30
0.0
 11
-105.0043572
 21
-52.19061278
 31
0.0
  0
TEXT
  5
3C6
100
AcDbEntity
  8
0
 62
       7
100
AcDbText
 10
118.1280543
 20
-97.59411765
 30
0.0
 40
5.0
  1
000
 41
0.8
 72
       5
 11
130.1280543
 21
-97.59411765
 31
0.0
100
AcDbText
  0
ENDSEC
  0
SECTION
  2
OBJECTS
  0
DICTIONARY
  5
19
100
AcDbDictionary
  3
ACAD_GROUP
350
1A
  3
ACAD_MLINESTYLE
350
1B
  0
DICTIONARY
  5
1A
102
{ACAD_REACTORS
330
19
102
}
100
AcDbDictionary
  0
DICTIONARY
  5
1B
102
{ACAD_REACTORS
330
19
102
}
100
AcDbDictionary
  3
STANDARD
350
1C
  0
MLINESTYLE
  5
1C
102
{ACAD_REACTORS
330
1B
102
}
100
AcDbMlineStyle
  2
STANDARD
 70
       0
  3

 62
       0
 51
90.0
 52
90.0
 71
       2
 49
0.5
 62
     256
  6
BYLAYER
 49
-0.5
 62
     256
  6
BYLAYER
  0
ENDSEC
  0
EOF
