  0
SECTION
  2
HEADER
  9
$ACADVER
  1
AC1014
  9
$ACADMAINTVER
 70
       0
  9
$DWGCODEPAGE
  3
ANSI_932
  9
$INSBASE
 10
0.0
 20
0.0
 30
0.0
  9
$EXTMIN
 10
-129.21164574
 20
-98.15403208
 30
0.0
  9
$EXTMAX
 10
129.21164574
 20
56.74975398
 30
0.0
  9
$LIMMIN
 10
-137.2873736
 20
-102.9947754
  9
$LIMMAX
 10
137.2873736
 20
61.59049729
  9
$ORTHOMODE
 70
       0
  9
$REGENMODE
 70
       1
  9
$FILLMODE
 70
       1
  9
$QTEXTMODE
 70
       0
  9
$MIRRTEXT
 70
       1
  9
$DRAGMODE
 70
       2
  9
$LTSCALE
 40
1.0
  9
$OSMODE
 70
       0
  9
$ATTMODE
 70
       1
  9
$TEXTSIZE
 40
0.2
  9
$TRACEWID
 40
0.05
  9
$TEXTSTYLE
  7
STANDARD
  9
$CLAYER
  8
0
  9
$CELTYPE
  6
CONTINUOUS
  9
$CECOLOR
 62
     256
  9
$CELTSCALE
 40
1.0
  9
$DELOBJ
 70
       1
  9
$DISPSILH
 70
       0
  9
$DIMSCALE
 40
1.0
  9
$DIMASZ
 40
0.18
  9
$DIMEXO
 40
0.0625
  9
$DIMDLI
 40
0.38
  9
$DIMRND
 40
0.0
  9
$DIMDLE
 40
0.0
  9
$DIMEXE
 40
0.18
  9
$DIMTP
 40
0.0
  9
$DIMTM
 40
0.0
  9
$DIMTXT
 40
0.18
  9
$DIMCEN
 40
0.09
  9
$DIMTSZ
 40
0.0
  9
$DIMTOL
 70
       0
  9
$DIMLIM
 70
       0
  9
$DIMTIH
 70
       1
  9
$DIMTOH
 70
       1
  9
$DIMSE1
 70
       0
  9
$DIMSE2
 70
       0
  9
$DIMTAD
 70
       0
  9
$DIMZIN
 70
       0
  9
$DIMBLK
  1

  9
$DIMASO
 70
       1
  9
$DIMSHO
 70
       1
  9
$DIMPOST
  1

  9
$DIMAPOST
  1

  9
$DIMALT
 70
       0
  9
$DIMALTD
 70
       2
  9
$DIMALTF
 40
25.4
  9
$DIMLFAC
 40
1.0
  9
$DIMTOFL
 70
       0
  9
$DIMTVP
 40
0.0
  9
$DIMTIX
 70
       0
  9
$DIMSOXD
 70
       0
  9
$DIMSAH
 70
       0
  9
$DIMBLK1
  1

  9
$DIMBLK2
  1

  9
$DIMSTYLE
  2
STANDARD
  9
$DIMCLRD
 70
       0
  9
$DIMCLRE
 70
       0
  9
$DIMCLRT
 70
       0
  9
$DIMTFAC
 40
1.0
  9
$DIMGAP
 40
0.09
  9
$DIMJUST
 70
       0
  9
$DIMSD1
 70
       0
  9
$DIMSD2
 70
       0
  9
$DIMTOLJ
 70
       1
  9
$DIMTZIN
 70
       0
  9
$DIMALTZ
 70
       0
  9
$DIMALTTZ
 70
       0
  9
$DIMFIT
 70
       3
  9
$DIMUPT
 70
       0
  9
$DIMUNIT
 70
       2
  9
$DIMDEC
 70
       4
  9
$DIMTDEC
 70
       4
  9
$DIMALTU
 70
       2
  9
$DIMALTTD
 70
       2
  9
$DIMTXSTY
  7
STANDARD
  9
$DIMAUNIT
 70
       0
  9
$LUNITS
 70
       2
  9
$LUPREC
 70
       4
  9
$SKETCHINC
 40
0.1
  9
$FILLETRAD
 40
0.0
  9
$AUNITS
 70
       0
  9
$AUPREC
 70
       0
  9
$MENU
  1
acad
  9
$ELEVATION
 40
0.0
  9
$PELEVATION
 40
0.0
  9
$THICKNESS
 40
0.0
  9
$LIMCHECK
 70
       0
  9
$BLIPMODE
 70
       1
  9
$CHAMFERA
 40
0.0
  9
$CHAMFERB
 40
0.0
  9
$CHAMFERC
 40
0.0
  9
$CHAMFERD
 40
0.0
  9
$SKPOLY
 70
       0
  9
$TDCREATE
 40
0.000000000
  9
$TDUPDATE
 40
0.000000000
  9
$TDINDWG
 40
0.0000000000
  9
$TDUSRTIMER
 40
0.0000000000
  9
$USRTIMER
 70
       1
  9
$ANGBASE
 50
0.0
  9
$ANGDIR
 70
       0
  9
$PDMODE
 70
       0
  9
$PDSIZE
 40
1.0
  9
$PLINEWID
 40
0.0
  9
$COORDS
 70
       1
  9
$SPLFRAME
 70
       0
  9
$SPLINETYPE
 70
       6
  9
$SPLINESEGS
 70
       8
  9
$ATTDIA
 70
       0
  9
$ATTREQ
 70
       1
  9
$HANDLING
 70
       1
  9
$HANDSEED
  5
67E
  9
$SURFTAB1
 70
       6
  9
$SURFTAB2
 70
       6
  9
$SURFTYPE
 70
       6
  9
$SURFU
 70
       6
  9
$SURFV
 70
       6
  9
$UCSNAME
  2

  9
$UCSORG
 10
0.0
 20
0.0
 30
0.0
  9
$UCSXDIR
 10
1.0
 20
0.0
 30
0.0
  9
$UCSYDIR
 10
0.0
 20
1.0
 30
0.0
  9
$PUCSNAME
  2

  9
$PUCSORG
 10
0.0
 20
0.0
 30
0.0
  9
$PUCSXDIR
 10
1.0
 20
0.0
 30
0.0
  9
$PUCSYDIR
 10
0.0
 20
1.0
 30
0.0
  9
$USERI1
 70
       0
  9
$USERI2
 70
       0
  9
$USERI3
 70
       0
  9
$USERI4
 70
       0
  9
$USERI5
 70
       0
  9
$USERR1
 40
0.0
  9
$USERR2
 40
0.0
  9
$USERR3
 40
0.0
  9
$USERR4
 40
0.0
  9
$USERR5
 40
0.0
  9
$WORLDVIEW
 70
       1
  9
$SHADEDGE
 70
       3
  9
$SHADEDIF
 70
      70
  9
$TILEMODE
 70
       1
  9
$MAXACTVP
 70
      16
  9
$PINSBASE
 10
0.0
 20
0.0
 30
0.0
  9
$PLIMCHECK
 70
       0
  9
$PEXTMIN
 10
1.00000000E+20
 20
1.00000000E+20
 30
1.00000000E+20
  9
$PEXTMAX
 10
-1.00000000E+20
 20
-1.00000000E+20
 30
-1.00000000E+20
  9
$PLIMMIN
 10
0.0
 20
0.0
  9
$PLIMMAX
 10
12.0
 20
9.0
  9
$UNITMODE
 70
       0
  9
$VISRETAIN
 70
       0
  9
$PLINEGEN
 70
       1
  9
$PSLTSCALE
 70
       0
  9
$TREEDEPTH
 70
    3020
  9
$PICKSTYLE
 70
       1
  9
$CMLSTYLE
  2
STANDARD
  9
$CMLJUST
 70
       0
  9
$CMLSCALE
 40
1.0
  9
$PROXYGRAPHICS
 70
       0
  9
$MEASUREMENT
 70
       0
  0
ENDSEC
  0
SECTION
  2
CLASSES
  0
CLASS
  1
LWPOLYLINE
  2
AcDbPolyline
  3
"AutoCAD"
 90
        0
280
       0
281
       1
  0
CLASS
  1
IMAGE
  2
AcDbRasterImage
  3
ISM
 90
      127
280
       0
281
       1
  0
CLASS
  1
OLE2FRAME
  2
AcDbOle2Frame
  3
""
 90
        0
280
       0
281
       1
  0
CLASS
  1
HATCH
  2
AcDbHatch
  3
"ACAD_SEDONA"
 90
        0
280
       0
281
       1
  0
CLASS
  1
DICTIONARYVAR
  2
AcDbDictionaryVar
  3
"AutoCAD"
 90
        0
280
       0
281
       0
  0
CLASS
  1
RASTERVARIABLES
  2
AcDbRasterVariables
  3
ISM
 90
        0
280
       0
281
       0
  0
CLASS
  1
IMAGEDEF
  2
AcDbRasterImageDef
  3
ISM
 90
        0
280
       0
281
       0
  0
CLASS
  1
IMAGEDEF_REACTOR
  2
AcDbRasterImageDefReactor
  3
ISM
 90
        1
280
       0
281
       0
  0
CLASS
  1
IDBUFFER
  2
AcDbIdBuffer
  3
"Acad"
 90
        0
280
       0
281
       0
  0
CLASS
  1
SPATIAL_FILTER
  2
AcDbSpatialFilter
  3
"Acad"
 90
        0
280
       0
281
       0
  0
CLASS
  1
XRECORD
  2
AcDbXrecord
  3
"<Built In>"
 90
        0
280
       0
281
       0
  0
CLASS
  1
SORTENTSTABLE
  2
AcDbSortentsTable
  3
"AutoCAD"
 90
        0
280
       0
281
       0
  0
CLASS
  1
LAYER_INDEX
  2
AcDbLayerIndex
  3
"Acad"
 90
        0
280
       0
281
       0
  0
CLASS
  1
SPATIAL_INDEX
  2
AcDbSpatialIndex
  3
"Acad"
 90
        0
280
       0
281
       0
  0
CLASS
  1
OBJECT_PTR
  2
CAseDLPNTableRecord
  3
"ASE-LPNTableRecord"
 90
        1
280
       0
281
       0
  0
CLASS
  1
LAYOUT
  2
AcDbLayout
  3
"AutoCAD 2000"
 90
        1
280
       0
281
       0
  0
CLASS
  1
PLOTSETTINGS
  2
AcDbPlotSettings
  3
"AutoCAD 2000"
 90
        1
280
       0
281
       0
  0
CLASS
  1
ACDBDICTIONARYWDFLT
  2
AcDbDictionaryWithDefault
  3
"AutoCAD 2000"
 90
        1
280
       0
281
       0
  0
CLASS
  1
ACDBPLACEHOLDER
  2
AcDbPlaceHolder
  3
"AutoCAD 2000"
 90
        1
280
       0
281
       0
  0
CLASS
  1
VBA_PROJECT
  2
AcDbVbaProject
  3
"acadvba"
 90
        1
280
       0
281
       0
  0
CLASS
  1
WIPEOUT
  2
AcDbWipeout
  3
WipeOut|AutoCAD Express Tool|expresstools@autodesk.com
 90
      127
280
       0
281
       1
  0
CLASS
  1
WIPEOUTVARIABLES
  2
AcDbWipeoutVariables
  3
WipeOut|AutoCAD Express Tool|expresstools@autodesk.com
 90
        0
280
       0
281
       0
  0
CLASS
  1
RTEXT
  2
RText
  3
RText|AutoCAD Express Tool|expresstools@autodesk.com
 90
        0
280
       0
281
       1
  0
CLASS
  1
ARCALIGNEDTEXT
  2
AcDbArcAlignedText
  3
ATEXT|AutoCAD Express Tool|expresstools@autodesk.com
 90
        0
280
       0
281
       1
  0
ENDSEC
  0
SECTION
  2
TABLES
  0
TABLE
  2
VPORT
  5
7
100
AcDbSymbolTable
 70
       1
  0
VPORT
  5
15
100
AcDbSymbolTableRecord
100
AcDbViewportTableRecord
  2
*ACTIVE
 70
       0
 10
0.0
 20
0.0
 11
1.0
 21
1.0
 12
0.0
 22
-20.70213905
 13
0.0
 23
0.0
 14
1.0
 24
1.0
 15
0.0
 25
0.0
 16
0.0
 26
0.0
 36
1.0
 17
0.0
 27
0.0
 37
0.0
 40
164.58527269
 41
1.6682826
 42
50.0
 43
0.0
 44
0.0
 50
0.0
 51
0.0
 71
       0
 72
     100
 73
       1
 74
       1
 75
       0
 76
       0
 77
       0
 78
       0
  0
ENDTAB
  0
TABLE
  2
LTYPE
  5
4
100
AcDbSymbolTable
 70
      30
  0
LTYPE
  5
11
100
AcDbSymbolTableRecord
100
AcDbLinetypeTableRecord
  2
BYBLOCK
 70
      64
  3

 72
      65
 73
       0
 40
0.0
  0
LTYPE
  5
12
100
AcDbSymbolTableRecord
100
AcDbLinetypeTableRecord
  2
BYLAYER
 70
      64
  3

 72
      65
 73
       0
 40
0.0
  0
LTYPE
  5
13
100
AcDbSymbolTableRecord
100
AcDbLinetypeTableRecord
  2
CONTINUOUS
 70
      64
  3
Solid line
 72
      65
 73
       0
 40
0.0
  0
LTYPE
  5
1D
100
AcDbSymbolTableRecord
100
AcDbLinetypeTableRecord
  2
HIDDENX2
 70
      64
  3
CADPAC LINETYPE
 72
      65
 73
       2
 40
11.88
 49
8.91
 74
       0
 49
-2.97
 74
       0
  0
LTYPE
  5
1E
100
AcDbSymbolTableRecord
100
AcDbLinetypeTableRecord
  2
HIDDEN
 70
      64
  3
CADPAC LINETYPE
 72
      65
 73
       2
 40
8.91
 49
5.94
 74
       0
 49
-2.97
 74
       0
  0
LTYPE
  5
1F
100
AcDbSymbolTableRecord
100
AcDbLinetypeTableRecord
  2
HIDDEN2
 70
      64
  3
CADPAC LINETYPE
 72
      65
 73
       2
 40
7.425
 49
4.455
 74
       0
 49
-2.97
 74
       0
  0
LTYPE
  5
20
100
AcDbSymbolTableRecord
100
AcDbLinetypeTableRecord
  2
DASHED
 70
      64
  3
CADPAC LINETYPE
 72
      65
 73
       2
 40
8.91
 49
5.94
 74
       0
 49
-2.97
 74
       0
  0
LTYPE
  5
21
100
AcDbSymbolTableRecord
100
AcDbLinetypeTableRecord
  2
DASHED2
 70
      64
  3
CADPAC LINETYPE
 72
      65
 73
       2
 40
6.6825
 49
4.455
 74
       0
 49
-2.2275
 74
       0
  0
LTYPE
  5
22
100
AcDbSymbolTableRecord
100
AcDbLinetypeTableRecord
  2
DASHEDX2
 70
      64
  3
CADPAC LINETYPE
 72
      65
 73
       2
 40
13.365
 49
8.91
 74
       0
 49
-4.455
 74
       0
  0
LTYPE
  5
23
100
AcDbSymbolTableRecord
100
AcDbLinetypeTableRecord
  2
DOTX2
 70
      64
  3
CADPAC LINETYPE
 72
      65
 73
       2
 40
3.7125
 49
0.0
 74
       0
 49
-3.7125
 74
       0
  0
LTYPE
  5
24
100
AcDbSymbolTableRecord
100
AcDbLinetypeTableRecord
  2
DOT
 70
      64
  3
CADPAC LINETYPE
 72
      65
 73
       2
 40
2.97
 49
0.0
 74
       0
 49
-2.97
 74
       0
  0
LTYPE
  5
25
100
AcDbSymbolTableRecord
100
AcDbLinetypeTableRecord
  2
DOT2
 70
      64
  3
CADPAC LINETYPE
 72
      65
 73
       2
 40
2.2275
 49
0.0
 74
       0
 49
-2.2275
 74
       0
  0
LTYPE
  5
26
100
AcDbSymbolTableRecord
100
AcDbLinetypeTableRecord
  2
CENTERX2
 70
      64
  3
CADPAC LINETYPE
 72
      65
 73
       4
 40
17.82
 49
7.425
 74
       0
 49
-3.7125
 74
       0
 49
2.97
 74
       0
 49
-3.7125
 74
       0
  0
LTYPE
  5
27
100
AcDbSymbolTableRecord
100
AcDbLinetypeTableRecord
  2
CENTER
 70
      64
  3
CADPAC LINETYPE
 72
      65
 73
       4
 40
13.662
 49
5.94
 74
       0
 49
-2.97
 74
       0
 49
1.782
 74
       0
 49
-2.97
 74
       0
  0
LTYPE
  5
28
100
AcDbSymbolTableRecord
100
AcDbLinetypeTableRecord
  2
CENTER2
 70
      64
  3
CADPAC LINETYPE
 72
      65
 73
       4
 40
9.504
 49
4.455
 74
       0
 49
-2.2275
 74
       0
 49
0.594
 74
       0
 49
-2.2275
 74
       0
  0
LTYPE
  5
29
100
AcDbSymbolTableRecord
100
AcDbLinetypeTableRecord
  2
DASHDOTX2
 70
      64
  3
CADPAC LINETYPE
 72
      65
 73
       4
 40
14.85
 49
7.425
 74
       0
 49
-3.7125
 74
       0
 49
0.0
 74
       0
 49
-3.7125
 74
       0
  0
LTYPE
  5
2A
100
AcDbSymbolTableRecord
100
AcDbLinetypeTableRecord
  2
DASHDOT
 70
      64
  3
CADPAC LINETYPE
 72
      65
 73
       4
 40
11.88
 49
5.94
 74
       0
 49
-2.97
 74
       0
 49
0.0
 74
       0
 49
-2.97
 74
       0
  0
LTYPE
  5
2B
100
AcDbSymbolTableRecord
100
AcDbLinetypeTableRecord
  2
DASHDOT2
 70
      64
  3
CADPAC LINETYPE
 72
      65
 73
       4
 40
8.91
 49
4.455
 74
       0
 49
-2.2275
 74
       0
 49
0.0
 74
       0
 49
-2.2275
 74
       0
  0
LTYPE
  5
2C
100
AcDbSymbolTableRecord
100
AcDbLinetypeTableRecord
  2
DIVIDEX2
 70
      64
  3
CADPAC LINETYPE
 72
      65
 73
       6
 40
18.5625
 49
7.425
 74
       0
 49
-3.7125
 74
       0
 49
0.0
 74
       0
 49
-3.7125
 74
       0
 49
0.0
 74
       0
 49
-3.7125
 74
       0
  0
LTYPE
  5
2D
100
AcDbSymbolTableRecord
100
AcDbLinetypeTableRecord
  2
DIVIDE
 70
      64
  3
CADPAC LINETYPE
 72
      65
 73
       6
 40
14.85
 49
5.94
 74
       0
 49
-2.97
 74
       0
 49
0.0
 74
       0
 49
-2.97
 74
       0
 49
0.0
 74
       0
 49
-2.97
 74
       0
  0
LTYPE
  5
2E
100
AcDbSymbolTableRecord
100
AcDbLinetypeTableRecord
  2
DIVIDE2
 70
      64
  3
CADPAC LINETYPE
 72
      65
 73
       6
 40
11.1375
 49
4.455
 74
       0
 49
-2.2275
 74
       0
 49
0.0
 74
       0
 49
-2.2275
 74
       0
 49
0.0
 74
       0
 49
-2.2275
 74
       0
  0
LTYPE
  5
2F
100
AcDbSymbolTableRecord
100
AcDbLinetypeTableRecord
  2
BORDERX2
 70
      64
  3
CADPAC LINETYPE
 72
      65
 73
       6
 40
25.9875
 49
7.425
 74
       0
 49
-3.7125
 74
       0
 49
7.425
 74
       0
 49
-3.7125
 74
       0
 49
0.0
 74
       0
 49
-3.7125
 74
       0
  0
LTYPE
  5
30
100
AcDbSymbolTableRecord
100
AcDbLinetypeTableRecord
  2
BORDER
 70
      64
  3
CADPAC LINETYPE
 72
      65
 73
       6
 40
20.79
 49
5.94
 74
       0
 49
-2.97
 74
       0
 49
5.94
 74
       0
 49
-2.97
 74
       0
 49
0.0
 74
       0
 49
-2.97
 74
       0
  0
LTYPE
  5
31
100
AcDbSymbolTableRecord
100
AcDbLinetypeTableRecord
  2
BORDER2
 70
      64
  3
CADPAC LINETYPE
 72
      65
 73
       6
 40
15.5925
 49
4.455
 74
       0
 49
-2.2275
 74
       0
 49
4.455
 74
       0
 49
-2.2275
 74
       0
 49
0.0
 74
       0
 49
-2.2275
 74
       0
  0
LTYPE
  5
32
100
AcDbSymbolTableRecord
100
AcDbLinetypeTableRecord
  2
PHANTOMX2
 70
      64
  3
CADPAC LINETYPE
 72
      65
 73
       6
 40
22.275
 49
7.425
 74
       0
 49
-2.97
 74
       0
 49
2.97
 74
       0
 49
-2.97
 74
       0
 49
2.97
 74
       0
 49
-2.97
 74
       0
  0
LTYPE
  5
33
100
AcDbSymbolTableRecord
100
AcDbLinetypeTableRecord
  2
PHANTOM
 70
      64
  3
CADPAC LINETYPE
 72
      65
 73
       6
 40
18.414
 49
5.94
 74
       0
 49
-2.97
 74
       0
 49
1.782
 74
       0
 49
-2.97
 74
       0
 49
1.782
 74
       0
 49
-2.97
 74
       0
  0
LTYPE
  5
34
100
AcDbSymbolTableRecord
100
AcDbLinetypeTableRecord
  2
PHANTOM2
 70
      64
  3
CADPAC LINETYPE
 72
      65
 73
       6
 40
15.741
 49
4.455
 74
       0
 49
-2.97
 74
       0
 49
1.188
 74
       0
 49
-2.97
 74
       0
 49
1.188
 74
       0
 49
-2.97
 74
       0
  0
LTYPE
  5
35
100
AcDbSymbolTableRecord
100
AcDbLinetypeTableRecord
  2
ACAD_ISO06W100
 70
      64
  3
CADPAC LINETYPE
 72
      65
 73
       8
 40
20.0475
 49
7.425
 74
       0
 49
-3.7125
 74
       0
 49
0.0
 74
       0
 49
-2.97
 74
       0
 49
0.0
 74
       0
 49
-2.97
 74
       0
 49
0.0
 74
       0
 49
-2.97
 74
       0
  0
LTYPE
  5
36
100
AcDbSymbolTableRecord
100
AcDbLinetypeTableRecord
  2
ACAD_ISO13W100
 70
      64
  3
CADPAC LINETYPE
 72
      65
 73
       8
 40
23.76
 49
5.94
 74
       0
 49
-2.97
 74
       0
 49
5.94
 74
       0
 49
-2.97
 74
       0
 49
0.0
 74
       0
 49
-2.97
 74
       0
 49
0.0
 74
       0
 49
-2.97
 74
       0
  0
LTYPE
  5
37
100
AcDbSymbolTableRecord
100
AcDbLinetypeTableRecord
  2
ACAD_ISO14W100
 70
      64
  3
CADPAC LINETYPE
 72
      65
 73
       8
 40
17.82
 49
5.94
 74
       0
 49
-2.97
 74
       0
 49
0.0
 74
       0
 49
-2.97
 74
       0
 49
0.0
 74
       0
 49
-2.97
 74
       0
 49
0.0
 74
       0
 49
-2.97
 74
       0
  0
ENDTAB
  0
TABLE
  2
LAYER
  5
2
100
AcDbSymbolTable
 70
       2
  0
LAYER
  5
14
100
AcDbSymbolTableRecord
100
AcDbLayerTableRecord
  2
0
 70
       0
 62
       7
  6
CONTINUOUS
  0
LAYER
  5
38
100
AcDbSymbolTableRecord
100
AcDbLayerTableRecord
  2
レイヤー_1
 70
       0
 62
       7
  6
CONTINUOUS
  0
ENDTAB
  0
TABLE
  2
STYLE
  5
3
100
AcDbSymbolTable
 70
       1
  0
STYLE
  5
17
100
AcDbSymbolTableRecord
100
AcDbTextStyleTableRecord
  2
STANDARD
 70
       0
 40
0.0
 41
0.8
 50
0.0
 71
       0
 42
5.0
  3
txt.shx
  4
bigfont.shx
  0
ENDTAB
  0
TABLE
  2
VIEW
  5
5
100
AcDbSymbolTable
 70
       1
  0
VIEW
  5
39
100
AcDbSymbolTableRecord
100
AcDbViewTableRecord
  2
QQQQ
 70
       0
 40
164.58527269
 10
0.0
 20
-20.70213905
 41
274.57474719
 11
0.0
 21
0.0
 31
1.0
 12
100.0
 22
100.0
 32
0.0
 42
50.0
 43
0.0
 44
0.0
 50
0.0
 71
       0
  0
ENDTAB
  0
TABLE
  2
UCS
  5
6
100
AcDbSymbolTable
 70
       0
  0
ENDTAB
  0
TABLE
  2
APPID
  5
8
100
AcDbSymbolTable
 70
       1
  0
APPID
  5
16
100
AcDbSymbolTableRecord
100
AcDbRegAppTableRecord
  2
ACAD
 70
       0
  0
ENDTAB
  0
TABLE
  2
DIMSTYLE
  5
9
100
AcDbSymbolTable
 70
       1
  0
DIMSTYLE
105
18
100
AcDbSymbolTableRecord
100
AcDbDimStyleTableRecord
  2
STANDARD
 70
       0
  3

  4

  5

  6

  7

 40
1.0
 41
0.18
 42
0.0625
 43
0.38
 44
0.18
 45
0.0
 46
0.0
 47
0.0
 48
0.0
 71
       0
 72
       0
 73
       1
 74
       1
 75
       0
 76
       0
 77
       0
 78
       0
140
0.18
141
0.09
142
0.0
143
25.4
144
1.0
145
0.0
146
1.0
147
0.09
170
       0
171
       2
172
       0
173
       0
174
       0
175
       0
176
       0
177
       0
178
       0
270
       2
271
       4
272
       4
273
       2
274
       2
275
       0
280
       0
281
       0
282
       0
283
       1
284
       0
285
       0
286
       0
287
       0
288
       0
340
17
  0
ENDTAB
  0
TABLE
  2
BLOCK_RECORD
  5
1
100
AcDbSymbolTable
 70
       0
  0
BLOCK_RECORD
  5
A
100
AcDbSymbolTableRecord
100
AcDbBlockTableRecord
  2
*MODEL_SPACE
  0
BLOCK_RECORD
  5
B
100
AcDbSymbolTableRecord
100
AcDbBlockTableRecord
  2
*PAPER_SPACE
  0
ENDTAB
  0
ENDSEC
  0
SECTION
  2
BLOCKS
  0
BLOCK
  5
D
100
AcDbEntity
  8
0
100
AcDbBlockBegin
  2
*MODEL_SPACE
 70
       0
 10
0.0
 20
0.0
 30
0.0
  3
*MODEL_SPACE
  1

  0
ENDBLK
  5
E
100
AcDbEntity
  8
0
100
AcDbBlockEnd
  0
BLOCK
  5
F
100
AcDbEntity
 67
       1
  8
0
100
AcDbBlockBegin
  2
*PAPER_SPACE
 70
       0
 10
0.0
 20
0.0
 30
0.0
  3
*PAPER_SPACE
  1

  0
ENDBLK
  5
10
100
AcDbEntity
 67
       1
  8
0
100
AcDbBlockEnd
  0
ENDSEC
  0
SECTION
  2
ENTITIES
  0
LINE
  5
3A
100
AcDbEntity
  8
レイヤー_1
  6
CONTINUOUS
 62
       3
100
AcDbLine
 10
115.20203651
 20
-51.28304543
 30
0.0
 11
115.25426288
 21
-51.28034895
 31
0.0
  0
LINE
  5
3B
100
AcDbEntity
  8
レイヤー_1
  6
CONTINUOUS
 62
       3
100
AcDbLine
 10
115.25426288
 20
-51.28034895
 30
0.0
 11
115.30492988
 21
-51.27243783
 31
0.0
  0
LINE
  5
3C
100
AcDbEntity
  8
レイヤー_1
  6
CONTINUOUS
 62
       3
100
AcDbLine
 10
115.30492988
 20
-51.27243783
 30
0.0
 11
115.35376925
 21
-51.25957965
 31
0.0
  0
LINE
  5
3D
100
AcDbEntity
  8
レイヤー_1
  6
CONTINUOUS
 62
       3
100
AcDbLine
 10
115.35376925
 20
-51.25957965
 30
0.0
 11
115.40051278
 21
-51.24204194
 31
0.0
  0
LINE
  5
3E
100
AcDbEntity
  8
レイヤー_1
  6
CONTINUOUS
 62
       3
100
AcDbLine
 10
115.40051278
 20
-51.24204194
 30
0.0
 11
115.44489225
 21
-51.22009225
 31
0.0
  0
LINE
  5
3F
100
AcDbEntity
  8
レイヤー_1
  6
CONTINUOUS
 62
       3
100
AcDbLine
 10
115.44489225
 20
-51.22009225
 30
0.0
 11
115.48663944
 21
-51.19399811
 31
0.0
  0
LINE
  5
40
100
AcDbEntity
  8
レイヤー_1
  6
CONTINUOUS
 62
       3
100
AcDbLine
 10
115.48663944
 20
-51.19399811
 30
0.0
 11
115.52548611
 21
-51.16402711
 31
0.0
  0
LINE
  5
41
100
AcDbEntity
  8
レイヤー_1
  6
CONTINUOUS
 62
       3
100
AcDbLine
 10
115.52548611
 20
-51.16402711
 30
0.0
 11
115.56116405
 21
-51.13044676
 31
0.0
  0
LINE
  5
42
100
AcDbEntity
  8
レイヤー_1
  6
CONTINUOUS
 62
       3
100
AcDbLine
 10
115.56116405
 20
-51.13044676
 30
0.0
 11
115.59340503
 21
-51.0935246
 31
0.0
  0
LINE
  5
43
100
AcDbEntity
  8
レイヤー_1
  6
CONTINUOUS
 62
       3
100
AcDbLine
 10
115.59340503
 20
-51.0935246
 30
0.0
 11
115.62194084
 21
-51.05352822
 31
0.0
  0
LINE
  5
44
100
AcDbEntity
  8
レイヤー_1
  6
CONTINUOUS
 62
       3
100
AcDbLine
 10
115.62194084
 20
-51.05352822
 30
0.0
 11
115.64650322
 21
-51.01072513
 31
0.0
  0
LINE
  5
45
100
AcDbEntity
  8
レイヤー_1
  6
CONTINUOUS
 62
       3
100
AcDbLine
 10
115.64650322
 20
-51.01072513
 30
0.0
 11
115.66682399
 21
-50.96538288
 31
0.0
  0
LINE
  5
46
100
AcDbEntity
  8
レイヤー_1
  6
CONTINUOUS
 62
       3
100
AcDbLine
 10
115.66682399
 20
-50.96538288
 30
0.0
 11
115.68263489
 21
-50.91776902
 31
0.0
  0
LINE
  5
47
100
AcDbEntity
  8
レイヤー_1
  6
CONTINUOUS
 62
       3
100
AcDbLine
 10
115.68263489
 20
-50.91776902
 30
0.0
 11
115.69366772
 21
-50.86815112
 31
0.0
  0
LINE
  5
48
100
AcDbEntity
  8
レイヤー_1
  6
CONTINUOUS
 62
       3
100
AcDbLine
 10
115.69366772
 20
-50.86815112
 30
0.0
 11
115.69965425
 21
-50.81679669
 31
0.0
  0
LINE
  5
49
100
AcDbEntity
  8
レイヤー_1
  6
CONTINUOUS
 62
       3
100
AcDbLine
 10
115.69965425
 20
-50.81679669
 30
0.0
 11
115.70071407
 21
-50.77883502
 31
0.0
  0
LINE
  5
4A
100
AcDbEntity
  8
レイヤー_1
  6
CONTINUOUS
 62
       3
100
AcDbLine
 10
115.70071407
 20
-50.77883502
 30
0.0
 11
115.70071407
 21
-50.71831523
 31
0.0
  0
LINE
  5
4B
100
AcDbEntity
  8
レイヤー_1
  6
CONTINUOUS
 62
       3
100
AcDbLine
 10
115.70071407
 20
-50.71831523
 30
0.0
 11
115.70071407
 21
-50.59702984
 31
0.0
  0
LINE
  5
4C
100
AcDbEntity
  8
レイヤー_1
  6
CONTINUOUS
 62
       3
100
AcDbLine
 10
115.70071407
 20
-50.59702984
 30
0.0
 11
115.70071407
 21
-50.42441815
 31
0.0
  0
LINE
  5
4D
100
AcDbEntity
  8
レイヤー_1
  6
CONTINUOUS
 62
       3
100
AcDbLine
 10
115.70071407
 20
-50.42441815
 30
0.0
 11
115.70071407
 21
-50.2099195
 31
0.0
  0
LINE
  5
4E
100
AcDbEntity
  8
レイヤー_1
  6
CONTINUOUS
 62
       3
100
AcDbLine
 10
115.70071407
 20
-50.2099195
 30
0.0
 11
115.70071407
 21
-49.9629732
 31
0.0
  0
LINE
  5
4F
100
AcDbEntity
  8
レイヤー_1
  6
CONTINUOUS
 62
       3
100
AcDbLine
 10
115.70071407
 20
-49.9629732
 30
0.0
 11
115.70071407
 21
-49.69301855
 31
0.0
  0
LINE
  5
50
100
AcDbEntity
  8
レイヤー_1
  6
CONTINUOUS
 62
       3
100
AcDbLine
 10
115.70071407
 20
-49.69301855
 30
0.0
 11
115.70071407
 21
-49.40949489
 31
0.0
  0
LINE
  5
51
100
AcDbEntity
  8
レイヤー_1
  6
CONTINUOUS
 62
       3
100
AcDbLine
 10
115.70071407
 20
-49.40949489
 30
0.0
 11
115.70071407
 21
-49.12184153
 31
0.0
  0
LINE
  5
52
100
AcDbEntity
  8
レイヤー_1
  6
CONTINUOUS
 62
       3
100
AcDbLine
 10
115.70071407
 20
-49.12184153
 30
0.0
 11
115.70071407
 21
-48.83949777
 31
0.0
  0
LINE
  5
53
100
AcDbEntity
  8
レイヤー_1
  6
CONTINUOUS
 62
       3
100
AcDbLine
 10
115.70071407
 20
-48.83949777
 30
0.0
 11
115.70071407
 21
-48.57190297
 31
0.0
  0
LINE
  5
54
100
AcDbEntity
  8
レイヤー_1
  6
CONTINUOUS
 62
       3
100
AcDbLine
 10
115.70071407
 20
-48.57190297
 30
0.0
 11
115.70071407
 21
-48.3284964
 31
0.0
  0
LINE
  5
55
100
AcDbEntity
  8
レイヤー_1
  6
CONTINUOUS
 62
       3
100
AcDbLine
 10
115.70071407
 20
-48.3284964
 30
0.0
 11
115.70071407
 21
-48.1187174
 31
0.0
  0
LINE
  5
56
100
AcDbEntity
  8
レイヤー_1
  6
CONTINUOUS
 62
       3
100
AcDbLine
 10
115.70071407
 20
-48.1187174
 30
0.0
 11
115.70071407
 21
-47.95200529
 31
0.0
  0
LINE
  5
57
100
AcDbEntity
  8
レイヤー_1
  6
CONTINUOUS
 62
       3
100
AcDbLine
 10
115.70071407
 20
-47.95200529
 30
0.0
 11
115.70071407
 21
-47.83779939
 31
0.0
  0
LINE
  5
58
100
AcDbEntity
  8
レイヤー_1
  6
CONTINUOUS
 62
       3
100
AcDbLine
 10
115.70071407
 20
-47.83779939
 30
0.0
 11
115.70071407
 21
-47.78553901
 31
0.0
  0
LINE
  5
59
100
AcDbEntity
  8
レイヤー_1
  6
CONTINUOUS
 62
       3
100
AcDbLine
 10
115.70071407
 20
-47.78553901
 30
0.0
 11
115.69919107
 21
-47.74388872
 31
0.0
  0
LINE
  5
5A
100
AcDbEntity
  8
レイヤー_1
  6
CONTINUOUS
 62
       3
100
AcDbLine
 10
115.69919107
 20
-47.74388872
 30
0.0
 11
115.69255909
 21
-47.6927125
 31
0.0
  0
LINE
  5
5B
100
AcDbEntity
  8
レイヤー_1
  6
CONTINUOUS
 62
       3
100
AcDbLine
 10
115.69255909
 20
-47.6927125
 30
0.0
 11
115.68091433
 21
-47.64328981
 31
0.0
  0
LINE
  5
5C
100
AcDbEntity
  8
レイヤー_1
  6
CONTINUOUS
 62
       3
100
AcDbLine
 10
115.68091433
 20
-47.64328981
 30
0.0
 11
115.66452502
 21
-47.5958909
 31
0.0
  0
LINE
  5
5D
100
AcDbEntity
  8
レイヤー_1
  6
CONTINUOUS
 62
       3
100
AcDbLine
 10
115.66452502
 20
-47.5958909
 30
0.0
 11
115.64365939
 21
-47.55078605
 31
0.0
  0
LINE
  5
5E
100
AcDbEntity
  8
レイヤー_1
  6
CONTINUOUS
 62
       3
100
AcDbLine
 10
115.64365939
 20
-47.55078605
 30
0.0
 11
115.61858565
 21
-47.50824549
 31
0.0
  0
LINE
  5
5F
100
AcDbEntity
  8
レイヤー_1
  6
CONTINUOUS
 62
       3
100
AcDbLine
 10
115.61858565
 20
-47.50824549
 30
0.0
 11
115.58957204
 21
-47.46853948
 31
0.0
  0
LINE
  5
60
100
AcDbEntity
  8
レイヤー_1
  6
CONTINUOUS
 62
       3
100
AcDbLine
 10
115.58957204
 20
-47.46853948
 30
0.0
 11
115.55688677
 21
-47.43193829
 31
0.0
  0
LINE
  5
61
100
AcDbEntity
  8
レイヤー_1
  6
CONTINUOUS
 62
       3
100
AcDbLine
 10
115.55688677
 20
-47.43193829
 30
0.0
 11
115.52079806
 21
-47.39871215
 31
0.0
  0
LINE
  5
62
100
AcDbEntity
  8
レイヤー_1
  6
CONTINUOUS
 62
       3
100
AcDbLine
 10
115.52079806
 20
-47.39871215
 30
0.0
 11
115.48157416
 21
-47.36913136
 31
0.0
  0
LINE
  5
63
100
AcDbEntity
  8
レイヤー_1
  6
CONTINUOUS
 62
       3
100
AcDbLine
 10
115.48157416
 20
-47.36913136
 30
0.0
 11
115.43948327
 21
-47.34346614
 31
0.0
  0
LINE
  5
64
100
AcDbEntity
  8
レイヤー_1
  6
CONTINUOUS
 62
       3
100
AcDbLine
 10
115.43948327
 20
-47.34346614
 30
0.0
 11
115.39479363
 21
-47.32198675
 31
0.0
  0
LINE
  5
65
100
AcDbEntity
  8
レイヤー_1
  6
CONTINUOUS
 62
       3
100
AcDbLine
 10
115.39479363
 20
-47.32198675
 30
0.0
 11
115.34777343
 21
-47.30496344
 31
0.0
  0
LINE
  5
66
100
AcDbEntity
  8
レイヤー_1
  6
CONTINUOUS
 62
       3
100
AcDbLine
 10
115.34777343
 20
-47.30496344
 30
0.0
 11
115.29869095
 21
-47.29266649
 31
0.0
  0
LINE
  5
67
100
AcDbEntity
  8
レイヤー_1
  6
CONTINUOUS
 62
       3
100
AcDbLine
 10
115.29869095
 20
-47.29266649
 30
0.0
 11
115.24781436
 21
-47.28536614
 31
0.0
  0
LINE
  5
68
100
AcDbEntity
  8
レイヤー_1
  6
CONTINUOUS
 62
       3
100
AcDbLine
 10
115.24781436
 20
-47.28536614
 30
0.0
 11
115.1997446
 21
-47.28328957
 31
0.0
  0
LINE
  5
69
100
AcDbEntity
  8
レイヤー_1
  6
CONTINUOUS
 62
       3
100
AcDbLine
 10
115.1997446
 20
-47.28328957
 30
0.0
 11
115.02435579
 21
-47.28328957
 31
0.0
  0
LINE
  5
6A
100
AcDbEntity
  8
レイヤー_1
  6
CONTINUOUS
 62
       3
100
AcDbLine
 10
115.02435579
 20
-47.28328957
 30
0.0
 11
114.59650149
 21
-47.28328957
 31
0.0
  0
LINE
  5
6B
100
AcDbEntity
  8
レイヤー_1
  6
CONTINUOUS
 62
       3
100
AcDbLine
 10
114.59650149
 20
-47.28328957
 30
0.0
 11
113.95393354
 21
-47.28328957
 31
0.0
  0
LINE
  5
6C
100
AcDbEntity
  8
レイヤー_1
  6
CONTINUOUS
 62
       3
100
AcDbLine
 10
113.95393354
 20
-47.28328957
 30
0.0
 11
113.13440377
 21
-47.28328957
 31
0.0
  0
LINE
  5
6D
100
AcDbEntity
  8
レイヤー_1
  6
CONTINUOUS
 62
       3
100
AcDbLine
 10
113.13440377
 20
-47.28328957
 30
0.0
 11
112.17566406
 21
-47.28328957
 31
0.0
  0
LINE
  5
6E
100
AcDbEntity
  8
レイヤー_1
  6
CONTINUOUS
 62
       3
100
AcDbLine
 10
112.17566406
 20
-47.28328957
 30
0.0
 11
111.11546625
 21
-47.28328957
 31
0.0
  0
LINE
  5
6F
100
AcDbEntity
  8
レイヤー_1
  6
CONTINUOUS
 62
       3
100
AcDbLine
 10
111.11546625
 20
-47.28328957
 30
0.0
 11
109.9915622
 21
-47.28328957
 31
0.0
  0
LINE
  5
70
100
AcDbEntity
  8
レイヤー_1
  6
CONTINUOUS
 62
       3
100
AcDbLine
 10
109.9915622
 20
-47.28328957
 30
0.0
 11
108.84170376
 21
-47.28328957
 31
0.0
  0
LINE
  5
71
100
AcDbEntity
  8
レイヤー_1
  6
CONTINUOUS
 62
       3
100
AcDbLine
 10
108.84170376
 20
-47.28328957
 30
0.0
 11
107.70364276
 21
-47.28328957
 31
0.0
  0
LINE
  5
72
100
AcDbEntity
  8
レイヤー_1
  6
CONTINUOUS
 62
       3
100
AcDbLine
 10
107.70364276
 20
-47.28328957
 30
0.0
 11
106.61513106
 21
-47.28328957
 31
0.0
  0
LINE
  5
73
100
AcDbEntity
  8
レイヤー_1
  6
CONTINUOUS
 62
       3
100
AcDbLine
 10
106.61513106
 20
-47.28328957
 30
0.0
 11
105.61392052
 21
-47.28328957
 31
0.0
  0
LINE
  5
74
100
AcDbEntity
  8
レイヤー_1
  6
CONTINUOUS
 62
       3
100
AcDbLine
 10
105.61392052
 20
-47.28328957
 30
0.0
 11
104.73776298
 21
-47.28328957
 31
0.0
  0
LINE
  5
75
100
AcDbEntity
  8
レイヤー_1
  6
CONTINUOUS
 62
       3
100
AcDbLine
 10
104.73776298
 20
-47.28328957
 30
0.0
 11
104.02441031
 21
-47.28328957
 31
0.0
  0
LINE
  5
76
100
AcDbEntity
  8
レイヤー_1
  6
CONTINUOUS
 62
       3
100
AcDbLine
 10
104.02441031
 20
-47.28328957
 30
0.0
 11
103.51161433
 21
-47.28328957
 31
0.0
  0
LINE
  5
77
100
AcDbEntity
  8
レイヤー_1
  6
CONTINUOUS
 62
       3
100
AcDbLine
 10
103.51161433
 20
-47.28328957
 30
0.0
 11
103.23712692
 21
-47.28328957
 31
0.0
  0
LINE
  5
78
100
AcDbEntity
  8
レイヤー_1
  6
CONTINUOUS
 62
       3
100
AcDbLine
 10
103.23712692
 20
-47.28328957
 30
0.0
 11
103.17475244
 21
-47.28397186
 31
0.0
  0
LINE
  5
79
100
AcDbEntity
  8
レイヤー_1
  6
CONTINUOUS
 62
       3
100
AcDbLine
 10
103.17475244
 20
-47.28397186
 30
0.0
 11
103.12325253
 21
-47.28932881
 31
0.0
  0
LINE
  5
7A
100
AcDbEntity
  8
レイヤー_1
  6
CONTINUOUS
 62
       3
100
AcDbLine
 10
103.12325253
 20
-47.28932881
 30
0.0
 11
103.07342901
 21
-47.29978371
 31
0.0
  0
LINE
  5
7B
100
AcDbEntity
  8
レイヤー_1
  6
CONTINUOUS
 62
       3
100
AcDbLine
 10
103.07342901
 20
-47.29978371
 30
0.0
 11
103.02555284
 21
-47.3150663
 31
0.0
  0
LINE
  5
7C
100
AcDbEntity
  8
レイヤー_1
  6
CONTINUOUS
 62
       3
100
AcDbLine
 10
103.02555284
 20
-47.3150663
 30
0.0
 11
102.97989493
 21
-47.33490631
 31
0.0
  0
LINE
  5
7D
100
AcDbEntity
  8
レイヤー_1
  6
CONTINUOUS
 62
       3
100
AcDbLine
 10
102.97989493
 20
-47.33490631
 30
0.0
 11
102.93672621
 21
-47.35903353
 31
0.0
  0
LINE
  5
7E
100
AcDbEntity
  8
レイヤー_1
  6
CONTINUOUS
 62
       3
100
AcDbLine
 10
102.93672621
 20
-47.35903353
 30
0.0
 11
102.89631764
 21
-47.38717766
 31
0.0
  0
LINE
  5
7F
100
AcDbEntity
  8
レイヤー_1
  6
CONTINUOUS
 62
       3
100
AcDbLine
 10
102.89631764
 20
-47.38717766
 30
0.0
 11
102.85894013
 21
-47.41906846
 31
0.0
  0
LINE
  5
80
100
AcDbEntity
  8
レイヤー_1
  6
CONTINUOUS
 62
       3
100
AcDbLine
 10
102.85894013
 20
-47.41906846
 30
0.0
 11
102.82486461
 21
-47.45443566
 31
0.0
  0
LINE
  5
81
100
AcDbEntity
  8
レイヤー_1
  6
CONTINUOUS
 62
       3
100
AcDbLine
 10
102.82486461
 20
-47.45443566
 30
0.0
 11
102.79436204
 21
-47.49300904
 31
0.0
  0
LINE
  5
82
100
AcDbEntity
  8
レイヤー_1
  6
CONTINUOUS
 62
       3
100
AcDbLine
 10
102.79436204
 20
-47.49300904
 30
0.0
 11
102.76770333
 21
-47.53451832
 31
0.0
  0
LINE
  5
83
100
AcDbEntity
  8
レイヤー_1
  6
CONTINUOUS
 62
       3
100
AcDbLine
 10
102.76770333
 20
-47.53451832
 30
0.0
 11
102.74515941
 21
-47.57869324
 31
0.0
  0
LINE
  5
84
100
AcDbEntity
  8
レイヤー_1
  6
CONTINUOUS
 62
       3
100
AcDbLine
 10
102.74515941
 20
-47.57869324
 30
0.0
 11
102.72700124
 21
-47.62526354
 31
0.0
  0
LINE
  5
85
100
AcDbEntity
  8
レイヤー_1
  6
CONTINUOUS
 62
       3
100
AcDbLine
 10
102.72700124
 20
-47.62526354
 30
0.0
 11
102.71349973
 21
-47.67395897
 31
0.0
  0
LINE
  5
86
100
AcDbEntity
  8
レイヤー_1
  6
CONTINUOUS
 62
       3
100
AcDbLine
 10
102.71349973
 20
-47.67395897
 30
0.0
 11
102.70492581
 21
-47.7245093
 31
0.0
  0
LINE
  5
87
100
AcDbEntity
  8
レイヤー_1
  6
CONTINUOUS
 62
       3
100
AcDbLine
 10
102.70492581
 20
-47.7245093
 30
0.0
 11
102.70155044
 21
-47.77664423
 31
0.0
  0
LINE
  5
88
100
AcDbEntity
  8
レイヤー_1
  6
CONTINUOUS
 62
       3
100
AcDbLine
 10
102.70155044
 20
-47.77664423
 30
0.0
 11
102.70150753
 21
-47.81043551
 31
0.0
  0
LINE
  5
89
100
AcDbEntity
  8
レイヤー_1
  6
CONTINUOUS
 62
       3
100
AcDbLine
 10
102.70150753
 20
-47.81043551
 30
0.0
 11
102.70150753
 21
-47.90251801
 31
0.0
  0
LINE
  5
8A
100
AcDbEntity
  8
レイヤー_1
  6
CONTINUOUS
 62
       3
100
AcDbLine
 10
102.70150753
 20
-47.90251801
 30
0.0
 11
102.70150753
 21
-48.05064647
 31
0.0
  0
LINE
  5
8B
100
AcDbEntity
  8
レイヤー_1
  6
CONTINUOUS
 62
       3
100
AcDbLine
 10
102.70150753
 20
-48.05064647
 30
0.0
 11
102.70150753
 21
-48.24538156
 31
0.0
  0
LINE
  5
8C
100
AcDbEntity
  8
レイヤー_1
  6
CONTINUOUS
 62
       3
100
AcDbLine
 10
102.70150753
 20
-48.24538156
 30
0.0
 11
102.70150753
 21
-48.47728395
 31
0.0
  0
LINE
  5
8D
100
AcDbEntity
  8
レイヤー_1
  6
CONTINUOUS
 62
       3
100
AcDbLine
 10
102.70150753
 20
-48.47728395
 30
0.0
 11
102.70150753
 21
-48.73691434
 31
0.0
  0
LINE
  5
8E
100
AcDbEntity
  8
レイヤー_1
  6
CONTINUOUS
 62
       3
100
AcDbLine
 10
102.70150753
 20
-48.73691434
 30
0.0
 11
102.70150753
 21
-49.0148334
 31
0.0
  0
LINE
  5
8F
100
AcDbEntity
  8
レイヤー_1
  6
CONTINUOUS
 62
       3
100
AcDbLine
 10
102.70150753
 20
-49.0148334
 30
0.0
 11
102.70150753
 21
-49.30160184
 31
0.0
  0
LINE
  5
90
100
AcDbEntity
  8
レイヤー_1
  6
CONTINUOUS
 62
       3
100
AcDbLine
 10
102.70150753
 20
-49.30160184
 30
0.0
 11
102.70150753
 21
-49.5877803
 31
0.0
  0
LINE
  5
91
100
AcDbEntity
  8
レイヤー_1
  6
CONTINUOUS
 62
       3
100
AcDbLine
 10
102.70150753
 20
-49.5877803
 30
0.0
 11
102.70150753
 21
-49.8639295
 31
0.0
  0
LINE
  5
92
100
AcDbEntity
  8
レイヤー_1
  6
CONTINUOUS
 62
       3
100
AcDbLine
 10
102.70150753
 20
-49.8639295
 30
0.0
 11
102.70150753
 21
-50.1206101
 31
0.0
  0
LINE
  5
93
100
AcDbEntity
  8
レイヤー_1
  6
CONTINUOUS
 62
       3
100
AcDbLine
 10
102.70150753
 20
-50.1206101
 30
0.0
 11
102.70150753
 21
-50.34838279
 31
0.0
  0
LINE
  5
94
100
AcDbEntity
  8
レイヤー_1
  6
CONTINUOUS
 62
       3
100
AcDbLine
 10
102.70150753
 20
-50.34838279
 30
0.0
 11
102.70150753
 21
-50.53780826
 31
0.0
  0
LINE
  5
95
100
AcDbEntity
  8
レイヤー_1
  6
CONTINUOUS
 62
       3
100
AcDbLine
 10
102.70150753
 20
-50.53780826
 30
0.0
 11
102.70150753
 21
-50.67944719
 31
0.0
  0
LINE
  5
96
100
AcDbEntity
  8
レイヤー_1
  6
CONTINUOUS
 62
       3
100
AcDbLine
 10
102.70150753
 20
-50.67944719
 30
0.0
 11
102.70150753
 21
-50.76386025
 31
0.0
  0
LINE
  5
97
100
AcDbEntity
  8
レイヤー_1
  6
CONTINUOUS
 62
       3
100
AcDbLine
 10
102.70150753
 20
-50.76386025
 30
0.0
 11
102.7016788
 21
-50.79714569
 31
0.0
  0
LINE
  5
98
100
AcDbEntity
  8
レイヤー_1
  6
CONTINUOUS
 62
       3
100
AcDbLine
 10
102.7016788
 20
-50.79714569
 30
0.0
 11
102.70571881
 21
-50.84908233
 31
0.0
  0
LINE
  5
99
100
AcDbEntity
  8
レイヤー_1
  6
CONTINUOUS
 62
       3
100
AcDbLine
 10
102.70571881
 20
-50.84908233
 30
0.0
 11
102.71492349
 21
-50.89938279
 31
0.0
  0
LINE
  5
9A
100
AcDbEntity
  8
レイヤー_1
  6
CONTINUOUS
 62
       3
100
AcDbLine
 10
102.71492349
 20
-50.89938279
 30
0.0
 11
102.7290219
 21
-50.94777952
 31
0.0
  0
LINE
  5
9B
100
AcDbEntity
  8
レイヤー_1
  6
CONTINUOUS
 62
       3
100
AcDbLine
 10
102.7290219
 20
-50.94777952
 30
0.0
 11
102.74774311
 21
-50.99400497
 31
0.0
  0
LINE
  5
9C
100
AcDbEntity
  8
レイヤー_1
  6
CONTINUOUS
 62
       3
100
AcDbLine
 10
102.74774311
 20
-50.99400497
 30
0.0
 11
102.77081619
 21
-51.0377916
 31
0.0
  0
LINE
  5
9D
100
AcDbEntity
  8
レイヤー_1
  6
CONTINUOUS
 62
       3
100
AcDbLine
 10
102.77081619
 20
-51.0377916
 30
0.0
 11
102.7979702
 21
-51.07887186
 31
0.0
  0
LINE
  5
9E
100
AcDbEntity
  8
レイヤー_1
  6
CONTINUOUS
 62
       3
100
AcDbLine
 10
102.7979702
 20
-51.07887186
 30
0.0
 11
102.82893421
 21
-51.1169782
 31
0.0
  0
LINE
  5
9F
100
AcDbEntity
  8
レイヤー_1
  6
CONTINUOUS
 62
       3
100
AcDbLine
 10
102.82893421
 20
-51.1169782
 30
0.0
 11
102.86343729
 21
-51.15184308
 31
0.0
  0
LINE
  5
A0
100
AcDbEntity
  8
レイヤー_1
  6
CONTINUOUS
 62
       3
100
AcDbLine
 10
102.86343729
 20
-51.15184308
 30
0.0
 11
102.9012085
 21
-51.18319895
 31
0.0
  0
LINE
  5
A1
100
AcDbEntity
  8
レイヤー_1
  6
CONTINUOUS
 62
       3
100
AcDbLine
 10
102.9012085
 20
-51.18319895
 30
0.0
 11
102.94197691
 21
-51.21077826
 31
0.0
  0
LINE
  5
A2
100
AcDbEntity
  8
レイヤー_1
  6
CONTINUOUS
 62
       3
100
AcDbLine
 10
102.94197691
 20
-51.21077826
 30
0.0
 11
102.98547159
 21
-51.23431345
 31
0.0
  0
LINE
  5
A3
100
AcDbEntity
  8
レイヤー_1
  6
CONTINUOUS
 62
       3
100
AcDbLine
 10
102.98547159
 20
-51.23431345
 30
0.0
 11
103.0314216
 21
-51.25353701
 31
0.0
  0
LINE
  5
A4
100
AcDbEntity
  8
レイヤー_1
  6
CONTINUOUS
 62
       3
100
AcDbLine
 10
103.0314216
 20
-51.25353701
 30
0.0
 11
103.07955601
 21
-51.26818137
 31
0.0
  0
LINE
  5
A5
100
AcDbEntity
  8
レイヤー_1
  6
CONTINUOUS
 62
       3
100
AcDbLine
 10
103.07955601
 20
-51.26818137
 30
0.0
 11
103.12960389
 21
-51.27797899
 31
0.0
  0
LINE
  5
A6
100
AcDbEntity
  8
レイヤー_1
  6
CONTINUOUS
 62
       3
100
AcDbLine
 10
103.12960389
 20
-51.27797899
 30
0.0
 11
103.1812943
 21
-51.28266233
 31
0.0
  0
LINE
  5
A7
100
AcDbEntity
  8
レイヤー_1
  6
CONTINUOUS
 62
       3
100
AcDbLine
 10
103.1812943
 20
-51.28266233
 30
0.0
 11
103.257115
 21
-51.28304543
 31
0.0
  0
LINE
  5
A8
100
AcDbEntity
  8
レイヤー_1
  6
CONTINUOUS
 62
       3
100
AcDbLine
 10
103.257115
 20
-51.28304543
 30
0.0
 11
103.56345554
 21
-51.28304543
 31
0.0
  0
LINE
  5
A9
100
AcDbEntity
  8
レイヤー_1
  6
CONTINUOUS
 62
       3
100
AcDbLine
 10
103.56345554
 20
-51.28304543
 30
0.0
 11
104.10338565
 21
-51.28304543
 31
0.0
  0
LINE
  5
AA
100
AcDbEntity
  8
レイヤー_1
  6
CONTINUOUS
 62
       3
100
AcDbLine
 10
104.10338565
 20
-51.28304543
 30
0.0
 11
104.83915349
 21
-51.28304543
 31
0.0
  0
LINE
  5
AB
100
AcDbEntity
  8
レイヤー_1
  6
CONTINUOUS
 62
       3
100
AcDbLine
 10
104.83915349
 20
-51.28304543
 30
0.0
 11
105.73300721
 21
-51.28304543
 31
0.0
  0
LINE
  5
AC
100
AcDbEntity
  8
レイヤー_1
  6
CONTINUOUS
 62
       3
100
AcDbLine
 10
105.73300721
 20
-51.28304543
 30
0.0
 11
106.74719494
 21
-51.28304543
 31
0.0
  0
LINE
  5
AD
100
AcDbEntity
  8
レイヤー_1
  6
CONTINUOUS
 62
       3
100
AcDbLine
 10
106.74719494
 20
-51.28304543
 30
0.0
 11
107.84396487
 21
-51.28304543
 31
0.0
  0
LINE
  5
AE
100
AcDbEntity
  8
レイヤー_1
  6
CONTINUOUS
 62
       3
100
AcDbLine
 10
107.84396487
 20
-51.28304543
 30
0.0
 11
108.9855651
 21
-51.28304543
 31
0.0
  0
LINE
  5
AF
100
AcDbEntity
  8
レイヤー_1
  6
CONTINUOUS
 62
       3
100
AcDbLine
 10
108.9855651
 20
-51.28304543
 30
0.0
 11
110.1342438
 21
-51.28304543
 31
0.0
  0
LINE
  5
B0
100
AcDbEntity
  8
レイヤー_1
  6
CONTINUOUS
 62
       3
100
AcDbLine
 10
110.1342438
 20
-51.28304543
 30
0.0
 11
111.25224912
 21
-51.28304543
 31
0.0
  0
LINE
  5
B1
100
AcDbEntity
  8
レイヤー_1
  6
CONTINUOUS
 62
       3
100
AcDbLine
 10
111.25224912
 20
-51.28304543
 30
0.0
 11
112.30182922
 21
-51.28304543
 31
0.0
  0
LINE
  5
B2
100
AcDbEntity
  8
レイヤー_1
  6
CONTINUOUS
 62
       3
100
AcDbLine
 10
112.30182922
 20
-51.28304543
 30
0.0
 11
113.24523224
 21
-51.28304543
 31
0.0
  0
LINE
  5
B3
100
AcDbEntity
  8
レイヤー_1
  6
CONTINUOUS
 62
       3
100
AcDbLine
 10
113.24523224
 20
-51.28304543
 30
0.0
 11
114.04470633
 21
-51.28304543
 31
0.0
  0
LINE
  5
B4
100
AcDbEntity
  8
レイヤー_1
  6
CONTINUOUS
 62
       3
100
AcDbLine
 10
114.04470633
 20
-51.28304543
 30
0.0
 11
114.66249963
 21
-51.28304543
 31
0.0
  0
LINE
  5
B5
100
AcDbEntity
  8
レイヤー_1
  6
CONTINUOUS
 62
       3
100
AcDbLine
 10
114.66249963
 20
-51.28304543
 30
0.0
 11
115.06086031
 21
-51.28304543
 31
0.0
  0
LINE
  5
B6
100
AcDbEntity
  8
レイヤー_1
  6
CONTINUOUS
 62
       3
100
AcDbLine
 10
115.06086031
 20
-51.28304543
 30
0.0
 11
115.20203651
 21
-51.28304543
 31
0.0
  0
LINE
  5
B7
100
AcDbEntity
  8
レイヤー_1
  6
CONTINUOUS
 62
       3
100
AcDbLine
 10
109.20584782
 20
-5.26819696
 30
0.0
 11
109.31047584
 21
-5.26278371
 31
0.0
  0
LINE
  5
B8
100
AcDbEntity
  8
レイヤー_1
  6
CONTINUOUS
 62
       3
100
AcDbLine
 10
109.31047584
 20
-5.26278371
 30
0.0
 11
109.41200219
 21
-5.24690431
 31
0.0
  0
LINE
  5
B9
100
AcDbEntity
  8
レイヤー_1
  6
CONTINUOUS
 62
       3
100
AcDbLine
 10
109.41200219
 20
-5.24690431
 30
0.0
 11
109.50988635
 21
-5.22109925
 31
0.0
  0
LINE
  5
BA
100
AcDbEntity
  8
レイヤー_1
  6
CONTINUOUS
 62
       3
100
AcDbLine
 10
109.50988635
 20
-5.22109925
 30
0.0
 11
109.6035878
 21
-5.18590907
 31
0.0
  0
LINE
  5
BB
100
AcDbEntity
  8
レイヤー_1
  6
CONTINUOUS
 62
       3
100
AcDbLine
 10
109.6035878
 20
-5.18590907
 30
0.0
 11
109.69256605
 21
-5.14187429
 31
0.0
  0
LINE
  5
BC
100
AcDbEntity
  8
レイヤー_1
  6
CONTINUOUS
 62
       3
100
AcDbLine
 10
109.69256605
 20
-5.14187429
 30
0.0
 11
109.77628056
 21
-5.08953539
 31
0.0
  0
LINE
  5
BD
100
AcDbEntity
  8
レイヤー_1
  6
CONTINUOUS
 62
       3
100
AcDbLine
 10
109.77628056
 20
-5.08953539
 30
0.0
 11
109.85419084
 21
-5.02943289
 31
0.0
  0
LINE
  5
BE
100
AcDbEntity
  8
レイヤー_1
  6
CONTINUOUS
 62
       3
100
AcDbLine
 10
109.85419084
 20
-5.02943289
 30
0.0
 11
109.92575637
 21
-4.96210731
 31
0.0
  0
LINE
  5
BF
100
AcDbEntity
  8
レイヤー_1
  6
CONTINUOUS
 62
       3
100
AcDbLine
 10
109.92575637
 20
-4.96210731
 30
0.0
 11
109.99043663
 21
-4.88809916
 31
0.0
  0
LINE
  5
C0
100
AcDbEntity
  8
レイヤー_1
  6
CONTINUOUS
 62
       3
100
AcDbLine
 10
109.99043663
 20
-4.88809916
 30
0.0
 11
110.04769113
 21
-4.80794896
 31
0.0
  0
LINE
  5
C1
100
AcDbEntity
  8
レイヤー_1
  6
CONTINUOUS
 62
       3
100
AcDbLine
 10
110.04769113
 20
-4.80794896
 30
0.0
 11
110.09697932
 21
-4.7221972
 31
0.0
  0
LINE
  5
C2
100
AcDbEntity
  8
レイヤー_1
  6
CONTINUOUS
 62
       3
100
AcDbLine
 10
110.09697932
 20
-4.7221972
 30
0.0
 11
110.13776072
 21
-4.63138441
 31
0.0
  0
LINE
  5
C3
100
AcDbEntity
  8
レイヤー_1
  6
CONTINUOUS
 62
       3
100
AcDbLine
 10
110.13776072
 20
-4.63138441
 30
0.0
 11
110.16949482
 21
-4.5360511
 31
0.0
  0
LINE
  5
C4
100
AcDbEntity
  8
レイヤー_1
  6
CONTINUOUS
 62
       3
100
AcDbLine
 10
110.16949482
 20
-4.5360511
 30
0.0
 11
110.19164109
 21
-4.43673777
 31
0.0
  0
LINE
  5
C5
100
AcDbEntity
  8
レイヤー_1
  6
CONTINUOUS
 62
       3
100
AcDbLine
 10
110.19164109
 20
-4.43673777
 30
0.0
 11
110.20365902
 21
-4.33398496
 31
0.0
  0
LINE
  5
C6
100
AcDbEntity
  8
レイヤー_1
  6
CONTINUOUS
 62
       3
100
AcDbLine
 10
110.20365902
 20
-4.33398496
 30
0.0
 11
110.20578677
 21
-4.25805576
 31
0.0
  0
LINE
  5
C7
100
AcDbEntity
  8
レイヤー_1
  6
CONTINUOUS
 62
       3
100
AcDbLine
 10
110.20578677
 20
-4.25805576
 30
0.0
 11
110.20578677
 21
-4.13704225
 31
0.0
  0
LINE
  5
C8
100
AcDbEntity
  8
レイヤー_1
  6
CONTINUOUS
 62
       3
100
AcDbLine
 10
110.20578677
 20
-4.13704225
 30
0.0
 11
110.20578677
 21
-3.89452368
 31
0.0
  0
LINE
  5
C9
100
AcDbEntity
  8
レイヤー_1
  6
CONTINUOUS
 62
       3
100
AcDbLine
 10
110.20578677
 20
-3.89452368
 30
0.0
 11
110.20578677
 21
-3.54937462
 31
0.0
  0
LINE
  5
CA
100
AcDbEntity
  8
レイヤー_1
  6
CONTINUOUS
 62
       3
100
AcDbLine
 10
110.20578677
 20
-3.54937462
 30
0.0
 11
110.20578677
 21
-3.12046967
 31
0.0
  0
LINE
  5
CB
100
AcDbEntity
  8
レイヤー_1
  6
CONTINUOUS
 62
       3
100
AcDbLine
 10
110.20578677
 20
-3.12046967
 30
0.0
 11
110.20578677
 21
-2.62668337
 31
0.0
  0
LINE
  5
CC
100
AcDbEntity
  8
レイヤー_1
  6
CONTINUOUS
 62
       3
100
AcDbLine
 10
110.20578677
 20
-2.62668337
 30
0.0
 11
110.20578677
 21
-2.0868903
 31
0.0
  0
LINE
  5
CD
100
AcDbEntity
  8
レイヤー_1
  6
CONTINUOUS
 62
       3
100
AcDbLine
 10
110.20578677
 20
-2.0868903
 30
0.0
 11
110.20578677
 21
-1.51996506
 31
0.0
  0
LINE
  5
CE
100
AcDbEntity
  8
レイヤー_1
  6
CONTINUOUS
 62
       3
100
AcDbLine
 10
110.20578677
 20
-1.51996506
 30
0.0
 11
110.20578677
 21
-0.94478218
 31
0.0
  0
LINE
  5
CF
100
AcDbEntity
  8
レイヤー_1
  6
CONTINUOUS
 62
       3
100
AcDbLine
 10
110.20578677
 20
-0.94478218
 30
0.0
 11
110.20578677
 21
-0.38021624
 31
0.0
  0
LINE
  5
D0
100
AcDbEntity
  8
レイヤー_1
  6
CONTINUOUS
 62
       3
100
AcDbLine
 10
110.20578677
 20
-0.38021624
 30
0.0
 11
110.20578677
 21
0.15485818
 31
0.0
  0
LINE
  5
D1
100
AcDbEntity
  8
レイヤー_1
  6
CONTINUOUS
 62
       3
100
AcDbLine
 10
110.20578677
 20
0.15485818
 30
0.0
 11
110.20578677
 21
0.64156651
 31
0.0
  0
LINE
  5
D2
100
AcDbEntity
  8
レイヤー_1
  6
CONTINUOUS
 62
       3
100
AcDbLine
 10
110.20578677
 20
0.64156651
 30
0.0
 11
110.20578677
 21
1.06103418
 31
0.0
  0
LINE
  5
D3
100
AcDbEntity
  8
レイヤー_1
  6
CONTINUOUS
 62
       3
100
AcDbLine
 10
110.20578677
 20
1.06103418
 30
0.0
 11
110.20578677
 21
1.39438662
 31
0.0
  0
LINE
  5
D4
100
AcDbEntity
  8
レイヤー_1
  6
CONTINUOUS
 62
       3
100
AcDbLine
 10
110.20578677
 20
1.39438662
 30
0.0
 11
110.20578677
 21
1.62274926
 31
0.0
  0
LINE
  5
D5
100
AcDbEntity
  8
レイヤー_1
  6
CONTINUOUS
 62
       3
100
AcDbLine
 10
110.20578677
 20
1.62274926
 30
0.0
 11
110.20578677
 21
1.72724754
 31
0.0
  0
LINE
  5
D6
100
AcDbEntity
  8
レイヤー_1
  6
CONTINUOUS
 62
       3
100
AcDbLine
 10
110.20578677
 20
1.72724754
 30
0.0
 11
110.20272915
 21
1.81054137
 31
0.0
  0
LINE
  5
D7
100
AcDbEntity
  8
レイヤー_1
  6
CONTINUOUS
 62
       3
100
AcDbLine
 10
110.20272915
 20
1.81054137
 30
0.0
 11
110.18941562
 21
1.91286958
 31
0.0
  0
LINE
  5
D8
100
AcDbEntity
  8
レイヤー_1
  6
CONTINUOUS
 62
       3
100
AcDbLine
 10
110.18941562
 20
1.91286958
 30
0.0
 11
110.16604132
 21
2.0116743
 31
0.0
  0
LINE
  5
D9
100
AcDbEntity
  8
レイヤー_1
  6
CONTINUOUS
 62
       3
100
AcDbLine
 10
110.16604132
 20
2.0116743
 30
0.0
 11
110.13314675
 21
2.10641775
 31
0.0
  0
LINE
  5
DA
100
AcDbEntity
  8
レイヤー_1
  6
CONTINUOUS
 62
       3
100
AcDbLine
 10
110.13314675
 20
2.10641775
 30
0.0
 11
110.09127243
 21
2.19656208
 31
0.0
  0
LINE
  5
DB
100
AcDbEntity
  8
レイヤー_1
  6
CONTINUOUS
 62
       3
100
AcDbLine
 10
110.09127243
 20
2.19656208
 30
0.0
 11
110.04095888
 21
2.28156954
 31
0.0
  0
LINE
  5
DC
100
AcDbEntity
  8
レイヤー_1
  6
CONTINUOUS
 62
       3
100
AcDbLine
 10
110.04095888
 20
2.28156954
 30
0.0
 11
109.98274661
 21
2.36090228
 31
0.0
  0
LINE
  5
DD
100
AcDbEntity
  8
レイヤー_1
  6
CONTINUOUS
 62
       3
100
AcDbLine
 10
109.98274661
 20
2.36090228
 30
0.0
 11
109.91717614
 21
2.43402253
 31
0.0
  0
LINE
  5
DE
100
AcDbEntity
  8
レイヤー_1
  6
CONTINUOUS
 62
       3
100
AcDbLine
 10
109.91717614
 20
2.43402253
 30
0.0
 11
109.84478795
 21
2.50039247
 31
0.0
  0
LINE
  5
DF
100
AcDbEntity
  8
レイヤー_1
  6
CONTINUOUS
 62
       3
100
AcDbLine
 10
109.84478795
 20
2.50039247
 30
0.0
 11
109.76612258
 21
2.5594743
 31
0.0
  0
LINE
  5
E0
100
AcDbEntity
  8
レイヤー_1
  6
CONTINUOUS
 62
       3
100
AcDbLine
 10
109.76612258
 20
2.5594743
 30
0.0
 11
109.68172054
 21
2.61073022
 31
0.0
  0
LINE
  5
E1
100
AcDbEntity
  8
レイヤー_1
  6
CONTINUOUS
 62
       3
100
AcDbLine
 10
109.68172054
 20
2.61073022
 30
0.0
 11
109.59212234
 21
2.65362244
 31
0.0
  0
LINE
  5
E2
100
AcDbEntity
  8
レイヤー_1
  6
CONTINUOUS
 62
       3
100
AcDbLine
 10
109.59212234
 20
2.65362244
 30
0.0
 11
109.49786849
 21
2.68761315
 31
0.0
  0
LINE
  5
E3
100
AcDbEntity
  8
レイヤー_1
  6
CONTINUOUS
 62
       3
100
AcDbLine
 10
109.49786849
 20
2.68761315
 30
0.0
 11
109.39949949
 21
2.71216453
 31
0.0
  0
LINE
  5
E4
100
AcDbEntity
  8
レイヤー_1
  6
CONTINUOUS
 62
       3
100
AcDbLine
 10
109.39949949
 20
2.71216453
 30
0.0
 11
109.29755587
 21
2.72673878
 31
0.0
  0
LINE
  5
E5
100
AcDbEntity
  8
レイヤー_1
  6
CONTINUOUS
 62
       3
100
AcDbLine
 10
109.29755587
 20
2.72673878
 30
0.0
 11
109.20584764
 21
2.73088413
 31
0.0
  0
LINE
  5
E6
100
AcDbEntity
  8
レイヤー_1
  6
CONTINUOUS
 62
       3
100
AcDbLine
 10
109.20498912
 20
2.73088413
 30
0.0
 11
109.15232118
 21
2.72952215
 31
0.0
  0
LINE
  5
E7
100
AcDbEntity
  8
レイヤー_1
  6
CONTINUOUS
 62
       3
100
AcDbLine
 10
109.15232118
 20
2.72952215
 30
0.0
 11
109.04919612
 21
2.71882795
 31
0.0
  0
LINE
  5
E8
100
AcDbEntity
  8
レイヤー_1
  6
CONTINUOUS
 62
       3
100
AcDbLine
 10
109.04919612
 20
2.71882795
 30
0.0
 11
108.94946011
 21
2.69795496
 31
0.0
  0
LINE
  5
E9
100
AcDbEntity
  8
レイヤー_1
  6
CONTINUOUS
 62
       3
100
AcDbLine
 10
108.94946011
 20
2.69795496
 30
0.0
 11
108.85365093
 21
2.66744098
 31
0.0
  0
LINE
  5
EA
100
AcDbEntity
  8
レイヤー_1
  6
CONTINUOUS
 62
       3
100
AcDbLine
 10
108.85365093
 20
2.66744098
 30
0.0
 11
108.76230639
 21
2.62782381
 31
0.0
  0
LINE
  5
EB
100
AcDbEntity
  8
レイヤー_1
  6
CONTINUOUS
 62
       3
100
AcDbLine
 10
108.76230639
 20
2.62782381
 30
0.0
 11
108.67596431
 21
2.57964126
 31
0.0
  0
LINE
  5
EC
100
AcDbEntity
  8
レイヤー_1
  6
CONTINUOUS
 62
       3
100
AcDbLine
 10
108.67596431
 20
2.57964126
 30
0.0
 11
108.59516246
 21
2.52343111
 31
0.0
  0
LINE
  5
ED
100
AcDbEntity
  8
レイヤー_1
  6
CONTINUOUS
 62
       3
100
AcDbLine
 10
108.59516246
 20
2.52343111
 30
0.0
 11
108.52043867
 21
2.4597312
 31
0.0
  0
LINE
  5
EE
100
AcDbEntity
  8
レイヤー_1
  6
CONTINUOUS
 62
       3
100
AcDbLine
 10
108.52043867
 20
2.4597312
 30
0.0
 11
108.45233074
 21
2.38907928
 31
0.0
  0
LINE
  5
EF
100
AcDbEntity
  8
レイヤー_1
  6
CONTINUOUS
 62
       3
100
AcDbLine
 10
108.45233074
 20
2.38907928
 30
0.0
 11
108.39137645
 21
2.3120132
 31
0.0
  0
LINE
  5
F0
100
AcDbEntity
  8
レイヤー_1
  6
CONTINUOUS
 62
       3
100
AcDbLine
 10
108.39137645
 20
2.3120132
 30
0.0
 11
108.33811363
 21
2.22907075
 31
0.0
  0
LINE
  5
F1
100
AcDbEntity
  8
レイヤー_1
  6
CONTINUOUS
 62
       3
100
AcDbLine
 10
108.33811363
 20
2.22907075
 30
0.0
 11
108.29308008
 21
2.14078971
 31
0.0
  0
LINE
  5
F2
100
AcDbEntity
  8
レイヤー_1
  6
CONTINUOUS
 62
       3
100
AcDbLine
 10
108.29308008
 20
2.14078971
 30
0.0
 11
108.25681358
 21
2.04770792
 31
0.0
  0
LINE
  5
F3
100
AcDbEntity
  8
レイヤー_1
  6
CONTINUOUS
 62
       3
100
AcDbLine
 10
108.25681358
 20
2.04770792
 30
0.0
 11
108.22985194
 21
1.95036314
 31
0.0
  0
LINE
  5
F4
100
AcDbEntity
  8
レイヤー_1
  6
CONTINUOUS
 62
       3
100
AcDbLine
 10
108.22985194
 20
1.95036314
 30
0.0
 11
108.21273298
 21
1.84929322
 31
0.0
  0
LINE
  5
F5
100
AcDbEntity
  8
レイヤー_1
  6
CONTINUOUS
 62
       3
100
AcDbLine
 10
108.21273298
 20
1.84929322
 30
0.0
 11
108.2059945
 21
1.74503592
 31
0.0
  0
LINE
  5
F6
100
AcDbEntity
  8
レイヤー_1
  6
CONTINUOUS
 62
       3
100
AcDbLine
 10
108.2059945
 20
1.74503592
 30
0.0
 11
108.20590884
 21
1.67746524
 31
0.0
  0
LINE
  5
F7
100
AcDbEntity
  8
レイヤー_1
  6
CONTINUOUS
 62
       3
100
AcDbLine
 10
108.20590884
 20
1.67746524
 30
0.0
 11
108.20590884
 21
1.49333988
 31
0.0
  0
LINE
  5
F8
100
AcDbEntity
  8
レイヤー_1
  6
CONTINUOUS
 62
       3
100
AcDbLine
 10
108.20590884
 20
1.49333988
 30
0.0
 11
108.20590884
 21
1.19714674
 31
0.0
  0
LINE
  5
F9
100
AcDbEntity
  8
レイヤー_1
  6
CONTINUOUS
 62
       3
100
AcDbLine
 10
108.20590884
 20
1.19714674
 30
0.0
 11
108.20590884
 21
0.80776042
 31
0.0
  0
LINE
  5
FA
100
AcDbEntity
  8
レイヤー_1
  6
CONTINUOUS
 62
       3
100
AcDbLine
 10
108.20590884
 20
0.80776042
 30
0.0
 11
108.20590884
 21
0.34405548
 31
0.0
  0
LINE
  5
FB
100
AcDbEntity
  8
レイヤー_1
  6
CONTINUOUS
 62
       3
100
AcDbLine
 10
108.20590884
 20
0.34405548
 30
0.0
 11
108.20590884
 21
-0.17509352
 31
0.0
  0
LINE
  5
FC
100
AcDbEntity
  8
レイヤー_1
  6
CONTINUOUS
 62
       3
100
AcDbLine
 10
108.20590884
 20
-0.17509352
 30
0.0
 11
108.20590884
 21
-0.73081201
 31
0.0
  0
LINE
  5
FD
100
AcDbEntity
  8
レイヤー_1
  6
CONTINUOUS
 62
       3
100
AcDbLine
 10
108.20590884
 20
-0.73081201
 30
0.0
 11
108.20590884
 21
-1.3042254
 31
0.0
  0
LINE
  5
FE
100
AcDbEntity
  8
レイヤー_1
  6
CONTINUOUS
 62
       3
100
AcDbLine
 10
108.20590884
 20
-1.3042254
 30
0.0
 11
108.20590884
 21
-1.87645912
 31
0.0
  0
LINE
  5
FF
100
AcDbEntity
  8
レイヤー_1
  6
CONTINUOUS
 62
       3
100
AcDbLine
 10
108.20590884
 20
-1.87645912
 30
0.0
 11
108.20590884
 21
-2.42863861
 31
0.0
  0
LINE
  5
100
100
AcDbEntity
  8
レイヤー_1
  6
CONTINUOUS
 62
       3
100
AcDbLine
 10
108.20590884
 20
-2.42863861
 30
0.0
 11
108.20590884
 21
-2.94188931
 31
0.0
  0
LINE
  5
101
100
AcDbEntity
  8
レイヤー_1
  6
CONTINUOUS
 62
       3
100
AcDbLine
 10
108.20590884
 20
-2.94188931
 30
0.0
 11
108.20590884
 21
-3.39733664
 31
0.0
  0
LINE
  5
102
100
AcDbEntity
  8
レイヤー_1
  6
CONTINUOUS
 62
       3
100
AcDbLine
 10
108.20590884
 20
-3.39733664
 30
0.0
 11
108.20590884
 21
-3.77610601
 31
0.0
  0
LINE
  5
103
100
AcDbEntity
  8
レイヤー_1
  6
CONTINUOUS
 62
       3
100
AcDbLine
 10
108.20590884
 20
-3.77610601
 30
0.0
 11
108.20590884
 21
-4.05932288
 31
0.0
  0
LINE
  5
104
100
AcDbEntity
  8
レイヤー_1
  6
CONTINUOUS
 62
       3
100
AcDbLine
 10
108.20590884
 20
-4.05932288
 30
0.0
 11
108.20590884
 21
-4.22811266
 31
0.0
  0
LINE
  5
105
100
AcDbEntity
  8
レイヤー_1
  6
CONTINUOUS
 62
       3
100
AcDbLine
 10
108.20590884
 20
-4.22811266
 30
0.0
 11
108.20625075
 21
-4.29467621
 31
0.0
  0
LINE
  5
106
100
AcDbEntity
  8
レイヤー_1
  6
CONTINUOUS
 62
       3
100
AcDbLine
 10
108.20625075
 20
-4.29467621
 30
0.0
 11
108.2143162
 21
-4.39857951
 31
0.0
  0
LINE
  5
107
100
AcDbEntity
  8
レイヤー_1
  6
CONTINUOUS
 62
       3
100
AcDbLine
 10
108.2143162
 20
-4.39857951
 30
0.0
 11
108.2326949
 21
-4.49924597
 31
0.0
  0
LINE
  5
108
100
AcDbEntity
  8
レイヤー_1
  6
CONTINUOUS
 62
       3
100
AcDbLine
 10
108.2326949
 20
-4.49924597
 30
0.0
 11
108.26084905
 21
-4.59613513
 31
0.0
  0
LINE
  5
109
100
AcDbEntity
  8
レイヤー_1
  6
CONTINUOUS
 62
       3
100
AcDbLine
 10
108.26084905
 20
-4.59613513
 30
0.0
 11
108.29824085
 21
-4.68870646
 31
0.0
  0
LINE
  5
10A
100
AcDbEntity
  8
レイヤー_1
  6
CONTINUOUS
 62
       3
100
AcDbLine
 10
108.29824085
 20
-4.68870646
 30
0.0
 11
108.34433248
 21
-4.77641945
 31
0.0
  0
LINE
  5
10B
100
AcDbEntity
  8
レイヤー_1
  6
CONTINUOUS
 62
       3
100
AcDbLine
 10
108.34433248
 20
-4.77641945
 30
0.0
 11
108.39858615
 21
-4.85873358
 31
0.0
  0
LINE
  5
10C
100
AcDbEntity
  8
レイヤー_1
  6
CONTINUOUS
 62
       3
100
AcDbLine
 10
108.39858615
 20
-4.85873358
 30
0.0
 11
108.46046404
 21
-4.93510833
 31
0.0
  0
LINE
  5
10D
100
AcDbEntity
  8
レイヤー_1
  6
CONTINUOUS
 62
       3
100
AcDbLine
 10
108.46046404
 20
-4.93510833
 30
0.0
 11
108.52942837
 21
-5.00500322
 31
0.0
  0
LINE
  5
10E
100
AcDbEntity
  8
レイヤー_1
  6
CONTINUOUS
 62
       3
100
AcDbLine
 10
108.52942837
 20
-5.00500322
 30
0.0
 11
108.60494133
 21
-5.06787771
 31
0.0
  0
LINE
  5
10F
100
AcDbEntity
  8
レイヤー_1
  6
CONTINUOUS
 62
       3
100
AcDbLine
 10
108.60494133
 20
-5.06787771
 30
0.0
 11
108.68646512
 21
-5.12319131
 31
0.0
  0
LINE
  5
110
100
AcDbEntity
  8
レイヤー_1
  6
CONTINUOUS
 62
       3
100
AcDbLine
 10
108.68646512
 20
-5.12319131
 30
0.0
 11
108.77346192
 21
-5.17040348
 31
0.0
  0
LINE
  5
111
100
AcDbEntity
  8
レイヤー_1
  6
CONTINUOUS
 62
       3
100
AcDbLine
 10
108.77346192
 20
-5.17040348
 30
0.0
 11
108.86539395
 21
-5.20897373
 31
0.0
  0
LINE
  5
112
100
AcDbEntity
  8
レイヤー_1
  6
CONTINUOUS
 62
       3
100
AcDbLine
 10
108.86539395
 20
-5.20897373
 30
0.0
 11
108.96172339
 21
-5.23836153
 31
0.0
  0
LINE
  5
113
100
AcDbEntity
  8
レイヤー_1
  6
CONTINUOUS
 62
       3
100
AcDbLine
 10
108.96172339
 20
-5.23836153
 30
0.0
 11
109.06191246
 21
-5.2580264
 31
0.0
  0
LINE
  5
114
100
AcDbEntity
  8
レイヤー_1
  6
CONTINUOUS
 62
       3
100
AcDbLine
 10
109.06191246
 20
-5.2580264
 30
0.0
 11
109.16542332
 21
-5.2674278
 31
0.0
  0
LINE
  5
115
100
AcDbEntity
  8
レイヤー_1
  6
CONTINUOUS
 62
       3
100
AcDbLine
 10
109.16542332
 20
-5.2674278
 30
0.0
 11
109.20499056
 21
-5.26819696
 31
0.0
  0
LINE
  5
116
100
AcDbEntity
  8
レイヤー_1
  6
CONTINUOUS
 62
       3
100
AcDbLine
 10
101.70932003
 20
-6.26856656
 30
0.0
 11
102.17737416
 21
-6.246959
 31
0.0
  0
LINE
  5
117
100
AcDbEntity
  8
レイヤー_1
  6
CONTINUOUS
 62
       3
100
AcDbLine
 10
102.17737416
 20
-6.246959
 30
0.0
 11
102.63324916
 21
-6.18341682
 31
0.0
  0
LINE
  5
118
100
AcDbEntity
  8
レイヤー_1
  6
CONTINUOUS
 62
       3
100
AcDbLine
 10
102.63324916
 20
-6.18341682
 30
0.0
 11
103.07502526
 21
-6.07986073
 31
0.0
  0
LINE
  5
119
100
AcDbEntity
  8
レイヤー_1
  6
CONTINUOUS
 62
       3
100
AcDbLine
 10
103.07502526
 20
-6.07986073
 30
0.0
 11
103.5007827
 21
-5.9382115
 31
0.0
  0
LINE
  5
11A
100
AcDbEntity
  8
レイヤー_1
  6
CONTINUOUS
 62
       3
100
AcDbLine
 10
103.5007827
 20
-5.9382115
 30
0.0
 11
103.90860169
 21
-5.76038985
 31
0.0
  0
LINE
  5
11B
100
AcDbEntity
  8
レイヤー_1
  6
CONTINUOUS
 62
       3
100
AcDbLine
 10
103.90860169
 20
-5.76038985
 30
0.0
 11
104.29656247
 21
-5.54831653
 31
0.0
  0
LINE
  5
11C
100
AcDbEntity
  8
レイヤー_1
  6
CONTINUOUS
 62
       3
100
AcDbLine
 10
104.29656247
 20
-5.54831653
 30
0.0
 11
104.66274527
 21
-5.30391226
 31
0.0
  0
LINE
  5
11D
100
AcDbEntity
  8
レイヤー_1
  6
CONTINUOUS
 62
       3
100
AcDbLine
 10
104.66274527
 20
-5.30391226
 30
0.0
 11
105.00523031
 21
-5.02909777
 31
0.0
  0
LINE
  5
11E
100
AcDbEntity
  8
レイヤー_1
  6
CONTINUOUS
 62
       3
100
AcDbLine
 10
105.00523031
 20
-5.02909777
 30
0.0
 11
105.32209781
 21
-4.72579382
 31
0.0
  0
LINE
  5
11F
100
AcDbEntity
  8
レイヤー_1
  6
CONTINUOUS
 62
       3
100
AcDbLine
 10
105.32209781
 20
-4.72579382
 30
0.0
 11
105.61142802
 21
-4.39592113
 31
0.0
  0
LINE
  5
120
100
AcDbEntity
  8
レイヤー_1
  6
CONTINUOUS
 62
       3
100
AcDbLine
 10
105.61142802
 20
-4.39592113
 30
0.0
 11
105.87130116
 21
-4.04140043
 31
0.0
  0
LINE
  5
121
100
AcDbEntity
  8
レイヤー_1
  6
CONTINUOUS
 62
       3
100
AcDbLine
 10
105.87130116
 20
-4.04140043
 30
0.0
 11
106.09979745
 21
-3.66415247
 31
0.0
  0
LINE
  5
122
100
AcDbEntity
  8
レイヤー_1
  6
CONTINUOUS
 62
       3
100
AcDbLine
 10
106.09979745
 20
-3.66415247
 30
0.0
 11
106.29499712
 21
-3.26609799
 31
0.0
  0
LINE
  5
123
100
AcDbEntity
  8
レイヤー_1
  6
CONTINUOUS
 62
       3
100
AcDbLine
 10
106.29499712
 20
-3.26609799
 30
0.0
 11
106.4549804
 21
-2.8491577
 31
0.0
  0
LINE
  5
124
100
AcDbEntity
  8
レイヤー_1
  6
CONTINUOUS
 62
       3
100
AcDbLine
 10
106.4549804
 20
-2.8491577
 30
0.0
 11
106.57782753
 21
-2.41525237
 31
0.0
  0
LINE
  5
125
100
AcDbEntity
  8
レイヤー_1
  6
CONTINUOUS
 62
       3
100
AcDbLine
 10
106.57782753
 20
-2.41525237
 30
0.0
 11
106.66161872
 21
-1.96630271
 31
0.0
  0
LINE
  5
126
100
AcDbEntity
  8
レイヤー_1
  6
CONTINUOUS
 62
       3
100
AcDbLine
 10
106.66161872
 20
-1.96630271
 30
0.0
 11
106.7044342
 21
-1.50422946
 31
0.0
  0
LINE
  5
127
100
AcDbEntity
  8
レイヤー_1
  6
CONTINUOUS
 62
       3
100
AcDbLine
 10
106.7044342
 20
-1.50422946
 30
0.0
 11
106.7044342
 21
-1.03347917
 31
0.0
  0
LINE
  5
128
100
AcDbEntity
  8
レイヤー_1
  6
CONTINUOUS
 62
       3
100
AcDbLine
 10
106.7044342
 20
-1.03347917
 30
0.0
 11
106.66161872
 21
-0.57134819
 31
0.0
  0
LINE
  5
129
100
AcDbEntity
  8
レイヤー_1
  6
CONTINUOUS
 62
       3
100
AcDbLine
 10
106.66161872
 20
-0.57134819
 30
0.0
 11
106.57782753
 21
-0.12235551
 31
0.0
  0
LINE
  5
12A
100
AcDbEntity
  8
レイヤー_1
  6
CONTINUOUS
 62
       3
100
AcDbLine
 10
106.57782753
 20
-0.12235551
 30
0.0
 11
106.4549804
 21
0.31157961
 31
0.0
  0
LINE
  5
12B
100
AcDbEntity
  8
レイヤー_1
  6
CONTINUOUS
 62
       3
100
AcDbLine
 10
106.4549804
 20
0.31157961
 30
0.0
 11
106.29499712
 21
0.72853785
 31
0.0
  0
LINE
  5
12C
100
AcDbEntity
  8
レイヤー_1
  6
CONTINUOUS
 62
       3
100
AcDbLine
 10
106.29499712
 20
0.72853785
 30
0.0
 11
106.09979745
 21
1.12659992
 31
0.0
  0
LINE
  5
12D
100
AcDbEntity
  8
レイヤー_1
  6
CONTINUOUS
 62
       3
100
AcDbLine
 10
106.09979745
 20
1.12659992
 30
0.0
 11
105.87130116
 21
1.50384655
 31
0.0
  0
LINE
  5
12E
100
AcDbEntity
  8
レイヤー_1
  6
CONTINUOUS
 62
       3
100
AcDbLine
 10
105.87130116
 20
1.50384655
 30
0.0
 11
105.61142802
 21
1.85835846
 31
0.0
  0
LINE
  5
12F
100
AcDbEntity
  8
レイヤー_1
  6
CONTINUOUS
 62
       3
100
AcDbLine
 10
105.61142802
 20
1.85835846
 30
0.0
 11
105.32209781
 21
2.18821632
 31
0.0
  0
LINE
  5
130
100
AcDbEntity
  8
レイヤー_1
  6
CONTINUOUS
 62
       3
100
AcDbLine
 10
105.32209781
 20
2.18821632
 30
0.0
 11
105.00523031
 21
2.49150087
 31
0.0
  0
LINE
  5
131
100
AcDbEntity
  8
レイヤー_1
  6
CONTINUOUS
 62
       3
100
AcDbLine
 10
105.00523031
 20
2.49150087
 30
0.0
 11
104.66274527
 21
2.76629281
 31
0.0
  0
LINE
  5
132
100
AcDbEntity
  8
レイヤー_1
  6
CONTINUOUS
 62
       3
100
AcDbLine
 10
104.66274527
 20
2.76629281
 30
0.0
 11
104.29656247
 21
3.01067287
 31
0.0
  0
LINE
  5
133
100
AcDbEntity
  8
レイヤー_1
  6
CONTINUOUS
 62
       3
100
AcDbLine
 10
104.29656247
 20
3.01067287
 30
0.0
 11
103.90860169
 21
3.22272172
 31
0.0
  0
LINE
  5
134
100
AcDbEntity
  8
レイヤー_1
  6
CONTINUOUS
 62
       3
100
AcDbLine
 10
103.90860169
 20
3.22272172
 30
0.0
 11
103.5007827
 21
3.40052012
 31
0.0
  0
LINE
  5
135
100
AcDbEntity
  8
レイヤー_1
  6
CONTINUOUS
 62
       3
100
AcDbLine
 10
103.5007827
 20
3.40052012
 30
0.0
 11
103.07502526
 21
3.54214873
 31
0.0
  0
LINE
  5
136
100
AcDbEntity
  8
レイヤー_1
  6
CONTINUOUS
 62
       3
100
AcDbLine
 10
103.07502526
 20
3.54214873
 30
0.0
 11
102.63324916
 21
3.64568829
 31
0.0
  0
LINE
  5
137
100
AcDbEntity
  8
レイヤー_1
  6
CONTINUOUS
 62
       3
100
AcDbLine
 10
102.63324916
 20
3.64568829
 30
0.0
 11
102.17737416
 21
3.70921952
 31
0.0
  0
LINE
  5
138
100
AcDbEntity
  8
レイヤー_1
  6
CONTINUOUS
 62
       3
100
AcDbLine
 10
102.17737416
 20
3.70921952
 30
0.0
 11
101.70932003
 21
3.7308231
 31
0.0
  0
LINE
  5
139
100
AcDbEntity
  8
レイヤー_1
  6
CONTINUOUS
 62
       3
100
AcDbLine
 10
116.70151431
 20
3.7308231
 30
0.0
 11
116.23359955
 21
3.70921952
 31
0.0
  0
LINE
  5
13A
100
AcDbEntity
  8
レイヤー_1
  6
CONTINUOUS
 62
       3
100
AcDbLine
 10
116.23359955
 20
3.70921952
 30
0.0
 11
115.77784801
 21
3.64568829
 31
0.0
  0
LINE
  5
13B
100
AcDbEntity
  8
レイヤー_1
  6
CONTINUOUS
 62
       3
100
AcDbLine
 10
115.77784801
 20
3.64568829
 30
0.0
 11
115.33618042
 21
3.54214873
 31
0.0
  0
LINE
  5
13C
100
AcDbEntity
  8
レイヤー_1
  6
CONTINUOUS
 62
       3
100
AcDbLine
 10
115.33618042
 20
3.54214873
 30
0.0
 11
114.91051752
 21
3.40052012
 31
0.0
  0
LINE
  5
13D
100
AcDbEntity
  8
レイヤー_1
  6
CONTINUOUS
 62
       3
100
AcDbLine
 10
114.91051752
 20
3.40052012
 30
0.0
 11
114.50278004
 21
3.22272172
 31
0.0
  0
LINE
  5
13E
100
AcDbEntity
  8
レイヤー_1
  6
CONTINUOUS
 62
       3
100
AcDbLine
 10
114.50278004
 20
3.22272172
 30
0.0
 11
114.11488873
 21
3.01067287
 31
0.0
  0
LINE
  5
13F
100
AcDbEntity
  8
レイヤー_1
  6
CONTINUOUS
 62
       3
100
AcDbLine
 10
114.11488873
 20
3.01067287
 30
0.0
 11
113.74876431
 21
2.76629281
 31
0.0
  0
LINE
  5
140
100
AcDbEntity
  8
レイヤー_1
  6
CONTINUOUS
 62
       3
100
AcDbLine
 10
113.74876431
 20
2.76629281
 30
0.0
 11
113.40632752
 21
2.49150087
 31
0.0
  0
LINE
  5
141
100
AcDbEntity
  8
レイヤー_1
  6
CONTINUOUS
 62
       3
100
AcDbLine
 10
113.40632752
 20
2.49150087
 30
0.0
 11
113.08949912
 21
2.18821632
 31
0.0
  0
LINE
  5
142
100
AcDbEntity
  8
レイヤー_1
  6
CONTINUOUS
 62
       3
100
AcDbLine
 10
113.08949912
 20
2.18821632
 30
0.0
 11
112.8001998
 21
1.85835846
 31
0.0
  0
LINE
  5
143
100
AcDbEntity
  8
レイヤー_1
  6
CONTINUOUS
 62
       3
100
AcDbLine
 10
112.8001998
 20
1.85835846
 30
0.0
 11
112.54035032
 21
1.50384655
 31
0.0
  0
LINE
  5
144
100
AcDbEntity
  8
レイヤー_1
  6
CONTINUOUS
 62
       3
100
AcDbLine
 10
112.54035032
 20
1.50384655
 30
0.0
 11
112.31187143
 21
1.12659992
 31
0.0
  0
LINE
  5
145
100
AcDbEntity
  8
レイヤー_1
  6
CONTINUOUS
 62
       3
100
AcDbLine
 10
112.31187143
 20
1.12659992
 30
0.0
 11
112.11668385
 21
0.72853785
 31
0.0
  0
LINE
  5
146
100
AcDbEntity
  8
レイヤー_1
  6
CONTINUOUS
 62
       3
100
AcDbLine
 10
112.11668385
 20
0.72853785
 30
0.0
 11
111.95670832
 21
0.31157961
 31
0.0
  0
LINE
  5
147
100
AcDbEntity
  8
レイヤー_1
  6
CONTINUOUS
 62
       3
100
AcDbLine
 10
111.95670832
 20
0.31157961
 30
0.0
 11
111.83386558
 21
-0.12235551
 31
0.0
  0
LINE
  5
148
100
AcDbEntity
  8
レイヤー_1
  6
CONTINUOUS
 62
       3
100
AcDbLine
 10
111.83386558
 20
-0.12235551
 30
0.0
 11
111.75007636
 21
-0.57134819
 31
0.0
  0
LINE
  5
149
100
AcDbEntity
  8
レイヤー_1
  6
CONTINUOUS
 62
       3
100
AcDbLine
 10
111.75007636
 20
-0.57134819
 30
0.0
 11
111.70726139
 21
-1.03347917
 31
0.0
  0
LINE
  5
14A
100
AcDbEntity
  8
レイヤー_1
  6
CONTINUOUS
 62
       3
100
AcDbLine
 10
111.70726139
 20
-1.03347917
 30
0.0
 11
111.70726139
 21
-1.50422946
 31
0.0
  0
LINE
  5
14B
100
AcDbEntity
  8
レイヤー_1
  6
CONTINUOUS
 62
       3
100
AcDbLine
 10
111.70726139
 20
-1.50422946
 30
0.0
 11
111.75007636
 21
-1.96630271
 31
0.0
  0
LINE
  5
14C
100
AcDbEntity
  8
レイヤー_1
  6
CONTINUOUS
 62
       3
100
AcDbLine
 10
111.75007636
 20
-1.96630271
 30
0.0
 11
111.83386558
 21
-2.41525237
 31
0.0
  0
LINE
  5
14D
100
AcDbEntity
  8
レイヤー_1
  6
CONTINUOUS
 62
       3
100
AcDbLine
 10
111.83386558
 20
-2.41525237
 30
0.0
 11
111.95670832
 21
-2.8491577
 31
0.0
  0
LINE
  5
14E
100
AcDbEntity
  8
レイヤー_1
  6
CONTINUOUS
 62
       3
100
AcDbLine
 10
111.95670832
 20
-2.8491577
 30
0.0
 11
112.11668385
 21
-3.26609799
 31
0.0
  0
LINE
  5
14F
100
AcDbEntity
  8
レイヤー_1
  6
CONTINUOUS
 62
       3
100
AcDbLine
 10
112.11668385
 20
-3.26609799
 30
0.0
 11
112.31187143
 21
-3.66415247
 31
0.0
  0
LINE
  5
150
100
AcDbEntity
  8
レイヤー_1
  6
CONTINUOUS
 62
       3
100
AcDbLine
 10
112.31187143
 20
-3.66415247
 30
0.0
 11
112.54035032
 21
-4.04140043
 31
0.0
  0
LINE
  5
151
100
AcDbEntity
  8
レイヤー_1
  6
CONTINUOUS
 62
       3
100
AcDbLine
 10
112.54035032
 20
-4.04140043
 30
0.0
 11
112.8001998
 21
-4.39592113
 31
0.0
  0
LINE
  5
152
100
AcDbEntity
  8
レイヤー_1
  6
CONTINUOUS
 62
       3
100
AcDbLine
 10
112.8001998
 20
-4.39592113
 30
0.0
 11
113.08949912
 21
-4.72579382
 31
0.0
  0
LINE
  5
153
100
AcDbEntity
  8
レイヤー_1
  6
CONTINUOUS
 62
       3
100
AcDbLine
 10
113.08949912
 20
-4.72579382
 30
0.0
 11
113.40632752
 21
-5.02909777
 31
0.0
  0
LINE
  5
154
100
AcDbEntity
  8
レイヤー_1
  6
CONTINUOUS
 62
       3
100
AcDbLine
 10
113.40632752
 20
-5.02909777
 30
0.0
 11
113.74876431
 21
-5.30391226
 31
0.0
  0
LINE
  5
155
100
AcDbEntity
  8
レイヤー_1
  6
CONTINUOUS
 62
       3
100
AcDbLine
 10
113.74876431
 20
-5.30391226
 30
0.0
 11
114.11488873
 21
-5.54831653
 31
0.0
  0
LINE
  5
156
100
AcDbEntity
  8
レイヤー_1
  6
CONTINUOUS
 62
       3
100
AcDbLine
 10
114.11488873
 20
-5.54831653
 30
0.0
 11
114.50278004
 21
-5.76038985
 31
0.0
  0
LINE
  5
157
100
AcDbEntity
  8
レイヤー_1
  6
CONTINUOUS
 62
       3
100
AcDbLine
 10
114.50278004
 20
-5.76038985
 30
0.0
 11
114.91051752
 21
-5.9382115
 31
0.0
  0
LINE
  5
158
100
AcDbEntity
  8
レイヤー_1
  6
CONTINUOUS
 62
       3
100
AcDbLine
 10
114.91051752
 20
-5.9382115
 30
0.0
 11
115.33618042
 21
-6.07986073
 31
0.0
  0
LINE
  5
159
100
AcDbEntity
  8
レイヤー_1
  6
CONTINUOUS
 62
       3
100
AcDbLine
 10
115.33618042
 20
-6.07986073
 30
0.0
 11
115.77784801
 21
-6.18341682
 31
0.0
  0
LINE
  5
15A
100
AcDbEntity
  8
レイヤー_1
  6
CONTINUOUS
 62
       3
100
AcDbLine
 10
115.77784801
 20
-6.18341682
 30
0.0
 11
116.23359955
 21
-6.246959
 31
0.0
  0
LINE
  5
15B
100
AcDbEntity
  8
レイヤー_1
  6
CONTINUOUS
 62
       3
100
AcDbLine
 10
116.23359955
 20
-6.246959
 30
0.0
 11
116.70151431
 21
-6.26856656
 31
0.0
  0
LINE
  5
15C
100
AcDbEntity
  8
レイヤー_1
  6
CONTINUOUS
 62
       3
100
AcDbLine
 10
104.20959808
 20
36.71761236
 30
0.0
 11
104.56211501
 21
36.73512668
 31
0.0
  0
LINE
  5
15D
100
AcDbEntity
  8
レイヤー_1
  6
CONTINUOUS
 62
       3
100
AcDbLine
 10
104.56211501
 20
36.73512668
 30
0.0
 11
104.90461764
 21
36.78655165
 31
0.0
  0
LINE
  5
15E
100
AcDbEntity
  8
レイヤー_1
  6
CONTINUOUS
 62
       3
100
AcDbLine
 10
104.90461764
 20
36.78655165
 30
0.0
 11
105.23542839
 21
36.8702103
 31
0.0
  0
LINE
  5
15F
100
AcDbEntity
  8
レイヤー_1
  6
CONTINUOUS
 62
       3
100
AcDbLine
 10
105.23542839
 20
36.8702103
 30
0.0
 11
105.55286967
 21
36.98442565
 31
0.0
  0
LINE
  5
160
100
AcDbEntity
  8
レイヤー_1
  6
CONTINUOUS
 62
       3
100
AcDbLine
 10
105.55286967
 20
36.98442565
 30
0.0
 11
105.8552639
 21
37.12752071
 31
0.0
  0
LINE
  5
161
100
AcDbEntity
  8
レイヤー_1
  6
CONTINUOUS
 62
       3
100
AcDbLine
 10
105.8552639
 20
37.12752071
 30
0.0
 11
106.1409335
 21
37.2978185
 31
0.0
  0
LINE
  5
162
100
AcDbEntity
  8
レイヤー_1
  6
CONTINUOUS
 62
       3
100
AcDbLine
 10
106.1409335
 20
37.2978185
 30
0.0
 11
106.40820089
 21
37.49364205
 31
0.0
  0
LINE
  5
163
100
AcDbEntity
  8
レイヤー_1
  6
CONTINUOUS
 62
       3
100
AcDbLine
 10
106.40820089
 20
37.49364205
 30
0.0
 11
106.65538849
 21
37.7133144
 31
0.0
  0
LINE
  5
164
100
AcDbEntity
  8
レイヤー_1
  6
CONTINUOUS
 62
       3
100
AcDbLine
 10
106.65538849
 20
37.7133144
 30
0.0
 11
106.88081871
 21
37.95515852
 31
0.0
  0
LINE
  5
165
100
AcDbEntity
  8
レイヤー_1
  6
CONTINUOUS
 62
       3
100
AcDbLine
 10
106.88081871
 20
37.95515852
 30
0.0
 11
107.08281399
 21
38.21749749
 31
0.0
  0
LINE
  5
166
100
AcDbEntity
  8
レイヤー_1
  6
CONTINUOUS
 62
       3
100
AcDbLine
 10
107.08281399
 20
38.21749749
 30
0.0
 11
107.25969672
 21
38.49865429
 31
0.0
  0
LINE
  5
167
100
AcDbEntity
  8
レイヤー_1
  6
CONTINUOUS
 62
       3
100
AcDbLine
 10
107.25969672
 20
38.49865429
 30
0.0
 11
107.40978934
 21
38.79695195
 31
0.0
  0
LINE
  5
168
100
AcDbEntity
  8
レイヤー_1
  6
CONTINUOUS
 62
       3
100
AcDbLine
 10
107.40978934
 20
38.79695195
 30
0.0
 11
107.53141428
 21
39.1107135
 31
0.0
  0
LINE
  5
169
100
AcDbEntity
  8
レイヤー_1
  6
CONTINUOUS
 62
       3
100
AcDbLine
 10
107.53141428
 20
39.1107135
 30
0.0
 11
107.62289391
 21
39.43826195
 31
0.0
  0
LINE
  5
16A
100
AcDbEntity
  8
レイヤー_1
  6
CONTINUOUS
 62
       3
100
AcDbLine
 10
107.62289391
 20
39.43826195
 30
0.0
 11
107.6825507
 21
39.77792033
 31
0.0
  0
LINE
  5
16B
100
AcDbEntity
  8
レイヤー_1
  6
CONTINUOUS
 62
       3
100
AcDbLine
 10
107.6825507
 20
39.77792033
 30
0.0
 11
107.70870704
 21
40.12801165
 31
0.0
  0
LINE
  5
16C
100
AcDbEntity
  8
レイヤー_1
  6
CONTINUOUS
 62
       3
100
AcDbLine
 10
107.70870704
 20
40.12801165
 30
0.0
 11
107.69992127
 21
40.48217753
 31
0.0
  0
LINE
  5
16D
100
AcDbEntity
  8
レイヤー_1
  6
CONTINUOUS
 62
       3
100
AcDbLine
 10
107.69992127
 20
40.48217753
 30
0.0
 11
107.65680502
 21
40.82729573
 31
0.0
  0
LINE
  5
16E
100
AcDbEntity
  8
レイヤー_1
  6
CONTINUOUS
 62
       3
100
AcDbLine
 10
107.65680502
 20
40.82729573
 30
0.0
 11
107.58102711
 21
41.16116552
 31
0.0
  0
LINE
  5
16F
100
AcDbEntity
  8
レイヤー_1
  6
CONTINUOUS
 62
       3
100
AcDbLine
 10
107.58102711
 20
41.16116552
 30
0.0
 11
107.47426512
 21
41.4821063
 31
0.0
  0
LINE
  5
170
100
AcDbEntity
  8
レイヤー_1
  6
CONTINUOUS
 62
       3
100
AcDbLine
 10
107.47426512
 20
41.4821063
 30
0.0
 11
107.33819665
 21
41.78843752
 31
0.0
  0
LINE
  5
171
100
AcDbEntity
  8
レイヤー_1
  6
CONTINUOUS
 62
       3
100
AcDbLine
 10
107.33819665
 20
41.78843752
 30
0.0
 11
107.17449927
 21
42.07847854
 31
0.0
  0
LINE
  5
172
100
AcDbEntity
  8
レイヤー_1
  6
CONTINUOUS
 62
       3
100
AcDbLine
 10
107.17449927
 20
42.07847854
 30
0.0
 11
106.98485057
 21
42.35054878
 31
0.0
  0
LINE
  5
173
100
AcDbEntity
  8
レイヤー_1
  6
CONTINUOUS
 62
       3
100
AcDbLine
 10
106.98485057
 20
42.35054878
 30
0.0
 11
106.77092812
 21
42.60296767
 31
0.0
  0
LINE
  5
174
100
AcDbEntity
  8
レイヤー_1
  6
CONTINUOUS
 62
       3
100
AcDbLine
 10
106.77092812
 20
42.60296767
 30
0.0
 11
106.53440951
 21
42.8340546
 31
0.0
  0
LINE
  5
175
100
AcDbEntity
  8
レイヤー_1
  6
CONTINUOUS
 62
       3
100
AcDbLine
 10
106.53440951
 20
42.8340546
 30
0.0
 11
106.27697232
 21
43.04212899
 31
0.0
  0
LINE
  5
176
100
AcDbEntity
  8
レイヤー_1
  6
CONTINUOUS
 62
       3
100
AcDbLine
 10
106.27697232
 20
43.04212899
 30
0.0
 11
106.00029413
 21
43.22551023
 31
0.0
  0
LINE
  5
177
100
AcDbEntity
  8
レイヤー_1
  6
CONTINUOUS
 62
       3
100
AcDbLine
 10
106.00029413
 20
43.22551023
 30
0.0
 11
105.70605251
 21
43.38251774
 31
0.0
  0
LINE
  5
178
100
AcDbEntity
  8
レイヤー_1
  6
CONTINUOUS
 62
       3
100
AcDbLine
 10
105.70605251
 20
43.38251774
 30
0.0
 11
105.39592506
 21
43.51147093
 31
0.0
  0
LINE
  5
179
100
AcDbEntity
  8
レイヤー_1
  6
CONTINUOUS
 62
       3
100
AcDbLine
 10
105.39592506
 20
43.51147093
 30
0.0
 11
105.07158935
 21
43.6106892
 31
0.0
  0
LINE
  5
17A
100
AcDbEntity
  8
レイヤー_1
  6
CONTINUOUS
 62
       3
100
AcDbLine
 10
105.07158935
 20
43.6106892
 30
0.0
 11
104.73472297
 21
43.67849198
 31
0.0
  0
LINE
  5
17B
100
AcDbEntity
  8
レイヤー_1
  6
CONTINUOUS
 62
       3
100
AcDbLine
 10
104.73472297
 20
43.67849198
 30
0.0
 11
104.38700349
 21
43.71319864
 31
0.0
  0
LINE
  5
17C
100
AcDbEntity
  8
レイヤー_1
  6
CONTINUOUS
 62
       3
100
AcDbLine
 10
104.38700349
 20
43.71319864
 30
0.0
 11
104.03226975
 21
43.71319864
 31
0.0
  0
LINE
  5
17D
100
AcDbEntity
  8
レイヤー_1
  6
CONTINUOUS
 62
       3
100
AcDbLine
 10
104.03226975
 20
43.71319864
 30
0.0
 11
103.68469036
 21
43.67849198
 31
0.0
  0
LINE
  5
17E
100
AcDbEntity
  8
レイヤー_1
  6
CONTINUOUS
 62
       3
100
AcDbLine
 10
103.68469036
 20
43.67849198
 30
0.0
 11
103.3479463
 21
43.6106892
 31
0.0
  0
LINE
  5
17F
100
AcDbEntity
  8
レイヤー_1
  6
CONTINUOUS
 62
       3
100
AcDbLine
 10
103.3479463
 20
43.6106892
 30
0.0
 11
103.02371635
 21
43.51147093
 31
0.0
  0
LINE
  5
180
100
AcDbEntity
  8
レイヤー_1
  6
CONTINUOUS
 62
       3
100
AcDbLine
 10
103.02371635
 20
43.51147093
 30
0.0
 11
102.71367931
 21
43.38251774
 31
0.0
  0
LINE
  5
181
100
AcDbEntity
  8
レイヤー_1
  6
CONTINUOUS
 62
       3
100
AcDbLine
 10
102.71367931
 20
43.38251774
 30
0.0
 11
102.41951396
 21
43.22551023
 31
0.0
  0
LINE
  5
182
100
AcDbEntity
  8
レイヤー_1
  6
CONTINUOUS
 62
       3
100
AcDbLine
 10
102.41951396
 20
43.22551023
 30
0.0
 11
102.14289908
 21
43.04212899
 31
0.0
  0
LINE
  5
183
100
AcDbEntity
  8
レイヤー_1
  6
CONTINUOUS
 62
       3
100
AcDbLine
 10
102.14289908
 20
43.04212899
 30
0.0
 11
101.88551346
 21
42.8340546
 31
0.0
  0
LINE
  5
184
100
AcDbEntity
  8
レイヤー_1
  6
CONTINUOUS
 62
       3
100
AcDbLine
 10
101.88551346
 20
42.8340546
 30
0.0
 11
101.64903588
 21
42.60296767
 31
0.0
  0
LINE
  5
185
100
AcDbEntity
  8
レイヤー_1
  6
CONTINUOUS
 62
       3
100
AcDbLine
 10
101.64903588
 20
42.60296767
 30
0.0
 11
101.43514513
 21
42.35054878
 31
0.0
  0
LINE
  5
186
100
AcDbEntity
  8
レイヤー_1
  6
CONTINUOUS
 62
       3
100
AcDbLine
 10
101.43514513
 20
42.35054878
 30
0.0
 11
101.24552
 21
42.07847854
 31
0.0
  0
LINE
  5
187
100
AcDbEntity
  8
レイヤー_1
  6
CONTINUOUS
 62
       3
100
AcDbLine
 10
101.24552
 20
42.07847854
 30
0.0
 11
101.08183927
 21
41.78843752
 31
0.0
  0
LINE
  5
188
100
AcDbEntity
  8
レイヤー_1
  6
CONTINUOUS
 62
       3
100
AcDbLine
 10
101.08183927
 20
41.78843752
 30
0.0
 11
100.94578173
 21
41.4821063
 31
0.0
  0
LINE
  5
189
100
AcDbEntity
  8
レイヤー_1
  6
CONTINUOUS
 62
       3
100
AcDbLine
 10
100.94578173
 20
41.4821063
 30
0.0
 11
100.83902616
 21
41.16116552
 31
0.0
  0
LINE
  5
18A
100
AcDbEntity
  8
レイヤー_1
  6
CONTINUOUS
 62
       3
100
AcDbLine
 10
100.83902616
 20
41.16116552
 30
0.0
 11
100.76325134
 21
40.82729573
 31
0.0
  0
LINE
  5
18B
100
AcDbEntity
  8
レイヤー_1
  6
CONTINUOUS
 62
       3
100
AcDbLine
 10
100.76325134
 20
40.82729573
 30
0.0
 11
100.72013607
 21
40.48217753
 31
0.0
  0
LINE
  5
18C
100
AcDbEntity
  8
レイヤー_1
  6
CONTINUOUS
 62
       3
100
AcDbLine
 10
100.72013607
 20
40.48217753
 30
0.0
 11
100.71135039
 21
40.12801165
 31
0.0
  0
LINE
  5
18D
100
AcDbEntity
  8
レイヤー_1
  6
CONTINUOUS
 62
       3
100
AcDbLine
 10
100.71135039
 20
40.12801165
 30
0.0
 11
100.73750634
 21
39.77792033
 31
0.0
  0
LINE
  5
18E
100
AcDbEntity
  8
レイヤー_1
  6
CONTINUOUS
 62
       3
100
AcDbLine
 10
100.73750634
 20
39.77792033
 30
0.0
 11
100.79716123
 21
39.43826195
 31
0.0
  0
LINE
  5
18F
100
AcDbEntity
  8
レイヤー_1
  6
CONTINUOUS
 62
       3
100
AcDbLine
 10
100.79716123
 20
39.43826195
 30
0.0
 11
100.88863627
 21
39.1107135
 31
0.0
  0
LINE
  5
190
100
AcDbEntity
  8
レイヤー_1
  6
CONTINUOUS
 62
       3
100
AcDbLine
 10
100.88863627
 20
39.1107135
 30
0.0
 11
101.01025268
 21
38.79695195
 31
0.0
  0
LINE
  5
191
100
AcDbEntity
  8
レイヤー_1
  6
CONTINUOUS
 62
       3
100
AcDbLine
 10
101.01025268
 20
38.79695195
 30
0.0
 11
101.16033166
 21
38.49865429
 31
0.0
  0
LINE
  5
192
100
AcDbEntity
  8
レイヤー_1
  6
CONTINUOUS
 62
       3
100
AcDbLine
 10
101.16033166
 20
38.49865429
 30
0.0
 11
101.33719444
 21
38.21749749
 31
0.0
  0
LINE
  5
193
100
AcDbEntity
  8
レイヤー_1
  6
CONTINUOUS
 62
       3
100
AcDbLine
 10
101.33719444
 20
38.21749749
 30
0.0
 11
101.53916223
 21
37.95515852
 31
0.0
  0
LINE
  5
194
100
AcDbEntity
  8
レイヤー_1
  6
CONTINUOUS
 62
       3
100
AcDbLine
 10
101.53916223
 20
37.95515852
 30
0.0
 11
101.76455624
 21
37.7133144
 31
0.0
  0
LINE
  5
195
100
AcDbEntity
  8
レイヤー_1
  6
CONTINUOUS
 62
       3
100
AcDbLine
 10
101.76455624
 20
37.7133144
 30
0.0
 11
102.01169769
 21
37.49364205
 31
0.0
  0
LINE
  5
196
100
AcDbEntity
  8
レイヤー_1
  6
CONTINUOUS
 62
       3
100
AcDbLine
 10
102.01169769
 20
37.49364205
 30
0.0
 11
102.27890778
 21
37.2978185
 31
0.0
  0
LINE
  5
197
100
AcDbEntity
  8
レイヤー_1
  6
CONTINUOUS
 62
       3
100
AcDbLine
 10
102.27890778
 20
37.2978185
 30
0.0
 11
102.56450775
 21
37.12752071
 31
0.0
  0
LINE
  5
198
100
AcDbEntity
  8
レイヤー_1
  6
CONTINUOUS
 62
       3
100
AcDbLine
 10
102.56450775
 20
37.12752071
 30
0.0
 11
102.8668188
 21
36.98442565
 31
0.0
  0
LINE
  5
199
100
AcDbEntity
  8
レイヤー_1
  6
CONTINUOUS
 62
       3
100
AcDbLine
 10
102.8668188
 20
36.98442565
 30
0.0
 11
103.18416214
 21
36.8702103
 31
0.0
  0
LINE
  5
19A
100
AcDbEntity
  8
レイヤー_1
  6
CONTINUOUS
 62
       3
100
AcDbLine
 10
103.18416214
 20
36.8702103
 30
0.0
 11
103.51485899
 21
36.78655165
 31
0.0
  0
LINE
  5
19B
100
AcDbEntity
  8
レイヤー_1
  6
CONTINUOUS
 62
       3
100
AcDbLine
 10
103.51485899
 20
36.78655165
 30
0.0
 11
103.85723056
 21
36.73512668
 31
0.0
  0
LINE
  5
19C
100
AcDbEntity
  8
レイヤー_1
  6
CONTINUOUS
 62
       3
100
AcDbLine
 10
103.85723056
 20
36.73512668
 30
0.0
 11
104.20959808
 21
36.71761236
 31
0.0
  0
LINE
  5
19D
100
AcDbEntity
  8
レイヤー_1
  6
CONTINUOUS
 62
       3
100
AcDbLine
 10
103.19587873
 20
-36.26242912
 30
0.0
 11
103.54824625
 21
-36.24490562
 31
0.0
  0
LINE
  5
19E
100
AcDbEntity
  8
レイヤー_1
  6
CONTINUOUS
 62
       3
100
AcDbLine
 10
103.54824625
 20
-36.24490562
 30
0.0
 11
103.89061782
 21
-36.19345551
 31
0.0
  0
LINE
  5
19F
100
AcDbEntity
  8
レイヤー_1
  6
CONTINUOUS
 62
       3
100
AcDbLine
 10
103.89061782
 20
-36.19345551
 30
0.0
 11
104.22131467
 21
-36.10975937
 31
0.0
  0
LINE
  5
1A0
100
AcDbEntity
  8
レイヤー_1
  6
CONTINUOUS
 62
       3
100
AcDbLine
 10
104.22131467
 20
-36.10975937
 30
0.0
 11
104.53865802
 21
-35.99549782
 31
0.0
  0
LINE
  5
1A1
100
AcDbEntity
  8
レイヤー_1
  6
CONTINUOUS
 62
       3
100
AcDbLine
 10
104.53865802
 20
-35.99549782
 30
0.0
 11
104.84096906
 21
-35.85235142
 31
0.0
  0
LINE
  5
1A2
100
AcDbEntity
  8
レイヤー_1
  6
CONTINUOUS
 62
       3
100
AcDbLine
 10
104.84096906
 20
-35.85235142
 30
0.0
 11
105.12656903
 21
-35.68200079
 31
0.0
  0
LINE
  5
1A3
100
AcDbEntity
  8
レイヤー_1
  6
CONTINUOUS
 62
       3
100
AcDbLine
 10
105.12656903
 20
-35.68200079
 30
0.0
 11
105.39377913
 21
-35.48612651
 31
0.0
  0
LINE
  5
1A4
100
AcDbEntity
  8
レイヤー_1
  6
CONTINUOUS
 62
       3
100
AcDbLine
 10
105.39377913
 20
-35.48612651
 30
0.0
 11
105.64092057
 21
-35.26640916
 31
0.0
  0
LINE
  5
1A5
100
AcDbEntity
  8
レイヤー_1
  6
CONTINUOUS
 62
       3
100
AcDbLine
 10
105.64092057
 20
-35.26640916
 30
0.0
 11
105.86631458
 21
-35.02452935
 31
0.0
  0
LINE
  5
1A6
100
AcDbEntity
  8
レイヤー_1
  6
CONTINUOUS
 62
       3
100
AcDbLine
 10
105.86631458
 20
-35.02452935
 30
0.0
 11
106.06828237
 21
-34.76216765
 31
0.0
  0
LINE
  5
1A7
100
AcDbEntity
  8
レイヤー_1
  6
CONTINUOUS
 62
       3
100
AcDbLine
 10
106.06828237
 20
-34.76216765
 30
0.0
 11
106.24514515
 21
-34.48100469
 31
0.0
  0
LINE
  5
1A8
100
AcDbEntity
  8
レイヤー_1
  6
CONTINUOUS
 62
       3
100
AcDbLine
 10
106.24514515
 20
-34.48100469
 30
0.0
 11
106.39522413
 21
-34.18272103
 31
0.0
  0
LINE
  5
1A9
100
AcDbEntity
  8
レイヤー_1
  6
CONTINUOUS
 62
       3
100
AcDbLine
 10
106.39522413
 20
-34.18272103
 30
0.0
 11
106.51684054
 21
-33.86899727
 31
0.0
  0
LINE
  5
1AA
100
AcDbEntity
  8
レイヤー_1
  6
CONTINUOUS
 62
       3
100
AcDbLine
 10
106.51684054
 20
-33.86899727
 30
0.0
 11
106.60831558
 21
-33.541514
 31
0.0
  0
LINE
  5
1AB
100
AcDbEntity
  8
レイヤー_1
  6
CONTINUOUS
 62
       3
100
AcDbLine
 10
106.60831558
 20
-33.541514
 30
0.0
 11
106.66797047
 21
-33.20195182
 31
0.0
  0
LINE
  5
1AC
100
AcDbEntity
  8
レイヤー_1
  6
CONTINUOUS
 62
       3
100
AcDbLine
 10
106.66797047
 20
-33.20195182
 30
0.0
 11
106.69412642
 21
-32.8519913
 31
0.0
  0
LINE
  5
1AD
100
AcDbEntity
  8
レイヤー_1
  6
CONTINUOUS
 62
       3
100
AcDbLine
 10
106.69412642
 20
-32.8519913
 30
0.0
 11
106.68534074
 21
-32.49786396
 31
0.0
  0
LINE
  5
1AE
100
AcDbEntity
  8
レイヤー_1
  6
CONTINUOUS
 62
       3
100
AcDbLine
 10
106.68534074
 20
-32.49786396
 30
0.0
 11
106.64222547
 21
-32.15274575
 31
0.0
  0
LINE
  5
1AF
100
AcDbEntity
  8
レイヤー_1
  6
CONTINUOUS
 62
       3
100
AcDbLine
 10
106.64222547
 20
-32.15274575
 30
0.0
 11
106.56645065
 21
-31.81887597
 31
0.0
  0
LINE
  5
1B0
100
AcDbEntity
  8
レイヤー_1
  6
CONTINUOUS
 62
       3
100
AcDbLine
 10
106.56645065
 20
-31.81887597
 30
0.0
 11
106.45969508
 21
-31.49793517
 31
0.0
  0
LINE
  5
1B1
100
AcDbEntity
  8
レイヤー_1
  6
CONTINUOUS
 62
       3
100
AcDbLine
 10
106.45969508
 20
-31.49793517
 30
0.0
 11
106.32363754
 21
-31.19160398
 31
0.0
  0
LINE
  5
1B2
100
AcDbEntity
  8
レイヤー_1
  6
CONTINUOUS
 62
       3
100
AcDbLine
 10
106.32363754
 20
-31.19160398
 30
0.0
 11
106.15995681
 21
-30.90156294
 31
0.0
  0
LINE
  5
1B3
100
AcDbEntity
  8
レイヤー_1
  6
CONTINUOUS
 62
       3
100
AcDbLine
 10
106.15995681
 20
-30.90156294
 30
0.0
 11
105.97033168
 21
-30.62949269
 31
0.0
  0
LINE
  5
1B4
100
AcDbEntity
  8
レイヤー_1
  6
CONTINUOUS
 62
       3
100
AcDbLine
 10
105.97033168
 20
-30.62949269
 30
0.0
 11
105.75644093
 21
-30.37707382
 31
0.0
  0
LINE
  5
1B5
100
AcDbEntity
  8
レイヤー_1
  6
CONTINUOUS
 62
       3
100
AcDbLine
 10
105.75644093
 20
-30.37707382
 30
0.0
 11
105.51996335
 21
-30.14598688
 31
0.0
  0
LINE
  5
1B6
100
AcDbEntity
  8
レイヤー_1
  6
CONTINUOUS
 62
       3
100
AcDbLine
 10
105.51996335
 20
-30.14598688
 30
0.0
 11
105.26257773
 21
-29.9379125
 31
0.0
  0
LINE
  5
1B7
100
AcDbEntity
  8
レイヤー_1
  6
CONTINUOUS
 62
       3
100
AcDbLine
 10
105.26257773
 20
-29.9379125
 30
0.0
 11
104.98596285
 21
-29.75453126
 31
0.0
  0
LINE
  5
1B8
100
AcDbEntity
  8
レイヤー_1
  6
CONTINUOUS
 62
       3
100
AcDbLine
 10
104.98596285
 20
-29.75453126
 30
0.0
 11
104.6917975
 21
-29.59752373
 31
0.0
  0
LINE
  5
1B9
100
AcDbEntity
  8
レイヤー_1
  6
CONTINUOUS
 62
       3
100
AcDbLine
 10
104.6917975
 20
-29.59752373
 30
0.0
 11
104.38176046
 21
-29.46857055
 31
0.0
  0
LINE
  5
1BA
100
AcDbEntity
  8
レイヤー_1
  6
CONTINUOUS
 62
       3
100
AcDbLine
 10
104.38176046
 20
-29.46857055
 30
0.0
 11
104.05753051
 21
-29.36935227
 31
0.0
  0
LINE
  5
1BB
100
AcDbEntity
  8
レイヤー_1
  6
CONTINUOUS
 62
       3
100
AcDbLine
 10
104.05753051
 20
-29.36935227
 30
0.0
 11
103.72078645
 21
-29.30154952
 31
0.0
  0
LINE
  5
1BC
100
AcDbEntity
  8
レイヤー_1
  6
CONTINUOUS
 62
       3
100
AcDbLine
 10
103.72078645
 20
-29.30154952
 30
0.0
 11
103.37320706
 21
-29.26684284
 31
0.0
  0
LINE
  5
1BD
100
AcDbEntity
  8
レイヤー_1
  6
CONTINUOUS
 62
       3
100
AcDbLine
 10
103.37320706
 20
-29.26684284
 30
0.0
 11
103.01847572
 21
-29.26684284
 31
0.0
  0
LINE
  5
1BE
100
AcDbEntity
  8
レイヤー_1
  6
CONTINUOUS
 62
       3
100
AcDbLine
 10
103.01847572
 20
-29.26684284
 30
0.0
 11
102.67077451
 21
-29.30154952
 31
0.0
  0
LINE
  5
1BF
100
AcDbEntity
  8
レイヤー_1
  6
CONTINUOUS
 62
       3
100
AcDbLine
 10
102.67077451
 20
-29.30154952
 30
0.0
 11
102.33394234
 21
-29.36935227
 31
0.0
  0
LINE
  5
1C0
100
AcDbEntity
  8
レイヤー_1
  6
CONTINUOUS
 62
       3
100
AcDbLine
 10
102.33394234
 20
-29.36935227
 30
0.0
 11
102.0096544
 21
-29.46857055
 31
0.0
  0
LINE
  5
1C1
100
AcDbEntity
  8
レイヤー_1
  6
CONTINUOUS
 62
       3
100
AcDbLine
 10
102.0096544
 20
-29.46857055
 30
0.0
 11
101.69958586
 21
-29.59752373
 31
0.0
  0
LINE
  5
1C2
100
AcDbEntity
  8
レイヤー_1
  6
CONTINUOUS
 62
       3
100
AcDbLine
 10
101.69958586
 20
-29.59752373
 30
0.0
 11
101.40541189
 21
-29.75453126
 31
0.0
  0
LINE
  5
1C3
100
AcDbEntity
  8
レイヤー_1
  6
CONTINUOUS
 62
       3
100
AcDbLine
 10
101.40541189
 20
-29.75453126
 30
0.0
 11
101.12880766
 21
-29.9379125
 31
0.0
  0
LINE
  5
1C4
100
AcDbEntity
  8
レイヤー_1
  6
CONTINUOUS
 62
       3
100
AcDbLine
 10
101.12880766
 20
-29.9379125
 30
0.0
 11
100.87144835
 21
-30.14598688
 31
0.0
  0
LINE
  5
1C5
100
AcDbEntity
  8
レイヤー_1
  6
CONTINUOUS
 62
       3
100
AcDbLine
 10
100.87144835
 20
-30.14598688
 30
0.0
 11
100.63500912
 21
-30.37707382
 31
0.0
  0
LINE
  5
1C6
100
AcDbEntity
  8
レイヤー_1
  6
CONTINUOUS
 62
       3
100
AcDbLine
 10
100.63500912
 20
-30.37707382
 30
0.0
 11
100.42116515
 21
-30.62949269
 31
0.0
  0
LINE
  5
1C7
100
AcDbEntity
  8
レイヤー_1
  6
CONTINUOUS
 62
       3
100
AcDbLine
 10
100.42116515
 20
-30.62949269
 30
0.0
 11
100.23159162
 21
-30.90156294
 31
0.0
  0
LINE
  5
1C8
100
AcDbEntity
  8
レイヤー_1
  6
CONTINUOUS
 62
       3
100
AcDbLine
 10
100.23159162
 20
-30.90156294
 30
0.0
 11
100.06796369
 21
-31.19160398
 31
0.0
  0
LINE
  5
1C9
100
AcDbEntity
  8
レイヤー_1
  6
CONTINUOUS
 62
       3
100
AcDbLine
 10
100.06796369
 20
-31.19160398
 30
0.0
 11
99.93195654
 21
-31.49793517
 31
0.0
  0
LINE
  5
1CA
100
AcDbEntity
  8
レイヤー_1
  6
CONTINUOUS
 62
       3
100
AcDbLine
 10
99.93195654
 20
-31.49793517
 30
0.0
 11
99.82524534
 21
-31.81887597
 31
0.0
  0
LINE
  5
1CB
100
AcDbEntity
  8
レイヤー_1
  6
CONTINUOUS
 62
       3
100
AcDbLine
 10
99.82524534
 20
-31.81887597
 30
0.0
 11
99.74950526
 21
-32.15274575
 31
0.0
  0
LINE
  5
1CC
100
AcDbEntity
  8
レイヤー_1
  6
CONTINUOUS
 62
       3
100
AcDbLine
 10
99.74950526
 20
-32.15274575
 30
0.0
 11
99.70641148
 21
-32.49786396
 31
0.0
  0
LINE
  5
1CD
100
AcDbEntity
  8
レイヤー_1
  6
CONTINUOUS
 62
       3
100
AcDbLine
 10
99.70641148
 20
-32.49786396
 30
0.0
 11
99.69763044
 21
-32.8519913
 31
0.0
  0
LINE
  5
1CE
100
AcDbEntity
  8
レイヤー_1
  6
CONTINUOUS
 62
       3
100
AcDbLine
 10
99.69763044
 20
-32.8519913
 30
0.0
 11
99.72377288
 21
-33.20195182
 31
0.0
  0
LINE
  5
1CF
100
AcDbEntity
  8
レイヤー_1
  6
CONTINUOUS
 62
       3
100
AcDbLine
 10
99.72377288
 20
-33.20195182
 30
0.0
 11
99.78339921
 21
-33.541514
 31
0.0
  0
LINE
  5
1D0
100
AcDbEntity
  8
レイヤー_1
  6
CONTINUOUS
 62
       3
100
AcDbLine
 10
99.78339921
 20
-33.541514
 30
0.0
 11
99.87483425
 21
-33.86899727
 31
0.0
  0
LINE
  5
1D1
100
AcDbEntity
  8
レイヤー_1
  6
CONTINUOUS
 62
       3
100
AcDbLine
 10
99.87483425
 20
-33.86899727
 30
0.0
 11
99.99640282
 21
-34.18272103
 31
0.0
  0
LINE
  5
1D2
100
AcDbEntity
  8
レイヤー_1
  6
CONTINUOUS
 62
       3
100
AcDbLine
 10
99.99640282
 20
-34.18272103
 30
0.0
 11
100.14642975
 21
-34.48100469
 31
0.0
  0
LINE
  5
1D3
100
AcDbEntity
  8
レイヤー_1
  6
CONTINUOUS
 62
       3
100
AcDbLine
 10
100.14642975
 20
-34.48100469
 30
0.0
 11
100.32323988
 21
-34.76216765
 31
0.0
  0
LINE
  5
1D4
100
AcDbEntity
  8
レイヤー_1
  6
CONTINUOUS
 62
       3
100
AcDbLine
 10
100.32323988
 20
-34.76216765
 30
0.0
 11
100.52515803
 21
-35.02452935
 31
0.0
  0
LINE
  5
1D5
100
AcDbEntity
  8
レイヤー_1
  6
CONTINUOUS
 62
       3
100
AcDbLine
 10
100.52515803
 20
-35.02452935
 30
0.0
 11
100.75050902
 21
-35.26640916
 31
0.0
  0
LINE
  5
1D6
100
AcDbEntity
  8
レイヤー_1
  6
CONTINUOUS
 62
       3
100
AcDbLine
 10
100.75050902
 20
-35.26640916
 30
0.0
 11
100.99761769
 21
-35.48612651
 31
0.0
  0
LINE
  5
1D7
100
AcDbEntity
  8
レイヤー_1
  6
CONTINUOUS
 62
       3
100
AcDbLine
 10
100.99761769
 20
-35.48612651
 30
0.0
 11
101.26480886
 21
-35.68200079
 31
0.0
  0
LINE
  5
1D8
100
AcDbEntity
  8
レイヤー_1
  6
CONTINUOUS
 62
       3
100
AcDbLine
 10
101.26480886
 20
-35.68200079
 30
0.0
 11
101.55040736
 21
-35.85235142
 31
0.0
  0
LINE
  5
1D9
100
AcDbEntity
  8
レイヤー_1
  6
CONTINUOUS
 62
       3
100
AcDbLine
 10
101.55040736
 20
-35.85235142
 30
0.0
 11
101.85273801
 21
-35.99549782
 31
0.0
  0
LINE
  5
1DA
100
AcDbEntity
  8
レイヤー_1
  6
CONTINUOUS
 62
       3
100
AcDbLine
 10
101.85273801
 20
-35.99549782
 30
0.0
 11
102.17012565
 21
-36.10975937
 31
0.0
  0
LINE
  5
1DB
100
AcDbEntity
  8
レイヤー_1
  6
CONTINUOUS
 62
       3
100
AcDbLine
 10
102.17012565
 20
-36.10975937
 30
0.0
 11
102.50089509
 21
-36.19345551
 31
0.0
  0
LINE
  5
1DC
100
AcDbEntity
  8
レイヤー_1
  6
CONTINUOUS
 62
       3
100
AcDbLine
 10
102.50089509
 20
-36.19345551
 30
0.0
 11
102.84337118
 21
-36.24490562
 31
0.0
  0
LINE
  5
1DD
100
AcDbEntity
  8
レイヤー_1
  6
CONTINUOUS
 62
       3
100
AcDbLine
 10
102.84337118
 20
-36.24490562
 30
0.0
 11
103.19587873
 21
-36.26242912
 31
0.0
  0
LINE
  5
1DE
100
AcDbEntity
  8
レイヤー_1
  6
CONTINUOUS
 62
       3
100
AcDbLine
 10
115.21237178
 20
-36.26242912
 30
0.0
 11
115.56459927
 21
-36.24490562
 31
0.0
  0
LINE
  5
1DF
100
AcDbEntity
  8
レイヤー_1
  6
CONTINUOUS
 62
       3
100
AcDbLine
 10
115.56459927
 20
-36.24490562
 30
0.0
 11
115.90686633
 21
-36.19345551
 31
0.0
  0
LINE
  5
1E0
100
AcDbEntity
  8
レイヤー_1
  6
CONTINUOUS
 62
       3
100
AcDbLine
 10
115.90686633
 20
-36.19345551
 30
0.0
 11
116.23749058
 21
-36.10975937
 31
0.0
  0
LINE
  5
1E1
100
AcDbEntity
  8
レイヤー_1
  6
CONTINUOUS
 62
       3
100
AcDbLine
 10
116.23749058
 20
-36.10975937
 30
0.0
 11
116.55478963
 21
-35.99549782
 31
0.0
  0
LINE
  5
1E2
100
AcDbEntity
  8
レイヤー_1
  6
CONTINUOUS
 62
       3
100
AcDbLine
 10
116.55478963
 20
-35.99549782
 30
0.0
 11
116.85708107
 21
-35.85235142
 31
0.0
  0
LINE
  5
1E3
100
AcDbEntity
  8
レイヤー_1
  6
CONTINUOUS
 62
       3
100
AcDbLine
 10
116.85708107
 20
-35.85235142
 30
0.0
 11
117.1426825
 21
-35.68200079
 31
0.0
  0
LINE
  5
1E4
100
AcDbEntity
  8
レイヤー_1
  6
CONTINUOUS
 62
       3
100
AcDbLine
 10
117.1426825
 20
-35.68200079
 30
0.0
 11
117.40991153
 21
-35.48612651
 31
0.0
  0
LINE
  5
1E5
100
AcDbEntity
  8
レイヤー_1
  6
CONTINUOUS
 62
       3
100
AcDbLine
 10
117.40991153
 20
-35.48612651
 30
0.0
 11
117.65708577
 21
-35.26640916
 31
0.0
  0
LINE
  5
1E6
100
AcDbEntity
  8
レイヤー_1
  6
CONTINUOUS
 62
       3
100
AcDbLine
 10
117.65708577
 20
-35.26640916
 30
0.0
 11
117.88252278
 21
-35.02452935
 31
0.0
  0
LINE
  5
1E7
100
AcDbEntity
  8
レイヤー_1
  6
CONTINUOUS
 62
       3
100
AcDbLine
 10
117.88252278
 20
-35.02452935
 30
0.0
 11
118.08454021
 21
-34.76216765
 31
0.0
  0
LINE
  5
1E8
100
AcDbEntity
  8
レイヤー_1
  6
CONTINUOUS
 62
       3
100
AcDbLine
 10
118.08454021
 20
-34.76216765
 30
0.0
 11
118.26145564
 21
-34.48100469
 31
0.0
  0
LINE
  5
1E9
100
AcDbEntity
  8
レイヤー_1
  6
CONTINUOUS
 62
       3
100
AcDbLine
 10
118.26145564
 20
-34.48100469
 30
0.0
 11
118.41158668
 21
-34.18272103
 31
0.0
  0
LINE
  5
1EA
100
AcDbEntity
  8
レイヤー_1
  6
CONTINUOUS
 62
       3
100
AcDbLine
 10
118.41158668
 20
-34.18272103
 30
0.0
 11
118.53325091
 21
-33.86899727
 31
0.0
  0
LINE
  5
1EB
100
AcDbEntity
  8
レイヤー_1
  6
CONTINUOUS
 62
       3
100
AcDbLine
 10
118.53325091
 20
-33.86899727
 30
0.0
 11
118.62476595
 21
-33.541514
 31
0.0
  0
LINE
  5
1EC
100
AcDbEntity
  8
レイヤー_1
  6
CONTINUOUS
 62
       3
100
AcDbLine
 10
118.62476595
 20
-33.541514
 30
0.0
 11
118.68444941
 21
-33.20195182
 31
0.0
  0
LINE
  5
1ED
100
AcDbEntity
  8
レイヤー_1
  6
CONTINUOUS
 62
       3
100
AcDbLine
 10
118.68444941
 20
-33.20195182
 30
0.0
 11
118.71061887
 21
-32.8519913
 31
0.0
  0
LINE
  5
1EE
100
AcDbEntity
  8
レイヤー_1
  6
CONTINUOUS
 62
       3
100
AcDbLine
 10
118.71061887
 20
-32.8519913
 30
0.0
 11
118.70182854
 21
-32.49786396
 31
0.0
  0
LINE
  5
1EF
100
AcDbEntity
  8
レイヤー_1
  6
CONTINUOUS
 62
       3
100
AcDbLine
 10
118.70182854
 20
-32.49786396
 30
0.0
 11
118.65869179
 21
-32.15274575
 31
0.0
  0
LINE
  5
1F0
100
AcDbEntity
  8
レイヤー_1
  6
CONTINUOUS
 62
       3
100
AcDbLine
 10
118.65869179
 20
-32.15274575
 30
0.0
 11
118.58288223
 21
-31.81887597
 31
0.0
  0
LINE
  5
1F1
100
AcDbEntity
  8
レイヤー_1
  6
CONTINUOUS
 62
       3
100
AcDbLine
 10
118.58288223
 20
-31.81887597
 30
0.0
 11
118.4760823
 21
-31.49793517
 31
0.0
  0
LINE
  5
1F2
100
AcDbEntity
  8
レイヤー_1
  6
CONTINUOUS
 62
       3
100
AcDbLine
 10
118.4760823
 20
-31.49793517
 30
0.0
 11
118.33997435
 21
-31.19160398
 31
0.0
  0
LINE
  5
1F3
100
AcDbEntity
  8
レイヤー_1
  6
CONTINUOUS
 62
       3
100
AcDbLine
 10
118.33997435
 20
-31.19160398
 30
0.0
 11
118.17624082
 21
-30.90156294
 31
0.0
  0
LINE
  5
1F4
100
AcDbEntity
  8
レイヤー_1
  6
CONTINUOUS
 62
       3
100
AcDbLine
 10
118.17624082
 20
-30.90156294
 30
0.0
 11
117.98656409
 21
-30.62949269
 31
0.0
  0
LINE
  5
1F5
100
AcDbEntity
  8
レイヤー_1
  6
CONTINUOUS
 62
       3
100
AcDbLine
 10
117.98656409
 20
-30.62949269
 30
0.0
 11
117.77262657
 21
-30.37707382
 31
0.0
  0
LINE
  5
1F6
100
AcDbEntity
  8
レイヤー_1
  6
CONTINUOUS
 62
       3
100
AcDbLine
 10
117.77262657
 20
-30.37707382
 30
0.0
 11
117.53611064
 21
-30.14598688
 31
0.0
  0
LINE
  5
1F7
100
AcDbEntity
  8
レイヤー_1
  6
CONTINUOUS
 62
       3
100
AcDbLine
 10
117.53611064
 20
-30.14598688
 30
0.0
 11
117.27869873
 21
-29.9379125
 31
0.0
  0
LINE
  5
1F8
100
AcDbEntity
  8
レイヤー_1
  6
CONTINUOUS
 62
       3
100
AcDbLine
 10
117.27869873
 20
-29.9379125
 30
0.0
 11
117.00207319
 21
-29.75453126
 31
0.0
  0
LINE
  5
1F9
100
AcDbEntity
  8
レイヤー_1
  6
CONTINUOUS
 62
       3
100
AcDbLine
 10
117.00207319
 20
-29.75453126
 30
0.0
 11
116.70791646
 21
-29.59752373
 31
0.0
  0
LINE
  5
1FA
100
AcDbEntity
  8
レイヤー_1
  6
CONTINUOUS
 62
       3
100
AcDbLine
 10
116.70791646
 20
-29.59752373
 30
0.0
 11
116.39791091
 21
-29.46857055
 31
0.0
  0
LINE
  5
1FB
100
AcDbEntity
  8
レイヤー_1
  6
CONTINUOUS
 62
       3
100
AcDbLine
 10
116.39791091
 20
-29.46857055
 30
0.0
 11
116.07373896
 21
-29.36935227
 31
0.0
  0
LINE
  5
1FC
100
AcDbEntity
  8
レイヤー_1
  6
CONTINUOUS
 62
       3
100
AcDbLine
 10
116.07373896
 20
-29.36935227
 30
0.0
 11
115.737083
 21
-29.30154952
 31
0.0
  0
LINE
  5
1FD
100
AcDbEntity
  8
レイヤー_1
  6
CONTINUOUS
 62
       3
100
AcDbLine
 10
115.737083
 20
-29.30154952
 30
0.0
 11
115.38962544
 21
-29.26684284
 31
0.0
  0
LINE
  5
1FE
100
AcDbEntity
  8
レイヤー_1
  6
CONTINUOUS
 62
       3
100
AcDbLine
 10
115.38962544
 20
-29.26684284
 30
0.0
 11
115.03496638
 21
-29.26684284
 31
0.0
  0
LINE
  5
1FF
100
AcDbEntity
  8
レイヤー_1
  6
CONTINUOUS
 62
       3
100
AcDbLine
 10
115.03496638
 20
-29.26684284
 30
0.0
 11
114.6872469
 21
-29.30154952
 31
0.0
  0
LINE
  5
200
100
AcDbEntity
  8
レイヤー_1
  6
CONTINUOUS
 62
       3
100
AcDbLine
 10
114.6872469
 20
-29.30154952
 30
0.0
 11
114.35038051
 21
-29.36935227
 31
0.0
  0
LINE
  5
201
100
AcDbEntity
  8
レイヤー_1
  6
CONTINUOUS
 62
       3
100
AcDbLine
 10
114.35038051
 20
-29.36935227
 30
0.0
 11
114.02604481
 21
-29.46857055
 31
0.0
  0
LINE
  5
202
100
AcDbEntity
  8
レイヤー_1
  6
CONTINUOUS
 62
       3
100
AcDbLine
 10
114.02604481
 20
-29.46857055
 30
0.0
 11
113.71591735
 21
-29.59752373
 31
0.0
  0
LINE
  5
203
100
AcDbEntity
  8
レイヤー_1
  6
CONTINUOUS
 62
       3
100
AcDbLine
 10
113.71591735
 20
-29.59752373
 30
0.0
 11
113.42167574
 21
-29.75453126
 31
0.0
  0
LINE
  5
204
100
AcDbEntity
  8
レイヤー_1
  6
CONTINUOUS
 62
       3
100
AcDbLine
 10
113.42167574
 20
-29.75453126
 30
0.0
 11
113.14499755
 21
-29.9379125
 31
0.0
  0
LINE
  5
205
100
AcDbEntity
  8
レイヤー_1
  6
CONTINUOUS
 62
       3
100
AcDbLine
 10
113.14499755
 20
-29.9379125
 30
0.0
 11
112.88756035
 21
-30.14598688
 31
0.0
  0
LINE
  5
206
100
AcDbEntity
  8
レイヤー_1
  6
CONTINUOUS
 62
       3
100
AcDbLine
 10
112.88756035
 20
-30.14598688
 30
0.0
 11
112.65104174
 21
-30.37707382
 31
0.0
  0
LINE
  5
207
100
AcDbEntity
  8
レイヤー_1
  6
CONTINUOUS
 62
       3
100
AcDbLine
 10
112.65104174
 20
-30.37707382
 30
0.0
 11
112.4371193
 21
-30.62949269
 31
0.0
  0
LINE
  5
208
100
AcDbEntity
  8
レイヤー_1
  6
CONTINUOUS
 62
       3
100
AcDbLine
 10
112.4371193
 20
-30.62949269
 30
0.0
 11
112.24747059
 21
-30.90156294
 31
0.0
  0
LINE
  5
209
100
AcDbEntity
  8
レイヤー_1
  6
CONTINUOUS
 62
       3
100
AcDbLine
 10
112.24747059
 20
-30.90156294
 30
0.0
 11
112.08377322
 21
-31.19160398
 31
0.0
  0
LINE
  5
20A
100
AcDbEntity
  8
レイヤー_1
  6
CONTINUOUS
 62
       3
100
AcDbLine
 10
112.08377322
 20
-31.19160398
 30
0.0
 11
111.94770475
 21
-31.49793517
 31
0.0
  0
LINE
  5
20B
100
AcDbEntity
  8
レイヤー_1
  6
CONTINUOUS
 62
       3
100
AcDbLine
 10
111.94770475
 20
-31.49793517
 30
0.0
 11
111.84094278
 21
-31.81887597
 31
0.0
  0
LINE
  5
20C
100
AcDbEntity
  8
レイヤー_1
  6
CONTINUOUS
 62
       3
100
AcDbLine
 10
111.84094278
 20
-31.81887597
 30
0.0
 11
111.76516485
 21
-32.15274575
 31
0.0
  0
LINE
  5
20D
100
AcDbEntity
  8
レイヤー_1
  6
CONTINUOUS
 62
       3
100
AcDbLine
 10
111.76516485
 20
-32.15274575
 30
0.0
 11
111.72204859
 21
-32.49786396
 31
0.0
  0
LINE
  5
20E
100
AcDbEntity
  8
レイヤー_1
  6
CONTINUOUS
 62
       3
100
AcDbLine
 10
111.72204859
 20
-32.49786396
 30
0.0
 11
111.71326282
 21
-32.8519913
 31
0.0
  0
LINE
  5
20F
100
AcDbEntity
  8
レイヤー_1
  6
CONTINUOUS
 62
       3
100
AcDbLine
 10
111.71326282
 20
-32.8519913
 30
0.0
 11
111.73941917
 21
-33.20195182
 31
0.0
  0
LINE
  5
210
100
AcDbEntity
  8
レイヤー_1
  6
CONTINUOUS
 62
       3
100
AcDbLine
 10
111.73941917
 20
-33.20195182
 30
0.0
 11
111.79907595
 21
-33.541514
 31
0.0
  0
LINE
  5
211
100
AcDbEntity
  8
レイヤー_1
  6
CONTINUOUS
 62
       3
100
AcDbLine
 10
111.79907595
 20
-33.541514
 30
0.0
 11
111.89055561
 21
-33.86899727
 31
0.0
  0
LINE
  5
212
100
AcDbEntity
  8
レイヤー_1
  6
CONTINUOUS
 62
       3
100
AcDbLine
 10
111.89055561
 20
-33.86899727
 30
0.0
 11
112.01218052
 21
-34.18272103
 31
0.0
  0
LINE
  5
213
100
AcDbEntity
  8
レイヤー_1
  6
CONTINUOUS
 62
       3
100
AcDbLine
 10
112.01218052
 20
-34.18272103
 30
0.0
 11
112.16227315
 21
-34.48100469
 31
0.0
  0
LINE
  5
214
100
AcDbEntity
  8
レイヤー_1
  6
CONTINUOUS
 62
       3
100
AcDbLine
 10
112.16227315
 20
-34.48100469
 30
0.0
 11
112.33915589
 21
-34.76216765
 31
0.0
  0
LINE
  5
215
100
AcDbEntity
  8
レイヤー_1
  6
CONTINUOUS
 62
       3
100
AcDbLine
 10
112.33915589
 20
-34.76216765
 30
0.0
 11
112.54115115
 21
-35.02452935
 31
0.0
  0
LINE
  5
216
100
AcDbEntity
  8
レイヤー_1
  6
CONTINUOUS
 62
       3
100
AcDbLine
 10
112.54115115
 20
-35.02452935
 30
0.0
 11
112.76658138
 21
-35.26640916
 31
0.0
  0
LINE
  5
217
100
AcDbEntity
  8
レイヤー_1
  6
CONTINUOUS
 62
       3
100
AcDbLine
 10
112.76658138
 20
-35.26640916
 30
0.0
 11
113.01376897
 21
-35.48612651
 31
0.0
  0
LINE
  5
218
100
AcDbEntity
  8
レイヤー_1
  6
CONTINUOUS
 62
       3
100
AcDbLine
 10
113.01376897
 20
-35.48612651
 30
0.0
 11
113.28103637
 21
-35.68200079
 31
0.0
  0
LINE
  5
219
100
AcDbEntity
  8
レイヤー_1
  6
CONTINUOUS
 62
       3
100
AcDbLine
 10
113.28103637
 20
-35.68200079
 30
0.0
 11
113.56670597
 21
-35.85235142
 31
0.0
  0
LINE
  5
21A
100
AcDbEntity
  8
レイヤー_1
  6
CONTINUOUS
 62
       3
100
AcDbLine
 10
113.56670597
 20
-35.85235142
 30
0.0
 11
113.8691002
 21
-35.99549782
 31
0.0
  0
LINE
  5
21B
100
AcDbEntity
  8
レイヤー_1
  6
CONTINUOUS
 62
       3
100
AcDbLine
 10
113.8691002
 20
-35.99549782
 30
0.0
 11
114.18654147
 21
-36.10975937
 31
0.0
  0
LINE
  5
21C
100
AcDbEntity
  8
レイヤー_1
  6
CONTINUOUS
 62
       3
100
AcDbLine
 10
114.18654147
 20
-36.10975937
 30
0.0
 11
114.51735223
 21
-36.19345551
 31
0.0
  0
LINE
  5
21D
100
AcDbEntity
  8
レイヤー_1
  6
CONTINUOUS
 62
       3
100
AcDbLine
 10
114.51735223
 20
-36.19345551
 30
0.0
 11
114.85985485
 21
-36.24490562
 31
0.0
  0
LINE
  5
21E
100
AcDbEntity
  8
レイヤー_1
  6
CONTINUOUS
 62
       3
100
AcDbLine
 10
114.85985485
 20
-36.24490562
 30
0.0
 11
115.21237178
 21
-36.26242912
 31
0.0
  0
LINE
  5
21F
100
AcDbEntity
  8
レイヤー_1
  6
CONTINUOUS
 62
       3
100
AcDbLine
 10
104.20959808
 20
-46.27258469
 30
0.0
 11
104.56211501
 21
-46.25506088
 31
0.0
  0
LINE
  5
220
100
AcDbEntity
  8
レイヤー_1
  6
CONTINUOUS
 62
       3
100
AcDbLine
 10
104.56211501
 20
-46.25506088
 30
0.0
 11
104.90461764
 21
-46.20360866
 31
0.0
  0
LINE
  5
221
100
AcDbEntity
  8
レイヤー_1
  6
CONTINUOUS
 62
       3
100
AcDbLine
 10
104.90461764
 20
-46.20360866
 30
0.0
 11
105.23542839
 21
-46.11990682
 31
0.0
  0
LINE
  5
222
100
AcDbEntity
  8
レイヤー_1
  6
CONTINUOUS
 62
       3
100
AcDbLine
 10
105.23542839
 20
-46.11990682
 30
0.0
 11
105.55286967
 21
-46.00563411
 31
0.0
  0
LINE
  5
223
100
AcDbEntity
  8
レイヤー_1
  6
CONTINUOUS
 62
       3
100
AcDbLine
 10
105.55286967
 20
-46.00563411
 30
0.0
 11
105.8552639
 21
-45.86246936
 31
0.0
  0
LINE
  5
224
100
AcDbEntity
  8
レイヤー_1
  6
CONTINUOUS
 62
       3
100
AcDbLine
 10
105.8552639
 20
-45.86246936
 30
0.0
 11
106.1409335
 21
-45.69209133
 31
0.0
  0
LINE
  5
225
100
AcDbEntity
  8
レイヤー_1
  6
CONTINUOUS
 62
       3
100
AcDbLine
 10
106.1409335
 20
-45.69209133
 30
0.0
 11
106.40820089
 21
-45.49617881
 31
0.0
  0
LINE
  5
226
100
AcDbEntity
  8
レイヤー_1
  6
CONTINUOUS
 62
       3
100
AcDbLine
 10
106.40820089
 20
-45.49617881
 30
0.0
 11
106.65538849
 21
-45.27641058
 31
0.0
  0
LINE
  5
227
100
AcDbEntity
  8
レイヤー_1
  6
CONTINUOUS
 62
       3
100
AcDbLine
 10
106.65538849
 20
-45.27641058
 30
0.0
 11
106.88081871
 21
-45.03446544
 31
0.0
  0
LINE
  5
228
100
AcDbEntity
  8
レイヤー_1
  6
CONTINUOUS
 62
       3
100
AcDbLine
 10
106.88081871
 20
-45.03446544
 30
0.0
 11
107.08281399
 21
-44.77202216
 31
0.0
  0
LINE
  5
229
100
AcDbEntity
  8
レイヤー_1
  6
CONTINUOUS
 62
       3
100
AcDbLine
 10
107.08281399
 20
-44.77202216
 30
0.0
 11
107.25969672
 21
-44.49075953
 31
0.0
  0
LINE
  5
22A
100
AcDbEntity
  8
レイヤー_1
  6
CONTINUOUS
 62
       3
100
AcDbLine
 10
107.25969672
 20
-44.49075953
 30
0.0
 11
107.40978934
 21
-44.19235635
 31
0.0
  0
LINE
  5
22B
100
AcDbEntity
  8
レイヤー_1
  6
CONTINUOUS
 62
       3
100
AcDbLine
 10
107.40978934
 20
-44.19235635
 30
0.0
 11
107.53141428
 21
-43.87849138
 31
0.0
  0
LINE
  5
22C
100
AcDbEntity
  8
レイヤー_1
  6
CONTINUOUS
 62
       3
100
AcDbLine
 10
107.53141428
 20
-43.87849138
 30
0.0
 11
107.62289391
 21
-43.55084342
 31
0.0
  0
LINE
  5
22D
100
AcDbEntity
  8
レイヤー_1
  6
CONTINUOUS
 62
       3
100
AcDbLine
 10
107.62289391
 20
-43.55084342
 30
0.0
 11
107.6825507
 21
-43.21109125
 31
0.0
  0
LINE
  5
22E
100
AcDbEntity
  8
レイヤー_1
  6
CONTINUOUS
 62
       3
100
AcDbLine
 10
107.6825507
 20
-43.21109125
 30
0.0
 11
107.70870704
 21
-42.86091367
 31
0.0
  0
LINE
  5
22F
100
AcDbEntity
  8
レイヤー_1
  6
CONTINUOUS
 62
       3
100
AcDbLine
 10
107.70870704
 20
-42.86091367
 30
0.0
 11
107.69992127
 21
-42.50684412
 31
0.0
  0
LINE
  5
230
100
AcDbEntity
  8
レイヤー_1
  6
CONTINUOUS
 62
       3
100
AcDbLine
 10
107.69992127
 20
-42.50684412
 30
0.0
 11
107.65680502
 21
-42.1618727
 31
0.0
  0
LINE
  5
231
100
AcDbEntity
  8
レイヤー_1
  6
CONTINUOUS
 62
       3
100
AcDbLine
 10
107.65680502
 20
-42.1618727
 30
0.0
 11
107.58102711
 21
-41.8281399
 31
0.0
  0
LINE
  5
232
100
AcDbEntity
  8
レイヤー_1
  6
CONTINUOUS
 62
       3
100
AcDbLine
 10
107.58102711
 20
-41.8281399
 30
0.0
 11
107.47426512
 21
-41.5073263
 31
0.0
  0
LINE
  5
233
100
AcDbEntity
  8
レイヤー_1
  6
CONTINUOUS
 62
       3
100
AcDbLine
 10
107.47426512
 20
-41.5073263
 30
0.0
 11
107.33819665
 21
-41.20111251
 31
0.0
  0
LINE
  5
234
100
AcDbEntity
  8
レイヤー_1
  6
CONTINUOUS
 62
       3
100
AcDbLine
 10
107.33819665
 20
-41.20111251
 30
0.0
 11
107.17449927
 21
-40.91117913
 31
0.0
  0
LINE
  5
235
100
AcDbEntity
  8
レイヤー_1
  6
CONTINUOUS
 62
       3
100
AcDbLine
 10
107.17449927
 20
-40.91117913
 30
0.0
 11
106.98485057
 21
-40.63920672
 31
0.0
  0
LINE
  5
236
100
AcDbEntity
  8
レイヤー_1
  6
CONTINUOUS
 62
       3
100
AcDbLine
 10
106.98485057
 20
-40.63920672
 30
0.0
 11
106.77092812
 21
-40.3868759
 31
0.0
  0
LINE
  5
237
100
AcDbEntity
  8
レイヤー_1
  6
CONTINUOUS
 62
       3
100
AcDbLine
 10
106.77092812
 20
-40.3868759
 30
0.0
 11
106.53440951
 21
-40.15586724
 31
0.0
  0
LINE
  5
238
100
AcDbEntity
  8
レイヤー_1
  6
CONTINUOUS
 62
       3
100
AcDbLine
 10
106.53440951
 20
-40.15586724
 30
0.0
 11
106.27697232
 21
-39.94786136
 31
0.0
  0
LINE
  5
239
100
AcDbEntity
  8
レイヤー_1
  6
CONTINUOUS
 62
       3
100
AcDbLine
 10
106.27697232
 20
-39.94786136
 30
0.0
 11
106.00029413
 21
-39.76453883
 31
0.0
  0
LINE
  5
23A
100
AcDbEntity
  8
レイヤー_1
  6
CONTINUOUS
 62
       3
100
AcDbLine
 10
106.00029413
 20
-39.76453883
 30
0.0
 11
105.70605251
 21
-39.60758024
 31
0.0
  0
LINE
  5
23B
100
AcDbEntity
  8
レイヤー_1
  6
CONTINUOUS
 62
       3
100
AcDbLine
 10
105.70605251
 20
-39.60758024
 30
0.0
 11
105.39592506
 21
-39.47866618
 31
0.0
  0
LINE
  5
23C
100
AcDbEntity
  8
レイヤー_1
  6
CONTINUOUS
 62
       3
100
AcDbLine
 10
105.39592506
 20
-39.47866618
 30
0.0
 11
105.07158935
 21
-39.37947727
 31
0.0
  0
LINE
  5
23D
100
AcDbEntity
  8
レイヤー_1
  6
CONTINUOUS
 62
       3
100
AcDbLine
 10
105.07158935
 20
-39.37947727
 30
0.0
 11
104.73472297
 21
-39.31169408
 31
0.0
  0
LINE
  5
23E
100
AcDbEntity
  8
レイヤー_1
  6
CONTINUOUS
 62
       3
100
AcDbLine
 10
104.73472297
 20
-39.31169408
 30
0.0
 11
104.38700349
 21
-39.2769972
 31
0.0
  0
LINE
  5
23F
100
AcDbEntity
  8
レイヤー_1
  6
CONTINUOUS
 62
       3
100
AcDbLine
 10
104.38700349
 20
-39.2769972
 30
0.0
 11
104.03226975
 21
-39.2769972
 31
0.0
  0
LINE
  5
240
100
AcDbEntity
  8
レイヤー_1
  6
CONTINUOUS
 62
       3
100
AcDbLine
 10
104.03226975
 20
-39.2769972
 30
0.0
 11
103.68469036
 21
-39.31169408
 31
0.0
  0
LINE
  5
241
100
AcDbEntity
  8
レイヤー_1
  6
CONTINUOUS
 62
       3
100
AcDbLine
 10
103.68469036
 20
-39.31169408
 30
0.0
 11
103.3479463
 21
-39.37947727
 31
0.0
  0
LINE
  5
242
100
AcDbEntity
  8
レイヤー_1
  6
CONTINUOUS
 62
       3
100
AcDbLine
 10
103.3479463
 20
-39.37947727
 30
0.0
 11
103.02371635
 21
-39.47866618
 31
0.0
  0
LINE
  5
243
100
AcDbEntity
  8
レイヤー_1
  6
CONTINUOUS
 62
       3
100
AcDbLine
 10
103.02371635
 20
-39.47866618
 30
0.0
 11
102.71367931
 21
-39.60758024
 31
0.0
  0
LINE
  5
244
100
AcDbEntity
  8
レイヤー_1
  6
CONTINUOUS
 62
       3
100
AcDbLine
 10
102.71367931
 20
-39.60758024
 30
0.0
 11
102.41951396
 21
-39.76453883
 31
0.0
  0
LINE
  5
245
100
AcDbEntity
  8
レイヤー_1
  6
CONTINUOUS
 62
       3
100
AcDbLine
 10
102.41951396
 20
-39.76453883
 30
0.0
 11
102.14289908
 21
-39.94786136
 31
0.0
  0
LINE
  5
246
100
AcDbEntity
  8
レイヤー_1
  6
CONTINUOUS
 62
       3
100
AcDbLine
 10
102.14289908
 20
-39.94786136
 30
0.0
 11
101.88551346
 21
-40.15586724
 31
0.0
  0
LINE
  5
247
100
AcDbEntity
  8
レイヤー_1
  6
CONTINUOUS
 62
       3
100
AcDbLine
 10
101.88551346
 20
-40.15586724
 30
0.0
 11
101.64903588
 21
-40.3868759
 31
0.0
  0
LINE
  5
248
100
AcDbEntity
  8
レイヤー_1
  6
CONTINUOUS
 62
       3
100
AcDbLine
 10
101.64903588
 20
-40.3868759
 30
0.0
 11
101.43514513
 21
-40.63920672
 31
0.0
  0
LINE
  5
249
100
AcDbEntity
  8
レイヤー_1
  6
CONTINUOUS
 62
       3
100
AcDbLine
 10
101.43514513
 20
-40.63920672
 30
0.0
 11
101.24552
 21
-40.91117913
 31
0.0
  0
LINE
  5
24A
100
AcDbEntity
  8
レイヤー_1
  6
CONTINUOUS
 62
       3
100
AcDbLine
 10
101.24552
 20
-40.91117913
 30
0.0
 11
101.08183927
 21
-41.20111251
 31
0.0
  0
LINE
  5
24B
100
AcDbEntity
  8
レイヤー_1
  6
CONTINUOUS
 62
       3
100
AcDbLine
 10
101.08183927
 20
-41.20111251
 30
0.0
 11
100.94578173
 21
-41.5073263
 31
0.0
  0
LINE
  5
24C
100
AcDbEntity
  8
レイヤー_1
  6
CONTINUOUS
 62
       3
100
AcDbLine
 10
100.94578173
 20
-41.5073263
 30
0.0
 11
100.83902616
 21
-41.8281399
 31
0.0
  0
LINE
  5
24D
100
AcDbEntity
  8
レイヤー_1
  6
CONTINUOUS
 62
       3
100
AcDbLine
 10
100.83902616
 20
-41.8281399
 30
0.0
 11
100.76325134
 21
-42.1618727
 31
0.0
  0
LINE
  5
24E
100
AcDbEntity
  8
レイヤー_1
  6
CONTINUOUS
 62
       3
100
AcDbLine
 10
100.76325134
 20
-42.1618727
 30
0.0
 11
100.72013607
 21
-42.50684412
 31
0.0
  0
LINE
  5
24F
100
AcDbEntity
  8
レイヤー_1
  6
CONTINUOUS
 62
       3
100
AcDbLine
 10
100.72013607
 20
-42.50684412
 30
0.0
 11
100.71135039
 21
-42.86091367
 31
0.0
  0
LINE
  5
250
100
AcDbEntity
  8
レイヤー_1
  6
CONTINUOUS
 62
       3
100
AcDbLine
 10
100.71135039
 20
-42.86091367
 30
0.0
 11
100.73750634
 21
-43.21109125
 31
0.0
  0
LINE
  5
251
100
AcDbEntity
  8
レイヤー_1
  6
CONTINUOUS
 62
       3
100
AcDbLine
 10
100.73750634
 20
-43.21109125
 30
0.0
 11
100.79716123
 21
-43.55084342
 31
0.0
  0
LINE
  5
252
100
AcDbEntity
  8
レイヤー_1
  6
CONTINUOUS
 62
       3
100
AcDbLine
 10
100.79716123
 20
-43.55084342
 30
0.0
 11
100.88863627
 21
-43.87849138
 31
0.0
  0
LINE
  5
253
100
AcDbEntity
  8
レイヤー_1
  6
CONTINUOUS
 62
       3
100
AcDbLine
 10
100.88863627
 20
-43.87849138
 30
0.0
 11
101.01025268
 21
-44.19235635
 31
0.0
  0
LINE
  5
254
100
AcDbEntity
  8
レイヤー_1
  6
CONTINUOUS
 62
       3
100
AcDbLine
 10
101.01025268
 20
-44.19235635
 30
0.0
 11
101.16033166
 21
-44.49075953
 31
0.0
  0
LINE
  5
255
100
AcDbEntity
  8
レイヤー_1
  6
CONTINUOUS
 62
       3
100
AcDbLine
 10
101.16033166
 20
-44.49075953
 30
0.0
 11
101.33719444
 21
-44.77202216
 31
0.0
  0
LINE
  5
256
100
AcDbEntity
  8
レイヤー_1
  6
CONTINUOUS
 62
       3
100
AcDbLine
 10
101.33719444
 20
-44.77202216
 30
0.0
 11
101.53916223
 21
-45.03446544
 31
0.0
  0
LINE
  5
257
100
AcDbEntity
  8
レイヤー_1
  6
CONTINUOUS
 62
       3
100
AcDbLine
 10
101.53916223
 20
-45.03446544
 30
0.0
 11
101.76455624
 21
-45.27641058
 31
0.0
  0
LINE
  5
258
100
AcDbEntity
  8
レイヤー_1
  6
CONTINUOUS
 62
       3
100
AcDbLine
 10
101.76455624
 20
-45.27641058
 30
0.0
 11
102.01169769
 21
-45.49617881
 31
0.0
  0
LINE
  5
259
100
AcDbEntity
  8
レイヤー_1
  6
CONTINUOUS
 62
       3
100
AcDbLine
 10
102.01169769
 20
-45.49617881
 30
0.0
 11
102.27890778
 21
-45.69209133
 31
0.0
  0
LINE
  5
25A
100
AcDbEntity
  8
レイヤー_1
  6
CONTINUOUS
 62
       3
100
AcDbLine
 10
102.27890778
 20
-45.69209133
 30
0.0
 11
102.56450775
 21
-45.86246936
 31
0.0
  0
LINE
  5
25B
100
AcDbEntity
  8
レイヤー_1
  6
CONTINUOUS
 62
       3
100
AcDbLine
 10
102.56450775
 20
-45.86246936
 30
0.0
 11
102.8668188
 21
-46.00563411
 31
0.0
  0
LINE
  5
25C
100
AcDbEntity
  8
レイヤー_1
  6
CONTINUOUS
 62
       3
100
AcDbLine
 10
102.8668188
 20
-46.00563411
 30
0.0
 11
103.18416214
 21
-46.11990682
 31
0.0
  0
LINE
  5
25D
100
AcDbEntity
  8
レイヤー_1
  6
CONTINUOUS
 62
       3
100
AcDbLine
 10
103.18416214
 20
-46.11990682
 30
0.0
 11
103.51485899
 21
-46.20360866
 31
0.0
  0
LINE
  5
25E
100
AcDbEntity
  8
レイヤー_1
  6
CONTINUOUS
 62
       3
100
AcDbLine
 10
103.51485899
 20
-46.20360866
 30
0.0
 11
103.85723056
 21
-46.25506088
 31
0.0
  0
LINE
  5
25F
100
AcDbEntity
  8
レイヤー_1
  6
CONTINUOUS
 62
       3
100
AcDbLine
 10
103.85723056
 20
-46.25506088
 30
0.0
 11
104.20959808
 21
-46.27258469
 31
0.0
  0
LINE
  5
260
100
AcDbEntity
  8
レイヤー_1
  6
CONTINUOUS
 62
       3
100
AcDbLine
 10
114.19779116
 20
-46.27258469
 30
0.0
 11
114.5503081
 21
-46.25506088
 31
0.0
  0
LINE
  5
261
100
AcDbEntity
  8
レイヤー_1
  6
CONTINUOUS
 62
       3
100
AcDbLine
 10
114.5503081
 20
-46.25506088
 30
0.0
 11
114.89281073
 21
-46.20360866
 31
0.0
  0
LINE
  5
262
100
AcDbEntity
  8
レイヤー_1
  6
CONTINUOUS
 62
       3
100
AcDbLine
 10
114.89281073
 20
-46.20360866
 30
0.0
 11
115.22362149
 21
-46.11990682
 31
0.0
  0
LINE
  5
263
100
AcDbEntity
  8
レイヤー_1
  6
CONTINUOUS
 62
       3
100
AcDbLine
 10
115.22362149
 20
-46.11990682
 30
0.0
 11
115.54106275
 21
-46.00563411
 31
0.0
  0
LINE
  5
264
100
AcDbEntity
  8
レイヤー_1
  6
CONTINUOUS
 62
       3
100
AcDbLine
 10
115.54106275
 20
-46.00563411
 30
0.0
 11
115.84345698
 21
-45.86246936
 31
0.0
  0
LINE
  5
265
100
AcDbEntity
  8
レイヤー_1
  6
CONTINUOUS
 62
       3
100
AcDbLine
 10
115.84345698
 20
-45.86246936
 30
0.0
 11
116.12912658
 21
-45.69209133
 31
0.0
  0
LINE
  5
266
100
AcDbEntity
  8
レイヤー_1
  6
CONTINUOUS
 62
       3
100
AcDbLine
 10
116.12912658
 20
-45.69209133
 30
0.0
 11
116.39639398
 21
-45.49617881
 31
0.0
  0
LINE
  5
267
100
AcDbEntity
  8
レイヤー_1
  6
CONTINUOUS
 62
       3
100
AcDbLine
 10
116.39639398
 20
-45.49617881
 30
0.0
 11
116.64358157
 21
-45.27641058
 31
0.0
  0
LINE
  5
268
100
AcDbEntity
  8
レイヤー_1
  6
CONTINUOUS
 62
       3
100
AcDbLine
 10
116.64358157
 20
-45.27641058
 30
0.0
 11
116.8690118
 21
-45.03446544
 31
0.0
  0
LINE
  5
269
100
AcDbEntity
  8
レイヤー_1
  6
CONTINUOUS
 62
       3
100
AcDbLine
 10
116.8690118
 20
-45.03446544
 30
0.0
 11
117.07100707
 21
-44.77202216
 31
0.0
  0
LINE
  5
26A
100
AcDbEntity
  8
レイヤー_1
  6
CONTINUOUS
 62
       3
100
AcDbLine
 10
117.07100707
 20
-44.77202216
 30
0.0
 11
117.24788981
 21
-44.49075953
 31
0.0
  0
LINE
  5
26B
100
AcDbEntity
  8
レイヤー_1
  6
CONTINUOUS
 62
       3
100
AcDbLine
 10
117.24788981
 20
-44.49075953
 30
0.0
 11
117.39798243
 21
-44.19235635
 31
0.0
  0
LINE
  5
26C
100
AcDbEntity
  8
レイヤー_1
  6
CONTINUOUS
 62
       3
100
AcDbLine
 10
117.39798243
 20
-44.19235635
 30
0.0
 11
117.51960735
 21
-43.87849138
 31
0.0
  0
LINE
  5
26D
100
AcDbEntity
  8
レイヤー_1
  6
CONTINUOUS
 62
       3
100
AcDbLine
 10
117.51960735
 20
-43.87849138
 30
0.0
 11
117.611087
 21
-43.55084342
 31
0.0
  0
LINE
  5
26E
100
AcDbEntity
  8
レイヤー_1
  6
CONTINUOUS
 62
       3
100
AcDbLine
 10
117.611087
 20
-43.55084342
 30
0.0
 11
117.67074378
 21
-43.21109125
 31
0.0
  0
LINE
  5
26F
100
AcDbEntity
  8
レイヤー_1
  6
CONTINUOUS
 62
       3
100
AcDbLine
 10
117.67074378
 20
-43.21109125
 30
0.0
 11
117.69690013
 21
-42.86091367
 31
0.0
  0
LINE
  5
270
100
AcDbEntity
  8
レイヤー_1
  6
CONTINUOUS
 62
       3
100
AcDbLine
 10
117.69690013
 20
-42.86091367
 30
0.0
 11
117.68811436
 21
-42.50684412
 31
0.0
  0
LINE
  5
271
100
AcDbEntity
  8
レイヤー_1
  6
CONTINUOUS
 62
       3
100
AcDbLine
 10
117.68811436
 20
-42.50684412
 30
0.0
 11
117.6449981
 21
-42.1618727
 31
0.0
  0
LINE
  5
272
100
AcDbEntity
  8
レイヤー_1
  6
CONTINUOUS
 62
       3
100
AcDbLine
 10
117.6449981
 20
-42.1618727
 30
0.0
 11
117.56922018
 21
-41.8281399
 31
0.0
  0
LINE
  5
273
100
AcDbEntity
  8
レイヤー_1
  6
CONTINUOUS
 62
       3
100
AcDbLine
 10
117.56922018
 20
-41.8281399
 30
0.0
 11
117.4624582
 21
-41.5073263
 31
0.0
  0
LINE
  5
274
100
AcDbEntity
  8
レイヤー_1
  6
CONTINUOUS
 62
       3
100
AcDbLine
 10
117.4624582
 20
-41.5073263
 30
0.0
 11
117.32638973
 21
-41.20111251
 31
0.0
  0
LINE
  5
275
100
AcDbEntity
  8
レイヤー_1
  6
CONTINUOUS
 62
       3
100
AcDbLine
 10
117.32638973
 20
-41.20111251
 30
0.0
 11
117.16269236
 21
-40.91117913
 31
0.0
  0
LINE
  5
276
100
AcDbEntity
  8
レイヤー_1
  6
CONTINUOUS
 62
       3
100
AcDbLine
 10
117.16269236
 20
-40.91117913
 30
0.0
 11
116.97304366
 21
-40.63920672
 31
0.0
  0
LINE
  5
277
100
AcDbEntity
  8
レイヤー_1
  6
CONTINUOUS
 62
       3
100
AcDbLine
 10
116.97304366
 20
-40.63920672
 30
0.0
 11
116.75912121
 21
-40.3868759
 31
0.0
  0
LINE
  5
278
100
AcDbEntity
  8
レイヤー_1
  6
CONTINUOUS
 62
       3
100
AcDbLine
 10
116.75912121
 20
-40.3868759
 30
0.0
 11
116.52260261
 21
-40.15586724
 31
0.0
  0
LINE
  5
279
100
AcDbEntity
  8
レイヤー_1
  6
CONTINUOUS
 62
       3
100
AcDbLine
 10
116.52260261
 20
-40.15586724
 30
0.0
 11
116.2651654
 21
-39.94786136
 31
0.0
  0
LINE
  5
27A
100
AcDbEntity
  8
レイヤー_1
  6
CONTINUOUS
 62
       3
100
AcDbLine
 10
116.2651654
 20
-39.94786136
 30
0.0
 11
115.98848721
 21
-39.76453883
 31
0.0
  0
LINE
  5
27B
100
AcDbEntity
  8
レイヤー_1
  6
CONTINUOUS
 62
       3
100
AcDbLine
 10
115.98848721
 20
-39.76453883
 30
0.0
 11
115.6942456
 21
-39.60758024
 31
0.0
  0
LINE
  5
27C
100
AcDbEntity
  8
レイヤー_1
  6
CONTINUOUS
 62
       3
100
AcDbLine
 10
115.6942456
 20
-39.60758024
 30
0.0
 11
115.38411815
 21
-39.47866618
 31
0.0
  0
LINE
  5
27D
100
AcDbEntity
  8
レイヤー_1
  6
CONTINUOUS
 62
       3
100
AcDbLine
 10
115.38411815
 20
-39.47866618
 30
0.0
 11
115.05978244
 21
-39.37947727
 31
0.0
  0
LINE
  5
27E
100
AcDbEntity
  8
レイヤー_1
  6
CONTINUOUS
 62
       3
100
AcDbLine
 10
115.05978244
 20
-39.37947727
 30
0.0
 11
114.72291605
 21
-39.31169408
 31
0.0
  0
LINE
  5
27F
100
AcDbEntity
  8
レイヤー_1
  6
CONTINUOUS
 62
       3
100
AcDbLine
 10
114.72291605
 20
-39.31169408
 30
0.0
 11
114.37519657
 21
-39.2769972
 31
0.0
  0
LINE
  5
280
100
AcDbEntity
  8
レイヤー_1
  6
CONTINUOUS
 62
       3
100
AcDbLine
 10
114.37519657
 20
-39.2769972
 30
0.0
 11
114.02046045
 21
-39.2769972
 31
0.0
  0
LINE
  5
281
100
AcDbEntity
  8
レイヤー_1
  6
CONTINUOUS
 62
       3
100
AcDbLine
 10
114.02046045
 20
-39.2769972
 30
0.0
 11
113.67286278
 21
-39.31169408
 31
0.0
  0
LINE
  5
282
100
AcDbEntity
  8
レイヤー_1
  6
CONTINUOUS
 62
       3
100
AcDbLine
 10
113.67286278
 20
-39.31169408
 30
0.0
 11
113.33608451
 21
-39.37947727
 31
0.0
  0
LINE
  5
283
100
AcDbEntity
  8
レイヤー_1
  6
CONTINUOUS
 62
       3
100
AcDbLine
 10
113.33608451
 20
-39.37947727
 30
0.0
 11
113.01180679
 21
-39.47866618
 31
0.0
  0
LINE
  5
284
100
AcDbEntity
  8
レイヤー_1
  6
CONTINUOUS
 62
       3
100
AcDbLine
 10
113.01180679
 20
-39.47866618
 30
0.0
 11
112.70171084
 21
-39.60758024
 31
0.0
  0
LINE
  5
285
100
AcDbEntity
  8
レイヤー_1
  6
CONTINUOUS
 62
       3
100
AcDbLine
 10
112.70171084
 20
-39.60758024
 30
0.0
 11
112.40747784
 21
-39.76453883
 31
0.0
  0
LINE
  5
286
100
AcDbEntity
  8
レイヤー_1
  6
CONTINUOUS
 62
       3
100
AcDbLine
 10
112.40747784
 20
-39.76453883
 30
0.0
 11
112.13078899
 21
-39.94786136
 31
0.0
  0
LINE
  5
287
100
AcDbEntity
  8
レイヤー_1
  6
CONTINUOUS
 62
       3
100
AcDbLine
 10
112.13078899
 20
-39.94786136
 30
0.0
 11
111.87332551
 21
-40.15586724
 31
0.0
  0
LINE
  5
288
100
AcDbEntity
  8
レイヤー_1
  6
CONTINUOUS
 62
       3
100
AcDbLine
 10
111.87332551
 20
-40.15586724
 30
0.0
 11
111.63676854
 21
-40.3868759
 31
0.0
  0
LINE
  5
289
100
AcDbEntity
  8
レイヤー_1
  6
CONTINUOUS
 62
       3
100
AcDbLine
 10
111.63676854
 20
-40.3868759
 30
0.0
 11
111.42279931
 21
-40.63920672
 31
0.0
  0
LINE
  5
28A
100
AcDbEntity
  8
レイヤー_1
  6
CONTINUOUS
 62
       3
100
AcDbLine
 10
111.42279931
 20
-40.63920672
 30
0.0
 11
111.23309901
 21
-40.91117913
 31
0.0
  0
LINE
  5
28B
100
AcDbEntity
  8
レイヤー_1
  6
CONTINUOUS
 62
       3
100
AcDbLine
 10
111.23309901
 20
-40.91117913
 30
0.0
 11
111.06934884
 21
-41.20111251
 31
0.0
  0
LINE
  5
28C
100
AcDbEntity
  8
レイヤー_1
  6
CONTINUOUS
 62
       3
100
AcDbLine
 10
111.06934884
 20
-41.20111251
 30
0.0
 11
110.93322997
 21
-41.5073263
 31
0.0
  0
LINE
  5
28D
100
AcDbEntity
  8
レイヤー_1
  6
CONTINUOUS
 62
       3
100
AcDbLine
 10
110.93322997
 20
-41.5073263
 30
0.0
 11
110.82642362
 21
-41.8281399
 31
0.0
  0
LINE
  5
28E
100
AcDbEntity
  8
レイヤー_1
  6
CONTINUOUS
 62
       3
100
AcDbLine
 10
110.82642362
 20
-41.8281399
 30
0.0
 11
110.75061098
 21
-42.1618727
 31
0.0
  0
LINE
  5
28F
100
AcDbEntity
  8
レイヤー_1
  6
CONTINUOUS
 62
       3
100
AcDbLine
 10
110.75061098
 20
-42.1618727
 30
0.0
 11
110.70747322
 21
-42.50684412
 31
0.0
  0
LINE
  5
290
100
AcDbEntity
  8
レイヤー_1
  6
CONTINUOUS
 62
       3
100
AcDbLine
 10
110.70747322
 20
-42.50684412
 30
0.0
 11
110.69868281
 21
-42.86091367
 31
0.0
  0
LINE
  5
291
100
AcDbEntity
  8
レイヤー_1
  6
CONTINUOUS
 62
       3
100
AcDbLine
 10
110.69868281
 20
-42.86091367
 30
0.0
 11
110.72485266
 21
-43.21109125
 31
0.0
  0
LINE
  5
292
100
AcDbEntity
  8
レイヤー_1
  6
CONTINUOUS
 62
       3
100
AcDbLine
 10
110.72485266
 20
-43.21109125
 30
0.0
 11
110.78453801
 21
-43.55084342
 31
0.0
  0
LINE
  5
293
100
AcDbEntity
  8
レイヤー_1
  6
CONTINUOUS
 62
       3
100
AcDbLine
 10
110.78453801
 20
-43.55084342
 30
0.0
 11
110.87605766
 21
-43.87849138
 31
0.0
  0
LINE
  5
294
100
AcDbEntity
  8
レイヤー_1
  6
CONTINUOUS
 62
       3
100
AcDbLine
 10
110.87605766
 20
-43.87849138
 30
0.0
 11
110.99773041
 21
-44.19235635
 31
0.0
  0
LINE
  5
295
100
AcDbEntity
  8
レイヤー_1
  6
CONTINUOUS
 62
       3
100
AcDbLine
 10
110.99773041
 20
-44.19235635
 30
0.0
 11
111.14787508
 21
-44.49075953
 31
0.0
  0
LINE
  5
296
100
AcDbEntity
  8
レイヤー_1
  6
CONTINUOUS
 62
       3
100
AcDbLine
 10
111.14787508
 20
-44.49075953
 30
0.0
 11
111.32481047
 21
-44.77202216
 31
0.0
  0
LINE
  5
297
100
AcDbEntity
  8
レイヤー_1
  6
CONTINUOUS
 62
       3
100
AcDbLine
 10
111.32481047
 20
-44.77202216
 30
0.0
 11
111.52685539
 21
-45.03446544
 31
0.0
  0
LINE
  5
298
100
AcDbEntity
  8
レイヤー_1
  6
CONTINUOUS
 62
       3
100
AcDbLine
 10
111.52685539
 20
-45.03446544
 30
0.0
 11
111.75232862
 21
-45.27641058
 31
0.0
  0
LINE
  5
299
100
AcDbEntity
  8
レイヤー_1
  6
CONTINUOUS
 62
       3
100
AcDbLine
 10
111.75232862
 20
-45.27641058
 30
0.0
 11
111.999549
 21
-45.49617881
 31
0.0
  0
LINE
  5
29A
100
AcDbEntity
  8
レイヤー_1
  6
CONTINUOUS
 62
       3
100
AcDbLine
 10
111.999549
 20
-45.49617881
 30
0.0
 11
112.26683532
 21
-45.69209133
 31
0.0
  0
LINE
  5
29B
100
AcDbEntity
  8
レイヤー_1
  6
CONTINUOUS
 62
       3
100
AcDbLine
 10
112.26683532
 20
-45.69209133
 30
0.0
 11
112.55250639
 21
-45.86246936
 31
0.0
  0
LINE
  5
29C
100
AcDbEntity
  8
レイヤー_1
  6
CONTINUOUS
 62
       3
100
AcDbLine
 10
112.55250639
 20
-45.86246936
 30
0.0
 11
112.85488101
 21
-46.00563411
 31
0.0
  0
LINE
  5
29D
100
AcDbEntity
  8
レイヤー_1
  6
CONTINUOUS
 62
       3
100
AcDbLine
 10
112.85488101
 20
-46.00563411
 30
0.0
 11
113.172278
 21
-46.11990682
 31
0.0
  0
LINE
  5
29E
100
AcDbEntity
  8
レイヤー_1
  6
CONTINUOUS
 62
       3
100
AcDbLine
 10
113.172278
 20
-46.11990682
 30
0.0
 11
113.50301615
 21
-46.20360866
 31
0.0
  0
LINE
  5
29F
100
AcDbEntity
  8
レイヤー_1
  6
CONTINUOUS
 62
       3
100
AcDbLine
 10
113.50301615
 20
-46.20360866
 30
0.0
 11
113.84541427
 21
-46.25506088
 31
0.0
  0
LINE
  5
2A0
100
AcDbEntity
  8
レイヤー_1
  6
CONTINUOUS
 62
       3
100
AcDbLine
 10
113.84541427
 20
-46.25506088
 30
0.0
 11
114.19779116
 21
-46.27258469
 31
0.0
  0
LINE
  5
2A1
100
AcDbEntity
  8
レイヤー_1
  6
CONTINUOUS
 62
       3
100
AcDbLine
 10
115.21237178
 20
26.70745679
 30
0.0
 11
115.56459927
 21
26.7249803
 31
0.0
  0
LINE
  5
2A2
100
AcDbEntity
  8
レイヤー_1
  6
CONTINUOUS
 62
       3
100
AcDbLine
 10
115.56459927
 20
26.7249803
 30
0.0
 11
115.90686633
 21
26.7764304
 31
0.0
  0
LINE
  5
2A3
100
AcDbEntity
  8
レイヤー_1
  6
CONTINUOUS
 62
       3
100
AcDbLine
 10
115.90686633
 20
26.7764304
 30
0.0
 11
116.23749058
 21
26.86012655
 31
0.0
  0
LINE
  5
2A4
100
AcDbEntity
  8
レイヤー_1
  6
CONTINUOUS
 62
       3
100
AcDbLine
 10
116.23749058
 20
26.86012655
 30
0.0
 11
116.55478963
 21
26.9743881
 31
0.0
  0
LINE
  5
2A5
100
AcDbEntity
  8
レイヤー_1
  6
CONTINUOUS
 62
       3
100
AcDbLine
 10
116.55478963
 20
26.9743881
 30
0.0
 11
116.85708107
 21
27.11753449
 31
0.0
  0
LINE
  5
2A6
100
AcDbEntity
  8
レイヤー_1
  6
CONTINUOUS
 62
       3
100
AcDbLine
 10
116.85708107
 20
27.11753449
 30
0.0
 11
117.1426825
 21
27.28788512
 31
0.0
  0
LINE
  5
2A7
100
AcDbEntity
  8
レイヤー_1
  6
CONTINUOUS
 62
       3
100
AcDbLine
 10
117.1426825
 20
27.28788512
 30
0.0
 11
117.40991153
 21
27.48375941
 31
0.0
  0
LINE
  5
2A8
100
AcDbEntity
  8
レイヤー_1
  6
CONTINUOUS
 62
       3
100
AcDbLine
 10
117.40991153
 20
27.48375941
 30
0.0
 11
117.65708577
 21
27.70347676
 31
0.0
  0
LINE
  5
2A9
100
AcDbEntity
  8
レイヤー_1
  6
CONTINUOUS
 62
       3
100
AcDbLine
 10
117.65708577
 20
27.70347676
 30
0.0
 11
117.88252278
 21
27.94535657
 31
0.0
  0
LINE
  5
2AA
100
AcDbEntity
  8
レイヤー_1
  6
CONTINUOUS
 62
       3
100
AcDbLine
 10
117.88252278
 20
27.94535657
 30
0.0
 11
118.08454021
 21
28.20771825
 31
0.0
  0
LINE
  5
2AB
100
AcDbEntity
  8
レイヤー_1
  6
CONTINUOUS
 62
       3
100
AcDbLine
 10
118.08454021
 20
28.20771825
 30
0.0
 11
118.26145564
 21
28.48888122
 31
0.0
  0
LINE
  5
2AC
100
AcDbEntity
  8
レイヤー_1
  6
CONTINUOUS
 62
       3
100
AcDbLine
 10
118.26145564
 20
28.48888122
 30
0.0
 11
118.41158668
 21
28.7871649
 31
0.0
  0
LINE
  5
2AD
100
AcDbEntity
  8
レイヤー_1
  6
CONTINUOUS
 62
       3
100
AcDbLine
 10
118.41158668
 20
28.7871649
 30
0.0
 11
118.53325091
 21
29.10088865
 31
0.0
  0
LINE
  5
2AE
100
AcDbEntity
  8
レイヤー_1
  6
CONTINUOUS
 62
       3
100
AcDbLine
 10
118.53325091
 20
29.10088865
 30
0.0
 11
118.62476595
 21
29.42837193
 31
0.0
  0
LINE
  5
2AF
100
AcDbEntity
  8
レイヤー_1
  6
CONTINUOUS
 62
       3
100
AcDbLine
 10
118.62476595
 20
29.42837193
 30
0.0
 11
118.68444941
 21
29.76793411
 31
0.0
  0
LINE
  5
2B0
100
AcDbEntity
  8
レイヤー_1
  6
CONTINUOUS
 62
       3
100
AcDbLine
 10
118.68444941
 20
29.76793411
 30
0.0
 11
118.71061887
 21
30.11789461
 31
0.0
  0
LINE
  5
2B1
100
AcDbEntity
  8
レイヤー_1
  6
CONTINUOUS
 62
       3
100
AcDbLine
 10
118.71061887
 20
30.11789461
 30
0.0
 11
118.70182854
 21
30.47207622
 31
0.0
  0
LINE
  5
2B2
100
AcDbEntity
  8
レイヤー_1
  6
CONTINUOUS
 62
       3
100
AcDbLine
 10
118.70182854
 20
30.47207622
 30
0.0
 11
118.65869179
 21
30.81725093
 31
0.0
  0
LINE
  5
2B3
100
AcDbEntity
  8
レイヤー_1
  6
CONTINUOUS
 62
       3
100
AcDbLine
 10
118.65869179
 20
30.81725093
 30
0.0
 11
118.58288223
 21
31.15116083
 31
0.0
  0
LINE
  5
2B4
100
AcDbEntity
  8
レイヤー_1
  6
CONTINUOUS
 62
       3
100
AcDbLine
 10
118.58288223
 20
31.15116083
 30
0.0
 11
118.4760823
 21
31.47212714
 31
0.0
  0
LINE
  5
2B5
100
AcDbEntity
  8
レイヤー_1
  6
CONTINUOUS
 62
       3
100
AcDbLine
 10
118.4760823
 20
31.47212714
 30
0.0
 11
118.33997435
 21
31.77847108
 31
0.0
  0
LINE
  5
2B6
100
AcDbEntity
  8
レイヤー_1
  6
CONTINUOUS
 62
       3
100
AcDbLine
 10
118.33997435
 20
31.77847108
 30
0.0
 11
118.17624082
 21
32.06851383
 31
0.0
  0
LINE
  5
2B7
100
AcDbEntity
  8
レイヤー_1
  6
CONTINUOUS
 62
       3
100
AcDbLine
 10
118.17624082
 20
32.06851383
 30
0.0
 11
117.98656409
 21
32.34057662
 31
0.0
  0
LINE
  5
2B8
100
AcDbEntity
  8
レイヤー_1
  6
CONTINUOUS
 62
       3
100
AcDbLine
 10
117.98656409
 20
32.34057662
 30
0.0
 11
117.77262657
 21
32.59298069
 31
0.0
  0
LINE
  5
2B9
100
AcDbEntity
  8
レイヤー_1
  6
CONTINUOUS
 62
       3
100
AcDbLine
 10
117.77262657
 20
32.59298069
 30
0.0
 11
117.53611064
 21
32.82404723
 31
0.0
  0
LINE
  5
2BA
100
AcDbEntity
  8
レイヤー_1
  6
CONTINUOUS
 62
       3
100
AcDbLine
 10
117.53611064
 20
32.82404723
 30
0.0
 11
117.27869873
 21
33.03209744
 31
0.0
  0
LINE
  5
2BB
100
AcDbEntity
  8
レイヤー_1
  6
CONTINUOUS
 62
       3
100
AcDbLine
 10
117.27869873
 20
33.03209744
 30
0.0
 11
117.00207319
 21
33.21545257
 31
0.0
  0
LINE
  5
2BC
100
AcDbEntity
  8
レイヤー_1
  6
CONTINUOUS
 62
       3
100
AcDbLine
 10
117.00207319
 20
33.21545257
 30
0.0
 11
116.70791646
 21
33.37243382
 31
0.0
  0
LINE
  5
2BD
100
AcDbEntity
  8
レイヤー_1
  6
CONTINUOUS
 62
       3
100
AcDbLine
 10
116.70791646
 20
33.37243382
 30
0.0
 11
116.39791091
 21
33.50136239
 31
0.0
  0
LINE
  5
2BE
100
AcDbEntity
  8
レイヤー_1
  6
CONTINUOUS
 62
       3
100
AcDbLine
 10
116.39791091
 20
33.50136239
 30
0.0
 11
116.07373896
 21
33.60055952
 31
0.0
  0
LINE
  5
2BF
100
AcDbEntity
  8
レイヤー_1
  6
CONTINUOUS
 62
       3
100
AcDbLine
 10
116.07373896
 20
33.60055952
 30
0.0
 11
115.737083
 21
33.6683464
 31
0.0
  0
LINE
  5
2C0
100
AcDbEntity
  8
レイヤー_1
  6
CONTINUOUS
 62
       3
100
AcDbLine
 10
115.737083
 20
33.6683464
 30
0.0
 11
115.38962544
 21
33.70304425
 31
0.0
  0
LINE
  5
2C1
100
AcDbEntity
  8
レイヤー_1
  6
CONTINUOUS
 62
       3
100
AcDbLine
 10
115.38962544
 20
33.70304425
 30
0.0
 11
115.03496638
 21
33.70304425
 31
0.0
  0
LINE
  5
2C2
100
AcDbEntity
  8
レイヤー_1
  6
CONTINUOUS
 62
       3
100
AcDbLine
 10
115.03496638
 20
33.70304425
 30
0.0
 11
114.6872469
 21
33.6683464
 31
0.0
  0
LINE
  5
2C3
100
AcDbEntity
  8
レイヤー_1
  6
CONTINUOUS
 62
       3
100
AcDbLine
 10
114.6872469
 20
33.6683464
 30
0.0
 11
114.35038051
 21
33.60055952
 31
0.0
  0
LINE
  5
2C4
100
AcDbEntity
  8
レイヤー_1
  6
CONTINUOUS
 62
       3
100
AcDbLine
 10
114.35038051
 20
33.60055952
 30
0.0
 11
114.02604481
 21
33.50136239
 31
0.0
  0
LINE
  5
2C5
100
AcDbEntity
  8
レイヤー_1
  6
CONTINUOUS
 62
       3
100
AcDbLine
 10
114.02604481
 20
33.50136239
 30
0.0
 11
113.71591735
 21
33.37243382
 31
0.0
  0
LINE
  5
2C6
100
AcDbEntity
  8
レイヤー_1
  6
CONTINUOUS
 62
       3
100
AcDbLine
 10
113.71591735
 20
33.37243382
 30
0.0
 11
113.42167574
 21
33.21545257
 31
0.0
  0
LINE
  5
2C7
100
AcDbEntity
  8
レイヤー_1
  6
CONTINUOUS
 62
       3
100
AcDbLine
 10
113.42167574
 20
33.21545257
 30
0.0
 11
113.14499755
 21
33.03209744
 31
0.0
  0
LINE
  5
2C8
100
AcDbEntity
  8
レイヤー_1
  6
CONTINUOUS
 62
       3
100
AcDbLine
 10
113.14499755
 20
33.03209744
 30
0.0
 11
112.88756035
 21
32.82404723
 31
0.0
  0
LINE
  5
2C9
100
AcDbEntity
  8
レイヤー_1
  6
CONTINUOUS
 62
       3
100
AcDbLine
 10
112.88756035
 20
32.82404723
 30
0.0
 11
112.65104174
 21
32.59298069
 31
0.0
  0
LINE
  5
2CA
100
AcDbEntity
  8
レイヤー_1
  6
CONTINUOUS
 62
       3
100
AcDbLine
 10
112.65104174
 20
32.59298069
 30
0.0
 11
112.4371193
 21
32.34057662
 31
0.0
  0
LINE
  5
2CB
100
AcDbEntity
  8
レイヤー_1
  6
CONTINUOUS
 62
       3
100
AcDbLine
 10
112.4371193
 20
32.34057662
 30
0.0
 11
112.24747059
 21
32.06851383
 31
0.0
  0
LINE
  5
2CC
100
AcDbEntity
  8
レイヤー_1
  6
CONTINUOUS
 62
       3
100
AcDbLine
 10
112.24747059
 20
32.06851383
 30
0.0
 11
112.08377322
 21
31.77847108
 31
0.0
  0
LINE
  5
2CD
100
AcDbEntity
  8
レイヤー_1
  6
CONTINUOUS
 62
       3
100
AcDbLine
 10
112.08377322
 20
31.77847108
 30
0.0
 11
111.94770475
 21
31.47212714
 31
0.0
  0
LINE
  5
2CE
100
AcDbEntity
  8
レイヤー_1
  6
CONTINUOUS
 62
       3
100
AcDbLine
 10
111.94770475
 20
31.47212714
 30
0.0
 11
111.84094278
 21
31.15116083
 31
0.0
  0
LINE
  5
2CF
100
AcDbEntity
  8
レイヤー_1
  6
CONTINUOUS
 62
       3
100
AcDbLine
 10
111.84094278
 20
31.15116083
 30
0.0
 11
111.76516485
 21
30.81725093
 31
0.0
  0
LINE
  5
2D0
100
AcDbEntity
  8
レイヤー_1
  6
CONTINUOUS
 62
       3
100
AcDbLine
 10
111.76516485
 20
30.81725093
 30
0.0
 11
111.72204859
 21
30.47207622
 31
0.0
  0
LINE
  5
2D1
100
AcDbEntity
  8
レイヤー_1
  6
CONTINUOUS
 62
       3
100
AcDbLine
 10
111.72204859
 20
30.47207622
 30
0.0
 11
111.71326282
 21
30.11789461
 31
0.0
  0
LINE
  5
2D2
100
AcDbEntity
  8
レイヤー_1
  6
CONTINUOUS
 62
       3
100
AcDbLine
 10
111.71326282
 20
30.11789461
 30
0.0
 11
111.73941917
 21
29.76793411
 31
0.0
  0
LINE
  5
2D3
100
AcDbEntity
  8
レイヤー_1
  6
CONTINUOUS
 62
       3
100
AcDbLine
 10
111.73941917
 20
29.76793411
 30
0.0
 11
111.79907595
 21
29.42837193
 31
0.0
  0
LINE
  5
2D4
100
AcDbEntity
  8
レイヤー_1
  6
CONTINUOUS
 62
       3
100
AcDbLine
 10
111.79907595
 20
29.42837193
 30
0.0
 11
111.89055561
 21
29.10088865
 31
0.0
  0
LINE
  5
2D5
100
AcDbEntity
  8
レイヤー_1
  6
CONTINUOUS
 62
       3
100
AcDbLine
 10
111.89055561
 20
29.10088865
 30
0.0
 11
112.01218052
 21
28.7871649
 31
0.0
  0
LINE
  5
2D6
100
AcDbEntity
  8
レイヤー_1
  6
CONTINUOUS
 62
       3
100
AcDbLine
 10
112.01218052
 20
28.7871649
 30
0.0
 11
112.16227315
 21
28.48888122
 31
0.0
  0
LINE
  5
2D7
100
AcDbEntity
  8
レイヤー_1
  6
CONTINUOUS
 62
       3
100
AcDbLine
 10
112.16227315
 20
28.48888122
 30
0.0
 11
112.33915589
 21
28.20771825
 31
0.0
  0
LINE
  5
2D8
100
AcDbEntity
  8
レイヤー_1
  6
CONTINUOUS
 62
       3
100
AcDbLine
 10
112.33915589
 20
28.20771825
 30
0.0
 11
112.54115115
 21
27.94535657
 31
0.0
  0
LINE
  5
2D9
100
AcDbEntity
  8
レイヤー_1
  6
CONTINUOUS
 62
       3
100
AcDbLine
 10
112.54115115
 20
27.94535657
 30
0.0
 11
112.76658138
 21
27.70347676
 31
0.0
  0
LINE
  5
2DA
100
AcDbEntity
  8
レイヤー_1
  6
CONTINUOUS
 62
       3
100
AcDbLine
 10
112.76658138
 20
27.70347676
 30
0.0
 11
113.01376897
 21
27.48375941
 31
0.0
  0
LINE
  5
2DB
100
AcDbEntity
  8
レイヤー_1
  6
CONTINUOUS
 62
       3
100
AcDbLine
 10
113.01376897
 20
27.48375941
 30
0.0
 11
113.28103637
 21
27.28788512
 31
0.0
  0
LINE
  5
2DC
100
AcDbEntity
  8
レイヤー_1
  6
CONTINUOUS
 62
       3
100
AcDbLine
 10
113.28103637
 20
27.28788512
 30
0.0
 11
113.56670597
 21
27.11753449
 31
0.0
  0
LINE
  5
2DD
100
AcDbEntity
  8
レイヤー_1
  6
CONTINUOUS
 62
       3
100
AcDbLine
 10
113.56670597
 20
27.11753449
 30
0.0
 11
113.8691002
 21
26.9743881
 31
0.0
  0
LINE
  5
2DE
100
AcDbEntity
  8
レイヤー_1
  6
CONTINUOUS
 62
       3
100
AcDbLine
 10
113.8691002
 20
26.9743881
 30
0.0
 11
114.18654147
 21
26.86012655
 31
0.0
  0
LINE
  5
2DF
100
AcDbEntity
  8
レイヤー_1
  6
CONTINUOUS
 62
       3
100
AcDbLine
 10
114.18654147
 20
26.86012655
 30
0.0
 11
114.51735223
 21
26.7764304
 31
0.0
  0
LINE
  5
2E0
100
AcDbEntity
  8
レイヤー_1
  6
CONTINUOUS
 62
       3
100
AcDbLine
 10
114.51735223
 20
26.7764304
 30
0.0
 11
114.85985485
 21
26.7249803
 31
0.0
  0
LINE
  5
2E1
100
AcDbEntity
  8
レイヤー_1
  6
CONTINUOUS
 62
       3
100
AcDbLine
 10
114.85985485
 20
26.7249803
 30
0.0
 11
115.21237178
 21
26.70745679
 31
0.0
  0
LINE
  5
2E2
100
AcDbEntity
  8
レイヤー_1
  6
CONTINUOUS
 62
       3
100
AcDbLine
 10
103.19587873
 20
26.70745679
 30
0.0
 11
103.54824625
 21
26.7249803
 31
0.0
  0
LINE
  5
2E3
100
AcDbEntity
  8
レイヤー_1
  6
CONTINUOUS
 62
       3
100
AcDbLine
 10
103.54824625
 20
26.7249803
 30
0.0
 11
103.89061782
 21
26.7764304
 31
0.0
  0
LINE
  5
2E4
100
AcDbEntity
  8
レイヤー_1
  6
CONTINUOUS
 62
       3
100
AcDbLine
 10
103.89061782
 20
26.7764304
 30
0.0
 11
104.22131467
 21
26.86012655
 31
0.0
  0
LINE
  5
2E5
100
AcDbEntity
  8
レイヤー_1
  6
CONTINUOUS
 62
       3
100
AcDbLine
 10
104.22131467
 20
26.86012655
 30
0.0
 11
104.53865802
 21
26.9743881
 31
0.0
  0
LINE
  5
2E6
100
AcDbEntity
  8
レイヤー_1
  6
CONTINUOUS
 62
       3
100
AcDbLine
 10
104.53865802
 20
26.9743881
 30
0.0
 11
104.84096906
 21
27.11753449
 31
0.0
  0
LINE
  5
2E7
100
AcDbEntity
  8
レイヤー_1
  6
CONTINUOUS
 62
       3
100
AcDbLine
 10
104.84096906
 20
27.11753449
 30
0.0
 11
105.12656903
 21
27.28788512
 31
0.0
  0
LINE
  5
2E8
100
AcDbEntity
  8
レイヤー_1
  6
CONTINUOUS
 62
       3
100
AcDbLine
 10
105.12656903
 20
27.28788512
 30
0.0
 11
105.39377913
 21
27.48375941
 31
0.0
  0
LINE
  5
2E9
100
AcDbEntity
  8
レイヤー_1
  6
CONTINUOUS
 62
       3
100
AcDbLine
 10
105.39377913
 20
27.48375941
 30
0.0
 11
105.64092057
 21
27.70347676
 31
0.0
  0
LINE
  5
2EA
100
AcDbEntity
  8
レイヤー_1
  6
CONTINUOUS
 62
       3
100
AcDbLine
 10
105.64092057
 20
27.70347676
 30
0.0
 11
105.86631458
 21
27.94535657
 31
0.0
  0
LINE
  5
2EB
100
AcDbEntity
  8
レイヤー_1
  6
CONTINUOUS
 62
       3
100
AcDbLine
 10
105.86631458
 20
27.94535657
 30
0.0
 11
106.06828237
 21
28.20771825
 31
0.0
  0
LINE
  5
2EC
100
AcDbEntity
  8
レイヤー_1
  6
CONTINUOUS
 62
       3
100
AcDbLine
 10
106.06828237
 20
28.20771825
 30
0.0
 11
106.24514515
 21
28.48888122
 31
0.0
  0
LINE
  5
2ED
100
AcDbEntity
  8
レイヤー_1
  6
CONTINUOUS
 62
       3
100
AcDbLine
 10
106.24514515
 20
28.48888122
 30
0.0
 11
106.39522413
 21
28.7871649
 31
0.0
  0
LINE
  5
2EE
100
AcDbEntity
  8
レイヤー_1
  6
CONTINUOUS
 62
       3
100
AcDbLine
 10
106.39522413
 20
28.7871649
 30
0.0
 11
106.51684054
 21
29.10088865
 31
0.0
  0
LINE
  5
2EF
100
AcDbEntity
  8
レイヤー_1
  6
CONTINUOUS
 62
       3
100
AcDbLine
 10
106.51684054
 20
29.10088865
 30
0.0
 11
106.60831558
 21
29.42837193
 31
0.0
  0
LINE
  5
2F0
100
AcDbEntity
  8
レイヤー_1
  6
CONTINUOUS
 62
       3
100
AcDbLine
 10
106.60831558
 20
29.42837193
 30
0.0
 11
106.66797047
 21
29.76793411
 31
0.0
  0
LINE
  5
2F1
100
AcDbEntity
  8
レイヤー_1
  6
CONTINUOUS
 62
       3
100
AcDbLine
 10
106.66797047
 20
29.76793411
 30
0.0
 11
106.69412642
 21
30.11789461
 31
0.0
  0
LINE
  5
2F2
100
AcDbEntity
  8
レイヤー_1
  6
CONTINUOUS
 62
       3
100
AcDbLine
 10
106.69412642
 20
30.11789461
 30
0.0
 11
106.68534074
 21
30.47207622
 31
0.0
  0
LINE
  5
2F3
100
AcDbEntity
  8
レイヤー_1
  6
CONTINUOUS
 62
       3
100
AcDbLine
 10
106.68534074
 20
30.47207622
 30
0.0
 11
106.64222547
 21
30.81725093
 31
0.0
  0
LINE
  5
2F4
100
AcDbEntity
  8
レイヤー_1
  6
CONTINUOUS
 62
       3
100
AcDbLine
 10
106.64222547
 20
30.81725093
 30
0.0
 11
106.56645065
 21
31.15116083
 31
0.0
  0
LINE
  5
2F5
100
AcDbEntity
  8
レイヤー_1
  6
CONTINUOUS
 62
       3
100
AcDbLine
 10
106.56645065
 20
31.15116083
 30
0.0
 11
106.45969508
 21
31.47212714
 31
0.0
  0
LINE
  5
2F6
100
AcDbEntity
  8
レイヤー_1
  6
CONTINUOUS
 62
       3
100
AcDbLine
 10
106.45969508
 20
31.47212714
 30
0.0
 11
106.32363754
 21
31.77847108
 31
0.0
  0
LINE
  5
2F7
100
AcDbEntity
  8
レイヤー_1
  6
CONTINUOUS
 62
       3
100
AcDbLine
 10
106.32363754
 20
31.77847108
 30
0.0
 11
106.15995681
 21
32.06851383
 31
0.0
  0
LINE
  5
2F8
100
AcDbEntity
  8
レイヤー_1
  6
CONTINUOUS
 62
       3
100
AcDbLine
 10
106.15995681
 20
32.06851383
 30
0.0
 11
105.97033168
 21
32.34057662
 31
0.0
  0
LINE
  5
2F9
100
AcDbEntity
  8
レイヤー_1
  6
CONTINUOUS
 62
       3
100
AcDbLine
 10
105.97033168
 20
32.34057662
 30
0.0
 11
105.75644093
 21
32.59298069
 31
0.0
  0
LINE
  5
2FA
100
AcDbEntity
  8
レイヤー_1
  6
CONTINUOUS
 62
       3
100
AcDbLine
 10
105.75644093
 20
32.59298069
 30
0.0
 11
105.51996335
 21
32.82404723
 31
0.0
  0
LINE
  5
2FB
100
AcDbEntity
  8
レイヤー_1
  6
CONTINUOUS
 62
       3
100
AcDbLine
 10
105.51996335
 20
32.82404723
 30
0.0
 11
105.26257773
 21
33.03209744
 31
0.0
  0
LINE
  5
2FC
100
AcDbEntity
  8
レイヤー_1
  6
CONTINUOUS
 62
       3
100
AcDbLine
 10
105.26257773
 20
33.03209744
 30
0.0
 11
104.98596285
 21
33.21545257
 31
0.0
  0
LINE
  5
2FD
100
AcDbEntity
  8
レイヤー_1
  6
CONTINUOUS
 62
       3
100
AcDbLine
 10
104.98596285
 20
33.21545257
 30
0.0
 11
104.6917975
 21
33.37243382
 31
0.0
  0
LINE
  5
2FE
100
AcDbEntity
  8
レイヤー_1
  6
CONTINUOUS
 62
       3
100
AcDbLine
 10
104.6917975
 20
33.37243382
 30
0.0
 11
104.38176046
 21
33.50136239
 31
0.0
  0
LINE
  5
2FF
100
AcDbEntity
  8
レイヤー_1
  6
CONTINUOUS
 62
       3
100
AcDbLine
 10
104.38176046
 20
33.50136239
 30
0.0
 11
104.05753051
 21
33.60055952
 31
0.0
  0
LINE
  5
300
100
AcDbEntity
  8
レイヤー_1
  6
CONTINUOUS
 62
       3
100
AcDbLine
 10
104.05753051
 20
33.60055952
 30
0.0
 11
103.72078645
 21
33.6683464
 31
0.0
  0
LINE
  5
301
100
AcDbEntity
  8
レイヤー_1
  6
CONTINUOUS
 62
       3
100
AcDbLine
 10
103.72078645
 20
33.6683464
 30
0.0
 11
103.37320706
 21
33.70304425
 31
0.0
  0
LINE
  5
302
100
AcDbEntity
  8
レイヤー_1
  6
CONTINUOUS
 62
       3
100
AcDbLine
 10
103.37320706
 20
33.70304425
 30
0.0
 11
103.01847572
 21
33.70304425
 31
0.0
  0
LINE
  5
303
100
AcDbEntity
  8
レイヤー_1
  6
CONTINUOUS
 62
       3
100
AcDbLine
 10
103.01847572
 20
33.70304425
 30
0.0
 11
102.67077451
 21
33.6683464
 31
0.0
  0
LINE
  5
304
100
AcDbEntity
  8
レイヤー_1
  6
CONTINUOUS
 62
       3
100
AcDbLine
 10
102.67077451
 20
33.6683464
 30
0.0
 11
102.33394234
 21
33.60055952
 31
0.0
  0
LINE
  5
305
100
AcDbEntity
  8
レイヤー_1
  6
CONTINUOUS
 62
       3
100
AcDbLine
 10
102.33394234
 20
33.60055952
 30
0.0
 11
102.0096544
 21
33.50136239
 31
0.0
  0
LINE
  5
306
100
AcDbEntity
  8
レイヤー_1
  6
CONTINUOUS
 62
       3
100
AcDbLine
 10
102.0096544
 20
33.50136239
 30
0.0
 11
101.69958586
 21
33.37243382
 31
0.0
  0
LINE
  5
307
100
AcDbEntity
  8
レイヤー_1
  6
CONTINUOUS
 62
       3
100
AcDbLine
 10
101.69958586
 20
33.37243382
 30
0.0
 11
101.40541189
 21
33.21545257
 31
0.0
  0
LINE
  5
308
100
AcDbEntity
  8
レイヤー_1
  6
CONTINUOUS
 62
       3
100
AcDbLine
 10
101.40541189
 20
33.21545257
 30
0.0
 11
101.12880766
 21
33.03209744
 31
0.0
  0
LINE
  5
309
100
AcDbEntity
  8
レイヤー_1
  6
CONTINUOUS
 62
       3
100
AcDbLine
 10
101.12880766
 20
33.03209744
 30
0.0
 11
100.87144835
 21
32.82404723
 31
0.0
  0
LINE
  5
30A
100
AcDbEntity
  8
レイヤー_1
  6
CONTINUOUS
 62
       3
100
AcDbLine
 10
100.87144835
 20
32.82404723
 30
0.0
 11
100.63500912
 21
32.59298069
 31
0.0
  0
LINE
  5
30B
100
AcDbEntity
  8
レイヤー_1
  6
CONTINUOUS
 62
       3
100
AcDbLine
 10
100.63500912
 20
32.59298069
 30
0.0
 11
100.42116515
 21
32.34057662
 31
0.0
  0
LINE
  5
30C
100
AcDbEntity
  8
レイヤー_1
  6
CONTINUOUS
 62
       3
100
AcDbLine
 10
100.42116515
 20
32.34057662
 30
0.0
 11
100.23159162
 21
32.06851383
 31
0.0
  0
LINE
  5
30D
100
AcDbEntity
  8
レイヤー_1
  6
CONTINUOUS
 62
       3
100
AcDbLine
 10
100.23159162
 20
32.06851383
 30
0.0
 11
100.06796369
 21
31.77847108
 31
0.0
  0
LINE
  5
30E
100
AcDbEntity
  8
レイヤー_1
  6
CONTINUOUS
 62
       3
100
AcDbLine
 10
100.06796369
 20
31.77847108
 30
0.0
 11
99.93195654
 21
31.47212714
 31
0.0
  0
LINE
  5
30F
100
AcDbEntity
  8
レイヤー_1
  6
CONTINUOUS
 62
       3
100
AcDbLine
 10
99.93195654
 20
31.47212714
 30
0.0
 11
99.82524534
 21
31.15116083
 31
0.0
  0
LINE
  5
310
100
AcDbEntity
  8
レイヤー_1
  6
CONTINUOUS
 62
       3
100
AcDbLine
 10
99.82524534
 20
31.15116083
 30
0.0
 11
99.74950526
 21
30.81725093
 31
0.0
  0
LINE
  5
311
100
AcDbEntity
  8
レイヤー_1
  6
CONTINUOUS
 62
       3
100
AcDbLine
 10
99.74950526
 20
30.81725093
 30
0.0
 11
99.70641148
 21
30.47207622
 31
0.0
  0
LINE
  5
312
100
AcDbEntity
  8
レイヤー_1
  6
CONTINUOUS
 62
       3
100
AcDbLine
 10
99.70641148
 20
30.47207622
 30
0.0
 11
99.69763044
 21
30.11789461
 31
0.0
  0
LINE
  5
313
100
AcDbEntity
  8
レイヤー_1
  6
CONTINUOUS
 62
       3
100
AcDbLine
 10
99.69763044
 20
30.11789461
 30
0.0
 11
99.72377288
 21
29.76793411
 31
0.0
  0
LINE
  5
314
100
AcDbEntity
  8
レイヤー_1
  6
CONTINUOUS
 62
       3
100
AcDbLine
 10
99.72377288
 20
29.76793411
 30
0.0
 11
99.78339921
 21
29.42837193
 31
0.0
  0
LINE
  5
315
100
AcDbEntity
  8
レイヤー_1
  6
CONTINUOUS
 62
       3
100
AcDbLine
 10
99.78339921
 20
29.42837193
 30
0.0
 11
99.87483425
 21
29.10088865
 31
0.0
  0
LINE
  5
316
100
AcDbEntity
  8
レイヤー_1
  6
CONTINUOUS
 62
       3
100
AcDbLine
 10
99.87483425
 20
29.10088865
 30
0.0
 11
99.99640282
 21
28.7871649
 31
0.0
  0
LINE
  5
317
100
AcDbEntity
  8
レイヤー_1
  6
CONTINUOUS
 62
       3
100
AcDbLine
 10
99.99640282
 20
28.7871649
 30
0.0
 11
100.14642975
 21
28.48888122
 31
0.0
  0
LINE
  5
318
100
AcDbEntity
  8
レイヤー_1
  6
CONTINUOUS
 62
       3
100
AcDbLine
 10
100.14642975
 20
28.48888122
 30
0.0
 11
100.32323988
 21
28.20771825
 31
0.0
  0
LINE
  5
319
100
AcDbEntity
  8
レイヤー_1
  6
CONTINUOUS
 62
       3
100
AcDbLine
 10
100.32323988
 20
28.20771825
 30
0.0
 11
100.52515803
 21
27.94535657
 31
0.0
  0
LINE
  5
31A
100
AcDbEntity
  8
レイヤー_1
  6
CONTINUOUS
 62
       3
100
AcDbLine
 10
100.52515803
 20
27.94535657
 30
0.0
 11
100.75050902
 21
27.70347676
 31
0.0
  0
LINE
  5
31B
100
AcDbEntity
  8
レイヤー_1
  6
CONTINUOUS
 62
       3
100
AcDbLine
 10
100.75050902
 20
27.70347676
 30
0.0
 11
100.99761769
 21
27.48375941
 31
0.0
  0
LINE
  5
31C
100
AcDbEntity
  8
レイヤー_1
  6
CONTINUOUS
 62
       3
100
AcDbLine
 10
100.99761769
 20
27.48375941
 30
0.0
 11
101.26480886
 21
27.28788512
 31
0.0
  0
LINE
  5
31D
100
AcDbEntity
  8
レイヤー_1
  6
CONTINUOUS
 62
       3
100
AcDbLine
 10
101.26480886
 20
27.28788512
 30
0.0
 11
101.55040736
 21
27.11753449
 31
0.0
  0
LINE
  5
31E
100
AcDbEntity
  8
レイヤー_1
  6
CONTINUOUS
 62
       3
100
AcDbLine
 10
101.55040736
 20
27.11753449
 30
0.0
 11
101.85273801
 21
26.9743881
 31
0.0
  0
LINE
  5
31F
100
AcDbEntity
  8
レイヤー_1
  6
CONTINUOUS
 62
       3
100
AcDbLine
 10
101.85273801
 20
26.9743881
 30
0.0
 11
102.17012565
 21
26.86012655
 31
0.0
  0
LINE
  5
320
100
AcDbEntity
  8
レイヤー_1
  6
CONTINUOUS
 62
       3
100
AcDbLine
 10
102.17012565
 20
26.86012655
 30
0.0
 11
102.50089509
 21
26.7764304
 31
0.0
  0
LINE
  5
321
100
AcDbEntity
  8
レイヤー_1
  6
CONTINUOUS
 62
       3
100
AcDbLine
 10
102.50089509
 20
26.7764304
 30
0.0
 11
102.84337118
 21
26.7249803
 31
0.0
  0
LINE
  5
322
100
AcDbEntity
  8
レイヤー_1
  6
CONTINUOUS
 62
       3
100
AcDbLine
 10
102.84337118
 20
26.7249803
 30
0.0
 11
103.19587873
 21
26.70745679
 31
0.0
  0
LINE
  5
323
100
AcDbEntity
  8
レイヤー_1
  6
CONTINUOUS
 62
       3
100
AcDbLine
 10
114.18745588
 20
36.71761236
 30
0.0
 11
114.53997281
 21
36.73512668
 31
0.0
  0
LINE
  5
324
100
AcDbEntity
  8
レイヤー_1
  6
CONTINUOUS
 62
       3
100
AcDbLine
 10
114.53997281
 20
36.73512668
 30
0.0
 11
114.88247544
 21
36.78655165
 31
0.0
  0
LINE
  5
325
100
AcDbEntity
  8
レイヤー_1
  6
CONTINUOUS
 62
       3
100
AcDbLine
 10
114.88247544
 20
36.78655165
 30
0.0
 11
115.21328619
 21
36.8702103
 31
0.0
  0
LINE
  5
326
100
AcDbEntity
  8
レイヤー_1
  6
CONTINUOUS
 62
       3
100
AcDbLine
 10
115.21328619
 20
36.8702103
 30
0.0
 11
115.53072747
 21
36.98442565
 31
0.0
  0
LINE
  5
327
100
AcDbEntity
  8
レイヤー_1
  6
CONTINUOUS
 62
       3
100
AcDbLine
 10
115.53072747
 20
36.98442565
 30
0.0
 11
115.8331217
 21
37.12752071
 31
0.0
  0
LINE
  5
328
100
AcDbEntity
  8
レイヤー_1
  6
CONTINUOUS
 62
       3
100
AcDbLine
 10
115.8331217
 20
37.12752071
 30
0.0
 11
116.1187913
 21
37.2978185
 31
0.0
  0
LINE
  5
329
100
AcDbEntity
  8
レイヤー_1
  6
CONTINUOUS
 62
       3
100
AcDbLine
 10
116.1187913
 20
37.2978185
 30
0.0
 11
116.3860587
 21
37.49364205
 31
0.0
  0
LINE
  5
32A
100
AcDbEntity
  8
レイヤー_1
  6
CONTINUOUS
 62
       3
100
AcDbLine
 10
116.3860587
 20
37.49364205
 30
0.0
 11
116.63324629
 21
37.7133144
 31
0.0
  0
LINE
  5
32B
100
AcDbEntity
  8
レイヤー_1
  6
CONTINUOUS
 62
       3
100
AcDbLine
 10
116.63324629
 20
37.7133144
 30
0.0
 11
116.85867651
 21
37.95515852
 31
0.0
  0
LINE
  5
32C
100
AcDbEntity
  8
レイヤー_1
  6
CONTINUOUS
 62
       3
100
AcDbLine
 10
116.85867651
 20
37.95515852
 30
0.0
 11
117.06067178
 21
38.21749749
 31
0.0
  0
LINE
  5
32D
100
AcDbEntity
  8
レイヤー_1
  6
CONTINUOUS
 62
       3
100
AcDbLine
 10
117.06067178
 20
38.21749749
 30
0.0
 11
117.23755452
 21
38.49865429
 31
0.0
  0
LINE
  5
32E
100
AcDbEntity
  8
レイヤー_1
  6
CONTINUOUS
 62
       3
100
AcDbLine
 10
117.23755452
 20
38.49865429
 30
0.0
 11
117.38764714
 21
38.79695195
 31
0.0
  0
LINE
  5
32F
100
AcDbEntity
  8
レイヤー_1
  6
CONTINUOUS
 62
       3
100
AcDbLine
 10
117.38764714
 20
38.79695195
 30
0.0
 11
117.50927207
 21
39.1107135
 31
0.0
  0
LINE
  5
330
100
AcDbEntity
  8
レイヤー_1
  6
CONTINUOUS
 62
       3
100
AcDbLine
 10
117.50927207
 20
39.1107135
 30
0.0
 11
117.60075171
 21
39.43826195
 31
0.0
  0
LINE
  5
331
100
AcDbEntity
  8
レイヤー_1
  6
CONTINUOUS
 62
       3
100
AcDbLine
 10
117.60075171
 20
39.43826195
 30
0.0
 11
117.6604085
 21
39.77792033
 31
0.0
  0
LINE
  5
332
100
AcDbEntity
  8
レイヤー_1
  6
CONTINUOUS
 62
       3
100
AcDbLine
 10
117.6604085
 20
39.77792033
 30
0.0
 11
117.68656484
 21
40.12801165
 31
0.0
  0
LINE
  5
333
100
AcDbEntity
  8
レイヤー_1
  6
CONTINUOUS
 62
       3
100
AcDbLine
 10
117.68656484
 20
40.12801165
 30
0.0
 11
117.67777907
 21
40.48217753
 31
0.0
  0
LINE
  5
334
100
AcDbEntity
  8
レイヤー_1
  6
CONTINUOUS
 62
       3
100
AcDbLine
 10
117.67777907
 20
40.48217753
 30
0.0
 11
117.63466281
 21
40.82729573
 31
0.0
  0
LINE
  5
335
100
AcDbEntity
  8
レイヤー_1
  6
CONTINUOUS
 62
       3
100
AcDbLine
 10
117.63466281
 20
40.82729573
 30
0.0
 11
117.5588849
 21
41.16116552
 31
0.0
  0
LINE
  5
336
100
AcDbEntity
  8
レイヤー_1
  6
CONTINUOUS
 62
       3
100
AcDbLine
 10
117.5588849
 20
41.16116552
 30
0.0
 11
117.45212293
 21
41.4821063
 31
0.0
  0
LINE
  5
337
100
AcDbEntity
  8
レイヤー_1
  6
CONTINUOUS
 62
       3
100
AcDbLine
 10
117.45212293
 20
41.4821063
 30
0.0
 11
117.31605446
 21
41.78843752
 31
0.0
  0
LINE
  5
338
100
AcDbEntity
  8
レイヤー_1
  6
CONTINUOUS
 62
       3
100
AcDbLine
 10
117.31605446
 20
41.78843752
 30
0.0
 11
117.15235707
 21
42.07847854
 31
0.0
  0
LINE
  5
339
100
AcDbEntity
  8
レイヤー_1
  6
CONTINUOUS
 62
       3
100
AcDbLine
 10
117.15235707
 20
42.07847854
 30
0.0
 11
116.96270838
 21
42.35054878
 31
0.0
  0
LINE
  5
33A
100
AcDbEntity
  8
レイヤー_1
  6
CONTINUOUS
 62
       3
100
AcDbLine
 10
116.96270838
 20
42.35054878
 30
0.0
 11
116.74878592
 21
42.60296767
 31
0.0
  0
LINE
  5
33B
100
AcDbEntity
  8
レイヤー_1
  6
CONTINUOUS
 62
       3
100
AcDbLine
 10
116.74878592
 20
42.60296767
 30
0.0
 11
116.51226732
 21
42.8340546
 31
0.0
  0
LINE
  5
33C
100
AcDbEntity
  8
レイヤー_1
  6
CONTINUOUS
 62
       3
100
AcDbLine
 10
116.51226732
 20
42.8340546
 30
0.0
 11
116.25483012
 21
43.04212899
 31
0.0
  0
LINE
  5
33D
100
AcDbEntity
  8
レイヤー_1
  6
CONTINUOUS
 62
       3
100
AcDbLine
 10
116.25483012
 20
43.04212899
 30
0.0
 11
115.97815192
 21
43.22551023
 31
0.0
  0
LINE
  5
33E
100
AcDbEntity
  8
レイヤー_1
  6
CONTINUOUS
 62
       3
100
AcDbLine
 10
115.97815192
 20
43.22551023
 30
0.0
 11
115.68391031
 21
43.38251774
 31
0.0
  0
LINE
  5
33F
100
AcDbEntity
  8
レイヤー_1
  6
CONTINUOUS
 62
       3
100
AcDbLine
 10
115.68391031
 20
43.38251774
 30
0.0
 11
115.37378286
 21
43.51147093
 31
0.0
  0
LINE
  5
340
100
AcDbEntity
  8
レイヤー_1
  6
CONTINUOUS
 62
       3
100
AcDbLine
 10
115.37378286
 20
43.51147093
 30
0.0
 11
115.04944715
 21
43.6106892
 31
0.0
  0
LINE
  5
341
100
AcDbEntity
  8
レイヤー_1
  6
CONTINUOUS
 62
       3
100
AcDbLine
 10
115.04944715
 20
43.6106892
 30
0.0
 11
114.71258077
 21
43.67849198
 31
0.0
  0
LINE
  5
342
100
AcDbEntity
  8
レイヤー_1
  6
CONTINUOUS
 62
       3
100
AcDbLine
 10
114.71258077
 20
43.67849198
 30
0.0
 11
114.36486128
 21
43.71319864
 31
0.0
  0
LINE
  5
343
100
AcDbEntity
  8
レイヤー_1
  6
CONTINUOUS
 62
       3
100
AcDbLine
 10
114.36486128
 20
43.71319864
 30
0.0
 11
114.01012755
 21
43.71319864
 31
0.0
  0
LINE
  5
344
100
AcDbEntity
  8
レイヤー_1
  6
CONTINUOUS
 62
       3
100
AcDbLine
 10
114.01012755
 20
43.71319864
 30
0.0
 11
113.66254817
 21
43.67849198
 31
0.0
  0
LINE
  5
345
100
AcDbEntity
  8
レイヤー_1
  6
CONTINUOUS
 62
       3
100
AcDbLine
 10
113.66254817
 20
43.67849198
 30
0.0
 11
113.32580411
 21
43.6106892
 31
0.0
  0
LINE
  5
346
100
AcDbEntity
  8
レイヤー_1
  6
CONTINUOUS
 62
       3
100
AcDbLine
 10
113.32580411
 20
43.6106892
 30
0.0
 11
113.00157415
 21
43.51147093
 31
0.0
  0
LINE
  5
347
100
AcDbEntity
  8
レイヤー_1
  6
CONTINUOUS
 62
       3
100
AcDbLine
 10
113.00157415
 20
43.51147093
 30
0.0
 11
112.69153711
 21
43.38251774
 31
0.0
  0
LINE
  5
348
100
AcDbEntity
  8
レイヤー_1
  6
CONTINUOUS
 62
       3
100
AcDbLine
 10
112.69153711
 20
43.38251774
 30
0.0
 11
112.39737176
 21
43.22551023
 31
0.0
  0
LINE
  5
349
100
AcDbEntity
  8
レイヤー_1
  6
CONTINUOUS
 62
       3
100
AcDbLine
 10
112.39737176
 20
43.22551023
 30
0.0
 11
112.12075688
 21
43.04212899
 31
0.0
  0
LINE
  5
34A
100
AcDbEntity
  8
レイヤー_1
  6
CONTINUOUS
 62
       3
100
AcDbLine
 10
112.12075688
 20
43.04212899
 30
0.0
 11
111.86337126
 21
42.8340546
 31
0.0
  0
LINE
  5
34B
100
AcDbEntity
  8
レイヤー_1
  6
CONTINUOUS
 62
       3
100
AcDbLine
 10
111.86337126
 20
42.8340546
 30
0.0
 11
111.62689369
 21
42.60296767
 31
0.0
  0
LINE
  5
34C
100
AcDbEntity
  8
レイヤー_1
  6
CONTINUOUS
 62
       3
100
AcDbLine
 10
111.62689369
 20
42.60296767
 30
0.0
 11
111.41300293
 21
42.35054878
 31
0.0
  0
LINE
  5
34D
100
AcDbEntity
  8
レイヤー_1
  6
CONTINUOUS
 62
       3
100
AcDbLine
 10
111.41300293
 20
42.35054878
 30
0.0
 11
111.2233778
 21
42.07847854
 31
0.0
  0
LINE
  5
34E
100
AcDbEntity
  8
レイヤー_1
  6
CONTINUOUS
 62
       3
100
AcDbLine
 10
111.2233778
 20
42.07847854
 30
0.0
 11
111.05969708
 21
41.78843752
 31
0.0
  0
LINE
  5
34F
100
AcDbEntity
  8
レイヤー_1
  6
CONTINUOUS
 62
       3
100
AcDbLine
 10
111.05969708
 20
41.78843752
 30
0.0
 11
110.92363953
 21
41.4821063
 31
0.0
  0
LINE
  5
350
100
AcDbEntity
  8
レイヤー_1
  6
CONTINUOUS
 62
       3
100
AcDbLine
 10
110.92363953
 20
41.4821063
 30
0.0
 11
110.81688396
 21
41.16116552
 31
0.0
  0
LINE
  5
351
100
AcDbEntity
  8
レイヤー_1
  6
CONTINUOUS
 62
       3
100
AcDbLine
 10
110.81688396
 20
41.16116552
 30
0.0
 11
110.74110914
 21
40.82729573
 31
0.0
  0
LINE
  5
352
100
AcDbEntity
  8
レイヤー_1
  6
CONTINUOUS
 62
       3
100
AcDbLine
 10
110.74110914
 20
40.82729573
 30
0.0
 11
110.69799387
 21
40.48217753
 31
0.0
  0
LINE
  5
353
100
AcDbEntity
  8
レイヤー_1
  6
CONTINUOUS
 62
       3
100
AcDbLine
 10
110.69799387
 20
40.48217753
 30
0.0
 11
110.68920819
 21
40.12801165
 31
0.0
  0
LINE
  5
354
100
AcDbEntity
  8
レイヤー_1
  6
CONTINUOUS
 62
       3
100
AcDbLine
 10
110.68920819
 20
40.12801165
 30
0.0
 11
110.71536415
 21
39.77792033
 31
0.0
  0
LINE
  5
355
100
AcDbEntity
  8
レイヤー_1
  6
CONTINUOUS
 62
       3
100
AcDbLine
 10
110.71536415
 20
39.77792033
 30
0.0
 11
110.77501903
 21
39.43826195
 31
0.0
  0
LINE
  5
356
100
AcDbEntity
  8
レイヤー_1
  6
CONTINUOUS
 62
       3
100
AcDbLine
 10
110.77501903
 20
39.43826195
 30
0.0
 11
110.86649407
 21
39.1107135
 31
0.0
  0
LINE
  5
357
100
AcDbEntity
  8
レイヤー_1
  6
CONTINUOUS
 62
       3
100
AcDbLine
 10
110.86649407
 20
39.1107135
 30
0.0
 11
110.98811048
 21
38.79695195
 31
0.0
  0
LINE
  5
358
100
AcDbEntity
  8
レイヤー_1
  6
CONTINUOUS
 62
       3
100
AcDbLine
 10
110.98811048
 20
38.79695195
 30
0.0
 11
111.13818946
 21
38.49865429
 31
0.0
  0
LINE
  5
359
100
AcDbEntity
  8
レイヤー_1
  6
CONTINUOUS
 62
       3
100
AcDbLine
 10
111.13818946
 20
38.49865429
 30
0.0
 11
111.31505224
 21
38.21749749
 31
0.0
  0
LINE
  5
35A
100
AcDbEntity
  8
レイヤー_1
  6
CONTINUOUS
 62
       3
100
AcDbLine
 10
111.31505224
 20
38.21749749
 30
0.0
 11
111.51702004
 21
37.95515852
 31
0.0
  0
LINE
  5
35B
100
AcDbEntity
  8
レイヤー_1
  6
CONTINUOUS
 62
       3
100
AcDbLine
 10
111.51702004
 20
37.95515852
 30
0.0
 11
111.74241405
 21
37.7133144
 31
0.0
  0
LINE
  5
35C
100
AcDbEntity
  8
レイヤー_1
  6
CONTINUOUS
 62
       3
100
AcDbLine
 10
111.74241405
 20
37.7133144
 30
0.0
 11
111.98955548
 21
37.49364205
 31
0.0
  0
LINE
  5
35D
100
AcDbEntity
  8
レイヤー_1
  6
CONTINUOUS
 62
       3
100
AcDbLine
 10
111.98955548
 20
37.49364205
 30
0.0
 11
112.25676558
 21
37.2978185
 31
0.0
  0
LINE
  5
35E
100
AcDbEntity
  8
レイヤー_1
  6
CONTINUOUS
 62
       3
100
AcDbLine
 10
112.25676558
 20
37.2978185
 30
0.0
 11
112.54236555
 21
37.12752071
 31
0.0
  0
LINE
  5
35F
100
AcDbEntity
  8
レイヤー_1
  6
CONTINUOUS
 62
       3
100
AcDbLine
 10
112.54236555
 20
37.12752071
 30
0.0
 11
112.84467659
 21
36.98442565
 31
0.0
  0
LINE
  5
360
100
AcDbEntity
  8
レイヤー_1
  6
CONTINUOUS
 62
       3
100
AcDbLine
 10
112.84467659
 20
36.98442565
 30
0.0
 11
113.16201994
 21
36.8702103
 31
0.0
  0
LINE
  5
361
100
AcDbEntity
  8
レイヤー_1
  6
CONTINUOUS
 62
       3
100
AcDbLine
 10
113.16201994
 20
36.8702103
 30
0.0
 11
113.49271679
 21
36.78655165
 31
0.0
  0
LINE
  5
362
100
AcDbEntity
  8
レイヤー_1
  6
CONTINUOUS
 62
       3
100
AcDbLine
 10
113.49271679
 20
36.78655165
 30
0.0
 11
113.83508836
 21
36.73512668
 31
0.0
  0
LINE
  5
363
100
AcDbEntity
  8
レイヤー_1
  6
CONTINUOUS
 62
       3
100
AcDbLine
 10
113.83508836
 20
36.73512668
 30
0.0
 11
114.18745588
 21
36.71761236
 31
0.0
  0
LINE
  5
364
100
AcDbEntity
  8
レイヤー_1
  6
CONTINUOUS
 62
       3
100
AcDbLine
 10
36.24780612
 20
35.76245964
 30
0.0
 11
36.36919198
 21
35.76245964
 31
0.0
  0
LINE
  5
365
100
AcDbEntity
  8
レイヤー_1
  6
CONTINUOUS
 62
       3
100
AcDbLine
 10
36.36919198
 20
35.76245964
 30
0.0
 11
36.71135632
 21
35.76245964
 31
0.0
  0
LINE
  5
366
100
AcDbEntity
  8
レイヤー_1
  6
CONTINUOUS
 62
       3
100
AcDbLine
 10
36.71135632
 20
35.76245964
 30
0.0
 11
37.24130925
 21
35.76245964
 31
0.0
  0
LINE
  5
367
100
AcDbEntity
  8
レイヤー_1
  6
CONTINUOUS
 62
       3
100
AcDbLine
 10
37.24130925
 20
35.76245964
 30
0.0
 11
37.92606087
 21
35.76245964
 31
0.0
  0
LINE
  5
368
100
AcDbEntity
  8
レイヤー_1
  6
CONTINUOUS
 62
       3
100
AcDbLine
 10
37.92606087
 20
35.76245964
 30
0.0
 11
38.73262131
 21
35.76245964
 31
0.0
  0
LINE
  5
369
100
AcDbEntity
  8
レイヤー_1
  6
CONTINUOUS
 62
       3
100
AcDbLine
 10
38.73262131
 20
35.76245964
 30
0.0
 11
39.62800068
 21
35.76245964
 31
0.0
  0
LINE
  5
36A
100
AcDbEntity
  8
レイヤー_1
  6
CONTINUOUS
 62
       3
100
AcDbLine
 10
39.62800068
 20
35.76245964
 30
0.0
 11
40.57920908
 21
35.76245964
 31
0.0
  0
LINE
  5
36B
100
AcDbEntity
  8
レイヤー_1
  6
CONTINUOUS
 62
       3
100
AcDbLine
 10
40.57920908
 20
35.76245964
 30
0.0
 11
41.55325664
 21
35.76245964
 31
0.0
  0
LINE
  5
36C
100
AcDbEntity
  8
レイヤー_1
  6
CONTINUOUS
 62
       3
100
AcDbLine
 10
41.55325664
 20
35.76245964
 30
0.0
 11
42.51715346
 21
35.76245964
 31
0.0
  0
LINE
  5
36D
100
AcDbEntity
  8
レイヤー_1
  6
CONTINUOUS
 62
       3
100
AcDbLine
 10
42.51715346
 20
35.76245964
 30
0.0
 11
43.43790966
 21
35.76245964
 31
0.0
  0
LINE
  5
36E
100
AcDbEntity
  8
レイヤー_1
  6
CONTINUOUS
 62
       3
100
AcDbLine
 10
43.43790966
 20
35.76245964
 30
0.0
 11
44.28253535
 21
35.76245964
 31
0.0
  0
LINE
  5
36F
100
AcDbEntity
  8
レイヤー_1
  6
CONTINUOUS
 62
       3
100
AcDbLine
 10
44.28253535
 20
35.76245964
 30
0.0
 11
45.01804065
 21
35.76245964
 31
0.0
  0
LINE
  5
370
100
AcDbEntity
  8
レイヤー_1
  6
CONTINUOUS
 62
       3
100
AcDbLine
 10
45.01804065
 20
35.76245964
 30
0.0
 11
45.61143566
 21
35.76245964
 31
0.0
  0
LINE
  5
371
100
AcDbEntity
  8
レイヤー_1
  6
CONTINUOUS
 62
       3
100
AcDbLine
 10
45.61143566
 20
35.76245964
 30
0.0
 11
46.02973051
 21
35.76245964
 31
0.0
  0
LINE
  5
372
100
AcDbEntity
  8
レイヤー_1
  6
CONTINUOUS
 62
       3
100
AcDbLine
 10
46.02973051
 20
35.76245964
 30
0.0
 11
46.2399353
 21
35.76245964
 31
0.0
  0
LINE
  5
373
100
AcDbEntity
  8
レイヤー_1
  6
CONTINUOUS
 62
       3
100
AcDbLine
 10
46.2399353
 20
35.76245964
 30
0.0
 11
46.25839232
 21
35.80222153
 31
0.0
  0
LINE
  5
374
100
AcDbEntity
  8
レイヤー_1
  6
CONTINUOUS
 62
       3
100
AcDbLine
 10
46.25839232
 20
35.80222153
 30
0.0
 11
46.25839232
 21
36.02424596
 31
0.0
  0
LINE
  5
375
100
AcDbEntity
  8
レイヤー_1
  6
CONTINUOUS
 62
       3
100
AcDbLine
 10
46.25839232
 20
36.02424596
 30
0.0
 11
46.25839232
 21
36.41670948
 31
0.0
  0
LINE
  5
376
100
AcDbEntity
  8
レイヤー_1
  6
CONTINUOUS
 62
       3
100
AcDbLine
 10
46.25839232
 20
36.41670948
 30
0.0
 11
46.25839232
 21
36.95156516
 31
0.0
  0
LINE
  5
377
100
AcDbEntity
  8
レイヤー_1
  6
CONTINUOUS
 62
       3
100
AcDbLine
 10
46.25839232
 20
36.95156516
 30
0.0
 11
46.25839232
 21
37.60076604
 31
0.0
  0
LINE
  5
378
100
AcDbEntity
  8
レイヤー_1
  6
CONTINUOUS
 62
       3
100
AcDbLine
 10
46.25839232
 20
37.60076604
 30
0.0
 11
46.25839232
 21
38.33626519
 31
0.0
  0
LINE
  5
379
100
AcDbEntity
  8
レイヤー_1
  6
CONTINUOUS
 62
       3
100
AcDbLine
 10
46.25839232
 20
38.33626519
 30
0.0
 11
46.25839232
 21
39.13001569
 31
0.0
  0
LINE
  5
37A
100
AcDbEntity
  8
レイヤー_1
  6
CONTINUOUS
 62
       3
100
AcDbLine
 10
46.25839232
 20
39.13001569
 30
0.0
 11
46.25839232
 21
39.95397057
 31
0.0
  0
LINE
  5
37B
100
AcDbEntity
  8
レイヤー_1
  6
CONTINUOUS
 62
       3
100
AcDbLine
 10
46.25839232
 20
39.95397057
 30
0.0
 11
46.25839232
 21
40.7800829
 31
0.0
  0
LINE
  5
37C
100
AcDbEntity
  8
レイヤー_1
  6
CONTINUOUS
 62
       3
100
AcDbLine
 10
46.25839232
 20
40.7800829
 30
0.0
 11
46.25839232
 21
41.58030577
 31
0.0
  0
LINE
  5
37D
100
AcDbEntity
  8
レイヤー_1
  6
CONTINUOUS
 62
       3
100
AcDbLine
 10
46.25839232
 20
41.58030577
 30
0.0
 11
46.25839232
 21
42.32659221
 31
0.0
  0
LINE
  5
37E
100
AcDbEntity
  8
レイヤー_1
  6
CONTINUOUS
 62
       3
100
AcDbLine
 10
46.25839232
 20
42.32659221
 30
0.0
 11
46.25839232
 21
42.99089529
 31
0.0
  0
LINE
  5
37F
100
AcDbEntity
  8
レイヤー_1
  6
CONTINUOUS
 62
       3
100
AcDbLine
 10
46.25839232
 20
42.99089529
 30
0.0
 11
46.25839232
 21
43.54516806
 31
0.0
  0
LINE
  5
380
100
AcDbEntity
  8
レイヤー_1
  6
CONTINUOUS
 62
       3
100
AcDbLine
 10
46.25839232
 20
43.54516806
 30
0.0
 11
46.25839232
 21
43.96136361
 31
0.0
  0
LINE
  5
381
100
AcDbEntity
  8
レイヤー_1
  6
CONTINUOUS
 62
       3
100
AcDbLine
 10
46.25839232
 20
43.96136361
 30
0.0
 11
46.25839232
 21
44.21143498
 31
0.0
  0
LINE
  5
382
100
AcDbEntity
  8
レイヤー_1
  6
CONTINUOUS
 62
       3
100
AcDbLine
 10
46.25839232
 20
44.21143498
 30
0.0
 11
46.25889558
 21
44.30687225
 31
0.0
  0
LINE
  5
383
100
AcDbEntity
  8
レイヤー_1
  6
CONTINUOUS
 62
       3
100
AcDbLine
 10
46.25889558
 20
44.30687225
 30
0.0
 11
46.27239584
 21
44.45266738
 31
0.0
  0
LINE
  5
384
100
AcDbEntity
  8
レイヤー_1
  6
CONTINUOUS
 62
       3
100
AcDbLine
 10
46.27239584
 20
44.45266738
 30
0.0
 11
46.30337321
 21
44.59691454
 31
0.0
  0
LINE
  5
385
100
AcDbEntity
  8
レイヤー_1
  6
CONTINUOUS
 62
       3
100
AcDbLine
 10
46.30337321
 20
44.59691454
 30
0.0
 11
46.35059444
 21
44.73838258
 31
0.0
  0
LINE
  5
386
100
AcDbEntity
  8
レイヤー_1
  6
CONTINUOUS
 62
       3
100
AcDbLine
 10
46.35059444
 20
44.73838258
 30
0.0
 11
46.41282628
 21
44.87584041
 31
0.0
  0
LINE
  5
387
100
AcDbEntity
  8
レイヤー_1
  6
CONTINUOUS
 62
       3
100
AcDbLine
 10
46.41282628
 20
44.87584041
 30
0.0
 11
46.48883547
 21
45.00805687
 31
0.0
  0
LINE
  5
388
100
AcDbEntity
  8
レイヤー_1
  6
CONTINUOUS
 62
       3
100
AcDbLine
 10
46.48883547
 20
45.00805687
 30
0.0
 11
46.57738876
 21
45.13380085
 31
0.0
  0
LINE
  5
389
100
AcDbEntity
  8
レイヤー_1
  6
CONTINUOUS
 62
       3
100
AcDbLine
 10
46.57738876
 20
45.13380085
 30
0.0
 11
46.6772529
 21
45.25184123
 31
0.0
  0
LINE
  5
38A
100
AcDbEntity
  8
レイヤー_1
  6
CONTINUOUS
 62
       3
100
AcDbLine
 10
46.6772529
 20
45.25184123
 30
0.0
 11
46.78719463
 21
45.36094688
 31
0.0
  0
LINE
  5
38B
100
AcDbEntity
  8
レイヤー_1
  6
CONTINUOUS
 62
       3
100
AcDbLine
 10
46.78719463
 20
45.36094688
 30
0.0
 11
46.9059807
 21
45.45988667
 31
0.0
  0
LINE
  5
38C
100
AcDbEntity
  8
レイヤー_1
  6
CONTINUOUS
 62
       3
100
AcDbLine
 10
46.9059807
 20
45.45988667
 30
0.0
 11
47.03237786
 21
45.54742948
 31
0.0
  0
LINE
  5
38D
100
AcDbEntity
  8
レイヤー_1
  6
CONTINUOUS
 62
       3
100
AcDbLine
 10
47.03237786
 20
45.54742948
 30
0.0
 11
47.16515285
 21
45.62234419
 31
0.0
  0
LINE
  5
38E
100
AcDbEntity
  8
レイヤー_1
  6
CONTINUOUS
 62
       3
100
AcDbLine
 10
47.16515285
 20
45.62234419
 30
0.0
 11
47.30307241
 21
45.68339967
 31
0.0
  0
LINE
  5
38F
100
AcDbEntity
  8
レイヤー_1
  6
CONTINUOUS
 62
       3
100
AcDbLine
 10
47.30307241
 20
45.68339967
 30
0.0
 11
47.44490331
 21
45.72936481
 31
0.0
  0
LINE
  5
390
100
AcDbEntity
  8
レイヤー_1
  6
CONTINUOUS
 62
       3
100
AcDbLine
 10
47.44490331
 20
45.72936481
 30
0.0
 11
47.58941227
 21
45.75900847
 31
0.0
  0
LINE
  5
391
100
AcDbEntity
  8
レイヤー_1
  6
CONTINUOUS
 62
       3
100
AcDbLine
 10
47.58941227
 20
45.75900847
 30
0.0
 11
47.73536605
 21
45.77109951
 31
0.0
  0
LINE
  5
392
100
AcDbEntity
  8
レイヤー_1
  6
CONTINUOUS
 62
       3
100
AcDbLine
 10
47.73536605
 20
45.77109951
 30
0.0
 11
47.9326894
 21
45.77132329
 31
0.0
  0
LINE
  5
393
100
AcDbEntity
  8
レイヤー_1
  6
CONTINUOUS
 62
       3
100
AcDbLine
 10
47.9326894
 20
45.77132329
 30
0.0
 11
68.24423895
 21
45.77132329
 31
0.0
  0
LINE
  5
394
100
AcDbEntity
  8
レイヤー_1
  6
CONTINUOUS
 62
       3
100
AcDbLine
 10
67.75466478
 20
16.55777486
 30
0.0
 11
67.70579035
 21
16.55777486
 31
0.0
  0
LINE
  5
395
100
AcDbEntity
  8
レイヤー_1
  6
CONTINUOUS
 62
       3
100
AcDbLine
 10
68.24423895
 20
16.55777486
 30
0.0
 11
67.58047624
 21
16.55777486
 31
0.0
  0
LINE
  5
396
100
AcDbEntity
  8
レイヤー_1
  6
CONTINUOUS
 62
       3
100
AcDbLine
 10
67.58047624
 20
16.55777486
 30
0.0
 11
67.3902773
 21
16.55777486
 31
0.0
  0
LINE
  5
397
100
AcDbEntity
  8
レイヤー_1
  6
CONTINUOUS
 62
       3
100
AcDbLine
 10
67.3902773
 20
16.55777486
 30
0.0
 11
67.14674836
 21
16.55777486
 31
0.0
  0
LINE
  5
398
100
AcDbEntity
  8
レイヤー_1
  6
CONTINUOUS
 62
       3
100
AcDbLine
 10
67.14674836
 20
16.55777486
 30
0.0
 11
66.86144425
 21
16.55777486
 31
0.0
  0
LINE
  5
399
100
AcDbEntity
  8
レイヤー_1
  6
CONTINUOUS
 62
       3
100
AcDbLine
 10
66.86144425
 20
16.55777486
 30
0.0
 11
66.54591981
 21
16.55777486
 31
0.0
  0
LINE
  5
39A
100
AcDbEntity
  8
レイヤー_1
  6
CONTINUOUS
 62
       3
100
AcDbLine
 10
66.54591981
 20
16.55777486
 30
0.0
 11
66.21172987
 21
16.55777486
 31
0.0
  0
LINE
  5
39B
100
AcDbEntity
  8
レイヤー_1
  6
CONTINUOUS
 62
       3
100
AcDbLine
 10
66.21172987
 20
16.55777486
 30
0.0
 11
65.87042926
 21
16.55777486
 31
0.0
  0
LINE
  5
39C
100
AcDbEntity
  8
レイヤー_1
  6
CONTINUOUS
 62
       3
100
AcDbLine
 10
65.87042926
 20
16.55777486
 30
0.0
 11
65.53357282
 21
16.55777486
 31
0.0
  0
LINE
  5
39D
100
AcDbEntity
  8
レイヤー_1
  6
CONTINUOUS
 62
       3
100
AcDbLine
 10
65.53357282
 20
16.55777486
 30
0.0
 11
65.21271538
 21
16.55777486
 31
0.0
  0
LINE
  5
39E
100
AcDbEntity
  8
レイヤー_1
  6
CONTINUOUS
 62
       3
100
AcDbLine
 10
65.21271538
 20
16.55777486
 30
0.0
 11
64.91941177
 21
16.55777486
 31
0.0
  0
LINE
  5
39F
100
AcDbEntity
  8
レイヤー_1
  6
CONTINUOUS
 62
       3
100
AcDbLine
 10
64.91941177
 20
16.55777486
 30
0.0
 11
64.66521683
 21
16.55777486
 31
0.0
  0
LINE
  5
3A0
100
AcDbEntity
  8
レイヤー_1
  6
CONTINUOUS
 62
       3
100
AcDbLine
 10
64.66521683
 20
16.55777486
 30
0.0
 11
64.46168539
 21
16.55777486
 31
0.0
  0
LINE
  5
3A1
100
AcDbEntity
  8
レイヤー_1
  6
CONTINUOUS
 62
       3
100
AcDbLine
 10
64.46168539
 20
16.55777486
 30
0.0
 11
64.32037228
 21
16.55777486
 31
0.0
  0
LINE
  5
3A2
100
AcDbEntity
  8
レイヤー_1
  6
CONTINUOUS
 62
       3
100
AcDbLine
 10
64.32037228
 20
16.55777486
 30
0.0
 11
64.25283234
 21
16.55777486
 31
0.0
  0
LINE
  5
3A3
100
AcDbEntity
  8
レイヤー_1
  6
CONTINUOUS
 62
       3
100
AcDbLine
 10
64.25283234
 20
16.55777486
 30
0.0
 11
64.24868095
 21
16.34807987
 31
0.0
  0
LINE
  5
3A4
100
AcDbEntity
  8
レイヤー_1
  6
CONTINUOUS
 62
       3
100
AcDbLine
 10
64.24868095
 20
16.34807987
 30
0.0
 11
64.24868095
 21
15.36075813
 31
0.0
  0
LINE
  5
3A5
100
AcDbEntity
  8
レイヤー_1
  6
CONTINUOUS
 62
       3
100
AcDbLine
 10
64.24868095
 20
15.36075813
 30
0.0
 11
64.24868095
 21
13.6698092
 31
0.0
  0
LINE
  5
3A6
100
AcDbEntity
  8
レイヤー_1
  6
CONTINUOUS
 62
       3
100
AcDbLine
 10
64.24868095
 20
13.6698092
 30
0.0
 11
64.24868095
 21
11.39250429
 31
0.0
  0
LINE
  5
3A7
100
AcDbEntity
  8
レイヤー_1
  6
CONTINUOUS
 62
       3
100
AcDbLine
 10
64.24868095
 20
11.39250429
 30
0.0
 11
64.24868095
 21
8.64611455
 31
0.0
  0
LINE
  5
3A8
100
AcDbEntity
  8
レイヤー_1
  6
CONTINUOUS
 62
       3
100
AcDbLine
 10
64.24868095
 20
8.64611455
 30
0.0
 11
64.24868095
 21
5.54791124
 31
0.0
  0
LINE
  5
3A9
100
AcDbEntity
  8
レイヤー_1
  6
CONTINUOUS
 62
       3
100
AcDbLine
 10
64.24868095
 20
5.54791124
 30
0.0
 11
64.24868095
 21
2.21516551
 31
0.0
  0
LINE
  5
3AA
100
AcDbEntity
  8
レイヤー_1
  6
CONTINUOUS
 62
       3
100
AcDbLine
 10
64.24868095
 20
2.21516551
 30
0.0
 11
64.24868095
 21
-1.23485141
 31
0.0
  0
LINE
  5
3AB
100
AcDbEntity
  8
レイヤー_1
  6
CONTINUOUS
 62
       3
100
AcDbLine
 10
64.24868095
 20
-1.23485141
 30
0.0
 11
64.24868095
 21
-4.68486834
 31
0.0
  0
LINE
  5
3AC
100
AcDbEntity
  8
レイヤー_1
  6
CONTINUOUS
 62
       3
100
AcDbLine
 10
64.24868095
 20
-4.68486834
 30
0.0
 11
64.24868095
 21
-8.01761405
 31
0.0
  0
LINE
  5
3AD
100
AcDbEntity
  8
レイヤー_1
  6
CONTINUOUS
 62
       3
100
AcDbLine
 10
64.24868095
 20
-8.01761405
 30
0.0
 11
64.24868095
 21
-11.11581739
 31
0.0
  0
LINE
  5
3AE
100
AcDbEntity
  8
レイヤー_1
  6
CONTINUOUS
 62
       3
100
AcDbLine
 10
64.24868095
 20
-11.11581739
 30
0.0
 11
64.24868095
 21
-13.8622071
 31
0.0
  0
LINE
  5
3AF
100
AcDbEntity
  8
レイヤー_1
  6
CONTINUOUS
 62
       3
100
AcDbLine
 10
64.24868095
 20
-13.8622071
 30
0.0
 11
64.24868095
 21
-16.13951203
 31
0.0
  0
LINE
  5
3B0
100
AcDbEntity
  8
レイヤー_1
  6
CONTINUOUS
 62
       3
100
AcDbLine
 10
64.24868095
 20
-16.13951203
 30
0.0
 11
64.24868095
 21
-17.83046096
 31
0.0
  0
LINE
  5
3B1
100
AcDbEntity
  8
レイヤー_1
  6
CONTINUOUS
 62
       3
100
AcDbLine
 10
64.24868095
 20
-17.83046096
 30
0.0
 11
64.24868095
 21
-18.81778268
 31
0.0
  0
LINE
  5
3B2
100
AcDbEntity
  8
レイヤー_1
  6
CONTINUOUS
 62
       3
100
AcDbLine
 10
64.24868095
 20
-18.81778268
 30
0.0
 11
64.25283234
 21
-19.02747768
 31
0.0
  0
LINE
  5
3B3
100
AcDbEntity
  8
レイヤー_1
  6
CONTINUOUS
 62
       3
100
AcDbLine
 10
64.25283234
 20
-19.02747768
 30
0.0
 11
64.32037228
 21
-19.02747768
 31
0.0
  0
LINE
  5
3B4
100
AcDbEntity
  8
レイヤー_1
  6
CONTINUOUS
 62
       3
100
AcDbLine
 10
64.32037228
 20
-19.02747768
 30
0.0
 11
64.46168539
 21
-19.02747768
 31
0.0
  0
LINE
  5
3B5
100
AcDbEntity
  8
レイヤー_1
  6
CONTINUOUS
 62
       3
100
AcDbLine
 10
64.46168539
 20
-19.02747768
 30
0.0
 11
64.66521683
 21
-19.02747768
 31
0.0
  0
LINE
  5
3B6
100
AcDbEntity
  8
レイヤー_1
  6
CONTINUOUS
 62
       3
100
AcDbLine
 10
64.66521683
 20
-19.02747768
 30
0.0
 11
64.91941177
 21
-19.02747768
 31
0.0
  0
LINE
  5
3B7
100
AcDbEntity
  8
レイヤー_1
  6
CONTINUOUS
 62
       3
100
AcDbLine
 10
64.91941177
 20
-19.02747768
 30
0.0
 11
65.21271538
 21
-19.02747768
 31
0.0
  0
LINE
  5
3B8
100
AcDbEntity
  8
レイヤー_1
  6
CONTINUOUS
 62
       3
100
AcDbLine
 10
65.21271538
 20
-19.02747768
 30
0.0
 11
65.53357282
 21
-19.02747768
 31
0.0
  0
LINE
  5
3B9
100
AcDbEntity
  8
レイヤー_1
  6
CONTINUOUS
 62
       3
100
AcDbLine
 10
65.53357282
 20
-19.02747768
 30
0.0
 11
65.87042926
 21
-19.02747768
 31
0.0
  0
LINE
  5
3BA
100
AcDbEntity
  8
レイヤー_1
  6
CONTINUOUS
 62
       3
100
AcDbLine
 10
65.87042926
 20
-19.02747768
 30
0.0
 11
66.21172987
 21
-19.02747768
 31
0.0
  0
LINE
  5
3BB
100
AcDbEntity
  8
レイヤー_1
  6
CONTINUOUS
 62
       3
100
AcDbLine
 10
66.21172987
 20
-19.02747768
 30
0.0
 11
66.54591981
 21
-19.02747768
 31
0.0
  0
LINE
  5
3BC
100
AcDbEntity
  8
レイヤー_1
  6
CONTINUOUS
 62
       3
100
AcDbLine
 10
66.54591981
 20
-19.02747768
 30
0.0
 11
66.86144425
 21
-19.02747768
 31
0.0
  0
LINE
  5
3BD
100
AcDbEntity
  8
レイヤー_1
  6
CONTINUOUS
 62
       3
100
AcDbLine
 10
66.86144425
 20
-19.02747768
 30
0.0
 11
67.14674836
 21
-19.02747768
 31
0.0
  0
LINE
  5
3BE
100
AcDbEntity
  8
レイヤー_1
  6
CONTINUOUS
 62
       3
100
AcDbLine
 10
67.14674836
 20
-19.02747768
 30
0.0
 11
67.3902773
 21
-19.02747768
 31
0.0
  0
LINE
  5
3BF
100
AcDbEntity
  8
レイヤー_1
  6
CONTINUOUS
 62
       3
100
AcDbLine
 10
67.3902773
 20
-19.02747768
 30
0.0
 11
67.58047624
 21
-19.02747768
 31
0.0
  0
LINE
  5
3C0
100
AcDbEntity
  8
レイヤー_1
  6
CONTINUOUS
 62
       3
100
AcDbLine
 10
67.58047624
 20
-19.02747768
 30
0.0
 11
68.24423895
 21
-19.02747768
 31
0.0
  0
LINE
  5
3C1
100
AcDbEntity
  8
レイヤー_1
  6
CONTINUOUS
 62
       3
100
AcDbLine
 10
67.70579035
 20
-19.02747768
 30
0.0
 11
67.75466478
 21
-19.02747768
 31
0.0
  0
LINE
  5
3C2
100
AcDbEntity
  8
レイヤー_1
  6
CONTINUOUS
 62
       3
100
AcDbLine
 10
68.24423895
 20
-48.21992492
 30
0.0
 11
66.30132582
 21
-48.21992492
 31
0.0
  0
LINE
  5
3C3
100
AcDbEntity
  8
レイヤー_1
  6
CONTINUOUS
 62
       3
100
AcDbLine
 10
66.30132582
 20
-48.21992492
 30
0.0
 11
65.06800235
 21
-48.21992492
 31
0.0
  0
LINE
  5
3C4
100
AcDbEntity
  8
レイヤー_1
  6
CONTINUOUS
 62
       3
100
AcDbLine
 10
65.06800235
 20
-48.21992492
 30
0.0
 11
63.56093917
 21
-48.21992492
 31
0.0
  0
LINE
  5
3C5
100
AcDbEntity
  8
レイヤー_1
  6
CONTINUOUS
 62
       3
100
AcDbLine
 10
63.56093917
 20
-48.21992492
 30
0.0
 11
61.84603657
 21
-48.21992492
 31
0.0
  0
LINE
  5
3C6
100
AcDbEntity
  8
レイヤー_1
  6
CONTINUOUS
 62
       3
100
AcDbLine
 10
61.84603657
 20
-48.21992492
 30
0.0
 11
59.98919487
 21
-48.21992492
 31
0.0
  0
LINE
  5
3C7
100
AcDbEntity
  8
レイヤー_1
  6
CONTINUOUS
 62
       3
100
AcDbLine
 10
59.98919487
 20
-48.21992492
 30
0.0
 11
58.05631436
 21
-48.21992492
 31
0.0
  0
LINE
  5
3C8
100
AcDbEntity
  8
レイヤー_1
  6
CONTINUOUS
 62
       3
100
AcDbLine
 10
58.05631436
 20
-48.21992492
 30
0.0
 11
56.11329534
 21
-48.21992492
 31
0.0
  0
LINE
  5
3C9
100
AcDbEntity
  8
レイヤー_1
  6
CONTINUOUS
 62
       3
100
AcDbLine
 10
56.11329534
 20
-48.21992492
 30
0.0
 11
54.22603812
 21
-48.21992492
 31
0.0
  0
LINE
  5
3CA
100
AcDbEntity
  8
レイヤー_1
  6
CONTINUOUS
 62
       3
100
AcDbLine
 10
54.22603812
 20
-48.21992492
 30
0.0
 11
52.46044299
 21
-48.21992492
 31
0.0
  0
LINE
  5
3CB
100
AcDbEntity
  8
レイヤー_1
  6
CONTINUOUS
 62
       3
100
AcDbLine
 10
52.46044299
 20
-48.21992492
 30
0.0
 11
50.88241025
 21
-48.21992492
 31
0.0
  0
LINE
  5
3CC
100
AcDbEntity
  8
レイヤー_1
  6
CONTINUOUS
 62
       3
100
AcDbLine
 10
50.88241025
 20
-48.21992492
 30
0.0
 11
49.5578402
 21
-48.21992492
 31
0.0
  0
LINE
  5
3CD
100
AcDbEntity
  8
レイヤー_1
  6
CONTINUOUS
 62
       3
100
AcDbLine
 10
49.5578402
 20
-48.21992492
 30
0.0
 11
48.55263316
 21
-48.21992492
 31
0.0
  0
LINE
  5
3CE
100
AcDbEntity
  8
レイヤー_1
  6
CONTINUOUS
 62
       3
100
AcDbLine
 10
48.55263316
 20
-48.21992492
 30
0.0
 11
47.9326894
 21
-48.21992492
 31
0.0
  0
LINE
  5
3CF
100
AcDbEntity
  8
レイヤー_1
  6
CONTINUOUS
 62
       3
100
AcDbLine
 10
47.9326894
 20
-48.21992492
 30
0.0
 11
47.73536605
 21
-48.21970074
 31
0.0
  0
LINE
  5
3D0
100
AcDbEntity
  8
レイヤー_1
  6
CONTINUOUS
 62
       3
100
AcDbLine
 10
47.73536605
 20
-48.21970074
 30
0.0
 11
47.58941227
 21
-48.20758937
 31
0.0
  0
LINE
  5
3D1
100
AcDbEntity
  8
レイヤー_1
  6
CONTINUOUS
 62
       3
100
AcDbLine
 10
47.58941227
 20
-48.20758937
 30
0.0
 11
47.44490331
 21
-48.17789756
 31
0.0
  0
LINE
  5
3D2
100
AcDbEntity
  8
レイヤー_1
  6
CONTINUOUS
 62
       3
100
AcDbLine
 10
47.44490331
 20
-48.17789756
 30
0.0
 11
47.30307241
 21
-48.13186067
 31
0.0
  0
LINE
  5
3D3
100
AcDbEntity
  8
レイヤー_1
  6
CONTINUOUS
 62
       3
100
AcDbLine
 10
47.30307241
 20
-48.13186067
 30
0.0
 11
47.16515285
 21
-48.07071413
 31
0.0
  0
LINE
  5
3D4
100
AcDbEntity
  8
レイヤー_1
  6
CONTINUOUS
 62
       3
100
AcDbLine
 10
47.16515285
 20
-48.07071413
 30
0.0
 11
47.03237786
 21
-47.99569329
 31
0.0
  0
LINE
  5
3D5
100
AcDbEntity
  8
レイヤー_1
  6
CONTINUOUS
 62
       3
100
AcDbLine
 10
47.03237786
 20
-47.99569329
 30
0.0
 11
46.9059807
 21
-47.90803353
 31
0.0
  0
LINE
  5
3D6
100
AcDbEntity
  8
レイヤー_1
  6
CONTINUOUS
 62
       3
100
AcDbLine
 10
46.9059807
 20
-47.90803353
 30
0.0
 11
46.78719463
 21
-47.80897024
 31
0.0
  0
LINE
  5
3D7
100
AcDbEntity
  8
レイヤー_1
  6
CONTINUOUS
 62
       3
100
AcDbLine
 10
46.78719463
 20
-47.80897024
 30
0.0
 11
46.6772529
 21
-47.69973882
 31
0.0
  0
LINE
  5
3D8
100
AcDbEntity
  8
レイヤー_1
  6
CONTINUOUS
 62
       3
100
AcDbLine
 10
46.6772529
 20
-47.69973882
 30
0.0
 11
46.57738876
 21
-47.58157463
 31
0.0
  0
LINE
  5
3D9
100
AcDbEntity
  8
レイヤー_1
  6
CONTINUOUS
 62
       3
100
AcDbLine
 10
46.57738876
 20
-47.58157463
 30
0.0
 11
46.48883547
 21
-47.45571305
 31
0.0
  0
LINE
  5
3DA
100
AcDbEntity
  8
レイヤー_1
  6
CONTINUOUS
 62
       3
100
AcDbLine
 10
46.48883547
 20
-47.45571305
 30
0.0
 11
46.41282628
 21
-47.32338947
 31
0.0
  0
LINE
  5
3DB
100
AcDbEntity
  8
レイヤー_1
  6
CONTINUOUS
 62
       3
100
AcDbLine
 10
46.41282628
 20
-47.32338947
 30
0.0
 11
46.35059444
 21
-47.18583929
 31
0.0
  0
LINE
  5
3DC
100
AcDbEntity
  8
レイヤー_1
  6
CONTINUOUS
 62
       3
100
AcDbLine
 10
46.35059444
 20
-47.18583929
 30
0.0
 11
46.30337321
 21
-47.04429786
 31
0.0
  0
LINE
  5
3DD
100
AcDbEntity
  8
レイヤー_1
  6
CONTINUOUS
 62
       3
100
AcDbLine
 10
46.30337321
 20
-47.04429786
 30
0.0
 11
46.27239584
 21
-46.90000058
 31
0.0
  0
LINE
  5
3DE
100
AcDbEntity
  8
レイヤー_1
  6
CONTINUOUS
 62
       3
100
AcDbLine
 10
46.27239584
 20
-46.90000058
 30
0.0
 11
46.25889558
 21
-46.75418283
 31
0.0
  0
LINE
  5
3DF
100
AcDbEntity
  8
レイヤー_1
  6
CONTINUOUS
 62
       3
100
AcDbLine
 10
46.25889558
 20
-46.75418283
 30
0.0
 11
46.25839232
 21
-46.6587447
 31
0.0
  0
LINE
  5
3E0
100
AcDbEntity
  8
レイヤー_1
  6
CONTINUOUS
 62
       3
100
AcDbLine
 10
46.25839232
 20
-46.6587447
 30
0.0
 11
46.25839232
 21
-46.40867332
 31
0.0
  0
LINE
  5
3E1
100
AcDbEntity
  8
レイヤー_1
  6
CONTINUOUS
 62
       3
100
AcDbLine
 10
46.25839232
 20
-46.40867332
 30
0.0
 11
46.25839232
 21
-45.99247777
 31
0.0
  0
LINE
  5
3E2
100
AcDbEntity
  8
レイヤー_1
  6
CONTINUOUS
 62
       3
100
AcDbLine
 10
46.25839232
 20
-45.99247777
 30
0.0
 11
46.25839232
 21
-45.43820498
 31
0.0
  0
LINE
  5
3E3
100
AcDbEntity
  8
レイヤー_1
  6
CONTINUOUS
 62
       3
100
AcDbLine
 10
46.25839232
 20
-45.43820498
 30
0.0
 11
46.25839232
 21
-44.77390191
 31
0.0
  0
LINE
  5
3E4
100
AcDbEntity
  8
レイヤー_1
  6
CONTINUOUS
 62
       3
100
AcDbLine
 10
46.25839232
 20
-44.77390191
 30
0.0
 11
46.25839232
 21
-44.02761547
 31
0.0
  0
LINE
  5
3E5
100
AcDbEntity
  8
レイヤー_1
  6
CONTINUOUS
 62
       3
100
AcDbLine
 10
46.25839232
 20
-44.02761547
 30
0.0
 11
46.25839232
 21
-43.22739261
 31
0.0
  0
LINE
  5
3E6
100
AcDbEntity
  8
レイヤー_1
  6
CONTINUOUS
 62
       3
100
AcDbLine
 10
46.25839232
 20
-43.22739261
 30
0.0
 11
46.25839232
 21
-42.40128027
 31
0.0
  0
LINE
  5
3E7
100
AcDbEntity
  8
レイヤー_1
  6
CONTINUOUS
 62
       3
100
AcDbLine
 10
46.25839232
 20
-42.40128027
 30
0.0
 11
46.25839232
 21
-41.57732539
 31
0.0
  0
LINE
  5
3E8
100
AcDbEntity
  8
レイヤー_1
  6
CONTINUOUS
 62
       3
100
AcDbLine
 10
46.25839232
 20
-41.57732539
 30
0.0
 11
46.25839232
 21
-40.7835749
 31
0.0
  0
LINE
  5
3E9
100
AcDbEntity
  8
レイヤー_1
  6
CONTINUOUS
 62
       3
100
AcDbLine
 10
46.25839232
 20
-40.7835749
 30
0.0
 11
46.25839232
 21
-40.04807575
 31
0.0
  0
LINE
  5
3EA
100
AcDbEntity
  8
レイヤー_1
  6
CONTINUOUS
 62
       3
100
AcDbLine
 10
46.25839232
 20
-40.04807575
 30
0.0
 11
46.25839232
 21
-39.39887486
 31
0.0
  0
LINE
  5
3EB
100
AcDbEntity
  8
レイヤー_1
  6
CONTINUOUS
 62
       3
100
AcDbLine
 10
46.25839232
 20
-39.39887486
 30
0.0
 11
46.25839232
 21
-38.86401919
 31
0.0
  0
LINE
  5
3EC
100
AcDbEntity
  8
レイヤー_1
  6
CONTINUOUS
 62
       3
100
AcDbLine
 10
46.25839232
 20
-38.86401919
 30
0.0
 11
46.25839232
 21
-38.47155566
 31
0.0
  0
LINE
  5
3ED
100
AcDbEntity
  8
レイヤー_1
  6
CONTINUOUS
 62
       3
100
AcDbLine
 10
46.25839232
 20
-38.47155566
 30
0.0
 11
46.25839232
 21
-38.24953124
 31
0.0
  0
LINE
  5
3EE
100
AcDbEntity
  8
レイヤー_1
  6
CONTINUOUS
 62
       3
100
AcDbLine
 10
46.25839232
 20
-38.24953124
 30
0.0
 11
46.2399353
 21
-38.20976934
 31
0.0
  0
LINE
  5
3EF
100
AcDbEntity
  8
レイヤー_1
  6
CONTINUOUS
 62
       3
100
AcDbLine
 10
46.2399353
 20
-38.20976934
 30
0.0
 11
46.02973051
 21
-38.20976934
 31
0.0
  0
LINE
  5
3F0
100
AcDbEntity
  8
レイヤー_1
  6
CONTINUOUS
 62
       3
100
AcDbLine
 10
46.02973051
 20
-38.20976934
 30
0.0
 11
45.61143566
 21
-38.20976934
 31
0.0
  0
LINE
  5
3F1
100
AcDbEntity
  8
レイヤー_1
  6
CONTINUOUS
 62
       3
100
AcDbLine
 10
45.61143566
 20
-38.20976934
 30
0.0
 11
45.01804065
 21
-38.20976934
 31
0.0
  0
LINE
  5
3F2
100
AcDbEntity
  8
レイヤー_1
  6
CONTINUOUS
 62
       3
100
AcDbLine
 10
45.01804065
 20
-38.20976934
 30
0.0
 11
44.28253535
 21
-38.20976934
 31
0.0
  0
LINE
  5
3F3
100
AcDbEntity
  8
レイヤー_1
  6
CONTINUOUS
 62
       3
100
AcDbLine
 10
44.28253535
 20
-38.20976934
 30
0.0
 11
43.43790966
 21
-38.20976934
 31
0.0
  0
LINE
  5
3F4
100
AcDbEntity
  8
レイヤー_1
  6
CONTINUOUS
 62
       3
100
AcDbLine
 10
43.43790966
 20
-38.20976934
 30
0.0
 11
42.51715346
 21
-38.20976934
 31
0.0
  0
LINE
  5
3F5
100
AcDbEntity
  8
レイヤー_1
  6
CONTINUOUS
 62
       3
100
AcDbLine
 10
42.51715346
 20
-38.20976934
 30
0.0
 11
41.55325664
 21
-38.20976934
 31
0.0
  0
LINE
  5
3F6
100
AcDbEntity
  8
レイヤー_1
  6
CONTINUOUS
 62
       3
100
AcDbLine
 10
41.55325664
 20
-38.20976934
 30
0.0
 11
40.57920908
 21
-38.20976934
 31
0.0
  0
LINE
  5
3F7
100
AcDbEntity
  8
レイヤー_1
  6
CONTINUOUS
 62
       3
100
AcDbLine
 10
40.57920908
 20
-38.20976934
 30
0.0
 11
39.62800068
 21
-38.20976934
 31
0.0
  0
LINE
  5
3F8
100
AcDbEntity
  8
レイヤー_1
  6
CONTINUOUS
 62
       3
100
AcDbLine
 10
39.62800068
 20
-38.20976934
 30
0.0
 11
38.73262131
 21
-38.20976934
 31
0.0
  0
LINE
  5
3F9
100
AcDbEntity
  8
レイヤー_1
  6
CONTINUOUS
 62
       3
100
AcDbLine
 10
38.73262131
 20
-38.20976934
 30
0.0
 11
37.92606087
 21
-38.20976934
 31
0.0
  0
LINE
  5
3FA
100
AcDbEntity
  8
レイヤー_1
  6
CONTINUOUS
 62
       3
100
AcDbLine
 10
37.92606087
 20
-38.20976934
 30
0.0
 11
37.24130925
 21
-38.20976934
 31
0.0
  0
LINE
  5
3FB
100
AcDbEntity
  8
レイヤー_1
  6
CONTINUOUS
 62
       3
100
AcDbLine
 10
37.24130925
 20
-38.20976934
 30
0.0
 11
36.71135632
 21
-38.20976934
 31
0.0
  0
LINE
  5
3FC
100
AcDbEntity
  8
レイヤー_1
  6
CONTINUOUS
 62
       3
100
AcDbLine
 10
36.71135632
 20
-38.20976934
 30
0.0
 11
36.36919198
 21
-38.20976934
 31
0.0
  0
LINE
  5
3FD
100
AcDbEntity
  8
レイヤー_1
  6
CONTINUOUS
 62
       3
100
AcDbLine
 10
36.36919198
 20
-38.20976934
 30
0.0
 11
36.24780612
 21
-38.20976934
 31
0.0
  0
LINE
  5
3FE
100
AcDbEntity
  8
レイヤー_1
  6
CONTINUOUS
 62
       3
100
AcDbLine
 10
37.23913234
 20
-36.71072218
 30
0.0
 11
37.24411255
 21
-36.83370256
 31
0.0
  0
LINE
  5
3FF
100
AcDbEntity
  8
レイヤー_1
  6
CONTINUOUS
 62
       3
100
AcDbLine
 10
37.24411255
 20
-36.83370256
 30
0.0
 11
37.25879436
 21
-36.95395152
 31
0.0
  0
LINE
  5
400
100
AcDbEntity
  8
レイヤー_1
  6
CONTINUOUS
 62
       3
100
AcDbLine
 10
37.25879436
 20
-36.95395152
 30
0.0
 11
37.28278956
 21
-37.07108245
 31
0.0
  0
LINE
  5
401
100
AcDbEntity
  8
レイヤー_1
  6
CONTINUOUS
 62
       3
100
AcDbLine
 10
37.28278956
 20
-37.07108245
 30
0.0
 11
37.31570992
 21
-37.18470874
 31
0.0
  0
LINE
  5
402
100
AcDbEntity
  8
レイヤー_1
  6
CONTINUOUS
 62
       3
100
AcDbLine
 10
37.31570992
 20
-37.18470874
 30
0.0
 11
37.35716723
 21
-37.29444381
 31
0.0
  0
LINE
  5
403
100
AcDbEntity
  8
レイヤー_1
  6
CONTINUOUS
 62
       3
100
AcDbLine
 10
37.35716723
 20
-37.29444381
 30
0.0
 11
37.40677327
 21
-37.39990103
 31
0.0
  0
LINE
  5
404
100
AcDbEntity
  8
レイヤー_1
  6
CONTINUOUS
 62
       3
100
AcDbLine
 10
37.40677327
 20
-37.39990103
 30
0.0
 11
37.46413982
 21
-37.50069382
 31
0.0
  0
LINE
  5
405
100
AcDbEntity
  8
レイヤー_1
  6
CONTINUOUS
 62
       3
100
AcDbLine
 10
37.46413982
 20
-37.50069382
 30
0.0
 11
37.52887865
 21
-37.59643555
 31
0.0
  0
LINE
  5
406
100
AcDbEntity
  8
レイヤー_1
  6
CONTINUOUS
 62
       3
100
AcDbLine
 10
37.52887865
 20
-37.59643555
 30
0.0
 11
37.60060156
 21
-37.68673963
 31
0.0
  0
LINE
  5
407
100
AcDbEntity
  8
レイヤー_1
  6
CONTINUOUS
 62
       3
100
AcDbLine
 10
37.60060156
 20
-37.68673963
 30
0.0
 11
37.67892031
 21
-37.77121946
 31
0.0
  0
LINE
  5
408
100
AcDbEntity
  8
レイヤー_1
  6
CONTINUOUS
 62
       3
100
AcDbLine
 10
37.67892031
 20
-37.77121946
 30
0.0
 11
37.7634467
 21
-37.84948841
 31
0.0
  0
LINE
  5
409
100
AcDbEntity
  8
レイヤー_1
  6
CONTINUOUS
 62
       3
100
AcDbLine
 10
37.7634467
 20
-37.84948841
 30
0.0
 11
37.8537925
 21
-37.92115992
 31
0.0
  0
LINE
  5
40A
100
AcDbEntity
  8
レイヤー_1
  6
CONTINUOUS
 62
       3
100
AcDbLine
 10
37.8537925
 20
-37.92115992
 30
0.0
 11
37.94956949
 21
-37.98584734
 31
0.0
  0
LINE
  5
40B
100
AcDbEntity
  8
レイヤー_1
  6
CONTINUOUS
 62
       3
100
AcDbLine
 10
37.94956949
 20
-37.98584734
 30
0.0
 11
38.05038946
 21
-38.04316409
 31
0.0
  0
LINE
  5
40C
100
AcDbEntity
  8
レイヤー_1
  6
CONTINUOUS
 62
       3
100
AcDbLine
 10
38.05038946
 20
-38.04316409
 30
0.0
 11
38.15586418
 21
-38.09272357
 31
0.0
  0
LINE
  5
40D
100
AcDbEntity
  8
レイヤー_1
  6
CONTINUOUS
 62
       3
100
AcDbLine
 10
38.15586418
 20
-38.09272357
 30
0.0
 11
38.26560543
 21
-38.13413917
 31
0.0
  0
LINE
  5
40E
100
AcDbEntity
  8
レイヤー_1
  6
CONTINUOUS
 62
       3
100
AcDbLine
 10
38.26560543
 20
-38.13413917
 30
0.0
 11
38.379225
 21
-38.16702426
 31
0.0
  0
LINE
  5
40F
100
AcDbEntity
  8
レイヤー_1
  6
CONTINUOUS
 62
       3
100
AcDbLine
 10
38.379225
 20
-38.16702426
 30
0.0
 11
38.49633467
 21
-38.19099229
 31
0.0
  0
LINE
  5
410
100
AcDbEntity
  8
レイヤー_1
  6
CONTINUOUS
 62
       3
100
AcDbLine
 10
38.49633467
 20
-38.19099229
 30
0.0
 11
38.61654622
 21
-38.20565661
 31
0.0
  0
LINE
  5
411
100
AcDbEntity
  8
レイヤー_1
  6
CONTINUOUS
 62
       3
100
AcDbLine
 10
38.61654622
 20
-38.20565661
 30
0.0
 11
38.73947143
 21
-38.21063061
 31
0.0
  0
LINE
  5
412
100
AcDbEntity
  8
レイヤー_1
  6
CONTINUOUS
 62
       3
100
AcDbLine
 10
38.73947143
 20
35.75987582
 30
0.0
 11
38.61680439
 21
35.75491139
 31
0.0
  0
LINE
  5
413
100
AcDbEntity
  8
レイヤー_1
  6
CONTINUOUS
 62
       3
100
AcDbLine
 10
38.61680439
 20
35.75491139
 30
0.0
 11
38.49684971
 21
35.74027537
 31
0.0
  0
LINE
  5
414
100
AcDbEntity
  8
レイヤー_1
  6
CONTINUOUS
 62
       3
100
AcDbLine
 10
38.49684971
 20
35.74027537
 30
0.0
 11
38.37999434
 21
35.71635376
 31
0.0
  0
LINE
  5
415
100
AcDbEntity
  8
レイヤー_1
  6
CONTINUOUS
 62
       3
100
AcDbLine
 10
38.37999434
 20
35.71635376
 30
0.0
 11
38.26662518
 21
35.68353251
 31
0.0
  0
LINE
  5
416
100
AcDbEntity
  8
レイヤー_1
  6
CONTINUOUS
 62
       3
100
AcDbLine
 10
38.26662518
 20
35.68353251
 30
0.0
 11
38.15712917
 21
35.64219755
 31
0.0
  0
LINE
  5
417
100
AcDbEntity
  8
レイヤー_1
  6
CONTINUOUS
 62
       3
100
AcDbLine
 10
38.15712917
 20
35.64219755
 30
0.0
 11
38.05189324
 21
35.59273485
 31
0.0
  0
LINE
  5
418
100
AcDbEntity
  8
レイヤー_1
  6
CONTINUOUS
 62
       3
100
AcDbLine
 10
38.05189324
 20
35.59273485
 30
0.0
 11
37.95130431
 21
35.5355304
 31
0.0
  0
LINE
  5
419
100
AcDbEntity
  8
レイヤー_1
  6
CONTINUOUS
 62
       3
100
AcDbLine
 10
37.95130431
 20
35.5355304
 30
0.0
 11
37.85574931
 21
35.47097011
 31
0.0
  0
LINE
  5
41A
100
AcDbEntity
  8
レイヤー_1
  6
CONTINUOUS
 62
       3
100
AcDbLine
 10
37.85574931
 20
35.47097011
 30
0.0
 11
37.76561517
 21
35.39943997
 31
0.0
  0
LINE
  5
41B
100
AcDbEntity
  8
レイヤー_1
  6
CONTINUOUS
 62
       3
100
AcDbLine
 10
37.76561517
 20
35.39943997
 30
0.0
 11
37.68128882
 21
35.32132593
 31
0.0
  0
LINE
  5
41C
100
AcDbEntity
  8
レイヤー_1
  6
CONTINUOUS
 62
       3
100
AcDbLine
 10
37.68128882
 20
35.32132593
 30
0.0
 11
37.60315717
 21
35.23701394
 31
0.0
  0
LINE
  5
41D
100
AcDbEntity
  8
レイヤー_1
  6
CONTINUOUS
 62
       3
100
AcDbLine
 10
37.60315717
 20
35.23701394
 30
0.0
 11
37.53160717
 21
35.14688998
 31
0.0
  0
LINE
  5
41E
100
AcDbEntity
  8
レイヤー_1
  6
CONTINUOUS
 62
       3
100
AcDbLine
 10
37.53160717
 20
35.14688998
 30
0.0
 11
37.46702573
 21
35.05133999
 31
0.0
  0
LINE
  5
41F
100
AcDbEntity
  8
レイヤー_1
  6
CONTINUOUS
 62
       3
100
AcDbLine
 10
37.46702573
 20
35.05133999
 30
0.0
 11
37.40979979
 21
34.95074993
 31
0.0
  0
LINE
  5
420
100
AcDbEntity
  8
レイヤー_1
  6
CONTINUOUS
 62
       3
100
AcDbLine
 10
37.40979979
 20
34.95074993
 30
0.0
 11
37.36031627
 21
34.84550575
 31
0.0
  0
LINE
  5
421
100
AcDbEntity
  8
レイヤー_1
  6
CONTINUOUS
 62
       3
100
AcDbLine
 10
37.36031627
 20
34.84550575
 30
0.0
 11
37.31896209
 21
34.73599345
 31
0.0
  0
LINE
  5
422
100
AcDbEntity
  8
レイヤー_1
  6
CONTINUOUS
 62
       3
100
AcDbLine
 10
37.31896209
 20
34.73599345
 30
0.0
 11
37.2861242
 21
34.62259893
 31
0.0
  0
LINE
  5
423
100
AcDbEntity
  8
レイヤー_1
  6
CONTINUOUS
 62
       3
100
AcDbLine
 10
37.2861242
 20
34.62259893
 30
0.0
 11
37.2621895
 21
34.50570818
 31
0.0
  0
LINE
  5
424
100
AcDbEntity
  8
レイヤー_1
  6
CONTINUOUS
 62
       3
100
AcDbLine
 10
37.2621895
 20
34.50570818
 30
0.0
 11
37.24754494
 21
34.38570716
 31
0.0
  0
LINE
  5
425
100
AcDbEntity
  8
レイヤー_1
  6
CONTINUOUS
 62
       3
100
AcDbLine
 10
37.24754494
 20
34.38570716
 30
0.0
 11
37.24257744
 21
34.26298183
 31
0.0
  0
LINE
  5
426
100
AcDbEntity
  8
レイヤー_1
  6
CONTINUOUS
 62
       3
100
AcDbLine
 10
-100.76967025
 20
-51.28304543
 30
0.0
 11
-100.71735623
 21
-51.28034895
 31
0.0
  0
LINE
  5
427
100
AcDbEntity
  8
レイヤー_1
  6
CONTINUOUS
 62
       3
100
AcDbLine
 10
-100.71735623
 20
-51.28034895
 30
0.0
 11
-100.66659306
 21
-51.27243783
 31
0.0
  0
LINE
  5
428
100
AcDbEntity
  8
レイヤー_1
  6
CONTINUOUS
 62
       3
100
AcDbLine
 10
-100.66659306
 20
-51.27243783
 30
0.0
 11
-100.61765098
 21
-51.25957965
 31
0.0
  0
LINE
  5
429
100
AcDbEntity
  8
レイヤー_1
  6
CONTINUOUS
 62
       3
100
AcDbLine
 10
-100.61765098
 20
-51.25957965
 30
0.0
 11
-100.57080025
 21
-51.24204194
 31
0.0
  0
LINE
  5
42A
100
AcDbEntity
  8
レイヤー_1
  6
CONTINUOUS
 62
       3
100
AcDbLine
 10
-100.57080025
 20
-51.24204194
 30
0.0
 11
-100.52631113
 21
-51.22009225
 31
0.0
  0
LINE
  5
42B
100
AcDbEntity
  8
レイヤー_1
  6
CONTINUOUS
 62
       3
100
AcDbLine
 10
-100.52631113
 20
-51.22009225
 30
0.0
 11
-100.48445387
 21
-51.19399811
 31
0.0
  0
LINE
  5
42C
100
AcDbEntity
  8
レイヤー_1
  6
CONTINUOUS
 62
       3
100
AcDbLine
 10
-100.48445387
 20
-51.19399811
 30
0.0
 11
-100.44549873
 21
-51.16402711
 31
0.0
  0
LINE
  5
42D
100
AcDbEntity
  8
レイヤー_1
  6
CONTINUOUS
 62
       3
100
AcDbLine
 10
-100.44549873
 20
-51.16402711
 30
0.0
 11
-100.40971597
 21
-51.13044676
 31
0.0
  0
LINE
  5
42E
100
AcDbEntity
  8
レイヤー_1
  6
CONTINUOUS
 62
       3
100
AcDbLine
 10
-100.40971597
 20
-51.13044676
 30
0.0
 11
-100.37737584
 21
-51.0935246
 31
0.0
  0
LINE
  5
42F
100
AcDbEntity
  8
レイヤー_1
  6
CONTINUOUS
 62
       3
100
AcDbLine
 10
-100.37737584
 20
-51.0935246
 30
0.0
 11
-100.34874859
 21
-51.05352822
 31
0.0
  0
LINE
  5
430
100
AcDbEntity
  8
レイヤー_1
  6
CONTINUOUS
 62
       3
100
AcDbLine
 10
-100.34874859
 20
-51.05352822
 30
0.0
 11
-100.32410449
 21
-51.01072513
 31
0.0
  0
LINE
  5
431
100
AcDbEntity
  8
レイヤー_1
  6
CONTINUOUS
 62
       3
100
AcDbLine
 10
-100.32410449
 20
-51.01072513
 30
0.0
 11
-100.30371379
 21
-50.96538288
 31
0.0
  0
LINE
  5
432
100
AcDbEntity
  8
レイヤー_1
  6
CONTINUOUS
 62
       3
100
AcDbLine
 10
-100.30371379
 20
-50.96538288
 30
0.0
 11
-100.28784674
 21
-50.91776902
 31
0.0
  0
LINE
  5
433
100
AcDbEntity
  8
レイヤー_1
  6
CONTINUOUS
 62
       3
100
AcDbLine
 10
-100.28784674
 20
-50.91776902
 30
0.0
 11
-100.27677361
 21
-50.86815112
 31
0.0
  0
LINE
  5
434
100
AcDbEntity
  8
レイヤー_1
  6
CONTINUOUS
 62
       3
100
AcDbLine
 10
-100.27677361
 20
-50.86815112
 30
0.0
 11
-100.27076464
 21
-50.81679669
 31
0.0
  0
LINE
  5
435
100
AcDbEntity
  8
レイヤー_1
  6
CONTINUOUS
 62
       3
100
AcDbLine
 10
-100.27076464
 20
-50.81679669
 30
0.0
 11
-100.26970077
 21
-50.77883502
 31
0.0
  0
LINE
  5
436
100
AcDbEntity
  8
レイヤー_1
  6
CONTINUOUS
 62
       3
100
AcDbLine
 10
-100.26970077
 20
-50.77883502
 30
0.0
 11
-100.26970077
 21
-50.71831523
 31
0.0
  0
LINE
  5
437
100
AcDbEntity
  8
レイヤー_1
  6
CONTINUOUS
 62
       3
100
AcDbLine
 10
-100.26970077
 20
-50.71831523
 30
0.0
 11
-100.26970077
 21
-50.59702984
 31
0.0
  0
LINE
  5
438
100
AcDbEntity
  8
レイヤー_1
  6
CONTINUOUS
 62
       3
100
AcDbLine
 10
-100.26970077
 20
-50.59702984
 30
0.0
 11
-100.26970077
 21
-47.7404497
 31
0.0
  0
LINE
  5
439
100
AcDbEntity
  8
レイヤー_1
  6
CONTINUOUS
 62
       3
100
AcDbLine
 10
-113.26976858
 20
-47.7404497
 30
0.0
 11
-113.26976858
 21
-50.53780826
 31
0.0
  0
LINE
  5
43A
100
AcDbEntity
  8
レイヤー_1
  6
CONTINUOUS
 62
       3
100
AcDbLine
 10
-113.26976858
 20
-50.53780826
 30
0.0
 11
-113.26976858
 21
-50.67944719
 31
0.0
  0
LINE
  5
43B
100
AcDbEntity
  8
レイヤー_1
  6
CONTINUOUS
 62
       3
100
AcDbLine
 10
-113.26976858
 20
-50.67944719
 30
0.0
 11
-113.26976858
 21
-50.76386025
 31
0.0
  0
LINE
  5
43C
100
AcDbEntity
  8
レイヤー_1
  6
CONTINUOUS
 62
       3
100
AcDbLine
 10
-113.26976858
 20
-50.76386025
 30
0.0
 11
-113.26959698
 21
-50.79714569
 31
0.0
  0
LINE
  5
43D
100
AcDbEntity
  8
レイヤー_1
  6
CONTINUOUS
 62
       3
100
AcDbLine
 10
-113.26959698
 20
-50.79714569
 30
0.0
 11
-113.26554925
 21
-50.84908233
 31
0.0
  0
LINE
  5
43E
100
AcDbEntity
  8
レイヤー_1
  6
CONTINUOUS
 62
       3
100
AcDbLine
 10
-113.26554925
 20
-50.84908233
 30
0.0
 11
-113.25632712
 21
-50.89938279
 31
0.0
  0
LINE
  5
43F
100
AcDbEntity
  8
レイヤー_1
  6
CONTINUOUS
 62
       3
100
AcDbLine
 10
-113.25632712
 20
-50.89938279
 30
0.0
 11
-113.24220219
 21
-50.94777952
 31
0.0
  0
LINE
  5
440
100
AcDbEntity
  8
レイヤー_1
  6
CONTINUOUS
 62
       3
100
AcDbLine
 10
-113.24220219
 20
-50.94777952
 30
0.0
 11
-113.22344608
 21
-50.99400497
 31
0.0
  0
LINE
  5
441
100
AcDbEntity
  8
レイヤー_1
  6
CONTINUOUS
 62
       3
100
AcDbLine
 10
-113.22344608
 20
-50.99400497
 30
0.0
 11
-113.2003304
 21
-51.0377916
 31
0.0
  0
LINE
  5
442
100
AcDbEntity
  8
レイヤー_1
  6
CONTINUOUS
 62
       3
100
AcDbLine
 10
-113.2003304
 20
-51.0377916
 30
0.0
 11
-113.17312676
 21
-51.07887186
 31
0.0
  0
LINE
  5
443
100
AcDbEntity
  8
レイヤー_1
  6
CONTINUOUS
 62
       3
100
AcDbLine
 10
-113.17312676
 20
-51.07887186
 30
0.0
 11
-113.14210677
 21
-51.1169782
 31
0.0
  0
LINE
  5
444
100
AcDbEntity
  8
レイヤー_1
  6
CONTINUOUS
 62
       3
100
AcDbLine
 10
-113.14210677
 20
-51.1169782
 30
0.0
 11
-113.10754204
 21
-51.15184308
 31
0.0
  0
LINE
  5
445
100
AcDbEntity
  8
レイヤー_1
  6
CONTINUOUS
 62
       3
100
AcDbLine
 10
-113.10754204
 20
-51.15184308
 30
0.0
 11
-113.06970419
 21
-51.18319895
 31
0.0
  0
LINE
  5
446
100
AcDbEntity
  8
レイヤー_1
  6
CONTINUOUS
 62
       3
100
AcDbLine
 10
-113.06970419
 20
-51.18319895
 30
0.0
 11
-113.02886481
 21
-51.21077826
 31
0.0
  0
LINE
  5
447
100
AcDbEntity
  8
レイヤー_1
  6
CONTINUOUS
 62
       3
100
AcDbLine
 10
-113.02886481
 20
-51.21077826
 30
0.0
 11
-112.98529553
 21
-51.23431345
 31
0.0
  0
LINE
  5
448
100
AcDbEntity
  8
レイヤー_1
  6
CONTINUOUS
 62
       3
100
AcDbLine
 10
-112.98529553
 20
-51.23431345
 30
0.0
 11
-112.93926795
 21
-51.25353701
 31
0.0
  0
LINE
  5
449
100
AcDbEntity
  8
レイヤー_1
  6
CONTINUOUS
 62
       3
100
AcDbLine
 10
-112.93926795
 20
-51.25353701
 30
0.0
 11
-112.89105368
 21
-51.26818137
 31
0.0
  0
LINE
  5
44A
100
AcDbEntity
  8
レイヤー_1
  6
CONTINUOUS
 62
       3
100
AcDbLine
 10
-112.89105368
 20
-51.26818137
 30
0.0
 11
-112.84092434
 21
-51.27797899
 31
0.0
  0
LINE
  5
44B
100
AcDbEntity
  8
レイヤー_1
  6
CONTINUOUS
 62
       3
100
AcDbLine
 10
-112.84092434
 20
-51.27797899
 30
0.0
 11
-112.78915153
 21
-51.28266233
 31
0.0
  0
LINE
  5
44C
100
AcDbEntity
  8
レイヤー_1
  6
CONTINUOUS
 62
       3
100
AcDbLine
 10
-112.78915153
 20
-51.28266233
 30
0.0
 11
-112.71330587
 21
-51.28304543
 31
0.0
  0
LINE
  5
44D
100
AcDbEntity
  8
レイヤー_1
  6
CONTINUOUS
 62
       3
100
AcDbLine
 10
-112.71330587
 20
-51.28304543
 30
0.0
 11
-112.40699831
 21
-51.28304543
 31
0.0
  0
LINE
  5
44E
100
AcDbEntity
  8
レイヤー_1
  6
CONTINUOUS
 62
       3
100
AcDbLine
 10
-112.40699831
 20
-51.28304543
 30
0.0
 11
-111.86712632
 21
-51.28304543
 31
0.0
  0
LINE
  5
44F
100
AcDbEntity
  8
レイヤー_1
  6
CONTINUOUS
 62
       3
100
AcDbLine
 10
-111.86712632
 20
-51.28304543
 30
0.0
 11
-111.13143769
 21
-51.28304543
 31
0.0
  0
LINE
  5
450
100
AcDbEntity
  8
レイヤー_1
  6
CONTINUOUS
 62
       3
100
AcDbLine
 10
-111.13143769
 20
-51.28304543
 30
0.0
 11
-110.2376802
 21
-51.28304543
 31
0.0
  0
LINE
  5
451
100
AcDbEntity
  8
レイヤー_1
  6
CONTINUOUS
 62
       3
100
AcDbLine
 10
-110.2376802
 20
-51.28304543
 30
0.0
 11
-109.22360164
 21
-51.28304543
 31
0.0
  0
LINE
  5
452
100
AcDbEntity
  8
レイヤー_1
  6
CONTINUOUS
 62
       3
100
AcDbLine
 10
-109.22360164
 20
-51.28304543
 30
0.0
 11
-108.12694979
 21
-51.28304543
 31
0.0
  0
LINE
  5
453
100
AcDbEntity
  8
レイヤー_1
  6
CONTINUOUS
 62
       3
100
AcDbLine
 10
-108.12694979
 20
-51.28304543
 30
0.0
 11
-106.98547245
 21
-51.28304543
 31
0.0
  0
LINE
  5
454
100
AcDbEntity
  8
レイヤー_1
  6
CONTINUOUS
 62
       3
100
AcDbLine
 10
-106.98547245
 20
-51.28304543
 30
0.0
 11
-105.8369174
 21
-51.28304543
 31
0.0
  0
LINE
  5
455
100
AcDbEntity
  8
レイヤー_1
  6
CONTINUOUS
 62
       3
100
AcDbLine
 10
-105.8369174
 20
-51.28304543
 30
0.0
 11
-104.71903243
 21
-51.28304543
 31
0.0
  0
LINE
  5
456
100
AcDbEntity
  8
レイヤー_1
  6
CONTINUOUS
 62
       3
100
AcDbLine
 10
-104.71903243
 20
-51.28304543
 30
0.0
 11
-103.66956532
 21
-51.28304543
 31
0.0
  0
LINE
  5
457
100
AcDbEntity
  8
レイヤー_1
  6
CONTINUOUS
 62
       3
100
AcDbLine
 10
-103.66956532
 20
-51.28304543
 30
0.0
 11
-102.72626386
 21
-51.28304543
 31
0.0
  0
LINE
  5
458
100
AcDbEntity
  8
レイヤー_1
  6
CONTINUOUS
 62
       3
100
AcDbLine
 10
-102.72626386
 20
-51.28304543
 30
0.0
 11
-101.92687583
 21
-51.28304543
 31
0.0
  0
LINE
  5
459
100
AcDbEntity
  8
レイヤー_1
  6
CONTINUOUS
 62
       3
100
AcDbLine
 10
-101.92687583
 20
-51.28304543
 30
0.0
 11
-101.30914903
 21
-51.28304543
 31
0.0
  0
LINE
  5
45A
100
AcDbEntity
  8
レイヤー_1
  6
CONTINUOUS
 62
       3
100
AcDbLine
 10
-101.30914903
 20
-51.28304543
 30
0.0
 11
-100.91083124
 21
-51.28304543
 31
0.0
  0
LINE
  5
45B
100
AcDbEntity
  8
レイヤー_1
  6
CONTINUOUS
 62
       3
100
AcDbLine
 10
-100.91083124
 20
-51.28304543
 30
0.0
 11
-100.76967025
 21
-51.28304543
 31
0.0
  0
LINE
  5
45C
100
AcDbEntity
  8
レイヤー_1
  6
CONTINUOUS
 62
       3
100
AcDbLine
 10
-98.75988767
 20
38.5235452
 30
0.0
 11
-98.75988767
 21
38.70227355
 31
0.0
  0
LINE
  5
45D
100
AcDbEntity
  8
レイヤー_1
  6
CONTINUOUS
 62
       3
100
AcDbLine
 10
-98.75988767
 20
38.70227355
 30
0.0
 11
-98.75988767
 21
38.90803852
 31
0.0
  0
LINE
  5
45E
100
AcDbEntity
  8
レイヤー_1
  6
CONTINUOUS
 62
       3
100
AcDbLine
 10
-98.75988767
 20
38.90803852
 30
0.0
 11
-98.75988767
 21
39.1329749
 31
0.0
  0
LINE
  5
45F
100
AcDbEntity
  8
レイヤー_1
  6
CONTINUOUS
 62
       3
100
AcDbLine
 10
-98.75988767
 20
39.1329749
 30
0.0
 11
-98.75988767
 21
39.36921748
 31
0.0
  0
LINE
  5
460
100
AcDbEntity
  8
レイヤー_1
  6
CONTINUOUS
 62
       3
100
AcDbLine
 10
-98.75988767
 20
39.36921748
 30
0.0
 11
-98.75988767
 21
39.6089011
 31
0.0
  0
LINE
  5
461
100
AcDbEntity
  8
レイヤー_1
  6
CONTINUOUS
 62
       3
100
AcDbLine
 10
-98.75988767
 20
39.6089011
 30
0.0
 11
-98.75988767
 21
39.84416055
 31
0.0
  0
LINE
  5
462
100
AcDbEntity
  8
レイヤー_1
  6
CONTINUOUS
 62
       3
100
AcDbLine
 10
-98.75988767
 20
39.84416055
 30
0.0
 11
-98.75988767
 21
40.06713062
 31
0.0
  0
LINE
  5
463
100
AcDbEntity
  8
レイヤー_1
  6
CONTINUOUS
 62
       3
100
AcDbLine
 10
-98.75988767
 20
40.06713062
 30
0.0
 11
-98.75988767
 21
40.26994614
 31
0.0
  0
LINE
  5
464
100
AcDbEntity
  8
レイヤー_1
  6
CONTINUOUS
 62
       3
100
AcDbLine
 10
-98.75988767
 20
40.26994614
 30
0.0
 11
-98.75988767
 21
40.44474188
 31
0.0
  0
LINE
  5
465
100
AcDbEntity
  8
レイヤー_1
  6
CONTINUOUS
 62
       3
100
AcDbLine
 10
-98.75988767
 20
40.44474188
 30
0.0
 11
-98.75988767
 21
40.58365269
 31
0.0
  0
LINE
  5
466
100
AcDbEntity
  8
レイヤー_1
  6
CONTINUOUS
 62
       3
100
AcDbLine
 10
-98.75988767
 20
40.58365269
 30
0.0
 11
-98.75988767
 21
40.67881336
 31
0.0
  0
LINE
  5
467
100
AcDbEntity
  8
レイヤー_1
  6
CONTINUOUS
 62
       3
100
AcDbLine
 10
-98.75988767
 20
40.67881336
 30
0.0
 11
-98.75988767
 21
40.72235869
 31
0.0
  0
LINE
  5
468
100
AcDbEntity
  8
レイヤー_1
  6
CONTINUOUS
 62
       3
100
AcDbLine
 10
-98.75988767
 20
40.72235869
 30
0.0
 11
-98.76141648
 21
40.763623
 31
0.0
  0
LINE
  5
469
100
AcDbEntity
  8
レイヤー_1
  6
CONTINUOUS
 62
       3
100
AcDbLine
 10
-98.76141648
 20
40.763623
 30
0.0
 11
-98.76807325
 21
40.81477499
 31
0.0
  0
LINE
  5
46A
100
AcDbEntity
  8
レイヤー_1
  6
CONTINUOUS
 62
       3
100
AcDbLine
 10
-98.76807325
 20
40.81477499
 30
0.0
 11
-98.7797604
 21
40.86415703
 31
0.0
  0
LINE
  5
46B
100
AcDbEntity
  8
レイヤー_1
  6
CONTINUOUS
 62
       3
100
AcDbLine
 10
-98.7797604
 20
40.86415703
 30
0.0
 11
-98.79620769
 21
40.91150155
 31
0.0
  0
LINE
  5
46C
100
AcDbEntity
  8
レイヤー_1
  6
CONTINUOUS
 62
       3
100
AcDbLine
 10
-98.79620769
 20
40.91150155
 30
0.0
 11
-98.81714484
 21
40.95654105
 31
0.0
  0
LINE
  5
46D
100
AcDbEntity
  8
レイヤー_1
  6
CONTINUOUS
 62
       3
100
AcDbLine
 10
-98.81714484
 20
40.95654105
 30
0.0
 11
-98.84230162
 21
40.99900792
 31
0.0
  0
LINE
  5
46E
100
AcDbEntity
  8
レイヤー_1
  6
CONTINUOUS
 62
       3
100
AcDbLine
 10
-98.84230162
 20
40.99900792
 30
0.0
 11
-98.87140775
 21
41.03863467
 31
0.0
  0
LINE
  5
46F
100
AcDbEntity
  8
レイヤー_1
  6
CONTINUOUS
 62
       3
100
AcDbLine
 10
-98.87140775
 20
41.03863467
 30
0.0
 11
-98.90419299
 21
41.07515372
 31
0.0
  0
LINE
  5
470
100
AcDbEntity
  8
レイヤー_1
  6
CONTINUOUS
 62
       3
100
AcDbLine
 10
-98.90419299
 20
41.07515372
 30
0.0
 11
-98.94038708
 21
41.10829754
 31
0.0
  0
LINE
  5
471
100
AcDbEntity
  8
レイヤー_1
  6
CONTINUOUS
 62
       3
100
AcDbLine
 10
-98.94038708
 20
41.10829754
 30
0.0
 11
-98.97971977
 21
41.13779857
 31
0.0
  0
LINE
  5
472
100
AcDbEntity
  8
レイヤー_1
  6
CONTINUOUS
 62
       3
100
AcDbLine
 10
-105.77257609
 20
41.22336662
 30
0.0
 11
-107.20981663
 21
41.22336662
 31
0.0
  0
LINE
  5
473
100
AcDbEntity
  8
レイヤー_1
  6
CONTINUOUS
 62
       3
100
AcDbLine
 10
-98.97520854
 20
41.22336662
 30
0.0
 11
-114.36277743
 21
41.22336662
 31
0.0
  0
LINE
  5
474
100
AcDbEntity
  8
レイヤー_1
  6
CONTINUOUS
 62
       3
100
AcDbLine
 10
-114.43595648
 20
41.19170019
 30
0.0
 11
-114.48166018
 21
41.17192304
 31
0.0
  0
LINE
  5
475
100
AcDbEntity
  8
レイヤー_1
  6
CONTINUOUS
 62
       3
100
AcDbLine
 10
-114.48166018
 20
41.17192304
 30
0.0
 11
-114.52486716
 21
41.14786769
 31
0.0
  0
LINE
  5
476
100
AcDbEntity
  8
レイヤー_1
  6
CONTINUOUS
 62
       3
100
AcDbLine
 10
-114.52486716
 20
41.14786769
 30
0.0
 11
-114.56530714
 21
41.11980169
 31
0.0
  0
LINE
  5
477
100
AcDbEntity
  8
レイヤー_1
  6
CONTINUOUS
 62
       3
100
AcDbLine
 10
-114.56530714
 20
41.11980169
 30
0.0
 11
-114.60270987
 21
41.08799255
 31
0.0
  0
LINE
  5
478
100
AcDbEntity
  8
レイヤー_1
  6
CONTINUOUS
 62
       3
100
AcDbLine
 10
-114.60270987
 20
41.08799255
 30
0.0
 11
-114.6368051
 21
41.05270786
 31
0.0
  0
LINE
  5
479
100
AcDbEntity
  8
レイヤー_1
  6
CONTINUOUS
 62
       3
100
AcDbLine
 10
-114.6368051
 20
41.05270786
 30
0.0
 11
-114.66732257
 21
41.01421516
 31
0.0
  0
LINE
  5
47A
100
AcDbEntity
  8
レイヤー_1
  6
CONTINUOUS
 62
       3
100
AcDbLine
 10
-114.66732257
 20
41.01421516
 30
0.0
 11
-114.69399202
 21
40.97278197
 31
0.0
  0
LINE
  5
47B
100
AcDbEntity
  8
レイヤー_1
  6
CONTINUOUS
 62
       3
100
AcDbLine
 10
-114.69399202
 20
40.97278197
 30
0.0
 11
-114.71654321
 21
40.92867586
 31
0.0
  0
LINE
  5
47C
100
AcDbEntity
  8
レイヤー_1
  6
CONTINUOUS
 62
       3
100
AcDbLine
 10
-114.71654321
 20
40.92867586
 30
0.0
 11
-114.73470586
 21
40.88216437
 31
0.0
  0
LINE
  5
47D
100
AcDbEntity
  8
レイヤー_1
  6
CONTINUOUS
 62
       3
100
AcDbLine
 10
-114.73470586
 20
40.88216437
 30
0.0
 11
-114.74820974
 21
40.83351503
 31
0.0
  0
LINE
  5
47E
100
AcDbEntity
  8
レイヤー_1
  6
CONTINUOUS
 62
       3
100
AcDbLine
 10
-114.74820974
 20
40.83351503
 30
0.0
 11
-114.75678457
 21
40.78299543
 31
0.0
  0
LINE
  5
47F
100
AcDbEntity
  8
レイヤー_1
  6
CONTINUOUS
 62
       3
100
AcDbLine
 10
-114.75678457
 20
40.78299543
 30
0.0
 11
-114.76016011
 21
40.73087307
 31
0.0
  0
LINE
  5
480
100
AcDbEntity
  8
レイヤー_1
  6
CONTINUOUS
 62
       3
100
AcDbLine
 10
-114.76016011
 20
40.73087307
 30
0.0
 11
-114.76020302
 21
40.70161398
 31
0.0
  0
LINE
  5
481
100
AcDbEntity
  8
レイヤー_1
  6
CONTINUOUS
 62
       3
100
AcDbLine
 10
-114.76020302
 20
40.70161398
 30
0.0
 11
-114.76020302
 21
40.62488736
 31
0.0
  0
LINE
  5
482
100
AcDbEntity
  8
レイヤー_1
  6
CONTINUOUS
 62
       3
100
AcDbLine
 10
-114.76020302
 20
40.62488736
 30
0.0
 11
-114.76020302
 21
40.50146116
 31
0.0
  0
LINE
  5
483
100
AcDbEntity
  8
レイヤー_1
  6
CONTINUOUS
 62
       3
100
AcDbLine
 10
-114.76020302
 20
40.50146116
 30
0.0
 11
-114.76020302
 21
40.33920056
 31
0.0
  0
LINE
  5
484
100
AcDbEntity
  8
レイヤー_1
  6
CONTINUOUS
 62
       3
100
AcDbLine
 10
-114.76020302
 20
40.33920056
 30
0.0
 11
-114.76020302
 21
40.14597074
 31
0.0
  0
LINE
  5
485
100
AcDbEntity
  8
レイヤー_1
  6
CONTINUOUS
 62
       3
100
AcDbLine
 10
-114.76020302
 20
40.14597074
 30
0.0
 11
-114.76020302
 21
39.92963692
 31
0.0
  0
LINE
  5
486
100
AcDbEntity
  8
レイヤー_1
  6
CONTINUOUS
 62
       3
100
AcDbLine
 10
-114.76020302
 20
39.92963692
 30
0.0
 11
-114.76020302
 21
39.6980643
 31
0.0
  0
LINE
  5
487
100
AcDbEntity
  8
レイヤー_1
  6
CONTINUOUS
 62
       3
100
AcDbLine
 10
-114.76020302
 20
39.6980643
 30
0.0
 11
-114.76020302
 21
39.45911805
 31
0.0
  0
LINE
  5
488
100
AcDbEntity
  8
レイヤー_1
  6
CONTINUOUS
 62
       3
100
AcDbLine
 10
-114.76020302
 20
39.45911805
 30
0.0
 11
-114.76020302
 21
39.22066336
 31
0.0
  0
LINE
  5
489
100
AcDbEntity
  8
レイヤー_1
  6
CONTINUOUS
 62
       3
100
AcDbLine
 10
-114.76020302
 20
39.22066336
 30
0.0
 11
-114.76020302
 21
38.99056546
 31
0.0
  0
LINE
  5
48A
100
AcDbEntity
  8
レイヤー_1
  6
CONTINUOUS
 62
       3
100
AcDbLine
 10
-114.76020302
 20
38.99056546
 30
0.0
 11
-114.76020302
 21
38.7766895
 31
0.0
  0
LINE
  5
48B
100
AcDbEntity
  8
レイヤー_1
  6
CONTINUOUS
 62
       3
100
AcDbLine
 10
-114.76020302
 20
38.7766895
 30
0.0
 11
-114.76020302
 21
38.58690073
 31
0.0
  0
LINE
  5
48C
100
AcDbEntity
  8
レイヤー_1
  6
CONTINUOUS
 62
       3
100
AcDbLine
 10
-114.76020302
 20
38.58690073
 30
0.0
 11
-114.76020302
 21
38.4290643
 31
0.0
  0
LINE
  5
48D
100
AcDbEntity
  8
レイヤー_1
  6
CONTINUOUS
 62
       3
100
AcDbLine
 10
-99.2697618
 20
-43.76240199
 30
0.0
 11
-99.21745792
 21
-43.75969536
 31
0.0
  0
LINE
  5
48E
100
AcDbEntity
  8
レイヤー_1
  6
CONTINUOUS
 62
       3
100
AcDbLine
 10
-99.21745792
 20
-43.75969536
 30
0.0
 11
-99.16672333
 21
-43.75175566
 31
0.0
  0
LINE
  5
48F
100
AcDbEntity
  8
レイヤー_1
  6
CONTINUOUS
 62
       3
100
AcDbLine
 10
-99.16672333
 20
-43.75175566
 30
0.0
 11
-99.11782559
 21
-43.73885315
 31
0.0
  0
LINE
  5
490
100
AcDbEntity
  8
レイヤー_1
  6
CONTINUOUS
 62
       3
100
AcDbLine
 10
-99.11782559
 20
-43.73885315
 30
0.0
 11
-99.07103224
 21
-43.72125806
 31
0.0
  0
LINE
  5
491
100
AcDbEntity
  8
レイヤー_1
  6
CONTINUOUS
 62
       3
100
AcDbLine
 10
-99.07103224
 20
-43.72125806
 30
0.0
 11
-99.02661082
 21
-43.69924066
 31
0.0
  0
LINE
  5
492
100
AcDbEntity
  8
レイヤー_1
  6
CONTINUOUS
 62
       3
100
AcDbLine
 10
-99.02661082
 20
-43.69924066
 30
0.0
 11
-98.98482889
 21
-43.6730712
 31
0.0
  0
LINE
  5
493
100
AcDbEntity
  8
レイヤー_1
  6
CONTINUOUS
 62
       3
100
AcDbLine
 10
-98.98482889
 20
-43.6730712
 30
0.0
 11
-98.94595399
 21
-43.64301997
 31
0.0
  0
LINE
  5
494
100
AcDbEntity
  8
レイヤー_1
  6
CONTINUOUS
 62
       3
100
AcDbLine
 10
-98.94595399
 20
-43.64301997
 30
0.0
 11
-98.91025366
 21
-43.60935718
 31
0.0
  0
LINE
  5
495
100
AcDbEntity
  8
レイヤー_1
  6
CONTINUOUS
 62
       3
100
AcDbLine
 10
-98.91025366
 20
-43.60935718
 30
0.0
 11
-98.87799546
 21
-43.5723531
 31
0.0
  0
LINE
  5
496
100
AcDbEntity
  8
レイヤー_1
  6
CONTINUOUS
 62
       3
100
AcDbLine
 10
-98.87799546
 20
-43.5723531
 30
0.0
 11
-98.84944692
 21
-43.532278
 31
0.0
  0
LINE
  5
497
100
AcDbEntity
  8
レイヤー_1
  6
CONTINUOUS
 62
       3
100
AcDbLine
 10
-98.84944692
 20
-43.532278
 30
0.0
 11
-98.82487561
 21
-43.48940212
 31
0.0
  0
LINE
  5
498
100
AcDbEntity
  8
レイヤー_1
  6
CONTINUOUS
 62
       3
100
AcDbLine
 10
-98.82487561
 20
-43.48940212
 30
0.0
 11
-98.80454906
 21
-43.44399573
 31
0.0
  0
LINE
  5
499
100
AcDbEntity
  8
レイヤー_1
  6
CONTINUOUS
 62
       3
100
AcDbLine
 10
-98.80454906
 20
-43.44399573
 30
0.0
 11
-98.78873481
 21
-43.39632907
 31
0.0
  0
LINE
  5
49A
100
AcDbEntity
  8
レイヤー_1
  6
CONTINUOUS
 62
       3
100
AcDbLine
 10
-98.78873481
 20
-43.39632907
 30
0.0
 11
-98.77770043
 21
-43.34667241
 31
0.0
  0
LINE
  5
49B
100
AcDbEntity
  8
レイヤー_1
  6
CONTINUOUS
 62
       3
100
AcDbLine
 10
-98.77770043
 20
-43.34667241
 30
0.0
 11
-98.77171344
 21
-43.295296
 31
0.0
  0
LINE
  5
49C
100
AcDbEntity
  8
レイヤー_1
  6
CONTINUOUS
 62
       3
100
AcDbLine
 10
-98.77171344
 20
-43.295296
 30
0.0
 11
-98.77065359
 21
-43.25818263
 31
0.0
  0
LINE
  5
49D
100
AcDbEntity
  8
レイヤー_1
  6
CONTINUOUS
 62
       3
100
AcDbLine
 10
-98.77065359
 20
-43.25818263
 30
0.0
 11
-98.77065359
 21
-43.20777263
 31
0.0
  0
LINE
  5
49E
100
AcDbEntity
  8
レイヤー_1
  6
CONTINUOUS
 62
       3
100
AcDbLine
 10
-98.77065359
 20
-43.20777263
 30
0.0
 11
-98.77065359
 21
-43.10674788
 31
0.0
  0
LINE
  5
49F
100
AcDbEntity
  8
レイヤー_1
  6
CONTINUOUS
 62
       3
100
AcDbLine
 10
-98.77065359
 20
-43.10674788
 30
0.0
 11
-98.77065359
 21
-42.96297087
 31
0.0
  0
LINE
  5
4A0
100
AcDbEntity
  8
レイヤー_1
  6
CONTINUOUS
 62
       3
100
AcDbLine
 10
-98.77065359
 20
-42.96297087
 30
0.0
 11
-98.77065359
 21
-42.78430408
 31
0.0
  0
LINE
  5
4A1
100
AcDbEntity
  8
レイヤー_1
  6
CONTINUOUS
 62
       3
100
AcDbLine
 10
-98.77065359
 20
-42.78430408
 30
0.0
 11
-98.77065359
 21
-42.57861
 31
0.0
  0
LINE
  5
4A2
100
AcDbEntity
  8
レイヤー_1
  6
CONTINUOUS
 62
       3
100
AcDbLine
 10
-98.77065359
 20
-42.57861
 30
0.0
 11
-98.77065359
 21
-42.35375111
 31
0.0
  0
LINE
  5
4A3
100
AcDbEntity
  8
レイヤー_1
  6
CONTINUOUS
 62
       3
100
AcDbLine
 10
-98.77065359
 20
-42.35375111
 30
0.0
 11
-98.77065359
 21
-42.1175899
 31
0.0
  0
LINE
  5
4A4
100
AcDbEntity
  8
レイヤー_1
  6
CONTINUOUS
 62
       3
100
AcDbLine
 10
-98.77065359
 20
-42.1175899
 30
0.0
 11
-98.77065359
 21
-41.87798884
 31
0.0
  0
LINE
  5
4A5
100
AcDbEntity
  8
レイヤー_1
  6
CONTINUOUS
 62
       3
100
AcDbLine
 10
-98.77065359
 20
-41.87798884
 30
0.0
 11
-98.77065359
 21
-41.64281045
 31
0.0
  0
LINE
  5
4A6
100
AcDbEntity
  8
レイヤー_1
  6
CONTINUOUS
 62
       3
100
AcDbLine
 10
-98.77065359
 20
-41.64281045
 30
0.0
 11
-98.77065359
 21
-41.41991718
 31
0.0
  0
LINE
  5
4A7
100
AcDbEntity
  8
レイヤー_1
  6
CONTINUOUS
 62
       3
100
AcDbLine
 10
-98.77065359
 20
-41.41991718
 30
0.0
 11
-98.77065359
 21
-41.21717152
 31
0.0
  0
LINE
  5
4A8
100
AcDbEntity
  8
レイヤー_1
  6
CONTINUOUS
 62
       3
100
AcDbLine
 10
-98.77065359
 20
-41.21717152
 30
0.0
 11
-98.77065359
 21
-41.04243598
 31
0.0
  0
LINE
  5
4A9
100
AcDbEntity
  8
レイヤー_1
  6
CONTINUOUS
 62
       3
100
AcDbLine
 10
-98.77065359
 20
-41.04243598
 30
0.0
 11
-98.77065359
 21
-40.90357302
 31
0.0
  0
LINE
  5
4AA
100
AcDbEntity
  8
レイヤー_1
  6
CONTINUOUS
 62
       3
100
AcDbLine
 10
-114.76967703
 20
-40.86235256
 30
0.0
 11
-114.76967703
 21
-40.98573624
 31
0.0
  0
LINE
  5
4AB
100
AcDbEntity
  8
レイヤー_1
  6
CONTINUOUS
 62
       3
100
AcDbLine
 10
-114.76967703
 20
-40.98573624
 30
0.0
 11
-114.76967703
 21
-41.14794096
 31
0.0
  0
LINE
  5
4AC
100
AcDbEntity
  8
レイヤー_1
  6
CONTINUOUS
 62
       3
100
AcDbLine
 10
-114.76967703
 20
-41.14794096
 30
0.0
 11
-114.76967703
 21
-41.34110421
 31
0.0
  0
LINE
  5
4AD
100
AcDbEntity
  8
レイヤー_1
  6
CONTINUOUS
 62
       3
100
AcDbLine
 10
-114.76967703
 20
-41.34110421
 30
0.0
 11
-114.76967703
 21
-41.5573635
 31
0.0
  0
LINE
  5
4AE
100
AcDbEntity
  8
レイヤー_1
  6
CONTINUOUS
 62
       3
100
AcDbLine
 10
-114.76967703
 20
-41.5573635
 30
0.0
 11
-114.76967703
 21
-41.78885637
 31
0.0
  0
LINE
  5
4AF
100
AcDbEntity
  8
レイヤー_1
  6
CONTINUOUS
 62
       3
100
AcDbLine
 10
-114.76967703
 20
-41.78885637
 30
0.0
 11
-114.76967703
 21
-42.02772031
 31
0.0
  0
LINE
  5
4B0
100
AcDbEntity
  8
レイヤー_1
  6
CONTINUOUS
 62
       3
100
AcDbLine
 10
-114.76967703
 20
-42.02772031
 30
0.0
 11
-114.76967703
 21
-42.26609285
 31
0.0
  0
LINE
  5
4B1
100
AcDbEntity
  8
レイヤー_1
  6
CONTINUOUS
 62
       3
100
AcDbLine
 10
-114.76967703
 20
-42.26609285
 30
0.0
 11
-114.76967703
 21
-42.49611149
 31
0.0
  0
LINE
  5
4B2
100
AcDbEntity
  8
レイヤー_1
  6
CONTINUOUS
 62
       3
100
AcDbLine
 10
-114.76967703
 20
-42.49611149
 30
0.0
 11
-114.76967703
 21
-42.70991376
 31
0.0
  0
LINE
  5
4B3
100
AcDbEntity
  8
レイヤー_1
  6
CONTINUOUS
 62
       3
100
AcDbLine
 10
-114.76967703
 20
-42.70991376
 30
0.0
 11
-114.76967703
 21
-42.89963717
 31
0.0
  0
LINE
  5
4B4
100
AcDbEntity
  8
レイヤー_1
  6
CONTINUOUS
 62
       3
100
AcDbLine
 10
-114.76967703
 20
-42.89963717
 30
0.0
 11
-114.76967703
 21
-43.05741923
 31
0.0
  0
LINE
  5
4B5
100
AcDbEntity
  8
レイヤー_1
  6
CONTINUOUS
 62
       3
100
AcDbLine
 10
-114.76967703
 20
-43.05741923
 30
0.0
 11
-114.76967703
 21
-43.17539747
 31
0.0
  0
LINE
  5
4B6
100
AcDbEntity
  8
レイヤー_1
  6
CONTINUOUS
 62
       3
100
AcDbLine
 10
-114.76967703
 20
-43.17539747
 30
0.0
 11
-114.76967703
 21
-43.24570938
 31
0.0
  0
LINE
  5
4B7
100
AcDbEntity
  8
レイヤー_1
  6
CONTINUOUS
 62
       3
100
AcDbLine
 10
-114.76967703
 20
-43.24570938
 30
0.0
 11
-114.76950575
 21
-43.27564162
 31
0.0
  0
LINE
  5
4B8
100
AcDbEntity
  8
レイヤー_1
  6
CONTINUOUS
 62
       3
100
AcDbLine
 10
-114.76950575
 20
-43.27564162
 30
0.0
 11
-114.76546552
 21
-43.32759326
 31
0.0
  0
LINE
  5
4B9
100
AcDbEntity
  8
レイヤー_1
  6
CONTINUOUS
 62
       3
100
AcDbLine
 10
-114.76546552
 20
-43.32759326
 30
0.0
 11
-114.75625978
 21
-43.3779265
 31
0.0
  0
LINE
  5
4BA
100
AcDbEntity
  8
レイヤー_1
  6
CONTINUOUS
 62
       3
100
AcDbLine
 10
-114.75625978
 20
-43.3779265
 30
0.0
 11
-114.74215878
 21
-43.42637109
 31
0.0
  0
LINE
  5
4BB
100
AcDbEntity
  8
レイヤー_1
  6
CONTINUOUS
 62
       3
100
AcDbLine
 10
-114.74215878
 20
-43.42637109
 30
0.0
 11
-114.72343278
 21
-43.47265675
 31
0.0
  0
LINE
  5
4BC
100
AcDbEntity
  8
レイヤー_1
  6
CONTINUOUS
 62
       3
100
AcDbLine
 10
-114.72343278
 20
-43.47265675
 30
0.0
 11
-114.70035203
 21
-43.51651323
 31
0.0
  0
LINE
  5
4BD
100
AcDbEntity
  8
レイヤー_1
  6
CONTINUOUS
 62
       3
100
AcDbLine
 10
-114.70035203
 20
-43.51651323
 30
0.0
 11
-114.67318679
 21
-43.55767031
 31
0.0
  0
LINE
  5
4BE
100
AcDbEntity
  8
レイヤー_1
  6
CONTINUOUS
 62
       3
100
AcDbLine
 10
-114.67318679
 20
-43.55767031
 30
0.0
 11
-114.64220732
 21
-43.59585768
 31
0.0
  0
LINE
  5
4BF
100
AcDbEntity
  8
レイヤー_1
  6
CONTINUOUS
 62
       3
100
AcDbLine
 10
-114.64220732
 20
-43.59585768
 30
0.0
 11
-114.60768388
 21
-43.63080513
 31
0.0
  0
LINE
  5
4C0
100
AcDbEntity
  8
レイヤー_1
  6
CONTINUOUS
 62
       3
100
AcDbLine
 10
-114.60768388
 20
-43.63080513
 30
0.0
 11
-114.56988671
 21
-43.66224237
 31
0.0
  0
LINE
  5
4C1
100
AcDbEntity
  8
レイヤー_1
  6
CONTINUOUS
 62
       3
100
AcDbLine
 10
-114.56988671
 20
-43.66224237
 30
0.0
 11
-114.52908607
 21
-43.68989917
 31
0.0
  0
LINE
  5
4C2
100
AcDbEntity
  8
レイヤー_1
  6
CONTINUOUS
 62
       3
100
AcDbLine
 10
-114.52908607
 20
-43.68989917
 30
0.0
 11
-114.48555223
 21
-43.71350526
 31
0.0
  0
LINE
  5
4C3
100
AcDbEntity
  8
レイヤー_1
  6
CONTINUOUS
 62
       3
100
AcDbLine
 10
-114.48555223
 20
-43.71350526
 30
0.0
 11
-114.43955543
 21
-43.73279039
 31
0.0
  0
LINE
  5
4C4
100
AcDbEntity
  8
レイヤー_1
  6
CONTINUOUS
 62
       3
100
AcDbLine
 10
-114.43955543
 20
-43.73279039
 30
0.0
 11
-114.39136594
 21
-43.74748428
 31
0.0
  0
LINE
  5
4C5
100
AcDbEntity
  8
レイヤー_1
  6
CONTINUOUS
 62
       3
100
AcDbLine
 10
-114.39136594
 20
-43.74748428
 30
0.0
 11
-114.34125401
 21
-43.75731672
 31
0.0
  0
LINE
  5
4C6
100
AcDbEntity
  8
レイヤー_1
  6
CONTINUOUS
 62
       3
100
AcDbLine
 10
-114.34125401
 20
-43.75731672
 30
0.0
 11
-114.28948988
 21
-43.76201742
 31
0.0
  0
LINE
  5
4C7
100
AcDbEntity
  8
レイヤー_1
  6
CONTINUOUS
 62
       3
100
AcDbLine
 10
-114.28948988
 20
-43.76201742
 30
0.0
 11
-114.1996278
 21
-43.76240199
 31
0.0
  0
LINE
  5
4C8
100
AcDbEntity
  8
レイヤー_1
  6
CONTINUOUS
 62
       3
100
AcDbLine
 10
-114.1996278
 20
-43.76240199
 30
0.0
 11
-99.2697618
 21
-43.76240199
 31
0.0
  0
LINE
  5
4C9
100
AcDbEntity
  8
レイヤー_1
  6
CONTINUOUS
 62
       3
100
AcDbLine
 10
96.69756737
 20
-3.49044969
 30
0.0
 11
96.69756737
 21
-12.27078416
 31
0.0
  0
LINE
  5
4CA
100
AcDbEntity
  8
レイヤー_1
  6
CONTINUOUS
 62
       3
100
AcDbLine
 10
96.69756737
 20
-12.27078416
 30
0.0
 11
97.6888936
 21
-13.28536478
 31
0.0
  0
LINE
  5
4CB
100
AcDbEntity
  8
レイヤー_1
  6
CONTINUOUS
 62
       3
100
AcDbLine
 10
97.6888936
 20
-13.28536478
 30
0.0
 11
97.6888936
 21
-26.77894253
 31
0.0
  0
LINE
  5
4CC
100
AcDbEntity
  8
レイヤー_1
  6
CONTINUOUS
 62
       3
100
AcDbLine
 10
97.6888936
 20
-26.77894253
 30
0.0
 11
96.69756737
 21
-28.27842034
 31
0.0
  0
LINE
  5
4CD
100
AcDbEntity
  8
レイヤー_1
  6
CONTINUOUS
 62
       3
100
AcDbLine
 10
96.69756737
 20
-28.27842034
 30
0.0
 11
96.69756737
 21
-38.26532151
 31
0.0
  0
LINE
  5
4CE
100
AcDbEntity
  8
レイヤー_1
  6
CONTINUOUS
 62
       3
100
AcDbLine
 10
96.69756737
 20
-38.26532151
 30
0.0
 11
97.6888936
 21
-39.25750901
 31
0.0
  0
LINE
  5
4CF
100
AcDbEntity
  8
レイヤー_1
  6
CONTINUOUS
 62
       3
100
AcDbLine
 10
97.6888936
 20
-39.25750901
 30
0.0
 11
97.6888936
 21
-48.27461581
 31
0.0
  0
LINE
  5
4D0
100
AcDbEntity
  8
レイヤー_1
  6
CONTINUOUS
 62
       3
100
AcDbLine
 10
97.6888936
 20
-48.27461581
 30
0.0
 11
120.70471526
 21
-48.27461581
 31
0.0
  0
LINE
  5
4D1
100
AcDbEntity
  8
レイヤー_1
  6
CONTINUOUS
 62
       3
100
AcDbLine
 10
120.70471526
 20
-48.27461581
 30
0.0
 11
120.70471526
 21
-39.25750901
 31
0.0
  0
LINE
  5
4D2
100
AcDbEntity
  8
レイヤー_1
  6
CONTINUOUS
 62
       3
100
AcDbLine
 10
120.70471526
 20
-39.25750901
 30
0.0
 11
121.69690276
 21
-38.26532151
 31
0.0
  0
LINE
  5
4D3
100
AcDbEntity
  8
レイヤー_1
  6
CONTINUOUS
 62
       3
100
AcDbLine
 10
121.69690276
 20
-38.26532151
 30
0.0
 11
121.69690276
 21
-28.27842034
 31
0.0
  0
LINE
  5
4D4
100
AcDbEntity
  8
レイヤー_1
  6
CONTINUOUS
 62
       3
100
AcDbLine
 10
121.69690276
 20
-28.27842034
 30
0.0
 11
120.70471526
 21
-26.77894253
 31
0.0
  0
LINE
  5
4D5
100
AcDbEntity
  8
レイヤー_1
  6
CONTINUOUS
 62
       3
100
AcDbLine
 10
120.70471526
 20
-26.77894253
 30
0.0
 11
120.70471526
 21
-13.28536478
 31
0.0
  0
LINE
  5
4D6
100
AcDbEntity
  8
レイヤー_1
  6
CONTINUOUS
 62
       3
100
AcDbLine
 10
120.70471526
 20
-13.28536478
 30
0.0
 11
121.69690276
 21
-12.27078416
 31
0.0
  0
LINE
  5
4D7
100
AcDbEntity
  8
レイヤー_1
  6
CONTINUOUS
 62
       3
100
AcDbLine
 10
121.69690276
 20
-12.27078416
 30
0.0
 11
121.69690276
 21
-3.49044969
 31
0.0
  0
LINE
  5
4D8
100
AcDbEntity
  8
レイヤー_1
  6
CONTINUOUS
 62
       3
100
AcDbLine
 10
116.71357214
 20
-6.26253764
 30
0.0
 11
121.70293168
 21
-6.26253764
 31
0.0
  0
LINE
  5
4D9
100
AcDbEntity
  8
レイヤー_1
  6
CONTINUOUS
 62
       3
100
AcDbLine
 10
116.70151431
 20
3.73642138
 30
0.0
 11
121.71498951
 21
3.73642138
 31
0.0
  0
LINE
  5
4DA
100
AcDbEntity
  8
レイヤー_1
  6
CONTINUOUS
 62
       3
100
AcDbLine
 10
96.69756737
 20
1.00955031
 30
0.0
 11
96.69756737
 21
9.71839904
 31
0.0
  0
LINE
  5
4DB
100
AcDbEntity
  8
レイヤー_1
  6
CONTINUOUS
 62
       3
100
AcDbLine
 10
96.69756737
 20
9.71839904
 30
0.0
 11
97.6888936
 21
10.71058654
 31
0.0
  0
LINE
  5
4DC
100
AcDbEntity
  8
レイヤー_1
  6
CONTINUOUS
 62
       3
100
AcDbLine
 10
97.6888936
 20
10.71058654
 30
0.0
 11
97.6888936
 21
24.20545619
 31
0.0
  0
LINE
  5
4DD
100
AcDbEntity
  8
レイヤー_1
  6
CONTINUOUS
 62
       3
100
AcDbLine
 10
97.6888936
 20
24.20545619
 30
0.0
 11
96.69756737
 21
25.70450337
 31
0.0
  0
LINE
  5
4DE
100
AcDbEntity
  8
レイヤー_1
  6
CONTINUOUS
 62
       3
100
AcDbLine
 10
96.69756737
 20
25.70450337
 30
0.0
 11
96.69756737
 21
35.69872537
 31
0.0
  0
LINE
  5
4DF
100
AcDbEntity
  8
レイヤー_1
  6
CONTINUOUS
 62
       3
100
AcDbLine
 10
96.69756737
 20
35.69872537
 30
0.0
 11
97.6888936
 21
36.71330599
 31
0.0
  0
LINE
  5
4E0
100
AcDbEntity
  8
レイヤー_1
  6
CONTINUOUS
 62
       3
100
AcDbLine
 10
97.6888936
 20
36.71330599
 30
0.0
 11
97.6888936
 21
45.70888094
 31
0.0
  0
LINE
  5
4E1
100
AcDbEntity
  8
レイヤー_1
  6
CONTINUOUS
 62
       3
100
AcDbLine
 10
97.6888936
 20
45.70888094
 30
0.0
 11
120.70471526
 21
45.70888094
 31
0.0
  0
LINE
  5
4E2
100
AcDbEntity
  8
レイヤー_1
  6
CONTINUOUS
 62
       3
100
AcDbLine
 10
120.70471526
 20
45.70888094
 30
0.0
 11
120.70471526
 21
36.71330599
 31
0.0
  0
LINE
  5
4E3
100
AcDbEntity
  8
レイヤー_1
  6
CONTINUOUS
 62
       3
100
AcDbLine
 10
120.70471526
 20
36.71330599
 30
0.0
 11
121.69690276
 21
35.69872537
 31
0.0
  0
LINE
  5
4E4
100
AcDbEntity
  8
レイヤー_1
  6
CONTINUOUS
 62
       3
100
AcDbLine
 10
121.69690276
 20
35.69872537
 30
0.0
 11
121.69690276
 21
25.70450337
 31
0.0
  0
LINE
  5
4E5
100
AcDbEntity
  8
レイヤー_1
  6
CONTINUOUS
 62
       3
100
AcDbLine
 10
121.69690276
 20
25.70450337
 30
0.0
 11
120.70471526
 21
24.20545619
 31
0.0
  0
LINE
  5
4E6
100
AcDbEntity
  8
レイヤー_1
  6
CONTINUOUS
 62
       3
100
AcDbLine
 10
120.70471526
 20
24.20545619
 30
0.0
 11
120.70471526
 21
10.68862406
 31
0.0
  0
LINE
  5
4E7
100
AcDbEntity
  8
レイヤー_1
  6
CONTINUOUS
 62
       3
100
AcDbLine
 10
120.70471526
 20
10.68862406
 30
0.0
 11
121.69690276
 21
9.71839904
 31
0.0
  0
LINE
  5
4E8
100
AcDbEntity
  8
レイヤー_1
  6
CONTINUOUS
 62
       3
100
AcDbLine
 10
121.69690276
 20
9.71839904
 30
0.0
 11
121.69690276
 21
1.00955031
 31
0.0
  0
LINE
  5
4E9
100
AcDbEntity
  8
レイヤー_1
  6
CONTINUOUS
 62
       3
100
AcDbLine
 10
99.70341318
 20
9.20421855
 30
0.0
 11
108.21366032
 21
9.20421855
 31
0.0
  0
LINE
  5
4EA
100
AcDbEntity
  8
レイヤー_1
  6
CONTINUOUS
 62
       3
100
AcDbLine
 10
108.21366032
 20
9.20421855
 30
0.0
 11
108.21366032
 21
12.68807136
 31
0.0
  0
LINE
  5
4EB
100
AcDbEntity
  8
レイヤー_1
  6
CONTINUOUS
 62
       3
100
AcDbLine
 10
108.21366032
 20
12.68807136
 30
0.0
 11
99.70341318
 21
12.68807136
 31
0.0
  0
LINE
  5
4EC
100
AcDbEntity
  8
レイヤー_1
  6
CONTINUOUS
 62
       3
100
AcDbLine
 10
99.70341318
 20
12.68807136
 30
0.0
 11
99.70341318
 21
9.20421855
 31
0.0
  0
LINE
  5
4ED
100
AcDbEntity
  8
レイヤー_1
  6
CONTINUOUS
 62
       3
100
AcDbLine
 10
111.21175465
 20
16.45829772
 30
0.0
 11
117.71609493
 21
16.45829772
 31
0.0
  0
LINE
  5
4EE
100
AcDbEntity
  8
レイヤー_1
  6
CONTINUOUS
 62
       3
100
AcDbLine
 10
117.71609493
 20
16.45829772
 30
0.0
 11
117.71609493
 21
18.4646352
 31
0.0
  0
LINE
  5
4EF
100
AcDbEntity
  8
レイヤー_1
  6
CONTINUOUS
 62
       3
100
AcDbLine
 10
117.71609493
 20
18.4646352
 30
0.0
 11
111.21175465
 21
18.4646352
 31
0.0
  0
LINE
  5
4F0
100
AcDbEntity
  8
レイヤー_1
  6
CONTINUOUS
 62
       3
100
AcDbLine
 10
111.21175465
 20
18.4646352
 30
0.0
 11
111.21175465
 21
16.45829772
 31
0.0
  0
LINE
  5
4F1
100
AcDbEntity
  8
レイヤー_1
  6
CONTINUOUS
 62
       3
100
AcDbLine
 10
112.20394215
 20
21.19874911
 30
0.0
 11
118.70828243
 21
21.19874911
 31
0.0
  0
LINE
  5
4F2
100
AcDbEntity
  8
レイヤー_1
  6
CONTINUOUS
 62
       3
100
AcDbLine
 10
118.70828243
 20
21.19874911
 30
0.0
 11
118.70828243
 21
23.20508659
 31
0.0
  0
LINE
  5
4F3
100
AcDbEntity
  8
レイヤー_1
  6
CONTINUOUS
 62
       3
100
AcDbLine
 10
118.70828243
 20
23.20508659
 30
0.0
 11
112.20394215
 21
23.20508659
 31
0.0
  0
LINE
  5
4F4
100
AcDbEntity
  8
レイヤー_1
  6
CONTINUOUS
 62
       3
100
AcDbLine
 10
112.20394215
 20
23.20508659
 30
0.0
 11
112.20394215
 21
21.19874911
 31
0.0
  0
LINE
  5
4F5
100
AcDbEntity
  8
レイヤー_1
  6
CONTINUOUS
 62
       3
100
AcDbLine
 10
100.69560068
 20
16.45829772
 30
0.0
 11
107.19994096
 21
16.45829772
 31
0.0
  0
LINE
  5
4F6
100
AcDbEntity
  8
レイヤー_1
  6
CONTINUOUS
 62
       3
100
AcDbLine
 10
107.19994096
 20
16.45829772
 30
0.0
 11
107.19994096
 21
18.4646352
 31
0.0
  0
LINE
  5
4F7
100
AcDbEntity
  8
レイヤー_1
  6
CONTINUOUS
 62
       3
100
AcDbLine
 10
107.19994096
 20
18.4646352
 30
0.0
 11
100.69560068
 21
18.4646352
 31
0.0
  0
LINE
  5
4F8
100
AcDbEntity
  8
レイヤー_1
  6
CONTINUOUS
 62
       3
100
AcDbLine
 10
100.69560068
 20
18.4646352
 30
0.0
 11
100.69560068
 21
16.45829772
 31
0.0
  0
LINE
  5
4F9
100
AcDbEntity
  8
レイヤー_1
  6
CONTINUOUS
 62
       3
100
AcDbLine
 10
99.70341318
 20
21.19874911
 30
0.0
 11
106.20775346
 21
21.19874911
 31
0.0
  0
LINE
  5
4FA
100
AcDbEntity
  8
レイヤー_1
  6
CONTINUOUS
 62
       3
100
AcDbLine
 10
106.20775346
 20
21.19874911
 30
0.0
 11
106.20775346
 21
23.20508659
 31
0.0
  0
LINE
  5
4FB
100
AcDbEntity
  8
レイヤー_1
  6
CONTINUOUS
 62
       3
100
AcDbLine
 10
106.20775346
 20
23.20508659
 30
0.0
 11
99.70341318
 21
23.20508659
 31
0.0
  0
LINE
  5
4FC
100
AcDbEntity
  8
レイヤー_1
  6
CONTINUOUS
 62
       3
100
AcDbLine
 10
99.70341318
 20
23.20508659
 30
0.0
 11
99.70341318
 21
21.19874911
 31
0.0
  0
LINE
  5
4FD
100
AcDbEntity
  8
レイヤー_1
  6
CONTINUOUS
 62
       3
100
AcDbLine
 10
97.69664506
 20
24.19727409
 30
0.0
 11
98.71122568
 21
24.19727409
 31
0.0
  0
LINE
  5
4FE
100
AcDbEntity
  8
レイヤー_1
  6
CONTINUOUS
 62
       3
100
AcDbLine
 10
98.71122568
 20
24.19727409
 30
0.0
 11
98.71122568
 21
20.20656161
 31
0.0
  0
LINE
  5
4FF
100
AcDbEntity
  8
レイヤー_1
  6
CONTINUOUS
 62
       3
100
AcDbLine
 10
98.71122568
 20
20.20656161
 30
0.0
 11
99.70341318
 21
20.20656161
 31
0.0
  0
LINE
  5
500
100
AcDbEntity
  8
レイヤー_1
  6
CONTINUOUS
 62
       3
100
AcDbLine
 10
99.70341318
 20
20.20656161
 30
0.0
 11
99.70341318
 21
14.69440884
 31
0.0
  0
LINE
  5
501
100
AcDbEntity
  8
レイヤー_1
  6
CONTINUOUS
 62
       3
100
AcDbLine
 10
99.70341318
 20
14.69440884
 30
0.0
 11
108.21366032
 21
14.69440884
 31
0.0
  0
LINE
  5
502
100
AcDbEntity
  8
レイヤー_1
  6
CONTINUOUS
 62
       3
100
AcDbLine
 10
108.21366032
 20
14.69440884
 30
0.0
 11
108.21366032
 21
20.20656161
 31
0.0
  0
LINE
  5
503
100
AcDbEntity
  8
レイヤー_1
  6
CONTINUOUS
 62
       3
100
AcDbLine
 10
108.21366032
 20
20.20656161
 30
0.0
 11
107.19994096
 21
20.20656161
 31
0.0
  0
LINE
  5
504
100
AcDbEntity
  8
レイヤー_1
  6
CONTINUOUS
 62
       3
100
AcDbLine
 10
107.19994096
 20
20.20656161
 30
0.0
 11
107.19994096
 21
24.19727409
 31
0.0
  0
LINE
  5
505
100
AcDbEntity
  8
レイヤー_1
  6
CONTINUOUS
 62
       3
100
AcDbLine
 10
107.19994096
 20
24.19727409
 30
0.0
 11
111.21175465
 21
24.19727409
 31
0.0
  0
LINE
  5
506
100
AcDbEntity
  8
レイヤー_1
  6
CONTINUOUS
 62
       3
100
AcDbLine
 10
111.21175465
 20
24.19727409
 30
0.0
 11
111.21175465
 21
20.20656161
 31
0.0
  0
LINE
  5
507
100
AcDbEntity
  8
レイヤー_1
  6
CONTINUOUS
 62
       3
100
AcDbLine
 10
111.21175465
 20
20.20656161
 30
0.0
 11
110.19717403
 21
20.20656161
 31
0.0
  0
LINE
  5
508
100
AcDbEntity
  8
レイヤー_1
  6
CONTINUOUS
 62
       3
100
AcDbLine
 10
110.19717403
 20
20.20656161
 30
0.0
 11
110.19717403
 21
14.69440884
 31
0.0
  0
LINE
  5
509
100
AcDbEntity
  8
レイヤー_1
  6
CONTINUOUS
 62
       3
100
AcDbLine
 10
110.19717403
 20
14.69440884
 30
0.0
 11
118.70828243
 21
14.69440884
 31
0.0
  0
LINE
  5
50A
100
AcDbEntity
  8
レイヤー_1
  6
CONTINUOUS
 62
       3
100
AcDbLine
 10
118.70828243
 20
14.69440884
 30
0.0
 11
118.70828243
 21
20.20656161
 31
0.0
  0
LINE
  5
50B
100
AcDbEntity
  8
レイヤー_1
  6
CONTINUOUS
 62
       3
100
AcDbLine
 10
118.70828243
 20
20.20656161
 30
0.0
 11
119.70046993
 21
20.20656161
 31
0.0
  0
LINE
  5
50C
100
AcDbEntity
  8
レイヤー_1
  6
CONTINUOUS
 62
       3
100
AcDbLine
 10
119.70046993
 20
20.20656161
 30
0.0
 11
119.70046993
 21
24.19727409
 31
0.0
  0
LINE
  5
50D
100
AcDbEntity
  8
レイヤー_1
  6
CONTINUOUS
 62
       3
100
AcDbLine
 10
119.70046993
 20
24.19727409
 30
0.0
 11
120.71505055
 21
24.19727409
 31
0.0
  0
LINE
  5
50E
100
AcDbEntity
  8
レイヤー_1
  6
CONTINUOUS
 62
       3
100
AcDbLine
 10
110.19717403
 20
37.68482293
 30
0.0
 11
111.21175465
 21
37.68482293
 31
0.0
  0
LINE
  5
50F
100
AcDbEntity
  8
レイヤー_1
  6
CONTINUOUS
 62
       3
100
AcDbLine
 10
111.21175465
 20
37.68482293
 30
0.0
 11
111.21175465
 21
25.68512471
 31
0.0
  0
LINE
  5
510
100
AcDbEntity
  8
レイヤー_1
  6
CONTINUOUS
 62
       3
100
AcDbLine
 10
108.21366032
 20
25.6967519
 30
0.0
 11
108.21366032
 21
34.6927575
 31
0.0
  0
LINE
  5
511
100
AcDbEntity
  8
レイヤー_1
  6
CONTINUOUS
 62
       3
100
AcDbLine
 10
108.21366032
 20
34.6927575
 30
0.0
 11
110.19717403
 21
34.6927575
 31
0.0
  0
LINE
  5
512
100
AcDbEntity
  8
レイヤー_1
  6
CONTINUOUS
 62
       3
100
AcDbLine
 10
110.19717403
 20
34.6927575
 30
0.0
 11
110.19717403
 21
25.6967519
 31
0.0
  0
LINE
  5
513
100
AcDbEntity
  8
レイヤー_1
  6
CONTINUOUS
 62
       3
100
AcDbLine
 10
118.20099213
 20
-38.26532151
 30
0.0
 11
118.20099213
 21
-48.29743956
 31
0.0
  0
LINE
  5
514
100
AcDbEntity
  8
レイヤー_1
  6
CONTINUOUS
 62
       3
100
AcDbLine
 10
110.19717403
 20
-38.26532151
 30
0.0
 11
110.19717403
 21
-48.29743956
 31
0.0
  0
LINE
  5
515
100
AcDbEntity
  8
レイヤー_1
  6
CONTINUOUS
 62
       3
100
AcDbLine
 10
100.21070349
 20
-38.26532151
 30
0.0
 11
100.21070349
 21
-48.29743956
 31
0.0
  0
LINE
  5
516
100
AcDbEntity
  8
レイヤー_1
  6
CONTINUOUS
 62
       3
100
AcDbLine
 10
108.21366032
 20
-38.26532151
 30
0.0
 11
108.21366032
 21
-48.29743956
 31
0.0
  0
LINE
  5
517
100
AcDbEntity
  8
レイヤー_1
  6
CONTINUOUS
 62
       3
100
AcDbLine
 10
99.19612287
 20
-28.27755907
 30
0.0
 11
99.19612287
 21
-38.26532151
 31
0.0
  0
LINE
  5
518
100
AcDbEntity
  8
レイヤー_1
  6
CONTINUOUS
 62
       3
100
AcDbLine
 10
107.19994096
 20
-28.27755907
 30
0.0
 11
107.19994096
 21
-40.27165899
 31
0.0
  0
LINE
  5
519
100
AcDbEntity
  8
レイヤー_1
  6
CONTINUOUS
 62
       3
100
AcDbLine
 10
107.19994096
 20
-40.27165899
 30
0.0
 11
108.21366032
 21
-40.27165899
 31
0.0
  0
LINE
  5
51A
100
AcDbEntity
  8
レイヤー_1
  6
CONTINUOUS
 62
       3
100
AcDbLine
 10
119.21557275
 20
-28.27755907
 30
0.0
 11
119.21557275
 21
-38.26532151
 31
0.0
  0
LINE
  5
51B
100
AcDbEntity
  8
レイヤー_1
  6
CONTINUOUS
 62
       3
100
AcDbLine
 10
111.21175465
 20
-28.27755907
 30
0.0
 11
111.21175465
 21
-40.27165899
 31
0.0
  0
LINE
  5
51C
100
AcDbEntity
  8
レイヤー_1
  6
CONTINUOUS
 62
       3
100
AcDbLine
 10
111.21175465
 20
-40.27165899
 30
0.0
 11
110.19717403
 21
-40.27165899
 31
0.0
  0
LINE
  5
51D
100
AcDbEntity
  8
レイヤー_1
  6
CONTINUOUS
 62
       3
100
AcDbLine
 10
96.70790266
 20
-28.27755907
 30
0.0
 11
121.70293168
 21
-28.27755907
 31
0.0
  0
LINE
  5
51E
100
AcDbEntity
  8
レイヤー_1
  6
CONTINUOUS
 62
       3
100
AcDbLine
 10
99.19612287
 20
-36.76239861
 30
0.0
 11
107.19649586
 21
-36.76239861
 31
0.0
  0
LINE
  5
51F
100
AcDbEntity
  8
レイヤー_1
  6
CONTINUOUS
 62
       3
100
AcDbLine
 10
107.19649586
 20
-36.76239861
 30
0.0
 11
107.19649586
 21
-28.76245626
 31
0.0
  0
LINE
  5
520
100
AcDbEntity
  8
レイヤー_1
  6
CONTINUOUS
 62
       3
100
AcDbLine
 10
107.19649586
 20
-28.76245626
 30
0.0
 11
99.19612287
 21
-28.76245626
 31
0.0
  0
LINE
  5
521
100
AcDbEntity
  8
レイヤー_1
  6
CONTINUOUS
 62
       3
100
AcDbLine
 10
111.21175465
 20
-36.76239861
 30
0.0
 11
119.21212764
 21
-36.76239861
 31
0.0
  0
LINE
  5
522
100
AcDbEntity
  8
レイヤー_1
  6
CONTINUOUS
 62
       3
100
AcDbLine
 10
119.21212764
 20
-36.76239861
 30
0.0
 11
119.21212764
 21
-28.76245626
 31
0.0
  0
LINE
  5
523
100
AcDbEntity
  8
レイヤー_1
  6
CONTINUOUS
 62
       3
100
AcDbLine
 10
119.21212764
 20
-28.76245626
 30
0.0
 11
111.21175465
 21
-28.76245626
 31
0.0
  0
LINE
  5
524
100
AcDbEntity
  8
レイヤー_1
  6
CONTINUOUS
 62
       3
100
AcDbLine
 10
96.70790266
 20
-38.26532151
 30
0.0
 11
121.70293168
 21
-38.26532151
 31
0.0
  0
LINE
  5
525
100
AcDbEntity
  8
レイヤー_1
  6
CONTINUOUS
 62
       3
100
AcDbLine
 10
96.69756737
 20
25.6967519
 30
0.0
 11
121.69173512
 21
25.6967519
 31
0.0
  0
LINE
  5
526
100
AcDbEntity
  8
レイヤー_1
  6
CONTINUOUS
 62
       3
100
AcDbLine
 10
111.21175465
 20
26.20748731
 30
0.0
 11
119.21212764
 21
26.20748731
 31
0.0
  0
LINE
  5
527
100
AcDbEntity
  8
レイヤー_1
  6
CONTINUOUS
 62
       3
100
AcDbLine
 10
119.21212764
 20
26.20748731
 30
0.0
 11
119.21212764
 21
34.20742966
 31
0.0
  0
LINE
  5
528
100
AcDbEntity
  8
レイヤー_1
  6
CONTINUOUS
 62
       3
100
AcDbLine
 10
119.21212764
 20
34.20742966
 30
0.0
 11
111.21175465
 21
34.20742966
 31
0.0
  0
LINE
  5
529
100
AcDbEntity
  8
レイヤー_1
  6
CONTINUOUS
 62
       3
100
AcDbLine
 10
99.19612287
 20
26.20748731
 30
0.0
 11
107.19649586
 21
26.20748731
 31
0.0
  0
LINE
  5
52A
100
AcDbEntity
  8
レイヤー_1
  6
CONTINUOUS
 62
       3
100
AcDbLine
 10
107.19649586
 20
26.20748731
 30
0.0
 11
107.19649586
 21
34.20742966
 31
0.0
  0
LINE
  5
52B
100
AcDbEntity
  8
レイヤー_1
  6
CONTINUOUS
 62
       3
100
AcDbLine
 10
107.19649586
 20
34.20742966
 30
0.0
 11
99.19612287
 21
34.20742966
 31
0.0
  0
LINE
  5
52C
100
AcDbEntity
  8
レイヤー_1
  6
CONTINUOUS
 62
       3
100
AcDbLine
 10
119.21557275
 20
35.69528028
 30
0.0
 11
119.21557275
 21
25.68512471
 31
0.0
  0
LINE
  5
52D
100
AcDbEntity
  8
レイヤー_1
  6
CONTINUOUS
 62
       3
100
AcDbLine
 10
99.19612287
 20
35.69528028
 30
0.0
 11
99.19612287
 21
25.68512471
 31
0.0
  0
LINE
  5
52E
100
AcDbEntity
  8
レイヤー_1
  6
CONTINUOUS
 62
       3
100
AcDbLine
 10
108.21366032
 20
37.68482293
 30
0.0
 11
107.19994096
 21
37.68482293
 31
0.0
  0
LINE
  5
52F
100
AcDbEntity
  8
レイヤー_1
  6
CONTINUOUS
 62
       3
100
AcDbLine
 10
107.19994096
 20
37.68482293
 30
0.0
 11
107.19994096
 21
25.68512471
 31
0.0
  0
LINE
  5
530
100
AcDbEntity
  8
レイヤー_1
  6
CONTINUOUS
 62
       3
100
AcDbLine
 10
118.22338525
 20
41.72505866
 30
0.0
 11
119.70046993
 21
41.72505866
 31
0.0
  0
LINE
  5
531
100
AcDbEntity
  8
レイヤー_1
  6
CONTINUOUS
 62
       3
100
AcDbLine
 10
119.70046993
 20
41.72505866
 30
0.0
 11
119.70046993
 21
35.70690747
 31
0.0
  0
LINE
  5
532
100
AcDbEntity
  8
レイヤー_1
  6
CONTINUOUS
 62
       3
100
AcDbLine
 10
100.21070349
 20
41.72505866
 30
0.0
 11
98.70347422
 21
41.72505866
 31
0.0
  0
LINE
  5
533
100
AcDbEntity
  8
レイヤー_1
  6
CONTINUOUS
 62
       3
100
AcDbLine
 10
98.70347422
 20
41.72505866
 30
0.0
 11
98.70347422
 21
35.70690747
 31
0.0
  0
LINE
  5
534
100
AcDbEntity
  8
レイヤー_1
  6
CONTINUOUS
 62
       3
100
AcDbLine
 10
96.69756737
 20
35.70690747
 30
0.0
 11
121.69173512
 21
35.70690747
 31
0.0
  0
LINE
  5
535
100
AcDbEntity
  8
レイヤー_1
  6
CONTINUOUS
 62
       3
100
AcDbLine
 10
118.20099213
 20
45.71620177
 30
0.0
 11
118.20099213
 21
35.70690747
 31
0.0
  0
LINE
  5
536
100
AcDbEntity
  8
レイヤー_1
  6
CONTINUOUS
 62
       3
100
AcDbLine
 10
110.19717403
 20
45.71620177
 30
0.0
 11
110.19717403
 21
35.70690747
 31
0.0
  0
LINE
  5
537
100
AcDbEntity
  8
レイヤー_1
  6
CONTINUOUS
 62
       3
100
AcDbLine
 10
108.21366032
 20
45.71620177
 30
0.0
 11
108.21366032
 21
35.70690747
 31
0.0
  0
LINE
  5
538
100
AcDbEntity
  8
レイヤー_1
  6
CONTINUOUS
 62
       3
100
AcDbLine
 10
100.21070349
 20
45.71620177
 30
0.0
 11
100.21070349
 21
35.70690747
 31
0.0
  0
LINE
  5
539
100
AcDbEntity
  8
レイヤー_1
  6
CONTINUOUS
 62
       3
100
AcDbLine
 10
120.71505055
 20
-26.77808126
 30
0.0
 11
119.70046993
 21
-26.77808126
 31
0.0
  0
LINE
  5
53A
100
AcDbEntity
  8
レイヤー_1
  6
CONTINUOUS
 62
       3
100
AcDbLine
 10
119.70046993
 20
-26.77808126
 30
0.0
 11
119.70046993
 21
-22.78736876
 31
0.0
  0
LINE
  5
53B
100
AcDbEntity
  8
レイヤー_1
  6
CONTINUOUS
 62
       3
100
AcDbLine
 10
119.70046993
 20
-22.78736876
 30
0.0
 11
118.70828243
 21
-22.78736876
 31
0.0
  0
LINE
  5
53C
100
AcDbEntity
  8
レイヤー_1
  6
CONTINUOUS
 62
       3
100
AcDbLine
 10
118.70828243
 20
-22.78736876
 30
0.0
 11
118.70828243
 21
-17.27607726
 31
0.0
  0
LINE
  5
53D
100
AcDbEntity
  8
レイヤー_1
  6
CONTINUOUS
 62
       3
100
AcDbLine
 10
118.70828243
 20
-17.27607726
 30
0.0
 11
110.19717403
 21
-17.27607726
 31
0.0
  0
LINE
  5
53E
100
AcDbEntity
  8
レイヤー_1
  6
CONTINUOUS
 62
       3
100
AcDbLine
 10
110.19717403
 20
-17.27607726
 30
0.0
 11
110.19717403
 21
-19.03996616
 31
0.0
  0
LINE
  5
53F
100
AcDbEntity
  8
レイヤー_1
  6
CONTINUOUS
 62
       3
100
AcDbLine
 10
110.19717403
 20
-19.03996616
 30
0.0
 11
108.21366032
 21
-19.03996616
 31
0.0
  0
LINE
  5
540
100
AcDbEntity
  8
レイヤー_1
  6
CONTINUOUS
 62
       3
100
AcDbLine
 10
108.21366032
 20
-19.03996616
 30
0.0
 11
108.21366032
 21
-17.27607726
 31
0.0
  0
LINE
  5
541
100
AcDbEntity
  8
レイヤー_1
  6
CONTINUOUS
 62
       3
100
AcDbLine
 10
108.21366032
 20
-17.27607726
 30
0.0
 11
99.70341318
 21
-17.27607726
 31
0.0
  0
LINE
  5
542
100
AcDbEntity
  8
レイヤー_1
  6
CONTINUOUS
 62
       3
100
AcDbLine
 10
99.70341318
 20
-17.27607726
 30
0.0
 11
99.70341318
 21
-22.78736876
 31
0.0
  0
LINE
  5
543
100
AcDbEntity
  8
レイヤー_1
  6
CONTINUOUS
 62
       3
100
AcDbLine
 10
99.70341318
 20
-22.78736876
 30
0.0
 11
98.71122568
 21
-22.78736876
 31
0.0
  0
LINE
  5
544
100
AcDbEntity
  8
レイヤー_1
  6
CONTINUOUS
 62
       3
100
AcDbLine
 10
98.71122568
 20
-22.78736876
 30
0.0
 11
98.71122568
 21
-26.77808126
 31
0.0
  0
LINE
  5
545
100
AcDbEntity
  8
レイヤー_1
  6
CONTINUOUS
 62
       3
100
AcDbLine
 10
98.71122568
 20
-26.77808126
 30
0.0
 11
97.69664506
 21
-26.77808126
 31
0.0
  0
LINE
  5
546
100
AcDbEntity
  8
レイヤー_1
  6
CONTINUOUS
 62
       3
100
AcDbLine
 10
108.21366032
 20
-21.04544237
 30
0.0
 11
108.21366032
 21
-22.78736876
 31
0.0
  0
LINE
  5
547
100
AcDbEntity
  8
レイヤー_1
  6
CONTINUOUS
 62
       3
100
AcDbLine
 10
108.21366032
 20
-22.78736876
 30
0.0
 11
107.19994096
 21
-22.78736876
 31
0.0
  0
LINE
  5
548
100
AcDbEntity
  8
レイヤー_1
  6
CONTINUOUS
 62
       3
100
AcDbLine
 10
107.19994096
 20
-22.78736876
 30
0.0
 11
107.19994096
 21
-26.77808126
 31
0.0
  0
LINE
  5
549
100
AcDbEntity
  8
レイヤー_1
  6
CONTINUOUS
 62
       3
100
AcDbLine
 10
107.19994096
 20
-26.77808126
 30
0.0
 11
111.21175465
 21
-26.77808126
 31
0.0
  0
LINE
  5
54A
100
AcDbEntity
  8
レイヤー_1
  6
CONTINUOUS
 62
       3
100
AcDbLine
 10
111.21175465
 20
-26.77808126
 30
0.0
 11
111.21175465
 21
-22.78736876
 31
0.0
  0
LINE
  5
54B
100
AcDbEntity
  8
レイヤー_1
  6
CONTINUOUS
 62
       3
100
AcDbLine
 10
111.21175465
 20
-22.78736876
 30
0.0
 11
110.19717403
 21
-22.78736876
 31
0.0
  0
LINE
  5
54C
100
AcDbEntity
  8
レイヤー_1
  6
CONTINUOUS
 62
       3
100
AcDbLine
 10
110.19717403
 20
-22.78736876
 30
0.0
 11
110.19717403
 21
-21.04544237
 31
0.0
  0
LINE
  5
54D
100
AcDbEntity
  8
レイヤー_1
  6
CONTINUOUS
 62
       3
100
AcDbLine
 10
110.19717403
 20
-21.04544237
 30
0.0
 11
108.21366032
 21
-21.04544237
 31
0.0
  0
LINE
  5
54E
100
AcDbEntity
  8
レイヤー_1
  6
CONTINUOUS
 62
       3
100
AcDbLine
 10
116.70151431
 20
-8.78736199
 30
0.0
 11
120.71505055
 21
-8.78736199
 31
0.0
  0
LINE
  5
54F
100
AcDbEntity
  8
レイヤー_1
  6
CONTINUOUS
 62
       3
100
AcDbLine
 10
120.71505055
 20
-8.78736199
 30
0.0
 11
120.71505055
 21
-11.78588697
 31
0.0
  0
LINE
  5
550
100
AcDbEntity
  8
レイヤー_1
  6
CONTINUOUS
 62
       3
100
AcDbLine
 10
120.71505055
 20
-11.78588697
 30
0.0
 11
116.70151431
 21
-11.78588697
 31
0.0
  0
LINE
  5
551
100
AcDbEntity
  8
レイヤー_1
  6
CONTINUOUS
 62
       3
100
AcDbLine
 10
116.70151431
 20
-11.78588697
 30
0.0
 11
116.70151431
 21
-8.78736199
 31
0.0
  0
LINE
  5
552
100
AcDbEntity
  8
レイヤー_1
  6
CONTINUOUS
 62
       3
100
AcDbLine
 10
97.69664506
 20
-8.78736199
 30
0.0
 11
101.70932003
 21
-8.78736199
 31
0.0
  0
LINE
  5
553
100
AcDbEntity
  8
レイヤー_1
  6
CONTINUOUS
 62
       3
100
AcDbLine
 10
101.70932003
 20
-8.78736199
 30
0.0
 11
101.70932003
 21
-11.78588697
 31
0.0
  0
LINE
  5
554
100
AcDbEntity
  8
レイヤー_1
  6
CONTINUOUS
 62
       3
100
AcDbLine
 10
101.70932003
 20
-11.78588697
 30
0.0
 11
97.69664506
 21
-11.78588697
 31
0.0
  0
LINE
  5
555
100
AcDbEntity
  8
レイヤー_1
  6
CONTINUOUS
 62
       3
100
AcDbLine
 10
97.69664506
 20
-11.78588697
 30
0.0
 11
97.69664506
 21
-8.78736199
 31
0.0
  0
LINE
  5
556
100
AcDbEntity
  8
レイヤー_1
  6
CONTINUOUS
 62
       3
100
AcDbLine
 10
111.20141937
 20
-12.52399868
 30
0.0
 11
117.70575964
 21
-12.52399868
 31
0.0
  0
LINE
  5
557
100
AcDbEntity
  8
レイヤー_1
  6
CONTINUOUS
 62
       3
100
AcDbLine
 10
117.70575964
 20
-12.52399868
 30
0.0
 11
117.70575964
 21
-14.5307668
 31
0.0
  0
LINE
  5
558
100
AcDbEntity
  8
レイヤー_1
  6
CONTINUOUS
 62
       3
100
AcDbLine
 10
117.70575964
 20
-14.5307668
 30
0.0
 11
111.20141937
 21
-14.5307668
 31
0.0
  0
LINE
  5
559
100
AcDbEntity
  8
レイヤー_1
  6
CONTINUOUS
 62
       3
100
AcDbLine
 10
111.20141937
 20
-14.5307668
 30
0.0
 11
111.20141937
 21
-12.52399868
 31
0.0
  0
LINE
  5
55A
100
AcDbEntity
  8
レイヤー_1
  6
CONTINUOUS
 62
       3
100
AcDbLine
 10
110.19717403
 20
-11.78588697
 30
0.0
 11
118.70828243
 21
-11.78588697
 31
0.0
  0
LINE
  5
55B
100
AcDbEntity
  8
レイヤー_1
  6
CONTINUOUS
 62
       3
100
AcDbLine
 10
118.70828243
 20
-11.78588697
 30
0.0
 11
118.70828243
 21
-15.26973978
 31
0.0
  0
LINE
  5
55C
100
AcDbEntity
  8
レイヤー_1
  6
CONTINUOUS
 62
       3
100
AcDbLine
 10
118.70828243
 20
-15.26973978
 30
0.0
 11
110.19717403
 21
-15.26973978
 31
0.0
  0
LINE
  5
55D
100
AcDbEntity
  8
レイヤー_1
  6
CONTINUOUS
 62
       3
100
AcDbLine
 10
110.19717403
 20
-15.26973978
 30
0.0
 11
110.19717403
 21
-11.78588697
 31
0.0
  0
LINE
  5
55E
100
AcDbEntity
  8
レイヤー_1
  6
CONTINUOUS
 62
       3
100
AcDbLine
 10
100.68440412
 20
-12.52399868
 30
0.0
 11
107.1887444
 21
-12.52399868
 31
0.0
  0
LINE
  5
55F
100
AcDbEntity
  8
レイヤー_1
  6
CONTINUOUS
 62
       3
100
AcDbLine
 10
107.1887444
 20
-12.52399868
 30
0.0
 11
107.1887444
 21
-14.5307668
 31
0.0
  0
LINE
  5
560
100
AcDbEntity
  8
レイヤー_1
  6
CONTINUOUS
 62
       3
100
AcDbLine
 10
107.1887444
 20
-14.5307668
 30
0.0
 11
100.68440412
 21
-14.5307668
 31
0.0
  0
LINE
  5
561
100
AcDbEntity
  8
レイヤー_1
  6
CONTINUOUS
 62
       3
100
AcDbLine
 10
100.68440412
 20
-14.5307668
 30
0.0
 11
100.68440412
 21
-12.52399868
 31
0.0
  0
LINE
  5
562
100
AcDbEntity
  8
レイヤー_1
  6
CONTINUOUS
 62
       3
100
AcDbLine
 10
99.70341318
 20
-11.78588697
 30
0.0
 11
108.21366032
 21
-11.78588697
 31
0.0
  0
LINE
  5
563
100
AcDbEntity
  8
レイヤー_1
  6
CONTINUOUS
 62
       3
100
AcDbLine
 10
108.21366032
 20
-11.78588697
 30
0.0
 11
108.21366032
 21
-15.26973978
 31
0.0
  0
LINE
  5
564
100
AcDbEntity
  8
レイヤー_1
  6
CONTINUOUS
 62
       3
100
AcDbLine
 10
108.21366032
 20
-15.26973978
 30
0.0
 11
99.70341318
 21
-15.26973978
 31
0.0
  0
LINE
  5
565
100
AcDbEntity
  8
レイヤー_1
  6
CONTINUOUS
 62
       3
100
AcDbLine
 10
99.70341318
 20
-15.26973978
 30
0.0
 11
99.70341318
 21
-11.78588697
 31
0.0
  0
LINE
  5
566
100
AcDbEntity
  8
レイヤー_1
  6
CONTINUOUS
 62
       3
100
AcDbLine
 10
111.21175465
 20
-19.03996616
 30
0.0
 11
117.71609493
 21
-19.03996616
 31
0.0
  0
LINE
  5
567
100
AcDbEntity
  8
レイヤー_1
  6
CONTINUOUS
 62
       3
100
AcDbLine
 10
117.71609493
 20
-19.03996616
 30
0.0
 11
117.71609493
 21
-21.04630364
 31
0.0
  0
LINE
  5
568
100
AcDbEntity
  8
レイヤー_1
  6
CONTINUOUS
 62
       3
100
AcDbLine
 10
117.71609493
 20
-21.04630364
 30
0.0
 11
111.21175465
 21
-21.04630364
 31
0.0
  0
LINE
  5
569
100
AcDbEntity
  8
レイヤー_1
  6
CONTINUOUS
 62
       3
100
AcDbLine
 10
111.21175465
 20
-21.04630364
 30
0.0
 11
111.21175465
 21
-19.03996616
 31
0.0
  0
LINE
  5
56A
100
AcDbEntity
  8
レイヤー_1
  6
CONTINUOUS
 62
       3
100
AcDbLine
 10
112.20394215
 20
-23.77955626
 30
0.0
 11
118.70828243
 21
-23.77955626
 31
0.0
  0
LINE
  5
56B
100
AcDbEntity
  8
レイヤー_1
  6
CONTINUOUS
 62
       3
100
AcDbLine
 10
118.70828243
 20
-23.77955626
 30
0.0
 11
118.70828243
 21
-25.78589376
 31
0.0
  0
LINE
  5
56C
100
AcDbEntity
  8
レイヤー_1
  6
CONTINUOUS
 62
       3
100
AcDbLine
 10
118.70828243
 20
-25.78589376
 30
0.0
 11
112.20394215
 21
-25.78589376
 31
0.0
  0
LINE
  5
56D
100
AcDbEntity
  8
レイヤー_1
  6
CONTINUOUS
 62
       3
100
AcDbLine
 10
112.20394215
 20
-25.78589376
 30
0.0
 11
112.20394215
 21
-23.77955626
 31
0.0
  0
LINE
  5
56E
100
AcDbEntity
  8
レイヤー_1
  6
CONTINUOUS
 62
       3
100
AcDbLine
 10
100.69560068
 20
-19.03996616
 30
0.0
 11
107.19994096
 21
-19.03996616
 31
0.0
  0
LINE
  5
56F
100
AcDbEntity
  8
レイヤー_1
  6
CONTINUOUS
 62
       3
100
AcDbLine
 10
107.19994096
 20
-19.03996616
 30
0.0
 11
107.19994096
 21
-21.04630364
 31
0.0
  0
LINE
  5
570
100
AcDbEntity
  8
レイヤー_1
  6
CONTINUOUS
 62
       3
100
AcDbLine
 10
107.19994096
 20
-21.04630364
 30
0.0
 11
100.69560068
 21
-21.04630364
 31
0.0
  0
LINE
  5
571
100
AcDbEntity
  8
レイヤー_1
  6
CONTINUOUS
 62
       3
100
AcDbLine
 10
100.69560068
 20
-21.04630364
 30
0.0
 11
100.69560068
 21
-19.03996616
 31
0.0
  0
LINE
  5
572
100
AcDbEntity
  8
レイヤー_1
  6
CONTINUOUS
 62
       3
100
AcDbLine
 10
99.70341318
 20
-23.77955626
 30
0.0
 11
106.20775346
 21
-23.77955626
 31
0.0
  0
LINE
  5
573
100
AcDbEntity
  8
レイヤー_1
  6
CONTINUOUS
 62
       3
100
AcDbLine
 10
106.20775346
 20
-23.77955626
 30
0.0
 11
106.20775346
 21
-25.78589376
 31
0.0
  0
LINE
  5
574
100
AcDbEntity
  8
レイヤー_1
  6
CONTINUOUS
 62
       3
100
AcDbLine
 10
106.20775346
 20
-25.78589376
 30
0.0
 11
99.70341318
 21
-25.78589376
 31
0.0
  0
LINE
  5
575
100
AcDbEntity
  8
レイヤー_1
  6
CONTINUOUS
 62
       3
100
AcDbLine
 10
99.70341318
 20
-25.78589376
 30
0.0
 11
99.70341318
 21
-23.77955626
 31
0.0
  0
LINE
  5
576
100
AcDbEntity
  8
レイヤー_1
  6
CONTINUOUS
 62
       3
100
AcDbLine
 10
116.70151431
 20
6.20569357
 30
0.0
 11
120.71505055
 21
6.20569357
 31
0.0
  0
LINE
  5
577
100
AcDbEntity
  8
レイヤー_1
  6
CONTINUOUS
 62
       3
100
AcDbLine
 10
120.71505055
 20
6.20569357
 30
0.0
 11
120.71505055
 21
9.20421855
 31
0.0
  0
LINE
  5
578
100
AcDbEntity
  8
レイヤー_1
  6
CONTINUOUS
 62
       3
100
AcDbLine
 10
120.71505055
 20
9.20421855
 30
0.0
 11
116.70151431
 21
9.20421855
 31
0.0
  0
LINE
  5
579
100
AcDbEntity
  8
レイヤー_1
  6
CONTINUOUS
 62
       3
100
AcDbLine
 10
116.70151431
 20
9.20421855
 30
0.0
 11
116.70151431
 21
6.20569357
 31
0.0
  0
LINE
  5
57A
100
AcDbEntity
  8
レイヤー_1
  6
CONTINUOUS
 62
       3
100
AcDbLine
 10
97.69664506
 20
6.20569357
 30
0.0
 11
101.70932003
 21
6.20569357
 31
0.0
  0
LINE
  5
57B
100
AcDbEntity
  8
レイヤー_1
  6
CONTINUOUS
 62
       3
100
AcDbLine
 10
101.70932003
 20
6.20569357
 30
0.0
 11
101.70932003
 21
9.20421855
 31
0.0
  0
LINE
  5
57C
100
AcDbEntity
  8
レイヤー_1
  6
CONTINUOUS
 62
       3
100
AcDbLine
 10
101.70932003
 20
9.20421855
 30
0.0
 11
97.69664506
 21
9.20421855
 31
0.0
  0
LINE
  5
57D
100
AcDbEntity
  8
レイヤー_1
  6
CONTINUOUS
 62
       3
100
AcDbLine
 10
97.69664506
 20
9.20421855
 30
0.0
 11
97.69664506
 21
6.20569357
 31
0.0
  0
LINE
  5
57E
100
AcDbEntity
  8
レイヤー_1
  6
CONTINUOUS
 62
       3
100
AcDbLine
 10
111.20141937
 20
9.94233026
 30
0.0
 11
117.70575964
 21
9.94233026
 31
0.0
  0
LINE
  5
57F
100
AcDbEntity
  8
レイヤー_1
  6
CONTINUOUS
 62
       3
100
AcDbLine
 10
117.70575964
 20
9.94233026
 30
0.0
 11
117.70575964
 21
11.94909838
 31
0.0
  0
LINE
  5
580
100
AcDbEntity
  8
レイヤー_1
  6
CONTINUOUS
 62
       3
100
AcDbLine
 10
117.70575964
 20
11.94909838
 30
0.0
 11
111.20141937
 21
11.94909838
 31
0.0
  0
LINE
  5
581
100
AcDbEntity
  8
レイヤー_1
  6
CONTINUOUS
 62
       3
100
AcDbLine
 10
111.20141937
 20
11.94909838
 30
0.0
 11
111.20141937
 21
9.94233026
 31
0.0
  0
LINE
  5
582
100
AcDbEntity
  8
レイヤー_1
  6
CONTINUOUS
 62
       3
100
AcDbLine
 10
110.19717403
 20
9.20421855
 30
0.0
 11
118.70828243
 21
9.20421855
 31
0.0
  0
LINE
  5
583
100
AcDbEntity
  8
レイヤー_1
  6
CONTINUOUS
 62
       3
100
AcDbLine
 10
118.70828243
 20
9.20421855
 30
0.0
 11
118.70828243
 21
12.68807136
 31
0.0
  0
LINE
  5
584
100
AcDbEntity
  8
レイヤー_1
  6
CONTINUOUS
 62
       3
100
AcDbLine
 10
118.70828243
 20
12.68807136
 30
0.0
 11
110.19717403
 21
12.68807136
 31
0.0
  0
LINE
  5
585
100
AcDbEntity
  8
レイヤー_1
  6
CONTINUOUS
 62
       3
100
AcDbLine
 10
110.19717403
 20
12.68807136
 30
0.0
 11
110.19717403
 21
9.20421855
 31
0.0
  0
LINE
  5
586
100
AcDbEntity
  8
レイヤー_1
  6
CONTINUOUS
 62
       3
100
AcDbLine
 10
100.68440412
 20
9.94233026
 30
0.0
 11
107.1887444
 21
9.94233026
 31
0.0
  0
LINE
  5
587
100
AcDbEntity
  8
レイヤー_1
  6
CONTINUOUS
 62
       3
100
AcDbLine
 10
107.1887444
 20
9.94233026
 30
0.0
 11
107.1887444
 21
11.94909838
 31
0.0
  0
LINE
  5
588
100
AcDbEntity
  8
レイヤー_1
  6
CONTINUOUS
 62
       3
100
AcDbLine
 10
107.1887444
 20
11.94909838
 30
0.0
 11
100.68440412
 21
11.94909838
 31
0.0
  0
LINE
  5
589
100
AcDbEntity
  8
レイヤー_1
  6
CONTINUOUS
 62
       3
100
AcDbLine
 10
100.68440412
 20
11.94909838
 30
0.0
 11
100.68440412
 21
9.94233026
 31
0.0
  0
LINE
  5
58A
100
AcDbEntity
  8
レイヤー_1
  6
CONTINUOUS
 62
       3
100
AcDbLine
 10
106.20603091
 20
-49.28273687
 30
0.0
 11
112.2056647
 21
-49.28273687
 31
0.0
  0
LINE
  5
58B
100
AcDbEntity
  8
レイヤー_1
  6
CONTINUOUS
 62
       3
100
AcDbLine
 10
112.2056647
 20
-49.28273687
 30
0.0
 11
112.2056647
 21
-48.28236726
 31
0.0
  0
LINE
  5
58C
100
AcDbEntity
  8
レイヤー_1
  6
CONTINUOUS
 62
       3
100
AcDbLine
 10
112.2056647
 20
-48.28236726
 30
0.0
 11
106.20603091
 21
-48.28236726
 31
0.0
  0
LINE
  5
58D
100
AcDbEntity
  8
レイヤー_1
  6
CONTINUOUS
 62
       3
100
AcDbLine
 10
106.20603091
 20
-48.28236726
 30
0.0
 11
106.20603091
 21
-49.28273687
 31
0.0
  0
LINE
  5
58E
100
AcDbEntity
  8
レイヤー_1
  6
CONTINUOUS
 62
       3
100
AcDbLine
 10
108.21366032
 20
-28.27755907
 30
0.0
 11
108.21366032
 21
-37.27313401
 31
0.0
  0
LINE
  5
58F
100
AcDbEntity
  8
レイヤー_1
  6
CONTINUOUS
 62
       3
100
AcDbLine
 10
108.21366032
 20
-37.27313401
 30
0.0
 11
110.19717403
 21
-37.27313401
 31
0.0
  0
LINE
  5
590
100
AcDbEntity
  8
レイヤー_1
  6
CONTINUOUS
 62
       3
100
AcDbLine
 10
110.19717403
 20
-37.27313401
 30
0.0
 11
110.19717403
 21
-28.27755907
 31
0.0
  0
LINE
  5
591
100
AcDbEntity
  8
レイヤー_1
  6
CONTINUOUS
 62
       3
100
AcDbLine
 10
97.69664506
 20
20.20656161
 30
0.0
 11
98.71122568
 21
20.20656161
 31
0.0
  0
LINE
  5
592
100
AcDbEntity
  8
レイヤー_1
  6
CONTINUOUS
 62
       3
100
AcDbLine
 10
98.71122568
 20
20.20656161
 30
0.0
 11
98.71122568
 21
10.70369636
 31
0.0
  0
LINE
  5
593
100
AcDbEntity
  8
レイヤー_1
  6
CONTINUOUS
 62
       3
100
AcDbLine
 10
98.71122568
 20
10.70369636
 30
0.0
 11
97.69664506
 21
10.70369636
 31
0.0
  0
LINE
  5
594
100
AcDbEntity
  8
レイヤー_1
  6
CONTINUOUS
 62
       3
100
AcDbLine
 10
99.70341318
 20
15.20169915
 30
0.0
 11
98.71122568
 21
15.20169915
 31
0.0
  0
LINE
  5
595
100
AcDbEntity
  8
レイヤー_1
  6
CONTINUOUS
 62
       3
100
AcDbLine
 10
120.71505055
 20
20.20656161
 30
0.0
 11
119.70046993
 21
20.20656161
 31
0.0
  0
LINE
  5
596
100
AcDbEntity
  8
レイヤー_1
  6
CONTINUOUS
 62
       3
100
AcDbLine
 10
119.70046993
 20
20.20656161
 30
0.0
 11
119.70046993
 21
10.70369636
 31
0.0
  0
LINE
  5
597
100
AcDbEntity
  8
レイヤー_1
  6
CONTINUOUS
 62
       3
100
AcDbLine
 10
119.70046993
 20
10.70369636
 30
0.0
 11
120.71505055
 21
10.70369636
 31
0.0
  0
LINE
  5
598
100
AcDbEntity
  8
レイヤー_1
  6
CONTINUOUS
 62
       3
100
AcDbLine
 10
118.70828243
 20
15.20169915
 30
0.0
 11
119.70046993
 21
15.20169915
 31
0.0
  0
LINE
  5
599
100
AcDbEntity
  8
レイヤー_1
  6
CONTINUOUS
 62
       3
100
AcDbLine
 10
120.71505055
 20
-13.28536478
 30
0.0
 11
119.70046993
 21
-13.28536478
 31
0.0
  0
LINE
  5
59A
100
AcDbEntity
  8
レイヤー_1
  6
CONTINUOUS
 62
       3
100
AcDbLine
 10
119.70046993
 20
-13.28536478
 30
0.0
 11
119.70046993
 21
-22.78736876
 31
0.0
  0
LINE
  5
59B
100
AcDbEntity
  8
レイヤー_1
  6
CONTINUOUS
 62
       3
100
AcDbLine
 10
119.70046993
 20
-22.78736876
 30
0.0
 11
120.71505055
 21
-22.78736876
 31
0.0
  0
LINE
  5
59C
100
AcDbEntity
  8
レイヤー_1
  6
CONTINUOUS
 62
       3
100
AcDbLine
 10
118.73067555
 20
-17.78293693
 30
0.0
 11
119.70046993
 21
-17.78293693
 31
0.0
  0
LINE
  5
59D
100
AcDbEntity
  8
レイヤー_1
  6
CONTINUOUS
 62
       3
100
AcDbLine
 10
98.71122568
 20
-17.78293693
 30
0.0
 11
99.72494503
 21
-17.78293693
 31
0.0
  0
LINE
  5
59E
100
AcDbEntity
  8
レイヤー_1
  6
CONTINUOUS
 62
       3
100
AcDbLine
 10
97.69664506
 20
-13.28536478
 30
0.0
 11
98.71122568
 21
-13.28536478
 31
0.0
  0
LINE
  5
59F
100
AcDbEntity
  8
レイヤー_1
  6
CONTINUOUS
 62
       3
100
AcDbLine
 10
98.71122568
 20
-13.28536478
 30
0.0
 11
98.71122568
 21
-22.78736876
 31
0.0
  0
LINE
  5
5A0
100
AcDbEntity
  8
レイヤー_1
  6
CONTINUOUS
 62
       3
100
AcDbLine
 10
98.71122568
 20
-22.78736876
 30
0.0
 11
97.69664506
 21
-22.78736876
 31
0.0
  0
LINE
  5
5A1
100
AcDbEntity
  8
レイヤー_1
  6
CONTINUOUS
 62
       3
100
AcDbLine
 10
96.73029578
 20
-6.23756069
 30
0.0
 11
101.74204844
 21
-6.23756069
 31
0.0
  0
LINE
  5
5A2
100
AcDbEntity
  8
レイヤー_1
  6
CONTINUOUS
 62
       3
100
AcDbLine
 10
107.19994096
 20
-38.77261182
 30
0.0
 11
100.21070349
 21
-38.77261182
 31
0.0
  0
LINE
  5
5A3
100
AcDbEntity
  8
レイヤー_1
  6
CONTINUOUS
 62
       3
100
AcDbLine
 10
100.21070349
 20
-46.77255418
 30
0.0
 11
108.20935395
 21
-46.77255418
 31
0.0
  0
LINE
  5
5A4
100
AcDbEntity
  8
レイヤー_1
  6
CONTINUOUS
 62
       3
100
AcDbLine
 10
108.20935395
 20
-46.77255418
 30
0.0
 11
108.20935395
 21
-38.77261182
 31
0.0
  0
LINE
  5
5A5
100
AcDbEntity
  8
レイヤー_1
  6
CONTINUOUS
 62
       3
100
AcDbLine
 10
110.19717403
 20
-46.77255418
 30
0.0
 11
118.19754702
 21
-46.77255418
 31
0.0
  0
LINE
  5
5A6
100
AcDbEntity
  8
レイヤー_1
  6
CONTINUOUS
 62
       3
100
AcDbLine
 10
118.19754702
 20
-46.77255418
 30
0.0
 11
118.19754702
 21
-38.77261182
 31
0.0
  0
LINE
  5
5A7
100
AcDbEntity
  8
レイヤー_1
  6
CONTINUOUS
 62
       3
100
AcDbLine
 10
118.19754702
 20
-38.77261182
 30
0.0
 11
111.21175465
 21
-38.77261182
 31
0.0
  0
LINE
  5
5A8
100
AcDbEntity
  8
レイヤー_1
  6
CONTINUOUS
 62
       3
100
AcDbLine
 10
111.21175465
 20
36.21721224
 30
0.0
 11
118.20960486
 21
36.21721224
 31
0.0
  0
LINE
  5
5A9
100
AcDbEntity
  8
レイヤー_1
  6
CONTINUOUS
 62
       3
100
AcDbLine
 10
118.20960486
 20
36.21721224
 30
0.0
 11
118.20960486
 21
44.21672396
 31
0.0
  0
LINE
  5
5AA
100
AcDbEntity
  8
レイヤー_1
  6
CONTINUOUS
 62
       3
100
AcDbLine
 10
118.20960486
 20
44.21672396
 30
0.0
 11
110.18770003
 21
44.21672396
 31
0.0
  0
LINE
  5
5AB
100
AcDbEntity
  8
レイヤー_1
  6
CONTINUOUS
 62
       3
100
AcDbLine
 10
110.18770003
 20
44.21672396
 30
0.0
 11
110.18770003
 21
36.21721224
 31
0.0
  0
LINE
  5
5AC
100
AcDbEntity
  8
レイヤー_1
  6
CONTINUOUS
 62
       3
100
AcDbLine
 10
108.20935395
 20
36.21721224
 30
0.0
 11
108.20935395
 21
44.21672396
 31
0.0
  0
LINE
  5
5AD
100
AcDbEntity
  8
レイヤー_1
  6
CONTINUOUS
 62
       3
100
AcDbLine
 10
108.20935395
 20
44.21672396
 30
0.0
 11
100.21070349
 21
44.21672396
 31
0.0
  0
LINE
  5
5AE
100
AcDbEntity
  8
レイヤー_1
  6
CONTINUOUS
 62
       3
100
AcDbLine
 10
100.21070349
 20
36.21721224
 30
0.0
 11
107.19994096
 21
36.21721224
 31
0.0
  0
LINE
  5
5AF
100
AcDbEntity
  8
レイヤー_1
  6
CONTINUOUS
 62
       3
100
AcDbLine
 10
96.69756737
 20
3.73642138
 30
0.0
 11
101.70932003
 21
3.7308231
 31
0.0
  0
LINE
  5
5B0
100
AcDbEntity
  8
レイヤー_1
  6
CONTINUOUS
 62
       3
100
AcDbLine
 10
36.23747083
 20
-41.21475388
 30
0.0
 11
36.23747083
 21
-30.22403801
 31
0.0
  0
LINE
  5
5B1
100
AcDbEntity
  8
レイヤー_1
  6
CONTINUOUS
 62
       3
100
AcDbLine
 10
36.23747083
 20
-30.22403801
 30
0.0
 11
38.24423895
 21
-28.21726989
 31
0.0
  0
LINE
  5
5B2
100
AcDbEntity
  8
レイヤー_1
  6
CONTINUOUS
 62
       3
100
AcDbLine
 10
38.24423895
 20
-28.21726989
 30
0.0
 11
38.24423895
 21
25.7794342
 31
0.0
  0
LINE
  5
5B3
100
AcDbEntity
  8
レイヤー_1
  6
CONTINUOUS
 62
       3
100
AcDbLine
 10
38.24423895
 20
25.7794342
 30
0.0
 11
36.23747083
 21
27.78620232
 31
0.0
  0
LINE
  5
5B4
100
AcDbEntity
  8
レイヤー_1
  6
CONTINUOUS
 62
       3
100
AcDbLine
 10
36.23747083
 20
27.78620232
 30
0.0
 11
36.23747083
 21
38.78380839
 31
0.0
  0
LINE
  5
5B5
100
AcDbEntity
  8
レイヤー_1
  6
CONTINUOUS
 62
       3
100
AcDbLine
 10
-66.63001319
 20
38.7595503
 30
0.0
 11
-68.75576105
 21
28.71300767
 31
0.0
  0
LINE
  5
5B6
100
AcDbEntity
  8
レイヤー_1
  6
CONTINUOUS
 62
       3
100
AcDbLine
 10
-68.75576105
 20
25.78930323
 30
0.0
 11
-66.73212686
 21
25.79622903
 31
0.0
  0
LINE
  5
5B7
100
AcDbEntity
  8
レイヤー_1
  6
CONTINUOUS
 62
       3
100
AcDbLine
 10
-66.73212686
 20
25.79622903
 30
0.0
 11
-66.73212686
 21
-28.2220069
 31
0.0
  0
LINE
  5
5B8
100
AcDbEntity
  8
レイヤー_1
  6
CONTINUOUS
 62
       3
100
AcDbLine
 10
-66.73212686
 20
-28.2220069
 30
0.0
 11
-68.75576105
 21
-28.2220069
 31
0.0
  0
LINE
  5
5B9
100
AcDbEntity
  8
レイヤー_1
  6
CONTINUOUS
 62
       3
100
AcDbLine
 10
-68.75576105
 20
-31.13880408
 30
0.0
 11
-66.61786849
 21
-41.2404497
 31
0.0
  0
LINE
  5
5BA
100
AcDbEntity
  8
レイヤー_1
  6
CONTINUOUS
 62
       3
100
AcDbLine
 10
22.76887003
 20
-41.19968159
 30
0.0
 11
22.76887003
 21
-39.1933441
 31
0.0
  0
LINE
  5
5BB
100
AcDbEntity
  8
レイヤー_1
  6
CONTINUOUS
 62
       3
100
AcDbLine
 10
22.76887003
 20
-39.1933441
 30
0.0
 11
26.27425469
 21
-39.1933441
 31
0.0
  0
LINE
  5
5BC
100
AcDbEntity
  8
レイヤー_1
  6
CONTINUOUS
 62
       3
100
AcDbLine
 10
26.27425469
 20
-39.1933441
 30
0.0
 11
26.27425469
 21
-41.19968159
 31
0.0
  0
LINE
  5
5BD
100
AcDbEntity
  8
レイヤー_1
  6
CONTINUOUS
 62
       3
100
AcDbLine
 10
17.2782491
 20
-41.19968159
 30
0.0
 11
17.2782491
 21
-39.1933441
 31
0.0
  0
LINE
  5
5BE
100
AcDbEntity
  8
レイヤー_1
  6
CONTINUOUS
 62
       3
100
AcDbLine
 10
17.2782491
 20
-39.1933441
 30
0.0
 11
20.76210191
 21
-39.1933441
 31
0.0
  0
LINE
  5
5BF
100
AcDbEntity
  8
レイヤー_1
  6
CONTINUOUS
 62
       3
100
AcDbLine
 10
20.76210191
 20
-39.1933441
 30
0.0
 11
20.76210191
 21
-41.19968159
 31
0.0
  0
LINE
  5
5C0
100
AcDbEntity
  8
レイヤー_1
  6
CONTINUOUS
 62
       3
100
AcDbLine
 10
11.76609632
 20
-41.19968159
 30
0.0
 11
11.76609632
 21
-39.1933441
 31
0.0
  0
LINE
  5
5C1
100
AcDbEntity
  8
レイヤー_1
  6
CONTINUOUS
 62
       3
100
AcDbLine
 10
11.76609632
 20
-39.1933441
 30
0.0
 11
15.27234225
 21
-39.1933441
 31
0.0
  0
LINE
  5
5C2
100
AcDbEntity
  8
レイヤー_1
  6
CONTINUOUS
 62
       3
100
AcDbLine
 10
15.27234225
 20
-39.1933441
 30
0.0
 11
15.27234225
 21
-41.19968159
 31
0.0
  0
LINE
  5
5C3
100
AcDbEntity
  8
レイヤー_1
  6
CONTINUOUS
 62
       3
100
AcDbLine
 10
-47.74189927
 20
-41.19968159
 30
0.0
 11
-47.74189927
 21
-39.1933441
 31
0.0
  0
LINE
  5
5C4
100
AcDbEntity
  8
レイヤー_1
  6
CONTINUOUS
 62
       3
100
AcDbLine
 10
-47.74189927
 20
-39.1933441
 30
0.0
 11
-44.23651461
 21
-39.1933441
 31
0.0
  0
LINE
  5
5C5
100
AcDbEntity
  8
レイヤー_1
  6
CONTINUOUS
 62
       3
100
AcDbLine
 10
-44.23651461
 20
-39.1933441
 30
0.0
 11
-44.23651461
 21
-41.19968159
 31
0.0
  0
LINE
  5
5C6
100
AcDbEntity
  8
レイヤー_1
  6
CONTINUOUS
 62
       3
100
AcDbLine
 10
-53.23208956
 20
-41.19968159
 30
0.0
 11
-53.23208956
 21
-39.1933441
 31
0.0
  0
LINE
  5
5C7
100
AcDbEntity
  8
レイヤー_1
  6
CONTINUOUS
 62
       3
100
AcDbLine
 10
-53.23208956
 20
-39.1933441
 30
0.0
 11
-49.74866739
 21
-39.1933441
 31
0.0
  0
LINE
  5
5C8
100
AcDbEntity
  8
レイヤー_1
  6
CONTINUOUS
 62
       3
100
AcDbLine
 10
-49.74866739
 20
-39.1933441
 30
0.0
 11
-49.74866739
 21
-41.19968159
 31
0.0
  0
LINE
  5
5C9
100
AcDbEntity
  8
レイヤー_1
  6
CONTINUOUS
 62
       3
100
AcDbLine
 10
-58.72227985
 20
-41.19968159
 30
0.0
 11
-58.72227985
 21
-39.1933441
 31
0.0
  0
LINE
  5
5CA
100
AcDbEntity
  8
レイヤー_1
  6
CONTINUOUS
 62
       3
100
AcDbLine
 10
-58.72227985
 20
-39.1933441
 30
0.0
 11
-55.21646456
 21
-39.1933441
 31
0.0
  0
LINE
  5
5CB
100
AcDbEntity
  8
レイヤー_1
  6
CONTINUOUS
 62
       3
100
AcDbLine
 10
-55.21646456
 20
-39.1933441
 30
0.0
 11
-55.21646456
 21
-41.19968159
 31
0.0
  0
LINE
  5
5CC
100
AcDbEntity
  8
レイヤー_1
  6
CONTINUOUS
 62
       3
100
AcDbLine
 10
6.76123386
 20
38.78380839
 30
0.0
 11
6.76123386
 21
36.7774709
 31
0.0
  0
LINE
  5
5CD
100
AcDbEntity
  8
レイヤー_1
  6
CONTINUOUS
 62
       3
100
AcDbLine
 10
6.76123386
 20
36.7774709
 30
0.0
 11
10.26661851
 21
36.7774709
 31
0.0
  0
LINE
  5
5CE
100
AcDbEntity
  8
レイヤー_1
  6
CONTINUOUS
 62
       3
100
AcDbLine
 10
10.26661851
 20
36.7774709
 30
0.0
 11
10.26661851
 21
38.78380839
 31
0.0
  0
LINE
  5
5CF
100
AcDbEntity
  8
レイヤー_1
  6
CONTINUOUS
 62
       3
100
AcDbLine
 10
12.25099351
 20
38.78380839
 30
0.0
 11
12.25099351
 21
36.7774709
 31
0.0
  0
LINE
  5
5D0
100
AcDbEntity
  8
レイヤー_1
  6
CONTINUOUS
 62
       3
100
AcDbLine
 10
12.25099351
 20
36.7774709
 30
0.0
 11
15.75723944
 21
36.7774709
 31
0.0
  0
LINE
  5
5D1
100
AcDbEntity
  8
レイヤー_1
  6
CONTINUOUS
 62
       3
100
AcDbLine
 10
15.75723944
 20
36.7774709
 30
0.0
 11
15.75723944
 21
38.78380839
 31
0.0
  0
LINE
  5
5D2
100
AcDbEntity
  8
レイヤー_1
  6
CONTINUOUS
 62
       3
100
AcDbLine
 10
17.76314629
 20
38.78380839
 30
0.0
 11
17.76314629
 21
36.7774709
 31
0.0
  0
LINE
  5
5D3
100
AcDbEntity
  8
レイヤー_1
  6
CONTINUOUS
 62
       3
100
AcDbLine
 10
17.76314629
 20
36.7774709
 30
0.0
 11
21.2469991
 21
36.7774709
 31
0.0
  0
LINE
  5
5D4
100
AcDbEntity
  8
レイヤー_1
  6
CONTINUOUS
 62
       3
100
AcDbLine
 10
21.2469991
 20
36.7774709
 30
0.0
 11
21.2469991
 21
38.78380839
 31
0.0
  0
LINE
  5
5D5
100
AcDbEntity
  8
レイヤー_1
  6
CONTINUOUS
 62
       3
100
AcDbLine
 10
23.25376722
 20
38.78380839
 30
0.0
 11
23.25376722
 21
36.7774709
 31
0.0
  0
LINE
  5
5D6
100
AcDbEntity
  8
レイヤー_1
  6
CONTINUOUS
 62
       3
100
AcDbLine
 10
23.25376722
 20
36.7774709
 30
0.0
 11
26.75915188
 21
36.7774709
 31
0.0
  0
LINE
  5
5D7
100
AcDbEntity
  8
レイヤー_1
  6
CONTINUOUS
 62
       3
100
AcDbLine
 10
26.75915188
 20
36.7774709
 30
0.0
 11
26.75915188
 21
38.78380839
 31
0.0
  0
LINE
  5
5D8
100
AcDbEntity
  8
レイヤー_1
  6
CONTINUOUS
 62
       3
100
AcDbLine
 10
-47.74189927
 20
38.78380839
 30
0.0
 11
-47.74189927
 21
36.7774709
 31
0.0
  0
LINE
  5
5D9
100
AcDbEntity
  8
レイヤー_1
  6
CONTINUOUS
 62
       3
100
AcDbLine
 10
-47.74189927
 20
36.7774709
 30
0.0
 11
-44.23651461
 21
36.7774709
 31
0.0
  0
LINE
  5
5DA
100
AcDbEntity
  8
レイヤー_1
  6
CONTINUOUS
 62
       3
100
AcDbLine
 10
-44.23651461
 20
36.7774709
 30
0.0
 11
-44.23651461
 21
38.78380839
 31
0.0
  0
LINE
  5
5DB
100
AcDbEntity
  8
レイヤー_1
  6
CONTINUOUS
 62
       3
100
AcDbLine
 10
-53.23208956
 20
38.78380839
 30
0.0
 11
-53.23208956
 21
36.7774709
 31
0.0
  0
LINE
  5
5DC
100
AcDbEntity
  8
レイヤー_1
  6
CONTINUOUS
 62
       3
100
AcDbLine
 10
-53.23208956
 20
36.7774709
 30
0.0
 11
-49.74866739
 21
36.7774709
 31
0.0
  0
LINE
  5
5DD
100
AcDbEntity
  8
レイヤー_1
  6
CONTINUOUS
 62
       3
100
AcDbLine
 10
-49.74866739
 20
36.7774709
 30
0.0
 11
-49.74866739
 21
38.78380839
 31
0.0
  0
LINE
  5
5DE
100
AcDbEntity
  8
レイヤー_1
  6
CONTINUOUS
 62
       3
100
AcDbLine
 10
-58.72227985
 20
38.78380839
 30
0.0
 11
-58.72227985
 21
36.7774709
 31
0.0
  0
LINE
  5
5DF
100
AcDbEntity
  8
レイヤー_1
  6
CONTINUOUS
 62
       3
100
AcDbLine
 10
-58.72227985
 20
36.7774709
 30
0.0
 11
-55.21646456
 21
36.7774709
 31
0.0
  0
LINE
  5
5E0
100
AcDbEntity
  8
レイヤー_1
  6
CONTINUOUS
 62
       3
100
AcDbLine
 10
-55.21646456
 20
36.7774709
 30
0.0
 11
-55.21646456
 21
38.78380839
 31
0.0
  0
LINE
  5
5E1
100
AcDbEntity
  8
レイヤー_1
  6
CONTINUOUS
 62
       3
100
AcDbLine
 10
-12.74317423
 20
38.77605692
 30
0.0
 11
-12.74317423
 21
40.78239439
 31
0.0
  0
LINE
  5
5E2
100
AcDbEntity
  8
レイヤー_1
  6
CONTINUOUS
 62
       3
100
AcDbLine
 10
-12.74317423
 20
40.78239439
 30
0.0
 11
-12.23588392
 21
41.26729158
 31
0.0
  0
LINE
  5
5E3
100
AcDbEntity
  8
レイヤー_1
  6
CONTINUOUS
 62
       3
100
AcDbLine
 10
-12.23588392
 20
41.26729158
 30
0.0
 11
35.25561862
 21
41.26729158
 31
0.0
  0
LINE
  5
5E4
100
AcDbEntity
  8
レイヤー_1
  6
CONTINUOUS
 62
       3
100
AcDbLine
 10
35.25561862
 20
41.26729158
 30
0.0
 11
36.23660956
 21
40.26476881
 31
0.0
  0
LINE
  5
5E5
100
AcDbEntity
  8
レイヤー_1
  6
CONTINUOUS
 62
       3
100
AcDbLine
 10
36.23660956
 20
40.26476881
 30
0.0
 11
36.23660956
 21
38.77605692
 31
0.0
  0
LINE
  5
5E6
100
AcDbEntity
  8
レイヤー_1
  6
CONTINUOUS
 62
       3
100
AcDbLine
 10
4.25578817
 20
41.26729158
 30
0.0
 11
4.25578817
 21
38.77605692
 31
0.0
  0
LINE
  5
5E7
100
AcDbEntity
  8
レイヤー_1
  6
CONTINUOUS
 62
       3
100
AcDbLine
 10
-0.74950494
 20
41.26729158
 30
0.0
 11
-0.74950494
 21
38.77605692
 31
0.0
  0
LINE
  5
5E8
100
AcDbEntity
  8
レイヤー_1
  6
CONTINUOUS
 62
       3
100
AcDbLine
 10
-12.74317423
 20
-41.22982617
 30
0.0
 11
-12.74317423
 21
-43.21420117
 31
0.0
  0
LINE
  5
5E9
100
AcDbEntity
  8
レイヤー_1
  6
CONTINUOUS
 62
       3
100
AcDbLine
 10
-12.74317423
 20
-43.21420117
 30
0.0
 11
-12.23588392
 21
-43.72192212
 31
0.0
  0
LINE
  5
5EA
100
AcDbEntity
  8
レイヤー_1
  6
CONTINUOUS
 62
       3
100
AcDbLine
 10
-12.23588392
 20
-43.72192212
 30
0.0
 11
35.25561862
 21
-43.72192212
 31
0.0
  0
LINE
  5
5EB
100
AcDbEntity
  8
レイヤー_1
  6
CONTINUOUS
 62
       3
100
AcDbLine
 10
35.25561862
 20
-43.72192212
 30
0.0
 11
36.24780612
 21
-42.72973462
 31
0.0
  0
LINE
  5
5EC
100
AcDbEntity
  8
レイヤー_1
  6
CONTINUOUS
 62
       3
100
AcDbLine
 10
36.24780612
 20
-42.72973462
 30
0.0
 11
36.24780612
 21
-41.22982617
 31
0.0
  0
LINE
  5
5ED
100
AcDbEntity
  8
レイヤー_1
  6
CONTINUOUS
 62
       3
100
AcDbLine
 10
64.24868095
 20
-7.74220614
 30
0.0
 11
67.75492688
 21
-8.22710333
 31
0.0
  0
LINE
  5
5EE
100
AcDbEntity
  8
レイヤー_1
  6
CONTINUOUS
 62
       3
100
AcDbLine
 10
67.75492688
 20
-8.22710333
 30
0.0
 11
67.75492688
 21
-11.22605895
 31
0.0
  0
LINE
  5
5EF
100
AcDbEntity
  8
レイヤー_1
  6
CONTINUOUS
 62
       3
100
AcDbLine
 10
67.75492688
 20
-11.22605895
 30
0.0
 11
64.24868095
 21
-11.73291862
 31
0.0
  0
LINE
  5
5F0
100
AcDbEntity
  8
レイヤー_1
  6
CONTINUOUS
 62
       3
100
AcDbLine
 10
64.24868095
 20
9.27914938
 30
0.0
 11
67.75492688
 21
8.77228969
 31
0.0
  0
LINE
  5
5F1
100
AcDbEntity
  8
レイヤー_1
  6
CONTINUOUS
 62
       3
100
AcDbLine
 10
67.75492688
 20
8.77228969
 30
0.0
 11
67.75492688
 21
5.77376471
 31
0.0
  0
LINE
  5
5F2
100
AcDbEntity
  8
レイヤー_1
  6
CONTINUOUS
 62
       3
100
AcDbLine
 10
67.75492688
 20
5.77376471
 30
0.0
 11
64.24868095
 21
5.28843688
 31
0.0
  0
LINE
  5
5F3
100
AcDbEntity
  8
レイヤー_1
  6
CONTINUOUS
 62
       3
100
AcDbLine
 10
46.25839232
 20
35.76590474
 30
0.0
 11
68.24423895
 21
35.76590474
 31
0.0
  0
LINE
  5
5F4
100
AcDbEntity
  8
レイヤー_1
  6
CONTINUOUS
 62
       3
100
AcDbLine
 10
46.25839232
 20
36.78005471
 30
0.0
 11
68.24423895
 21
36.78005471
 31
0.0
  0
LINE
  5
5F5
100
AcDbEntity
  8
レイヤー_1
  6
CONTINUOUS
 62
       3
100
AcDbLine
 10
47.75787013
 20
41.78534782
 30
0.0
 11
47.75787013
 21
38.78639221
 31
0.0
  0
LINE
  5
5F6
100
AcDbEntity
  8
レイヤー_1
  6
CONTINUOUS
 62
       3
100
AcDbLine
 10
68.24423895
 20
41.78534782
 30
0.0
 11
47.25057982
 21
41.78534782
 31
0.0
  0
LINE
  5
5F7
100
AcDbEntity
  8
レイヤー_1
  6
CONTINUOUS
 62
       3
100
AcDbLine
 10
47.25057982
 20
41.78534782
 30
0.0
 11
47.25057982
 21
38.78639221
 31
0.0
  0
LINE
  5
5F8
100
AcDbEntity
  8
レイヤー_1
  6
CONTINUOUS
 62
       3
100
AcDbLine
 10
47.25057982
 20
38.78639221
 30
0.0
 11
68.24423895
 21
38.78639221
 31
0.0
  0
LINE
  5
5F9
100
AcDbEntity
  8
レイヤー_1
  6
CONTINUOUS
 62
       3
100
AcDbLine
 10
46.25839232
 20
-38.22053526
 30
0.0
 11
68.24423895
 21
-38.22053526
 31
0.0
  0
LINE
  5
5FA
100
AcDbEntity
  8
レイヤー_1
  6
CONTINUOUS
 62
       3
100
AcDbLine
 10
46.25839232
 20
-39.21272276
 30
0.0
 11
68.24423895
 21
-39.21272276
 31
0.0
  0
LINE
  5
5FB
100
AcDbEntity
  8
レイヤー_1
  6
CONTINUOUS
 62
       3
100
AcDbLine
 10
68.24423895
 20
-41.21906026
 30
0.0
 11
47.25057982
 21
-41.21906026
 31
0.0
  0
LINE
  5
5FC
100
AcDbEntity
  8
レイヤー_1
  6
CONTINUOUS
 62
       3
100
AcDbLine
 10
47.25057982
 20
-41.21906026
 30
0.0
 11
47.25057982
 21
-44.21758524
 31
0.0
  0
LINE
  5
5FD
100
AcDbEntity
  8
レイヤー_1
  6
CONTINUOUS
 62
       3
100
AcDbLine
 10
47.25057982
 20
-44.21758524
 30
0.0
 11
68.24423895
 21
-44.21758524
 31
0.0
  0
LINE
  5
5FE
100
AcDbEntity
  8
レイヤー_1
  6
CONTINUOUS
 62
       3
100
AcDbLine
 10
61.2505866
 20
-13.21043395
 30
0.0
 11
61.2505866
 21
-22.22797139
 31
0.0
  0
LINE
  5
5FF
100
AcDbEntity
  8
レイヤー_1
  6
CONTINUOUS
 62
       3
100
AcDbLine
 10
61.2505866
 20
-22.22797139
 30
0.0
 11
38.25457424
 21
-22.22797139
 31
0.0
  0
LINE
  5
600
100
AcDbEntity
  8
レイヤー_1
  6
CONTINUOUS
 62
       3
100
AcDbLine
 10
38.25457424
 20
-11.73377991
 30
0.0
 11
45.25586954
 21
-11.73377991
 31
0.0
  0
LINE
  5
601
100
AcDbEntity
  8
レイヤー_1
  6
CONTINUOUS
 62
       3
100
AcDbLine
 10
38.25457424
 20
-15.21763272
 30
0.0
 11
45.25586954
 21
-15.21763272
 31
0.0
  0
LINE
  5
602
100
AcDbEntity
  8
レイヤー_1
  6
CONTINUOUS
 62
       3
100
AcDbLine
 10
38.25457424
 20
-17.2239702
 30
0.0
 11
45.25586954
 21
-17.2239702
 31
0.0
  0
LINE
  5
603
100
AcDbEntity
  8
レイヤー_1
  6
CONTINUOUS
 62
       3
100
AcDbLine
 10
38.25457424
 20
-26.72683546
 30
0.0
 11
68.24423895
 21
-26.72683546
 31
0.0
  0
LINE
  5
604
100
AcDbEntity
  8
レイヤー_1
  6
CONTINUOUS
 62
       3
100
AcDbLine
 10
38.25457424
 20
-28.20348951
 30
0.0
 11
68.24423895
 21
-28.20348951
 31
0.0
  0
LINE
  5
605
100
AcDbEntity
  8
レイヤー_1
  6
CONTINUOUS
 62
       3
100
AcDbLine
 10
60.23600598
 20
-13.21043395
 30
0.0
 11
60.23600598
 21
-22.22797139
 31
0.0
  0
LINE
  5
606
100
AcDbEntity
  8
レイヤー_1
  6
CONTINUOUS
 62
       3
100
AcDbLine
 10
45.2438117
 20
-13.21043395
 30
0.0
 11
64.23920693
 21
-13.21043395
 31
0.0
  0
LINE
  5
607
100
AcDbEntity
  8
レイヤー_1
  6
CONTINUOUS
 62
       3
100
AcDbLine
 10
45.2438117
 20
-12.21824645
 30
0.0
 11
64.23920693
 21
-12.21824645
 31
0.0
  0
LINE
  5
608
100
AcDbEntity
  8
レイヤー_1
  6
CONTINUOUS
 62
       3
100
AcDbLine
 10
60.23600598
 20
19.77463276
 30
0.0
 11
60.23600598
 21
10.77862719
 31
0.0
  0
LINE
  5
609
100
AcDbEntity
  8
レイヤー_1
  6
CONTINUOUS
 62
       3
100
AcDbLine
 10
45.2438117
 20
9.78643969
 30
0.0
 11
64.23920693
 21
9.78643969
 31
0.0
  0
LINE
  5
60A
100
AcDbEntity
  8
レイヤー_1
  6
CONTINUOUS
 62
       3
100
AcDbLine
 10
45.2438117
 20
10.77862719
 30
0.0
 11
64.23920693
 21
10.77862719
 31
0.0
  0
LINE
  5
60B
100
AcDbEntity
  8
レイヤー_1
  6
CONTINUOUS
 62
       3
100
AcDbLine
 10
56.24572413
 20
-3.4207645
 30
0.0
 11
64.24868095
 21
-3.4207645
 31
0.0
  0
LINE
  5
60C
100
AcDbEntity
  8
レイヤー_1
  6
CONTINUOUS
 62
       3
100
AcDbLine
 10
56.24572413
 20
0.98895773
 30
0.0
 11
64.24868095
 21
0.98895773
 31
0.0
  0
LINE
  5
60D
100
AcDbEntity
  8
レイヤー_1
  6
CONTINUOUS
 62
       3
100
AcDbLine
 10
45.26620482
 20
4.77339511
 30
0.0
 11
46.25839232
 21
3.78120761
 31
0.0
  0
LINE
  5
60E
100
AcDbEntity
  8
レイヤー_1
  6
CONTINUOUS
 62
       3
100
AcDbLine
 10
46.25839232
 20
3.78120761
 30
0.0
 11
56.24572413
 21
3.78120761
 31
0.0
  0
LINE
  5
60F
100
AcDbEntity
  8
レイヤー_1
  6
CONTINUOUS
 62
       3
100
AcDbLine
 10
56.24572413
 20
3.78120761
 30
0.0
 11
56.24572413
 21
-6.21301438
 31
0.0
  0
LINE
  5
610
100
AcDbEntity
  8
レイヤー_1
  6
CONTINUOUS
 62
       3
100
AcDbLine
 10
56.24572413
 20
-6.21301438
 30
0.0
 11
46.25839232
 21
-6.21301438
 31
0.0
  0
LINE
  5
611
100
AcDbEntity
  8
レイヤー_1
  6
CONTINUOUS
 62
       3
100
AcDbLine
 10
46.25839232
 20
-6.21301438
 30
0.0
 11
45.26620482
 21
-7.20520188
 31
0.0
  0
LINE
  5
612
100
AcDbEntity
  8
レイヤー_1
  6
CONTINUOUS
 62
       3
100
AcDbLine
 10
46.25839232
 20
3.78120761
 30
0.0
 11
46.25839232
 21
-6.21301438
 31
0.0
  0
LINE
  5
613
100
AcDbEntity
  8
レイヤー_1
  6
CONTINUOUS
 62
       3
100
AcDbLine
 10
47.75787013
 20
-17.7312605
 30
0.0
 11
47.75787013
 21
-26.72683546
 31
0.0
  0
LINE
  5
614
100
AcDbEntity
  8
レイヤー_1
  6
CONTINUOUS
 62
       3
100
AcDbLine
 10
47.75787013
 20
-41.21906026
 30
0.0
 11
47.75787013
 21
-44.21758524
 31
0.0
  0
LINE
  5
615
100
AcDbEntity
  8
レイヤー_1
  6
CONTINUOUS
 62
       3
100
AcDbLine
 10
47.75787013
 20
24.27220492
 30
0.0
 11
47.75787013
 21
15.27662998
 31
0.0
  0
LINE
  5
616
100
AcDbEntity
  8
レイヤー_1
  6
CONTINUOUS
 62
       3
100
AcDbLine
 10
4.25578817
 20
-41.22982617
 30
0.0
 11
4.25578817
 21
-43.72192212
 31
0.0
  0
LINE
  5
617
100
AcDbEntity
  8
レイヤー_1
  6
CONTINUOUS
 62
       3
100
AcDbLine
 10
-0.74950494
 20
-41.22982617
 30
0.0
 11
-0.74950494
 21
-43.72192212
 31
0.0
  0
LINE
  5
618
100
AcDbEntity
  8
レイヤー_1
  6
CONTINUOUS
 62
       3
100
AcDbLine
 10
64.24868095
 20
-48.23069084
 30
0.0
 11
64.24868095
 21
-51.22835455
 31
0.0
  0
LINE
  5
619
100
AcDbEntity
  8
レイヤー_1
  6
CONTINUOUS
 62
       3
100
AcDbLine
 10
64.24868095
 20
-51.22835455
 30
0.0
 11
68.24423895
 21
-51.22835455
 31
0.0
  0
LINE
  5
61A
100
AcDbEntity
  8
レイヤー_1
  6
CONTINUOUS
 62
       3
100
AcDbLine
 10
65.74815876
 20
-19.02747768
 30
0.0
 11
65.74815876
 21
-18.03529018
 31
0.0
  0
LINE
  5
61B
100
AcDbEntity
  8
レイヤー_1
  6
CONTINUOUS
 62
       3
100
AcDbLine
 10
65.74815876
 20
-18.03529018
 30
0.0
 11
66.76273938
 21
-18.03529018
 31
0.0
  0
LINE
  5
61C
100
AcDbEntity
  8
レイヤー_1
  6
CONTINUOUS
 62
       3
100
AcDbLine
 10
66.76273938
 20
-18.03529018
 30
0.0
 11
67.75492688
 21
-19.02747768
 31
0.0
  0
LINE
  5
61D
100
AcDbEntity
  8
レイヤー_1
  6
CONTINUOUS
 62
       3
100
AcDbLine
 10
65.74815876
 20
16.55777486
 30
0.0
 11
65.74815876
 21
15.56558736
 31
0.0
  0
LINE
  5
61E
100
AcDbEntity
  8
レイヤー_1
  6
CONTINUOUS
 62
       3
100
AcDbLine
 10
65.74815876
 20
15.56558736
 30
0.0
 11
66.76273938
 21
15.56558736
 31
0.0
  0
LINE
  5
61F
100
AcDbEntity
  8
レイヤー_1
  6
CONTINUOUS
 62
       3
100
AcDbLine
 10
66.76273938
 20
15.56558736
 30
0.0
 11
67.75492688
 21
16.55432977
 31
0.0
  0
LINE
  5
620
100
AcDbEntity
  8
レイヤー_1
  6
CONTINUOUS
 62
       3
100
AcDbLine
 10
45.26620482
 20
9.2817332
 30
0.0
 11
45.26620482
 21
-11.72947353
 31
0.0
  0
LINE
  5
621
100
AcDbEntity
  8
レイヤー_1
  6
CONTINUOUS
 62
       3
100
AcDbLine
 10
45.26620482
 20
-11.72947353
 30
0.0
 11
45.26620482
 21
-17.7312605
 31
0.0
  0
LINE
  5
622
100
AcDbEntity
  8
レイヤー_1
  6
CONTINUOUS
 62
       3
100
AcDbLine
 10
45.26620482
 20
-17.7312605
 30
0.0
 11
49.76377698
 21
-17.7312605
 31
0.0
  0
LINE
  5
623
100
AcDbEntity
  8
レイヤー_1
  6
CONTINUOUS
 62
       3
100
AcDbLine
 10
49.76377698
 20
-17.7312605
 30
0.0
 11
49.76377698
 21
-26.72683546
 31
0.0
  0
LINE
  5
624
100
AcDbEntity
  8
レイヤー_1
  6
CONTINUOUS
 62
       3
100
AcDbLine
 10
49.76377698
 20
24.27220492
 30
0.0
 11
49.76377698
 21
15.27662998
 31
0.0
  0
LINE
  5
625
100
AcDbEntity
  8
レイヤー_1
  6
CONTINUOUS
 62
       3
100
AcDbLine
 10
49.76377698
 20
15.27662998
 30
0.0
 11
45.26620482
 21
15.27662998
 31
0.0
  0
LINE
  5
626
100
AcDbEntity
  8
レイヤー_1
  6
CONTINUOUS
 62
       3
100
AcDbLine
 10
45.26620482
 20
15.27662998
 30
0.0
 11
45.26620482
 21
9.2817332
 31
0.0
  0
LINE
  5
627
100
AcDbEntity
  8
レイヤー_1
  6
CONTINUOUS
 62
       3
100
AcDbLine
 10
36.24780612
 20
-37.72831726
 30
0.0
 11
37.23999362
 21
-36.73612976
 31
0.0
  0
LINE
  5
628
100
AcDbEntity
  8
レイヤー_1
  6
CONTINUOUS
 62
       3
100
AcDbLine
 10
37.23999362
 20
-36.73612976
 30
0.0
 11
37.23999362
 21
-29.23960197
 31
0.0
  0
LINE
  5
629
100
AcDbEntity
  8
レイヤー_1
  6
CONTINUOUS
 62
       3
100
AcDbLine
 10
36.24780612
 20
35.27368672
 30
0.0
 11
37.23999362
 21
34.27116393
 31
0.0
  0
LINE
  5
62A
100
AcDbEntity
  8
レイヤー_1
  6
CONTINUOUS
 62
       3
100
AcDbLine
 10
37.23999362
 20
34.27116393
 30
0.0
 11
37.23999362
 21
26.78497145
 31
0.0
  0
LINE
  5
62B
100
AcDbEntity
  8
レイヤー_1
  6
CONTINUOUS
 62
       3
100
AcDbLine
 10
38.25457424
 20
19.77463276
 30
0.0
 11
61.2505866
 21
19.77463276
 31
0.0
  0
LINE
  5
62C
100
AcDbEntity
  8
レイヤー_1
  6
CONTINUOUS
 62
       3
100
AcDbLine
 10
61.2505866
 20
19.77463276
 30
0.0
 11
61.2505866
 21
10.77862719
 31
0.0
  0
LINE
  5
62D
100
AcDbEntity
  8
レイヤー_1
  6
CONTINUOUS
 62
       3
100
AcDbLine
 10
38.25457424
 20
9.27914938
 30
0.0
 11
45.25586954
 21
9.27914938
 31
0.0
  0
LINE
  5
62E
100
AcDbEntity
  8
レイヤー_1
  6
CONTINUOUS
 62
       3
100
AcDbLine
 10
38.25457424
 20
12.78496467
 30
0.0
 11
45.25586954
 21
12.78496467
 31
0.0
  0
LINE
  5
62F
100
AcDbEntity
  8
レイヤー_1
  6
CONTINUOUS
 62
       3
100
AcDbLine
 10
38.25457424
 20
14.76933967
 30
0.0
 11
45.25586954
 21
14.76933967
 31
0.0
  0
LINE
  5
630
100
AcDbEntity
  8
レイヤー_1
  6
CONTINUOUS
 62
       3
100
AcDbLine
 10
38.25457424
 20
24.27220492
 30
0.0
 11
68.24423895
 21
24.27220492
 31
0.0
  0
LINE
  5
631
100
AcDbEntity
  8
レイヤー_1
  6
CONTINUOUS
 62
       3
100
AcDbLine
 10
38.25457424
 20
25.77168273
 30
0.0
 11
68.24423895
 21
25.77168273
 31
0.0
  0
LINE
  5
632
100
AcDbEntity
  8
レイヤー_1
  6
CONTINUOUS
 62
       3
100
AcDbLine
 10
-118.28152124
 20
38.27867125
 30
0.0
 11
-118.28152124
 21
45.2595503
 31
0.0
  0
LINE
  5
633
100
AcDbEntity
  8
レイヤー_1
  6
CONTINUOUS
 62
       3
100
AcDbLine
 10
-95.26656085
 20
45.2595503
 30
0.0
 11
-95.26656085
 21
38.27867125
 31
0.0
  0
LINE
  5
634
100
AcDbEntity
  8
レイヤー_1
  6
CONTINUOUS
 62
       3
100
AcDbLine
 10
-118.28152124
 20
-40.82287428
 30
0.0
 11
-118.28152124
 21
-47.7404497
 31
0.0
  0
LINE
  5
635
100
AcDbEntity
  8
レイヤー_1
  6
CONTINUOUS
 62
       3
100
AcDbLine
 10
-95.26656085
 20
-47.7404497
 30
0.0
 11
-95.26656085
 21
-40.82287428
 31
0.0
  0
LINE
  5
636
100
AcDbEntity
  8
レイヤー_1
  6
CONTINUOUS
 62
       3
100
AcDbLine
 10
-107.76192217
 20
41.22250534
 30
0.0
 11
-107.76192217
 21
44.21672396
 31
0.0
  0
LINE
  5
637
100
AcDbEntity
  8
レイヤー_1
  6
CONTINUOUS
 62
       3
100
AcDbLine
 10
-107.76192217
 20
44.21672396
 30
0.0
 11
-115.76100325
 21
44.21672396
 31
0.0
  0
LINE
  5
638
100
AcDbEntity
  8
レイヤー_1
  6
CONTINUOUS
 62
       3
100
AcDbLine
 10
-115.76100325
 20
-46.77255418
 30
0.0
 11
-107.76192217
 21
-46.77255418
 31
0.0
  0
LINE
  5
639
100
AcDbEntity
  8
レイヤー_1
  6
CONTINUOUS
 62
       3
100
AcDbLine
 10
-107.76192217
 20
-46.77255418
 30
0.0
 11
-107.76192217
 21
-43.77747429
 31
0.0
  0
LINE
  5
63A
100
AcDbEntity
  8
レイヤー_1
  6
CONTINUOUS
 62
       3
100
AcDbLine
 10
-105.7732408
 20
-46.77255418
 30
0.0
 11
-97.77372909
 21
-46.77255418
 31
0.0
  0
LINE
  5
63B
100
AcDbEntity
  8
レイヤー_1
  6
CONTINUOUS
 62
       3
100
AcDbLine
 10
-97.77372909
 20
-46.77255418
 30
0.0
 11
-97.77372909
 21
-40.91115484
 31
0.0
  0
LINE
  5
63C
100
AcDbEntity
  8
レイヤー_1
  6
CONTINUOUS
 62
       3
100
AcDbLine
 10
-109.76567584
 20
-49.28273687
 30
0.0
 11
-103.76561141
 21
-49.28273687
 31
0.0
  0
LINE
  5
63D
100
AcDbEntity
  8
レイヤー_1
  6
CONTINUOUS
 62
       3
100
AcDbLine
 10
-103.76561141
 20
-49.28273687
 30
0.0
 11
-103.76561141
 21
-48.28236726
 31
0.0
  0
LINE
  5
63E
100
AcDbEntity
  8
レイヤー_1
  6
CONTINUOUS
 62
       3
100
AcDbLine
 10
-103.76561141
 20
-48.28236726
 30
0.0
 11
-109.76567584
 21
-48.28236726
 31
0.0
  0
LINE
  5
63F
100
AcDbEntity
  8
レイヤー_1
  6
CONTINUOUS
 62
       3
100
AcDbLine
 10
-109.76567584
 20
-48.28236726
 30
0.0
 11
-109.76567584
 21
-49.28273687
 31
0.0
  0
LINE
  5
640
100
AcDbEntity
  8
レイヤー_1
  6
CONTINUOUS
 62
       3
100
AcDbLine
 10
-97.76942272
 20
-40.91115484
 30
0.0
 11
-97.76942272
 21
-47.7404497
 31
0.0
  0
LINE
  5
641
100
AcDbEntity
  8
レイヤー_1
  6
CONTINUOUS
 62
       3
100
AcDbLine
 10
-105.7732408
 20
-43.77747429
 30
0.0
 11
-105.7732408
 21
-48.29743956
 31
0.0
  0
LINE
  5
642
100
AcDbEntity
  8
レイヤー_1
  6
CONTINUOUS
 62
       3
100
AcDbLine
 10
-115.76100325
 20
-40.91115484
 30
0.0
 11
-115.76100325
 21
-47.7404497
 31
0.0
  0
LINE
  5
643
100
AcDbEntity
  8
レイヤー_1
  6
CONTINUOUS
 62
       3
100
AcDbLine
 10
-107.7576158
 20
-43.77747429
 30
0.0
 11
-107.7576158
 21
-48.29743956
 31
0.0
  0
LINE
  5
644
100
AcDbEntity
  8
レイヤー_1
  6
CONTINUOUS
 62
       3
100
AcDbLine
 10
-119.26337345
 20
-28.27755907
 30
0.0
 11
-94.26834443
 21
-28.27755907
 31
0.0
  0
LINE
  5
645
100
AcDbEntity
  8
レイヤー_1
  6
CONTINUOUS
 62
       3
100
AcDbLine
 10
-119.76801213
 20
-38.26532151
 30
0.0
 11
-93.76801213
 21
-38.26532151
 31
0.0
  0
LINE
  5
646
100
AcDbEntity
  8
レイヤー_1
  6
CONTINUOUS
 62
       3
100
AcDbLine
 10
-119.76801213
 20
35.70690747
 30
0.0
 11
-93.76801213
 21
35.70690747
 31
0.0
  0
LINE
  5
647
100
AcDbEntity
  8
レイヤー_1
  6
CONTINUOUS
 62
       3
100
AcDbLine
 10
-97.76942272
 20
45.2595503
 30
0.0
 11
-97.76942272
 21
38.35274081
 31
0.0
  0
LINE
  5
648
100
AcDbEntity
  8
レイヤー_1
  6
CONTINUOUS
 62
       3
100
AcDbLine
 10
-105.7732408
 20
45.2595503
 30
0.0
 11
-105.7732408
 21
41.21819897
 31
0.0
  0
LINE
  5
649
100
AcDbEntity
  8
レイヤー_1
  6
CONTINUOUS
 62
       3
100
AcDbLine
 10
-107.75805341
 20
45.2595503
 30
0.0
 11
-107.76192217
 21
41.22250534
 31
0.0
  0
LINE
  5
64A
100
AcDbEntity
  8
レイヤー_1
  6
CONTINUOUS
 62
       3
100
AcDbLine
 10
-115.76100325
 20
45.2595503
 30
0.0
 11
-115.76100325
 21
38.35274081
 31
0.0
  0
LINE
  5
64B
100
AcDbEntity
  8
レイヤー_1
  6
CONTINUOUS
 62
       3
100
AcDbLine
 10
-115.76100325
 20
41.72505866
 30
0.0
 11
-117.26737125
 21
41.72505866
 31
0.0
  0
LINE
  5
64C
100
AcDbEntity
  8
レイヤー_1
  6
CONTINUOUS
 62
       3
100
AcDbLine
 10
-117.26737125
 20
41.72505866
 30
0.0
 11
-117.26737125
 21
38.30752393
 31
0.0
  0
LINE
  5
64D
100
AcDbEntity
  8
レイヤー_1
  6
CONTINUOUS
 62
       3
100
AcDbLine
 10
-97.74746024
 20
41.72505866
 30
0.0
 11
-96.27123682
 21
41.72505866
 31
0.0
  0
LINE
  5
64E
100
AcDbEntity
  8
レイヤー_1
  6
CONTINUOUS
 62
       3
100
AcDbLine
 10
-96.27123682
 20
41.72505866
 30
0.0
 11
-96.27123682
 21
38.30752393
 31
0.0
  0
LINE
  5
64F
100
AcDbEntity
  8
レイヤー_1
  6
CONTINUOUS
 62
       3
100
AcDbLine
 10
-97.76167125
 20
38.35618591
 30
0.0
 11
-97.76167125
 21
44.21672396
 31
0.0
  0
LINE
  5
650
100
AcDbEntity
  8
レイヤー_1
  6
CONTINUOUS
 62
       3
100
AcDbLine
 10
-97.76167125
 20
44.21672396
 30
0.0
 11
-105.78357609
 21
44.21672396
 31
0.0
  0
LINE
  5
651
100
AcDbEntity
  8
レイヤー_1
  6
CONTINUOUS
 62
       3
100
AcDbLine
 10
-105.78357609
 20
44.21672396
 30
0.0
 11
-105.78357609
 21
41.22250534
 31
0.0
  0
LINE
  5
652
100
AcDbEntity
  8
レイヤー_1
  6
CONTINUOUS
 62
       3
100
AcDbLine
 10
-119.26423473
 20
-28.27196079
 30
0.0
 11
-119.77152504
 21
-28.27196079
 31
0.0
  0
LINE
  5
653
100
AcDbEntity
  8
レイヤー_1
  6
CONTINUOUS
 62
       3
100
AcDbLine
 10
-119.77152504
 20
-38.27091979
 30
0.0
 11
-119.26423473
 21
-38.27091979
 31
0.0
  0
LINE
  5
654
100
AcDbEntity
  8
レイヤー_1
  6
CONTINUOUS
 62
       3
100
AcDbLine
 10
-94.25068832
 20
-28.25516595
 30
0.0
 11
-93.76536049
 21
-28.25516595
 31
0.0
  0
LINE
  5
655
100
AcDbEntity
  8
レイヤー_1
  6
CONTINUOUS
 62
       3
100
AcDbLine
 10
-93.76536049
 20
-38.26532151
 30
0.0
 11
-94.25068832
 21
-38.26532151
 31
0.0
  0
LINE
  5
656
100
AcDbEntity
  8
レイヤー_1
  6
CONTINUOUS
 62
       3
100
AcDbLine
 10
-94.25068832
 20
35.71810403
 30
0.0
 11
-93.76536049
 21
35.71810403
 31
0.0
  0
LINE
  5
657
100
AcDbEntity
  8
レイヤー_1
  6
CONTINUOUS
 62
       3
100
AcDbLine
 10
-93.76536049
 20
25.73034159
 30
0.0
 11
-94.25068832
 21
25.73034159
 31
0.0
  0
LINE
  5
658
100
AcDbEntity
  8
レイヤー_1
  6
CONTINUOUS
 62
       3
100
AcDbLine
 10
-119.25260753
 20
35.72886996
 30
0.0
 11
-119.75989784
 21
35.72886996
 31
0.0
  0
LINE
  5
659
100
AcDbEntity
  8
レイヤー_1
  6
CONTINUOUS
 62
       3
100
AcDbLine
 10
-119.76801213
 20
25.73034159
 30
0.0
 11
-119.25260753
 21
25.73034159
 31
0.0
  0
LINE
  5
65A
100
AcDbEntity
  8
レイヤー_1
  6
CONTINUOUS
 62
       3
100
AcDbLine
 10
-94.26360743
 20
-40.77808803
 30
0.0
 11
-94.26360743
 21
38.22053527
 31
0.0
  0
LINE
  5
65B
100
AcDbEntity
  8
レイヤー_1
  6
CONTINUOUS
 62
       3
100
AcDbLine
 10
-119.27112492
 20
38.22053527
 30
0.0
 11
-119.27112492
 21
-40.77808803
 31
0.0
  0
LINE
  5
65C
100
AcDbEntity
  8
レイヤー_1
  6
CONTINUOUS
 62
       3
100
AcDbLine
 10
-119.76801213
 20
28.74566141
 30
0.0
 11
-93.76801213
 21
28.74566141
 31
0.0
  0
LINE
  5
65D
100
AcDbEntity
  8
レイヤー_1
  6
CONTINUOUS
 62
       3
100
AcDbLine
 10
-119.26681855
 20
25.74713642
 30
0.0
 11
-93.76801213
 21
25.74713642
 31
0.0
  0
LINE
  5
65E
100
AcDbEntity
  8
レイヤー_1
  6
CONTINUOUS
 62
       3
100
AcDbLine
 10
-97.26256305
 20
25.74713642
 30
0.0
 11
-97.26256305
 21
-28.2710995
 31
0.0
  0
LINE
  5
65F
100
AcDbEntity
  8
レイヤー_1
  6
CONTINUOUS
 62
       3
100
AcDbLine
 10
-116.26829356
 20
25.74713642
 30
0.0
 11
-116.26829356
 21
-28.2710995
 31
0.0
  0
LINE
  5
660
100
AcDbEntity
  8
レイヤー_1
  6
CONTINUOUS
 62
       3
100
AcDbLine
 10
-119.26681855
 20
-28.2710995
 30
0.0
 11
-94.2644687
 21
-28.2710995
 31
0.0
  0
LINE
  5
661
100
AcDbEntity
  8
レイヤー_1
  6
CONTINUOUS
 62
       3
100
AcDbLine
 10
-119.76801213
 20
-31.26962448
 30
0.0
 11
-93.76801213
 21
-31.26962448
 31
0.0
  0
LINE
  5
662
100
AcDbEntity
  8
レイヤー_1
  6
CONTINUOUS
 62
       3
100
AcDbLine
 10
101.64814246
 20
1.00955031
 30
0.0
 11
96.69756737
 21
1.00955031
 31
0.0
  0
LINE
  5
663
100
AcDbEntity
  8
レイヤー_1
  6
CONTINUOUS
 62
       3
100
AcDbLine
 10
101.64814246
 20
-3.49044969
 30
0.0
 11
96.69756737
 21
-3.49044969
 31
0.0
  0
LINE
  5
664
100
AcDbEntity
  8
レイヤー_1
  6
CONTINUOUS
 62
       3
100
AcDbLine
 10
116.64814246
 20
1.00955031
 30
0.0
 11
121.69690276
 21
1.00955031
 31
0.0
  0
LINE
  5
665
100
AcDbEntity
  8
レイヤー_1
  6
CONTINUOUS
 62
       3
100
AcDbLine
 10
116.64814246
 20
-3.49044969
 30
0.0
 11
121.69690276
 21
-3.49044969
 31
0.0
  0
LINE
  5
666
100
AcDbEntity
  8
レイヤー_1
  6
CONTINUOUS
 62
       3
100
AcDbLine
 10
68.24423895
 20
16.55777486
 30
0.0
 11
68.24423895
 21
45.77132329
 31
0.0
  0
LINE
  5
667
100
AcDbEntity
  8
レイヤー_1
  6
CONTINUOUS
 62
       3
100
AcDbLine
 10
68.24423895
 20
-51.22835455
 30
0.0
 11
68.24423895
 21
-19.02747768
 31
0.0
  0
LINE
  5
668
100
AcDbEntity
  8
レイヤー_1
  6
CONTINUOUS
 62
       3
100
AcDbLine
 10
-93.76801213
 20
-38.26532151
 30
0.0
 11
-93.76801213
 21
-28.25516595
 31
0.0
  0
LINE
  5
669
100
AcDbEntity
  8
レイヤー_1
  6
CONTINUOUS
 62
       3
100
AcDbLine
 10
-119.76801213
 20
-38.26532151
 30
0.0
 11
-119.76801213
 21
-28.27196079
 31
0.0
  0
LINE
  5
66A
100
AcDbEntity
  8
レイヤー_1
  6
CONTINUOUS
 62
       3
100
AcDbLine
 10
-119.76801213
 20
25.73034159
 30
0.0
 11
-119.76801213
 21
35.70690747
 31
0.0
  0
LINE
  5
66B
100
AcDbEntity
  8
レイヤー_1
  6
CONTINUOUS
 62
       3
100
AcDbLine
 10
-93.76801213
 20
25.74713642
 30
0.0
 11
-93.76801213
 21
35.70690747
 31
0.0
  0
LINE
  5
66C
100
AcDbEntity
  8
レイヤー_1
  6
CONTINUOUS
 62
       3
100
AcDbLine
 10
-94.26360743
 20
-40.77808803
 30
0.0
 11
-106.76801213
 21
-41.2404497
 31
0.0
  0
LINE
  5
66D
100
AcDbEntity
  8
レイヤー_1
  6
CONTINUOUS
 62
       3
100
AcDbLine
 10
-94.26360743
 20
38.22053527
 30
0.0
 11
-106.76801213
 21
38.7595503
 31
0.0
  0
LINE
  5
66E
100
AcDbEntity
  8
レイヤー_1
  6
CONTINUOUS
 62
       3
100
AcDbLine
 10
-118.28152124
 20
-47.7404497
 30
0.0
 11
-95.26656085
 21
-47.7404497
 31
0.0
  0
LINE
  5
66F
100
AcDbEntity
  8
レイヤー_1
  6
CONTINUOUS
 62
       3
100
AcDbLine
 10
-106.76801213
 20
38.7595503
 30
0.0
 11
-119.27112492
 21
38.22053527
 31
0.0
  0
LINE
  5
670
100
AcDbEntity
  8
レイヤー_1
  6
CONTINUOUS
 62
       3
100
AcDbLine
 10
-119.27112492
 20
-40.77808803
 30
0.0
 11
-106.76801213
 21
-41.2404497
 31
0.0
  0
LINE
  5
671
100
AcDbEntity
  8
レイヤー_1
  6
CONTINUOUS
 62
       3
100
AcDbLine
 10
-118.28152124
 20
45.2595503
 30
0.0
 11
-95.26656085
 21
45.2595503
 31
0.0
  0
LINE
  5
672
100
AcDbEntity
  8
レイヤー_1
  6
CONTINUOUS
 62
       3
100
AcDbLine
 10
-66.61786849
 20
-41.2404497
 30
0.0
 11
36.23747083
 21
-41.2404497
 31
0.0
  0
LINE
  5
673
100
AcDbEntity
  8
レイヤー_1
  6
CONTINUOUS
 62
       3
100
AcDbLine
 10
-66.63001319
 20
38.7595503
 30
0.0
 11
36.23747083
 21
38.7595503
 31
0.0
  0
LINE
  5
674
100
AcDbEntity
  8
レイヤー_1
  6
CONTINUOUS
 62
       3
100
AcDbLine
 10
-68.75576105
 20
-31.13880408
 30
0.0
 11
-68.75576105
 21
-28.2220069
 31
0.0
  0
LINE
  5
675
100
AcDbEntity
  8
レイヤー_1
  6
CONTINUOUS
 62
       3
100
AcDbLine
 10
-68.75576105
 20
25.78930323
 30
0.0
 11
-68.75576105
 21
28.71300767
 31
0.0
  0
ARC
  5
676
100
AcDbEntity
  8
レイヤー_1
  6
CONTINUOUS
 62
       3
100
AcDbCircle
 10
101.64814246
 20
-1.24044969
 30
0.0
 40
2.25
100
AcDbArc
 50
270.0
 51
450.0
  0
ARC
  5
677
100
AcDbEntity
  8
レイヤー_1
  6
CONTINUOUS
 62
       3
100
AcDbCircle
 10
116.64814246
 20
-1.24044969
 30
0.0
 40
2.25
100
AcDbArc
 50
90.0
 51
270.0
  0
LINE
  5
678
100
AcDbEntity
  8
レイヤー_1
  6
CENTERX2
 62
       3
100
AcDbLine
 10
109.14814246
 20
-53.77083502
 30
0.0
 11
109.14814246
 21
53.77083502
 31
0.0
  0
LINE
  5
679
100
AcDbEntity
  8
レイヤー_1
  6
CENTERX2
 62
       3
100
AcDbLine
 10
94.25585595
 20
-1.24044969
 30
0.0
 11
124.24196706
 21
-1.24044969
 31
0.0
  0
LINE
  5
67A
100
AcDbEntity
  8
レイヤー_1
  6
CENTERX2
 62
       3
100
AcDbLine
 10
-106.76801213
 20
-53.77083502
 30
0.0
 11
-106.76801213
 21
53.21961973
 31
0.0
  0
LINE
  5
67B
100
AcDbEntity
  8
レイヤー_1
  6
CENTERX2
 62
       3
100
AcDbLine
 10
-124.24196706
 20
-1.24044969
 30
0.0
 11
-89.29491846
 21
-1.24044969
 31
0.0
  0
LINE
  5
67C
100
AcDbEntity
  8
レイヤー_1
  6
CENTERX2
 62
       3
100
AcDbLine
 10
-75.23849825
 20
-1.24044969
 30
0.0
 11
74.25151569
 21
-1.24044969
 31
0.0
  0
TEXT
  5
67D
100
AcDbEntity
  8
0
 62
       7
100
AcDbText
 10
103.88280543
 20
-95.17511312
 30
0.0
 40
5.0
  1
000
 41
0.8
 72
       5
 11
115.88280543
 21
-95.17511312
 31
0.0
100
AcDbText
  0
ENDSEC
  0
SECTION
  2
OBJECTS
  0
DICTIONARY
  5
19
100
AcDbDictionary
  3
ACAD_GROUP
350
1A
  3
ACAD_MLINESTYLE
350
1B
  0
DICTIONARY
  5
1A
102
{ACAD_REACTORS
330
19
102
}
100
AcDbDictionary
  0
DICTIONARY
  5
1B
102
{ACAD_REACTORS
330
19
102
}
100
AcDbDictionary
  3
STANDARD
350
1C
  0
MLINESTYLE
  5
1C
102
{ACAD_REACTORS
330
1B
102
}
100
AcDbMlineStyle
  2
STANDARD
 70
       0
  3

 62
       0
 51
90.0
 52
90.0
 71
       2
 49
0.5
 62
     256
  6
BYLAYER
 49
-0.5
 62
     256
  6
BYLAYER
  0
ENDSEC
  0
EOF
