  0
SECTION
  2
HEADER
  9
$ACADVER
  1
AC1014
  9
$ACADMAINTVER
 70
       0
  9
$DWGCODEPAGE
  3
ANSI_932
  9
$INSBASE
 10
0.0
 20
0.0
 30
0.0
  9
$EXTMIN
 10
-195.47690325
 20
-266.58249896
 30
0.0
  9
$EXTMAX
 10
172.68002824
 20
266.58249896
 30
0.0
  9
$LIMMIN
 10
-206.98180736
 20
-283.24390514
  9
$LIMMAX
 10
184.18493235
 20
283.24390514
  9
$ORTHOMODE
 70
       0
  9
$REGENMODE
 70
       1
  9
$FILLMODE
 70
       1
  9
$QTEXTMODE
 70
       0
  9
$MIRRTEXT
 70
       1
  9
$DRAGMODE
 70
       2
  9
$LTSCALE
 40
1.0
  9
$OSMODE
 70
       0
  9
$ATTMODE
 70
       1
  9
$TEXTSIZE
 40
0.2
  9
$TRACEWID
 40
0.05
  9
$TEXTSTYLE
  7
STANDARD
  9
$CLAYER
  8
0
  9
$CELTYPE
  6
CONTINUOUS
  9
$CECOLOR
 62
     256
  9
$CELTSCALE
 40
1.0
  9
$DELOBJ
 70
       1
  9
$DISPSILH
 70
       0
  9
$DIMSCALE
 40
1.0
  9
$DIMASZ
 40
0.18
  9
$DIMEXO
 40
0.0625
  9
$DIMDLI
 40
0.38
  9
$DIMRND
 40
0.0
  9
$DIMDLE
 40
0.0
  9
$DIMEXE
 40
0.18
  9
$DIMTP
 40
0.0
  9
$DIMTM
 40
0.0
  9
$DIMTXT
 40
0.18
  9
$DIMCEN
 40
0.09
  9
$DIMTSZ
 40
0.0
  9
$DIMTOL
 70
       0
  9
$DIMLIM
 70
       0
  9
$DIMTIH
 70
       1
  9
$DIMTOH
 70
       1
  9
$DIMSE1
 70
       0
  9
$DIMSE2
 70
       0
  9
$DIMTAD
 70
       0
  9
$DIMZIN
 70
       0
  9
$DIMBLK
  1

  9
$DIMASO
 70
       1
  9
$DIMSHO
 70
       1
  9
$DIMPOST
  1

  9
$DIMAPOST
  1

  9
$DIMALT
 70
       0
  9
$DIMALTD
 70
       2
  9
$DIMALTF
 40
25.4
  9
$DIMLFAC
 40
1.0
  9
$DIMTOFL
 70
       0
  9
$DIMTVP
 40
0.0
  9
$DIMTIX
 70
       0
  9
$DIMSOXD
 70
       0
  9
$DIMSAH
 70
       0
  9
$DIMBLK1
  1

  9
$DIMBLK2
  1

  9
$DIMSTYLE
  2
STANDARD
  9
$DIMCLRD
 70
       0
  9
$DIMCLRE
 70
       0
  9
$DIMCLRT
 70
       0
  9
$DIMTFAC
 40
1.0
  9
$DIMGAP
 40
0.09
  9
$DIMJUST
 70
       0
  9
$DIMSD1
 70
       0
  9
$DIMSD2
 70
       0
  9
$DIMTOLJ
 70
       1
  9
$DIMTZIN
 70
       0
  9
$DIMALTZ
 70
       0
  9
$DIMALTTZ
 70
       0
  9
$DIMFIT
 70
       3
  9
$DIMUPT
 70
       0
  9
$DIMUNIT
 70
       2
  9
$DIMDEC
 70
       4
  9
$DIMTDEC
 70
       4
  9
$DIMALTU
 70
       2
  9
$DIMALTTD
 70
       2
  9
$DIMTXSTY
  7
STANDARD
  9
$DIMAUNIT
 70
       0
  9
$LUNITS
 70
       2
  9
$LUPREC
 70
       4
  9
$SKETCHINC
 40
0.1
  9
$FILLETRAD
 40
0.0
  9
$AUNITS
 70
       0
  9
$AUPREC
 70
       0
  9
$MENU
  1
acad
  9
$ELEVATION
 40
0.0
  9
$PELEVATION
 40
0.0
  9
$THICKNESS
 40
0.0
  9
$LIMCHECK
 70
       0
  9
$BLIPMODE
 70
       1
  9
$CHAMFERA
 40
0.0
  9
$CHAMFERB
 40
0.0
  9
$CHAMFERC
 40
0.0
  9
$CHAMFERD
 40
0.0
  9
$SKPOLY
 70
       0
  9
$TDCREATE
 40
0.000000000
  9
$TDUPDATE
 40
0.000000000
  9
$TDINDWG
 40
0.0000000000
  9
$TDUSRTIMER
 40
0.0000000000
  9
$USRTIMER
 70
       1
  9
$ANGBASE
 50
0.0
  9
$ANGDIR
 70
       0
  9
$PDMODE
 70
       0
  9
$PDSIZE
 40
1.0
  9
$PLINEWID
 40
0.0
  9
$COORDS
 70
       1
  9
$SPLFRAME
 70
       0
  9
$SPLINETYPE
 70
       6
  9
$SPLINESEGS
 70
       8
  9
$ATTDIA
 70
       0
  9
$ATTREQ
 70
       1
  9
$HANDLING
 70
       1
  9
$HANDSEED
  5
338
  9
$SURFTAB1
 70
       6
  9
$SURFTAB2
 70
       6
  9
$SURFTYPE
 70
       6
  9
$SURFU
 70
       6
  9
$SURFV
 70
       6
  9
$UCSNAME
  2

  9
$UCSORG
 10
0.0
 20
0.0
 30
0.0
  9
$UCSXDIR
 10
1.0
 20
0.0
 30
0.0
  9
$UCSYDIR
 10
0.0
 20
1.0
 30
0.0
  9
$PUCSNAME
  2

  9
$PUCSORG
 10
0.0
 20
0.0
 30
0.0
  9
$PUCSXDIR
 10
1.0
 20
0.0
 30
0.0
  9
$PUCSYDIR
 10
0.0
 20
1.0
 30
0.0
  9
$USERI1
 70
       0
  9
$USERI2
 70
       0
  9
$USERI3
 70
       0
  9
$USERI4
 70
       0
  9
$USERI5
 70
       0
  9
$USERR1
 40
0.0
  9
$USERR2
 40
0.0
  9
$USERR3
 40
0.0
  9
$USERR4
 40
0.0
  9
$USERR5
 40
0.0
  9
$WORLDVIEW
 70
       1
  9
$SHADEDGE
 70
       3
  9
$SHADEDIF
 70
      70
  9
$TILEMODE
 70
       1
  9
$MAXACTVP
 70
      16
  9
$PINSBASE
 10
0.0
 20
0.0
 30
0.0
  9
$PLIMCHECK
 70
       0
  9
$PEXTMIN
 10
1.00000000E+20
 20
1.00000000E+20
 30
1.00000000E+20
  9
$PEXTMAX
 10
-1.00000000E+20
 20
-1.00000000E+20
 30
-1.00000000E+20
  9
$PLIMMIN
 10
0.0
 20
0.0
  9
$PLIMMAX
 10
12.0
 20
9.0
  9
$UNITMODE
 70
       0
  9
$VISRETAIN
 70
       0
  9
$PLINEGEN
 70
       1
  9
$PSLTSCALE
 70
       0
  9
$TREEDEPTH
 70
    3020
  9
$PICKSTYLE
 70
       1
  9
$CMLSTYLE
  2
STANDARD
  9
$CMLJUST
 70
       0
  9
$CMLSCALE
 40
1.0
  9
$PROXYGRAPHICS
 70
       0
  9
$MEASUREMENT
 70
       0
  0
ENDSEC
  0
SECTION
  2
CLASSES
  0
CLASS
  1
LWPOLYLINE
  2
AcDbPolyline
  3
"AutoCAD"
 90
        0
280
       0
281
       1
  0
CLASS
  1
IMAGE
  2
AcDbRasterImage
  3
ISM
 90
      127
280
       0
281
       1
  0
CLASS
  1
OLE2FRAME
  2
AcDbOle2Frame
  3
""
 90
        0
280
       0
281
       1
  0
CLASS
  1
HATCH
  2
AcDbHatch
  3
"ACAD_SEDONA"
 90
        0
280
       0
281
       1
  0
CLASS
  1
DICTIONARYVAR
  2
AcDbDictionaryVar
  3
"AutoCAD"
 90
        0
280
       0
281
       0
  0
CLASS
  1
RASTERVARIABLES
  2
AcDbRasterVariables
  3
ISM
 90
        0
280
       0
281
       0
  0
CLASS
  1
IMAGEDEF
  2
AcDbRasterImageDef
  3
ISM
 90
        0
280
       0
281
       0
  0
CLASS
  1
IMAGEDEF_REACTOR
  2
AcDbRasterImageDefReactor
  3
ISM
 90
        1
280
       0
281
       0
  0
CLASS
  1
IDBUFFER
  2
AcDbIdBuffer
  3
"Acad"
 90
        0
280
       0
281
       0
  0
CLASS
  1
SPATIAL_FILTER
  2
AcDbSpatialFilter
  3
"Acad"
 90
        0
280
       0
281
       0
  0
CLASS
  1
XRECORD
  2
AcDbXrecord
  3
"<Built In>"
 90
        0
280
       0
281
       0
  0
CLASS
  1
SORTENTSTABLE
  2
AcDbSortentsTable
  3
"AutoCAD"
 90
        0
280
       0
281
       0
  0
CLASS
  1
LAYER_INDEX
  2
AcDbLayerIndex
  3
"Acad"
 90
        0
280
       0
281
       0
  0
CLASS
  1
SPATIAL_INDEX
  2
AcDbSpatialIndex
  3
"Acad"
 90
        0
280
       0
281
       0
  0
CLASS
  1
OBJECT_PTR
  2
CAseDLPNTableRecord
  3
"ASE-LPNTableRecord"
 90
        1
280
       0
281
       0
  0
CLASS
  1
LAYOUT
  2
AcDbLayout
  3
"AutoCAD 2000"
 90
        1
280
       0
281
       0
  0
CLASS
  1
PLOTSETTINGS
  2
AcDbPlotSettings
  3
"AutoCAD 2000"
 90
        1
280
       0
281
       0
  0
CLASS
  1
ACDBDICTIONARYWDFLT
  2
AcDbDictionaryWithDefault
  3
"AutoCAD 2000"
 90
        1
280
       0
281
       0
  0
CLASS
  1
ACDBPLACEHOLDER
  2
AcDbPlaceHolder
  3
"AutoCAD 2000"
 90
        1
280
       0
281
       0
  0
CLASS
  1
VBA_PROJECT
  2
AcDbVbaProject
  3
"acadvba"
 90
        1
280
       0
281
       0
  0
CLASS
  1
WIPEOUT
  2
AcDbWipeout
  3
WipeOut|AutoCAD Express Tool|expresstools@autodesk.com
 90
      127
280
       0
281
       1
  0
CLASS
  1
WIPEOUTVARIABLES
  2
AcDbWipeoutVariables
  3
WipeOut|AutoCAD Express Tool|expresstools@autodesk.com
 90
        0
280
       0
281
       0
  0
CLASS
  1
RTEXT
  2
RText
  3
RText|AutoCAD Express Tool|expresstools@autodesk.com
 90
        0
280
       0
281
       1
  0
CLASS
  1
ARCALIGNEDTEXT
  2
AcDbArcAlignedText
  3
ATEXT|AutoCAD Express Tool|expresstools@autodesk.com
 90
        0
280
       0
281
       1
  0
ENDSEC
  0
SECTION
  2
TABLES
  0
TABLE
  2
VPORT
  5
7
100
AcDbSymbolTable
 70
       1
  0
VPORT
  5
15
100
AcDbSymbolTableRecord
100
AcDbViewportTableRecord
  2
*ACTIVE
 70
       0
 10
0.0
 20
0.0
 11
1.0
 21
1.0
 12
-11.3984375
 22
0.0
 13
0.0
 23
0.0
 14
1.0
 24
1.0
 15
0.0
 25
0.0
 16
0.0
 26
0.0
 36
1.0
 17
0.0
 27
0.0
 37
0.0
 40
566.48781028
 41
0.69051219
 42
50.0
 43
0.0
 44
0.0
 50
0.0
 51
0.0
 71
       0
 72
     100
 73
       1
 74
       1
 75
       0
 76
       0
 77
       0
 78
       0
  0
ENDTAB
  0
TABLE
  2
LTYPE
  5
4
100
AcDbSymbolTable
 70
      30
  0
LTYPE
  5
11
100
AcDbSymbolTableRecord
100
AcDbLinetypeTableRecord
  2
BYBLOCK
 70
      64
  3

 72
      65
 73
       0
 40
0.0
  0
LTYPE
  5
12
100
AcDbSymbolTableRecord
100
AcDbLinetypeTableRecord
  2
BYLAYER
 70
      64
  3

 72
      65
 73
       0
 40
0.0
  0
LTYPE
  5
13
100
AcDbSymbolTableRecord
100
AcDbLinetypeTableRecord
  2
CONTINUOUS
 70
      64
  3
Solid line
 72
      65
 73
       0
 40
0.0
  0
LTYPE
  5
1D
100
AcDbSymbolTableRecord
100
AcDbLinetypeTableRecord
  2
HIDDENX2
 70
      64
  3
CADPAC LINETYPE
 72
      65
 73
       2
 40
30.15139988
 49
22.61354991
 74
       0
 49
-7.53784997
 74
       0
  0
LTYPE
  5
1E
100
AcDbSymbolTableRecord
100
AcDbLinetypeTableRecord
  2
HIDDEN
 70
      64
  3
CADPAC LINETYPE
 72
      65
 73
       2
 40
22.61354991
 49
15.07569994
 74
       0
 49
-7.53784997
 74
       0
  0
LTYPE
  5
1F
100
AcDbSymbolTableRecord
100
AcDbLinetypeTableRecord
  2
HIDDEN2
 70
      64
  3
CADPAC LINETYPE
 72
      65
 73
       2
 40
18.84462493
 49
11.30677496
 74
       0
 49
-7.53784997
 74
       0
  0
LTYPE
  5
20
100
AcDbSymbolTableRecord
100
AcDbLinetypeTableRecord
  2
DASHED
 70
      64
  3
CADPAC LINETYPE
 72
      65
 73
       2
 40
22.61354991
 49
15.07569994
 74
       0
 49
-7.53784997
 74
       0
  0
LTYPE
  5
21
100
AcDbSymbolTableRecord
100
AcDbLinetypeTableRecord
  2
DASHED2
 70
      64
  3
CADPAC LINETYPE
 72
      65
 73
       2
 40
16.96016243
 49
11.30677496
 74
       0
 49
-5.65338748
 74
       0
  0
LTYPE
  5
22
100
AcDbSymbolTableRecord
100
AcDbLinetypeTableRecord
  2
DASHEDX2
 70
      64
  3
CADPAC LINETYPE
 72
      65
 73
       2
 40
33.92032487
 49
22.61354991
 74
       0
 49
-11.30677496
 74
       0
  0
LTYPE
  5
23
100
AcDbSymbolTableRecord
100
AcDbLinetypeTableRecord
  2
DOTX2
 70
      64
  3
CADPAC LINETYPE
 72
      65
 73
       2
 40
9.42231246
 49
0.0
 74
       0
 49
-9.42231246
 74
       0
  0
LTYPE
  5
24
100
AcDbSymbolTableRecord
100
AcDbLinetypeTableRecord
  2
DOT
 70
      64
  3
CADPAC LINETYPE
 72
      65
 73
       2
 40
7.53784997
 49
0.0
 74
       0
 49
-7.53784997
 74
       0
  0
LTYPE
  5
25
100
AcDbSymbolTableRecord
100
AcDbLinetypeTableRecord
  2
DOT2
 70
      64
  3
CADPAC LINETYPE
 72
      65
 73
       2
 40
5.65338748
 49
0.0
 74
       0
 49
-5.65338748
 74
       0
  0
LTYPE
  5
26
100
AcDbSymbolTableRecord
100
AcDbLinetypeTableRecord
  2
CENTERX2
 70
      64
  3
CADPAC LINETYPE
 72
      65
 73
       4
 40
45.22709982
 49
18.84462493
 74
       0
 49
-9.42231246
 74
       0
 49
7.53784997
 74
       0
 49
-9.42231246
 74
       0
  0
LTYPE
  5
27
100
AcDbSymbolTableRecord
100
AcDbLinetypeTableRecord
  2
CENTER
 70
      64
  3
CADPAC LINETYPE
 72
      65
 73
       4
 40
34.67410986
 49
15.07569994
 74
       0
 49
-7.53784997
 74
       0
 49
4.52270998
 74
       0
 49
-7.53784997
 74
       0
  0
LTYPE
  5
28
100
AcDbSymbolTableRecord
100
AcDbLinetypeTableRecord
  2
CENTER2
 70
      64
  3
CADPAC LINETYPE
 72
      65
 73
       4
 40
24.12111991
 49
11.30677496
 74
       0
 49
-5.65338748
 74
       0
 49
1.50756999
 74
       0
 49
-5.65338748
 74
       0
  0
LTYPE
  5
29
100
AcDbSymbolTableRecord
100
AcDbLinetypeTableRecord
  2
DASHDOTX2
 70
      64
  3
CADPAC LINETYPE
 72
      65
 73
       4
 40
37.68924985
 49
18.84462493
 74
       0
 49
-9.42231246
 74
       0
 49
0.0
 74
       0
 49
-9.42231246
 74
       0
  0
LTYPE
  5
2A
100
AcDbSymbolTableRecord
100
AcDbLinetypeTableRecord
  2
DASHDOT
 70
      64
  3
CADPAC LINETYPE
 72
      65
 73
       4
 40
30.15139988
 49
15.07569994
 74
       0
 49
-7.53784997
 74
       0
 49
0.0
 74
       0
 49
-7.53784997
 74
       0
  0
LTYPE
  5
2B
100
AcDbSymbolTableRecord
100
AcDbLinetypeTableRecord
  2
DASHDOT2
 70
      64
  3
CADPAC LINETYPE
 72
      65
 73
       4
 40
22.61354991
 49
11.30677496
 74
       0
 49
-5.65338748
 74
       0
 49
0.0
 74
       0
 49
-5.65338748
 74
       0
  0
LTYPE
  5
2C
100
AcDbSymbolTableRecord
100
AcDbLinetypeTableRecord
  2
DIVIDEX2
 70
      64
  3
CADPAC LINETYPE
 72
      65
 73
       6
 40
47.11156232
 49
18.84462493
 74
       0
 49
-9.42231246
 74
       0
 49
0.0
 74
       0
 49
-9.42231246
 74
       0
 49
0.0
 74
       0
 49
-9.42231246
 74
       0
  0
LTYPE
  5
2D
100
AcDbSymbolTableRecord
100
AcDbLinetypeTableRecord
  2
DIVIDE
 70
      64
  3
CADPAC LINETYPE
 72
      65
 73
       6
 40
37.68924985
 49
15.07569994
 74
       0
 49
-7.53784997
 74
       0
 49
0.0
 74
       0
 49
-7.53784997
 74
       0
 49
0.0
 74
       0
 49
-7.53784997
 74
       0
  0
LTYPE
  5
2E
100
AcDbSymbolTableRecord
100
AcDbLinetypeTableRecord
  2
DIVIDE2
 70
      64
  3
CADPAC LINETYPE
 72
      65
 73
       6
 40
28.26693739
 49
11.30677496
 74
       0
 49
-5.65338748
 74
       0
 49
0.0
 74
       0
 49
-5.65338748
 74
       0
 49
0.0
 74
       0
 49
-5.65338748
 74
       0
  0
LTYPE
  5
2F
100
AcDbSymbolTableRecord
100
AcDbLinetypeTableRecord
  2
BORDERX2
 70
      64
  3
CADPAC LINETYPE
 72
      65
 73
       6
 40
65.95618724
 49
18.84462493
 74
       0
 49
-9.42231246
 74
       0
 49
18.84462493
 74
       0
 49
-9.42231246
 74
       0
 49
0.0
 74
       0
 49
-9.42231246
 74
       0
  0
LTYPE
  5
30
100
AcDbSymbolTableRecord
100
AcDbLinetypeTableRecord
  2
BORDER
 70
      64
  3
CADPAC LINETYPE
 72
      65
 73
       6
 40
52.76494979
 49
15.07569994
 74
       0
 49
-7.53784997
 74
       0
 49
15.07569994
 74
       0
 49
-7.53784997
 74
       0
 49
0.0
 74
       0
 49
-7.53784997
 74
       0
  0
LTYPE
  5
31
100
AcDbSymbolTableRecord
100
AcDbLinetypeTableRecord
  2
BORDER2
 70
      64
  3
CADPAC LINETYPE
 72
      65
 73
       6
 40
39.57371235
 49
11.30677496
 74
       0
 49
-5.65338748
 74
       0
 49
11.30677496
 74
       0
 49
-5.65338748
 74
       0
 49
0.0
 74
       0
 49
-5.65338748
 74
       0
  0
LTYPE
  5
32
100
AcDbSymbolTableRecord
100
AcDbLinetypeTableRecord
  2
PHANTOMX2
 70
      64
  3
CADPAC LINETYPE
 72
      65
 73
       6
 40
56.53387478
 49
18.84462493
 74
       0
 49
-7.53784997
 74
       0
 49
7.53784997
 74
       0
 49
-7.53784997
 74
       0
 49
7.53784997
 74
       0
 49
-7.53784997
 74
       0
  0
LTYPE
  5
33
100
AcDbSymbolTableRecord
100
AcDbLinetypeTableRecord
  2
PHANTOM
 70
      64
  3
CADPAC LINETYPE
 72
      65
 73
       6
 40
46.73466982
 49
15.07569994
 74
       0
 49
-7.53784997
 74
       0
 49
4.52270998
 74
       0
 49
-7.53784997
 74
       0
 49
4.52270998
 74
       0
 49
-7.53784997
 74
       0
  0
LTYPE
  5
34
100
AcDbSymbolTableRecord
100
AcDbLinetypeTableRecord
  2
PHANTOM2
 70
      64
  3
CADPAC LINETYPE
 72
      65
 73
       6
 40
39.95060484
 49
11.30677496
 74
       0
 49
-7.53784997
 74
       0
 49
3.01513999
 74
       0
 49
-7.53784997
 74
       0
 49
3.01513999
 74
       0
 49
-7.53784997
 74
       0
  0
LTYPE
  5
35
100
AcDbSymbolTableRecord
100
AcDbLinetypeTableRecord
  2
ACAD_ISO06W100
 70
      64
  3
CADPAC LINETYPE
 72
      65
 73
       8
 40
50.8804873
 49
18.84462493
 74
       0
 49
-9.42231246
 74
       0
 49
0.0
 74
       0
 49
-7.53784997
 74
       0
 49
0.0
 74
       0
 49
-7.53784997
 74
       0
 49
0.0
 74
       0
 49
-7.53784997
 74
       0
  0
LTYPE
  5
36
100
AcDbSymbolTableRecord
100
AcDbLinetypeTableRecord
  2
ACAD_ISO13W100
 70
      64
  3
CADPAC LINETYPE
 72
      65
 73
       8
 40
60.30279976
 49
15.07569994
 74
       0
 49
-7.53784997
 74
       0
 49
15.07569994
 74
       0
 49
-7.53784997
 74
       0
 49
0.0
 74
       0
 49
-7.53784997
 74
       0
 49
0.0
 74
       0
 49
-7.53784997
 74
       0
  0
LTYPE
  5
37
100
AcDbSymbolTableRecord
100
AcDbLinetypeTableRecord
  2
ACAD_ISO14W100
 70
      64
  3
CADPAC LINETYPE
 72
      65
 73
       8
 40
45.22709982
 49
15.07569994
 74
       0
 49
-7.53784997
 74
       0
 49
0.0
 74
       0
 49
-7.53784997
 74
       0
 49
0.0
 74
       0
 49
-7.53784997
 74
       0
 49
0.0
 74
       0
 49
-7.53784997
 74
       0
  0
ENDTAB
  0
TABLE
  2
LAYER
  5
2
100
AcDbSymbolTable
 70
       4
  0
LAYER
  5
14
100
AcDbSymbolTableRecord
100
AcDbLayerTableRecord
  2
0
 70
       0
 62
       7
  6
CONTINUOUS
  0
LAYER
  5
38
100
AcDbSymbolTableRecord
100
AcDbLayerTableRecord
  2
LAYER0001
 70
       0
 62
       7
  6
CONTINUOUS
  0
LAYER
  5
39
100
AcDbSymbolTableRecord
100
AcDbLayerTableRecord
  2
LAYER0002
 70
       0
 62
       7
  6
CONTINUOUS
  0
LAYER
  5
3A
100
AcDbSymbolTableRecord
100
AcDbLayerTableRecord
  2
LAYER0003
 70
       0
 62
       7
  6
CONTINUOUS
  0
ENDTAB
  0
TABLE
  2
STYLE
  5
3
100
AcDbSymbolTable
 70
       1
  0
STYLE
  5
17
100
AcDbSymbolTableRecord
100
AcDbTextStyleTableRecord
  2
STANDARD
 70
       0
 40
0.0
 41
1.0
 50
0.0
 71
       0
 42
17.19791667
  3
txt.shx
  4
bigfont.shx
  0
ENDTAB
  0
TABLE
  2
VIEW
  5
5
100
AcDbSymbolTable
 70
       1
  0
VIEW
  5
3B
100
AcDbSymbolTableRecord
100
AcDbViewTableRecord
  2
QQQQ
 70
       0
 40
566.48781028
 10
-11.3984375
 20
0.0
 41
391.16673971
 11
0.0
 21
0.0
 31
1.0
 12
100.0
 22
100.0
 32
0.0
 42
50.0
 43
0.0
 44
0.0
 50
0.0
 71
       0
  0
ENDTAB
  0
TABLE
  2
UCS
  5
6
100
AcDbSymbolTable
 70
       0
  0
ENDTAB
  0
TABLE
  2
APPID
  5
8
100
AcDbSymbolTable
 70
       1
  0
APPID
  5
16
100
AcDbSymbolTableRecord
100
AcDbRegAppTableRecord
  2
ACAD
 70
       0
  0
ENDTAB
  0
TABLE
  2
DIMSTYLE
  5
9
100
AcDbSymbolTable
 70
       1
  0
DIMSTYLE
105
18
100
AcDbSymbolTableRecord
100
AcDbDimStyleTableRecord
  2
STANDARD
 70
       0
  3

  4

  5

  6

  7

 40
1.0
 41
0.18
 42
0.0625
 43
0.38
 44
0.18
 45
0.0
 46
0.0
 47
0.0
 48
0.0
 71
       0
 72
       0
 73
       1
 74
       1
 75
       0
 76
       0
 77
       0
 78
       0
140
0.18
141
0.09
142
0.0
143
25.4
144
1.0
145
0.0
146
1.0
147
0.09
170
       0
171
       2
172
       0
173
       0
174
       0
175
       0
176
       0
177
       0
178
       0
270
       2
271
       4
272
       4
273
       2
274
       2
275
       0
280
       0
281
       0
282
       0
283
       1
284
       0
285
       0
286
       0
287
       0
288
       0
340
17
  0
ENDTAB
  0
TABLE
  2
BLOCK_RECORD
  5
1
100
AcDbSymbolTable
 70
       0
  0
BLOCK_RECORD
  5
A
100
AcDbSymbolTableRecord
100
AcDbBlockTableRecord
  2
*MODEL_SPACE
  0
BLOCK_RECORD
  5
B
100
AcDbSymbolTableRecord
100
AcDbBlockTableRecord
  2
*PAPER_SPACE
  0
ENDTAB
  0
ENDSEC
  0
SECTION
  2
BLOCKS
  0
BLOCK
  5
D
100
AcDbEntity
  8
0
100
AcDbBlockBegin
  2
*MODEL_SPACE
 70
       0
 10
0.0
 20
0.0
 30
0.0
  3
*MODEL_SPACE
  1

  0
ENDBLK
  5
E
100
AcDbEntity
  8
0
100
AcDbBlockEnd
  0
BLOCK
  5
F
100
AcDbEntity
 67
       1
  8
0
100
AcDbBlockBegin
  2
*PAPER_SPACE
 70
       0
 10
0.0
 20
0.0
 30
0.0
  3
*PAPER_SPACE
  1

  0
ENDBLK
  5
10
100
AcDbEntity
 67
       1
  8
0
100
AcDbBlockEnd
  0
ENDSEC
  0
SECTION
  2
ENTITIES
  0
LINE
  5
3C
100
AcDbEntity
  8
LAYER0002
  6
CONTINUOUS
 62
       7
100
AcDbLine
 10
-150.50831693
 20
-111.45406193
 30
0.0
 11
-150.50831693
 21
-110.75406196
 31
0.0
  0
LINE
  5
3D
100
AcDbEntity
  8
LAYER0002
  6
CONTINUOUS
 62
       7
100
AcDbLine
 10
-157.50831808
 20
-115.25406188
 30
0.0
 11
-157.50831808
 21
-120.25406177
 31
0.0
  0
LINE
  5
3E
100
AcDbEntity
  8
LAYER0002
  6
CONTINUOUS
 62
       7
100
AcDbLine
 10
-150.50831693
 20
-110.75406196
 30
0.0
 11
-160.50831671
 21
-110.75406196
 31
0.0
  0
LINE
  5
3F
100
AcDbEntity
  8
LAYER0002
  6
CONTINUOUS
 62
       7
100
AcDbLine
 10
-155.50831775
 20
-114.94145461
 30
0.0
 11
-155.50831775
 21
-111.45406193
 31
0.0
  0
LINE
  5
40
100
AcDbEntity
  8
LAYER0002
  6
CONTINUOUS
 62
       7
100
AcDbLine
 10
-159.00831739
 20
-115.25406188
 30
0.0
 11
-159.00831739
 21
-111.45406193
 31
0.0
  0
LINE
  5
41
100
AcDbEntity
  8
LAYER0002
  6
CONTINUOUS
 62
       7
100
AcDbLine
 10
-157.50831808
 20
-120.25406177
 30
0.0
 11
-153.50831742
 21
-120.25406177
 31
0.0
  0
LINE
  5
42
100
AcDbEntity
  8
LAYER0002
  6
CONTINUOUS
 62
       7
100
AcDbLine
 10
-160.50831671
 20
-110.75406196
 30
0.0
 11
-160.50831671
 21
-111.45406193
 31
0.0
  0
LINE
  5
43
100
AcDbEntity
  8
LAYER0002
  6
CONTINUOUS
 62
       7
100
AcDbLine
 10
-153.50831742
 20
-120.25406177
 30
0.0
 11
-153.50831742
 21
-115.25406188
 31
0.0
  0
LINE
  5
44
100
AcDbEntity
  8
LAYER0002
  6
CONTINUOUS
 62
       7
100
AcDbLine
 10
-150.50831693
 20
-111.45406193
 30
0.0
 11
-160.50831671
 21
-111.45406193
 31
0.0
  0
LINE
  5
45
100
AcDbEntity
  8
LAYER0002
  6
CONTINUOUS
 62
       7
100
AcDbLine
 10
-152.00831717
 20
-115.25406188
 30
0.0
 11
-152.00831717
 21
-111.45406193
 31
0.0
  0
LINE
  5
46
100
AcDbEntity
  8
LAYER0002
  6
CONTINUOUS
 62
       7
100
AcDbLine
 10
-152.00831717
 20
-115.25406188
 30
0.0
 11
-159.00831739
 21
-115.25406188
 31
0.0
  0
LINE
  5
47
100
AcDbEntity
  8
LAYER0002
  6
CONTINUOUS
 62
       7
100
AcDbLine
 10
-131.88877003
 20
-111.45406193
 30
0.0
 11
-131.88877003
 21
-110.75406196
 31
0.0
  0
LINE
  5
48
100
AcDbEntity
  8
LAYER0002
  6
CONTINUOUS
 62
       7
100
AcDbLine
 10
-138.88877118
 20
-115.25406188
 30
0.0
 11
-138.88877118
 21
-120.25406177
 31
0.0
  0
LINE
  5
49
100
AcDbEntity
  8
LAYER0002
  6
CONTINUOUS
 62
       7
100
AcDbLine
 10
-131.88877003
 20
-110.75406196
 30
0.0
 11
-141.88876981
 21
-110.75406196
 31
0.0
  0
LINE
  5
4A
100
AcDbEntity
  8
LAYER0002
  6
CONTINUOUS
 62
       7
100
AcDbLine
 10
-136.88877085
 20
-114.94145461
 30
0.0
 11
-136.88877085
 21
-111.45406193
 31
0.0
  0
LINE
  5
4B
100
AcDbEntity
  8
LAYER0002
  6
CONTINUOUS
 62
       7
100
AcDbLine
 10
-140.38877049
 20
-115.25406188
 30
0.0
 11
-140.38877049
 21
-111.45406193
 31
0.0
  0
LINE
  5
4C
100
AcDbEntity
  8
LAYER0002
  6
CONTINUOUS
 62
       7
100
AcDbLine
 10
-138.88877118
 20
-120.25406177
 30
0.0
 11
-134.88877052
 21
-120.25406177
 31
0.0
  0
LINE
  5
4D
100
AcDbEntity
  8
LAYER0002
  6
CONTINUOUS
 62
       7
100
AcDbLine
 10
-141.88876981
 20
-110.75406196
 30
0.0
 11
-141.88876981
 21
-111.45406193
 31
0.0
  0
LINE
  5
4E
100
AcDbEntity
  8
LAYER0002
  6
CONTINUOUS
 62
       7
100
AcDbLine
 10
-134.88877052
 20
-120.25406177
 30
0.0
 11
-134.88877052
 21
-115.25406188
 31
0.0
  0
LINE
  5
4F
100
AcDbEntity
  8
LAYER0002
  6
CONTINUOUS
 62
       7
100
AcDbLine
 10
-131.88877003
 20
-111.45406193
 30
0.0
 11
-141.88876981
 21
-111.45406193
 31
0.0
  0
LINE
  5
50
100
AcDbEntity
  8
LAYER0002
  6
CONTINUOUS
 62
       7
100
AcDbLine
 10
-133.38877027
 20
-115.25406188
 30
0.0
 11
-133.38877027
 21
-111.45406193
 31
0.0
  0
LINE
  5
51
100
AcDbEntity
  8
LAYER0002
  6
CONTINUOUS
 62
       7
100
AcDbLine
 10
-133.38877027
 20
-115.25406188
 30
0.0
 11
-140.38877049
 21
-115.25406188
 31
0.0
  0
LINE
  5
52
100
AcDbEntity
  8
LAYER0003
  6
CONTINUOUS
 62
       7
100
AcDbLine
 10
-179.12786314
 20
-110.75406196
 30
0.0
 11
-179.12786314
 21
-111.45406193
 31
0.0
  0
LINE
  5
53
100
AcDbEntity
  8
LAYER0003
  6
CONTINUOUS
 62
       7
100
AcDbLine
 10
-169.12786336
 20
-111.45406193
 30
0.0
 11
-169.12786336
 21
-110.75406196
 31
0.0
  0
LINE
  5
54
100
AcDbEntity
  8
LAYER0003
  6
CONTINUOUS
 62
       7
100
AcDbLine
 10
-125.50831818
 20
-85.25406255
 30
0.0
 11
-125.50831818
 21
40.24594405
 31
0.0
  0
LINE
  5
55
100
AcDbEntity
  8
LAYER0003
  6
CONTINUOUS
 62
       7
100
AcDbLine
 10
-185.50831684
 20
40.24594405
 30
0.0
 11
-185.50831684
 21
-85.25406255
 31
0.0
  0
LINE
  5
56
100
AcDbEntity
  8
LAYER0003
  6
CONTINUOUS
 62
       7
100
AcDbLine
 10
-176.12786451
 20
-109.75406191
 30
0.0
 11
-176.12786451
 21
-110.75406196
 31
0.0
  0
LINE
  5
57
100
AcDbEntity
  8
LAYER0003
  6
CONTINUOUS
 62
       7
100
AcDbLine
 10
-176.12786451
 20
-115.25406188
 30
0.0
 11
-176.12786451
 21
-120.25406177
 31
0.0
  0
LINE
  5
58
100
AcDbEntity
  8
LAYER0003
  6
CONTINUOUS
 62
       7
100
AcDbLine
 10
-172.12786385
 20
-120.25406177
 30
0.0
 11
-172.12786385
 21
-115.25406188
 31
0.0
  0
LINE
  5
59
100
AcDbEntity
  8
LAYER0003
  6
CONTINUOUS
 62
       7
100
AcDbLine
 10
-172.12786385
 20
-110.75406196
 30
0.0
 11
-172.12786385
 21
-109.75406191
 31
0.0
  0
LINE
  5
5A
100
AcDbEntity
  8
LAYER0003
  6
CONTINUOUS
 62
       7
100
AcDbLine
 10
-138.88877117
 20
-109.75406191
 30
0.0
 11
-138.88877117
 21
-110.75406196
 31
0.0
  0
LINE
  5
5B
100
AcDbEntity
  8
LAYER0003
  6
CONTINUOUS
 62
       7
100
AcDbLine
 10
-134.88877052
 20
-110.75406196
 30
0.0
 11
-134.88877052
 21
-109.75406191
 31
0.0
  0
LINE
  5
5C
100
AcDbEntity
  8
LAYER0003
  6
CONTINUOUS
 62
       7
100
AcDbLine
 10
-157.50831761
 20
-109.75406191
 30
0.0
 11
-157.50831761
 21
-110.75406196
 31
0.0
  0
LINE
  5
5D
100
AcDbEntity
  8
LAYER0003
  6
CONTINUOUS
 62
       7
100
AcDbLine
 10
-153.50831742
 20
-110.75406196
 30
0.0
 11
-153.50831742
 21
-109.75406191
 31
0.0
  0
LINE
  5
5E
100
AcDbEntity
  8
LAYER0003
  6
CONTINUOUS
 62
       7
100
AcDbLine
 10
-125.50831818
 20
-109.75406191
 30
0.0
 11
-125.50831818
 21
-85.25406255
 31
0.0
  0
LINE
  5
5F
100
AcDbEntity
  8
LAYER0003
  6
CONTINUOUS
 62
       7
100
AcDbLine
 10
-185.50831684
 20
-85.25406255
 30
0.0
 11
-185.50831684
 21
-109.75406191
 31
0.0
  0
LINE
  5
60
100
AcDbEntity
  8
LAYER0003
  6
CONTINUOUS
 62
       7
100
AcDbLine
 10
-175.50831738
 20
70.24593809
 30
0.0
 11
-175.50831738
 21
240.0295639
 31
0.0
  0
LINE
  5
61
100
AcDbEntity
  8
LAYER0003
  6
CONTINUOUS
 62
       7
100
AcDbLine
 10
-172.01430583
 20
57.99593905
 30
0.0
 11
-139.0023292
 21
57.99593905
 31
0.0
  0
LINE
  5
62
100
AcDbEntity
  8
LAYER0003
  6
CONTINUOUS
 62
       7
100
AcDbLine
 10
-173.44750696
 20
45.84593454
 30
0.0
 11
-173.44750696
 21
56.24593177
 31
0.0
  0
LINE
  5
63
100
AcDbEntity
  8
LAYER0003
  6
CONTINUOUS
 62
       7
100
AcDbLine
 10
-172.01430583
 20
44.09594217
 30
0.0
 11
-139.0023292
 21
44.09594217
 31
0.0
  0
LINE
  5
64
100
AcDbEntity
  8
LAYER0003
  6
CONTINUOUS
 62
       7
100
AcDbLine
 10
-137.56912806
 20
45.84593454
 30
0.0
 11
-137.56912806
 21
56.24593177
 31
0.0
  0
LINE
  5
65
100
AcDbEntity
  8
LAYER0003
  6
CONTINUOUS
 62
       7
100
AcDbLine
 10
-125.50831818
 20
40.24594405
 30
0.0
 11
-185.50831684
 21
40.24594405
 31
0.0
  0
LINE
  5
66
100
AcDbEntity
  8
LAYER0003
  6
CONTINUOUS
 62
       7
100
AcDbLine
 10
-169.12786336
 20
-110.75406196
 30
0.0
 11
-179.12786314
 21
-110.75406196
 31
0.0
  0
LINE
  5
67
100
AcDbEntity
  8
LAYER0003
  6
CONTINUOUS
 62
       7
100
AcDbLine
 10
-169.12786336
 20
-111.45406193
 30
0.0
 11
-179.12786314
 21
-111.45406193
 31
0.0
  0
LINE
  5
68
100
AcDbEntity
  8
LAYER0003
  6
CONTINUOUS
 62
       7
100
AcDbLine
 10
-174.12786418
 20
-114.94145461
 30
0.0
 11
-174.12786418
 21
-111.45406193
 31
0.0
  0
LINE
  5
69
100
AcDbEntity
  8
LAYER0003
  6
CONTINUOUS
 62
       7
100
AcDbLine
 10
-170.6278636
 20
-115.25406188
 30
0.0
 11
-170.6278636
 21
-111.45406193
 31
0.0
  0
LINE
  5
6A
100
AcDbEntity
  8
LAYER0003
  6
CONTINUOUS
 62
       7
100
AcDbLine
 10
-177.62786382
 20
-115.25406188
 30
0.0
 11
-177.62786382
 21
-111.45406193
 31
0.0
  0
LINE
  5
6B
100
AcDbEntity
  8
LAYER0003
  6
CONTINUOUS
 62
       7
100
AcDbLine
 10
-170.6278636
 20
-115.25406188
 30
0.0
 11
-177.62786382
 21
-115.25406188
 31
0.0
  0
LINE
  5
6C
100
AcDbEntity
  8
LAYER0003
  6
CONTINUOUS
 62
       7
100
AcDbLine
 10
-185.50831684
 20
-107.75406181
 30
0.0
 11
-125.50831818
 21
-107.75406181
 31
0.0
  0
LINE
  5
6D
100
AcDbEntity
  8
LAYER0003
  6
CONTINUOUS
 62
       7
100
AcDbLine
 10
-185.50831684
 20
-109.75406191
 30
0.0
 11
-125.50831818
 21
-109.75406191
 31
0.0
  0
LINE
  5
6E
100
AcDbEntity
  8
LAYER0003
  6
CONTINUOUS
 62
       7
100
AcDbLine
 10
-168.25831727
 20
-32.75406232
 30
0.0
 11
-168.25831727
 21
15.24593809
 31
0.0
  0
LINE
  5
6F
100
AcDbEntity
  8
LAYER0003
  6
CONTINUOUS
 62
       7
100
AcDbLine
 10
-142.75831775
 20
15.24593809
 30
0.0
 11
-142.75831775
 21
-32.75406232
 31
0.0
  0
LINE
  5
70
100
AcDbEntity
  8
LAYER0003
  6
CONTINUOUS
 62
       7
100
AcDbLine
 10
-176.12786451
 20
-120.25406177
 30
0.0
 11
-172.12786385
 21
-120.25406177
 31
0.0
  0
LINE
  5
71
100
AcDbEntity
  8
LAYER0003
  6
CONTINUOUS
 62
       7
100
AcDbLine
 10
-185.50831684
 20
-85.25406255
 30
0.0
 11
-125.50831818
 21
-85.25406255
 31
0.0
  0
LINE
  5
72
100
AcDbEntity
  8
LAYER0003
  6
CONTINUOUS
 62
       7
100
AcDbLine
 10
-168.10273891
 20
-91.75406268
 30
0.0
 11
-142.91389612
 21
-91.75406268
 31
0.0
  0
LINE
  5
73
100
AcDbEntity
  8
LAYER0003
  6
CONTINUOUS
 62
       7
100
AcDbLine
 10
-169.46218209
 20
-92.75406098
 30
0.0
 11
-169.46218209
 21
-99.25406205
 31
0.0
  0
LINE
  5
74
100
AcDbEntity
  8
LAYER0003
  6
CONTINUOUS
 62
       7
100
AcDbLine
 10
-142.91389612
 20
-100.25406221
 30
0.0
 11
-168.10273891
 21
-100.25406221
 31
0.0
  0
LINE
  5
75
100
AcDbEntity
  8
LAYER0003
  6
CONTINUOUS
 62
       7
100
AcDbLine
 10
-141.55445294
 20
-92.75406098
 30
0.0
 11
-141.55445294
 21
-99.25406205
 31
0.0
  0
LINE
  5
76
100
AcDbEntity
  8
LAYER0003
  6
CONTINUOUS
 62
       7
100
AcDbLine
 10
-168.7430446
 20
-95.30406224
 30
0.0
 11
-168.7430446
 21
-96.70406172
 31
0.0
  0
LINE
  5
77
100
AcDbEntity
  8
LAYER0003
  6
CONTINUOUS
 62
       7
100
AcDbLine
 10
-142.27359043
 20
-95.30406224
 30
0.0
 11
-142.27359043
 21
-96.70406172
 31
0.0
  0
LINE
  5
78
100
AcDbEntity
  8
LAYER0003
  6
CONTINUOUS
 62
       7
100
AcDbLine
 10
-168.7430446
 20
-96.70406172
 30
0.0
 11
-142.27359043
 21
-96.70406172
 31
0.0
  0
LINE
  5
79
100
AcDbEntity
  8
LAYER0003
  6
CONTINUOUS
 62
       7
100
AcDbLine
 10
-168.7430446
 20
-95.30406224
 30
0.0
 11
-142.27359043
 21
-95.30406224
 31
0.0
  0
LINE
  5
7A
100
AcDbEntity
  8
LAYER0003
  6
CONTINUOUS
 62
       7
100
AcDbLine
 10
-147.00831705
 20
-100.25406221
 30
0.0
 11
-147.00831705
 21
-96.70406172
 31
0.0
  0
LINE
  5
7B
100
AcDbEntity
  8
LAYER0003
  6
CONTINUOUS
 62
       7
100
AcDbLine
 10
-147.00831705
 20
-95.30406224
 30
0.0
 11
-147.00831705
 21
-91.75406268
 31
0.0
  0
LINE
  5
7C
100
AcDbEntity
  8
LAYER0003
  6
CONTINUOUS
 62
       7
100
AcDbLine
 10
-164.00831797
 20
-91.75406268
 30
0.0
 11
-164.00831797
 21
-95.30406224
 31
0.0
  0
LINE
  5
7D
100
AcDbEntity
  8
LAYER0003
  6
CONTINUOUS
 62
       7
100
AcDbLine
 10
-164.00831797
 20
-96.70406172
 30
0.0
 11
-164.00831797
 21
-100.25406221
 31
0.0
  0
LINE
  5
7E
100
AcDbEntity
  8
LAYER0003
  6
CONTINUOUS
 62
       7
100
AcDbLine
 10
71.68453984
 20
40.24594405
 30
0.0
 11
71.68454023
 21
68.4945525
 31
0.0
  0
LINE
  5
7F
100
AcDbEntity
  8
LAYER0003
  6
CONTINUOUS
 62
       7
100
AcDbLine
 10
11.68454077
 20
68.4945525
 30
0.0
 11
11.68454117
 21
40.24594405
 31
0.0
  0
LINE
  5
80
100
AcDbEntity
  8
LAYER0003
  6
CONTINUOUS
 62
       7
100
AcDbLine
 10
12.06636893
 20
27.99593804
 30
0.0
 11
11.93453972
 21
27.99593804
 31
0.0
  0
LINE
  5
81
100
AcDbEntity
  8
LAYER0003
  6
CONTINUOUS
 62
       7
100
AcDbLine
 10
11.93453989
 20
-45.50406194
 30
0.0
 11
12.06636931
 21
-45.50406194
 31
0.0
  0
LINE
  5
82
100
AcDbEntity
  8
LAYER0003
  6
CONTINUOUS
 62
       7
100
AcDbLine
 10
10.28454169
 20
-43.63739362
 30
0.0
 11
11.5345405
 21
-45.30406191
 31
0.0
  0
LINE
  5
83
100
AcDbEntity
  8
LAYER0003
  6
CONTINUOUS
 62
       7
100
AcDbLine
 10
11.5345405
 20
27.79593809
 30
0.0
 11
10.28454169
 21
26.12926939
 31
0.0
  0
LINE
  5
84
100
AcDbEntity
  8
LAYER0003
  6
CONTINUOUS
 62
       7
100
AcDbLine
 10
71.68453984
 20
-85.25406255
 30
0.0
 11
71.68453984
 21
40.24594405
 31
0.0
  0
LINE
  5
85
100
AcDbEntity
  8
LAYER0003
  6
CONTINUOUS
 62
       7
100
AcDbLine
 10
11.68454117
 20
-46.79238668
 30
0.0
 11
11.68454117
 21
-85.25406255
 31
0.0
  0
LINE
  5
86
100
AcDbEntity
  8
LAYER0003
  6
CONTINUOUS
 62
       7
100
AcDbLine
 10
11.68454117
 20
40.24594405
 30
0.0
 11
11.68454117
 21
29.28426245
 31
0.0
  0
LINE
  5
87
100
AcDbEntity
  8
LAYER0003
  6
CONTINUOUS
 62
       7
100
AcDbLine
 10
61.1845409
 20
-109.75406191
 30
0.0
 11
61.1845409
 21
-120.25406177
 31
0.0
  0
LINE
  5
88
100
AcDbEntity
  8
LAYER0003
  6
CONTINUOUS
 62
       7
100
AcDbLine
 10
65.1845397
 20
-120.25406177
 30
0.0
 11
65.1845397
 21
-109.75406191
 31
0.0
  0
LINE
  5
89
100
AcDbEntity
  8
LAYER0003
  6
CONTINUOUS
 62
       7
100
AcDbLine
 10
28.93454074
 20
-109.75406191
 30
0.0
 11
28.93454074
 21
-120.25406177
 31
0.0
  0
LINE
  5
8A
100
AcDbEntity
  8
LAYER0003
  6
CONTINUOUS
 62
       7
100
AcDbLine
 10
32.93454047
 20
-120.25406177
 30
0.0
 11
32.93454047
 21
-109.75406191
 31
0.0
  0
LINE
  5
8B
100
AcDbEntity
  8
LAYER0003
  6
CONTINUOUS
 62
       7
100
AcDbLine
 10
71.68453984
 20
-109.75406191
 30
0.0
 11
71.68453984
 21
-85.25406255
 31
0.0
  0
LINE
  5
8C
100
AcDbEntity
  8
LAYER0003
  6
CONTINUOUS
 62
       7
100
AcDbLine
 10
11.68454117
 20
-100.25406221
 30
0.0
 11
11.68454117
 21
-109.75406191
 31
0.0
  0
LINE
  5
8D
100
AcDbEntity
  8
LAYER0003
  6
CONTINUOUS
 62
       7
100
AcDbLine
 10
11.68454117
 20
-85.25406255
 30
0.0
 11
11.68454117
 21
-91.75406268
 31
0.0
  0
LINE
  5
8E
100
AcDbEntity
  8
LAYER0003
  6
CONTINUOUS
 62
       7
100
AcDbLine
 10
12.18454032
 20
-95.30406224
 30
0.0
 11
12.18454032
 21
-96.70406172
 31
0.0
  0
LINE
  5
8F
100
AcDbEntity
  8
LAYER0003
  6
CONTINUOUS
 62
       7
100
AcDbLine
 10
14.56716336
 20
-91.75406268
 30
0.0
 11
14.56716336
 21
-95.30406224
 31
0.0
  0
LINE
  5
90
100
AcDbEntity
  8
LAYER0003
  6
CONTINUOUS
 62
       7
100
AcDbLine
 10
14.56716336
 20
-96.70406172
 30
0.0
 11
14.56716336
 21
-100.25406221
 31
0.0
  0
LINE
  5
91
100
AcDbEntity
  8
LAYER0003
  6
CONTINUOUS
 62
       7
100
AcDbLine
 10
11.68454117
 20
57.99593905
 30
0.0
 11
16.63354463
 21
57.99593905
 31
0.0
  0
LINE
  5
92
100
AcDbEntity
  8
LAYER0003
  6
CONTINUOUS
 62
       7
100
AcDbLine
 10
11.68454117
 20
44.09594217
 30
0.0
 11
16.63354463
 21
44.09594217
 31
0.0
  0
LINE
  5
93
100
AcDbEntity
  8
LAYER0003
  6
CONTINUOUS
 62
       7
100
AcDbLine
 10
17.63905264
 20
45.84593454
 30
0.0
 11
17.63905264
 21
56.24593177
 31
0.0
  0
LINE
  5
94
100
AcDbEntity
  8
LAYER0003
  6
CONTINUOUS
 62
       7
100
AcDbLine
 10
71.68453984
 20
40.24594405
 30
0.0
 11
11.68454117
 21
40.24594405
 31
0.0
  0
LINE
  5
95
100
AcDbEntity
  8
LAYER0003
  6
CONTINUOUS
 62
       7
100
AcDbLine
 10
11.68454117
 20
-109.75406191
 30
0.0
 11
71.68453984
 21
-109.75406191
 31
0.0
  0
LINE
  5
96
100
AcDbEntity
  8
LAYER0003
  6
CONTINUOUS
 62
       7
100
AcDbLine
 10
11.68454117
 20
-107.75406181
 30
0.0
 11
71.68453983
 21
-107.75406181
 31
0.0
  0
LINE
  5
97
100
AcDbEntity
  8
LAYER0003
  6
CONTINUOUS
 62
       7
100
AcDbLine
 10
10.18454
 20
-43.50405778
 30
0.0
 11
10.18454
 21
25.99593351
 31
0.0
  0
LINE
  5
98
100
AcDbEntity
  8
LAYER0003
  6
CONTINUOUS
 62
       7
100
AcDbLine
 10
14.64752904
 20
19.28684989
 30
0.0
 11
14.64752904
 21
-36.79498157
 31
0.0
  0
LINE
  5
99
100
AcDbEntity
  8
LAYER0003
  6
CONTINUOUS
 62
       7
100
AcDbLine
 10
61.1845409
 20
-120.25406177
 30
0.0
 11
65.1845397
 21
-120.25406177
 31
0.0
  0
LINE
  5
9A
100
AcDbEntity
  8
LAYER0003
  6
CONTINUOUS
 62
       7
100
AcDbLine
 10
28.93454074
 20
-120.25406177
 30
0.0
 11
32.93454047
 21
-120.25406177
 31
0.0
  0
LINE
  5
9B
100
AcDbEntity
  8
LAYER0003
  6
CONTINUOUS
 62
       7
100
AcDbLine
 10
11.68454117
 20
-91.75406268
 30
0.0
 11
14.45623539
 21
-91.75406268
 31
0.0
  0
LINE
  5
9C
100
AcDbEntity
  8
LAYER0003
  6
CONTINUOUS
 62
       7
100
AcDbLine
 10
14.45623539
 20
-100.25406221
 30
0.0
 11
11.68454117
 21
-100.25406221
 31
0.0
  0
LINE
  5
9D
100
AcDbEntity
  8
LAYER0003
  6
CONTINUOUS
 62
       7
100
AcDbLine
 10
15.12724958
 20
-92.75406098
 30
0.0
 11
15.12724958
 21
-99.25406205
 31
0.0
  0
LINE
  5
9E
100
AcDbEntity
  8
LAYER0003
  6
CONTINUOUS
 62
       7
100
AcDbLine
 10
11.68454117
 20
-85.25406255
 30
0.0
 11
71.68453984
 21
-85.25406255
 31
0.0
  0
LINE
  5
9F
100
AcDbEntity
  8
LAYER0003
  6
CONTINUOUS
 62
       7
100
AcDbLine
 10
12.18454032
 20
-96.70406172
 30
0.0
 11
15.12724958
 21
-96.70406172
 31
0.0
  0
LINE
  5
A0
100
AcDbEntity
  8
LAYER0003
  6
CONTINUOUS
 62
       7
100
AcDbLine
 10
12.18454032
 20
-95.30406224
 30
0.0
 11
15.12724958
 21
-95.30406224
 31
0.0
  0
LINE
  5
A1
100
AcDbEntity
  8
LAYER0003
  6
CONTINUOUS
 62
       7
100
AcDbLine
 10
-168.25831727
 20
-193.4002517
 30
0.0
 11
-168.25831727
 21
-195.99445259
 31
0.0
  0
LINE
  5
A2
100
AcDbEntity
  8
LAYER0003
  6
CONTINUOUS
 62
       7
100
AcDbLine
 10
-142.75831643
 20
-193.40025171
 30
0.0
 11
-142.75831643
 21
-195.9944526
 31
0.0
  0
LINE
  5
A3
100
AcDbEntity
  8
LAYER0003
  6
CONTINUOUS
 62
       7
100
AcDbLine
 10
-142.95831638
 20
-193.00025248
 30
0.0
 11
-144.62498322
 21
-191.75025367
 31
0.0
  0
LINE
  5
A4
100
AcDbEntity
  8
LAYER0003
  6
CONTINUOUS
 62
       7
100
AcDbLine
 10
-166.39165048
 20
-191.75025366
 30
0.0
 11
-168.05831732
 21
-193.00025247
 31
0.0
  0
LINE
  5
A5
100
AcDbEntity
  8
LAYER0003
  6
CONTINUOUS
 62
       7
100
AcDbLine
 10
-166.09165052
 20
-191.65025338
 30
0.0
 11
-144.92498318
 21
-191.65025338
 31
0.0
  0
LINE
  5
A6
100
AcDbEntity
  8
LAYER0003
  6
CONTINUOUS
 62
       7
100
AcDbLine
 10
-157.00831752
 20
51.7959384
 30
0.0
 11
-154.0083175
 21
51.7959384
 31
0.0
  0
LINE
  5
A7
100
AcDbEntity
  8
LAYER0003
  6
CONTINUOUS
 62
       7
100
AcDbLine
 10
-157.00831752
 20
50.29594281
 30
0.0
 11
-154.0083175
 21
50.29594281
 31
0.0
  0
LINE
  5
A8
100
AcDbEntity
  8
LAYER0003
  6
CONTINUOUS
 62
       7
100
AcDbLine
 10
-157.00831752
 20
50.29594281
 30
0.0
 11
-157.00831752
 21
51.7959384
 31
0.0
  0
LINE
  5
A9
100
AcDbEntity
  8
LAYER0003
  6
CONTINUOUS
 62
       7
100
AcDbLine
 10
-154.0083175
 20
50.29594281
 30
0.0
 11
-154.0083175
 21
51.7959384
 31
0.0
  0
LINE
  5
AA
100
AcDbEntity
  8
LAYER0003
  6
CONTINUOUS
 62
       7
100
AcDbLine
 10
-150.04301955
 20
50.29594281
 30
0.0
 11
-153.01631879
 21
50.29594281
 31
0.0
  0
LINE
  5
AB
100
AcDbEntity
  8
LAYER0003
  6
CONTINUOUS
 62
       7
100
AcDbLine
 10
-153.02298334
 20
50.29594281
 30
0.0
 11
-150.0496841
 21
50.29594281
 31
0.0
  0
LINE
  5
AC
100
AcDbEntity
  8
LAYER0003
  6
CONTINUOUS
 62
       7
100
AcDbLine
 10
-157.99365169
 20
51.7959384
 30
0.0
 11
-160.96695093
 21
51.7959384
 31
0.0
  0
LINE
  5
AD
100
AcDbEntity
  8
LAYER0003
  6
CONTINUOUS
 62
       7
100
AcDbLine
 10
-153.02298334
 20
50.29594281
 30
0.0
 11
-153.02298334
 21
51.7959384
 31
0.0
  0
LINE
  5
AE
100
AcDbEntity
  8
LAYER0003
  6
CONTINUOUS
 62
       7
100
AcDbLine
 10
-160.97361547
 20
51.7959384
 30
0.0
 11
-158.00031623
 21
51.7959384
 31
0.0
  0
LINE
  5
AF
100
AcDbEntity
  8
LAYER0003
  6
CONTINUOUS
 62
       7
100
AcDbLine
 10
-150.04301955
 20
51.7959384
 30
0.0
 11
-153.01631879
 21
51.7959384
 31
0.0
  0
LINE
  5
B0
100
AcDbEntity
  8
LAYER0003
  6
CONTINUOUS
 62
       7
100
AcDbLine
 10
-153.02298334
 20
51.7959384
 30
0.0
 11
-150.0496841
 21
51.7959384
 31
0.0
  0
LINE
  5
B1
100
AcDbEntity
  8
LAYER0003
  6
CONTINUOUS
 62
       7
100
AcDbLine
 10
-160.97361547
 20
50.29594281
 30
0.0
 11
-158.00031623
 21
50.29594281
 31
0.0
  0
LINE
  5
B2
100
AcDbEntity
  8
LAYER0003
  6
CONTINUOUS
 62
       7
100
AcDbLine
 10
-157.99365169
 20
50.29594281
 30
0.0
 11
-160.96695093
 21
50.29594281
 31
0.0
  0
LINE
  5
B3
100
AcDbEntity
  8
LAYER0003
  6
CONTINUOUS
 62
       7
100
AcDbLine
 10
-157.99365169
 20
50.29594281
 30
0.0
 11
-157.99365169
 21
51.7959384
 31
0.0
  0
LINE
  5
B4
100
AcDbEntity
  8
LAYER0003
  6
CONTINUOUS
 62
       7
100
AcDbLine
 10
-150.0496841
 20
50.29594281
 30
0.0
 11
-150.0496841
 21
51.7959384
 31
0.0
  0
LINE
  5
B5
100
AcDbEntity
  8
LAYER0003
  6
CONTINUOUS
 62
       7
100
AcDbLine
 10
-160.97361547
 20
50.29594281
 30
0.0
 11
-160.97361547
 21
51.7959384
 31
0.0
  0
LINE
  5
B6
100
AcDbEntity
  8
LAYER0003
  6
CONTINUOUS
 62
       7
100
AcDbLine
 10
-161.93474596
 20
50.29594281
 30
0.0
 11
-164.82841828
 21
50.29594281
 31
0.0
  0
LINE
  5
B7
100
AcDbEntity
  8
LAYER0003
  6
CONTINUOUS
 62
       7
100
AcDbLine
 10
-164.84162816
 20
50.29594281
 30
0.0
 11
-161.9479563
 21
50.29594281
 31
0.0
  0
LINE
  5
B8
100
AcDbEntity
  8
LAYER0003
  6
CONTINUOUS
 62
       7
100
AcDbLine
 10
-161.93474596
 20
50.29594281
 30
0.0
 11
-161.93474596
 21
51.7959384
 31
0.0
  0
LINE
  5
B9
100
AcDbEntity
  8
LAYER0003
  6
CONTINUOUS
 62
       7
100
AcDbLine
 10
-164.84162816
 20
51.7959384
 30
0.0
 11
-161.9479563
 21
51.7959384
 31
0.0
  0
LINE
  5
BA
100
AcDbEntity
  8
LAYER0003
  6
CONTINUOUS
 62
       7
100
AcDbLine
 10
-161.93474596
 20
51.7959384
 30
0.0
 11
-164.82841828
 21
51.7959384
 31
0.0
  0
LINE
  5
BB
100
AcDbEntity
  8
LAYER0003
  6
CONTINUOUS
 62
       7
100
AcDbLine
 10
-149.08188907
 20
51.7959384
 30
0.0
 11
-146.18821674
 21
51.7959384
 31
0.0
  0
LINE
  5
BC
100
AcDbEntity
  8
LAYER0003
  6
CONTINUOUS
 62
       7
100
AcDbLine
 10
-149.08188907
 20
50.29594281
 30
0.0
 11
-146.18821674
 21
50.29594281
 31
0.0
  0
LINE
  5
BD
100
AcDbEntity
  8
LAYER0003
  6
CONTINUOUS
 62
       7
100
AcDbLine
 10
-146.17500686
 20
50.29594281
 30
0.0
 11
-149.06867872
 21
50.29594281
 31
0.0
  0
LINE
  5
BE
100
AcDbEntity
  8
LAYER0003
  6
CONTINUOUS
 62
       7
100
AcDbLine
 10
-146.17500686
 20
51.7959384
 30
0.0
 11
-149.06867872
 21
51.7959384
 31
0.0
  0
LINE
  5
BF
100
AcDbEntity
  8
LAYER0003
  6
CONTINUOUS
 62
       7
100
AcDbLine
 10
-149.08188907
 20
50.29594281
 30
0.0
 11
-149.08188907
 21
51.7959384
 31
0.0
  0
LINE
  5
C0
100
AcDbEntity
  8
LAYER0003
  6
CONTINUOUS
 62
       7
100
AcDbLine
 10
-164.84162816
 20
50.29594281
 30
0.0
 11
-164.84162816
 21
51.7959384
 31
0.0
  0
LINE
  5
C1
100
AcDbEntity
  8
LAYER0003
  6
CONTINUOUS
 62
       7
100
AcDbLine
 10
-146.17500686
 20
50.29594281
 30
0.0
 11
-146.17500686
 21
51.7959384
 31
0.0
  0
LINE
  5
C2
100
AcDbEntity
  8
LAYER0003
  6
CONTINUOUS
 62
       7
100
AcDbLine
 10
-145.25518892
 20
51.7959384
 30
0.0
 11
-142.4926524
 21
51.7959384
 31
0.0
  0
LINE
  5
C3
100
AcDbEntity
  8
LAYER0003
  6
CONTINUOUS
 62
       7
100
AcDbLine
 10
-165.76144611
 20
50.29594281
 30
0.0
 11
-168.52398263
 21
50.29594281
 31
0.0
  0
LINE
  5
C4
100
AcDbEntity
  8
LAYER0003
  6
CONTINUOUS
 62
       7
100
AcDbLine
 10
-145.25518892
 20
50.29594281
 30
0.0
 11
-142.4926524
 21
50.29594281
 31
0.0
  0
LINE
  5
C5
100
AcDbEntity
  8
LAYER0003
  6
CONTINUOUS
 62
       7
100
AcDbLine
 10
-165.76144611
 20
51.7959384
 30
0.0
 11
-168.52398263
 21
51.7959384
 31
0.0
  0
LINE
  5
C6
100
AcDbEntity
  8
LAYER0003
  6
CONTINUOUS
 62
       7
100
AcDbLine
 10
-165.76144611
 20
50.29594281
 30
0.0
 11
-165.76144611
 21
51.7959384
 31
0.0
  0
LINE
  5
C7
100
AcDbEntity
  8
LAYER0003
  6
CONTINUOUS
 62
       7
100
AcDbLine
 10
-142.47313095
 20
50.29594281
 30
0.0
 11
-145.23566746
 21
50.29594281
 31
0.0
  0
LINE
  5
C8
100
AcDbEntity
  8
LAYER0003
  6
CONTINUOUS
 62
       7
100
AcDbLine
 10
-142.47313095
 20
51.7959384
 30
0.0
 11
-145.23566746
 21
51.7959384
 31
0.0
  0
LINE
  5
C9
100
AcDbEntity
  8
LAYER0003
  6
CONTINUOUS
 62
       7
100
AcDbLine
 10
-168.54350408
 20
51.7959384
 30
0.0
 11
-165.78096756
 21
51.7959384
 31
0.0
  0
LINE
  5
CA
100
AcDbEntity
  8
LAYER0003
  6
CONTINUOUS
 62
       7
100
AcDbLine
 10
-168.54350408
 20
50.29594281
 30
0.0
 11
-165.78096756
 21
50.29594281
 31
0.0
  0
LINE
  5
CB
100
AcDbEntity
  8
LAYER0003
  6
CONTINUOUS
 62
       7
100
AcDbLine
 10
-145.25518892
 20
50.29594281
 30
0.0
 11
-145.25518892
 21
51.7959384
 31
0.0
  0
LINE
  5
CC
100
AcDbEntity
  8
LAYER0003
  6
CONTINUOUS
 62
       7
100
AcDbLine
 10
-168.54350408
 20
50.29594281
 30
0.0
 11
-168.54350408
 21
51.7959384
 31
0.0
  0
LINE
  5
CD
100
AcDbEntity
  8
LAYER0003
  6
CONTINUOUS
 62
       7
100
AcDbLine
 10
-142.47313095
 20
50.29594281
 30
0.0
 11
-142.47313095
 21
51.7959384
 31
0.0
  0
LINE
  5
CE
100
AcDbEntity
  8
LAYER0003
  6
CONTINUOUS
 62
       7
100
AcDbLine
 10
-185.50831738
 20
67.73585787
 30
0.0
 11
-185.50831684
 21
40.24594405
 31
0.0
  0
LINE
  5
CF
100
AcDbEntity
  8
LAYER0003
  6
CONTINUOUS
 62
       7
100
AcDbLine
 10
-125.50831738
 20
67.73585787
 30
0.0
 11
-125.50831818
 21
40.24594405
 31
0.0
  0
LINE
  5
D0
100
AcDbEntity
  8
LAYER0003
  6
CONTINUOUS
 62
       7
100
AcDbLine
 10
-139.0023292
 20
57.99593905
 30
0.0
 11
-138.9451567
 21
57.9891383
 31
0.0
  0
LINE
  5
D1
100
AcDbEntity
  8
LAYER0003
  6
CONTINUOUS
 62
       7
100
AcDbLine
 10
-138.9451567
 20
57.9891383
 30
0.0
 11
-138.88808208
 21
57.98195267
 31
0.0
  0
LINE
  5
D2
100
AcDbEntity
  8
LAYER0003
  6
CONTINUOUS
 62
       7
100
AcDbLine
 10
-138.88808208
 20
57.98195267
 30
0.0
 11
-138.83120322
 21
57.97399729
 31
0.0
  0
LINE
  5
D3
100
AcDbEntity
  8
LAYER0003
  6
CONTINUOUS
 62
       7
100
AcDbLine
 10
-138.83120322
 20
57.97399729
 30
0.0
 11
-138.77461799
 21
57.96488727
 31
0.0
  0
LINE
  5
D4
100
AcDbEntity
  8
LAYER0003
  6
CONTINUOUS
 62
       7
100
AcDbLine
 10
-138.77461799
 20
57.96488727
 30
0.0
 11
-138.71842428
 21
57.95423774
 31
0.0
  0
LINE
  5
D5
100
AcDbEntity
  8
LAYER0003
  6
CONTINUOUS
 62
       7
100
AcDbLine
 10
-138.71842428
 20
57.95423774
 30
0.0
 11
-138.66271996
 21
57.94166381
 31
0.0
  0
LINE
  5
D6
100
AcDbEntity
  8
LAYER0003
  6
CONTINUOUS
 62
       7
100
AcDbLine
 10
-138.66271996
 20
57.94166381
 30
0.0
 11
-138.60760292
 21
57.92678061
 31
0.0
  0
LINE
  5
D7
100
AcDbEntity
  8
LAYER0003
  6
CONTINUOUS
 62
       7
100
AcDbLine
 10
-138.60760292
 20
57.92678061
 30
0.0
 11
-138.55317103
 21
57.90920326
 31
0.0
  0
LINE
  5
D8
100
AcDbEntity
  8
LAYER0003
  6
CONTINUOUS
 62
       7
100
AcDbLine
 10
-138.55317103
 20
57.90920326
 30
0.0
 11
-138.49952188
 21
57.88855343
 31
0.0
  0
LINE
  5
D9
100
AcDbEntity
  8
LAYER0003
  6
CONTINUOUS
 62
       7
100
AcDbLine
 10
-138.49952188
 20
57.88855343
 30
0.0
 11
-138.44674271
 21
57.86468442
 31
0.0
  0
LINE
  5
DA
100
AcDbEntity
  8
LAYER0003
  6
CONTINUOUS
 62
       7
100
AcDbLine
 10
-138.44674271
 20
57.86468442
 30
0.0
 11
-138.3949079
 21
57.83773774
 31
0.0
  0
LINE
  5
DB
100
AcDbEntity
  8
LAYER0003
  6
CONTINUOUS
 62
       7
100
AcDbLine
 10
-138.3949079
 20
57.83773774
 30
0.0
 11
-138.34409104
 21
57.80787293
 31
0.0
  0
LINE
  5
DC
100
AcDbEntity
  8
LAYER0003
  6
CONTINUOUS
 62
       7
100
AcDbLine
 10
-138.34409104
 20
57.80787293
 30
0.0
 11
-138.29436568
 21
57.77524953
 31
0.0
  0
LINE
  5
DD
100
AcDbEntity
  8
LAYER0003
  6
CONTINUOUS
 62
       7
100
AcDbLine
 10
-138.29436568
 20
57.77524953
 30
0.0
 11
-138.24580542
 21
57.74002709
 31
0.0
  0
LINE
  5
DE
100
AcDbEntity
  8
LAYER0003
  6
CONTINUOUS
 62
       7
100
AcDbLine
 10
-138.24580542
 20
57.74002709
 30
0.0
 11
-138.19848382
 21
57.70236517
 31
0.0
  0
LINE
  5
DF
100
AcDbEntity
  8
LAYER0003
  6
CONTINUOUS
 62
       7
100
AcDbLine
 10
-138.19848382
 20
57.70236517
 30
0.0
 11
-138.15247446
 21
57.66242329
 31
0.0
  0
LINE
  5
E0
100
AcDbEntity
  8
LAYER0003
  6
CONTINUOUS
 62
       7
100
AcDbLine
 10
-138.15247446
 20
57.66242329
 30
0.0
 11
-138.10785091
 21
57.62036101
 31
0.0
  0
LINE
  5
E1
100
AcDbEntity
  8
LAYER0003
  6
CONTINUOUS
 62
       7
100
AcDbLine
 10
-138.10785091
 20
57.62036101
 30
0.0
 11
-138.06468299
 21
57.57632726
 31
0.0
  0
LINE
  5
E2
100
AcDbEntity
  8
LAYER0003
  6
CONTINUOUS
 62
       7
100
AcDbLine
 10
-138.06468299
 20
57.57632726
 30
0.0
 11
-138.02301549
 21
57.53040021
 31
0.0
  0
LINE
  5
E3
100
AcDbEntity
  8
LAYER0003
  6
CONTINUOUS
 62
       7
100
AcDbLine
 10
-138.02301549
 20
57.53040021
 30
0.0
 11
-137.98288293
 21
57.48262908
 31
0.0
  0
LINE
  5
E4
100
AcDbEntity
  8
LAYER0003
  6
CONTINUOUS
 62
       7
100
AcDbLine
 10
-137.98288293
 20
57.48262908
 30
0.0
 11
-137.94431982
 21
57.43306302
 31
0.0
  0
LINE
  5
E5
100
AcDbEntity
  8
LAYER0003
  6
CONTINUOUS
 62
       7
100
AcDbLine
 10
-137.94431982
 20
57.43306302
 30
0.0
 11
-137.90736068
 21
57.38175114
 31
0.0
  0
LINE
  5
E6
100
AcDbEntity
  8
LAYER0003
  6
CONTINUOUS
 62
       7
100
AcDbLine
 10
-137.90736068
 20
57.38175114
 30
0.0
 11
-137.87204
 21
57.32874261
 31
0.0
  0
LINE
  5
E7
100
AcDbEntity
  8
LAYER0003
  6
CONTINUOUS
 62
       7
100
AcDbLine
 10
-137.87204
 20
57.32874261
 30
0.0
 11
-137.83839229
 21
57.27408653
 31
0.0
  0
LINE
  5
E8
100
AcDbEntity
  8
LAYER0003
  6
CONTINUOUS
 62
       7
100
AcDbLine
 10
-137.83839229
 20
57.27408653
 30
0.0
 11
-137.80645206
 21
57.21783207
 31
0.0
  0
LINE
  5
E9
100
AcDbEntity
  8
LAYER0003
  6
CONTINUOUS
 62
       7
100
AcDbLine
 10
-137.80645206
 20
57.21783207
 30
0.0
 11
-137.77625398
 21
57.16002852
 31
0.0
  0
LINE
  5
EA
100
AcDbEntity
  8
LAYER0003
  6
CONTINUOUS
 62
       7
100
AcDbLine
 10
-137.77625398
 20
57.16002852
 30
0.0
 11
-137.7478528
 21
57.10074557
 31
0.0
  0
LINE
  5
EB
100
AcDbEntity
  8
LAYER0003
  6
CONTINUOUS
 62
       7
100
AcDbLine
 10
-137.7478528
 20
57.10074557
 30
0.0
 11
-137.72134159
 21
57.04009184
 31
0.0
  0
LINE
  5
EC
100
AcDbEntity
  8
LAYER0003
  6
CONTINUOUS
 62
       7
100
AcDbLine
 10
-137.72134159
 20
57.04009184
 30
0.0
 11
-137.69681772
 21
56.97818033
 31
0.0
  0
LINE
  5
ED
100
AcDbEntity
  8
LAYER0003
  6
CONTINUOUS
 62
       7
100
AcDbLine
 10
-137.69681772
 20
56.97818033
 30
0.0
 11
-137.67437861
 21
56.91512405
 31
0.0
  0
LINE
  5
EE
100
AcDbEntity
  8
LAYER0003
  6
CONTINUOUS
 62
       7
100
AcDbLine
 10
-137.67437861
 20
56.91512405
 30
0.0
 11
-137.65412164
 21
56.85103599
 31
0.0
  0
LINE
  5
EF
100
AcDbEntity
  8
LAYER0003
  6
CONTINUOUS
 62
       7
100
AcDbLine
 10
-137.65412164
 20
56.85103599
 30
0.0
 11
-137.63614419
 21
56.78602917
 31
0.0
  0
LINE
  5
F0
100
AcDbEntity
  8
LAYER0003
  6
CONTINUOUS
 62
       7
100
AcDbLine
 10
-137.63614419
 20
56.78602917
 30
0.0
 11
-137.62054367
 21
56.72021658
 31
0.0
  0
LINE
  5
F1
100
AcDbEntity
  8
LAYER0003
  6
CONTINUOUS
 62
       7
100
AcDbLine
 10
-137.62054367
 20
56.72021658
 30
0.0
 11
-137.60741746
 21
56.65371124
 31
0.0
  0
LINE
  5
F2
100
AcDbEntity
  8
LAYER0003
  6
CONTINUOUS
 62
       7
100
AcDbLine
 10
-137.60741746
 20
56.65371124
 30
0.0
 11
-137.59683432
 21
56.58662525
 31
0.0
  0
LINE
  5
F3
100
AcDbEntity
  8
LAYER0003
  6
CONTINUOUS
 62
       7
100
AcDbLine
 10
-137.59683432
 20
56.58662525
 30
0.0
 11
-137.58854122
 21
56.5190607
 31
0.0
  0
LINE
  5
F4
100
AcDbEntity
  8
LAYER0003
  6
CONTINUOUS
 62
       7
100
AcDbLine
 10
-137.58854122
 20
56.5190607
 30
0.0
 11
-137.58208269
 21
56.45111339
 31
0.0
  0
LINE
  5
F5
100
AcDbEntity
  8
LAYER0003
  6
CONTINUOUS
 62
       7
100
AcDbLine
 10
-137.58208269
 20
56.45111339
 30
0.0
 11
-137.57700008
 21
56.382879
 31
0.0
  0
LINE
  5
F6
100
AcDbEntity
  8
LAYER0003
  6
CONTINUOUS
 62
       7
100
AcDbLine
 10
-137.57700008
 20
56.382879
 30
0.0
 11
-137.57283475
 21
56.31445323
 31
0.0
  0
LINE
  5
F7
100
AcDbEntity
  8
LAYER0003
  6
CONTINUOUS
 62
       7
100
AcDbLine
 10
-137.57283475
 20
56.31445323
 30
0.0
 11
-137.56912806
 21
56.24593177
 31
0.0
  0
LINE
  5
F8
100
AcDbEntity
  8
LAYER0003
  6
CONTINUOUS
 62
       7
100
AcDbLine
 10
-173.44750696
 20
56.24593177
 30
0.0
 11
-173.44204336
 21
56.31466677
 31
0.0
  0
LINE
  5
F9
100
AcDbEntity
  8
LAYER0003
  6
CONTINUOUS
 62
       7
100
AcDbLine
 10
-173.44204336
 20
56.31466677
 30
0.0
 11
-173.43626961
 21
56.38329777
 31
0.0
  0
LINE
  5
FA
100
AcDbEntity
  8
LAYER0003
  6
CONTINUOUS
 62
       7
100
AcDbLine
 10
-173.43626961
 20
56.38329777
 30
0.0
 11
-173.42987558
 21
56.45172079
 31
0.0
  0
LINE
  5
FB
100
AcDbEntity
  8
LAYER0003
  6
CONTINUOUS
 62
       7
100
AcDbLine
 10
-173.42987558
 20
56.45172079
 30
0.0
 11
-173.42255113
 21
56.51983183
 31
0.0
  0
LINE
  5
FC
100
AcDbEntity
  8
LAYER0003
  6
CONTINUOUS
 62
       7
100
AcDbLine
 10
-173.42255113
 20
56.51983183
 30
0.0
 11
-173.41398611
 21
56.58752691
 31
0.0
  0
LINE
  5
FD
100
AcDbEntity
  8
LAYER0003
  6
CONTINUOUS
 62
       7
100
AcDbLine
 10
-173.41398611
 20
56.58752691
 30
0.0
 11
-173.40387038
 21
56.65470203
 31
0.0
  0
LINE
  5
FE
100
AcDbEntity
  8
LAYER0003
  6
CONTINUOUS
 62
       7
100
AcDbLine
 10
-173.40387038
 20
56.65470203
 30
0.0
 11
-173.39189381
 21
56.72125319
 31
0.0
  0
LINE
  5
FF
100
AcDbEntity
  8
LAYER0003
  6
CONTINUOUS
 62
       7
100
AcDbLine
 10
-173.39189381
 20
56.72125319
 30
0.0
 11
-173.37774624
 21
56.78707641
 31
0.0
  0
LINE
  5
100
100
AcDbEntity
  8
LAYER0003
  6
CONTINUOUS
 62
       7
100
AcDbLine
 10
-173.37774624
 20
56.78707641
 30
0.0
 11
-173.36112272
 21
56.85206775
 31
0.0
  0
LINE
  5
101
100
AcDbEntity
  8
LAYER0003
  6
CONTINUOUS
 62
       7
100
AcDbLine
 10
-173.36112272
 20
56.85206775
 30
0.0
 11
-173.34190248
 21
56.91612522
 31
0.0
  0
LINE
  5
102
100
AcDbEntity
  8
LAYER0003
  6
CONTINUOUS
 62
       7
100
AcDbLine
 10
-173.34190248
 20
56.91612522
 30
0.0
 11
-173.3201946
 21
56.9791493
 31
0.0
  0
LINE
  5
103
100
AcDbEntity
  8
LAYER0003
  6
CONTINUOUS
 62
       7
100
AcDbLine
 10
-173.3201946
 20
56.9791493
 30
0.0
 11
-173.2961226
 21
57.04104059
 31
0.0
  0
LINE
  5
104
100
AcDbEntity
  8
LAYER0003
  6
CONTINUOUS
 62
       7
100
AcDbLine
 10
-173.2961226
 20
57.04104059
 30
0.0
 11
-173.26981002
 21
57.1016997
 31
0.0
  0
LINE
  5
105
100
AcDbEntity
  8
LAYER0003
  6
CONTINUOUS
 62
       7
100
AcDbLine
 10
-173.26981002
 20
57.1016997
 30
0.0
 11
-173.24138038
 21
57.16102725
 31
0.0
  0
LINE
  5
106
100
AcDbEntity
  8
LAYER0003
  6
CONTINUOUS
 62
       7
100
AcDbLine
 10
-173.24138038
 20
57.16102725
 30
0.0
 11
-173.21095722
 21
57.21892386
 31
0.0
  0
LINE
  5
107
100
AcDbEntity
  8
LAYER0003
  6
CONTINUOUS
 62
       7
100
AcDbLine
 10
-173.21095722
 20
57.21892386
 30
0.0
 11
-173.17866405
 21
57.27529014
 31
0.0
  0
LINE
  5
108
100
AcDbEntity
  8
LAYER0003
  6
CONTINUOUS
 62
       7
100
AcDbLine
 10
-173.17866405
 20
57.27529014
 30
0.0
 11
-173.14462442
 21
57.33002669
 31
0.0
  0
LINE
  5
109
100
AcDbEntity
  8
LAYER0003
  6
CONTINUOUS
 62
       7
100
AcDbLine
 10
-173.14462442
 20
57.33002669
 30
0.0
 11
-173.10895344
 21
57.38303903
 31
0.0
  0
LINE
  5
10A
100
AcDbEntity
  8
LAYER0003
  6
CONTINUOUS
 62
       7
100
AcDbLine
 10
-173.10895344
 20
57.38303903
 30
0.0
 11
-173.07170987
 21
57.43426542
 31
0.0
  0
LINE
  5
10B
100
AcDbEntity
  8
LAYER0003
  6
CONTINUOUS
 62
       7
100
AcDbLine
 10
-173.07170987
 20
57.43426542
 30
0.0
 11
-173.03292929
 21
57.48365759
 31
0.0
  0
LINE
  5
10C
100
AcDbEntity
  8
LAYER0003
  6
CONTINUOUS
 62
       7
100
AcDbLine
 10
-173.03292929
 20
57.48365759
 30
0.0
 11
-172.99264724
 21
57.53116732
 31
0.0
  0
LINE
  5
10D
100
AcDbEntity
  8
LAYER0003
  6
CONTINUOUS
 62
       7
100
AcDbLine
 10
-172.99264724
 20
57.53116732
 30
0.0
 11
-172.95089923
 21
57.57674638
 31
0.0
  0
LINE
  5
10E
100
AcDbEntity
  8
LAYER0003
  6
CONTINUOUS
 62
       7
100
AcDbLine
 10
-172.95089923
 20
57.57674638
 30
0.0
 11
-172.90772077
 21
57.62034655
 31
0.0
  0
LINE
  5
10F
100
AcDbEntity
  8
LAYER0003
  6
CONTINUOUS
 62
       7
100
AcDbLine
 10
-172.90772077
 20
57.62034655
 30
0.0
 11
-172.8631474
 21
57.66191961
 31
0.0
  0
LINE
  5
110
100
AcDbEntity
  8
LAYER0003
  6
CONTINUOUS
 62
       7
100
AcDbLine
 10
-172.8631474
 20
57.66191961
 30
0.0
 11
-172.81721463
 21
57.70141731
 31
0.0
  0
LINE
  5
111
100
AcDbEntity
  8
LAYER0003
  6
CONTINUOUS
 62
       7
100
AcDbLine
 10
-172.81721463
 20
57.70141731
 30
0.0
 11
-172.76995811
 21
57.73879126
 31
0.0
  0
LINE
  5
112
100
AcDbEntity
  8
LAYER0003
  6
CONTINUOUS
 62
       7
100
AcDbLine
 10
-172.76995811
 20
57.73879126
 30
0.0
 11
-172.72142957
 21
57.7739688
 31
0.0
  0
LINE
  5
113
100
AcDbEntity
  8
LAYER0003
  6
CONTINUOUS
 62
       7
100
AcDbLine
 10
-172.72142957
 20
57.7739688
 30
0.0
 11
-172.6717122
 21
57.80682989
 31
0.0
  0
LINE
  5
114
100
AcDbEntity
  8
LAYER0003
  6
CONTINUOUS
 62
       7
100
AcDbLine
 10
-172.6717122
 20
57.80682989
 30
0.0
 11
-172.62089286
 21
57.83724901
 31
0.0
  0
LINE
  5
115
100
AcDbEntity
  8
LAYER0003
  6
CONTINUOUS
 62
       7
100
AcDbLine
 10
-172.62089286
 20
57.83724901
 30
0.0
 11
-172.56905836
 21
57.86510063
 31
0.0
  0
LINE
  5
116
100
AcDbEntity
  8
LAYER0003
  6
CONTINUOUS
 62
       7
100
AcDbLine
 10
-172.56905836
 20
57.86510063
 30
0.0
 11
-172.51629556
 21
57.89025923
 31
0.0
  0
LINE
  5
117
100
AcDbEntity
  8
LAYER0003
  6
CONTINUOUS
 62
       7
100
AcDbLine
 10
-172.51629556
 20
57.89025923
 30
0.0
 11
-172.46269128
 21
57.91259927
 31
0.0
  0
LINE
  5
118
100
AcDbEntity
  8
LAYER0003
  6
CONTINUOUS
 62
       7
100
AcDbLine
 10
-172.46269128
 20
57.91259927
 30
0.0
 11
-172.40833238
 21
57.93199524
 31
0.0
  0
LINE
  5
119
100
AcDbEntity
  8
LAYER0003
  6
CONTINUOUS
 62
       7
100
AcDbLine
 10
-172.40833238
 20
57.93199524
 30
0.0
 11
-172.35330568
 21
57.94832161
 31
0.0
  0
LINE
  5
11A
100
AcDbEntity
  8
LAYER0003
  6
CONTINUOUS
 62
       7
100
AcDbLine
 10
-172.35330568
 20
57.94832161
 30
0.0
 11
-172.29769856
 21
57.96148765
 31
0.0
  0
LINE
  5
11B
100
AcDbEntity
  8
LAYER0003
  6
CONTINUOUS
 62
       7
100
AcDbLine
 10
-172.29769856
 20
57.96148765
 30
0.0
 11
-172.24160446
 21
57.97180336
 31
0.0
  0
LINE
  5
11C
100
AcDbEntity
  8
LAYER0003
  6
CONTINUOUS
 62
       7
100
AcDbLine
 10
-172.24160446
 20
57.97180336
 30
0.0
 11
-172.18512073
 21
57.97983545
 31
0.0
  0
LINE
  5
11D
100
AcDbEntity
  8
LAYER0003
  6
CONTINUOUS
 62
       7
100
AcDbLine
 10
-172.18512073
 20
57.97983545
 30
0.0
 11
-172.12834478
 21
57.98615482
 31
0.0
  0
LINE
  5
11E
100
AcDbEntity
  8
LAYER0003
  6
CONTINUOUS
 62
       7
100
AcDbLine
 10
-172.12834478
 20
57.98615482
 30
0.0
 11
-172.07137401
 21
57.99133239
 31
0.0
  0
LINE
  5
11F
100
AcDbEntity
  8
LAYER0003
  6
CONTINUOUS
 62
       7
100
AcDbLine
 10
-172.07137401
 20
57.99133239
 30
0.0
 11
-172.01430583
 21
57.99593905
 31
0.0
  0
LINE
  5
120
100
AcDbEntity
  8
LAYER0003
  6
CONTINUOUS
 62
       7
100
AcDbLine
 10
-172.01430583
 20
44.09594217
 30
0.0
 11
-172.07147814
 21
44.10274282
 31
0.0
  0
LINE
  5
121
100
AcDbEntity
  8
LAYER0003
  6
CONTINUOUS
 62
       7
100
AcDbLine
 10
-172.07147814
 20
44.10274282
 30
0.0
 11
-172.12855257
 21
44.10992835
 31
0.0
  0
LINE
  5
122
100
AcDbEntity
  8
LAYER0003
  6
CONTINUOUS
 62
       7
100
AcDbLine
 10
-172.12855257
 20
44.10992835
 30
0.0
 11
-172.18543123
 21
44.11788363
 31
0.0
  0
LINE
  5
123
100
AcDbEntity
  8
LAYER0003
  6
CONTINUOUS
 62
       7
100
AcDbLine
 10
-172.18543123
 20
44.11788363
 30
0.0
 11
-172.24201624
 21
44.12699356
 31
0.0
  0
LINE
  5
124
100
AcDbEntity
  8
LAYER0003
  6
CONTINUOUS
 62
       7
100
AcDbLine
 10
-172.24201624
 20
44.12699356
 30
0.0
 11
-172.29820972
 21
44.137643
 31
0.0
  0
LINE
  5
125
100
AcDbEntity
  8
LAYER0003
  6
CONTINUOUS
 62
       7
100
AcDbLine
 10
-172.29820972
 20
44.137643
 30
0.0
 11
-172.35391379
 21
44.15021683
 31
0.0
  0
LINE
  5
126
100
AcDbEntity
  8
LAYER0003
  6
CONTINUOUS
 62
       7
100
AcDbLine
 10
-172.35391379
 20
44.15021683
 30
0.0
 11
-172.40903056
 21
44.16509994
 31
0.0
  0
LINE
  5
127
100
AcDbEntity
  8
LAYER0003
  6
CONTINUOUS
 62
       7
100
AcDbLine
 10
-172.40903056
 20
44.16509994
 30
0.0
 11
-172.46346215
 21
44.18267721
 31
0.0
  0
LINE
  5
128
100
AcDbEntity
  8
LAYER0003
  6
CONTINUOUS
 62
       7
100
AcDbLine
 10
-172.46346215
 20
44.18267721
 30
0.0
 11
-172.51711096
 21
44.20332695
 31
0.0
  0
LINE
  5
129
100
AcDbEntity
  8
LAYER0003
  6
CONTINUOUS
 62
       7
100
AcDbLine
 10
-172.51711096
 20
44.20332695
 30
0.0
 11
-172.56988977
 21
44.22719589
 31
0.0
  0
LINE
  5
12A
100
AcDbEntity
  8
LAYER0003
  6
CONTINUOUS
 62
       7
100
AcDbLine
 10
-172.56988977
 20
44.22719589
 30
0.0
 11
-172.62172422
 21
44.25414248
 31
0.0
  0
LINE
  5
12B
100
AcDbEntity
  8
LAYER0003
  6
CONTINUOUS
 62
       7
100
AcDbLine
 10
-172.62172422
 20
44.25414248
 30
0.0
 11
-172.67254076
 21
44.28400717
 31
0.0
  0
LINE
  5
12C
100
AcDbEntity
  8
LAYER0003
  6
CONTINUOUS
 62
       7
100
AcDbLine
 10
-172.67254076
 20
44.28400717
 30
0.0
 11
-172.72226584
 21
44.31663038
 31
0.0
  0
LINE
  5
12D
100
AcDbEntity
  8
LAYER0003
  6
CONTINUOUS
 62
       7
100
AcDbLine
 10
-172.72226584
 20
44.31663038
 30
0.0
 11
-172.77082593
 21
44.35185254
 31
0.0
  0
LINE
  5
12E
100
AcDbEntity
  8
LAYER0003
  6
CONTINUOUS
 62
       7
100
AcDbLine
 10
-172.77082593
 20
44.35185254
 30
0.0
 11
-172.81814747
 21
44.38951409
 31
0.0
  0
LINE
  5
12F
100
AcDbEntity
  8
LAYER0003
  6
CONTINUOUS
 62
       7
100
AcDbLine
 10
-172.81814747
 20
44.38951409
 30
0.0
 11
-172.86415692
 21
44.42945544
 31
0.0
  0
LINE
  5
130
100
AcDbEntity
  8
LAYER0003
  6
CONTINUOUS
 62
       7
100
AcDbLine
 10
-172.86415692
 20
44.42945544
 30
0.0
 11
-172.90878072
 21
44.47151703
 31
0.0
  0
LINE
  5
131
100
AcDbEntity
  8
LAYER0003
  6
CONTINUOUS
 62
       7
100
AcDbLine
 10
-172.90878072
 20
44.47151703
 30
0.0
 11
-172.95194909
 21
44.51554991
 31
0.0
  0
LINE
  5
132
100
AcDbEntity
  8
LAYER0003
  6
CONTINUOUS
 62
       7
100
AcDbLine
 10
-172.95194909
 20
44.51554991
 30
0.0
 11
-172.99361721
 21
44.56147593
 31
0.0
  0
LINE
  5
133
100
AcDbEntity
  8
LAYER0003
  6
CONTINUOUS
 62
       7
100
AcDbLine
 10
-172.99361721
 20
44.56147593
 30
0.0
 11
-173.03375047
 21
44.60924593
 31
0.0
  0
LINE
  5
134
100
AcDbEntity
  8
LAYER0003
  6
CONTINUOUS
 62
       7
100
AcDbLine
 10
-173.03375047
 20
44.60924593
 30
0.0
 11
-173.07231432
 21
44.65881081
 31
0.0
  0
LINE
  5
135
100
AcDbEntity
  8
LAYER0003
  6
CONTINUOUS
 62
       7
100
AcDbLine
 10
-173.07231432
 20
44.65881081
 30
0.0
 11
-173.10927419
 21
44.7101215
 31
0.0
  0
LINE
  5
136
100
AcDbEntity
  8
LAYER0003
  6
CONTINUOUS
 62
       7
100
AcDbLine
 10
-173.10927419
 20
44.7101215
 30
0.0
 11
-173.14459553
 21
44.76312891
 31
0.0
  0
LINE
  5
137
100
AcDbEntity
  8
LAYER0003
  6
CONTINUOUS
 62
       7
100
AcDbLine
 10
-173.14459553
 20
44.76312891
 30
0.0
 11
-173.17824375
 21
44.81778396
 31
0.0
  0
LINE
  5
138
100
AcDbEntity
  8
LAYER0003
  6
CONTINUOUS
 62
       7
100
AcDbLine
 10
-173.17824375
 20
44.81778396
 30
0.0
 11
-173.21018431
 21
44.87403756
 31
0.0
  0
LINE
  5
139
100
AcDbEntity
  8
LAYER0003
  6
CONTINUOUS
 62
       7
100
AcDbLine
 10
-173.21018431
 20
44.87403756
 30
0.0
 11
-173.24038247
 21
44.93184046
 31
0.0
  0
LINE
  5
13A
100
AcDbEntity
  8
LAYER0003
  6
CONTINUOUS
 62
       7
100
AcDbLine
 10
-173.24038247
 20
44.93184046
 30
0.0
 11
-173.26878346
 21
44.99112298
 31
0.0
  0
LINE
  5
13B
100
AcDbEntity
  8
LAYER0003
  6
CONTINUOUS
 62
       7
100
AcDbLine
 10
-173.26878346
 20
44.99112298
 30
0.0
 11
-173.29529427
 21
45.05177647
 31
0.0
  0
LINE
  5
13C
100
AcDbEntity
  8
LAYER0003
  6
CONTINUOUS
 62
       7
100
AcDbLine
 10
-173.29529427
 20
45.05177647
 30
0.0
 11
-173.31981759
 21
45.11368789
 31
0.0
  0
LINE
  5
13D
100
AcDbEntity
  8
LAYER0003
  6
CONTINUOUS
 62
       7
100
AcDbLine
 10
-173.31981759
 20
45.11368789
 30
0.0
 11
-173.3422561
 21
45.17674419
 31
0.0
  0
LINE
  5
13E
100
AcDbEntity
  8
LAYER0003
  6
CONTINUOUS
 62
       7
100
AcDbLine
 10
-173.3422561
 20
45.17674419
 30
0.0
 11
-173.36251246
 21
45.24083232
 31
0.0
  0
LINE
  5
13F
100
AcDbEntity
  8
LAYER0003
  6
CONTINUOUS
 62
       7
100
AcDbLine
 10
-173.36251246
 20
45.24083232
 30
0.0
 11
-173.38048935
 21
45.30583923
 31
0.0
  0
LINE
  5
140
100
AcDbEntity
  8
LAYER0003
  6
CONTINUOUS
 62
       7
100
AcDbLine
 10
-173.38048935
 20
45.30583923
 30
0.0
 11
-173.39608947
 21
45.37165187
 31
0.0
  0
LINE
  5
141
100
AcDbEntity
  8
LAYER0003
  6
CONTINUOUS
 62
       7
100
AcDbLine
 10
-173.39608947
 20
45.37165187
 30
0.0
 11
-173.40921547
 21
45.4381572
 31
0.0
  0
LINE
  5
142
100
AcDbEntity
  8
LAYER0003
  6
CONTINUOUS
 62
       7
100
AcDbLine
 10
-173.40921547
 20
45.4381572
 30
0.0
 11
-173.41979865
 21
45.50524306
 31
0.0
  0
LINE
  5
143
100
AcDbEntity
  8
LAYER0003
  6
CONTINUOUS
 62
       7
100
AcDbLine
 10
-173.41979865
 20
45.50524306
 30
0.0
 11
-173.42809195
 21
45.57280735
 31
0.0
  0
LINE
  5
144
100
AcDbEntity
  8
LAYER0003
  6
CONTINUOUS
 62
       7
100
AcDbLine
 10
-173.42809195
 20
45.57280735
 30
0.0
 11
-173.43455083
 21
45.64075431
 31
0.0
  0
LINE
  5
145
100
AcDbEntity
  8
LAYER0003
  6
CONTINUOUS
 62
       7
100
AcDbLine
 10
-173.43455083
 20
45.64075431
 30
0.0
 11
-173.43963388
 21
45.70898828
 31
0.0
  0
LINE
  5
146
100
AcDbEntity
  8
LAYER0003
  6
CONTINUOUS
 62
       7
100
AcDbLine
 10
-173.43963388
 20
45.70898828
 30
0.0
 11
-173.44379973
 21
45.77741357
 31
0.0
  0
LINE
  5
147
100
AcDbEntity
  8
LAYER0003
  6
CONTINUOUS
 62
       7
100
AcDbLine
 10
-173.44379973
 20
45.77741357
 30
0.0
 11
-173.44750696
 21
45.84593454
 31
0.0
  0
LINE
  5
148
100
AcDbEntity
  8
LAYER0003
  6
CONTINUOUS
 62
       7
100
AcDbLine
 10
-137.56912806
 20
45.84593454
 30
0.0
 11
-137.574592
 21
45.77719994
 31
0.0
  0
LINE
  5
149
100
AcDbEntity
  8
LAYER0003
  6
CONTINUOUS
 62
       7
100
AcDbLine
 10
-137.574592
 20
45.77719994
 30
0.0
 11
-137.58036608
 21
45.70856934
 31
0.0
  0
LINE
  5
14A
100
AcDbEntity
  8
LAYER0003
  6
CONTINUOUS
 62
       7
100
AcDbLine
 10
-137.58036608
 20
45.70856934
 30
0.0
 11
-137.58676044
 21
45.64014671
 31
0.0
  0
LINE
  5
14B
100
AcDbEntity
  8
LAYER0003
  6
CONTINUOUS
 62
       7
100
AcDbLine
 10
-137.58676044
 20
45.64014671
 30
0.0
 11
-137.59408524
 21
45.57203605
 31
0.0
  0
LINE
  5
14C
100
AcDbEntity
  8
LAYER0003
  6
CONTINUOUS
 62
       7
100
AcDbLine
 10
-137.59408524
 20
45.57203605
 30
0.0
 11
-137.60265061
 21
45.50434134
 31
0.0
  0
LINE
  5
14D
100
AcDbEntity
  8
LAYER0003
  6
CONTINUOUS
 62
       7
100
AcDbLine
 10
-137.60265061
 20
45.50434134
 30
0.0
 11
-137.6127667
 21
45.43716659
 31
0.0
  0
LINE
  5
14E
100
AcDbEntity
  8
LAYER0003
  6
CONTINUOUS
 62
       7
100
AcDbLine
 10
-137.6127667
 20
45.43716659
 30
0.0
 11
-137.62474365
 21
45.37061576
 31
0.0
  0
LINE
  5
14F
100
AcDbEntity
  8
LAYER0003
  6
CONTINUOUS
 62
       7
100
AcDbLine
 10
-137.62474365
 20
45.37061576
 30
0.0
 11
-137.6388916
 21
45.30479287
 31
0.0
  0
LINE
  5
150
100
AcDbEntity
  8
LAYER0003
  6
CONTINUOUS
 62
       7
100
AcDbLine
 10
-137.6388916
 20
45.30479287
 30
0.0
 11
-137.65551552
 21
45.23980183
 31
0.0
  0
LINE
  5
151
100
AcDbEntity
  8
LAYER0003
  6
CONTINUOUS
 62
       7
100
AcDbLine
 10
-137.65551552
 20
45.23980183
 30
0.0
 11
-137.67473611
 21
45.17574464
 31
0.0
  0
LINE
  5
152
100
AcDbEntity
  8
LAYER0003
  6
CONTINUOUS
 62
       7
100
AcDbLine
 10
-137.67473611
 20
45.17574464
 30
0.0
 11
-137.6964443
 21
45.11272086
 31
0.0
  0
LINE
  5
153
100
AcDbEntity
  8
LAYER0003
  6
CONTINUOUS
 62
       7
100
AcDbLine
 10
-137.6964443
 20
45.11272086
 30
0.0
 11
-137.72051656
 21
45.05082989
 31
0.0
  0
LINE
  5
154
100
AcDbEntity
  8
LAYER0003
  6
CONTINUOUS
 62
       7
100
AcDbLine
 10
-137.72051656
 20
45.05082989
 30
0.0
 11
-137.74682938
 21
44.99017114
 31
0.0
  0
LINE
  5
155
100
AcDbEntity
  8
LAYER0003
  6
CONTINUOUS
 62
       7
100
AcDbLine
 10
-137.74682938
 20
44.99017114
 30
0.0
 11
-137.77525922
 21
44.93084401
 31
0.0
  0
LINE
  5
156
100
AcDbEntity
  8
LAYER0003
  6
CONTINUOUS
 62
       7
100
AcDbLine
 10
-137.77525922
 20
44.93084401
 30
0.0
 11
-137.80568258
 21
44.87294792
 31
0.0
  0
LINE
  5
157
100
AcDbEntity
  8
LAYER0003
  6
CONTINUOUS
 62
       7
100
AcDbLine
 10
-137.80568258
 20
44.87294792
 30
0.0
 11
-137.83797594
 21
44.81658227
 31
0.0
  0
LINE
  5
158
100
AcDbEntity
  8
LAYER0003
  6
CONTINUOUS
 62
       7
100
AcDbLine
 10
-137.83797594
 20
44.81658227
 30
0.0
 11
-137.87201576
 21
44.76184647
 31
0.0
  0
LINE
  5
159
100
AcDbEntity
  8
LAYER0003
  6
CONTINUOUS
 62
       7
100
AcDbLine
 10
-137.87201576
 20
44.76184647
 30
0.0
 11
-137.90768695
 21
44.70883501
 31
0.0
  0
LINE
  5
15A
100
AcDbEntity
  8
LAYER0003
  6
CONTINUOUS
 62
       7
100
AcDbLine
 10
-137.90768695
 20
44.70883501
 30
0.0
 11
-137.94493073
 21
44.65760959
 31
0.0
  0
LINE
  5
15B
100
AcDbEntity
  8
LAYER0003
  6
CONTINUOUS
 62
       7
100
AcDbLine
 10
-137.94493073
 20
44.65760959
 30
0.0
 11
-137.9837115
 21
44.60821837
 31
0.0
  0
LINE
  5
15C
100
AcDbEntity
  8
LAYER0003
  6
CONTINUOUS
 62
       7
100
AcDbLine
 10
-137.9837115
 20
44.60821837
 30
0.0
 11
-138.02399371
 21
44.5607095
 31
0.0
  0
LINE
  5
15D
100
AcDbEntity
  8
LAYER0003
  6
CONTINUOUS
 62
       7
100
AcDbLine
 10
-138.02399371
 20
44.5607095
 30
0.0
 11
-138.06574182
 21
44.51513111
 31
0.0
  0
LINE
  5
15E
100
AcDbEntity
  8
LAYER0003
  6
CONTINUOUS
 62
       7
100
AcDbLine
 10
-138.06574182
 20
44.51513111
 30
0.0
 11
-138.10892028
 21
44.47153136
 31
0.0
  0
LINE
  5
15F
100
AcDbEntity
  8
LAYER0003
  6
CONTINUOUS
 62
       7
100
AcDbLine
 10
-138.10892028
 20
44.47153136
 30
0.0
 11
-138.15349356
 21
44.42995838
 31
0.0
  0
LINE
  5
160
100
AcDbEntity
  8
LAYER0003
  6
CONTINUOUS
 62
       7
100
AcDbLine
 10
-138.15349356
 20
44.42995838
 30
0.0
 11
-138.1994261
 21
44.3904603
 31
0.0
  0
LINE
  5
161
100
AcDbEntity
  8
LAYER0003
  6
CONTINUOUS
 62
       7
100
AcDbLine
 10
-138.1994261
 20
44.3904603
 30
0.0
 11
-138.24668224
 21
44.35308548
 31
0.0
  0
LINE
  5
162
100
AcDbEntity
  8
LAYER0003
  6
CONTINUOUS
 62
       7
100
AcDbLine
 10
-138.24668224
 20
44.35308548
 30
0.0
 11
-138.29521025
 21
44.31790655
 31
0.0
  0
LINE
  5
163
100
AcDbEntity
  8
LAYER0003
  6
CONTINUOUS
 62
       7
100
AcDbLine
 10
-138.29521025
 20
44.31790655
 30
0.0
 11
-138.34492695
 21
44.28504373
 31
0.0
  0
LINE
  5
164
100
AcDbEntity
  8
LAYER0003
  6
CONTINUOUS
 62
       7
100
AcDbLine
 10
-138.34492695
 20
44.28504373
 30
0.0
 11
-138.39574556
 21
44.25462271
 31
0.0
  0
LINE
  5
165
100
AcDbEntity
  8
LAYER0003
  6
CONTINUOUS
 62
       7
100
AcDbLine
 10
-138.39574556
 20
44.25462271
 30
0.0
 11
-138.44757928
 21
44.22676921
 31
0.0
  0
LINE
  5
166
100
AcDbEntity
  8
LAYER0003
  6
CONTINUOUS
 62
       7
100
AcDbLine
 10
-138.44757928
 20
44.22676921
 30
0.0
 11
-138.50034131
 21
44.20160894
 31
0.0
  0
LINE
  5
167
100
AcDbEntity
  8
LAYER0003
  6
CONTINUOUS
 62
       7
100
AcDbLine
 10
-138.50034131
 20
44.20160894
 30
0.0
 11
-138.55394487
 21
44.1792676
 31
0.0
  0
LINE
  5
168
100
AcDbEntity
  8
LAYER0003
  6
CONTINUOUS
 62
       7
100
AcDbLine
 10
-138.55394487
 20
44.1792676
 30
0.0
 11
-138.60830315
 21
44.15987089
 31
0.0
  0
LINE
  5
169
100
AcDbEntity
  8
LAYER0003
  6
CONTINUOUS
 62
       7
100
AcDbLine
 10
-138.60830315
 20
44.15987089
 30
0.0
 11
-138.66332935
 21
44.14354453
 31
0.0
  0
LINE
  5
16A
100
AcDbEntity
  8
LAYER0003
  6
CONTINUOUS
 62
       7
100
AcDbLine
 10
-138.66332935
 20
44.14354453
 30
0.0
 11
-138.71893616
 21
44.13037941
 31
0.0
  0
LINE
  5
16B
100
AcDbEntity
  8
LAYER0003
  6
CONTINUOUS
 62
       7
100
AcDbLine
 10
-138.71893616
 20
44.13037941
 30
0.0
 11
-138.77503011
 21
44.12006549
 31
0.0
  0
LINE
  5
16C
100
AcDbEntity
  8
LAYER0003
  6
CONTINUOUS
 62
       7
100
AcDbLine
 10
-138.77503011
 20
44.12006549
 30
0.0
 11
-138.83151384
 21
44.11203588
 31
0.0
  0
LINE
  5
16D
100
AcDbEntity
  8
LAYER0003
  6
CONTINUOUS
 62
       7
100
AcDbLine
 10
-138.83151384
 20
44.11203588
 30
0.0
 11
-138.88828989
 21
44.10571951
 31
0.0
  0
LINE
  5
16E
100
AcDbEntity
  8
LAYER0003
  6
CONTINUOUS
 62
       7
100
AcDbLine
 10
-138.88828989
 20
44.10571951
 30
0.0
 11
-138.94526082
 21
44.1005453
 31
0.0
  0
LINE
  5
16F
100
AcDbEntity
  8
LAYER0003
  6
CONTINUOUS
 62
       7
100
AcDbLine
 10
-138.94526082
 20
44.1005453
 30
0.0
 11
-139.0023292
 21
44.09594217
 31
0.0
  0
LINE
  5
170
100
AcDbEntity
  8
LAYER0003
  6
CONTINUOUS
 62
       7
100
AcDbLine
 10
-142.91389612
 20
-91.75406268
 30
0.0
 11
-142.8684909
 21
-91.75834653
 31
0.0
  0
LINE
  5
171
100
AcDbEntity
  8
LAYER0003
  6
CONTINUOUS
 62
       7
100
AcDbLine
 10
-142.8684909
 20
-91.75834653
 30
0.0
 11
-142.82311389
 21
-91.76273458
 31
0.0
  0
LINE
  5
172
100
AcDbEntity
  8
LAYER0003
  6
CONTINUOUS
 62
       7
100
AcDbLine
 10
-142.82311389
 20
-91.76273458
 30
0.0
 11
-142.77779331
 21
-91.76733101
 31
0.0
  0
LINE
  5
173
100
AcDbEntity
  8
LAYER0003
  6
CONTINUOUS
 62
       7
100
AcDbLine
 10
-142.77779331
 20
-91.76733101
 30
0.0
 11
-142.73255736
 21
-91.77224002
 31
0.0
  0
LINE
  5
174
100
AcDbEntity
  8
LAYER0003
  6
CONTINUOUS
 62
       7
100
AcDbLine
 10
-142.73255736
 20
-91.77224002
 30
0.0
 11
-142.68743426
 21
-91.77756581
 31
0.0
  0
LINE
  5
175
100
AcDbEntity
  8
LAYER0003
  6
CONTINUOUS
 62
       7
100
AcDbLine
 10
-142.68743426
 20
-91.77756581
 30
0.0
 11
-142.64245221
 21
-91.78341257
 31
0.0
  0
LINE
  5
176
100
AcDbEntity
  8
LAYER0003
  6
CONTINUOUS
 62
       7
100
AcDbLine
 10
-142.64245221
 20
-91.78341257
 30
0.0
 11
-142.59763944
 21
-91.78988449
 31
0.0
  0
LINE
  5
177
100
AcDbEntity
  8
LAYER0003
  6
CONTINUOUS
 62
       7
100
AcDbLine
 10
-142.59763944
 20
-91.78988449
 30
0.0
 11
-142.55302416
 21
-91.79708577
 31
0.0
  0
LINE
  5
178
100
AcDbEntity
  8
LAYER0003
  6
CONTINUOUS
 62
       7
100
AcDbLine
 10
-142.55302416
 20
-91.79708577
 30
0.0
 11
-142.50863457
 21
-91.8051206
 31
0.0
  0
LINE
  5
179
100
AcDbEntity
  8
LAYER0003
  6
CONTINUOUS
 62
       7
100
AcDbLine
 10
-142.50863457
 20
-91.8051206
 30
0.0
 11
-142.46449888
 21
-91.81409318
 31
0.0
  0
LINE
  5
17A
100
AcDbEntity
  8
LAYER0003
  6
CONTINUOUS
 62
       7
100
AcDbLine
 10
-142.46449888
 20
-91.81409318
 30
0.0
 11
-142.42064532
 21
-91.8241077
 31
0.0
  0
LINE
  5
17B
100
AcDbEntity
  8
LAYER0003
  6
CONTINUOUS
 62
       7
100
AcDbLine
 10
-142.42064532
 20
-91.8241077
 30
0.0
 11
-142.37710208
 21
-91.83526835
 31
0.0
  0
LINE
  5
17C
100
AcDbEntity
  8
LAYER0003
  6
CONTINUOUS
 62
       7
100
AcDbLine
 10
-142.37710208
 20
-91.83526835
 30
0.0
 11
-142.33389739
 21
-91.84767932
 31
0.0
  0
LINE
  5
17D
100
AcDbEntity
  8
LAYER0003
  6
CONTINUOUS
 62
       7
100
AcDbLine
 10
-142.33389739
 20
-91.84767932
 30
0.0
 11
-142.29105946
 21
-91.86144482
 31
0.0
  0
LINE
  5
17E
100
AcDbEntity
  8
LAYER0003
  6
CONTINUOUS
 62
       7
100
AcDbLine
 10
-142.29105946
 20
-91.86144482
 30
0.0
 11
-142.24861649
 21
-91.87666903
 31
0.0
  0
LINE
  5
17F
100
AcDbEntity
  8
LAYER0003
  6
CONTINUOUS
 62
       7
100
AcDbLine
 10
-142.24861649
 20
-91.87666903
 30
0.0
 11
-142.20659803
 21
-91.89345264
 31
0.0
  0
LINE
  5
180
100
AcDbEntity
  8
LAYER0003
  6
CONTINUOUS
 62
       7
100
AcDbLine
 10
-142.20659803
 20
-91.89345264
 30
0.0
 11
-142.16505658
 21
-91.91183603
 31
0.0
  0
LINE
  5
181
100
AcDbEntity
  8
LAYER0003
  6
CONTINUOUS
 62
       7
100
AcDbLine
 10
-142.16505658
 20
-91.91183603
 30
0.0
 11
-142.12406388
 21
-91.93180893
 31
0.0
  0
LINE
  5
182
100
AcDbEntity
  8
LAYER0003
  6
CONTINUOUS
 62
       7
100
AcDbLine
 10
-142.12406388
 20
-91.93180893
 30
0.0
 11
-142.0836923
 21
-91.95335946
 31
0.0
  0
LINE
  5
183
100
AcDbEntity
  8
LAYER0003
  6
CONTINUOUS
 62
       7
100
AcDbLine
 10
-142.0836923
 20
-91.95335946
 30
0.0
 11
-142.0440142
 21
-91.97647576
 31
0.0
  0
LINE
  5
184
100
AcDbEntity
  8
LAYER0003
  6
CONTINUOUS
 62
       7
100
AcDbLine
 10
-142.0440142
 20
-91.97647576
 30
0.0
 11
-142.00510195
 21
-92.00114597
 31
0.0
  0
LINE
  5
185
100
AcDbEntity
  8
LAYER0003
  6
CONTINUOUS
 62
       7
100
AcDbLine
 10
-142.00510195
 20
-92.00114597
 30
0.0
 11
-141.96702789
 21
-92.02735822
 31
0.0
  0
LINE
  5
186
100
AcDbEntity
  8
LAYER0003
  6
CONTINUOUS
 62
       7
100
AcDbLine
 10
-141.96702789
 20
-92.02735822
 30
0.0
 11
-141.9298644
 21
-92.05510065
 31
0.0
  0
LINE
  5
187
100
AcDbEntity
  8
LAYER0003
  6
CONTINUOUS
 62
       7
100
AcDbLine
 10
-141.9298644
 20
-92.05510065
 30
0.0
 11
-141.89368383
 21
-92.0843614
 31
0.0
  0
LINE
  5
188
100
AcDbEntity
  8
LAYER0003
  6
CONTINUOUS
 62
       7
100
AcDbLine
 10
-141.89368383
 20
-92.0843614
 30
0.0
 11
-141.85856237
 21
-92.11513212
 31
0.0
  0
LINE
  5
189
100
AcDbEntity
  8
LAYER0003
  6
CONTINUOUS
 62
       7
100
AcDbLine
 10
-141.85856237
 20
-92.11513212
 30
0.0
 11
-141.82460378
 21
-92.14742979
 31
0.0
  0
LINE
  5
18A
100
AcDbEntity
  8
LAYER0003
  6
CONTINUOUS
 62
       7
100
AcDbLine
 10
-141.82460378
 20
-92.14742979
 30
0.0
 11
-141.79192392
 21
-92.18128253
 31
0.0
  0
LINE
  5
18B
100
AcDbEntity
  8
LAYER0003
  6
CONTINUOUS
 62
       7
100
AcDbLine
 10
-141.79192392
 20
-92.18128253
 30
0.0
 11
-141.76063869
 21
-92.21671849
 31
0.0
  0
LINE
  5
18C
100
AcDbEntity
  8
LAYER0003
  6
CONTINUOUS
 62
       7
100
AcDbLine
 10
-141.76063869
 20
-92.21671849
 30
0.0
 11
-141.73086399
 21
-92.25376581
 31
0.0
  0
LINE
  5
18D
100
AcDbEntity
  8
LAYER0003
  6
CONTINUOUS
 62
       7
100
AcDbLine
 10
-141.73086399
 20
-92.25376581
 30
0.0
 11
-141.70271574
 21
-92.29245266
 31
0.0
  0
LINE
  5
18E
100
AcDbEntity
  8
LAYER0003
  6
CONTINUOUS
 62
       7
100
AcDbLine
 10
-141.70271574
 20
-92.29245266
 30
0.0
 11
-141.67630986
 21
-92.33280718
 31
0.0
  0
LINE
  5
18F
100
AcDbEntity
  8
LAYER0003
  6
CONTINUOUS
 62
       7
100
AcDbLine
 10
-141.67630986
 20
-92.33280718
 30
0.0
 11
-141.65181316
 21
-92.37482402
 31
0.0
  0
LINE
  5
190
100
AcDbEntity
  8
LAYER0003
  6
CONTINUOUS
 62
       7
100
AcDbLine
 10
-141.65181316
 20
-92.37482402
 30
0.0
 11
-141.6295585
 21
-92.41838867
 31
0.0
  0
LINE
  5
191
100
AcDbEntity
  8
LAYER0003
  6
CONTINUOUS
 62
       7
100
AcDbLine
 10
-141.6295585
 20
-92.41838867
 30
0.0
 11
-141.60991255
 21
-92.46336435
 31
0.0
  0
LINE
  5
192
100
AcDbEntity
  8
LAYER0003
  6
CONTINUOUS
 62
       7
100
AcDbLine
 10
-141.60991255
 20
-92.46336435
 30
0.0
 11
-141.59324195
 21
-92.50961432
 31
0.0
  0
LINE
  5
193
100
AcDbEntity
  8
LAYER0003
  6
CONTINUOUS
 62
       7
100
AcDbLine
 10
-141.59324195
 20
-92.50961432
 30
0.0
 11
-141.57991338
 21
-92.55700182
 31
0.0
  0
LINE
  5
194
100
AcDbEntity
  8
LAYER0003
  6
CONTINUOUS
 62
       7
100
AcDbLine
 10
-141.57991338
 20
-92.55700182
 30
0.0
 11
-141.57014803
 21
-92.60537734
 31
0.0
  0
LINE
  5
195
100
AcDbEntity
  8
LAYER0003
  6
CONTINUOUS
 62
       7
100
AcDbLine
 10
-141.57014803
 20
-92.60537734
 30
0.0
 11
-141.56329698
 21
-92.65451507
 31
0.0
  0
LINE
  5
196
100
AcDbEntity
  8
LAYER0003
  6
CONTINUOUS
 62
       7
100
AcDbLine
 10
-141.56329698
 20
-92.65451507
 30
0.0
 11
-141.55838916
 21
-92.70416098
 31
0.0
  0
LINE
  5
197
100
AcDbEntity
  8
LAYER0003
  6
CONTINUOUS
 62
       7
100
AcDbLine
 10
-141.55838916
 20
-92.70416098
 30
0.0
 11
-141.55445294
 21
-92.75406098
 31
0.0
  0
LINE
  5
198
100
AcDbEntity
  8
LAYER0003
  6
CONTINUOUS
 62
       7
100
AcDbLine
 10
-169.46218209
 20
-92.75406098
 30
0.0
 11
-169.45698073
 21
-92.70403595
 31
0.0
  0
LINE
  5
199
100
AcDbEntity
  8
LAYER0003
  6
CONTINUOUS
 62
       7
100
AcDbLine
 10
-169.45698073
 20
-92.70403595
 30
0.0
 11
-169.45107181
 21
-92.65426063
 31
0.0
  0
LINE
  5
19A
100
AcDbEntity
  8
LAYER0003
  6
CONTINUOUS
 62
       7
100
AcDbLine
 10
-169.45107181
 20
-92.65426063
 30
0.0
 11
-169.44374777
 21
-92.60498475
 31
0.0
  0
LINE
  5
19B
100
AcDbEntity
  8
LAYER0003
  6
CONTINUOUS
 62
       7
100
AcDbLine
 10
-169.44374777
 20
-92.60498475
 30
0.0
 11
-169.43430106
 21
-92.55645802
 31
0.0
  0
LINE
  5
19C
100
AcDbEntity
  8
LAYER0003
  6
CONTINUOUS
 62
       7
100
AcDbLine
 10
-169.43430106
 20
-92.55645802
 30
0.0
 11
-169.4220241
 21
-92.50893018
 31
0.0
  0
LINE
  5
19D
100
AcDbEntity
  8
LAYER0003
  6
CONTINUOUS
 62
       7
100
AcDbLine
 10
-169.4220241
 20
-92.50893018
 30
0.0
 11
-169.40630561
 21
-92.46263614
 31
0.0
  0
LINE
  5
19E
100
AcDbEntity
  8
LAYER0003
  6
CONTINUOUS
 62
       7
100
AcDbLine
 10
-169.40630561
 20
-92.46263614
 30
0.0
 11
-169.38723629
 21
-92.417703
 31
0.0
  0
LINE
  5
19F
100
AcDbEntity
  8
LAYER0003
  6
CONTINUOUS
 62
       7
100
AcDbLine
 10
-169.38723629
 20
-92.417703
 30
0.0
 11
-169.36521772
 21
-92.3742101
 31
0.0
  0
LINE
  5
1A0
100
AcDbEntity
  8
LAYER0003
  6
CONTINUOUS
 62
       7
100
AcDbLine
 10
-169.36521772
 20
-92.3742101
 30
0.0
 11
-169.34065292
 21
-92.33223654
 31
0.0
  0
LINE
  5
1A1
100
AcDbEntity
  8
LAYER0003
  6
CONTINUOUS
 62
       7
100
AcDbLine
 10
-169.34065292
 20
-92.33223654
 30
0.0
 11
-169.31394487
 21
-92.29186145
 31
0.0
  0
LINE
  5
1A2
100
AcDbEntity
  8
LAYER0003
  6
CONTINUOUS
 62
       7
100
AcDbLine
 10
-169.31394487
 20
-92.29186145
 30
0.0
 11
-169.28548348
 21
-92.25315905
 31
0.0
  0
LINE
  5
1A3
100
AcDbEntity
  8
LAYER0003
  6
CONTINUOUS
 62
       7
100
AcDbLine
 10
-169.28548348
 20
-92.25315905
 30
0.0
 11
-169.25548733
 21
-92.21613962
 31
0.0
  0
LINE
  5
1A4
100
AcDbEntity
  8
LAYER0003
  6
CONTINUOUS
 62
       7
100
AcDbLine
 10
-169.25548733
 20
-92.21613962
 30
0.0
 11
-169.22405465
 21
-92.18076847
 31
0.0
  0
LINE
  5
1A5
100
AcDbEntity
  8
LAYER0003
  6
CONTINUOUS
 62
       7
100
AcDbLine
 10
-169.22405465
 20
-92.18076847
 30
0.0
 11
-169.19128115
 21
-92.14701
 31
0.0
  0
LINE
  5
1A6
100
AcDbEntity
  8
LAYER0003
  6
CONTINUOUS
 62
       7
100
AcDbLine
 10
-169.19128115
 20
-92.14701
 30
0.0
 11
-169.15726259
 21
-92.11482861
 31
0.0
  0
LINE
  5
1A7
100
AcDbEntity
  8
LAYER0003
  6
CONTINUOUS
 62
       7
100
AcDbLine
 10
-169.15726259
 20
-92.11482861
 30
0.0
 11
-169.12209467
 21
-92.0841887
 31
0.0
  0
LINE
  5
1A8
100
AcDbEntity
  8
LAYER0003
  6
CONTINUOUS
 62
       7
100
AcDbLine
 10
-169.12209467
 20
-92.0841887
 30
0.0
 11
-169.08587314
 21
-92.05505465
 31
0.0
  0
LINE
  5
1A9
100
AcDbEntity
  8
LAYER0003
  6
CONTINUOUS
 62
       7
100
AcDbLine
 10
-169.08587314
 20
-92.05505465
 30
0.0
 11
-169.04869367
 21
-92.02739094
 31
0.0
  0
LINE
  5
1AA
100
AcDbEntity
  8
LAYER0003
  6
CONTINUOUS
 62
       7
100
AcDbLine
 10
-169.04869367
 20
-92.02739094
 30
0.0
 11
-169.01064059
 21
-92.00117262
 31
0.0
  0
LINE
  5
1AB
100
AcDbEntity
  8
LAYER0003
  6
CONTINUOUS
 62
       7
100
AcDbLine
 10
-169.01064059
 20
-92.00117262
 30
0.0
 11
-168.97177379
 21
-91.97639774
 31
0.0
  0
LINE
  5
1AC
100
AcDbEntity
  8
LAYER0003
  6
CONTINUOUS
 62
       7
100
AcDbLine
 10
-168.97177379
 20
-91.97639774
 30
0.0
 11
-168.93214994
 21
-91.95306731
 31
0.0
  0
LINE
  5
1AD
100
AcDbEntity
  8
LAYER0003
  6
CONTINUOUS
 62
       7
100
AcDbLine
 10
-168.93214994
 20
-91.95306731
 30
0.0
 11
-168.89182574
 21
-91.93118237
 31
0.0
  0
LINE
  5
1AE
100
AcDbEntity
  8
LAYER0003
  6
CONTINUOUS
 62
       7
100
AcDbLine
 10
-168.89182574
 20
-91.93118237
 30
0.0
 11
-168.85085785
 21
-91.91074393
 31
0.0
  0
LINE
  5
1AF
100
AcDbEntity
  8
LAYER0003
  6
CONTINUOUS
 62
       7
100
AcDbLine
 10
-168.85085785
 20
-91.91074393
 30
0.0
 11
-168.80930298
 21
-91.89175303
 31
0.0
  0
LINE
  5
1B0
100
AcDbEntity
  8
LAYER0003
  6
CONTINUOUS
 62
       7
100
AcDbLine
 10
-168.80930298
 20
-91.89175303
 30
0.0
 11
-168.76721779
 21
-91.87421069
 31
0.0
  0
LINE
  5
1B1
100
AcDbEntity
  8
LAYER0003
  6
CONTINUOUS
 62
       7
100
AcDbLine
 10
-168.76721779
 20
-91.87421069
 30
0.0
 11
-168.72465896
 21
-91.85811794
 31
0.0
  0
LINE
  5
1B2
100
AcDbEntity
  8
LAYER0003
  6
CONTINUOUS
 62
       7
100
AcDbLine
 10
-168.72465896
 20
-91.85811794
 30
0.0
 11
-168.6816832
 21
-91.84347581
 31
0.0
  0
LINE
  5
1B3
100
AcDbEntity
  8
LAYER0003
  6
CONTINUOUS
 62
       7
100
AcDbLine
 10
-168.6816832
 20
-91.84347581
 30
0.0
 11
-168.63834716
 21
-91.83028531
 31
0.0
  0
LINE
  5
1B4
100
AcDbEntity
  8
LAYER0003
  6
CONTINUOUS
 62
       7
100
AcDbLine
 10
-168.63834716
 20
-91.83028531
 30
0.0
 11
-168.59470728
 21
-91.81854643
 31
0.0
  0
LINE
  5
1B5
100
AcDbEntity
  8
LAYER0003
  6
CONTINUOUS
 62
       7
100
AcDbLine
 10
-168.59470728
 20
-91.81854643
 30
0.0
 11
-168.55080698
 21
-91.80820868
 31
0.0
  0
LINE
  5
1B6
100
AcDbEntity
  8
LAYER0003
  6
CONTINUOUS
 62
       7
100
AcDbLine
 10
-168.55080698
 20
-91.80820868
 30
0.0
 11
-168.50667122
 21
-91.79914966
 31
0.0
  0
LINE
  5
1B7
100
AcDbEntity
  8
LAYER0003
  6
CONTINUOUS
 62
       7
100
AcDbLine
 10
-168.50667122
 20
-91.79914966
 30
0.0
 11
-168.46232355
 21
-91.79124151
 31
0.0
  0
LINE
  5
1B8
100
AcDbEntity
  8
LAYER0003
  6
CONTINUOUS
 62
       7
100
AcDbLine
 10
-168.46232355
 20
-91.79124151
 30
0.0
 11
-168.41778752
 21
-91.78435636
 31
0.0
  0
LINE
  5
1B9
100
AcDbEntity
  8
LAYER0003
  6
CONTINUOUS
 62
       7
100
AcDbLine
 10
-168.41778752
 20
-91.78435636
 30
0.0
 11
-168.37308667
 21
-91.77836633
 31
0.0
  0
LINE
  5
1BA
100
AcDbEntity
  8
LAYER0003
  6
CONTINUOUS
 62
       7
100
AcDbLine
 10
-168.37308667
 20
-91.77836633
 30
0.0
 11
-168.32824454
 21
-91.77314354
 31
0.0
  0
LINE
  5
1BB
100
AcDbEntity
  8
LAYER0003
  6
CONTINUOUS
 62
       7
100
AcDbLine
 10
-168.32824454
 20
-91.77314354
 30
0.0
 11
-168.28328469
 21
-91.76856012
 31
0.0
  0
LINE
  5
1BC
100
AcDbEntity
  8
LAYER0003
  6
CONTINUOUS
 62
       7
100
AcDbLine
 10
-168.28328469
 20
-91.76856012
 30
0.0
 11
-168.23823065
 21
-91.7644882
 31
0.0
  0
LINE
  5
1BD
100
AcDbEntity
  8
LAYER0003
  6
CONTINUOUS
 62
       7
100
AcDbLine
 10
-168.23823065
 20
-91.7644882
 30
0.0
 11
-168.19310598
 21
-91.76079991
 31
0.0
  0
LINE
  5
1BE
100
AcDbEntity
  8
LAYER0003
  6
CONTINUOUS
 62
       7
100
AcDbLine
 10
-168.19310598
 20
-91.76079991
 30
0.0
 11
-168.14793422
 21
-91.75736736
 31
0.0
  0
LINE
  5
1BF
100
AcDbEntity
  8
LAYER0003
  6
CONTINUOUS
 62
       7
100
AcDbLine
 10
-168.14793422
 20
-91.75736736
 30
0.0
 11
-168.10273891
 21
-91.75406268
 31
0.0
  0
LINE
  5
1C0
100
AcDbEntity
  8
LAYER0003
  6
CONTINUOUS
 62
       7
100
AcDbLine
 10
-168.10273891
 20
-100.25406221
 30
0.0
 11
-168.14814412
 21
-100.24977822
 31
0.0
  0
LINE
  5
1C1
100
AcDbEntity
  8
LAYER0003
  6
CONTINUOUS
 62
       7
100
AcDbLine
 10
-168.14814412
 20
-100.24977822
 30
0.0
 11
-168.19352113
 21
-100.24539002
 31
0.0
  0
LINE
  5
1C2
100
AcDbEntity
  8
LAYER0003
  6
CONTINUOUS
 62
       7
100
AcDbLine
 10
-168.19352113
 20
-100.24539002
 30
0.0
 11
-168.23884171
 21
-100.24079345
 31
0.0
  0
LINE
  5
1C3
100
AcDbEntity
  8
LAYER0003
  6
CONTINUOUS
 62
       7
100
AcDbLine
 10
-168.23884171
 20
-100.24079345
 30
0.0
 11
-168.28407765
 21
-100.23588429
 31
0.0
  0
LINE
  5
1C4
100
AcDbEntity
  8
LAYER0003
  6
CONTINUOUS
 62
       7
100
AcDbLine
 10
-168.28407765
 20
-100.23588429
 30
0.0
 11
-168.32920075
 21
-100.23055836
 31
0.0
  0
LINE
  5
1C5
100
AcDbEntity
  8
LAYER0003
  6
CONTINUOUS
 62
       7
100
AcDbLine
 10
-168.32920075
 20
-100.23055836
 30
0.0
 11
-168.37418279
 21
-100.22471146
 31
0.0
  0
LINE
  5
1C6
100
AcDbEntity
  8
LAYER0003
  6
CONTINUOUS
 62
       7
100
AcDbLine
 10
-168.37418279
 20
-100.22471146
 30
0.0
 11
-168.41899555
 21
-100.21823941
 31
0.0
  0
LINE
  5
1C7
100
AcDbEntity
  8
LAYER0003
  6
CONTINUOUS
 62
       7
100
AcDbLine
 10
-168.41899555
 20
-100.21823941
 30
0.0
 11
-168.46361083
 21
-100.211038
 31
0.0
  0
LINE
  5
1C8
100
AcDbEntity
  8
LAYER0003
  6
CONTINUOUS
 62
       7
100
AcDbLine
 10
-168.46361083
 20
-100.211038
 30
0.0
 11
-168.50800042
 21
-100.20300305
 31
0.0
  0
LINE
  5
1C9
100
AcDbEntity
  8
LAYER0003
  6
CONTINUOUS
 62
       7
100
AcDbLine
 10
-168.50800042
 20
-100.20300305
 30
0.0
 11
-168.55213609
 21
-100.19403036
 31
0.0
  0
LINE
  5
1CA
100
AcDbEntity
  8
LAYER0003
  6
CONTINUOUS
 62
       7
100
AcDbLine
 10
-168.55213609
 20
-100.19403036
 30
0.0
 11
-168.59598965
 21
-100.18401574
 31
0.0
  0
LINE
  5
1CB
100
AcDbEntity
  8
LAYER0003
  6
CONTINUOUS
 62
       7
100
AcDbLine
 10
-168.59598965
 20
-100.18401574
 30
0.0
 11
-168.63953287
 21
-100.17285499
 31
0.0
  0
LINE
  5
1CC
100
AcDbEntity
  8
LAYER0003
  6
CONTINUOUS
 62
       7
100
AcDbLine
 10
-168.63953287
 20
-100.17285499
 30
0.0
 11
-168.68273756
 21
-100.16044393
 31
0.0
  0
LINE
  5
1CD
100
AcDbEntity
  8
LAYER0003
  6
CONTINUOUS
 62
       7
100
AcDbLine
 10
-168.68273756
 20
-100.16044393
 30
0.0
 11
-168.72557548
 21
-100.14667835
 31
0.0
  0
LINE
  5
1CE
100
AcDbEntity
  8
LAYER0003
  6
CONTINUOUS
 62
       7
100
AcDbLine
 10
-168.72557548
 20
-100.14667835
 30
0.0
 11
-168.76801844
 21
-100.13145407
 31
0.0
  0
LINE
  5
1CF
100
AcDbEntity
  8
LAYER0003
  6
CONTINUOUS
 62
       7
100
AcDbLine
 10
-168.76801844
 20
-100.13145407
 30
0.0
 11
-168.81003688
 21
-100.1146704
 31
0.0
  0
LINE
  5
1D0
100
AcDbEntity
  8
LAYER0003
  6
CONTINUOUS
 62
       7
100
AcDbLine
 10
-168.81003688
 20
-100.1146704
 30
0.0
 11
-168.85157832
 21
-100.09628696
 31
0.0
  0
LINE
  5
1D1
100
AcDbEntity
  8
LAYER0003
  6
CONTINUOUS
 62
       7
100
AcDbLine
 10
-168.85157832
 20
-100.09628696
 30
0.0
 11
-168.892571
 21
-100.07631404
 31
0.0
  0
LINE
  5
1D2
100
AcDbEntity
  8
LAYER0003
  6
CONTINUOUS
 62
       7
100
AcDbLine
 10
-168.892571
 20
-100.07631404
 30
0.0
 11
-168.93294258
 21
-100.05476349
 31
0.0
  0
LINE
  5
1D3
100
AcDbEntity
  8
LAYER0003
  6
CONTINUOUS
 62
       7
100
AcDbLine
 10
-168.93294258
 20
-100.05476349
 30
0.0
 11
-168.97262067
 21
-100.03164718
 31
0.0
  0
LINE
  5
1D4
100
AcDbEntity
  8
LAYER0003
  6
CONTINUOUS
 62
       7
100
AcDbLine
 10
-168.97262067
 20
-100.03164718
 30
0.0
 11
-169.01153294
 21
-100.00697697
 31
0.0
  0
LINE
  5
1D5
100
AcDbEntity
  8
LAYER0003
  6
CONTINUOUS
 62
       7
100
AcDbLine
 10
-169.01153294
 20
-100.00697697
 30
0.0
 11
-169.04960702
 21
-99.98076474
 31
0.0
  0
LINE
  5
1D6
100
AcDbEntity
  8
LAYER0003
  6
CONTINUOUS
 62
       7
100
AcDbLine
 10
-169.04960702
 20
-99.98076474
 30
0.0
 11
-169.08677055
 21
-99.95302234
 31
0.0
  0
LINE
  5
1D7
100
AcDbEntity
  8
LAYER0003
  6
CONTINUOUS
 62
       7
100
AcDbLine
 10
-169.08677055
 20
-99.95302234
 30
0.0
 11
-169.12295117
 21
-99.92376163
 31
0.0
  0
LINE
  5
1D8
100
AcDbEntity
  8
LAYER0003
  6
CONTINUOUS
 62
       7
100
AcDbLine
 10
-169.12295117
 20
-99.92376163
 30
0.0
 11
-169.1580727
 21
-99.89299098
 31
0.0
  0
LINE
  5
1D9
100
AcDbEntity
  8
LAYER0003
  6
CONTINUOUS
 62
       7
100
AcDbLine
 10
-169.1580727
 20
-99.89299098
 30
0.0
 11
-169.19203137
 21
-99.86069337
 31
0.0
  0
LINE
  5
1DA
100
AcDbEntity
  8
LAYER0003
  6
CONTINUOUS
 62
       7
100
AcDbLine
 10
-169.19203137
 20
-99.86069337
 30
0.0
 11
-169.22471132
 21
-99.8268407
 31
0.0
  0
LINE
  5
1DB
100
AcDbEntity
  8
LAYER0003
  6
CONTINUOUS
 62
       7
100
AcDbLine
 10
-169.22471132
 20
-99.8268407
 30
0.0
 11
-169.25599662
 21
-99.7914048
 31
0.0
  0
LINE
  5
1DC
100
AcDbEntity
  8
LAYER0003
  6
CONTINUOUS
 62
       7
100
AcDbLine
 10
-169.25599662
 20
-99.7914048
 30
0.0
 11
-169.28577138
 21
-99.75435752
 31
0.0
  0
LINE
  5
1DD
100
AcDbEntity
  8
LAYER0003
  6
CONTINUOUS
 62
       7
100
AcDbLine
 10
-169.28577138
 20
-99.75435752
 30
0.0
 11
-169.31391966
 21
-99.7156707
 31
0.0
  0
LINE
  5
1DE
100
AcDbEntity
  8
LAYER0003
  6
CONTINUOUS
 62
       7
100
AcDbLine
 10
-169.31391966
 20
-99.7156707
 30
0.0
 11
-169.34032554
 21
-99.67531619
 31
0.0
  0
LINE
  5
1DF
100
AcDbEntity
  8
LAYER0003
  6
CONTINUOUS
 62
       7
100
AcDbLine
 10
-169.34032554
 20
-99.67531619
 30
0.0
 11
-169.36482219
 21
-99.63329931
 31
0.0
  0
LINE
  5
1E0
100
AcDbEntity
  8
LAYER0003
  6
CONTINUOUS
 62
       7
100
AcDbLine
 10
-169.36482219
 20
-99.63329931
 30
0.0
 11
-169.38707677
 21
-99.58973461
 31
0.0
  0
LINE
  5
1E1
100
AcDbEntity
  8
LAYER0003
  6
CONTINUOUS
 62
       7
100
AcDbLine
 10
-169.38707677
 20
-99.58973461
 30
0.0
 11
-169.40672263
 21
-99.54475885
 31
0.0
  0
LINE
  5
1E2
100
AcDbEntity
  8
LAYER0003
  6
CONTINUOUS
 62
       7
100
AcDbLine
 10
-169.40672263
 20
-99.54475885
 30
0.0
 11
-169.42339313
 21
-99.49850881
 31
0.0
  0
LINE
  5
1E3
100
AcDbEntity
  8
LAYER0003
  6
CONTINUOUS
 62
       7
100
AcDbLine
 10
-169.42339313
 20
-99.49850881
 30
0.0
 11
-169.43672164
 21
-99.45112126
 31
0.0
  0
LINE
  5
1E4
100
AcDbEntity
  8
LAYER0003
  6
CONTINUOUS
 62
       7
100
AcDbLine
 10
-169.43672164
 20
-99.45112126
 30
0.0
 11
-169.44648696
 21
-99.40274571
 31
0.0
  0
LINE
  5
1E5
100
AcDbEntity
  8
LAYER0003
  6
CONTINUOUS
 62
       7
100
AcDbLine
 10
-169.44648696
 20
-99.40274571
 30
0.0
 11
-169.453338
 21
-99.35360796
 31
0.0
  0
LINE
  5
1E6
100
AcDbEntity
  8
LAYER0003
  6
CONTINUOUS
 62
       7
100
AcDbLine
 10
-169.453338
 20
-99.35360796
 30
0.0
 11
-169.45824584
 21
-99.30396205
 31
0.0
  0
LINE
  5
1E7
100
AcDbEntity
  8
LAYER0003
  6
CONTINUOUS
 62
       7
100
AcDbLine
 10
-169.45824584
 20
-99.30396205
 30
0.0
 11
-169.46218209
 21
-99.25406205
 31
0.0
  0
LINE
  5
1E8
100
AcDbEntity
  8
LAYER0003
  6
CONTINUOUS
 62
       7
100
AcDbLine
 10
-141.55445294
 20
-99.25406205
 30
0.0
 11
-141.55965426
 21
-99.30408711
 31
0.0
  0
LINE
  5
1E9
100
AcDbEntity
  8
LAYER0003
  6
CONTINUOUS
 62
       7
100
AcDbLine
 10
-141.55965426
 20
-99.30408711
 30
0.0
 11
-141.56556314
 21
-99.35386244
 31
0.0
  0
LINE
  5
1EA
100
AcDbEntity
  8
LAYER0003
  6
CONTINUOUS
 62
       7
100
AcDbLine
 10
-141.56556314
 20
-99.35386244
 30
0.0
 11
-141.57288713
 21
-99.40313835
 31
0.0
  0
LINE
  5
1EB
100
AcDbEntity
  8
LAYER0003
  6
CONTINUOUS
 62
       7
100
AcDbLine
 10
-141.57288713
 20
-99.40313835
 30
0.0
 11
-141.58233379
 21
-99.4516651
 31
0.0
  0
LINE
  5
1EC
100
AcDbEntity
  8
LAYER0003
  6
CONTINUOUS
 62
       7
100
AcDbLine
 10
-141.58233379
 20
-99.4516651
 30
0.0
 11
-141.59461069
 21
-99.49919298
 31
0.0
  0
LINE
  5
1ED
100
AcDbEntity
  8
LAYER0003
  6
CONTINUOUS
 62
       7
100
AcDbLine
 10
-141.59461069
 20
-99.49919298
 30
0.0
 11
-141.61032911
 21
-99.54548707
 31
0.0
  0
LINE
  5
1EE
100
AcDbEntity
  8
LAYER0003
  6
CONTINUOUS
 62
       7
100
AcDbLine
 10
-141.61032911
 20
-99.54548707
 30
0.0
 11
-141.62939837
 21
-99.59042025
 31
0.0
  0
LINE
  5
1EF
100
AcDbEntity
  8
LAYER0003
  6
CONTINUOUS
 62
       7
100
AcDbLine
 10
-141.62939837
 20
-99.59042025
 30
0.0
 11
-141.65141689
 21
-99.6339132
 31
0.0
  0
LINE
  5
1F0
100
AcDbEntity
  8
LAYER0003
  6
CONTINUOUS
 62
       7
100
AcDbLine
 10
-141.65141689
 20
-99.6339132
 30
0.0
 11
-141.67598167
 21
-99.6758868
 31
0.0
  0
LINE
  5
1F1
100
AcDbEntity
  8
LAYER0003
  6
CONTINUOUS
 62
       7
100
AcDbLine
 10
-141.67598167
 20
-99.6758868
 30
0.0
 11
-141.70268971
 21
-99.71626191
 31
0.0
  0
LINE
  5
1F2
100
AcDbEntity
  8
LAYER0003
  6
CONTINUOUS
 62
       7
100
AcDbLine
 10
-141.70268971
 20
-99.71626191
 30
0.0
 11
-141.73115111
 21
-99.7549643
 31
0.0
  0
LINE
  5
1F3
100
AcDbEntity
  8
LAYER0003
  6
CONTINUOUS
 62
       7
100
AcDbLine
 10
-141.73115111
 20
-99.7549643
 30
0.0
 11
-141.7611473
 21
-99.79198371
 31
0.0
  0
LINE
  5
1F4
100
AcDbEntity
  8
LAYER0003
  6
CONTINUOUS
 62
       7
100
AcDbLine
 10
-141.7611473
 20
-99.79198371
 30
0.0
 11
-141.79258003
 21
-99.82735483
 31
0.0
  0
LINE
  5
1F5
100
AcDbEntity
  8
LAYER0003
  6
CONTINUOUS
 62
       7
100
AcDbLine
 10
-141.79258003
 20
-99.82735483
 30
0.0
 11
-141.82535358
 21
-99.86111324
 31
0.0
  0
LINE
  5
1F6
100
AcDbEntity
  8
LAYER0003
  6
CONTINUOUS
 62
       7
100
AcDbLine
 10
-141.82535358
 20
-99.86111324
 30
0.0
 11
-141.85937222
 21
-99.89329457
 31
0.0
  0
LINE
  5
1F7
100
AcDbEntity
  8
LAYER0003
  6
CONTINUOUS
 62
       7
100
AcDbLine
 10
-141.85937222
 20
-99.89329457
 30
0.0
 11
-141.8945402
 21
-99.92393441
 31
0.0
  0
LINE
  5
1F8
100
AcDbEntity
  8
LAYER0003
  6
CONTINUOUS
 62
       7
100
AcDbLine
 10
-141.8945402
 20
-99.92393441
 30
0.0
 11
-141.93076179
 21
-99.95306839
 31
0.0
  0
LINE
  5
1F9
100
AcDbEntity
  8
LAYER0003
  6
CONTINUOUS
 62
       7
100
AcDbLine
 10
-141.93076179
 20
-99.95306839
 30
0.0
 11
-141.96794132
 21
-99.98073205
 31
0.0
  0
LINE
  5
1FA
100
AcDbEntity
  8
LAYER0003
  6
CONTINUOUS
 62
       7
100
AcDbLine
 10
-141.96794132
 20
-99.98073205
 30
0.0
 11
-142.00599444
 21
-100.00695031
 31
0.0
  0
LINE
  5
1FB
100
AcDbEntity
  8
LAYER0003
  6
CONTINUOUS
 62
       7
100
AcDbLine
 10
-142.00599444
 20
-100.00695031
 30
0.0
 11
-142.04486127
 21
-100.03172515
 31
0.0
  0
LINE
  5
1FC
100
AcDbEntity
  8
LAYER0003
  6
CONTINUOUS
 62
       7
100
AcDbLine
 10
-142.04486127
 20
-100.03172515
 30
0.0
 11
-142.08448514
 21
-100.05505555
 31
0.0
  0
LINE
  5
1FD
100
AcDbEntity
  8
LAYER0003
  6
CONTINUOUS
 62
       7
100
AcDbLine
 10
-142.08448514
 20
-100.05505555
 30
0.0
 11
-142.12480937
 21
-100.07694047
 31
0.0
  0
LINE
  5
1FE
100
AcDbEntity
  8
LAYER0003
  6
CONTINUOUS
 62
       7
100
AcDbLine
 10
-142.12480937
 20
-100.07694047
 30
0.0
 11
-142.16577726
 21
-100.09737889
 31
0.0
  0
LINE
  5
1FF
100
AcDbEntity
  8
LAYER0003
  6
CONTINUOUS
 62
       7
100
AcDbLine
 10
-142.16577726
 20
-100.09737889
 30
0.0
 11
-142.20733214
 21
-100.1163698
 31
0.0
  0
LINE
  5
200
100
AcDbEntity
  8
LAYER0003
  6
CONTINUOUS
 62
       7
100
AcDbLine
 10
-142.20733214
 20
-100.1163698
 30
0.0
 11
-142.24941733
 21
-100.13391215
 31
0.0
  0
LINE
  5
201
100
AcDbEntity
  8
LAYER0003
  6
CONTINUOUS
 62
       7
100
AcDbLine
 10
-142.24941733
 20
-100.13391215
 30
0.0
 11
-142.29197615
 21
-100.15000494
 31
0.0
  0
LINE
  5
202
100
AcDbEntity
  8
LAYER0003
  6
CONTINUOUS
 62
       7
100
AcDbLine
 10
-142.29197615
 20
-100.15000494
 30
0.0
 11
-142.33495191
 21
-100.16464712
 31
0.0
  0
LINE
  5
203
100
AcDbEntity
  8
LAYER0003
  6
CONTINUOUS
 62
       7
100
AcDbLine
 10
-142.33495191
 20
-100.16464712
 30
0.0
 11
-142.37828793
 21
-100.17783769
 31
0.0
  0
LINE
  5
204
100
AcDbEntity
  8
LAYER0003
  6
CONTINUOUS
 62
       7
100
AcDbLine
 10
-142.37828793
 20
-100.17783769
 30
0.0
 11
-142.42192781
 21
-100.18957665
 31
0.0
  0
LINE
  5
205
100
AcDbEntity
  8
LAYER0003
  6
CONTINUOUS
 62
       7
100
AcDbLine
 10
-142.42192781
 20
-100.18957665
 30
0.0
 11
-142.4658281
 21
-100.19991451
 31
0.0
  0
LINE
  5
206
100
AcDbEntity
  8
LAYER0003
  6
CONTINUOUS
 62
       7
100
AcDbLine
 10
-142.4658281
 20
-100.19991451
 30
0.0
 11
-142.50996385
 21
-100.20897365
 31
0.0
  0
LINE
  5
207
100
AcDbEntity
  8
LAYER0003
  6
CONTINUOUS
 62
       7
100
AcDbLine
 10
-142.50996385
 20
-100.20897365
 30
0.0
 11
-142.55431151
 21
-100.21688193
 31
0.0
  0
LINE
  5
208
100
AcDbEntity
  8
LAYER0003
  6
CONTINUOUS
 62
       7
100
AcDbLine
 10
-142.55431151
 20
-100.21688193
 30
0.0
 11
-142.59884754
 21
-100.22376724
 31
0.0
  0
LINE
  5
209
100
AcDbEntity
  8
LAYER0003
  6
CONTINUOUS
 62
       7
100
AcDbLine
 10
-142.59884754
 20
-100.22376724
 30
0.0
 11
-142.64354839
 21
-100.22975743
 31
0.0
  0
LINE
  5
20A
100
AcDbEntity
  8
LAYER0003
  6
CONTINUOUS
 62
       7
100
AcDbLine
 10
-142.64354839
 20
-100.22975743
 30
0.0
 11
-142.68839051
 21
-100.2349804
 31
0.0
  0
LINE
  5
20B
100
AcDbEntity
  8
LAYER0003
  6
CONTINUOUS
 62
       7
100
AcDbLine
 10
-142.68839051
 20
-100.2349804
 30
0.0
 11
-142.73335035
 21
-100.23956399
 31
0.0
  0
LINE
  5
20C
100
AcDbEntity
  8
LAYER0003
  6
CONTINUOUS
 62
       7
100
AcDbLine
 10
-142.73335035
 20
-100.23956399
 30
0.0
 11
-142.77840439
 21
-100.2436361
 31
0.0
  0
LINE
  5
20D
100
AcDbEntity
  8
LAYER0003
  6
CONTINUOUS
 62
       7
100
AcDbLine
 10
-142.77840439
 20
-100.2436361
 30
0.0
 11
-142.82352905
 21
-100.24732459
 31
0.0
  0
LINE
  5
20E
100
AcDbEntity
  8
LAYER0003
  6
CONTINUOUS
 62
       7
100
AcDbLine
 10
-142.82352905
 20
-100.24732459
 30
0.0
 11
-142.86870081
 21
-100.25075734
 31
0.0
  0
LINE
  5
20F
100
AcDbEntity
  8
LAYER0003
  6
CONTINUOUS
 62
       7
100
AcDbLine
 10
-142.86870081
 20
-100.25075734
 30
0.0
 11
-142.91389612
 21
-100.25406221
 31
0.0
  0
LINE
  5
210
100
AcDbEntity
  8
LAYER0003
  6
CONTINUOUS
 62
       7
100
AcDbLine
 10
16.63354463
 20
57.99593905
 30
0.0
 11
16.67170419
 21
57.9891383
 31
0.0
  0
LINE
  5
211
100
AcDbEntity
  8
LAYER0003
  6
CONTINUOUS
 62
       7
100
AcDbLine
 10
16.67170419
 20
57.9891383
 30
0.0
 11
16.70982331
 21
57.98195267
 31
0.0
  0
LINE
  5
212
100
AcDbEntity
  8
LAYER0003
  6
CONTINUOUS
 62
       7
100
AcDbLine
 10
16.70982331
 20
57.98195267
 30
0.0
 11
16.74786155
 21
57.97399729
 31
0.0
  0
LINE
  5
213
100
AcDbEntity
  8
LAYER0003
  6
CONTINUOUS
 62
       7
100
AcDbLine
 10
16.74786155
 20
57.97399729
 30
0.0
 11
16.78577847
 21
57.96488727
 31
0.0
  0
LINE
  5
214
100
AcDbEntity
  8
LAYER0003
  6
CONTINUOUS
 62
       7
100
AcDbLine
 10
16.78577847
 20
57.96488727
 30
0.0
 11
16.82353361
 21
57.95423774
 31
0.0
  0
LINE
  5
215
100
AcDbEntity
  8
LAYER0003
  6
CONTINUOUS
 62
       7
100
AcDbLine
 10
16.82353361
 20
57.95423774
 30
0.0
 11
16.86108655
 21
57.94166381
 31
0.0
  0
LINE
  5
216
100
AcDbEntity
  8
LAYER0003
  6
CONTINUOUS
 62
       7
100
AcDbLine
 10
16.86108655
 20
57.94166381
 30
0.0
 11
16.89839685
 21
57.92678061
 31
0.0
  0
LINE
  5
217
100
AcDbEntity
  8
LAYER0003
  6
CONTINUOUS
 62
       7
100
AcDbLine
 10
16.89839685
 20
57.92678061
 30
0.0
 11
16.93542405
 21
57.90920326
 31
0.0
  0
LINE
  5
218
100
AcDbEntity
  8
LAYER0003
  6
CONTINUOUS
 62
       7
100
AcDbLine
 10
16.93542405
 20
57.90920326
 30
0.0
 11
16.97212737
 21
57.88855343
 31
0.0
  0
LINE
  5
219
100
AcDbEntity
  8
LAYER0003
  6
CONTINUOUS
 62
       7
100
AcDbLine
 10
16.97212737
 20
57.88855343
 30
0.0
 11
17.00845367
 21
57.86468442
 31
0.0
  0
LINE
  5
21A
100
AcDbEntity
  8
LAYER0003
  6
CONTINUOUS
 62
       7
100
AcDbLine
 10
17.00845367
 20
57.86468442
 30
0.0
 11
17.04433444
 21
57.83773774
 31
0.0
  0
LINE
  5
21B
100
AcDbEntity
  8
LAYER0003
  6
CONTINUOUS
 62
       7
100
AcDbLine
 10
17.04433444
 20
57.83773774
 30
0.0
 11
17.07970021
 21
57.80787293
 31
0.0
  0
LINE
  5
21C
100
AcDbEntity
  8
LAYER0003
  6
CONTINUOUS
 62
       7
100
AcDbLine
 10
17.07970021
 20
57.80787293
 30
0.0
 11
17.11448151
 21
57.77524953
 31
0.0
  0
LINE
  5
21D
100
AcDbEntity
  8
LAYER0003
  6
CONTINUOUS
 62
       7
100
AcDbLine
 10
17.11448151
 20
57.77524953
 30
0.0
 11
17.14860886
 21
57.74002709
 31
0.0
  0
LINE
  5
21E
100
AcDbEntity
  8
LAYER0003
  6
CONTINUOUS
 62
       7
100
AcDbLine
 10
17.14860886
 20
57.74002709
 30
0.0
 11
17.1820128
 21
57.70236517
 31
0.0
  0
LINE
  5
21F
100
AcDbEntity
  8
LAYER0003
  6
CONTINUOUS
 62
       7
100
AcDbLine
 10
17.1820128
 20
57.70236517
 30
0.0
 11
17.21462385
 21
57.66242329
 31
0.0
  0
LINE
  5
220
100
AcDbEntity
  8
LAYER0003
  6
CONTINUOUS
 62
       7
100
AcDbLine
 10
17.21462385
 20
57.66242329
 30
0.0
 11
17.24637255
 21
57.62036101
 31
0.0
  0
LINE
  5
221
100
AcDbEntity
  8
LAYER0003
  6
CONTINUOUS
 62
       7
100
AcDbLine
 10
17.24637255
 20
57.62036101
 30
0.0
 11
17.27719282
 21
57.57632726
 31
0.0
  0
LINE
  5
222
100
AcDbEntity
  8
LAYER0003
  6
CONTINUOUS
 62
       7
100
AcDbLine
 10
17.27719282
 20
57.57632726
 30
0.0
 11
17.30704126
 21
57.53040021
 31
0.0
  0
LINE
  5
223
100
AcDbEntity
  8
LAYER0003
  6
CONTINUOUS
 62
       7
100
AcDbLine
 10
17.30704126
 20
57.53040021
 30
0.0
 11
17.33588374
 21
57.48262908
 31
0.0
  0
LINE
  5
224
100
AcDbEntity
  8
LAYER0003
  6
CONTINUOUS
 62
       7
100
AcDbLine
 10
17.33588374
 20
57.48262908
 30
0.0
 11
17.36368617
 21
57.43306302
 31
0.0
  0
LINE
  5
225
100
AcDbEntity
  8
LAYER0003
  6
CONTINUOUS
 62
       7
100
AcDbLine
 10
17.36368617
 20
57.43306302
 30
0.0
 11
17.39041444
 21
57.38175114
 31
0.0
  0
LINE
  5
226
100
AcDbEntity
  8
LAYER0003
  6
CONTINUOUS
 62
       7
100
AcDbLine
 10
17.39041444
 20
57.38175114
 30
0.0
 11
17.41603446
 21
57.32874261
 31
0.0
  0
LINE
  5
227
100
AcDbEntity
  8
LAYER0003
  6
CONTINUOUS
 62
       7
100
AcDbLine
 10
17.41603446
 20
57.32874261
 30
0.0
 11
17.44051211
 21
57.27408653
 31
0.0
  0
LINE
  5
228
100
AcDbEntity
  8
LAYER0003
  6
CONTINUOUS
 62
       7
100
AcDbLine
 10
17.44051211
 20
57.27408653
 30
0.0
 11
17.46381331
 21
57.21783207
 31
0.0
  0
LINE
  5
229
100
AcDbEntity
  8
LAYER0003
  6
CONTINUOUS
 62
       7
100
AcDbLine
 10
17.46381331
 20
57.21783207
 30
0.0
 11
17.48590382
 21
57.16002852
 31
0.0
  0
LINE
  5
22A
100
AcDbEntity
  8
LAYER0003
  6
CONTINUOUS
 62
       7
100
AcDbLine
 10
17.48590382
 20
57.16002852
 30
0.0
 11
17.50673437
 21
57.10074557
 31
0.0
  0
LINE
  5
22B
100
AcDbEntity
  8
LAYER0003
  6
CONTINUOUS
 62
       7
100
AcDbLine
 10
17.50673437
 20
57.10074557
 30
0.0
 11
17.52622694
 21
57.04009184
 31
0.0
  0
LINE
  5
22C
100
AcDbEntity
  8
LAYER0003
  6
CONTINUOUS
 62
       7
100
AcDbLine
 10
17.52622694
 20
57.04009184
 30
0.0
 11
17.54430026
 21
56.97818033
 31
0.0
  0
LINE
  5
22D
100
AcDbEntity
  8
LAYER0003
  6
CONTINUOUS
 62
       7
100
AcDbLine
 10
17.54430026
 20
56.97818033
 30
0.0
 11
17.56087308
 21
56.91512405
 31
0.0
  0
LINE
  5
22E
100
AcDbEntity
  8
LAYER0003
  6
CONTINUOUS
 62
       7
100
AcDbLine
 10
17.56087308
 20
56.91512405
 30
0.0
 11
17.57586413
 21
56.85103599
 31
0.0
  0
LINE
  5
22F
100
AcDbEntity
  8
LAYER0003
  6
CONTINUOUS
 62
       7
100
AcDbLine
 10
17.57586413
 20
56.85103599
 30
0.0
 11
17.58919215
 21
56.78602917
 31
0.0
  0
LINE
  5
230
100
AcDbEntity
  8
LAYER0003
  6
CONTINUOUS
 62
       7
100
AcDbLine
 10
17.58919215
 20
56.78602917
 30
0.0
 11
17.60077588
 21
56.72021658
 31
0.0
  0
LINE
  5
231
100
AcDbEntity
  8
LAYER0003
  6
CONTINUOUS
 62
       7
100
AcDbLine
 10
17.60077588
 20
56.72021658
 30
0.0
 11
17.61053406
 21
56.65371124
 31
0.0
  0
LINE
  5
232
100
AcDbEntity
  8
LAYER0003
  6
CONTINUOUS
 62
       7
100
AcDbLine
 10
17.61053406
 20
56.65371124
 30
0.0
 11
17.61840714
 21
56.58662525
 31
0.0
  0
LINE
  5
233
100
AcDbEntity
  8
LAYER0003
  6
CONTINUOUS
 62
       7
100
AcDbLine
 10
17.61840714
 20
56.58662525
 30
0.0
 11
17.62457972
 21
56.5190607
 31
0.0
  0
LINE
  5
234
100
AcDbEntity
  8
LAYER0003
  6
CONTINUOUS
 62
       7
100
AcDbLine
 10
17.62457972
 20
56.5190607
 30
0.0
 11
17.62938998
 21
56.45111339
 31
0.0
  0
LINE
  5
235
100
AcDbEntity
  8
LAYER0003
  6
CONTINUOUS
 62
       7
100
AcDbLine
 10
17.62938998
 20
56.45111339
 30
0.0
 11
17.6331785
 21
56.382879
 31
0.0
  0
LINE
  5
236
100
AcDbEntity
  8
LAYER0003
  6
CONTINUOUS
 62
       7
100
AcDbLine
 10
17.6331785
 20
56.382879
 30
0.0
 11
17.63628586
 21
56.31445323
 31
0.0
  0
LINE
  5
237
100
AcDbEntity
  8
LAYER0003
  6
CONTINUOUS
 62
       7
100
AcDbLine
 10
17.63628586
 20
56.31445323
 30
0.0
 11
17.63905264
 21
56.24593177
 31
0.0
  0
LINE
  5
238
100
AcDbEntity
  8
LAYER0003
  6
CONTINUOUS
 62
       7
100
AcDbLine
 10
17.63905264
 20
45.84593454
 30
0.0
 11
17.63496379
 21
45.77719994
 31
0.0
  0
LINE
  5
239
100
AcDbEntity
  8
LAYER0003
  6
CONTINUOUS
 62
       7
100
AcDbLine
 10
17.63496379
 20
45.77719994
 30
0.0
 11
17.63064654
 21
45.70856934
 31
0.0
  0
LINE
  5
23A
100
AcDbEntity
  8
LAYER0003
  6
CONTINUOUS
 62
       7
100
AcDbLine
 10
17.63064654
 20
45.70856934
 30
0.0
 11
17.62587249
 21
45.64014671
 31
0.0
  0
LINE
  5
23B
100
AcDbEntity
  8
LAYER0003
  6
CONTINUOUS
 62
       7
100
AcDbLine
 10
17.62587249
 20
45.64014671
 30
0.0
 11
17.62041325
 21
45.57203605
 31
0.0
  0
LINE
  5
23C
100
AcDbEntity
  8
LAYER0003
  6
CONTINUOUS
 62
       7
100
AcDbLine
 10
17.62041325
 20
45.57203605
 30
0.0
 11
17.61404042
 21
45.50434134
 31
0.0
  0
LINE
  5
23D
100
AcDbEntity
  8
LAYER0003
  6
CONTINUOUS
 62
       7
100
AcDbLine
 10
17.61404042
 20
45.50434134
 30
0.0
 11
17.6065256
 21
45.43716659
 31
0.0
  0
LINE
  5
23E
100
AcDbEntity
  8
LAYER0003
  6
CONTINUOUS
 62
       7
100
AcDbLine
 10
17.6065256
 20
45.43716659
 30
0.0
 11
17.59764039
 21
45.37061576
 31
0.0
  0
LINE
  5
23F
100
AcDbEntity
  8
LAYER0003
  6
CONTINUOUS
 62
       7
100
AcDbLine
 10
17.59764039
 20
45.37061576
 30
0.0
 11
17.5871564
 21
45.30479287
 31
0.0
  0
LINE
  5
240
100
AcDbEntity
  8
LAYER0003
  6
CONTINUOUS
 62
       7
100
AcDbLine
 10
17.5871564
 20
45.30479287
 30
0.0
 11
17.57484917
 21
45.23980183
 31
0.0
  0
LINE
  5
241
100
AcDbEntity
  8
LAYER0003
  6
CONTINUOUS
 62
       7
100
AcDbLine
 10
17.57484917
 20
45.23980183
 30
0.0
 11
17.5606348
 21
45.17574464
 31
0.0
  0
LINE
  5
242
100
AcDbEntity
  8
LAYER0003
  6
CONTINUOUS
 62
       7
100
AcDbLine
 10
17.5606348
 20
45.17574464
 30
0.0
 11
17.54460464
 21
45.11272086
 31
0.0
  0
LINE
  5
243
100
AcDbEntity
  8
LAYER0003
  6
CONTINUOUS
 62
       7
100
AcDbLine
 10
17.54460464
 20
45.11272086
 30
0.0
 11
17.52686107
 21
45.05082989
 31
0.0
  0
LINE
  5
244
100
AcDbEntity
  8
LAYER0003
  6
CONTINUOUS
 62
       7
100
AcDbLine
 10
17.52686107
 20
45.05082989
 30
0.0
 11
17.50750645
 21
44.99017114
 31
0.0
  0
LINE
  5
245
100
AcDbEntity
  8
LAYER0003
  6
CONTINUOUS
 62
       7
100
AcDbLine
 10
17.50750645
 20
44.99017114
 30
0.0
 11
17.48664315
 21
44.93084401
 31
0.0
  0
LINE
  5
246
100
AcDbEntity
  8
LAYER0003
  6
CONTINUOUS
 62
       7
100
AcDbLine
 10
17.48664315
 20
44.93084401
 30
0.0
 11
17.46437355
 21
44.87294792
 31
0.0
  0
LINE
  5
247
100
AcDbEntity
  8
LAYER0003
  6
CONTINUOUS
 62
       7
100
AcDbLine
 10
17.46437355
 20
44.87294792
 30
0.0
 11
17.4408
 21
44.81658227
 31
0.0
  0
LINE
  5
248
100
AcDbEntity
  8
LAYER0003
  6
CONTINUOUS
 62
       7
100
AcDbLine
 10
17.4408
 20
44.81658227
 30
0.0
 11
17.41602488
 21
44.76184647
 31
0.0
  0
LINE
  5
249
100
AcDbEntity
  8
LAYER0003
  6
CONTINUOUS
 62
       7
100
AcDbLine
 10
17.41602488
 20
44.76184647
 30
0.0
 11
17.39014411
 21
44.70883501
 31
0.0
  0
LINE
  5
24A
100
AcDbEntity
  8
LAYER0003
  6
CONTINUOUS
 62
       7
100
AcDbLine
 10
17.39014411
 20
44.70883501
 30
0.0
 11
17.36321031
 21
44.65760959
 31
0.0
  0
LINE
  5
24B
100
AcDbEntity
  8
LAYER0003
  6
CONTINUOUS
 62
       7
100
AcDbLine
 10
17.36321031
 20
44.65760959
 30
0.0
 11
17.33525833
 21
44.60821837
 31
0.0
  0
LINE
  5
24C
100
AcDbEntity
  8
LAYER0003
  6
CONTINUOUS
 62
       7
100
AcDbLine
 10
17.33525833
 20
44.60821837
 30
0.0
 11
17.30632299
 21
44.5607095
 31
0.0
  0
LINE
  5
24D
100
AcDbEntity
  8
LAYER0003
  6
CONTINUOUS
 62
       7
100
AcDbLine
 10
17.30632299
 20
44.5607095
 30
0.0
 11
17.27643908
 21
44.51513111
 31
0.0
  0
LINE
  5
24E
100
AcDbEntity
  8
LAYER0003
  6
CONTINUOUS
 62
       7
100
AcDbLine
 10
17.27643908
 20
44.51513111
 30
0.0
 11
17.2456414
 21
44.47153136
 31
0.0
  0
LINE
  5
24F
100
AcDbEntity
  8
LAYER0003
  6
CONTINUOUS
 62
       7
100
AcDbLine
 10
17.2456414
 20
44.47153136
 30
0.0
 11
17.21396474
 21
44.42995838
 31
0.0
  0
LINE
  5
250
100
AcDbEntity
  8
LAYER0003
  6
CONTINUOUS
 62
       7
100
AcDbLine
 10
17.21396474
 20
44.42995838
 30
0.0
 11
17.18144392
 21
44.3904603
 31
0.0
  0
LINE
  5
251
100
AcDbEntity
  8
LAYER0003
  6
CONTINUOUS
 62
       7
100
AcDbLine
 10
17.18144392
 20
44.3904603
 30
0.0
 11
17.14811383
 21
44.35308548
 31
0.0
  0
LINE
  5
252
100
AcDbEntity
  8
LAYER0003
  6
CONTINUOUS
 62
       7
100
AcDbLine
 10
17.14811383
 20
44.35308548
 30
0.0
 11
17.11402174
 21
44.31790655
 31
0.0
  0
LINE
  5
253
100
AcDbEntity
  8
LAYER0003
  6
CONTINUOUS
 62
       7
100
AcDbLine
 10
17.11402174
 20
44.31790655
 30
0.0
 11
17.0792391
 21
44.28504373
 31
0.0
  0
LINE
  5
254
100
AcDbEntity
  8
LAYER0003
  6
CONTINUOUS
 62
       7
100
AcDbLine
 10
17.0792391
 20
44.28504373
 30
0.0
 11
17.0438402
 21
44.25462271
 31
0.0
  0
LINE
  5
255
100
AcDbEntity
  8
LAYER0003
  6
CONTINUOUS
 62
       7
100
AcDbLine
 10
17.0438402
 20
44.25462271
 30
0.0
 11
17.00789927
 21
44.22676921
 31
0.0
  0
LINE
  5
256
100
AcDbEntity
  8
LAYER0003
  6
CONTINUOUS
 62
       7
100
AcDbLine
 10
17.00789927
 20
44.22676921
 30
0.0
 11
16.9714906
 21
44.20160894
 31
0.0
  0
LINE
  5
257
100
AcDbEntity
  8
LAYER0003
  6
CONTINUOUS
 62
       7
100
AcDbLine
 10
16.9714906
 20
44.20160894
 30
0.0
 11
16.93468844
 21
44.1792676
 31
0.0
  0
LINE
  5
258
100
AcDbEntity
  8
LAYER0003
  6
CONTINUOUS
 62
       7
100
AcDbLine
 10
16.93468844
 20
44.1792676
 30
0.0
 11
16.89756706
 21
44.15987089
 31
0.0
  0
LINE
  5
259
100
AcDbEntity
  8
LAYER0003
  6
CONTINUOUS
 62
       7
100
AcDbLine
 10
16.89756706
 20
44.15987089
 30
0.0
 11
16.86020071
 21
44.14354453
 31
0.0
  0
LINE
  5
25A
100
AcDbEntity
  8
LAYER0003
  6
CONTINUOUS
 62
       7
100
AcDbLine
 10
16.86020071
 20
44.14354453
 30
0.0
 11
16.82266123
 21
44.13037941
 31
0.0
  0
LINE
  5
25B
100
AcDbEntity
  8
LAYER0003
  6
CONTINUOUS
 62
       7
100
AcDbLine
 10
16.82266123
 20
44.13037941
 30
0.0
 11
16.78499258
 21
44.12006549
 31
0.0
  0
LINE
  5
25C
100
AcDbEntity
  8
LAYER0003
  6
CONTINUOUS
 62
       7
100
AcDbLine
 10
16.78499258
 20
44.12006549
 30
0.0
 11
16.74722081
 21
44.11203588
 31
0.0
  0
LINE
  5
25D
100
AcDbEntity
  8
LAYER0003
  6
CONTINUOUS
 62
       7
100
AcDbLine
 10
16.74722081
 20
44.11203588
 30
0.0
 11
16.70937172
 21
44.10571951
 31
0.0
  0
LINE
  5
25E
100
AcDbEntity
  8
LAYER0003
  6
CONTINUOUS
 62
       7
100
AcDbLine
 10
16.70937172
 20
44.10571951
 30
0.0
 11
16.67147106
 21
44.1005453
 31
0.0
  0
LINE
  5
25F
100
AcDbEntity
  8
LAYER0003
  6
CONTINUOUS
 62
       7
100
AcDbLine
 10
16.67147106
 20
44.1005453
 30
0.0
 11
16.63354463
 21
44.09594217
 31
0.0
  0
LINE
  5
260
100
AcDbEntity
  8
LAYER0003
  6
CONTINUOUS
 62
       7
100
AcDbLine
 10
14.45623539
 20
-91.75406268
 30
0.0
 11
14.47765199
 21
-91.75834653
 31
0.0
  0
LINE
  5
261
100
AcDbEntity
  8
LAYER0003
  6
CONTINUOUS
 62
       7
100
AcDbLine
 10
14.47765199
 20
-91.75834653
 30
0.0
 11
14.49906234
 21
-91.76273458
 31
0.0
  0
LINE
  5
262
100
AcDbEntity
  8
LAYER0003
  6
CONTINUOUS
 62
       7
100
AcDbLine
 10
14.49906234
 20
-91.76273458
 30
0.0
 11
14.52046018
 21
-91.76733101
 31
0.0
  0
LINE
  5
263
100
AcDbEntity
  8
LAYER0003
  6
CONTINUOUS
 62
       7
100
AcDbLine
 10
14.52046018
 20
-91.76733101
 30
0.0
 11
14.54183924
 21
-91.77224002
 31
0.0
  0
LINE
  5
264
100
AcDbEntity
  8
LAYER0003
  6
CONTINUOUS
 62
       7
100
AcDbLine
 10
14.54183924
 20
-91.77224002
 30
0.0
 11
14.56319328
 21
-91.77756581
 31
0.0
  0
LINE
  5
265
100
AcDbEntity
  8
LAYER0003
  6
CONTINUOUS
 62
       7
100
AcDbLine
 10
14.56319328
 20
-91.77756581
 30
0.0
 11
14.58451604
 21
-91.78341257
 31
0.0
  0
LINE
  5
266
100
AcDbEntity
  8
LAYER0003
  6
CONTINUOUS
 62
       7
100
AcDbLine
 10
14.58451604
 20
-91.78341257
 30
0.0
 11
14.60580125
 21
-91.78988449
 31
0.0
  0
LINE
  5
267
100
AcDbEntity
  8
LAYER0003
  6
CONTINUOUS
 62
       7
100
AcDbLine
 10
14.60580125
 20
-91.78988449
 30
0.0
 11
14.62704267
 21
-91.79708577
 31
0.0
  0
LINE
  5
268
100
AcDbEntity
  8
LAYER0003
  6
CONTINUOUS
 62
       7
100
AcDbLine
 10
14.62704267
 20
-91.79708577
 30
0.0
 11
14.64823404
 21
-91.8051206
 31
0.0
  0
LINE
  5
269
100
AcDbEntity
  8
LAYER0003
  6
CONTINUOUS
 62
       7
100
AcDbLine
 10
14.64823404
 20
-91.8051206
 30
0.0
 11
14.6693691
 21
-91.81409318
 31
0.0
  0
LINE
  5
26A
100
AcDbEntity
  8
LAYER0003
  6
CONTINUOUS
 62
       7
100
AcDbLine
 10
14.6693691
 20
-91.81409318
 30
0.0
 11
14.69044159
 21
-91.8241077
 31
0.0
  0
LINE
  5
26B
100
AcDbEntity
  8
LAYER0003
  6
CONTINUOUS
 62
       7
100
AcDbLine
 10
14.69044159
 20
-91.8241077
 30
0.0
 11
14.71144525
 21
-91.83526835
 31
0.0
  0
LINE
  5
26C
100
AcDbEntity
  8
LAYER0003
  6
CONTINUOUS
 62
       7
100
AcDbLine
 10
14.71144525
 20
-91.83526835
 30
0.0
 11
14.73237384
 21
-91.84767932
 31
0.0
  0
LINE
  5
26D
100
AcDbEntity
  8
LAYER0003
  6
CONTINUOUS
 62
       7
100
AcDbLine
 10
14.73237384
 20
-91.84767932
 30
0.0
 11
14.75322109
 21
-91.86144482
 31
0.0
  0
LINE
  5
26E
100
AcDbEntity
  8
LAYER0003
  6
CONTINUOUS
 62
       7
100
AcDbLine
 10
14.75322109
 20
-91.86144482
 30
0.0
 11
14.77398075
 21
-91.87666903
 31
0.0
  0
LINE
  5
26F
100
AcDbEntity
  8
LAYER0003
  6
CONTINUOUS
 62
       7
100
AcDbLine
 10
14.77398075
 20
-91.87666903
 30
0.0
 11
14.79464538
 21
-91.89345264
 31
0.0
  0
LINE
  5
270
100
AcDbEntity
  8
LAYER0003
  6
CONTINUOUS
 62
       7
100
AcDbLine
 10
14.79464538
 20
-91.89345264
 30
0.0
 11
14.81518724
 21
-91.91183603
 31
0.0
  0
LINE
  5
271
100
AcDbEntity
  8
LAYER0003
  6
CONTINUOUS
 62
       7
100
AcDbLine
 10
14.81518724
 20
-91.91183603
 30
0.0
 11
14.83556158
 21
-91.93180893
 31
0.0
  0
LINE
  5
272
100
AcDbEntity
  8
LAYER0003
  6
CONTINUOUS
 62
       7
100
AcDbLine
 10
14.83556158
 20
-91.93180893
 30
0.0
 11
14.85572308
 21
-91.95335946
 31
0.0
  0
LINE
  5
273
100
AcDbEntity
  8
LAYER0003
  6
CONTINUOUS
 62
       7
100
AcDbLine
 10
14.85572308
 20
-91.95335946
 30
0.0
 11
14.87562643
 21
-91.97647576
 31
0.0
  0
LINE
  5
274
100
AcDbEntity
  8
LAYER0003
  6
CONTINUOUS
 62
       7
100
AcDbLine
 10
14.87562643
 20
-91.97647576
 30
0.0
 11
14.89522632
 21
-92.00114597
 31
0.0
  0
LINE
  5
275
100
AcDbEntity
  8
LAYER0003
  6
CONTINUOUS
 62
       7
100
AcDbLine
 10
14.89522632
 20
-92.00114597
 30
0.0
 11
14.91447746
 21
-92.02735822
 31
0.0
  0
LINE
  5
276
100
AcDbEntity
  8
LAYER0003
  6
CONTINUOUS
 62
       7
100
AcDbLine
 10
14.91447746
 20
-92.02735822
 30
0.0
 11
14.93333452
 21
-92.05510065
 31
0.0
  0
LINE
  5
277
100
AcDbEntity
  8
LAYER0003
  6
CONTINUOUS
 62
       7
100
AcDbLine
 10
14.93333452
 20
-92.05510065
 30
0.0
 11
14.95175222
 21
-92.0843614
 31
0.0
  0
LINE
  5
278
100
AcDbEntity
  8
LAYER0003
  6
CONTINUOUS
 62
       7
100
AcDbLine
 10
14.95175222
 20
-92.0843614
 30
0.0
 11
14.96968357
 21
-92.11513212
 31
0.0
  0
LINE
  5
279
100
AcDbEntity
  8
LAYER0003
  6
CONTINUOUS
 62
       7
100
AcDbLine
 10
14.96968357
 20
-92.11513212
 30
0.0
 11
14.98706973
 21
-92.14742979
 31
0.0
  0
LINE
  5
27A
100
AcDbEntity
  8
LAYER0003
  6
CONTINUOUS
 62
       7
100
AcDbLine
 10
14.98706973
 20
-92.14742979
 30
0.0
 11
15.00384659
 21
-92.18128253
 31
0.0
  0
LINE
  5
27B
100
AcDbEntity
  8
LAYER0003
  6
CONTINUOUS
 62
       7
100
AcDbLine
 10
15.00384659
 20
-92.18128253
 30
0.0
 11
15.01995003
 21
-92.21671849
 31
0.0
  0
LINE
  5
27C
100
AcDbEntity
  8
LAYER0003
  6
CONTINUOUS
 62
       7
100
AcDbLine
 10
15.01995003
 20
-92.21671849
 30
0.0
 11
15.03531595
 21
-92.25376581
 31
0.0
  0
LINE
  5
27D
100
AcDbEntity
  8
LAYER0003
  6
CONTINUOUS
 62
       7
100
AcDbLine
 10
15.03531595
 20
-92.25376581
 30
0.0
 11
15.04988023
 21
-92.29245266
 31
0.0
  0
LINE
  5
27E
100
AcDbEntity
  8
LAYER0003
  6
CONTINUOUS
 62
       7
100
AcDbLine
 10
15.04988023
 20
-92.29245266
 30
0.0
 11
15.06357875
 21
-92.33280718
 31
0.0
  0
LINE
  5
27F
100
AcDbEntity
  8
LAYER0003
  6
CONTINUOUS
 62
       7
100
AcDbLine
 10
15.06357875
 20
-92.33280718
 30
0.0
 11
15.07631976
 21
-92.37482402
 31
0.0
  0
LINE
  5
280
100
AcDbEntity
  8
LAYER0003
  6
CONTINUOUS
 62
       7
100
AcDbLine
 10
15.07631976
 20
-92.37482402
 30
0.0
 11
15.08792145
 21
-92.41838867
 31
0.0
  0
LINE
  5
281
100
AcDbEntity
  8
LAYER0003
  6
CONTINUOUS
 62
       7
100
AcDbLine
 10
15.08792145
 20
-92.41838867
 30
0.0
 11
15.09818365
 21
-92.46336435
 31
0.0
  0
LINE
  5
282
100
AcDbEntity
  8
LAYER0003
  6
CONTINUOUS
 62
       7
100
AcDbLine
 10
15.09818365
 20
-92.46336435
 30
0.0
 11
15.10690621
 21
-92.50961432
 31
0.0
  0
LINE
  5
283
100
AcDbEntity
  8
LAYER0003
  6
CONTINUOUS
 62
       7
100
AcDbLine
 10
15.10690621
 20
-92.50961432
 30
0.0
 11
15.11388895
 21
-92.55700182
 31
0.0
  0
LINE
  5
284
100
AcDbEntity
  8
LAYER0003
  6
CONTINUOUS
 62
       7
100
AcDbLine
 10
15.11388895
 20
-92.55700182
 30
0.0
 11
15.11900874
 21
-92.60537734
 31
0.0
  0
LINE
  5
285
100
AcDbEntity
  8
LAYER0003
  6
CONTINUOUS
 62
       7
100
AcDbLine
 10
15.11900874
 20
-92.60537734
 30
0.0
 11
15.12260323
 21
-92.65451507
 31
0.0
  0
LINE
  5
286
100
AcDbEntity
  8
LAYER0003
  6
CONTINUOUS
 62
       7
100
AcDbLine
 10
15.12260323
 20
-92.65451507
 30
0.0
 11
15.12518067
 21
-92.70416098
 31
0.0
  0
LINE
  5
287
100
AcDbEntity
  8
LAYER0003
  6
CONTINUOUS
 62
       7
100
AcDbLine
 10
15.12518067
 20
-92.70416098
 30
0.0
 11
15.12724958
 21
-92.75406098
 31
0.0
  0
LINE
  5
288
100
AcDbEntity
  8
LAYER0003
  6
CONTINUOUS
 62
       7
100
AcDbLine
 10
15.12724958
 20
-99.25406205
 30
0.0
 11
15.12451303
 21
-99.30408711
 31
0.0
  0
LINE
  5
289
100
AcDbEntity
  8
LAYER0003
  6
CONTINUOUS
 62
       7
100
AcDbLine
 10
15.12451303
 20
-99.30408711
 30
0.0
 11
15.1214076
 21
-99.35386244
 31
0.0
  0
LINE
  5
28A
100
AcDbEntity
  8
LAYER0003
  6
CONTINUOUS
 62
       7
100
AcDbLine
 10
15.1214076
 20
-99.35386244
 30
0.0
 11
15.11756437
 21
-99.40313835
 31
0.0
  0
LINE
  5
28B
100
AcDbEntity
  8
LAYER0003
  6
CONTINUOUS
 62
       7
100
AcDbLine
 10
15.11756437
 20
-99.40313835
 30
0.0
 11
15.11261445
 21
-99.4516651
 31
0.0
  0
LINE
  5
28C
100
AcDbEntity
  8
LAYER0003
  6
CONTINUOUS
 62
       7
100
AcDbLine
 10
15.11261445
 20
-99.4516651
 30
0.0
 11
15.10618894
 21
-99.49919298
 31
0.0
  0
LINE
  5
28D
100
AcDbEntity
  8
LAYER0003
  6
CONTINUOUS
 62
       7
100
AcDbLine
 10
15.10618894
 20
-99.49919298
 30
0.0
 11
15.09796995
 21
-99.54548707
 31
0.0
  0
LINE
  5
28E
100
AcDbEntity
  8
LAYER0003
  6
CONTINUOUS
 62
       7
100
AcDbLine
 10
15.09796995
 20
-99.54548707
 30
0.0
 11
15.08801149
 21
-99.59042025
 31
0.0
  0
LINE
  5
28F
100
AcDbEntity
  8
LAYER0003
  6
CONTINUOUS
 62
       7
100
AcDbLine
 10
15.08801149
 20
-99.59042025
 30
0.0
 11
15.07653229
 21
-99.6339132
 31
0.0
  0
LINE
  5
290
100
AcDbEntity
  8
LAYER0003
  6
CONTINUOUS
 62
       7
100
AcDbLine
 10
15.07653229
 20
-99.6339132
 30
0.0
 11
15.06375181
 21
-99.6758868
 31
0.0
  0
LINE
  5
291
100
AcDbEntity
  8
LAYER0003
  6
CONTINUOUS
 62
       7
100
AcDbLine
 10
15.06375181
 20
-99.6758868
 30
0.0
 11
15.04988954
 21
-99.71626191
 31
0.0
  0
LINE
  5
292
100
AcDbEntity
  8
LAYER0003
  6
CONTINUOUS
 62
       7
100
AcDbLine
 10
15.04988954
 20
-99.71626191
 30
0.0
 11
15.03515787
 21
-99.7549643
 31
0.0
  0
LINE
  5
293
100
AcDbEntity
  8
LAYER0003
  6
CONTINUOUS
 62
       7
100
AcDbLine
 10
15.03515787
 20
-99.7549643
 30
0.0
 11
15.01967659
 21
-99.79198371
 31
0.0
  0
LINE
  5
294
100
AcDbEntity
  8
LAYER0003
  6
CONTINUOUS
 62
       7
100
AcDbLine
 10
15.01967659
 20
-99.79198371
 30
0.0
 11
15.00350043
 21
-99.82735483
 31
0.0
  0
LINE
  5
295
100
AcDbEntity
  8
LAYER0003
  6
CONTINUOUS
 62
       7
100
AcDbLine
 10
15.00350043
 20
-99.82735483
 30
0.0
 11
14.98668279
 21
-99.86111324
 31
0.0
  0
LINE
  5
296
100
AcDbEntity
  8
LAYER0003
  6
CONTINUOUS
 62
       7
100
AcDbLine
 10
14.98668279
 20
-99.86111324
 30
0.0
 11
14.96927706
 21
-99.89329457
 31
0.0
  0
LINE
  5
297
100
AcDbEntity
  8
LAYER0003
  6
CONTINUOUS
 62
       7
100
AcDbLine
 10
14.96927706
 20
-99.89329457
 30
0.0
 11
14.95133663
 21
-99.92393441
 31
0.0
  0
LINE
  5
298
100
AcDbEntity
  8
LAYER0003
  6
CONTINUOUS
 62
       7
100
AcDbLine
 10
14.95133663
 20
-99.92393441
 30
0.0
 11
14.93291488
 21
-99.95306839
 31
0.0
  0
LINE
  5
299
100
AcDbEntity
  8
LAYER0003
  6
CONTINUOUS
 62
       7
100
AcDbLine
 10
14.93291488
 20
-99.95306839
 30
0.0
 11
14.91406517
 21
-99.98073205
 31
0.0
  0
LINE
  5
29A
100
AcDbEntity
  8
LAYER0003
  6
CONTINUOUS
 62
       7
100
AcDbLine
 10
14.91406517
 20
-99.98073205
 30
0.0
 11
14.89483533
 21
-100.00695031
 31
0.0
  0
LINE
  5
29B
100
AcDbEntity
  8
LAYER0003
  6
CONTINUOUS
 62
       7
100
AcDbLine
 10
14.89483533
 20
-100.00695031
 30
0.0
 11
14.87526125
 21
-100.03172515
 31
0.0
  0
LINE
  5
29C
100
AcDbEntity
  8
LAYER0003
  6
CONTINUOUS
 62
       7
100
AcDbLine
 10
14.87526125
 20
-100.03172515
 30
0.0
 11
14.85537724
 21
-100.05505555
 31
0.0
  0
LINE
  5
29D
100
AcDbEntity
  8
LAYER0003
  6
CONTINUOUS
 62
       7
100
AcDbLine
 10
14.85537724
 20
-100.05505555
 30
0.0
 11
14.83521762
 21
-100.07694047
 31
0.0
  0
LINE
  5
29E
100
AcDbEntity
  8
LAYER0003
  6
CONTINUOUS
 62
       7
100
AcDbLine
 10
14.83521762
 20
-100.07694047
 30
0.0
 11
14.81481671
 21
-100.09737889
 31
0.0
  0
LINE
  5
29F
100
AcDbEntity
  8
LAYER0003
  6
CONTINUOUS
 62
       7
100
AcDbLine
 10
14.81481671
 20
-100.09737889
 30
0.0
 11
14.79420883
 21
-100.1163698
 31
0.0
  0
LINE
  5
2A0
100
AcDbEntity
  8
LAYER0003
  6
CONTINUOUS
 62
       7
100
AcDbLine
 10
14.79420883
 20
-100.1163698
 30
0.0
 11
14.77342831
 21
-100.13391215
 31
0.0
  0
LINE
  5
2A1
100
AcDbEntity
  8
LAYER0003
  6
CONTINUOUS
 62
       7
100
AcDbLine
 10
14.77342831
 20
-100.13391215
 30
0.0
 11
14.75250945
 21
-100.15000494
 31
0.0
  0
LINE
  5
2A2
100
AcDbEntity
  8
LAYER0003
  6
CONTINUOUS
 62
       7
100
AcDbLine
 10
14.75250945
 20
-100.15000494
 30
0.0
 11
14.73148658
 21
-100.16464712
 31
0.0
  0
LINE
  5
2A3
100
AcDbEntity
  8
LAYER0003
  6
CONTINUOUS
 62
       7
100
AcDbLine
 10
14.73148658
 20
-100.16464712
 30
0.0
 11
14.71039403
 21
-100.17783769
 31
0.0
  0
LINE
  5
2A4
100
AcDbEntity
  8
LAYER0003
  6
CONTINUOUS
 62
       7
100
AcDbLine
 10
14.71039403
 20
-100.17783769
 30
0.0
 11
14.68926583
 21
-100.18957665
 31
0.0
  0
LINE
  5
2A5
100
AcDbEntity
  8
LAYER0003
  6
CONTINUOUS
 62
       7
100
AcDbLine
 10
14.68926583
 20
-100.18957665
 30
0.0
 11
14.66812308
 21
-100.19991451
 31
0.0
  0
LINE
  5
2A6
100
AcDbEntity
  8
LAYER0003
  6
CONTINUOUS
 62
       7
100
AcDbLine
 10
14.66812308
 20
-100.19991451
 30
0.0
 11
14.64696837
 21
-100.20897365
 31
0.0
  0
LINE
  5
2A7
100
AcDbEntity
  8
LAYER0003
  6
CONTINUOUS
 62
       7
100
AcDbLine
 10
14.64696837
 20
-100.20897365
 30
0.0
 11
14.62580291
 21
-100.21688193
 31
0.0
  0
LINE
  5
2A8
100
AcDbEntity
  8
LAYER0003
  6
CONTINUOUS
 62
       7
100
AcDbLine
 10
14.62580291
 20
-100.21688193
 30
0.0
 11
14.60462789
 21
-100.22376724
 31
0.0
  0
LINE
  5
2A9
100
AcDbEntity
  8
LAYER0003
  6
CONTINUOUS
 62
       7
100
AcDbLine
 10
14.60462789
 20
-100.22376724
 30
0.0
 11
14.5834445
 21
-100.22975743
 31
0.0
  0
LINE
  5
2AA
100
AcDbEntity
  8
LAYER0003
  6
CONTINUOUS
 62
       7
100
AcDbLine
 10
14.5834445
 20
-100.22975743
 30
0.0
 11
14.56225393
 21
-100.2349804
 31
0.0
  0
LINE
  5
2AB
100
AcDbEntity
  8
LAYER0003
  6
CONTINUOUS
 62
       7
100
AcDbLine
 10
14.56225393
 20
-100.2349804
 30
0.0
 11
14.5410574
 21
-100.23956399
 31
0.0
  0
LINE
  5
2AC
100
AcDbEntity
  8
LAYER0003
  6
CONTINUOUS
 62
       7
100
AcDbLine
 10
14.5410574
 20
-100.23956399
 30
0.0
 11
14.51985608
 21
-100.2436361
 31
0.0
  0
LINE
  5
2AD
100
AcDbEntity
  8
LAYER0003
  6
CONTINUOUS
 62
       7
100
AcDbLine
 10
14.51985608
 20
-100.2436361
 30
0.0
 11
14.49865117
 21
-100.24732459
 31
0.0
  0
LINE
  5
2AE
100
AcDbEntity
  8
LAYER0003
  6
CONTINUOUS
 62
       7
100
AcDbLine
 10
14.49865117
 20
-100.24732459
 30
0.0
 11
14.47744388
 21
-100.25075734
 31
0.0
  0
LINE
  5
2AF
100
AcDbEntity
  8
LAYER0003
  6
CONTINUOUS
 62
       7
100
AcDbLine
 10
14.47744388
 20
-100.25075734
 30
0.0
 11
14.45623539
 21
-100.25406221
 31
0.0
  0
LINE
  5
2B0
100
AcDbEntity
  8
LAYER0003
  6
CONTINUOUS
 62
       7
100
AcDbLine
 10
-173.08154003
 20
-198.83602021
 30
0.0
 11
-173.07601493
 21
-198.83201459
 31
0.0
  0
LINE
  5
2B1
100
AcDbEntity
  8
LAYER0003
  6
CONTINUOUS
 62
       7
100
AcDbLine
 10
-173.07601493
 20
-198.83201459
 30
0.0
 11
-173.07017626
 21
-198.82778529
 31
0.0
  0
LINE
  5
2B2
100
AcDbEntity
  8
LAYER0003
  6
CONTINUOUS
 62
       7
100
AcDbLine
 10
-173.07017626
 20
-198.82778529
 30
0.0
 11
-173.06371046
 21
-198.82310862
 31
0.0
  0
LINE
  5
2B3
100
AcDbEntity
  8
LAYER0003
  6
CONTINUOUS
 62
       7
100
AcDbLine
 10
-173.06371046
 20
-198.82310862
 30
0.0
 11
-173.05630395
 21
-198.81776091
 31
0.0
  0
LINE
  5
2B4
100
AcDbEntity
  8
LAYER0003
  6
CONTINUOUS
 62
       7
100
AcDbLine
 10
-173.05630395
 20
-198.81776091
 30
0.0
 11
-173.04764318
 21
-198.81151848
 31
0.0
  0
LINE
  5
2B5
100
AcDbEntity
  8
LAYER0003
  6
CONTINUOUS
 62
       7
100
AcDbLine
 10
-173.04764318
 20
-198.81151848
 30
0.0
 11
-173.03741457
 21
-198.80415763
 31
0.0
  0
LINE
  5
2B6
100
AcDbEntity
  8
LAYER0003
  6
CONTINUOUS
 62
       7
100
AcDbLine
 10
-173.03741457
 20
-198.80415763
 30
0.0
 11
-173.02530456
 21
-198.7954547
 31
0.0
  0
LINE
  5
2B7
100
AcDbEntity
  8
LAYER0003
  6
CONTINUOUS
 62
       7
100
AcDbLine
 10
-173.02530456
 20
-198.7954547
 30
0.0
 11
-173.01099958
 21
-198.785186
 31
0.0
  0
LINE
  5
2B8
100
AcDbEntity
  8
LAYER0003
  6
CONTINUOUS
 62
       7
100
AcDbLine
 10
-173.01099958
 20
-198.785186
 30
0.0
 11
-172.99419131
 21
-198.77313172
 31
0.0
  0
LINE
  5
2B9
100
AcDbEntity
  8
LAYER0003
  6
CONTINUOUS
 62
       7
100
AcDbLine
 10
-172.99419131
 20
-198.77313172
 30
0.0
 11
-172.97475778
 21
-198.75920979
 31
0.0
  0
LINE
  5
2BA
100
AcDbEntity
  8
LAYER0003
  6
CONTINUOUS
 62
       7
100
AcDbLine
 10
-172.97475778
 20
-198.75920979
 30
0.0
 11
-172.95280943
 21
-198.74350991
 31
0.0
  0
LINE
  5
2BB
100
AcDbEntity
  8
LAYER0003
  6
CONTINUOUS
 62
       7
100
AcDbLine
 10
-172.95280943
 20
-198.74350991
 30
0.0
 11
-172.92847134
 21
-198.72613258
 31
0.0
  0
LINE
  5
2BC
100
AcDbEntity
  8
LAYER0003
  6
CONTINUOUS
 62
       7
100
AcDbLine
 10
-172.92847134
 20
-198.72613258
 30
0.0
 11
-172.90186855
 21
-198.7071783
 31
0.0
  0
LINE
  5
2BD
100
AcDbEntity
  8
LAYER0003
  6
CONTINUOUS
 62
       7
100
AcDbLine
 10
-172.90186855
 20
-198.7071783
 30
0.0
 11
-172.87312613
 21
-198.68674756
 31
0.0
  0
LINE
  5
2BE
100
AcDbEntity
  8
LAYER0003
  6
CONTINUOUS
 62
       7
100
AcDbLine
 10
-172.87312613
 20
-198.68674756
 30
0.0
 11
-172.84236912
 21
-198.66494087
 31
0.0
  0
LINE
  5
2BF
100
AcDbEntity
  8
LAYER0003
  6
CONTINUOUS
 62
       7
100
AcDbLine
 10
-172.84236912
 20
-198.66494087
 30
0.0
 11
-172.80972258
 21
-198.64185871
 31
0.0
  0
LINE
  5
2C0
100
AcDbEntity
  8
LAYER0003
  6
CONTINUOUS
 62
       7
100
AcDbLine
 10
-172.80972258
 20
-198.64185871
 30
0.0
 11
-172.77531158
 21
-198.61760158
 31
0.0
  0
LINE
  5
2C1
100
AcDbEntity
  8
LAYER0003
  6
CONTINUOUS
 62
       7
100
AcDbLine
 10
-172.77531158
 20
-198.61760158
 30
0.0
 11
-172.73925265
 21
-198.59226365
 31
0.0
  0
LINE
  5
2C2
100
AcDbEntity
  8
LAYER0003
  6
CONTINUOUS
 62
       7
100
AcDbLine
 10
-172.73925265
 20
-198.59226365
 30
0.0
 11
-172.70160535
 21
-198.56589665
 31
0.0
  0
LINE
  5
2C3
100
AcDbEntity
  8
LAYER0003
  6
CONTINUOUS
 62
       7
100
AcDbLine
 10
-172.70160535
 20
-198.56589665
 30
0.0
 11
-172.66240583
 21
-198.53853488
 31
0.0
  0
LINE
  5
2C4
100
AcDbEntity
  8
LAYER0003
  6
CONTINUOUS
 62
       7
100
AcDbLine
 10
-172.66240583
 20
-198.53853488
 30
0.0
 11
-172.62169016
 21
-198.51021258
 31
0.0
  0
LINE
  5
2C5
100
AcDbEntity
  8
LAYER0003
  6
CONTINUOUS
 62
       7
100
AcDbLine
 10
-172.62169016
 20
-198.51021258
 30
0.0
 11
-172.5794944
 21
-198.48096401
 31
0.0
  0
LINE
  5
2C6
100
AcDbEntity
  8
LAYER0003
  6
CONTINUOUS
 62
       7
100
AcDbLine
 10
-172.5794944
 20
-198.48096401
 30
0.0
 11
-172.53585463
 21
-198.45082341
 31
0.0
  0
LINE
  5
2C7
100
AcDbEntity
  8
LAYER0003
  6
CONTINUOUS
 62
       7
100
AcDbLine
 10
-172.53585463
 20
-198.45082341
 30
0.0
 11
-172.49080691
 21
-198.41982502
 31
0.0
  0
LINE
  5
2C8
100
AcDbEntity
  8
LAYER0003
  6
CONTINUOUS
 62
       7
100
AcDbLine
 10
-172.49080691
 20
-198.41982502
 30
0.0
 11
-172.44438732
 21
-198.3880031
 31
0.0
  0
LINE
  5
2C9
100
AcDbEntity
  8
LAYER0003
  6
CONTINUOUS
 62
       7
100
AcDbLine
 10
-172.44438732
 20
-198.3880031
 30
0.0
 11
-172.39663205
 21
-198.35539199
 31
0.0
  0
LINE
  5
2CA
100
AcDbEntity
  8
LAYER0003
  6
CONTINUOUS
 62
       7
100
AcDbLine
 10
-172.39663205
 20
-198.35539199
 30
0.0
 11
-172.34759356
 21
-198.32203816
 31
0.0
  0
LINE
  5
2CB
100
AcDbEntity
  8
LAYER0003
  6
CONTINUOUS
 62
       7
100
AcDbLine
 10
-172.34759356
 20
-198.32203816
 30
0.0
 11
-172.29735607
 21
-198.28801183
 31
0.0
  0
LINE
  5
2CC
100
AcDbEntity
  8
LAYER0003
  6
CONTINUOUS
 62
       7
100
AcDbLine
 10
-172.29735607
 20
-198.28801183
 30
0.0
 11
-172.2460075
 21
-198.25338595
 31
0.0
  0
LINE
  5
2CD
100
AcDbEntity
  8
LAYER0003
  6
CONTINUOUS
 62
       7
100
AcDbLine
 10
-172.2460075
 20
-198.25338595
 30
0.0
 11
-172.19363576
 21
-198.21823348
 31
0.0
  0
LINE
  5
2CE
100
AcDbEntity
  8
LAYER0003
  6
CONTINUOUS
 62
       7
100
AcDbLine
 10
-172.19363576
 20
-198.21823348
 30
0.0
 11
-172.14032876
 21
-198.18262736
 31
0.0
  0
LINE
  5
2CF
100
AcDbEntity
  8
LAYER0003
  6
CONTINUOUS
 62
       7
100
AcDbLine
 10
-172.14032876
 20
-198.18262736
 30
0.0
 11
-172.08617441
 21
-198.14664057
 31
0.0
  0
LINE
  5
2D0
100
AcDbEntity
  8
LAYER0003
  6
CONTINUOUS
 62
       7
100
AcDbLine
 10
-172.08617441
 20
-198.14664057
 30
0.0
 11
-172.03126061
 21
-198.11034604
 31
0.0
  0
LINE
  5
2D1
100
AcDbEntity
  8
LAYER0003
  6
CONTINUOUS
 62
       7
100
AcDbLine
 10
-172.03126061
 20
-198.11034604
 30
0.0
 11
-171.97567529
 21
-198.07381674
 31
0.0
  0
LINE
  5
2D2
100
AcDbEntity
  8
LAYER0003
  6
CONTINUOUS
 62
       7
100
AcDbLine
 10
-171.97567529
 20
-198.07381674
 30
0.0
 11
-171.91950684
 21
-198.0371232
 31
0.0
  0
LINE
  5
2D3
100
AcDbEntity
  8
LAYER0003
  6
CONTINUOUS
 62
       7
100
AcDbLine
 10
-171.91950684
 20
-198.0371232
 30
0.0
 11
-171.86284936
 21
-198.00030792
 31
0.0
  0
LINE
  5
2D4
100
AcDbEntity
  8
LAYER0003
  6
CONTINUOUS
 62
       7
100
AcDbLine
 10
-171.86284936
 20
-198.00030792
 30
0.0
 11
-171.80580063
 21
-197.9633955
 31
0.0
  0
LINE
  5
2D5
100
AcDbEntity
  8
LAYER0003
  6
CONTINUOUS
 62
       7
100
AcDbLine
 10
-171.80580063
 20
-197.9633955
 30
0.0
 11
-171.74845844
 21
-197.92641021
 31
0.0
  0
LINE
  5
2D6
100
AcDbEntity
  8
LAYER0003
  6
CONTINUOUS
 62
       7
100
AcDbLine
 10
-171.74845844
 20
-197.92641021
 30
0.0
 11
-171.69092063
 21
-197.88937634
 31
0.0
  0
LINE
  5
2D7
100
AcDbEntity
  8
LAYER0003
  6
CONTINUOUS
 62
       7
100
AcDbLine
 10
-171.69092063
 20
-197.88937634
 30
0.0
 11
-171.633285
 21
-197.85231819
 31
0.0
  0
LINE
  5
2D8
100
AcDbEntity
  8
LAYER0003
  6
CONTINUOUS
 62
       7
100
AcDbLine
 10
11.68454117
 20
-46.79238668
 30
0.0
 11
14.64752904
 21
-36.79498157
 31
0.0
  0
LINE
  5
2D9
100
AcDbEntity
  8
LAYER0003
  6
CONTINUOUS
 62
       7
100
AcDbLine
 10
11.68454117
 20
29.28426245
 30
0.0
 11
14.64752904
 21
19.28684989
 31
0.0
  0
ARC
  5
2DA
100
AcDbEntity
  8
LAYER0003
  6
CONTINUOUS
 62
       7
100
AcDbCircle
 10
-155.50831751
 20
15.24593809
 30
0.0
 40
12.74999976
100
AcDbArc
 50
0.0
 51
180.0
  0
ARC
  5
2DB
100
AcDbEntity
  8
LAYER0003
  6
CONTINUOUS
 62
       7
100
AcDbCircle
 10
-155.50831751
 20
-32.75406191
 30
0.0
 40
12.74999976
100
AcDbArc
 50
180.00000184
 51
359.99999816
  0
ARC
  5
2DC
100
AcDbEntity
  8
LAYER0003
  6
CONTINUOUS
 62
       7
100
AcDbCircle
 10
11.9345404
 20
27.49593816
 30
0.0
 40
0.49999988
100
AcDbArc
 50
90.00007792
 51
143.1301019
  0
ARC
  5
2DD
100
AcDbEntity
  8
LAYER0003
  6
CONTINUOUS
 62
       7
100
AcDbCircle
 10
11.93454057
 20
-45.00406185
 30
0.0
 40
0.50000009
100
AcDbArc
 50
216.86989833
 51
269.99992208
  0
ARC
  5
2DE
100
AcDbEntity
  8
LAYER0003
  6
CONTINUOUS
 62
       7
100
AcDbCircle
 10
10.68454127
 20
-43.33739466
 30
0.0
 40
0.49999904
100
AcDbArc
 50
180.0
 51
216.86983118
  0
ARC
  5
2DF
100
AcDbEntity
  8
LAYER0003
  6
CONTINUOUS
 62
       7
100
AcDbCircle
 10
10.68454137
 20
25.82927078
 30
0.0
 40
0.49999891
100
AcDbArc
 50
143.13020778
 51
180.0
  0
CIRCLE
  5
2E0
100
AcDbEntity
  8
LAYER0003
  6
CONTINUOUS
 62
       7
100
AcDbCircle
 10
-155.50831751
 20
-223.15025238
 30
0.0
 40
15.5
  0
CIRCLE
  5
2E1
100
AcDbEntity
  8
LAYER0003
  6
CONTINUOUS
 62
       7
100
AcDbCircle
 10
-155.50831751
 20
-223.15025238
 30
0.0
 40
30.0
  0
ARC
  5
2E2
100
AcDbEntity
  8
LAYER0003
  6
CONTINUOUS
 62
       7
100
AcDbCircle
 10
-167.75831739
 20
-193.40025238
 30
0.0
 40
0.49999988
100
AcDbArc
 50
126.86989742
 51
179.99992208
  0
ARC
  5
2E3
100
AcDbEntity
  8
LAYER0003
  6
CONTINUOUS
 62
       7
100
AcDbCircle
 10
-143.25831631
 20
-193.40025239
 30
0.0
 40
0.49999988
100
AcDbArc
 50
0.00007792
 51
53.13010258
  0
ARC
  5
2E4
100
AcDbEntity
  8
LAYER0003
  6
CONTINUOUS
 62
       7
100
AcDbCircle
 10
-144.92498352
 20
-192.1502531
 30
0.0
 40
0.49999972
100
AcDbArc
 50
53.13003566
 51
89.99996104
  0
ARC
  5
2E5
100
AcDbEntity
  8
LAYER0003
  6
CONTINUOUS
 62
       7
100
AcDbCircle
 10
-166.09165019
 20
-192.1502531
 30
0.0
 40
0.49999972
100
AcDbArc
 50
90.00003782
 51
126.86996273
  0
CIRCLE
  5
2E6
100
AcDbEntity
  8
LAYER0003
  6
CONTINUOUS
 62
       7
100
AcDbCircle
 10
-136.88877133
 20
-212.40025238
 30
0.0
 40
2.0
  0
CIRCLE
  5
2E7
100
AcDbEntity
  8
LAYER0003
  6
CONTINUOUS
 62
       7
100
AcDbCircle
 10
-174.12786369
 20
-212.40025238
 30
0.0
 40
2.0
  0
CIRCLE
  5
2E8
100
AcDbEntity
  8
LAYER0003
  6
CONTINUOUS
 62
       7
100
AcDbCircle
 10
-155.50831751
 20
-244.65025238
 30
0.0
 40
2.0
  0
ARC
  5
2E9
100
AcDbEntity
  8
LAYER0003
  6
CONTINUOUS
 62
       7
100
AcDbCircle
 10
-136.50831738
 20
240.0295639
 30
0.0
 40
1.0
100
AcDbArc
 50
0.0
 51
82.6738801
  0
ARC
  5
2EA
100
AcDbEntity
  8
LAYER0003
  6
CONTINUOUS
 62
       7
100
AcDbCircle
 10
-174.50831738
 20
240.0295639
 30
0.0
 40
1.0
100
AcDbArc
 50
97.3261199
 51
180.0
  0
LINE
  5
2EB
100
AcDbEntity
  8
LAYER0003
  6
CENTERX2
 62
       7
100
AcDbLine
 10
-155.50831738
 20
-128.91048512
 30
0.0
 11
-155.50831738
 21
256.32932592
 31
0.0
  0
LINE
  5
2EC
100
AcDbEntity
  8
LAYER0003
  6
CENTERX2
 62
       7
100
AcDbLine
 10
-174.12786369
 20
-125.25406191
 30
0.0
 11
-174.12786369
 21
-105.45334385
 31
0.0
  0
LINE
  5
2ED
100
AcDbEntity
  8
LAYER0003
  6
CENTERX2
 62
       7
100
AcDbLine
 10
-136.88877133
 20
-125.25406191
 30
0.0
 11
-136.88877133
 21
-104.76997916
 31
0.0
  0
LINE
  5
2EE
100
AcDbEntity
  8
LAYER0003
  6
CENTERX2
 62
       7
100
AcDbLine
 10
30.9345405
 20
-125.25406191
 30
0.0
 11
30.9345405
 21
-105.16858884
 31
0.0
  0
LINE
  5
2EF
100
AcDbEntity
  8
LAYER0003
  6
CENTERX2
 62
       7
100
AcDbLine
 10
63.1845405
 20
-125.25406191
 30
0.0
 11
63.1845405
 21
-104.61104177
 31
0.0
  0
LINE
  5
2F0
100
AcDbEntity
  8
LAYER0003
  6
CENTERX2
 62
       7
100
AcDbLine
 10
-155.50831751
 20
-223.15025238
 30
0.0
 11
-136.88877133
 21
-212.40025238
 31
0.0
  0
LINE
  5
2F1
100
AcDbEntity
  8
LAYER0003
  6
CENTERX2
 62
       7
100
AcDbLine
 10
-155.50831751
 20
-223.15025238
 30
0.0
 11
-174.12786369
 21
-212.40025238
 31
0.0
  0
LINE
  5
2F2
100
AcDbEntity
  8
LAYER0003
  6
CENTERX2
 62
       7
100
AcDbLine
 10
-188.39696226
 20
-223.15025238
 30
0.0
 11
-121.65091767
 21
-223.15025238
 31
0.0
  0
LINE
  5
2F3
100
AcDbEntity
  8
LAYER0003
  6
CENTERX2
 62
       7
100
AcDbLine
 10
-155.50831751
 20
-190.01403176
 30
0.0
 11
-155.50831751
 21
-256.32932592
 31
0.0
  0
LINE
  5
2F4
100
AcDbEntity
  8
LAYER0003
  6
CENTERX2
 62
       7
100
AcDbLine
 10
-136.88877133
 20
-216.29332309
 30
0.0
 11
-136.88877133
 21
-208.30569654
 31
0.0
  0
LINE
  5
2F5
100
AcDbEntity
  8
LAYER0003
  6
CENTERX2
 62
       7
100
AcDbLine
 10
-140.71083179
 20
-212.40025238
 30
0.0
 11
-132.88295777
 21
-212.40025238
 31
0.0
  0
LINE
  5
2F6
100
AcDbEntity
  8
LAYER0003
  6
CENTERX2
 62
       7
100
AcDbLine
 10
-174.12786369
 20
-216.61282815
 30
0.0
 11
-174.12786369
 21
-208.62520161
 31
0.0
  0
LINE
  5
2F7
100
AcDbEntity
  8
LAYER0003
  6
CENTERX2
 62
       7
100
AcDbLine
 10
-170.10529747
 20
-212.40025238
 30
0.0
 11
-178.49230534
 21
-212.40025238
 31
0.0
  0
LINE
  5
2F8
100
AcDbEntity
  8
LAYER0003
  6
CENTERX2
 62
       7
100
AcDbLine
 10
-160.75977441
 20
-244.65025238
 30
0.0
 11
-151.65388015
 21
-244.65025238
 31
0.0
  0
LINE
  5
2F9
100
AcDbEntity
  8
LAYER0003
  6
CENTERX2
 62
       7
100
AcDbLine
 10
41.6845405
 20
256.32932592
 30
0.0
 11
41.6845405
 21
-117.93590053
 31
0.0
  0
CIRCLE
  5
2FA
100
AcDbEntity
  8
LAYER0003
  6
CENTERX2
 62
       7
100
AcDbCircle
 10
-155.50831751
 20
-223.15025238
 30
0.0
 40
21.5
  0
LINE
  5
2FB
100
AcDbEntity
  8
LAYER0001
  6
CONTINUOUS
 62
       7
100
AcDbLine
 10
-135.50831738
 20
70.24593809
 30
0.0
 11
-135.50831738
 21
240.0295639
 31
0.0
  0
LINE
  5
2FC
100
AcDbEntity
  8
LAYER0001
  6
CONTINUOUS
 62
       7
100
AcDbLine
 10
21.6845405
 20
70.24593809
 30
0.0
 11
21.6845405
 21
240.0295639
 31
0.0
  0
LINE
  5
2FD
100
AcDbEntity
  8
LAYER0001
  6
CONTINUOUS
 62
       7
100
AcDbLine
 10
41.68454125
 20
102.24593493
 30
0.0
 11
61.6845393
 21
102.24593493
 31
0.0
  0
LINE
  5
2FE
100
AcDbEntity
  8
LAYER0001
  6
CONTINUOUS
 62
       7
100
AcDbLine
 10
41.6845405
 20
103.5459427
 30
0.0
 11
61.68454005
 21
103.5459427
 31
0.0
  0
LINE
  5
2FF
100
AcDbEntity
  8
LAYER0001
  6
CONTINUOUS
 62
       7
100
AcDbLine
 10
41.6845405
 20
135.54593304
 30
0.0
 11
61.68454005
 21
135.54593304
 31
0.0
  0
LINE
  5
300
100
AcDbEntity
  8
LAYER0001
  6
CONTINUOUS
 62
       7
100
AcDbLine
 10
41.6845405
 20
198.24593643
 30
0.0
 11
61.68454005
 21
198.24593643
 31
0.0
  0
LINE
  5
301
100
AcDbEntity
  8
LAYER0001
  6
CONTINUOUS
 62
       7
100
AcDbLine
 10
41.6845405
 20
199.54594353
 30
0.0
 11
61.68454005
 21
199.54594353
 31
0.0
  0
LINE
  5
302
100
AcDbEntity
  8
LAYER0001
  6
CONTINUOUS
 62
       7
100
AcDbLine
 10
21.68454095
 20
71.54593745
 30
0.0
 11
41.6845405
 21
71.54593745
 31
0.0
  0
LINE
  5
303
100
AcDbEntity
  8
LAYER0001
  6
CONTINUOUS
 62
       7
100
AcDbLine
 10
21.6845402
 20
134.24594018
 30
0.0
 11
41.68453975
 21
134.24594018
 31
0.0
  0
LINE
  5
304
100
AcDbEntity
  8
LAYER0001
  6
CONTINUOUS
 62
       7
100
AcDbLine
 10
21.68454057
 20
166.24593102
 30
0.0
 11
41.68454013
 21
166.24593102
 31
0.0
  0
LINE
  5
305
100
AcDbEntity
  8
LAYER0001
  6
CONTINUOUS
 62
       7
100
AcDbLine
 10
21.68454095
 20
198.24593643
 30
0.0
 11
41.6845405
 21
198.24593643
 31
0.0
  0
LINE
  5
306
100
AcDbEntity
  8
LAYER0001
  6
CONTINUOUS
 62
       7
100
AcDbLine
 10
21.68454095
 20
230.24594167
 30
0.0
 11
41.6845405
 21
230.24594167
 31
0.0
  0
LINE
  5
307
100
AcDbEntity
  8
LAYER0001
  6
CONTINUOUS
 62
       7
100
AcDbLine
 10
61.68454049
 20
70.24593809
 30
0.0
 11
61.68454049
 21
240.0295639
 31
0.0
  0
LINE
  5
308
100
AcDbEntity
  8
LAYER0001
  6
CONTINUOUS
 62
       7
100
AcDbLine
 10
61.68454005
 20
231.54594878
 30
0.0
 11
21.68454095
 21
231.54594878
 31
0.0
  0
LINE
  5
309
100
AcDbEntity
  8
LAYER0001
  6
CONTINUOUS
 62
       7
100
AcDbLine
 10
41.6845405
 20
71.54593745
 30
0.0
 11
61.68454005
 21
71.54593745
 31
0.0
  0
LINE
  5
30A
100
AcDbEntity
  8
LAYER0001
  6
CONTINUOUS
 62
       7
100
AcDbLine
 10
41.68453975
 20
134.24594018
 30
0.0
 11
61.6845408
 21
134.24594018
 31
0.0
  0
LINE
  5
30B
100
AcDbEntity
  8
LAYER0001
  6
CONTINUOUS
 62
       7
100
AcDbLine
 10
41.68454013
 20
166.24593102
 30
0.0
 11
61.68453968
 21
166.24593102
 31
0.0
  0
LINE
  5
30C
100
AcDbEntity
  8
LAYER0001
  6
CONTINUOUS
 62
       7
100
AcDbLine
 10
41.6845405
 20
167.54593829
 30
0.0
 11
61.68454005
 21
167.54593829
 31
0.0
  0
LINE
  5
30D
100
AcDbEntity
  8
LAYER0001
  6
CONTINUOUS
 62
       7
100
AcDbLine
 10
41.6845405
 20
230.24594167
 30
0.0
 11
61.68454005
 21
230.24594167
 31
0.0
  0
LINE
  5
30E
100
AcDbEntity
  8
LAYER0001
  6
CONTINUOUS
 62
       7
100
AcDbLine
 10
61.68454049
 20
70.24593809
 30
0.0
 11
21.6845405
 21
70.24593809
 31
0.0
  0
LINE
  5
30F
100
AcDbEntity
  8
LAYER0001
  6
CONTINUOUS
 62
       7
100
AcDbLine
 10
21.6845417
 20
102.24593493
 30
0.0
 11
41.68454125
 21
102.24593493
 31
0.0
  0
LINE
  5
310
100
AcDbEntity
  8
LAYER0001
  6
CONTINUOUS
 62
       7
100
AcDbLine
 10
21.68454095
 20
103.5459427
 30
0.0
 11
41.6845405
 21
103.5459427
 31
0.0
  0
LINE
  5
311
100
AcDbEntity
  8
LAYER0001
  6
CONTINUOUS
 62
       7
100
AcDbLine
 10
21.68454095
 20
135.54593304
 30
0.0
 11
41.6845405
 21
135.54593304
 31
0.0
  0
LINE
  5
312
100
AcDbEntity
  8
LAYER0001
  6
CONTINUOUS
 62
       7
100
AcDbLine
 10
21.68454095
 20
167.54593829
 30
0.0
 11
41.6845405
 21
167.54593829
 31
0.0
  0
LINE
  5
313
100
AcDbEntity
  8
LAYER0001
  6
CONTINUOUS
 62
       7
100
AcDbLine
 10
21.68454095
 20
199.54594353
 30
0.0
 11
41.6845405
 21
199.54594353
 31
0.0
  0
LINE
  5
314
100
AcDbEntity
  8
LAYER0001
  6
CONTINUOUS
 62
       7
100
AcDbLine
 10
-135.50831783
 20
231.54594878
 30
0.0
 11
-175.50831693
 21
231.54594878
 31
0.0
  0
LINE
  5
315
100
AcDbEntity
  8
LAYER0001
  6
CONTINUOUS
 62
       7
100
AcDbLine
 10
-155.50831738
 20
71.54593745
 30
0.0
 11
-135.50831783
 21
71.54593745
 31
0.0
  0
LINE
  5
316
100
AcDbEntity
  8
LAYER0001
  6
CONTINUOUS
 62
       7
100
AcDbLine
 10
-155.50831663
 20
102.24593493
 30
0.0
 11
-135.50831857
 21
102.24593493
 31
0.0
  0
LINE
  5
317
100
AcDbEntity
  8
LAYER0001
  6
CONTINUOUS
 62
       7
100
AcDbLine
 10
-155.50831813
 20
134.24594018
 30
0.0
 11
-135.50831708
 21
134.24594018
 31
0.0
  0
LINE
  5
318
100
AcDbEntity
  8
LAYER0001
  6
CONTINUOUS
 62
       7
100
AcDbLine
 10
-155.50831738
 20
103.5459427
 30
0.0
 11
-135.50831783
 21
103.5459427
 31
0.0
  0
LINE
  5
319
100
AcDbEntity
  8
LAYER0001
  6
CONTINUOUS
 62
       7
100
AcDbLine
 10
-155.50831775
 20
166.24593102
 30
0.0
 11
-135.5083182
 21
166.24593102
 31
0.0
  0
LINE
  5
31A
100
AcDbEntity
  8
LAYER0001
  6
CONTINUOUS
 62
       7
100
AcDbLine
 10
-155.50831738
 20
135.54593304
 30
0.0
 11
-135.50831783
 21
135.54593304
 31
0.0
  0
LINE
  5
31B
100
AcDbEntity
  8
LAYER0001
  6
CONTINUOUS
 62
       7
100
AcDbLine
 10
-155.50831738
 20
198.24593643
 30
0.0
 11
-135.50831783
 21
198.24593643
 31
0.0
  0
LINE
  5
31C
100
AcDbEntity
  8
LAYER0001
  6
CONTINUOUS
 62
       7
100
AcDbLine
 10
-155.50831738
 20
167.54593829
 30
0.0
 11
-135.50831783
 21
167.54593829
 31
0.0
  0
LINE
  5
31D
100
AcDbEntity
  8
LAYER0001
  6
CONTINUOUS
 62
       7
100
AcDbLine
 10
-155.50831738
 20
230.24594167
 30
0.0
 11
-135.50831783
 21
230.24594167
 31
0.0
  0
LINE
  5
31E
100
AcDbEntity
  8
LAYER0001
  6
CONTINUOUS
 62
       7
100
AcDbLine
 10
-155.50831738
 20
199.54594353
 30
0.0
 11
-135.50831783
 21
199.54594353
 31
0.0
  0
LINE
  5
31F
100
AcDbEntity
  8
LAYER0001
  6
CONTINUOUS
 62
       7
100
AcDbLine
 10
-135.50831738
 20
70.24593809
 30
0.0
 11
-175.50831738
 21
70.24593809
 31
0.0
  0
LINE
  5
320
100
AcDbEntity
  8
LAYER0001
  6
CONTINUOUS
 62
       7
100
AcDbLine
 10
-175.50831693
 20
71.54593745
 30
0.0
 11
-155.50831738
 21
71.54593745
 31
0.0
  0
LINE
  5
321
100
AcDbEntity
  8
LAYER0001
  6
CONTINUOUS
 62
       7
100
AcDbLine
 10
-175.50831618
 20
102.24593493
 30
0.0
 11
-155.50831663
 21
102.24593493
 31
0.0
  0
LINE
  5
322
100
AcDbEntity
  8
LAYER0001
  6
CONTINUOUS
 62
       7
100
AcDbLine
 10
-175.50831768
 20
134.24594018
 30
0.0
 11
-155.50831813
 21
134.24594018
 31
0.0
  0
LINE
  5
323
100
AcDbEntity
  8
LAYER0001
  6
CONTINUOUS
 62
       7
100
AcDbLine
 10
-175.50831693
 20
103.5459427
 30
0.0
 11
-155.50831738
 21
103.5459427
 31
0.0
  0
LINE
  5
324
100
AcDbEntity
  8
LAYER0001
  6
CONTINUOUS
 62
       7
100
AcDbLine
 10
-175.50831731
 20
166.24593102
 30
0.0
 11
-155.50831775
 21
166.24593102
 31
0.0
  0
LINE
  5
325
100
AcDbEntity
  8
LAYER0001
  6
CONTINUOUS
 62
       7
100
AcDbLine
 10
-175.50831693
 20
135.54593304
 30
0.0
 11
-155.50831738
 21
135.54593304
 31
0.0
  0
LINE
  5
326
100
AcDbEntity
  8
LAYER0001
  6
CONTINUOUS
 62
       7
100
AcDbLine
 10
-175.50831693
 20
198.24593643
 30
0.0
 11
-155.50831738
 21
198.24593643
 31
0.0
  0
LINE
  5
327
100
AcDbEntity
  8
LAYER0001
  6
CONTINUOUS
 62
       7
100
AcDbLine
 10
-175.50831693
 20
167.54593829
 30
0.0
 11
-155.50831738
 21
167.54593829
 31
0.0
  0
LINE
  5
328
100
AcDbEntity
  8
LAYER0001
  6
CONTINUOUS
 62
       7
100
AcDbLine
 10
-175.50831693
 20
230.24594167
 30
0.0
 11
-155.50831738
 21
230.24594167
 31
0.0
  0
LINE
  5
329
100
AcDbEntity
  8
LAYER0001
  6
CONTINUOUS
 62
       7
100
AcDbLine
 10
-175.50831693
 20
199.54594353
 30
0.0
 11
-155.50831738
 21
199.54594353
 31
0.0
  0
ARC
  5
32A
100
AcDbEntity
  8
LAYER0001
  6
CONTINUOUS
 62
       7
100
AcDbCircle
 10
-155.50831738
 20
92.24593831
 30
0.0
 40
149.99999997
100
AcDbArc
 50
82.6738801
 51
97.3261199
  0
ARC
  5
32B
100
AcDbEntity
  8
LAYER0001
  6
CONTINUOUS
 62
       7
100
AcDbCircle
 10
41.6845405
 20
-78.41474938
 30
0.0
 40
150.0
100
AcDbArc
 50
97.66225566
 51
101.223161
  0
ARC
  5
32C
100
AcDbEntity
  8
LAYER0001
  6
CONTINUOUS
 62
       7
100
AcDbCircle
 10
41.6845405
 20
-78.41474938
 30
0.0
 40
150.0
100
AcDbArc
 50
78.776839
 51
82.33774434
  0
ARC
  5
32D
100
AcDbEntity
  8
LAYER0001
  6
CONTINUOUS
 62
       7
100
AcDbCircle
 10
41.68454049
 20
92.24593831
 30
0.0
 40
149.99999997
100
AcDbArc
 50
82.6738801
 51
97.3261199
  0
ARC
  5
32E
100
AcDbEntity
  8
LAYER0001
  6
CONTINUOUS
 62
       7
100
AcDbCircle
 10
70.6845405
 20
67.73585787
 30
0.0
 40
1.0
100
AcDbArc
 50
0.0
 51
78.77683938
  0
ARC
  5
32F
100
AcDbEntity
  8
LAYER0001
  6
CONTINUOUS
 62
       7
100
AcDbCircle
 10
12.6845405
 20
67.73585787
 30
0.0
 40
1.0
100
AcDbArc
 50
101.22316062
 51
180.0
  0
ARC
  5
330
100
AcDbEntity
  8
LAYER0001
  6
CONTINUOUS
 62
       7
100
AcDbCircle
 10
-126.50831738
 20
67.73585787
 30
0.0
 40
1.0
100
AcDbArc
 50
0.0
 51
78.776839
  0
ARC
  5
331
100
AcDbEntity
  8
LAYER0001
  6
CONTINUOUS
 62
       7
100
AcDbCircle
 10
-155.50831738
 20
-78.41474938
 30
0.0
 40
150.0
100
AcDbArc
 50
97.66225566
 51
101.223161
  0
ARC
  5
332
100
AcDbEntity
  8
LAYER0001
  6
CONTINUOUS
 62
       7
100
AcDbCircle
 10
-184.50831738
 20
67.73585787
 30
0.0
 40
1.0
100
AcDbArc
 50
101.22316062
 51
180.0
  0
ARC
  5
333
100
AcDbEntity
  8
LAYER0001
  6
CONTINUOUS
 62
       7
100
AcDbCircle
 10
-155.50831738
 20
-78.41474938
 30
0.0
 40
150.0
100
AcDbArc
 50
78.776839
 51
82.33774434
  0
ARC
  5
334
100
AcDbEntity
  8
LAYER0001
  6
CONTINUOUS
 62
       7
100
AcDbCircle
 10
60.68454049
 20
240.0295639
 30
0.0
 40
1.0
100
AcDbArc
 50
0.0
 51
82.67388057
  0
ARC
  5
335
100
AcDbEntity
  8
LAYER0001
  6
CONTINUOUS
 62
       7
100
AcDbCircle
 10
22.68454049
 20
240.0295639
 30
0.0
 40
1.0
100
AcDbArc
 50
97.32611943
 51
180.0
  0
TEXT
  5
336
100
AcDbEntity
  8
LAYER0003
 62
       7
100
AcDbText
 10
162.60008725
 20
-240.38991191
 30
0.0
 40
17.19791667
  1
000
 72
       5
 11
214.19383726
 21
-240.38991191
 31
0.0
100
AcDbText
  0
TEXT
  5
337
100
AcDbEntity
  8
LAYER0003
 62
       7
100
AcDbText
 10
96.82940533
 20
-103.85230415
 30
0.0
 40
7.9375
  1
Lamp 5 Layers shown
 72
       5
 11
247.64190533
 21
-103.85230415
 31
0.0
100
AcDbText
  0
ENDSEC
  0
SECTION
  2
OBJECTS
  0
DICTIONARY
  5
19
100
AcDbDictionary
  3
ACAD_GROUP
350
1A
  3
ACAD_MLINESTYLE
350
1B
  0
DICTIONARY
  5
1A
102
{ACAD_REACTORS
330
19
102
}
100
AcDbDictionary
  0
DICTIONARY
  5
1B
102
{ACAD_REACTORS
330
19
102
}
100
AcDbDictionary
  3
STANDARD
350
1C
  0
MLINESTYLE
  5
1C
102
{ACAD_REACTORS
330
1B
102
}
100
AcDbMlineStyle
  2
STANDARD
 70
       0
  3

 62
       0
 51
90.0
 52
90.0
 71
       2
 49
0.5
 62
     256
  6
BYLAYER
 49
-0.5
 62
     256
  6
BYLAYER
  0
ENDSEC
  0
EOF
