  0
SECTION
  2
HEADER
  9
$ACADVER
  1
AC1014
  9
$ACADMAINTVER
 70
       0
  9
$DWGCODEPAGE
  3
ANSI_932
  9
$INSBASE
 10
0.0
 20
0.0
 30
0.0
  9
$EXTMIN
 10
-131.39704921
 20
-185.55885633
 30
0.0
  9
$EXTMAX
 10
89.81804918
 20
185.55885633
 30
0.0
  9
$LIMMIN
 10
-138.31002103
 20
-197.15628486
  9
$LIMMAX
 10
96.731021
 20
197.15628486
  9
$ORTHOMODE
 70
       0
  9
$REGENMODE
 70
       1
  9
$FILLMODE
 70
       1
  9
$QTEXTMODE
 70
       0
  9
$MIRRTEXT
 70
       1
  9
$DRAGMODE
 70
       2
  9
$LTSCALE
 40
1.0
  9
$OSMODE
 70
       0
  9
$ATTMODE
 70
       1
  9
$TEXTSIZE
 40
0.2
  9
$TRACEWID
 40
0.05
  9
$TEXTSTYLE
  7
STANDARD
  9
$CLAYER
  8
0
  9
$CELTYPE
  6
CONTINUOUS
  9
$CECOLOR
 62
     256
  9
$CELTSCALE
 40
1.0
  9
$DELOBJ
 70
       1
  9
$DISPSILH
 70
       0
  9
$DIMSCALE
 40
1.0
  9
$DIMASZ
 40
0.18
  9
$DIMEXO
 40
0.0625
  9
$DIMDLI
 40
0.38
  9
$DIMRND
 40
0.0
  9
$DIMDLE
 40
0.0
  9
$DIMEXE
 40
0.18
  9
$DIMTP
 40
0.0
  9
$DIMTM
 40
0.0
  9
$DIMTXT
 40
0.18
  9
$DIMCEN
 40
0.09
  9
$DIMTSZ
 40
0.0
  9
$DIMTOL
 70
       0
  9
$DIMLIM
 70
       0
  9
$DIMTIH
 70
       1
  9
$DIMTOH
 70
       1
  9
$DIMSE1
 70
       0
  9
$DIMSE2
 70
       0
  9
$DIMTAD
 70
       0
  9
$DIMZIN
 70
       0
  9
$DIMBLK
  1

  9
$DIMASO
 70
       1
  9
$DIMSHO
 70
       1
  9
$DIMPOST
  1

  9
$DIMAPOST
  1

  9
$DIMALT
 70
       0
  9
$DIMALTD
 70
       2
  9
$DIMALTF
 40
25.4
  9
$DIMLFAC
 40
1.0
  9
$DIMTOFL
 70
       0
  9
$DIMTVP
 40
0.0
  9
$DIMTIX
 70
       0
  9
$DIMSOXD
 70
       0
  9
$DIMSAH
 70
       0
  9
$DIMBLK1
  1

  9
$DIMBLK2
  1

  9
$DIMSTYLE
  2
STANDARD
  9
$DIMCLRD
 70
       0
  9
$DIMCLRE
 70
       0
  9
$DIMCLRT
 70
       0
  9
$DIMTFAC
 40
1.0
  9
$DIMGAP
 40
0.09
  9
$DIMJUST
 70
       0
  9
$DIMSD1
 70
       0
  9
$DIMSD2
 70
       0
  9
$DIMTOLJ
 70
       1
  9
$DIMTZIN
 70
       0
  9
$DIMALTZ
 70
       0
  9
$DIMALTTZ
 70
       0
  9
$DIMFIT
 70
       3
  9
$DIMUPT
 70
       0
  9
$DIMUNIT
 70
       2
  9
$DIMDEC
 70
       4
  9
$DIMTDEC
 70
       4
  9
$DIMALTU
 70
       2
  9
$DIMALTTD
 70
       2
  9
$DIMTXSTY
  7
STANDARD
  9
$DIMAUNIT
 70
       0
  9
$LUNITS
 70
       2
  9
$LUPREC
 70
       4
  9
$SKETCHINC
 40
0.1
  9
$FILLETRAD
 40
0.0
  9
$AUNITS
 70
       0
  9
$AUPREC
 70
       0
  9
$MENU
  1
acad
  9
$ELEVATION
 40
0.0
  9
$PELEVATION
 40
0.0
  9
$THICKNESS
 40
0.0
  9
$LIMCHECK
 70
       0
  9
$BLIPMODE
 70
       1
  9
$CHAMFERA
 40
0.0
  9
$CHAMFERB
 40
0.0
  9
$CHAMFERC
 40
0.0
  9
$CHAMFERD
 40
0.0
  9
$SKPOLY
 70
       0
  9
$TDCREATE
 40
0.000000000
  9
$TDUPDATE
 40
0.000000000
  9
$TDINDWG
 40
0.0000000000
  9
$TDUSRTIMER
 40
0.0000000000
  9
$USRTIMER
 70
       1
  9
$ANGBASE
 50
0.0
  9
$ANGDIR
 70
       0
  9
$PDMODE
 70
       0
  9
$PDSIZE
 40
1.0
  9
$PLINEWID
 40
0.0
  9
$COORDS
 70
       1
  9
$SPLFRAME
 70
       0
  9
$SPLINETYPE
 70
       6
  9
$SPLINESEGS
 70
       8
  9
$ATTDIA
 70
       0
  9
$ATTREQ
 70
       1
  9
$HANDLING
 70
       1
  9
$HANDSEED
  5
510
  9
$SURFTAB1
 70
       6
  9
$SURFTAB2
 70
       6
  9
$SURFTYPE
 70
       6
  9
$SURFU
 70
       6
  9
$SURFV
 70
       6
  9
$UCSNAME
  2

  9
$UCSORG
 10
0.0
 20
0.0
 30
0.0
  9
$UCSXDIR
 10
1.0
 20
0.0
 30
0.0
  9
$UCSYDIR
 10
0.0
 20
1.0
 30
0.0
  9
$PUCSNAME
  2

  9
$PUCSORG
 10
0.0
 20
0.0
 30
0.0
  9
$PUCSXDIR
 10
1.0
 20
0.0
 30
0.0
  9
$PUCSYDIR
 10
0.0
 20
1.0
 30
0.0
  9
$USERI1
 70
       0
  9
$USERI2
 70
       0
  9
$USERI3
 70
       0
  9
$USERI4
 70
       0
  9
$USERI5
 70
       0
  9
$USERR1
 40
0.0
  9
$USERR2
 40
0.0
  9
$USERR3
 40
0.0
  9
$USERR4
 40
0.0
  9
$USERR5
 40
0.0
  9
$WORLDVIEW
 70
       1
  9
$SHADEDGE
 70
       3
  9
$SHADEDIF
 70
      70
  9
$TILEMODE
 70
       1
  9
$MAXACTVP
 70
      16
  9
$PINSBASE
 10
0.0
 20
0.0
 30
0.0
  9
$PLIMCHECK
 70
       0
  9
$PEXTMIN
 10
1.00000000E+20
 20
1.00000000E+20
 30
1.00000000E+20
  9
$PEXTMAX
 10
-1.00000000E+20
 20
-1.00000000E+20
 30
-1.00000000E+20
  9
$PLIMMIN
 10
0.0
 20
0.0
  9
$PLIMMAX
 10
12.0
 20
9.0
  9
$UNITMODE
 70
       0
  9
$VISRETAIN
 70
       0
  9
$PLINEGEN
 70
       1
  9
$PSLTSCALE
 70
       0
  9
$TREEDEPTH
 70
    3020
  9
$PICKSTYLE
 70
       1
  9
$CMLSTYLE
  2
STANDARD
  9
$CMLJUST
 70
       0
  9
$CMLSCALE
 40
1.0
  9
$PROXYGRAPHICS
 70
       0
  9
$MEASUREMENT
 70
       0
  0
ENDSEC
  0
SECTION
  2
CLASSES
  0
CLASS
  1
LWPOLYLINE
  2
AcDbPolyline
  3
"AutoCAD"
 90
        0
280
       0
281
       1
  0
CLASS
  1
IMAGE
  2
AcDbRasterImage
  3
ISM
 90
      127
280
       0
281
       1
  0
CLASS
  1
OLE2FRAME
  2
AcDbOle2Frame
  3
""
 90
        0
280
       0
281
       1
  0
CLASS
  1
HATCH
  2
AcDbHatch
  3
"ACAD_SEDONA"
 90
        0
280
       0
281
       1
  0
CLASS
  1
DICTIONARYVAR
  2
AcDbDictionaryVar
  3
"AutoCAD"
 90
        0
280
       0
281
       0
  0
CLASS
  1
RASTERVARIABLES
  2
AcDbRasterVariables
  3
ISM
 90
        0
280
       0
281
       0
  0
CLASS
  1
IMAGEDEF
  2
AcDbRasterImageDef
  3
ISM
 90
        0
280
       0
281
       0
  0
CLASS
  1
IMAGEDEF_REACTOR
  2
AcDbRasterImageDefReactor
  3
ISM
 90
        1
280
       0
281
       0
  0
CLASS
  1
IDBUFFER
  2
AcDbIdBuffer
  3
"Acad"
 90
        0
280
       0
281
       0
  0
CLASS
  1
SPATIAL_FILTER
  2
AcDbSpatialFilter
  3
"Acad"
 90
        0
280
       0
281
       0
  0
CLASS
  1
XRECORD
  2
AcDbXrecord
  3
"<Built In>"
 90
        0
280
       0
281
       0
  0
CLASS
  1
SORTENTSTABLE
  2
AcDbSortentsTable
  3
"AutoCAD"
 90
        0
280
       0
281
       0
  0
CLASS
  1
LAYER_INDEX
  2
AcDbLayerIndex
  3
"Acad"
 90
        0
280
       0
281
       0
  0
CLASS
  1
SPATIAL_INDEX
  2
AcDbSpatialIndex
  3
"Acad"
 90
        0
280
       0
281
       0
  0
CLASS
  1
OBJECT_PTR
  2
CAseDLPNTableRecord
  3
"ASE-LPNTableRecord"
 90
        1
280
       0
281
       0
  0
CLASS
  1
LAYOUT
  2
AcDbLayout
  3
"AutoCAD 2000"
 90
        1
280
       0
281
       0
  0
CLASS
  1
PLOTSETTINGS
  2
AcDbPlotSettings
  3
"AutoCAD 2000"
 90
        1
280
       0
281
       0
  0
CLASS
  1
ACDBDICTIONARYWDFLT
  2
AcDbDictionaryWithDefault
  3
"AutoCAD 2000"
 90
        1
280
       0
281
       0
  0
CLASS
  1
ACDBPLACEHOLDER
  2
AcDbPlaceHolder
  3
"AutoCAD 2000"
 90
        1
280
       0
281
       0
  0
CLASS
  1
VBA_PROJECT
  2
AcDbVbaProject
  3
"acadvba"
 90
        1
280
       0
281
       0
  0
CLASS
  1
WIPEOUT
  2
AcDbWipeout
  3
WipeOut|AutoCAD Express Tool|expresstools@autodesk.com
 90
      127
280
       0
281
       1
  0
CLASS
  1
WIPEOUTVARIABLES
  2
AcDbWipeoutVariables
  3
WipeOut|AutoCAD Express Tool|expresstools@autodesk.com
 90
        0
280
       0
281
       0
  0
CLASS
  1
RTEXT
  2
RText
  3
RText|AutoCAD Express Tool|expresstools@autodesk.com
 90
        0
280
       0
281
       1
  0
CLASS
  1
ARCALIGNEDTEXT
  2
AcDbArcAlignedText
  3
ATEXT|AutoCAD Express Tool|expresstools@autodesk.com
 90
        0
280
       0
281
       1
  0
ENDSEC
  0
SECTION
  2
TABLES
  0
TABLE
  2
VPORT
  5
7
100
AcDbSymbolTable
 70
       1
  0
VPORT
  5
15
100
AcDbSymbolTableRecord
100
AcDbViewportTableRecord
  2
*ACTIVE
 70
       0
 10
0.0
 20
0.0
 11
1.0
 21
1.0
 12
-20.78950002
 22
0.0
 13
0.0
 23
0.0
 14
1.0
 24
1.0
 15
0.0
 25
0.0
 16
0.0
 26
0.0
 36
1.0
 17
0.0
 27
0.0
 37
0.0
 40
394.31256971
 41
0.59607799
 42
50.0
 43
0.0
 44
0.0
 50
0.0
 51
0.0
 71
       0
 72
     100
 73
       1
 74
       1
 75
       0
 76
       0
 77
       0
 78
       0
  0
ENDTAB
  0
TABLE
  2
LTYPE
  5
4
100
AcDbSymbolTable
 70
      30
  0
LTYPE
  5
11
100
AcDbSymbolTableRecord
100
AcDbLinetypeTableRecord
  2
BYBLOCK
 70
      64
  3

 72
      65
 73
       0
 40
0.0
  0
LTYPE
  5
12
100
AcDbSymbolTableRecord
100
AcDbLinetypeTableRecord
  2
BYLAYER
 70
      64
  3

 72
      65
 73
       0
 40
0.0
  0
LTYPE
  5
13
100
AcDbSymbolTableRecord
100
AcDbLinetypeTableRecord
  2
CONTINUOUS
 70
      64
  3
Solid line
 72
      65
 73
       0
 40
0.0
  0
LTYPE
  5
1D
100
AcDbSymbolTableRecord
100
AcDbLinetypeTableRecord
  2
HIDDENX2
 70
      64
  3
CADPAC LINETYPE
 72
      65
 73
       2
 40
20.98734651
 49
15.74050988
 74
       0
 49
-5.24683663
 74
       0
  0
LTYPE
  5
1E
100
AcDbSymbolTableRecord
100
AcDbLinetypeTableRecord
  2
HIDDEN
 70
      64
  3
CADPAC LINETYPE
 72
      65
 73
       2
 40
15.74050988
 49
10.49367325
 74
       0
 49
-5.24683663
 74
       0
  0
LTYPE
  5
1F
100
AcDbSymbolTableRecord
100
AcDbLinetypeTableRecord
  2
HIDDEN2
 70
      64
  3
CADPAC LINETYPE
 72
      65
 73
       2
 40
13.11709157
 49
7.87025494
 74
       0
 49
-5.24683663
 74
       0
  0
LTYPE
  5
20
100
AcDbSymbolTableRecord
100
AcDbLinetypeTableRecord
  2
DASHED
 70
      64
  3
CADPAC LINETYPE
 72
      65
 73
       2
 40
15.74050988
 49
10.49367325
 74
       0
 49
-5.24683663
 74
       0
  0
LTYPE
  5
21
100
AcDbSymbolTableRecord
100
AcDbLinetypeTableRecord
  2
DASHED2
 70
      64
  3
CADPAC LINETYPE
 72
      65
 73
       2
 40
11.80538241
 49
7.87025494
 74
       0
 49
-3.93512747
 74
       0
  0
LTYPE
  5
22
100
AcDbSymbolTableRecord
100
AcDbLinetypeTableRecord
  2
DASHEDX2
 70
      64
  3
CADPAC LINETYPE
 72
      65
 73
       2
 40
23.61076482
 49
15.74050988
 74
       0
 49
-7.87025494
 74
       0
  0
LTYPE
  5
23
100
AcDbSymbolTableRecord
100
AcDbLinetypeTableRecord
  2
DOTX2
 70
      64
  3
CADPAC LINETYPE
 72
      65
 73
       2
 40
6.55854578
 49
0.0
 74
       0
 49
-6.55854578
 74
       0
  0
LTYPE
  5
24
100
AcDbSymbolTableRecord
100
AcDbLinetypeTableRecord
  2
DOT
 70
      64
  3
CADPAC LINETYPE
 72
      65
 73
       2
 40
5.24683663
 49
0.0
 74
       0
 49
-5.24683663
 74
       0
  0
LTYPE
  5
25
100
AcDbSymbolTableRecord
100
AcDbLinetypeTableRecord
  2
DOT2
 70
      64
  3
CADPAC LINETYPE
 72
      65
 73
       2
 40
3.93512747
 49
0.0
 74
       0
 49
-3.93512747
 74
       0
  0
LTYPE
  5
26
100
AcDbSymbolTableRecord
100
AcDbLinetypeTableRecord
  2
CENTERX2
 70
      64
  3
CADPAC LINETYPE
 72
      65
 73
       4
 40
31.48101976
 49
13.11709157
 74
       0
 49
-6.55854578
 74
       0
 49
5.24683663
 74
       0
 49
-6.55854578
 74
       0
  0
LTYPE
  5
27
100
AcDbSymbolTableRecord
100
AcDbLinetypeTableRecord
  2
CENTER
 70
      64
  3
CADPAC LINETYPE
 72
      65
 73
       4
 40
24.13544849
 49
10.49367325
 74
       0
 49
-5.24683663
 74
       0
 49
3.14810198
 74
       0
 49
-5.24683663
 74
       0
  0
LTYPE
  5
28
100
AcDbSymbolTableRecord
100
AcDbLinetypeTableRecord
  2
CENTER2
 70
      64
  3
CADPAC LINETYPE
 72
      65
 73
       4
 40
16.78987721
 49
7.87025494
 74
       0
 49
-3.93512747
 74
       0
 49
1.04936733
 74
       0
 49
-3.93512747
 74
       0
  0
LTYPE
  5
29
100
AcDbSymbolTableRecord
100
AcDbLinetypeTableRecord
  2
DASHDOTX2
 70
      64
  3
CADPAC LINETYPE
 72
      65
 73
       4
 40
26.23418314
 49
13.11709157
 74
       0
 49
-6.55854578
 74
       0
 49
0.0
 74
       0
 49
-6.55854578
 74
       0
  0
LTYPE
  5
2A
100
AcDbSymbolTableRecord
100
AcDbLinetypeTableRecord
  2
DASHDOT
 70
      64
  3
CADPAC LINETYPE
 72
      65
 73
       4
 40
20.98734651
 49
10.49367325
 74
       0
 49
-5.24683663
 74
       0
 49
0.0
 74
       0
 49
-5.24683663
 74
       0
  0
LTYPE
  5
2B
100
AcDbSymbolTableRecord
100
AcDbLinetypeTableRecord
  2
DASHDOT2
 70
      64
  3
CADPAC LINETYPE
 72
      65
 73
       4
 40
15.74050988
 49
7.87025494
 74
       0
 49
-3.93512747
 74
       0
 49
0.0
 74
       0
 49
-3.93512747
 74
       0
  0
LTYPE
  5
2C
100
AcDbSymbolTableRecord
100
AcDbLinetypeTableRecord
  2
DIVIDEX2
 70
      64
  3
CADPAC LINETYPE
 72
      65
 73
       6
 40
32.79272892
 49
13.11709157
 74
       0
 49
-6.55854578
 74
       0
 49
0.0
 74
       0
 49
-6.55854578
 74
       0
 49
0.0
 74
       0
 49
-6.55854578
 74
       0
  0
LTYPE
  5
2D
100
AcDbSymbolTableRecord
100
AcDbLinetypeTableRecord
  2
DIVIDE
 70
      64
  3
CADPAC LINETYPE
 72
      65
 73
       6
 40
26.23418314
 49
10.49367325
 74
       0
 49
-5.24683663
 74
       0
 49
0.0
 74
       0
 49
-5.24683663
 74
       0
 49
0.0
 74
       0
 49
-5.24683663
 74
       0
  0
LTYPE
  5
2E
100
AcDbSymbolTableRecord
100
AcDbLinetypeTableRecord
  2
DIVIDE2
 70
      64
  3
CADPAC LINETYPE
 72
      65
 73
       6
 40
19.67563735
 49
7.87025494
 74
       0
 49
-3.93512747
 74
       0
 49
0.0
 74
       0
 49
-3.93512747
 74
       0
 49
0.0
 74
       0
 49
-3.93512747
 74
       0
  0
LTYPE
  5
2F
100
AcDbSymbolTableRecord
100
AcDbLinetypeTableRecord
  2
BORDERX2
 70
      64
  3
CADPAC LINETYPE
 72
      65
 73
       6
 40
45.90982049
 49
13.11709157
 74
       0
 49
-6.55854578
 74
       0
 49
13.11709157
 74
       0
 49
-6.55854578
 74
       0
 49
0.0
 74
       0
 49
-6.55854578
 74
       0
  0
LTYPE
  5
30
100
AcDbSymbolTableRecord
100
AcDbLinetypeTableRecord
  2
BORDER
 70
      64
  3
CADPAC LINETYPE
 72
      65
 73
       6
 40
36.72785639
 49
10.49367325
 74
       0
 49
-5.24683663
 74
       0
 49
10.49367325
 74
       0
 49
-5.24683663
 74
       0
 49
0.0
 74
       0
 49
-5.24683663
 74
       0
  0
LTYPE
  5
31
100
AcDbSymbolTableRecord
100
AcDbLinetypeTableRecord
  2
BORDER2
 70
      64
  3
CADPAC LINETYPE
 72
      65
 73
       6
 40
27.54589229
 49
7.87025494
 74
       0
 49
-3.93512747
 74
       0
 49
7.87025494
 74
       0
 49
-3.93512747
 74
       0
 49
0.0
 74
       0
 49
-3.93512747
 74
       0
  0
LTYPE
  5
32
100
AcDbSymbolTableRecord
100
AcDbLinetypeTableRecord
  2
PHANTOMX2
 70
      64
  3
CADPAC LINETYPE
 72
      65
 73
       6
 40
39.35127471
 49
13.11709157
 74
       0
 49
-5.24683663
 74
       0
 49
5.24683663
 74
       0
 49
-5.24683663
 74
       0
 49
5.24683663
 74
       0
 49
-5.24683663
 74
       0
  0
LTYPE
  5
33
100
AcDbSymbolTableRecord
100
AcDbLinetypeTableRecord
  2
PHANTOM
 70
      64
  3
CADPAC LINETYPE
 72
      65
 73
       6
 40
32.53038709
 49
10.49367325
 74
       0
 49
-5.24683663
 74
       0
 49
3.14810198
 74
       0
 49
-5.24683663
 74
       0
 49
3.14810198
 74
       0
 49
-5.24683663
 74
       0
  0
LTYPE
  5
34
100
AcDbSymbolTableRecord
100
AcDbLinetypeTableRecord
  2
PHANTOM2
 70
      64
  3
CADPAC LINETYPE
 72
      65
 73
       6
 40
27.80823413
 49
7.87025494
 74
       0
 49
-5.24683663
 74
       0
 49
2.09873465
 74
       0
 49
-5.24683663
 74
       0
 49
2.09873465
 74
       0
 49
-5.24683663
 74
       0
  0
LTYPE
  5
35
100
AcDbSymbolTableRecord
100
AcDbLinetypeTableRecord
  2
ACAD_ISO06W100
 70
      64
  3
CADPAC LINETYPE
 72
      65
 73
       8
 40
35.41614723
 49
13.11709157
 74
       0
 49
-6.55854578
 74
       0
 49
0.0
 74
       0
 49
-5.24683663
 74
       0
 49
0.0
 74
       0
 49
-5.24683663
 74
       0
 49
0.0
 74
       0
 49
-5.24683663
 74
       0
  0
LTYPE
  5
36
100
AcDbSymbolTableRecord
100
AcDbLinetypeTableRecord
  2
ACAD_ISO13W100
 70
      64
  3
CADPAC LINETYPE
 72
      65
 73
       8
 40
41.97469302
 49
10.49367325
 74
       0
 49
-5.24683663
 74
       0
 49
10.49367325
 74
       0
 49
-5.24683663
 74
       0
 49
0.0
 74
       0
 49
-5.24683663
 74
       0
 49
0.0
 74
       0
 49
-5.24683663
 74
       0
  0
LTYPE
  5
37
100
AcDbSymbolTableRecord
100
AcDbLinetypeTableRecord
  2
ACAD_ISO14W100
 70
      64
  3
CADPAC LINETYPE
 72
      65
 73
       8
 40
31.48101976
 49
10.49367325
 74
       0
 49
-5.24683663
 74
       0
 49
0.0
 74
       0
 49
-5.24683663
 74
       0
 49
0.0
 74
       0
 49
-5.24683663
 74
       0
 49
0.0
 74
       0
 49
-5.24683663
 74
       0
  0
ENDTAB
  0
TABLE
  2
LAYER
  5
2
100
AcDbSymbolTable
 70
       2
  0
LAYER
  5
14
100
AcDbSymbolTableRecord
100
AcDbLayerTableRecord
  2
0
 70
       0
 62
       7
  6
CONTINUOUS
  0
LAYER
  5
38
100
AcDbSymbolTableRecord
100
AcDbLayerTableRecord
  2
LAYER0001
 70
       0
 62
       7
  6
CONTINUOUS
  0
ENDTAB
  0
TABLE
  2
STYLE
  5
3
100
AcDbSymbolTable
 70
       1
  0
STYLE
  5
17
100
AcDbSymbolTableRecord
100
AcDbTextStyleTableRecord
  2
STANDARD
 70
       0
 40
0.0
 41
1.0
 50
0.0
 71
       0
 42
9.525
  3
txt.shx
  4
bigfont.shx
  0
ENDTAB
  0
TABLE
  2
VIEW
  5
5
100
AcDbSymbolTable
 70
       1
  0
VIEW
  5
39
100
AcDbSymbolTableRecord
100
AcDbViewTableRecord
  2
QQQQ
 70
       0
 40
394.31256971
 10
-20.78950002
 20
0.0
 41
235.04104203
 11
0.0
 21
0.0
 31
1.0
 12
100.0
 22
100.0
 32
0.0
 42
50.0
 43
0.0
 44
0.0
 50
0.0
 71
       0
  0
ENDTAB
  0
TABLE
  2
UCS
  5
6
100
AcDbSymbolTable
 70
       0
  0
ENDTAB
  0
TABLE
  2
APPID
  5
8
100
AcDbSymbolTable
 70
       1
  0
APPID
  5
16
100
AcDbSymbolTableRecord
100
AcDbRegAppTableRecord
  2
ACAD
 70
       0
  0
ENDTAB
  0
TABLE
  2
DIMSTYLE
  5
9
100
AcDbSymbolTable
 70
       1
  0
DIMSTYLE
105
18
100
AcDbSymbolTableRecord
100
AcDbDimStyleTableRecord
  2
STANDARD
 70
       0
  3

  4

  5

  6

  7

 40
1.0
 41
0.18
 42
0.0625
 43
0.38
 44
0.18
 45
0.0
 46
0.0
 47
0.0
 48
0.0
 71
       0
 72
       0
 73
       1
 74
       1
 75
       0
 76
       0
 77
       0
 78
       0
140
0.18
141
0.09
142
0.0
143
25.4
144
1.0
145
0.0
146
1.0
147
0.09
170
       0
171
       2
172
       0
173
       0
174
       0
175
       0
176
       0
177
       0
178
       0
270
       2
271
       4
272
       4
273
       2
274
       2
275
       0
280
       0
281
       0
282
       0
283
       1
284
       0
285
       0
286
       0
287
       0
288
       0
340
17
  0
ENDTAB
  0
TABLE
  2
BLOCK_RECORD
  5
1
100
AcDbSymbolTable
 70
      23
  0
BLOCK_RECORD
  5
A
100
AcDbSymbolTableRecord
100
AcDbBlockTableRecord
  2
*MODEL_SPACE
  0
BLOCK_RECORD
  5
B
100
AcDbSymbolTableRecord
100
AcDbBlockTableRecord
  2
*PAPER_SPACE
  0
BLOCK_RECORD
  5
3A
100
AcDbSymbolTableRecord
100
AcDbBlockTableRecord
  2
GROUP_1
  0
BLOCK_RECORD
  5
3B
100
AcDbSymbolTableRecord
100
AcDbBlockTableRecord
  2
GROUP_2
  0
BLOCK_RECORD
  5
3C
100
AcDbSymbolTableRecord
100
AcDbBlockTableRecord
  2
GROUP_3
  0
BLOCK_RECORD
  5
3D
100
AcDbSymbolTableRecord
100
AcDbBlockTableRecord
  2
GROUP_4
  0
BLOCK_RECORD
  5
3E
100
AcDbSymbolTableRecord
100
AcDbBlockTableRecord
  2
GROUP_5
  0
BLOCK_RECORD
  5
3F
100
AcDbSymbolTableRecord
100
AcDbBlockTableRecord
  2
GROUP_6
  0
BLOCK_RECORD
  5
40
100
AcDbSymbolTableRecord
100
AcDbBlockTableRecord
  2
GROUP_7
  0
BLOCK_RECORD
  5
41
100
AcDbSymbolTableRecord
100
AcDbBlockTableRecord
  2
GROUP_8
  0
BLOCK_RECORD
  5
42
100
AcDbSymbolTableRecord
100
AcDbBlockTableRecord
  2
GROUP_9
  0
BLOCK_RECORD
  5
43
100
AcDbSymbolTableRecord
100
AcDbBlockTableRecord
  2
GROUP_10
  0
BLOCK_RECORD
  5
44
100
AcDbSymbolTableRecord
100
AcDbBlockTableRecord
  2
GROUP_11
  0
BLOCK_RECORD
  5
45
100
AcDbSymbolTableRecord
100
AcDbBlockTableRecord
  2
GROUP_12
  0
BLOCK_RECORD
  5
46
100
AcDbSymbolTableRecord
100
AcDbBlockTableRecord
  2
GROUP_13
  0
BLOCK_RECORD
  5
47
100
AcDbSymbolTableRecord
100
AcDbBlockTableRecord
  2
GROUP_14
  0
BLOCK_RECORD
  5
48
100
AcDbSymbolTableRecord
100
AcDbBlockTableRecord
  2
GROUP_15
  0
BLOCK_RECORD
  5
49
100
AcDbSymbolTableRecord
100
AcDbBlockTableRecord
  2
GROUP_16
  0
BLOCK_RECORD
  5
4A
100
AcDbSymbolTableRecord
100
AcDbBlockTableRecord
  2
GROUP_17
  0
BLOCK_RECORD
  5
4B
100
AcDbSymbolTableRecord
100
AcDbBlockTableRecord
  2
GROUP_18
  0
BLOCK_RECORD
  5
4C
100
AcDbSymbolTableRecord
100
AcDbBlockTableRecord
  2
GROUP_19
  0
BLOCK_RECORD
  5
4D
100
AcDbSymbolTableRecord
100
AcDbBlockTableRecord
  2
GROUP_20
  0
BLOCK_RECORD
  5
4E
100
AcDbSymbolTableRecord
100
AcDbBlockTableRecord
  2
GROUP_21
  0
BLOCK_RECORD
  5
4F
100
AcDbSymbolTableRecord
100
AcDbBlockTableRecord
  2
GROUP_22
  0
BLOCK_RECORD
  5
50
100
AcDbSymbolTableRecord
100
AcDbBlockTableRecord
  2
GROUP_23
  0
ENDTAB
  0
ENDSEC
  0
SECTION
  2
BLOCKS
  0
BLOCK
  5
D
100
AcDbEntity
  8
0
100
AcDbBlockBegin
  2
*MODEL_SPACE
 70
       0
 10
0.0
 20
0.0
 30
0.0
  3
*MODEL_SPACE
  1

  0
ENDBLK
  5
E
100
AcDbEntity
  8
0
100
AcDbBlockEnd
  0
BLOCK
  5
F
100
AcDbEntity
 67
       1
  8
0
100
AcDbBlockBegin
  2
*PAPER_SPACE
 70
       0
 10
0.0
 20
0.0
 30
0.0
  3
*PAPER_SPACE
  1

  0
ENDBLK
  5
10
100
AcDbEntity
 67
       1
  8
0
100
AcDbBlockEnd
  0
BLOCK
  5
51
100
AcDbEntity
  8
0
100
AcDbBlockBegin
  2
GROUP_1
 70
       0
 10
0.0
 20
0.0
 30
0.0
  3
GROUP_1
  1

  0
LINE
  5
52
100
AcDbEntity
  8
LAYER0001
  6
CONTINUOUS
 62
       7
100
AcDbLine
 10
-102.48445772
 20
-87.6490772
 30
0.0
 11
-102.48481741
 21
-87.62649
 31
0.0
  0
LINE
  5
53
100
AcDbEntity
  8
LAYER0001
  6
CONTINUOUS
 62
       7
100
AcDbLine
 10
-102.48481741
 20
-87.62649
 30
0.0
 11
-102.48518899
 21
-87.60392134
 31
0.0
  0
LINE
  5
54
100
AcDbEntity
  8
LAYER0001
  6
CONTINUOUS
 62
       7
100
AcDbLine
 10
-102.48518899
 20
-87.60392134
 30
0.0
 11
-102.48558439
 21
-87.58138978
 31
0.0
  0
LINE
  5
55
100
AcDbEntity
  8
LAYER0001
  6
CONTINUOUS
 62
       7
100
AcDbLine
 10
-102.48558439
 20
-87.58138978
 30
0.0
 11
-102.4860155
 21
-87.55891386
 31
0.0
  0
LINE
  5
56
100
AcDbEntity
  8
LAYER0001
  6
CONTINUOUS
 62
       7
100
AcDbLine
 10
-102.4860155
 20
-87.55891386
 30
0.0
 11
-102.48649423
 21
-87.53651212
 31
0.0
  0
LINE
  5
57
100
AcDbEntity
  8
LAYER0001
  6
CONTINUOUS
 62
       7
100
AcDbLine
 10
-102.48649423
 20
-87.53651212
 30
0.0
 11
-102.48703248
 21
-87.51420313
 31
0.0
  0
LINE
  5
58
100
AcDbEntity
  8
LAYER0001
  6
CONTINUOUS
 62
       7
100
AcDbLine
 10
-102.48703248
 20
-87.51420313
 30
0.0
 11
-102.48764216
 21
-87.49200541
 31
0.0
  0
LINE
  5
59
100
AcDbEntity
  8
LAYER0001
  6
CONTINUOUS
 62
       7
100
AcDbLine
 10
-102.48764216
 20
-87.49200541
 30
0.0
 11
-102.48833517
 21
-87.46993753
 31
0.0
  0
LINE
  5
5A
100
AcDbEntity
  8
LAYER0001
  6
CONTINUOUS
 62
       7
100
AcDbLine
 10
-102.48833517
 20
-87.46993753
 30
0.0
 11
-102.48912342
 21
-87.44801802
 31
0.0
  0
LINE
  5
5B
100
AcDbEntity
  8
LAYER0001
  6
CONTINUOUS
 62
       7
100
AcDbLine
 10
-102.48912342
 20
-87.44801802
 30
0.0
 11
-102.49001881
 21
-87.42626544
 31
0.0
  0
LINE
  5
5C
100
AcDbEntity
  8
LAYER0001
  6
CONTINUOUS
 62
       7
100
AcDbLine
 10
-102.49001881
 20
-87.42626544
 30
0.0
 11
-102.49103324
 21
-87.40469833
 31
0.0
  0
LINE
  5
5D
100
AcDbEntity
  8
LAYER0001
  6
CONTINUOUS
 62
       7
100
AcDbLine
 10
-102.49103324
 20
-87.40469833
 30
0.0
 11
-102.49217863
 21
-87.38333524
 31
0.0
  0
LINE
  5
5E
100
AcDbEntity
  8
LAYER0001
  6
CONTINUOUS
 62
       7
100
AcDbLine
 10
-102.49217863
 20
-87.38333524
 30
0.0
 11
-102.4934642
 21
-87.36219429
 31
0.0
  0
LINE
  5
5F
100
AcDbEntity
  8
LAYER0001
  6
CONTINUOUS
 62
       7
100
AcDbLine
 10
-102.4934642
 20
-87.36219429
 30
0.0
 11
-102.49488532
 21
-87.34129139
 31
0.0
  0
LINE
  5
60
100
AcDbEntity
  8
LAYER0001
  6
CONTINUOUS
 62
       7
100
AcDbLine
 10
-102.49488532
 20
-87.34129139
 30
0.0
 11
-102.49643287
 21
-87.32064174
 31
0.0
  0
LINE
  5
61
100
AcDbEntity
  8
LAYER0001
  6
CONTINUOUS
 62
       7
100
AcDbLine
 10
-102.49643287
 20
-87.32064174
 30
0.0
 11
-102.49809772
 21
-87.30026053
 31
0.0
  0
LINE
  5
62
100
AcDbEntity
  8
LAYER0001
  6
CONTINUOUS
 62
       7
100
AcDbLine
 10
-102.49809772
 20
-87.30026053
 30
0.0
 11
-102.49987076
 21
-87.28016295
 31
0.0
  0
LINE
  5
63
100
AcDbEntity
  8
LAYER0001
  6
CONTINUOUS
 62
       7
100
AcDbLine
 10
-102.49987076
 20
-87.28016295
 30
0.0
 11
-102.50174286
 21
-87.26036421
 31
0.0
  0
LINE
  5
64
100
AcDbEntity
  8
LAYER0001
  6
CONTINUOUS
 62
       7
100
AcDbLine
 10
-102.50174286
 20
-87.26036421
 30
0.0
 11
-102.50370489
 21
-87.2408795
 31
0.0
  0
LINE
  5
65
100
AcDbEntity
  8
LAYER0001
  6
CONTINUOUS
 62
       7
100
AcDbLine
 10
-102.50370489
 20
-87.2408795
 30
0.0
 11
-102.50574774
 21
-87.22172401
 31
0.0
  0
LINE
  5
66
100
AcDbEntity
  8
LAYER0001
  6
CONTINUOUS
 62
       7
100
AcDbLine
 10
-102.50574774
 20
-87.22172401
 30
0.0
 11
-102.50786228
 21
-87.20291295
 31
0.0
  0
LINE
  5
67
100
AcDbEntity
  8
LAYER0001
  6
CONTINUOUS
 62
       7
100
AcDbLine
 10
-102.50786228
 20
-87.20291295
 30
0.0
 11
-102.51003938
 21
-87.18446149
 31
0.0
  0
LINE
  5
68
100
AcDbEntity
  8
LAYER0001
  6
CONTINUOUS
 62
       7
100
AcDbLine
 10
-102.51003938
 20
-87.18446149
 30
0.0
 11
-102.51226993
 21
-87.16638485
 31
0.0
  0
LINE
  5
69
100
AcDbEntity
  8
LAYER0001
  6
CONTINUOUS
 62
       7
100
AcDbLine
 10
-102.51226993
 20
-87.16638485
 30
0.0
 11
-102.5145448
 21
-87.14869821
 31
0.0
  0
LINE
  5
6A
100
AcDbEntity
  8
LAYER0001
  6
CONTINUOUS
 62
       7
100
AcDbLine
 10
-102.5145448
 20
-87.14869821
 30
0.0
 11
-102.51685487
 21
-87.13141677
 31
0.0
  0
LINE
  5
6B
100
AcDbEntity
  8
LAYER0001
  6
CONTINUOUS
 62
       7
100
AcDbLine
 10
-102.51685487
 20
-87.13141677
 30
0.0
 11
-102.51919131
 21
-87.11455531
 31
0.0
  0
LINE
  5
6C
100
AcDbEntity
  8
LAYER0001
  6
CONTINUOUS
 62
       7
100
AcDbLine
 10
-102.51919131
 20
-87.11455531
 30
0.0
 11
-102.52154771
 21
-87.09812515
 31
0.0
  0
LINE
  5
6D
100
AcDbEntity
  8
LAYER0001
  6
CONTINUOUS
 62
       7
100
AcDbLine
 10
-102.52154771
 20
-87.09812515
 30
0.0
 11
-102.52391882
 21
-87.08213595
 31
0.0
  0
LINE
  5
6E
100
AcDbEntity
  8
LAYER0001
  6
CONTINUOUS
 62
       7
100
AcDbLine
 10
-102.52391882
 20
-87.08213595
 30
0.0
 11
-102.52629943
 21
-87.06659734
 31
0.0
  0
LINE
  5
6F
100
AcDbEntity
  8
LAYER0001
  6
CONTINUOUS
 62
       7
100
AcDbLine
 10
-102.52629943
 20
-87.06659734
 30
0.0
 11
-102.5286843
 21
-87.05151896
 31
0.0
  0
LINE
  5
70
100
AcDbEntity
  8
LAYER0001
  6
CONTINUOUS
 62
       7
100
AcDbLine
 10
-102.5286843
 20
-87.05151896
 30
0.0
 11
-102.53106822
 21
-87.03691045
 31
0.0
  0
LINE
  5
71
100
AcDbEntity
  8
LAYER0001
  6
CONTINUOUS
 62
       7
100
AcDbLine
 10
-102.53106822
 20
-87.03691045
 30
0.0
 11
-102.53344594
 21
-87.02278144
 31
0.0
  0
LINE
  5
72
100
AcDbEntity
  8
LAYER0001
  6
CONTINUOUS
 62
       7
100
AcDbLine
 10
-102.53344594
 20
-87.02278144
 30
0.0
 11
-102.53581225
 21
-87.00914158
 31
0.0
  0
LINE
  5
73
100
AcDbEntity
  8
LAYER0001
  6
CONTINUOUS
 62
       7
100
AcDbLine
 10
-102.53581225
 20
-87.00914158
 30
0.0
 11
-102.53816191
 21
-86.99600051
 31
0.0
  0
LINE
  5
74
100
AcDbEntity
  8
LAYER0001
  6
CONTINUOUS
 62
       7
100
AcDbLine
 10
-102.53816191
 20
-86.99600051
 30
0.0
 11
-102.5404897
 21
-86.98336786
 31
0.0
  0
LINE
  5
75
100
AcDbEntity
  8
LAYER0001
  6
CONTINUOUS
 62
       7
100
AcDbLine
 10
-102.5404897
 20
-86.98336786
 30
0.0
 11
-102.54279039
 21
-86.97125326
 31
0.0
  0
LINE
  5
76
100
AcDbEntity
  8
LAYER0001
  6
CONTINUOUS
 62
       7
100
AcDbLine
 10
-102.54279039
 20
-86.97125326
 30
0.0
 11
-102.54505875
 21
-86.95966636
 31
0.0
  0
LINE
  5
77
100
AcDbEntity
  8
LAYER0001
  6
CONTINUOUS
 62
       7
100
AcDbLine
 10
-102.54505875
 20
-86.95966636
 30
0.0
 11
-102.54728956
 21
-86.9486168
 31
0.0
  0
LINE
  5
78
100
AcDbEntity
  8
LAYER0001
  6
CONTINUOUS
 62
       7
100
AcDbLine
 10
-102.54728956
 20
-86.9486168
 30
0.0
 11
-102.54948099
 21
-86.93810503
 31
0.0
  0
LINE
  5
79
100
AcDbEntity
  8
LAYER0001
  6
CONTINUOUS
 62
       7
100
AcDbLine
 10
-102.54948099
 20
-86.93810503
 30
0.0
 11
-102.55166942
 21
-86.92802842
 31
0.0
  0
LINE
  5
7A
100
AcDbEntity
  8
LAYER0001
  6
CONTINUOUS
 62
       7
100
AcDbLine
 10
-102.55166942
 20
-86.92802842
 30
0.0
 11
-102.55391529
 21
-86.9182195
 31
0.0
  0
LINE
  5
7B
100
AcDbEntity
  8
LAYER0001
  6
CONTINUOUS
 62
       7
100
AcDbLine
 10
-102.55391529
 20
-86.9182195
 30
0.0
 11
-102.55627937
 21
-86.90850982
 31
0.0
  0
LINE
  5
7C
100
AcDbEntity
  8
LAYER0001
  6
CONTINUOUS
 62
       7
100
AcDbLine
 10
-102.55627937
 20
-86.90850982
 30
0.0
 11
-102.55882246
 21
-86.89873089
 31
0.0
  0
LINE
  5
7D
100
AcDbEntity
  8
LAYER0001
  6
CONTINUOUS
 62
       7
100
AcDbLine
 10
-102.55882246
 20
-86.89873089
 30
0.0
 11
-102.56160534
 21
-86.88871427
 31
0.0
  0
LINE
  5
7E
100
AcDbEntity
  8
LAYER0001
  6
CONTINUOUS
 62
       7
100
AcDbLine
 10
-102.56160534
 20
-86.88871427
 30
0.0
 11
-102.56468881
 21
-86.87829148
 31
0.0
  0
LINE
  5
7F
100
AcDbEntity
  8
LAYER0001
  6
CONTINUOUS
 62
       7
100
AcDbLine
 10
-102.56468881
 20
-86.87829148
 30
0.0
 11
-102.56813708
 21
-86.8672923
 31
0.0
  0
LINE
  5
80
100
AcDbEntity
  8
LAYER0001
  6
CONTINUOUS
 62
       7
100
AcDbLine
 10
-102.56813708
 20
-86.8672923
 30
0.0
 11
-102.57215556
 21
-86.85547398
 31
0.0
  0
LINE
  5
81
100
AcDbEntity
  8
LAYER0001
  6
CONTINUOUS
 62
       7
100
AcDbLine
 10
-102.57215556
 20
-86.85547398
 30
0.0
 11
-102.57713784
 21
-86.84249712
 31
0.0
  0
LINE
  5
82
100
AcDbEntity
  8
LAYER0001
  6
CONTINUOUS
 62
       7
100
AcDbLine
 10
-102.57713784
 20
-86.84249712
 30
0.0
 11
-102.58349054
 21
-86.82801579
 31
0.0
  0
LINE
  5
83
100
AcDbEntity
  8
LAYER0001
  6
CONTINUOUS
 62
       7
100
AcDbLine
 10
-102.58349054
 20
-86.82801579
 30
0.0
 11
-102.59152071
 21
-86.81191898
 31
0.0
  0
LINE
  5
84
100
AcDbEntity
  8
LAYER0001
  6
CONTINUOUS
 62
       7
100
AcDbLine
 10
-102.59152071
 20
-86.81191898
 30
0.0
 11
-102.60123551
 21
-86.79480375
 31
0.0
  0
LINE
  5
85
100
AcDbEntity
  8
LAYER0001
  6
CONTINUOUS
 62
       7
100
AcDbLine
 10
-102.60123551
 20
-86.79480375
 30
0.0
 11
-102.61258583
 21
-86.7773999
 31
0.0
  0
LINE
  5
86
100
AcDbEntity
  8
LAYER0001
  6
CONTINUOUS
 62
       7
100
AcDbLine
 10
-102.61258583
 20
-86.7773999
 30
0.0
 11
-102.62550339
 21
-86.76033741
 31
0.0
  0
LINE
  5
87
100
AcDbEntity
  8
LAYER0001
  6
CONTINUOUS
 62
       7
100
AcDbLine
 10
-102.62550339
 20
-86.76033741
 30
0.0
 11
-102.63986424
 21
-86.74395601
 31
0.0
  0
LINE
  5
88
100
AcDbEntity
  8
LAYER0001
  6
CONTINUOUS
 62
       7
100
AcDbLine
 10
-102.63986424
 20
-86.74395601
 30
0.0
 11
-102.65553438
 21
-86.72854295
 31
0.0
  0
LINE
  5
89
100
AcDbEntity
  8
LAYER0001
  6
CONTINUOUS
 62
       7
100
AcDbLine
 10
-102.65553438
 20
-86.72854295
 30
0.0
 11
-102.67238119
 21
-86.71437232
 31
0.0
  0
LINE
  5
8A
100
AcDbEntity
  8
LAYER0001
  6
CONTINUOUS
 62
       7
100
AcDbLine
 10
-102.67238119
 20
-86.71437232
 30
0.0
 11
-102.6902949
 21
-86.7015031
 31
0.0
  0
LINE
  5
8B
100
AcDbEntity
  8
LAYER0001
  6
CONTINUOUS
 62
       7
100
AcDbLine
 10
-102.6902949
 20
-86.7015031
 30
0.0
 11
-102.70918438
 21
-86.68981887
 31
0.0
  0
LINE
  5
8C
100
AcDbEntity
  8
LAYER0001
  6
CONTINUOUS
 62
       7
100
AcDbLine
 10
-102.70918438
 20
-86.68981887
 30
0.0
 11
-102.72895902
 21
-86.67919815
 31
0.0
  0
LINE
  5
8D
100
AcDbEntity
  8
LAYER0001
  6
CONTINUOUS
 62
       7
100
AcDbLine
 10
-102.72895902
 20
-86.67919815
 30
0.0
 11
-102.74952666
 21
-86.66953399
 31
0.0
  0
LINE
  5
8E
100
AcDbEntity
  8
LAYER0001
  6
CONTINUOUS
 62
       7
100
AcDbLine
 10
-102.74952666
 20
-86.66953399
 30
0.0
 11
-102.77075625
 21
-86.66108332
 31
0.0
  0
LINE
  5
8F
100
AcDbEntity
  8
LAYER0001
  6
CONTINUOUS
 62
       7
100
AcDbLine
 10
-102.77075625
 20
-86.66108332
 30
0.0
 11
-102.79247606
 21
-86.65448321
 31
0.0
  0
LINE
  5
90
100
AcDbEntity
  8
LAYER0001
  6
CONTINUOUS
 62
       7
100
AcDbLine
 10
-102.79247606
 20
-86.65448321
 30
0.0
 11
-102.81451247
 21
-86.6503886
 31
0.0
  0
LINE
  5
91
100
AcDbEntity
  8
LAYER0001
  6
CONTINUOUS
 62
       7
100
AcDbLine
 10
-102.81451247
 20
-86.6503886
 30
0.0
 11
-102.83669185
 21
-86.64945442
 31
0.0
  0
LINE
  5
92
100
AcDbEntity
  8
LAYER0001
  6
CONTINUOUS
 62
       7
100
AcDbLine
 10
-102.83669185
 20
-86.64945442
 30
0.0
 11
-102.85886098
 21
-86.6518887
 31
0.0
  0
ENDBLK
  5
93
100
AcDbEntity
  8
0
100
AcDbBlockEnd
  0
BLOCK
  5
94
100
AcDbEntity
  8
0
100
AcDbBlockBegin
  2
GROUP_2
 70
       0
 10
0.0
 20
0.0
 30
0.0
  3
GROUP_2
  1

  0
LINE
  5
95
100
AcDbEntity
  8
LAYER0001
  6
CONTINUOUS
 62
       7
100
AcDbLine
 10
-104.46885095
 20
-86.65333038
 30
0.0
 11
-104.48891777
 21
-86.65435304
 31
0.0
  0
LINE
  5
96
100
AcDbEntity
  8
LAYER0001
  6
CONTINUOUS
 62
       7
100
AcDbLine
 10
-104.48891777
 20
-86.65435304
 30
0.0
 11
-104.50886481
 21
-86.65590955
 31
0.0
  0
LINE
  5
97
100
AcDbEntity
  8
LAYER0001
  6
CONTINUOUS
 62
       7
100
AcDbLine
 10
-104.50886481
 20
-86.65590955
 30
0.0
 11
-104.5285723
 21
-86.65853378
 31
0.0
  0
LINE
  5
98
100
AcDbEntity
  8
LAYER0001
  6
CONTINUOUS
 62
       7
100
AcDbLine
 10
-104.5285723
 20
-86.65853378
 30
0.0
 11
-104.54792053
 21
-86.66275854
 31
0.0
  0
LINE
  5
99
100
AcDbEntity
  8
LAYER0001
  6
CONTINUOUS
 62
       7
100
AcDbLine
 10
-104.54792053
 20
-86.66275854
 30
0.0
 11
-104.56680523
 21
-86.66888979
 31
0.0
  0
LINE
  5
9A
100
AcDbEntity
  8
LAYER0001
  6
CONTINUOUS
 62
       7
100
AcDbLine
 10
-104.56680523
 20
-86.66888979
 30
0.0
 11
-104.58515672
 21
-86.67672458
 31
0.0
  0
LINE
  5
9B
100
AcDbEntity
  8
LAYER0001
  6
CONTINUOUS
 62
       7
100
AcDbLine
 10
-104.58515672
 20
-86.67672458
 30
0.0
 11
-104.60291005
 21
-86.68599066
 31
0.0
  0
LINE
  5
9C
100
AcDbEntity
  8
LAYER0001
  6
CONTINUOUS
 62
       7
100
AcDbLine
 10
-104.60291005
 20
-86.68599066
 30
0.0
 11
-104.62000027
 21
-86.69641577
 31
0.0
  0
LINE
  5
9D
100
AcDbEntity
  8
LAYER0001
  6
CONTINUOUS
 62
       7
100
AcDbLine
 10
-104.62000027
 20
-86.69641577
 30
0.0
 11
-104.63636042
 21
-86.7077631
 31
0.0
  0
LINE
  5
9E
100
AcDbEntity
  8
LAYER0001
  6
CONTINUOUS
 62
       7
100
AcDbLine
 10
-104.63636042
 20
-86.7077631
 30
0.0
 11
-104.65191343
 21
-86.71997294
 31
0.0
  0
LINE
  5
9F
100
AcDbEntity
  8
LAYER0001
  6
CONTINUOUS
 62
       7
100
AcDbLine
 10
-104.65191343
 20
-86.71997294
 30
0.0
 11
-104.66657911
 21
-86.7330408
 31
0.0
  0
LINE
  5
A0
100
AcDbEntity
  8
LAYER0001
  6
CONTINUOUS
 62
       7
100
AcDbLine
 10
-104.66657911
 20
-86.7330408
 30
0.0
 11
-104.68027721
 21
-86.74696107
 31
0.0
  0
LINE
  5
A1
100
AcDbEntity
  8
LAYER0001
  6
CONTINUOUS
 62
       7
100
AcDbLine
 10
-104.68027721
 20
-86.74696107
 30
0.0
 11
-104.69292262
 21
-86.76163672
 31
0.0
  0
LINE
  5
A2
100
AcDbEntity
  8
LAYER0001
  6
CONTINUOUS
 62
       7
100
AcDbLine
 10
-104.69292262
 20
-86.76163672
 30
0.0
 11
-104.70442206
 21
-86.77681504
 31
0.0
  0
LINE
  5
A3
100
AcDbEntity
  8
LAYER0001
  6
CONTINUOUS
 62
       7
100
AcDbLine
 10
-104.70442206
 20
-86.77681504
 30
0.0
 11
-104.71468149
 21
-86.79222781
 31
0.0
  0
LINE
  5
A4
100
AcDbEntity
  8
LAYER0001
  6
CONTINUOUS
 62
       7
100
AcDbLine
 10
-104.71468149
 20
-86.79222781
 30
0.0
 11
-104.72362636
 21
-86.80753878
 31
0.0
  0
LINE
  5
A5
100
AcDbEntity
  8
LAYER0001
  6
CONTINUOUS
 62
       7
100
AcDbLine
 10
-104.72362636
 20
-86.80753878
 30
0.0
 11
-104.73122544
 21
-86.82226
 31
0.0
  0
LINE
  5
A6
100
AcDbEntity
  8
LAYER0001
  6
CONTINUOUS
 62
       7
100
AcDbLine
 10
-104.73122544
 20
-86.82226
 30
0.0
 11
-104.73746792
 21
-86.8359095
 31
0.0
  0
LINE
  5
A7
100
AcDbEntity
  8
LAYER0001
  6
CONTINUOUS
 62
       7
100
AcDbLine
 10
-104.73746792
 20
-86.8359095
 30
0.0
 11
-104.74251179
 21
-86.84831096
 31
0.0
  0
LINE
  5
A8
100
AcDbEntity
  8
LAYER0001
  6
CONTINUOUS
 62
       7
100
AcDbLine
 10
-104.74251179
 20
-86.84831096
 30
0.0
 11
-104.7466224
 21
-86.85949022
 31
0.0
  0
LINE
  5
A9
100
AcDbEntity
  8
LAYER0001
  6
CONTINUOUS
 62
       7
100
AcDbLine
 10
-104.7466224
 20
-86.85949022
 30
0.0
 11
-104.75003685
 21
-86.86962176
 31
0.0
  0
LINE
  5
AA
100
AcDbEntity
  8
LAYER0001
  6
CONTINUOUS
 62
       7
100
AcDbLine
 10
-104.75003685
 20
-86.86962176
 30
0.0
 11
-104.75296006
 21
-86.87903568
 31
0.0
  0
LINE
  5
AB
100
AcDbEntity
  8
LAYER0001
  6
CONTINUOUS
 62
       7
100
AcDbLine
 10
-104.75296006
 20
-86.87903568
 30
0.0
 11
-104.7555893
 21
-86.88806096
 31
0.0
  0
LINE
  5
AC
100
AcDbEntity
  8
LAYER0001
  6
CONTINUOUS
 62
       7
100
AcDbLine
 10
-104.7555893
 20
-86.88806096
 30
0.0
 11
-104.75803089
 21
-86.89689632
 31
0.0
  0
LINE
  5
AD
100
AcDbEntity
  8
LAYER0001
  6
CONTINUOUS
 62
       7
100
AcDbLine
 10
-104.75803089
 20
-86.89689632
 30
0.0
 11
-104.7603212
 21
-86.90564034
 31
0.0
  0
LINE
  5
AE
100
AcDbEntity
  8
LAYER0001
  6
CONTINUOUS
 62
       7
100
AcDbLine
 10
-104.7603212
 20
-86.90564034
 30
0.0
 11
-104.76249484
 21
-86.91438904
 31
0.0
  0
LINE
  5
AF
100
AcDbEntity
  8
LAYER0001
  6
CONTINUOUS
 62
       7
100
AcDbLine
 10
-104.76249484
 20
-86.91438904
 30
0.0
 11
-104.76458639
 21
-86.92323842
 31
0.0
  0
LINE
  5
B0
100
AcDbEntity
  8
LAYER0001
  6
CONTINUOUS
 62
       7
100
AcDbLine
 10
-104.76458639
 20
-86.92323842
 30
0.0
 11
-104.76663045
 21
-86.9322845
 31
0.0
  0
LINE
  5
B1
100
AcDbEntity
  8
LAYER0001
  6
CONTINUOUS
 62
       7
100
AcDbLine
 10
-104.76663045
 20
-86.9322845
 30
0.0
 11
-104.76866161
 21
-86.94162328
 31
0.0
  0
LINE
  5
B2
100
AcDbEntity
  8
LAYER0001
  6
CONTINUOUS
 62
       7
100
AcDbLine
 10
-104.76866161
 20
-86.94162328
 30
0.0
 11
-104.77070904
 21
-86.9513366
 31
0.0
  0
LINE
  5
B3
100
AcDbEntity
  8
LAYER0001
  6
CONTINUOUS
 62
       7
100
AcDbLine
 10
-104.77070904
 20
-86.9513366
 30
0.0
 11
-104.77277667
 21
-86.96144044
 31
0.0
  0
LINE
  5
B4
100
AcDbEntity
  8
LAYER0001
  6
CONTINUOUS
 62
       7
100
AcDbLine
 10
-104.77277667
 20
-86.96144044
 30
0.0
 11
-104.77486114
 21
-86.97193164
 31
0.0
  0
LINE
  5
B5
100
AcDbEntity
  8
LAYER0001
  6
CONTINUOUS
 62
       7
100
AcDbLine
 10
-104.77486114
 20
-86.97193164
 30
0.0
 11
-104.77695904
 21
-86.98280707
 31
0.0
  0
LINE
  5
B6
100
AcDbEntity
  8
LAYER0001
  6
CONTINUOUS
 62
       7
100
AcDbLine
 10
-104.77695904
 20
-86.98280707
 30
0.0
 11
-104.77906701
 21
-86.99406359
 31
0.0
  0
LINE
  5
B7
100
AcDbEntity
  8
LAYER0001
  6
CONTINUOUS
 62
       7
100
AcDbLine
 10
-104.77906701
 20
-86.99406359
 30
0.0
 11
-104.78118166
 21
-87.00569805
 31
0.0
  0
LINE
  5
B8
100
AcDbEntity
  8
LAYER0001
  6
CONTINUOUS
 62
       7
100
AcDbLine
 10
-104.78118166
 20
-87.00569805
 30
0.0
 11
-104.7832996
 21
-87.01770731
 31
0.0
  0
LINE
  5
B9
100
AcDbEntity
  8
LAYER0001
  6
CONTINUOUS
 62
       7
100
AcDbLine
 10
-104.7832996
 20
-87.01770731
 30
0.0
 11
-104.78541746
 21
-87.03008823
 31
0.0
  0
LINE
  5
BA
100
AcDbEntity
  8
LAYER0001
  6
CONTINUOUS
 62
       7
100
AcDbLine
 10
-104.78541746
 20
-87.03008823
 30
0.0
 11
-104.78753186
 21
-87.04283766
 31
0.0
  0
LINE
  5
BB
100
AcDbEntity
  8
LAYER0001
  6
CONTINUOUS
 62
       7
100
AcDbLine
 10
-104.78753186
 20
-87.04283766
 30
0.0
 11
-104.78963941
 21
-87.05595246
 31
0.0
  0
LINE
  5
BC
100
AcDbEntity
  8
LAYER0001
  6
CONTINUOUS
 62
       7
100
AcDbLine
 10
-104.78963941
 20
-87.05595246
 30
0.0
 11
-104.79173673
 21
-87.06942949
 31
0.0
  0
LINE
  5
BD
100
AcDbEntity
  8
LAYER0001
  6
CONTINUOUS
 62
       7
100
AcDbLine
 10
-104.79173673
 20
-87.06942949
 30
0.0
 11
-104.79382044
 21
-87.0832656
 31
0.0
  0
LINE
  5
BE
100
AcDbEntity
  8
LAYER0001
  6
CONTINUOUS
 62
       7
100
AcDbLine
 10
-104.79382044
 20
-87.0832656
 30
0.0
 11
-104.79588715
 21
-87.09745766
 31
0.0
  0
LINE
  5
BF
100
AcDbEntity
  8
LAYER0001
  6
CONTINUOUS
 62
       7
100
AcDbLine
 10
-104.79588715
 20
-87.09745766
 30
0.0
 11
-104.7979335
 21
-87.11200251
 31
0.0
  0
LINE
  5
C0
100
AcDbEntity
  8
LAYER0001
  6
CONTINUOUS
 62
       7
100
AcDbLine
 10
-104.7979335
 20
-87.11200251
 30
0.0
 11
-104.79995608
 21
-87.12689702
 31
0.0
  0
LINE
  5
C1
100
AcDbEntity
  8
LAYER0001
  6
CONTINUOUS
 62
       7
100
AcDbLine
 10
-104.79995608
 20
-87.12689702
 30
0.0
 11
-104.8019516
 21
-87.1421371
 31
0.0
  0
LINE
  5
C2
100
AcDbEntity
  8
LAYER0001
  6
CONTINUOUS
 62
       7
100
AcDbLine
 10
-104.8019516
 20
-87.1421371
 30
0.0
 11
-104.80391715
 21
-87.15771347
 31
0.0
  0
LINE
  5
C3
100
AcDbEntity
  8
LAYER0001
  6
CONTINUOUS
 62
       7
100
AcDbLine
 10
-104.80391715
 20
-87.15771347
 30
0.0
 11
-104.80584994
 21
-87.17361514
 31
0.0
  0
LINE
  5
C4
100
AcDbEntity
  8
LAYER0001
  6
CONTINUOUS
 62
       7
100
AcDbLine
 10
-104.80584994
 20
-87.17361514
 30
0.0
 11
-104.80774721
 21
-87.18983109
 31
0.0
  0
LINE
  5
C5
100
AcDbEntity
  8
LAYER0001
  6
CONTINUOUS
 62
       7
100
AcDbLine
 10
-104.80774721
 20
-87.18983109
 30
0.0
 11
-104.80960617
 21
-87.20635032
 31
0.0
  0
LINE
  5
C6
100
AcDbEntity
  8
LAYER0001
  6
CONTINUOUS
 62
       7
100
AcDbLine
 10
-104.80960617
 20
-87.20635032
 30
0.0
 11
-104.81142406
 21
-87.22316181
 31
0.0
  0
LINE
  5
C7
100
AcDbEntity
  8
LAYER0001
  6
CONTINUOUS
 62
       7
100
AcDbLine
 10
-104.81142406
 20
-87.22316181
 30
0.0
 11
-104.81319809
 21
-87.24025456
 31
0.0
  0
LINE
  5
C8
100
AcDbEntity
  8
LAYER0001
  6
CONTINUOUS
 62
       7
100
AcDbLine
 10
-104.81319809
 20
-87.24025456
 30
0.0
 11
-104.81492549
 21
-87.25761756
 31
0.0
  0
LINE
  5
C9
100
AcDbEntity
  8
LAYER0001
  6
CONTINUOUS
 62
       7
100
AcDbLine
 10
-104.81492549
 20
-87.25761756
 30
0.0
 11
-104.81660349
 21
-87.27523979
 31
0.0
  0
LINE
  5
CA
100
AcDbEntity
  8
LAYER0001
  6
CONTINUOUS
 62
       7
100
AcDbLine
 10
-104.81660349
 20
-87.27523979
 30
0.0
 11
-104.8182293
 21
-87.29311025
 31
0.0
  0
LINE
  5
CB
100
AcDbEntity
  8
LAYER0001
  6
CONTINUOUS
 62
       7
100
AcDbLine
 10
-104.8182293
 20
-87.29311025
 30
0.0
 11
-104.81980016
 21
-87.31121793
 31
0.0
  0
LINE
  5
CC
100
AcDbEntity
  8
LAYER0001
  6
CONTINUOUS
 62
       7
100
AcDbLine
 10
-104.81980016
 20
-87.31121793
 30
0.0
 11
-104.82131329
 21
-87.32955182
 31
0.0
  0
LINE
  5
CD
100
AcDbEntity
  8
LAYER0001
  6
CONTINUOUS
 62
       7
100
AcDbLine
 10
-104.82131329
 20
-87.32955182
 30
0.0
 11
-104.82276591
 21
-87.3481009
 31
0.0
  0
LINE
  5
CE
100
AcDbEntity
  8
LAYER0001
  6
CONTINUOUS
 62
       7
100
AcDbLine
 10
-104.82276591
 20
-87.3481009
 30
0.0
 11
-104.82415524
 21
-87.36685418
 31
0.0
  0
LINE
  5
CF
100
AcDbEntity
  8
LAYER0001
  6
CONTINUOUS
 62
       7
100
AcDbLine
 10
-104.82415524
 20
-87.36685418
 30
0.0
 11
-104.82547823
 21
-87.38580012
 31
0.0
  0
LINE
  5
D0
100
AcDbEntity
  8
LAYER0001
  6
CONTINUOUS
 62
       7
100
AcDbLine
 10
-104.82547823
 20
-87.38580012
 30
0.0
 11
-104.82672989
 21
-87.4049238
 31
0.0
  0
LINE
  5
D1
100
AcDbEntity
  8
LAYER0001
  6
CONTINUOUS
 62
       7
100
AcDbLine
 10
-104.82672989
 20
-87.4049238
 30
0.0
 11
-104.82790449
 21
-87.42420895
 31
0.0
  0
LINE
  5
D2
100
AcDbEntity
  8
LAYER0001
  6
CONTINUOUS
 62
       7
100
AcDbLine
 10
-104.82790449
 20
-87.42420895
 30
0.0
 11
-104.82899629
 21
-87.44363928
 31
0.0
  0
LINE
  5
D3
100
AcDbEntity
  8
LAYER0001
  6
CONTINUOUS
 62
       7
100
AcDbLine
 10
-104.82899629
 20
-87.44363928
 30
0.0
 11
-104.82999956
 21
-87.46319852
 31
0.0
  0
LINE
  5
D4
100
AcDbEntity
  8
LAYER0001
  6
CONTINUOUS
 62
       7
100
AcDbLine
 10
-104.82999956
 20
-87.46319852
 30
0.0
 11
-104.83090856
 21
-87.4828704
 31
0.0
  0
LINE
  5
D5
100
AcDbEntity
  8
LAYER0001
  6
CONTINUOUS
 62
       7
100
AcDbLine
 10
-104.83090856
 20
-87.4828704
 30
0.0
 11
-104.83171755
 21
-87.50263862
 31
0.0
  0
LINE
  5
D6
100
AcDbEntity
  8
LAYER0001
  6
CONTINUOUS
 62
       7
100
AcDbLine
 10
-104.83171755
 20
-87.50263862
 30
0.0
 11
-104.83242079
 21
-87.52248691
 31
0.0
  0
LINE
  5
D7
100
AcDbEntity
  8
LAYER0001
  6
CONTINUOUS
 62
       7
100
AcDbLine
 10
-104.83242079
 20
-87.52248691
 30
0.0
 11
-104.83301254
 21
-87.542399
 31
0.0
  0
LINE
  5
D8
100
AcDbEntity
  8
LAYER0001
  6
CONTINUOUS
 62
       7
100
AcDbLine
 10
-104.83301254
 20
-87.542399
 30
0.0
 11
-104.83348708
 21
-87.56235859
 31
0.0
  0
LINE
  5
D9
100
AcDbEntity
  8
LAYER0001
  6
CONTINUOUS
 62
       7
100
AcDbLine
 10
-104.83348708
 20
-87.56235859
 30
0.0
 11
-104.83383866
 21
-87.58234943
 31
0.0
  0
LINE
  5
DA
100
AcDbEntity
  8
LAYER0001
  6
CONTINUOUS
 62
       7
100
AcDbLine
 10
-104.83383866
 20
-87.58234943
 30
0.0
 11
-104.83406154
 21
-87.60235521
 31
0.0
  0
LINE
  5
DB
100
AcDbEntity
  8
LAYER0001
  6
CONTINUOUS
 62
       7
100
AcDbLine
 10
-104.83406154
 20
-87.60235521
 30
0.0
 11
-104.83414998
 21
-87.62235968
 31
0.0
  0
LINE
  5
DC
100
AcDbEntity
  8
LAYER0001
  6
CONTINUOUS
 62
       7
100
AcDbLine
 10
-104.83414998
 20
-87.62235968
 30
0.0
 11
-104.83409826
 21
-87.64234654
 31
0.0
  0
LINE
  5
DD
100
AcDbEntity
  8
LAYER0001
  6
CONTINUOUS
 62
       7
100
AcDbLine
 10
-104.83409826
 20
-87.64234654
 30
0.0
 11
-104.83390063
 21
-87.66229951
 31
0.0
  0
LINE
  5
DE
100
AcDbEntity
  8
LAYER0001
  6
CONTINUOUS
 62
       7
100
AcDbLine
 10
-104.83390063
 20
-87.66229951
 30
0.0
 11
-104.83356105
 21
-87.68220725
 31
0.0
  0
LINE
  5
DF
100
AcDbEntity
  8
LAYER0001
  6
CONTINUOUS
 62
       7
100
AcDbLine
 10
-104.83356105
 20
-87.68220725
 30
0.0
 11
-104.83314022
 21
-87.70208715
 31
0.0
  0
ENDBLK
  5
E0
100
AcDbEntity
  8
0
100
AcDbBlockEnd
  0
BLOCK
  5
E1
100
AcDbEntity
  8
0
100
AcDbBlockBegin
  2
GROUP_3
 70
       0
 10
0.0
 20
0.0
 30
0.0
  3
GROUP_3
  1

  0
LINE
  5
E2
100
AcDbEntity
  8
LAYER0001
  6
CONTINUOUS
 62
       7
100
AcDbLine
 10
-102.84946382
 20
-92.94524046
 30
0.0
 11
-102.82938294
 21
-92.94422616
 31
0.0
  0
LINE
  5
E3
100
AcDbEntity
  8
LAYER0001
  6
CONTINUOUS
 62
       7
100
AcDbLine
 10
-102.82938294
 20
-92.94422616
 30
0.0
 11
-102.80941993
 21
-92.94268647
 31
0.0
  0
LINE
  5
E4
100
AcDbEntity
  8
LAYER0001
  6
CONTINUOUS
 62
       7
100
AcDbLine
 10
-102.80941993
 20
-92.94268647
 30
0.0
 11
-102.78969266
 21
-92.94009603
 31
0.0
  0
LINE
  5
E5
100
AcDbEntity
  8
LAYER0001
  6
CONTINUOUS
 62
       7
100
AcDbLine
 10
-102.78969266
 20
-92.94009603
 30
0.0
 11
-102.77031899
 21
-92.93592995
 31
0.0
  0
LINE
  5
E6
100
AcDbEntity
  8
LAYER0001
  6
CONTINUOUS
 62
       7
100
AcDbLine
 10
-102.77031899
 20
-92.93592995
 30
0.0
 11
-102.75140353
 21
-92.92986548
 31
0.0
  0
LINE
  5
E7
100
AcDbEntity
  8
LAYER0001
  6
CONTINUOUS
 62
       7
100
AcDbLine
 10
-102.75140353
 20
-92.92986548
 30
0.0
 11
-102.73301739
 21
-92.92209189
 31
0.0
  0
LINE
  5
E8
100
AcDbEntity
  8
LAYER0001
  6
CONTINUOUS
 62
       7
100
AcDbLine
 10
-102.73301739
 20
-92.92209189
 30
0.0
 11
-102.71522647
 21
-92.91287823
 31
0.0
  0
LINE
  5
E9
100
AcDbEntity
  8
LAYER0001
  6
CONTINUOUS
 62
       7
100
AcDbLine
 10
-102.71522647
 20
-92.91287823
 30
0.0
 11
-102.69809665
 21
-92.90249357
 31
0.0
  0
LINE
  5
EA
100
AcDbEntity
  8
LAYER0001
  6
CONTINUOUS
 62
       7
100
AcDbLine
 10
-102.69809665
 20
-92.90249357
 30
0.0
 11
-102.68169548
 21
-92.89117651
 31
0.0
  0
LINE
  5
EB
100
AcDbEntity
  8
LAYER0001
  6
CONTINUOUS
 62
       7
100
AcDbLine
 10
-102.68169548
 20
-92.89117651
 30
0.0
 11
-102.66609976
 21
-92.87899328
 31
0.0
  0
LINE
  5
EC
100
AcDbEntity
  8
LAYER0001
  6
CONTINUOUS
 62
       7
100
AcDbLine
 10
-102.66609976
 20
-92.87899328
 30
0.0
 11
-102.65138953
 21
-92.86594968
 31
0.0
  0
LINE
  5
ED
100
AcDbEntity
  8
LAYER0001
  6
CONTINUOUS
 62
       7
100
AcDbLine
 10
-102.65138953
 20
-92.86594968
 30
0.0
 11
-102.63764489
 21
-92.85205219
 31
0.0
  0
LINE
  5
EE
100
AcDbEntity
  8
LAYER0001
  6
CONTINUOUS
 62
       7
100
AcDbLine
 10
-102.63764489
 20
-92.85205219
 30
0.0
 11
-102.62495055
 21
-92.83739167
 31
0.0
  0
LINE
  5
EF
100
AcDbEntity
  8
LAYER0001
  6
CONTINUOUS
 62
       7
100
AcDbLine
 10
-102.62495055
 20
-92.83739167
 30
0.0
 11
-102.61339996
 21
-92.82221837
 31
0.0
  0
LINE
  5
F0
100
AcDbEntity
  8
LAYER0001
  6
CONTINUOUS
 62
       7
100
AcDbLine
 10
-102.61339996
 20
-92.82221837
 30
0.0
 11
-102.60308744
 21
-92.80680039
 31
0.0
  0
LINE
  5
F1
100
AcDbEntity
  8
LAYER0001
  6
CONTINUOUS
 62
       7
100
AcDbLine
 10
-102.60308744
 20
-92.80680039
 30
0.0
 11
-102.59408941
 21
-92.79146867
 31
0.0
  0
LINE
  5
F2
100
AcDbEntity
  8
LAYER0001
  6
CONTINUOUS
 62
       7
100
AcDbLine
 10
-102.59408941
 20
-92.79146867
 30
0.0
 11
-102.58643795
 21
-92.7767091
 31
0.0
  0
LINE
  5
F3
100
AcDbEntity
  8
LAYER0001
  6
CONTINUOUS
 62
       7
100
AcDbLine
 10
-102.58643795
 20
-92.7767091
 30
0.0
 11
-102.58014601
 21
-92.76300854
 31
0.0
  0
LINE
  5
F4
100
AcDbEntity
  8
LAYER0001
  6
CONTINUOUS
 62
       7
100
AcDbLine
 10
-102.58014601
 20
-92.76300854
 30
0.0
 11
-102.5750627
 21
-92.75055719
 31
0.0
  0
LINE
  5
F5
100
AcDbEntity
  8
LAYER0001
  6
CONTINUOUS
 62
       7
100
AcDbLine
 10
-102.5750627
 20
-92.75055719
 30
0.0
 11
-102.57092257
 21
-92.73933161
 31
0.0
  0
LINE
  5
F6
100
AcDbEntity
  8
LAYER0001
  6
CONTINUOUS
 62
       7
100
AcDbLine
 10
-102.57092257
 20
-92.73933161
 30
0.0
 11
-102.56748646
 21
-92.7291649
 31
0.0
  0
LINE
  5
F7
100
AcDbEntity
  8
LAYER0001
  6
CONTINUOUS
 62
       7
100
AcDbLine
 10
-102.56748646
 20
-92.7291649
 30
0.0
 11
-102.56454878
 21
-92.71972776
 31
0.0
  0
LINE
  5
F8
100
AcDbEntity
  8
LAYER0001
  6
CONTINUOUS
 62
       7
100
AcDbLine
 10
-102.56454878
 20
-92.71972776
 30
0.0
 11
-102.56191101
 21
-92.71068914
 31
0.0
  0
LINE
  5
F9
100
AcDbEntity
  8
LAYER0001
  6
CONTINUOUS
 62
       7
100
AcDbLine
 10
-102.56191101
 20
-92.71068914
 30
0.0
 11
-102.55946269
 21
-92.70184419
 31
0.0
  0
LINE
  5
FA
100
AcDbEntity
  8
LAYER0001
  6
CONTINUOUS
 62
       7
100
AcDbLine
 10
-102.55946269
 20
-92.70184419
 30
0.0
 11
-102.55716691
 21
-92.69309353
 31
0.0
  0
LINE
  5
FB
100
AcDbEntity
  8
LAYER0001
  6
CONTINUOUS
 62
       7
100
AcDbLine
 10
-102.55716691
 20
-92.69309353
 30
0.0
 11
-102.55498899
 21
-92.684341
 31
0.0
  0
LINE
  5
FC
100
AcDbEntity
  8
LAYER0001
  6
CONTINUOUS
 62
       7
100
AcDbLine
 10
-102.55498899
 20
-92.684341
 30
0.0
 11
-102.55289429
 21
-92.67549044
 31
0.0
  0
LINE
  5
FD
100
AcDbEntity
  8
LAYER0001
  6
CONTINUOUS
 62
       7
100
AcDbLine
 10
-102.55289429
 20
-92.67549044
 30
0.0
 11
-102.55084814
 21
-92.66644571
 31
0.0
  0
LINE
  5
FE
100
AcDbEntity
  8
LAYER0001
  6
CONTINUOUS
 62
       7
100
AcDbLine
 10
-102.55084814
 20
-92.66644571
 30
0.0
 11
-102.54881588
 21
-92.65711064
 31
0.0
  0
LINE
  5
FF
100
AcDbEntity
  8
LAYER0001
  6
CONTINUOUS
 62
       7
100
AcDbLine
 10
-102.54881588
 20
-92.65711064
 30
0.0
 11
-102.54676784
 21
-92.64740208
 31
0.0
  0
LINE
  5
100
100
AcDbEntity
  8
LAYER0001
  6
CONTINUOUS
 62
       7
100
AcDbLine
 10
-102.54676784
 20
-92.64740208
 30
0.0
 11
-102.54469947
 21
-92.63730248
 31
0.0
  0
LINE
  5
101
100
AcDbEntity
  8
LAYER0001
  6
CONTINUOUS
 62
       7
100
AcDbLine
 10
-102.54469947
 20
-92.63730248
 30
0.0
 11
-102.54261416
 21
-92.626815
 31
0.0
  0
LINE
  5
102
100
AcDbEntity
  8
LAYER0001
  6
CONTINUOUS
 62
       7
100
AcDbLine
 10
-102.54261416
 20
-92.626815
 30
0.0
 11
-102.5405153
 21
-92.61594276
 31
0.0
  0
LINE
  5
103
100
AcDbEntity
  8
LAYER0001
  6
CONTINUOUS
 62
       7
100
AcDbLine
 10
-102.5405153
 20
-92.61594276
 30
0.0
 11
-102.53840628
 21
-92.60468892
 31
0.0
  0
LINE
  5
104
100
AcDbEntity
  8
LAYER0001
  6
CONTINUOUS
 62
       7
100
AcDbLine
 10
-102.53840628
 20
-92.60468892
 30
0.0
 11
-102.53629048
 21
-92.59305663
 31
0.0
  0
LINE
  5
105
100
AcDbEntity
  8
LAYER0001
  6
CONTINUOUS
 62
       7
100
AcDbLine
 10
-102.53629048
 20
-92.59305663
 30
0.0
 11
-102.5341713
 21
-92.58104903
 31
0.0
  0
LINE
  5
106
100
AcDbEntity
  8
LAYER0001
  6
CONTINUOUS
 62
       7
100
AcDbLine
 10
-102.5341713
 20
-92.58104903
 30
0.0
 11
-102.53205212
 21
-92.56866927
 31
0.0
  0
LINE
  5
107
100
AcDbEntity
  8
LAYER0001
  6
CONTINUOUS
 62
       7
100
AcDbLine
 10
-102.53205212
 20
-92.56866927
 30
0.0
 11
-102.52993633
 21
-92.55592048
 31
0.0
  0
LINE
  5
108
100
AcDbEntity
  8
LAYER0001
  6
CONTINUOUS
 62
       7
100
AcDbLine
 10
-102.52993633
 20
-92.55592048
 30
0.0
 11
-102.52782733
 21
-92.54280583
 31
0.0
  0
LINE
  5
109
100
AcDbEntity
  8
LAYER0001
  6
CONTINUOUS
 62
       7
100
AcDbLine
 10
-102.52782733
 20
-92.54280583
 30
0.0
 11
-102.52572849
 21
-92.52932845
 31
0.0
  0
LINE
  5
10A
100
AcDbEntity
  8
LAYER0001
  6
CONTINUOUS
 62
       7
100
AcDbLine
 10
-102.52572849
 20
-92.52932845
 30
0.0
 11
-102.5236432
 21
-92.51549149
 31
0.0
  0
LINE
  5
10B
100
AcDbEntity
  8
LAYER0001
  6
CONTINUOUS
 62
       7
100
AcDbLine
 10
-102.5236432
 20
-92.51549149
 30
0.0
 11
-102.52157486
 21
-92.50129809
 31
0.0
  0
LINE
  5
10C
100
AcDbEntity
  8
LAYER0001
  6
CONTINUOUS
 62
       7
100
AcDbLine
 10
-102.52157486
 20
-92.50129809
 30
0.0
 11
-102.51952685
 21
-92.48675141
 31
0.0
  0
LINE
  5
10D
100
AcDbEntity
  8
LAYER0001
  6
CONTINUOUS
 62
       7
100
AcDbLine
 10
-102.51952685
 20
-92.48675141
 30
0.0
 11
-102.51750256
 21
-92.47185458
 31
0.0
  0
LINE
  5
10E
100
AcDbEntity
  8
LAYER0001
  6
CONTINUOUS
 62
       7
100
AcDbLine
 10
-102.51750256
 20
-92.47185458
 30
0.0
 11
-102.51550531
 21
-92.45661166
 31
0.0
  0
LINE
  5
10F
100
AcDbEntity
  8
LAYER0001
  6
CONTINUOUS
 62
       7
100
AcDbLine
 10
-102.51550531
 20
-92.45661166
 30
0.0
 11
-102.51353803
 21
-92.44103182
 31
0.0
  0
LINE
  5
110
100
AcDbEntity
  8
LAYER0001
  6
CONTINUOUS
 62
       7
100
AcDbLine
 10
-102.51353803
 20
-92.44103182
 30
0.0
 11
-102.51160348
 21
-92.42512609
 31
0.0
  0
LINE
  5
111
100
AcDbEntity
  8
LAYER0001
  6
CONTINUOUS
 62
       7
100
AcDbLine
 10
-102.51160348
 20
-92.42512609
 30
0.0
 11
-102.50970446
 21
-92.40890551
 31
0.0
  0
LINE
  5
112
100
AcDbEntity
  8
LAYER0001
  6
CONTINUOUS
 62
       7
100
AcDbLine
 10
-102.50970446
 20
-92.40890551
 30
0.0
 11
-102.50784375
 21
-92.39238111
 31
0.0
  0
LINE
  5
113
100
AcDbEntity
  8
LAYER0001
  6
CONTINUOUS
 62
       7
100
AcDbLine
 10
-102.50784375
 20
-92.39238111
 30
0.0
 11
-102.50602412
 21
-92.37556391
 31
0.0
  0
LINE
  5
114
100
AcDbEntity
  8
LAYER0001
  6
CONTINUOUS
 62
       7
100
AcDbLine
 10
-102.50602412
 20
-92.37556391
 30
0.0
 11
-102.50424835
 21
-92.35846495
 31
0.0
  0
LINE
  5
115
100
AcDbEntity
  8
LAYER0001
  6
CONTINUOUS
 62
       7
100
AcDbLine
 10
-102.50424835
 20
-92.35846495
 30
0.0
 11
-102.50251923
 21
-92.34109526
 31
0.0
  0
LINE
  5
116
100
AcDbEntity
  8
LAYER0001
  6
CONTINUOUS
 62
       7
100
AcDbLine
 10
-102.50251923
 20
-92.34109526
 30
0.0
 11
-102.50083953
 21
-92.32346586
 31
0.0
  0
LINE
  5
117
100
AcDbEntity
  8
LAYER0001
  6
CONTINUOUS
 62
       7
100
AcDbLine
 10
-102.50083953
 20
-92.32346586
 30
0.0
 11
-102.49921205
 21
-92.30558778
 31
0.0
  0
LINE
  5
118
100
AcDbEntity
  8
LAYER0001
  6
CONTINUOUS
 62
       7
100
AcDbLine
 10
-102.49921205
 20
-92.30558778
 30
0.0
 11
-102.49763955
 21
-92.28747206
 31
0.0
  0
LINE
  5
119
100
AcDbEntity
  8
LAYER0001
  6
CONTINUOUS
 62
       7
100
AcDbLine
 10
-102.49763955
 20
-92.28747206
 30
0.0
 11
-102.49612481
 21
-92.26912973
 31
0.0
  0
LINE
  5
11A
100
AcDbEntity
  8
LAYER0001
  6
CONTINUOUS
 62
       7
100
AcDbLine
 10
-102.49612481
 20
-92.26912973
 30
0.0
 11
-102.49467063
 21
-92.25057181
 31
0.0
  0
LINE
  5
11B
100
AcDbEntity
  8
LAYER0001
  6
CONTINUOUS
 62
       7
100
AcDbLine
 10
-102.49467063
 20
-92.25057181
 30
0.0
 11
-102.49327978
 21
-92.23180934
 31
0.0
  0
LINE
  5
11C
100
AcDbEntity
  8
LAYER0001
  6
CONTINUOUS
 62
       7
100
AcDbLine
 10
-102.49327978
 20
-92.23180934
 30
0.0
 11
-102.49195531
 21
-92.21285384
 31
0.0
  0
LINE
  5
11D
100
AcDbEntity
  8
LAYER0001
  6
CONTINUOUS
 62
       7
100
AcDbLine
 10
-102.49195531
 20
-92.21285384
 30
0.0
 11
-102.49070221
 21
-92.19372024
 31
0.0
  0
LINE
  5
11E
100
AcDbEntity
  8
LAYER0001
  6
CONTINUOUS
 62
       7
100
AcDbLine
 10
-102.49070221
 20
-92.19372024
 30
0.0
 11
-102.4895262
 21
-92.17442483
 31
0.0
  0
LINE
  5
11F
100
AcDbEntity
  8
LAYER0001
  6
CONTINUOUS
 62
       7
100
AcDbLine
 10
-102.4895262
 20
-92.17442483
 30
0.0
 11
-102.48843304
 21
-92.15498392
 31
0.0
  0
LINE
  5
120
100
AcDbEntity
  8
LAYER0001
  6
CONTINUOUS
 62
       7
100
AcDbLine
 10
-102.48843304
 20
-92.15498392
 30
0.0
 11
-102.48742847
 21
-92.13541382
 31
0.0
  0
LINE
  5
121
100
AcDbEntity
  8
LAYER0001
  6
CONTINUOUS
 62
       7
100
AcDbLine
 10
-102.48742847
 20
-92.13541382
 30
0.0
 11
-102.48651825
 21
-92.11573084
 31
0.0
  0
LINE
  5
122
100
AcDbEntity
  8
LAYER0001
  6
CONTINUOUS
 62
       7
100
AcDbLine
 10
-102.48651825
 20
-92.11573084
 30
0.0
 11
-102.48570813
 21
-92.09595128
 31
0.0
  0
LINE
  5
123
100
AcDbEntity
  8
LAYER0001
  6
CONTINUOUS
 62
       7
100
AcDbLine
 10
-102.48570813
 20
-92.09595128
 30
0.0
 11
-102.48500384
 21
-92.07609146
 31
0.0
  0
LINE
  5
124
100
AcDbEntity
  8
LAYER0001
  6
CONTINUOUS
 62
       7
100
AcDbLine
 10
-102.48500384
 20
-92.07609146
 30
0.0
 11
-102.48441114
 21
-92.05616768
 31
0.0
  0
LINE
  5
125
100
AcDbEntity
  8
LAYER0001
  6
CONTINUOUS
 62
       7
100
AcDbLine
 10
-102.48441114
 20
-92.05616768
 30
0.0
 11
-102.48393577
 21
-92.03619626
 31
0.0
  0
LINE
  5
126
100
AcDbEntity
  8
LAYER0001
  6
CONTINUOUS
 62
       7
100
AcDbLine
 10
-102.48393577
 20
-92.03619626
 30
0.0
 11
-102.48358349
 21
-92.01619349
 31
0.0
  0
LINE
  5
127
100
AcDbEntity
  8
LAYER0001
  6
CONTINUOUS
 62
       7
100
AcDbLine
 10
-102.48358349
 20
-92.01619349
 30
0.0
 11
-102.48336004
 21
-91.99617569
 31
0.0
  0
LINE
  5
128
100
AcDbEntity
  8
LAYER0001
  6
CONTINUOUS
 62
       7
100
AcDbLine
 10
-102.48336004
 20
-91.99617569
 30
0.0
 11
-102.48327116
 21
-91.97615917
 31
0.0
  0
LINE
  5
129
100
AcDbEntity
  8
LAYER0001
  6
CONTINUOUS
 62
       7
100
AcDbLine
 10
-102.48327116
 20
-91.97615917
 30
0.0
 11
-102.48332262
 21
-91.95616024
 31
0.0
  0
LINE
  5
12A
100
AcDbEntity
  8
LAYER0001
  6
CONTINUOUS
 62
       7
100
AcDbLine
 10
-102.48332262
 20
-91.95616024
 30
0.0
 11
-102.48352015
 21
-91.9361952
 31
0.0
  0
LINE
  5
12B
100
AcDbEntity
  8
LAYER0001
  6
CONTINUOUS
 62
       7
100
AcDbLine
 10
-102.48352015
 20
-91.9361952
 30
0.0
 11
-102.48385982
 21
-91.91627545
 31
0.0
  0
LINE
  5
12C
100
AcDbEntity
  8
LAYER0001
  6
CONTINUOUS
 62
       7
100
AcDbLine
 10
-102.48385982
 20
-91.91627545
 30
0.0
 11
-102.48428089
 21
-91.89638358
 31
0.0
  0
ENDBLK
  5
12D
100
AcDbEntity
  8
0
100
AcDbBlockEnd
  0
BLOCK
  5
12E
100
AcDbEntity
  8
0
100
AcDbBlockBegin
  2
GROUP_4
 70
       0
 10
0.0
 20
0.0
 30
0.0
  3
GROUP_4
  1

  0
LINE
  5
12F
100
AcDbEntity
  8
LAYER0001
  6
CONTINUOUS
 62
       7
100
AcDbLine
 10
-104.83296792
 20
-91.94923707
 30
0.0
 11
-104.83260829
 21
-91.97182684
 31
0.0
  0
LINE
  5
130
100
AcDbEntity
  8
LAYER0001
  6
CONTINUOUS
 62
       7
100
AcDbLine
 10
-104.83260829
 20
-91.97182684
 30
0.0
 11
-104.83223676
 21
-91.99439808
 31
0.0
  0
LINE
  5
131
100
AcDbEntity
  8
LAYER0001
  6
CONTINUOUS
 62
       7
100
AcDbLine
 10
-104.83223676
 20
-91.99439808
 30
0.0
 11
-104.83184143
 21
-92.01693225
 31
0.0
  0
LINE
  5
132
100
AcDbEntity
  8
LAYER0001
  6
CONTINUOUS
 62
       7
100
AcDbLine
 10
-104.83184143
 20
-92.01693225
 30
0.0
 11
-104.83141041
 21
-92.03941081
 31
0.0
  0
LINE
  5
133
100
AcDbEntity
  8
LAYER0001
  6
CONTINUOUS
 62
       7
100
AcDbLine
 10
-104.83141041
 20
-92.03941081
 30
0.0
 11
-104.83093179
 21
-92.06181522
 31
0.0
  0
LINE
  5
134
100
AcDbEntity
  8
LAYER0001
  6
CONTINUOUS
 62
       7
100
AcDbLine
 10
-104.83093179
 20
-92.06181522
 30
0.0
 11
-104.83039369
 21
-92.08412695
 31
0.0
  0
LINE
  5
135
100
AcDbEntity
  8
LAYER0001
  6
CONTINUOUS
 62
       7
100
AcDbLine
 10
-104.83039369
 20
-92.08412695
 30
0.0
 11
-104.8297842
 21
-92.10632746
 31
0.0
  0
LINE
  5
136
100
AcDbEntity
  8
LAYER0001
  6
CONTINUOUS
 62
       7
100
AcDbLine
 10
-104.8297842
 20
-92.10632746
 30
0.0
 11
-104.82909142
 21
-92.12839821
 31
0.0
  0
LINE
  5
137
100
AcDbEntity
  8
LAYER0001
  6
CONTINUOUS
 62
       7
100
AcDbLine
 10
-104.82909142
 20
-92.12839821
 30
0.0
 11
-104.82830346
 21
-92.15032068
 31
0.0
  0
LINE
  5
138
100
AcDbEntity
  8
LAYER0001
  6
CONTINUOUS
 62
       7
100
AcDbLine
 10
-104.82830346
 20
-92.15032068
 30
0.0
 11
-104.82740842
 21
-92.17207631
 31
0.0
  0
LINE
  5
139
100
AcDbEntity
  8
LAYER0001
  6
CONTINUOUS
 62
       7
100
AcDbLine
 10
-104.82740842
 20
-92.17207631
 30
0.0
 11
-104.8263944
 21
-92.19364658
 31
0.0
  0
LINE
  5
13A
100
AcDbEntity
  8
LAYER0001
  6
CONTINUOUS
 62
       7
100
AcDbLine
 10
-104.8263944
 20
-92.19364658
 30
0.0
 11
-104.8252495
 21
-92.21501294
 31
0.0
  0
LINE
  5
13B
100
AcDbEntity
  8
LAYER0001
  6
CONTINUOUS
 62
       7
100
AcDbLine
 10
-104.8252495
 20
-92.21501294
 30
0.0
 11
-104.82396445
 21
-92.23615728
 31
0.0
  0
LINE
  5
13C
100
AcDbEntity
  8
LAYER0001
  6
CONTINUOUS
 62
       7
100
AcDbLine
 10
-104.82396445
 20
-92.23615728
 30
0.0
 11
-104.8225438
 21
-92.25706367
 31
0.0
  0
LINE
  5
13D
100
AcDbEntity
  8
LAYER0001
  6
CONTINUOUS
 62
       7
100
AcDbLine
 10
-104.8225438
 20
-92.25706367
 30
0.0
 11
-104.82099668
 21
-92.2777169
 31
0.0
  0
LINE
  5
13E
100
AcDbEntity
  8
LAYER0001
  6
CONTINUOUS
 62
       7
100
AcDbLine
 10
-104.82099668
 20
-92.2777169
 30
0.0
 11
-104.81933221
 21
-92.29810176
 31
0.0
  0
LINE
  5
13F
100
AcDbEntity
  8
LAYER0001
  6
CONTINUOUS
 62
       7
100
AcDbLine
 10
-104.81933221
 20
-92.29810176
 30
0.0
 11
-104.81755952
 21
-92.31820304
 31
0.0
  0
LINE
  5
140
100
AcDbEntity
  8
LAYER0001
  6
CONTINUOUS
 62
       7
100
AcDbLine
 10
-104.81755952
 20
-92.31820304
 30
0.0
 11
-104.81568771
 21
-92.33800554
 31
0.0
  0
LINE
  5
141
100
AcDbEntity
  8
LAYER0001
  6
CONTINUOUS
 62
       7
100
AcDbLine
 10
-104.81568771
 20
-92.33800554
 30
0.0
 11
-104.81372593
 21
-92.35749404
 31
0.0
  0
LINE
  5
142
100
AcDbEntity
  8
LAYER0001
  6
CONTINUOUS
 62
       7
100
AcDbLine
 10
-104.81372593
 20
-92.35749404
 30
0.0
 11
-104.81168328
 21
-92.37665335
 31
0.0
  0
LINE
  5
143
100
AcDbEntity
  8
LAYER0001
  6
CONTINUOUS
 62
       7
100
AcDbLine
 10
-104.81168328
 20
-92.37665335
 30
0.0
 11
-104.80956888
 21
-92.39546824
 31
0.0
  0
LINE
  5
144
100
AcDbEntity
  8
LAYER0001
  6
CONTINUOUS
 62
       7
100
AcDbLine
 10
-104.80956888
 20
-92.39546824
 30
0.0
 11
-104.80739187
 21
-92.41392353
 31
0.0
  0
LINE
  5
145
100
AcDbEntity
  8
LAYER0001
  6
CONTINUOUS
 62
       7
100
AcDbLine
 10
-104.80739187
 20
-92.41392353
 30
0.0
 11
-104.80516137
 21
-92.43200399
 31
0.0
  0
LINE
  5
146
100
AcDbEntity
  8
LAYER0001
  6
CONTINUOUS
 62
       7
100
AcDbLine
 10
-104.80516137
 20
-92.43200399
 30
0.0
 11
-104.80288648
 21
-92.44969441
 31
0.0
  0
LINE
  5
147
100
AcDbEntity
  8
LAYER0001
  6
CONTINUOUS
 62
       7
100
AcDbLine
 10
-104.80288648
 20
-92.44969441
 30
0.0
 11
-104.80057635
 21
-92.4669796
 31
0.0
  0
LINE
  5
148
100
AcDbEntity
  8
LAYER0001
  6
CONTINUOUS
 62
       7
100
AcDbLine
 10
-104.80057635
 20
-92.4669796
 30
0.0
 11
-104.79823979
 21
-92.48384476
 31
0.0
  0
LINE
  5
149
100
AcDbEntity
  8
LAYER0001
  6
CONTINUOUS
 62
       7
100
AcDbLine
 10
-104.79823979
 20
-92.48384476
 30
0.0
 11
-104.79588324
 21
-92.50027854
 31
0.0
  0
LINE
  5
14A
100
AcDbEntity
  8
LAYER0001
  6
CONTINUOUS
 62
       7
100
AcDbLine
 10
-104.79588324
 20
-92.50027854
 30
0.0
 11
-104.79351193
 21
-92.51627129
 31
0.0
  0
LINE
  5
14B
100
AcDbEntity
  8
LAYER0001
  6
CONTINUOUS
 62
       7
100
AcDbLine
 10
-104.79351193
 20
-92.51627129
 30
0.0
 11
-104.79113109
 21
-92.53181337
 31
0.0
  0
LINE
  5
14C
100
AcDbEntity
  8
LAYER0001
  6
CONTINUOUS
 62
       7
100
AcDbLine
 10
-104.79113109
 20
-92.53181337
 30
0.0
 11
-104.78874596
 21
-92.54689514
 31
0.0
  0
LINE
  5
14D
100
AcDbEntity
  8
LAYER0001
  6
CONTINUOUS
 62
       7
100
AcDbLine
 10
-104.78874596
 20
-92.54689514
 30
0.0
 11
-104.78636177
 21
-92.56150696
 31
0.0
  0
LINE
  5
14E
100
AcDbEntity
  8
LAYER0001
  6
CONTINUOUS
 62
       7
100
AcDbLine
 10
-104.78636177
 20
-92.56150696
 30
0.0
 11
-104.78398375
 21
-92.57563921
 31
0.0
  0
LINE
  5
14F
100
AcDbEntity
  8
LAYER0001
  6
CONTINUOUS
 62
       7
100
AcDbLine
 10
-104.78398375
 20
-92.57563921
 30
0.0
 11
-104.78161712
 21
-92.58928223
 31
0.0
  0
LINE
  5
150
100
AcDbEntity
  8
LAYER0001
  6
CONTINUOUS
 62
       7
100
AcDbLine
 10
-104.78161712
 20
-92.58928223
 30
0.0
 11
-104.77926712
 21
-92.6024264
 31
0.0
  0
LINE
  5
151
100
AcDbEntity
  8
LAYER0001
  6
CONTINUOUS
 62
       7
100
AcDbLine
 10
-104.77926712
 20
-92.6024264
 30
0.0
 11
-104.77693898
 21
-92.61506207
 31
0.0
  0
LINE
  5
152
100
AcDbEntity
  8
LAYER0001
  6
CONTINUOUS
 62
       7
100
AcDbLine
 10
-104.77693898
 20
-92.61506207
 30
0.0
 11
-104.77463793
 21
-92.62717961
 31
0.0
  0
LINE
  5
153
100
AcDbEntity
  8
LAYER0001
  6
CONTINUOUS
 62
       7
100
AcDbLine
 10
-104.77463793
 20
-92.62717961
 30
0.0
 11
-104.77236919
 21
-92.63876938
 31
0.0
  0
LINE
  5
154
100
AcDbEntity
  8
LAYER0001
  6
CONTINUOUS
 62
       7
100
AcDbLine
 10
-104.77236919
 20
-92.63876938
 30
0.0
 11
-104.77013801
 21
-92.64982173
 31
0.0
  0
LINE
  5
155
100
AcDbEntity
  8
LAYER0001
  6
CONTINUOUS
 62
       7
100
AcDbLine
 10
-104.77013801
 20
-92.64982173
 30
0.0
 11
-104.76794625
 21
-92.66033611
 31
0.0
  0
LINE
  5
156
100
AcDbEntity
  8
LAYER0001
  6
CONTINUOUS
 62
       7
100
AcDbLine
 10
-104.76794625
 20
-92.66033611
 30
0.0
 11
-104.76575765
 21
-92.67041481
 31
0.0
  0
LINE
  5
157
100
AcDbEntity
  8
LAYER0001
  6
CONTINUOUS
 62
       7
100
AcDbLine
 10
-104.76575765
 20
-92.67041481
 30
0.0
 11
-104.76351177
 21
-92.68022531
 31
0.0
  0
LINE
  5
158
100
AcDbEntity
  8
LAYER0001
  6
CONTINUOUS
 62
       7
100
AcDbLine
 10
-104.76351177
 20
-92.68022531
 30
0.0
 11
-104.76114781
 21
-92.68993612
 31
0.0
  0
LINE
  5
159
100
AcDbEntity
  8
LAYER0001
  6
CONTINUOUS
 62
       7
100
AcDbLine
 10
-104.76114781
 20
-92.68993612
 30
0.0
 11
-104.75860496
 21
-92.69971577
 31
0.0
  0
LINE
  5
15A
100
AcDbEntity
  8
LAYER0001
  6
CONTINUOUS
 62
       7
100
AcDbLine
 10
-104.75860496
 20
-92.69971577
 30
0.0
 11
-104.75582241
 21
-92.70973277
 31
0.0
  0
LINE
  5
15B
100
AcDbEntity
  8
LAYER0001
  6
CONTINUOUS
 62
       7
100
AcDbLine
 10
-104.75582241
 20
-92.70973277
 30
0.0
 11
-104.75273935
 21
-92.72015563
 31
0.0
  0
LINE
  5
15C
100
AcDbEntity
  8
LAYER0001
  6
CONTINUOUS
 62
       7
100
AcDbLine
 10
-104.75273935
 20
-92.72015563
 30
0.0
 11
-104.74929159
 21
-92.73115461
 31
0.0
  0
LINE
  5
15D
100
AcDbEntity
  8
LAYER0001
  6
CONTINUOUS
 62
       7
100
AcDbLine
 10
-104.74929159
 20
-92.73115461
 30
0.0
 11
-104.74527419
 21
-92.74297225
 31
0.0
  0
LINE
  5
15E
100
AcDbEntity
  8
LAYER0001
  6
CONTINUOUS
 62
       7
100
AcDbLine
 10
-104.74527419
 20
-92.74297225
 30
0.0
 11
-104.74029357
 21
-92.75594799
 31
0.0
  0
LINE
  5
15F
100
AcDbEntity
  8
LAYER0001
  6
CONTINUOUS
 62
       7
100
AcDbLine
 10
-104.74029357
 20
-92.75594799
 30
0.0
 11
-104.73394299
 21
-92.7704279
 31
0.0
  0
LINE
  5
160
100
AcDbEntity
  8
LAYER0001
  6
CONTINUOUS
 62
       7
100
AcDbLine
 10
-104.73394299
 20
-92.7704279
 30
0.0
 11
-104.72591481
 21
-92.78652413
 31
0.0
  0
LINE
  5
161
100
AcDbEntity
  8
LAYER0001
  6
CONTINUOUS
 62
       7
100
AcDbLine
 10
-104.72591481
 20
-92.78652413
 30
0.0
 11
-104.71620155
 21
-92.80364018
 31
0.0
  0
LINE
  5
162
100
AcDbEntity
  8
LAYER0001
  6
CONTINUOUS
 62
       7
100
AcDbLine
 10
-104.71620155
 20
-92.80364018
 30
0.0
 11
-104.70485236
 21
-92.82104604
 31
0.0
  0
LINE
  5
163
100
AcDbEntity
  8
LAYER0001
  6
CONTINUOUS
 62
       7
100
AcDbLine
 10
-104.70485236
 20
-92.82104604
 30
0.0
 11
-104.69193544
 21
-92.83811113
 31
0.0
  0
LINE
  5
164
100
AcDbEntity
  8
LAYER0001
  6
CONTINUOUS
 62
       7
100
AcDbLine
 10
-104.69193544
 20
-92.83811113
 30
0.0
 11
-104.67757475
 21
-92.85449536
 31
0.0
  0
LINE
  5
165
100
AcDbEntity
  8
LAYER0001
  6
CONTINUOUS
 62
       7
100
AcDbLine
 10
-104.67757475
 20
-92.85449536
 30
0.0
 11
-104.66190431
 21
-92.86991132
 31
0.0
  0
LINE
  5
166
100
AcDbEntity
  8
LAYER0001
  6
CONTINUOUS
 62
       7
100
AcDbLine
 10
-104.66190431
 20
-92.86991132
 30
0.0
 11
-104.64505679
 21
-92.88408476
 31
0.0
  0
LINE
  5
167
100
AcDbEntity
  8
LAYER0001
  6
CONTINUOUS
 62
       7
100
AcDbLine
 10
-104.64505679
 20
-92.88408476
 30
0.0
 11
-104.62714204
 21
-92.8969564
 31
0.0
  0
LINE
  5
168
100
AcDbEntity
  8
LAYER0001
  6
CONTINUOUS
 62
       7
100
AcDbLine
 10
-104.62714204
 20
-92.8969564
 30
0.0
 11
-104.60825123
 21
-92.9086427
 31
0.0
  0
LINE
  5
169
100
AcDbEntity
  8
LAYER0001
  6
CONTINUOUS
 62
       7
100
AcDbLine
 10
-104.60825123
 20
-92.9086427
 30
0.0
 11
-104.58847501
 21
-92.91926531
 31
0.0
  0
LINE
  5
16A
100
AcDbEntity
  8
LAYER0001
  6
CONTINUOUS
 62
       7
100
AcDbLine
 10
-104.58847501
 20
-92.91926531
 30
0.0
 11
-104.56790556
 21
-92.92893131
 31
0.0
  0
LINE
  5
16B
100
AcDbEntity
  8
LAYER0001
  6
CONTINUOUS
 62
       7
100
AcDbLine
 10
-104.56790556
 20
-92.92893131
 30
0.0
 11
-104.54667397
 21
-92.937384
 31
0.0
  0
LINE
  5
16C
100
AcDbEntity
  8
LAYER0001
  6
CONTINUOUS
 62
       7
100
AcDbLine
 10
-104.54667397
 20
-92.937384
 30
0.0
 11
-104.52495199
 21
-92.943986
 31
0.0
  0
LINE
  5
16D
100
AcDbEntity
  8
LAYER0001
  6
CONTINUOUS
 62
       7
100
AcDbLine
 10
-104.52495199
 20
-92.943986
 30
0.0
 11
-104.50291331
 21
-92.94808201
 31
0.0
  0
LINE
  5
16E
100
AcDbEntity
  8
LAYER0001
  6
CONTINUOUS
 62
       7
100
AcDbLine
 10
-104.50291331
 20
-92.94808201
 30
0.0
 11
-104.4807316
 21
-92.94901672
 31
0.0
  0
LINE
  5
16F
100
AcDbEntity
  8
LAYER0001
  6
CONTINUOUS
 62
       7
100
AcDbLine
 10
-104.4807316
 20
-92.94901672
 30
0.0
 11
-104.45856012
 21
-92.9465818
 31
0.0
  0
ENDBLK
  5
170
100
AcDbEntity
  8
0
100
AcDbBlockEnd
  0
BLOCK
  5
171
100
AcDbEntity
  8
0
100
AcDbBlockBegin
  2
GROUP_5
 70
       0
 10
0.0
 20
0.0
 30
0.0
  3
GROUP_5
  1

  0
LINE
  5
172
100
AcDbEntity
  8
LAYER0001
  6
CONTINUOUS
 62
       7
100
AcDbLine
 10
-115.2740912
 20
-103.84923501
 30
0.0
 11
-115.32980125
 21
-103.84870477
 31
0.0
  0
LINE
  5
173
100
AcDbEntity
  8
LAYER0001
  6
CONTINUOUS
 62
       7
100
AcDbLine
 10
-115.32980125
 20
-103.84870477
 30
0.0
 11
-115.38546048
 21
-103.84750934
 31
0.0
  0
LINE
  5
174
100
AcDbEntity
  8
LAYER0001
  6
CONTINUOUS
 62
       7
100
AcDbLine
 10
-115.38546048
 20
-103.84750934
 30
0.0
 11
-115.44103521
 21
-103.84520778
 31
0.0
  0
LINE
  5
175
100
AcDbEntity
  8
LAYER0001
  6
CONTINUOUS
 62
       7
100
AcDbLine
 10
-115.44103521
 20
-103.84520778
 30
0.0
 11
-115.49652538
 21
-103.84179922
 31
0.0
  0
LINE
  5
176
100
AcDbEntity
  8
LAYER0001
  6
CONTINUOUS
 62
       7
100
AcDbLine
 10
-115.49652538
 20
-103.84179922
 30
0.0
 11
-115.55193482
 21
-103.83733397
 31
0.0
  0
LINE
  5
177
100
AcDbEntity
  8
LAYER0001
  6
CONTINUOUS
 62
       7
100
AcDbLine
 10
-115.55193482
 20
-103.83733397
 30
0.0
 11
-115.60726737
 21
-103.83186235
 31
0.0
  0
LINE
  5
178
100
AcDbEntity
  8
LAYER0001
  6
CONTINUOUS
 62
       7
100
AcDbLine
 10
-115.60726737
 20
-103.83186235
 30
0.0
 11
-115.66252689
 21
-103.82543468
 31
0.0
  0
LINE
  5
179
100
AcDbEntity
  8
LAYER0001
  6
CONTINUOUS
 62
       7
100
AcDbLine
 10
-115.66252689
 20
-103.82543468
 30
0.0
 11
-115.71771722
 21
-103.81810127
 31
0.0
  0
LINE
  5
17A
100
AcDbEntity
  8
LAYER0001
  6
CONTINUOUS
 62
       7
100
AcDbLine
 10
-115.71771722
 20
-103.81810127
 30
0.0
 11
-115.7728422
 21
-103.80991246
 31
0.0
  0
LINE
  5
17B
100
AcDbEntity
  8
LAYER0001
  6
CONTINUOUS
 62
       7
100
AcDbLine
 10
-115.7728422
 20
-103.80991246
 30
0.0
 11
-115.82790568
 21
-103.80091854
 31
0.0
  0
LINE
  5
17C
100
AcDbEntity
  8
LAYER0001
  6
CONTINUOUS
 62
       7
100
AcDbLine
 10
-115.82790568
 20
-103.80091854
 30
0.0
 11
-115.88291149
 21
-103.79116986
 31
0.0
  0
LINE
  5
17D
100
AcDbEntity
  8
LAYER0001
  6
CONTINUOUS
 62
       7
100
AcDbLine
 10
-115.88291149
 20
-103.79116986
 30
0.0
 11
-115.93786349
 21
-103.78071671
 31
0.0
  0
LINE
  5
17E
100
AcDbEntity
  8
LAYER0001
  6
CONTINUOUS
 62
       7
100
AcDbLine
 10
-115.93786349
 20
-103.78071671
 30
0.0
 11
-115.99276551
 21
-103.76960942
 31
0.0
  0
LINE
  5
17F
100
AcDbEntity
  8
LAYER0001
  6
CONTINUOUS
 62
       7
100
AcDbLine
 10
-115.99276551
 20
-103.76960942
 30
0.0
 11
-116.04762141
 21
-103.75789831
 31
0.0
  0
LINE
  5
180
100
AcDbEntity
  8
LAYER0001
  6
CONTINUOUS
 62
       7
100
AcDbLine
 10
-116.04762141
 20
-103.75789831
 30
0.0
 11
-116.10243502
 21
-103.7456337
 31
0.0
  0
LINE
  5
181
100
AcDbEntity
  8
LAYER0001
  6
CONTINUOUS
 62
       7
100
AcDbLine
 10
-116.10243502
 20
-103.7456337
 30
0.0
 11
-116.15721019
 21
-103.73286591
 31
0.0
  0
LINE
  5
182
100
AcDbEntity
  8
LAYER0001
  6
CONTINUOUS
 62
       7
100
AcDbLine
 10
-116.15721019
 20
-103.73286591
 30
0.0
 11
-116.21195077
 21
-103.71964524
 31
0.0
  0
LINE
  5
183
100
AcDbEntity
  8
LAYER0001
  6
CONTINUOUS
 62
       7
100
AcDbLine
 10
-116.21195077
 20
-103.71964524
 30
0.0
 11
-116.26666059
 21
-103.70602203
 31
0.0
  0
LINE
  5
184
100
AcDbEntity
  8
LAYER0001
  6
CONTINUOUS
 62
       7
100
AcDbLine
 10
-116.26666059
 20
-103.70602203
 30
0.0
 11
-116.32134351
 21
-103.69204659
 31
0.0
  0
LINE
  5
185
100
AcDbEntity
  8
LAYER0001
  6
CONTINUOUS
 62
       7
100
AcDbLine
 10
-116.32134351
 20
-103.69204659
 30
0.0
 11
-116.37600336
 21
-103.67776925
 31
0.0
  0
LINE
  5
186
100
AcDbEntity
  8
LAYER0001
  6
CONTINUOUS
 62
       7
100
AcDbLine
 10
-116.37600336
 20
-103.67776925
 30
0.0
 11
-116.43064399
 21
-103.6632403
 31
0.0
  0
LINE
  5
187
100
AcDbEntity
  8
LAYER0001
  6
CONTINUOUS
 62
       7
100
AcDbLine
 10
-116.43064399
 20
-103.6632403
 30
0.0
 11
-116.48526924
 21
-103.64851009
 31
0.0
  0
LINE
  5
188
100
AcDbEntity
  8
LAYER0001
  6
CONTINUOUS
 62
       7
100
AcDbLine
 10
-116.48526924
 20
-103.64851009
 30
0.0
 11
-116.53988297
 21
-103.63362892
 31
0.0
  0
LINE
  5
189
100
AcDbEntity
  8
LAYER0001
  6
CONTINUOUS
 62
       7
100
AcDbLine
 10
-116.53988297
 20
-103.63362892
 30
0.0
 11
-116.594489
 21
-103.61864711
 31
0.0
  0
LINE
  5
18A
100
AcDbEntity
  8
LAYER0001
  6
CONTINUOUS
 62
       7
100
AcDbLine
 10
-116.594489
 20
-103.61864711
 30
0.0
 11
-116.64909119
 21
-103.60361498
 31
0.0
  0
ENDBLK
  5
18B
100
AcDbEntity
  8
0
100
AcDbBlockEnd
  0
BLOCK
  5
18C
100
AcDbEntity
  8
0
100
AcDbBlockBegin
  2
GROUP_6
 70
       0
 10
0.0
 20
0.0
 30
0.0
  3
GROUP_6
  1

  0
LINE
  5
18D
100
AcDbEntity
  8
LAYER0001
  6
CONTINUOUS
 62
       7
100
AcDbLine
 10
-118.02409118
 20
-103.84923501
 30
0.0
 11
-118.07980126
 21
-103.84870477
 31
0.0
  0
LINE
  5
18E
100
AcDbEntity
  8
LAYER0001
  6
CONTINUOUS
 62
       7
100
AcDbLine
 10
-118.07980126
 20
-103.84870477
 30
0.0
 11
-118.13546052
 21
-103.84750934
 31
0.0
  0
LINE
  5
18F
100
AcDbEntity
  8
LAYER0001
  6
CONTINUOUS
 62
       7
100
AcDbLine
 10
-118.13546052
 20
-103.84750934
 30
0.0
 11
-118.19103528
 21
-103.84520778
 31
0.0
  0
LINE
  5
190
100
AcDbEntity
  8
LAYER0001
  6
CONTINUOUS
 62
       7
100
AcDbLine
 10
-118.19103528
 20
-103.84520778
 30
0.0
 11
-118.24652548
 21
-103.84179921
 31
0.0
  0
LINE
  5
191
100
AcDbEntity
  8
LAYER0001
  6
CONTINUOUS
 62
       7
100
AcDbLine
 10
-118.24652548
 20
-103.84179921
 30
0.0
 11
-118.30193495
 21
-103.83733396
 31
0.0
  0
LINE
  5
192
100
AcDbEntity
  8
LAYER0001
  6
CONTINUOUS
 62
       7
100
AcDbLine
 10
-118.30193495
 20
-103.83733396
 30
0.0
 11
-118.35726754
 21
-103.83186234
 31
0.0
  0
LINE
  5
193
100
AcDbEntity
  8
LAYER0001
  6
CONTINUOUS
 62
       7
100
AcDbLine
 10
-118.35726754
 20
-103.83186234
 30
0.0
 11
-118.41252709
 21
-103.82543467
 31
0.0
  0
LINE
  5
194
100
AcDbEntity
  8
LAYER0001
  6
CONTINUOUS
 62
       7
100
AcDbLine
 10
-118.41252709
 20
-103.82543467
 30
0.0
 11
-118.46771745
 21
-103.81810127
 31
0.0
  0
LINE
  5
195
100
AcDbEntity
  8
LAYER0001
  6
CONTINUOUS
 62
       7
100
AcDbLine
 10
-118.46771745
 20
-103.81810127
 30
0.0
 11
-118.52284247
 21
-103.80991245
 31
0.0
  0
LINE
  5
196
100
AcDbEntity
  8
LAYER0001
  6
CONTINUOUS
 62
       7
100
AcDbLine
 10
-118.52284247
 20
-103.80991245
 30
0.0
 11
-118.57790598
 21
-103.80091854
 31
0.0
  0
LINE
  5
197
100
AcDbEntity
  8
LAYER0001
  6
CONTINUOUS
 62
       7
100
AcDbLine
 10
-118.57790598
 20
-103.80091854
 30
0.0
 11
-118.63291183
 21
-103.79116985
 31
0.0
  0
LINE
  5
198
100
AcDbEntity
  8
LAYER0001
  6
CONTINUOUS
 62
       7
100
AcDbLine
 10
-118.63291183
 20
-103.79116985
 30
0.0
 11
-118.68786387
 21
-103.7807167
 31
0.0
  0
LINE
  5
199
100
AcDbEntity
  8
LAYER0001
  6
CONTINUOUS
 62
       7
100
AcDbLine
 10
-118.68786387
 20
-103.7807167
 30
0.0
 11
-118.74276593
 21
-103.76960942
 31
0.0
  0
LINE
  5
19A
100
AcDbEntity
  8
LAYER0001
  6
CONTINUOUS
 62
       7
100
AcDbLine
 10
-118.74276593
 20
-103.76960942
 30
0.0
 11
-118.79762187
 21
-103.75789831
 31
0.0
  0
LINE
  5
19B
100
AcDbEntity
  8
LAYER0001
  6
CONTINUOUS
 62
       7
100
AcDbLine
 10
-118.79762187
 20
-103.75789831
 30
0.0
 11
-118.85243552
 21
-103.7456337
 31
0.0
  0
LINE
  5
19C
100
AcDbEntity
  8
LAYER0001
  6
CONTINUOUS
 62
       7
100
AcDbLine
 10
-118.85243552
 20
-103.7456337
 30
0.0
 11
-118.90721073
 21
-103.7328659
 31
0.0
  0
LINE
  5
19D
100
AcDbEntity
  8
LAYER0001
  6
CONTINUOUS
 62
       7
100
AcDbLine
 10
-118.90721073
 20
-103.7328659
 30
0.0
 11
-118.96195135
 21
-103.71964524
 31
0.0
  0
LINE
  5
19E
100
AcDbEntity
  8
LAYER0001
  6
CONTINUOUS
 62
       7
100
AcDbLine
 10
-118.96195135
 20
-103.71964524
 30
0.0
 11
-119.01666121
 21
-103.70602203
 31
0.0
  0
LINE
  5
19F
100
AcDbEntity
  8
LAYER0001
  6
CONTINUOUS
 62
       7
100
AcDbLine
 10
-119.01666121
 20
-103.70602203
 30
0.0
 11
-119.07134417
 21
-103.69204659
 31
0.0
  0
LINE
  5
1A0
100
AcDbEntity
  8
LAYER0001
  6
CONTINUOUS
 62
       7
100
AcDbLine
 10
-119.07134417
 20
-103.69204659
 30
0.0
 11
-119.12600406
 21
-103.67776924
 31
0.0
  0
LINE
  5
1A1
100
AcDbEntity
  8
LAYER0001
  6
CONTINUOUS
 62
       7
100
AcDbLine
 10
-119.12600406
 20
-103.67776924
 30
0.0
 11
-119.18064474
 21
-103.6632403
 31
0.0
  0
LINE
  5
1A2
100
AcDbEntity
  8
LAYER0001
  6
CONTINUOUS
 62
       7
100
AcDbLine
 10
-119.18064474
 20
-103.6632403
 30
0.0
 11
-119.23527003
 21
-103.64851009
 31
0.0
  0
LINE
  5
1A3
100
AcDbEntity
  8
LAYER0001
  6
CONTINUOUS
 62
       7
100
AcDbLine
 10
-119.23527003
 20
-103.64851009
 30
0.0
 11
-119.2898838
 21
-103.63362892
 31
0.0
  0
LINE
  5
1A4
100
AcDbEntity
  8
LAYER0001
  6
CONTINUOUS
 62
       7
100
AcDbLine
 10
-119.2898838
 20
-103.63362892
 30
0.0
 11
-119.34448987
 21
-103.61864711
 31
0.0
  0
LINE
  5
1A5
100
AcDbEntity
  8
LAYER0001
  6
CONTINUOUS
 62
       7
100
AcDbLine
 10
-119.34448987
 20
-103.61864711
 30
0.0
 11
-119.39909211
 21
-103.60361498
 31
0.0
  0
ENDBLK
  5
1A6
100
AcDbEntity
  8
0
100
AcDbBlockEnd
  0
BLOCK
  5
1A7
100
AcDbEntity
  8
0
100
AcDbBlockBegin
  2
GROUP_7
 70
       0
 10
0.0
 20
0.0
 30
0.0
  3
GROUP_7
  1

  0
LINE
  5
1A8
100
AcDbEntity
  8
LAYER0001
  6
CONTINUOUS
 62
       7
100
AcDbLine
 10
-113.89909121
 20
-103.84923501
 30
0.0
 11
-113.89909121
 21
-103.84768786
 31
0.0
  0
LINE
  5
1A9
100
AcDbEntity
  8
LAYER0001
  6
CONTINUOUS
 62
       7
100
AcDbLine
 10
-113.89909121
 20
-103.84768786
 30
0.0
 11
-113.89909121
 21
-103.84595865
 31
0.0
  0
LINE
  5
1AA
100
AcDbEntity
  8
LAYER0001
  6
CONTINUOUS
 62
       7
100
AcDbLine
 10
-113.89909121
 20
-103.84595865
 30
0.0
 11
-113.89909121
 21
-103.84386534
 31
0.0
  0
LINE
  5
1AB
100
AcDbEntity
  8
LAYER0001
  6
CONTINUOUS
 62
       7
100
AcDbLine
 10
-113.89909121
 20
-103.84386534
 30
0.0
 11
-113.89909121
 21
-103.84122587
 31
0.0
  0
LINE
  5
1AC
100
AcDbEntity
  8
LAYER0001
  6
CONTINUOUS
 62
       7
100
AcDbLine
 10
-113.89909121
 20
-103.84122587
 30
0.0
 11
-113.89909121
 21
-103.83785819
 31
0.0
  0
LINE
  5
1AD
100
AcDbEntity
  8
LAYER0001
  6
CONTINUOUS
 62
       7
100
AcDbLine
 10
-113.89909121
 20
-103.83785819
 30
0.0
 11
-113.89909121
 21
-103.83358025
 31
0.0
  0
LINE
  5
1AE
100
AcDbEntity
  8
LAYER0001
  6
CONTINUOUS
 62
       7
100
AcDbLine
 10
-113.89909121
 20
-103.83358025
 30
0.0
 11
-113.89909121
 21
-103.82822641
 31
0.0
  0
LINE
  5
1AF
100
AcDbEntity
  8
LAYER0001
  6
CONTINUOUS
 62
       7
100
AcDbLine
 10
-113.89909121
 20
-103.82822641
 30
0.0
 11
-113.89909121
 21
-103.82177863
 31
0.0
  0
LINE
  5
1B0
100
AcDbEntity
  8
LAYER0001
  6
CONTINUOUS
 62
       7
100
AcDbLine
 10
-113.89909121
 20
-103.82177863
 30
0.0
 11
-113.89909121
 21
-103.81429704
 31
0.0
  0
LINE
  5
1B1
100
AcDbEntity
  8
LAYER0001
  6
CONTINUOUS
 62
       7
100
AcDbLine
 10
-113.89909121
 20
-103.81429704
 30
0.0
 11
-113.89909121
 21
-103.80584243
 31
0.0
  0
LINE
  5
1B2
100
AcDbEntity
  8
LAYER0001
  6
CONTINUOUS
 62
       7
100
AcDbLine
 10
-113.89909121
 20
-103.80584243
 30
0.0
 11
-113.89909121
 21
-103.79647562
 31
0.0
  0
LINE
  5
1B3
100
AcDbEntity
  8
LAYER0001
  6
CONTINUOUS
 62
       7
100
AcDbLine
 10
-113.89909121
 20
-103.79647562
 30
0.0
 11
-113.89909121
 21
-103.78625743
 31
0.0
  0
LINE
  5
1B4
100
AcDbEntity
  8
LAYER0001
  6
CONTINUOUS
 62
       7
100
AcDbLine
 10
-113.89909121
 20
-103.78625743
 30
0.0
 11
-113.89909121
 21
-103.77524867
 31
0.0
  0
LINE
  5
1B5
100
AcDbEntity
  8
LAYER0001
  6
CONTINUOUS
 62
       7
100
AcDbLine
 10
-113.89909121
 20
-103.77524867
 30
0.0
 11
-113.89909121
 21
-103.76351015
 31
0.0
  0
LINE
  5
1B6
100
AcDbEntity
  8
LAYER0001
  6
CONTINUOUS
 62
       7
100
AcDbLine
 10
-113.89909121
 20
-103.76351015
 30
0.0
 11
-113.89909121
 21
-103.75110269
 31
0.0
  0
LINE
  5
1B7
100
AcDbEntity
  8
LAYER0001
  6
CONTINUOUS
 62
       7
100
AcDbLine
 10
-113.89909121
 20
-103.75110269
 30
0.0
 11
-113.89909121
 21
-103.7380871
 31
0.0
  0
LINE
  5
1B8
100
AcDbEntity
  8
LAYER0001
  6
CONTINUOUS
 62
       7
100
AcDbLine
 10
-113.89909121
 20
-103.7380871
 30
0.0
 11
-113.89909121
 21
-103.72452418
 31
0.0
  0
LINE
  5
1B9
100
AcDbEntity
  8
LAYER0001
  6
CONTINUOUS
 62
       7
100
AcDbLine
 10
-113.89909121
 20
-103.72452418
 30
0.0
 11
-113.89909121
 21
-103.71047476
 31
0.0
  0
LINE
  5
1BA
100
AcDbEntity
  8
LAYER0001
  6
CONTINUOUS
 62
       7
100
AcDbLine
 10
-113.89909121
 20
-103.71047476
 30
0.0
 11
-113.89909121
 21
-103.69599965
 31
0.0
  0
LINE
  5
1BB
100
AcDbEntity
  8
LAYER0001
  6
CONTINUOUS
 62
       7
100
AcDbLine
 10
-113.89909121
 20
-103.69599965
 30
0.0
 11
-113.89909121
 21
-103.68115966
 31
0.0
  0
LINE
  5
1BC
100
AcDbEntity
  8
LAYER0001
  6
CONTINUOUS
 62
       7
100
AcDbLine
 10
-113.89909121
 20
-103.68115966
 30
0.0
 11
-113.89909121
 21
-103.6660156
 31
0.0
  0
LINE
  5
1BD
100
AcDbEntity
  8
LAYER0001
  6
CONTINUOUS
 62
       7
100
AcDbLine
 10
-113.89909121
 20
-103.6660156
 30
0.0
 11
-113.89909121
 21
-103.65062829
 31
0.0
  0
LINE
  5
1BE
100
AcDbEntity
  8
LAYER0001
  6
CONTINUOUS
 62
       7
100
AcDbLine
 10
-113.89909121
 20
-103.65062829
 30
0.0
 11
-113.89909121
 21
-103.63505854
 31
0.0
  0
LINE
  5
1BF
100
AcDbEntity
  8
LAYER0001
  6
CONTINUOUS
 62
       7
100
AcDbLine
 10
-113.89909121
 20
-103.63505854
 30
0.0
 11
-113.89909121
 21
-103.61936717
 31
0.0
  0
LINE
  5
1C0
100
AcDbEntity
  8
LAYER0001
  6
CONTINUOUS
 62
       7
100
AcDbLine
 10
-113.89909121
 20
-103.61936717
 30
0.0
 11
-113.89909121
 21
-103.60361498
 31
0.0
  0
ENDBLK
  5
1C1
100
AcDbEntity
  8
0
100
AcDbBlockEnd
  0
BLOCK
  5
1C2
100
AcDbEntity
  8
0
100
AcDbBlockBegin
  2
GROUP_8
 70
       0
 10
0.0
 20
0.0
 30
0.0
  3
GROUP_8
  1

  0
LINE
  5
1C3
100
AcDbEntity
  8
LAYER0001
  6
CONTINUOUS
 62
       7
100
AcDbLine
 10
-119.39909211
 20
-103.60361498
 30
0.0
 11
-119.39909211
 21
-103.61936717
 31
0.0
  0
LINE
  5
1C4
100
AcDbEntity
  8
LAYER0001
  6
CONTINUOUS
 62
       7
100
AcDbLine
 10
-119.39909211
 20
-103.61936717
 30
0.0
 11
-119.39909211
 21
-103.63505854
 31
0.0
  0
LINE
  5
1C5
100
AcDbEntity
  8
LAYER0001
  6
CONTINUOUS
 62
       7
100
AcDbLine
 10
-119.39909211
 20
-103.63505854
 30
0.0
 11
-119.39909211
 21
-103.65062829
 31
0.0
  0
LINE
  5
1C6
100
AcDbEntity
  8
LAYER0001
  6
CONTINUOUS
 62
       7
100
AcDbLine
 10
-119.39909211
 20
-103.65062829
 30
0.0
 11
-119.39909211
 21
-103.6660156
 31
0.0
  0
LINE
  5
1C7
100
AcDbEntity
  8
LAYER0001
  6
CONTINUOUS
 62
       7
100
AcDbLine
 10
-119.39909211
 20
-103.6660156
 30
0.0
 11
-119.39909211
 21
-103.68115966
 31
0.0
  0
LINE
  5
1C8
100
AcDbEntity
  8
LAYER0001
  6
CONTINUOUS
 62
       7
100
AcDbLine
 10
-119.39909211
 20
-103.68115966
 30
0.0
 11
-119.39909211
 21
-103.69599965
 31
0.0
  0
LINE
  5
1C9
100
AcDbEntity
  8
LAYER0001
  6
CONTINUOUS
 62
       7
100
AcDbLine
 10
-119.39909211
 20
-103.69599965
 30
0.0
 11
-119.39909211
 21
-103.71047476
 31
0.0
  0
LINE
  5
1CA
100
AcDbEntity
  8
LAYER0001
  6
CONTINUOUS
 62
       7
100
AcDbLine
 10
-119.39909211
 20
-103.71047476
 30
0.0
 11
-119.39909211
 21
-103.72452418
 31
0.0
  0
LINE
  5
1CB
100
AcDbEntity
  8
LAYER0001
  6
CONTINUOUS
 62
       7
100
AcDbLine
 10
-119.39909211
 20
-103.72452418
 30
0.0
 11
-119.39909211
 21
-103.7380871
 31
0.0
  0
LINE
  5
1CC
100
AcDbEntity
  8
LAYER0001
  6
CONTINUOUS
 62
       7
100
AcDbLine
 10
-119.39909211
 20
-103.7380871
 30
0.0
 11
-119.39909211
 21
-103.75110269
 31
0.0
  0
LINE
  5
1CD
100
AcDbEntity
  8
LAYER0001
  6
CONTINUOUS
 62
       7
100
AcDbLine
 10
-119.39909211
 20
-103.75110269
 30
0.0
 11
-119.39909211
 21
-103.76351015
 31
0.0
  0
LINE
  5
1CE
100
AcDbEntity
  8
LAYER0001
  6
CONTINUOUS
 62
       7
100
AcDbLine
 10
-119.39909211
 20
-103.76351015
 30
0.0
 11
-119.39909211
 21
-103.77524867
 31
0.0
  0
LINE
  5
1CF
100
AcDbEntity
  8
LAYER0001
  6
CONTINUOUS
 62
       7
100
AcDbLine
 10
-119.39909211
 20
-103.77524867
 30
0.0
 11
-119.39909211
 21
-103.78625743
 31
0.0
  0
LINE
  5
1D0
100
AcDbEntity
  8
LAYER0001
  6
CONTINUOUS
 62
       7
100
AcDbLine
 10
-119.39909211
 20
-103.78625743
 30
0.0
 11
-119.39909211
 21
-103.79647562
 31
0.0
  0
LINE
  5
1D1
100
AcDbEntity
  8
LAYER0001
  6
CONTINUOUS
 62
       7
100
AcDbLine
 10
-119.39909211
 20
-103.79647562
 30
0.0
 11
-119.39909211
 21
-103.80584243
 31
0.0
  0
LINE
  5
1D2
100
AcDbEntity
  8
LAYER0001
  6
CONTINUOUS
 62
       7
100
AcDbLine
 10
-119.39909211
 20
-103.80584243
 30
0.0
 11
-119.39909211
 21
-103.81429704
 31
0.0
  0
LINE
  5
1D3
100
AcDbEntity
  8
LAYER0001
  6
CONTINUOUS
 62
       7
100
AcDbLine
 10
-119.39909211
 20
-103.81429704
 30
0.0
 11
-119.39909211
 21
-103.82177863
 31
0.0
  0
LINE
  5
1D4
100
AcDbEntity
  8
LAYER0001
  6
CONTINUOUS
 62
       7
100
AcDbLine
 10
-119.39909211
 20
-103.82177863
 30
0.0
 11
-119.39909211
 21
-103.82822641
 31
0.0
  0
LINE
  5
1D5
100
AcDbEntity
  8
LAYER0001
  6
CONTINUOUS
 62
       7
100
AcDbLine
 10
-119.39909211
 20
-103.82822641
 30
0.0
 11
-119.39909211
 21
-103.83358025
 31
0.0
  0
LINE
  5
1D6
100
AcDbEntity
  8
LAYER0001
  6
CONTINUOUS
 62
       7
100
AcDbLine
 10
-119.39909211
 20
-103.83358025
 30
0.0
 11
-119.39909211
 21
-103.83785819
 31
0.0
  0
LINE
  5
1D7
100
AcDbEntity
  8
LAYER0001
  6
CONTINUOUS
 62
       7
100
AcDbLine
 10
-119.39909211
 20
-103.83785819
 30
0.0
 11
-119.39909211
 21
-103.84122587
 31
0.0
  0
LINE
  5
1D8
100
AcDbEntity
  8
LAYER0001
  6
CONTINUOUS
 62
       7
100
AcDbLine
 10
-119.39909211
 20
-103.84122587
 30
0.0
 11
-119.39909211
 21
-103.84386534
 31
0.0
  0
LINE
  5
1D9
100
AcDbEntity
  8
LAYER0001
  6
CONTINUOUS
 62
       7
100
AcDbLine
 10
-119.39909211
 20
-103.84386534
 30
0.0
 11
-119.39909211
 21
-103.84595865
 31
0.0
  0
LINE
  5
1DA
100
AcDbEntity
  8
LAYER0001
  6
CONTINUOUS
 62
       7
100
AcDbLine
 10
-119.39909211
 20
-103.84595865
 30
0.0
 11
-119.39909211
 21
-103.84768786
 31
0.0
  0
LINE
  5
1DB
100
AcDbEntity
  8
LAYER0001
  6
CONTINUOUS
 62
       7
100
AcDbLine
 10
-119.39909211
 20
-103.84768786
 30
0.0
 11
-119.39909211
 21
-103.84923501
 31
0.0
  0
ENDBLK
  5
1DC
100
AcDbEntity
  8
0
100
AcDbBlockEnd
  0
BLOCK
  5
1DD
100
AcDbEntity
  8
0
100
AcDbBlockBegin
  2
GROUP_9
 70
       0
 10
0.0
 20
0.0
 30
0.0
  3
GROUP_9
  1

  0
LINE
  5
1DE
100
AcDbEntity
  8
LAYER0001
  6
CONTINUOUS
 62
       7
100
AcDbLine
 10
-105.03371055
 20
-103.84923501
 30
0.0
 11
-105.08942051
 21
-103.84870476
 31
0.0
  0
LINE
  5
1DF
100
AcDbEntity
  8
LAYER0001
  6
CONTINUOUS
 62
       7
100
AcDbLine
 10
-105.08942051
 20
-103.84870476
 30
0.0
 11
-105.14507966
 21
-103.84750932
 31
0.0
  0
LINE
  5
1E0
100
AcDbEntity
  8
LAYER0001
  6
CONTINUOUS
 62
       7
100
AcDbLine
 10
-105.14507966
 20
-103.84750932
 30
0.0
 11
-105.20065433
 21
-103.84520776
 31
0.0
  0
LINE
  5
1E1
100
AcDbEntity
  8
LAYER0001
  6
CONTINUOUS
 62
       7
100
AcDbLine
 10
-105.20065433
 20
-103.84520776
 30
0.0
 11
-105.25614443
 21
-103.84179919
 31
0.0
  0
LINE
  5
1E2
100
AcDbEntity
  8
LAYER0001
  6
CONTINUOUS
 62
       7
100
AcDbLine
 10
-105.25614443
 20
-103.84179919
 30
0.0
 11
-105.31155382
 21
-103.83733393
 31
0.0
  0
LINE
  5
1E3
100
AcDbEntity
  8
LAYER0001
  6
CONTINUOUS
 62
       7
100
AcDbLine
 10
-105.31155382
 20
-103.83733393
 30
0.0
 11
-105.36688634
 21
-103.83186231
 31
0.0
  0
LINE
  5
1E4
100
AcDbEntity
  8
LAYER0001
  6
CONTINUOUS
 62
       7
100
AcDbLine
 10
-105.36688634
 20
-103.83186231
 30
0.0
 11
-105.42214583
 21
-103.82543463
 31
0.0
  0
LINE
  5
1E5
100
AcDbEntity
  8
LAYER0001
  6
CONTINUOUS
 62
       7
100
AcDbLine
 10
-105.42214583
 20
-103.82543463
 30
0.0
 11
-105.47733613
 21
-103.81810123
 31
0.0
  0
LINE
  5
1E6
100
AcDbEntity
  8
LAYER0001
  6
CONTINUOUS
 62
       7
100
AcDbLine
 10
-105.47733613
 20
-103.81810123
 30
0.0
 11
-105.5324611
 21
-103.80991241
 31
0.0
  0
LINE
  5
1E7
100
AcDbEntity
  8
LAYER0001
  6
CONTINUOUS
 62
       7
100
AcDbLine
 10
-105.5324611
 20
-103.80991241
 30
0.0
 11
-105.58752456
 21
-103.8009185
 31
0.0
  0
LINE
  5
1E8
100
AcDbEntity
  8
LAYER0001
  6
CONTINUOUS
 62
       7
100
AcDbLine
 10
-105.58752456
 20
-103.8009185
 30
0.0
 11
-105.64253038
 21
-103.79116981
 31
0.0
  0
LINE
  5
1E9
100
AcDbEntity
  8
LAYER0001
  6
CONTINUOUS
 62
       7
100
AcDbLine
 10
-105.64253038
 20
-103.79116981
 30
0.0
 11
-105.69748238
 21
-103.78071666
 31
0.0
  0
LINE
  5
1EA
100
AcDbEntity
  8
LAYER0001
  6
CONTINUOUS
 62
       7
100
AcDbLine
 10
-105.69748238
 20
-103.78071666
 30
0.0
 11
-105.75238442
 21
-103.76960937
 31
0.0
  0
LINE
  5
1EB
100
AcDbEntity
  8
LAYER0001
  6
CONTINUOUS
 62
       7
100
AcDbLine
 10
-105.75238442
 20
-103.76960937
 30
0.0
 11
-105.80724033
 21
-103.75789827
 31
0.0
  0
LINE
  5
1EC
100
AcDbEntity
  8
LAYER0001
  6
CONTINUOUS
 62
       7
100
AcDbLine
 10
-105.80724033
 20
-103.75789827
 30
0.0
 11
-105.86205397
 21
-103.74563366
 31
0.0
  0
LINE
  5
1ED
100
AcDbEntity
  8
LAYER0001
  6
CONTINUOUS
 62
       7
100
AcDbLine
 10
-105.86205397
 20
-103.74563366
 30
0.0
 11
-105.91682917
 21
-103.73286587
 31
0.0
  0
LINE
  5
1EE
100
AcDbEntity
  8
LAYER0001
  6
CONTINUOUS
 62
       7
100
AcDbLine
 10
-105.91682917
 20
-103.73286587
 30
0.0
 11
-105.97156977
 21
-103.71964521
 31
0.0
  0
LINE
  5
1EF
100
AcDbEntity
  8
LAYER0001
  6
CONTINUOUS
 62
       7
100
AcDbLine
 10
-105.97156977
 20
-103.71964521
 30
0.0
 11
-106.02627963
 21
-103.706022
 31
0.0
  0
LINE
  5
1F0
100
AcDbEntity
  8
LAYER0001
  6
CONTINUOUS
 62
       7
100
AcDbLine
 10
-106.02627963
 20
-103.706022
 30
0.0
 11
-106.08096258
 21
-103.69204657
 31
0.0
  0
LINE
  5
1F1
100
AcDbEntity
  8
LAYER0001
  6
CONTINUOUS
 62
       7
100
AcDbLine
 10
-106.08096258
 20
-103.69204657
 30
0.0
 11
-106.13562248
 21
-103.67776922
 31
0.0
  0
LINE
  5
1F2
100
AcDbEntity
  8
LAYER0001
  6
CONTINUOUS
 62
       7
100
AcDbLine
 10
-106.13562248
 20
-103.67776922
 30
0.0
 11
-106.19026315
 21
-103.66324028
 31
0.0
  0
LINE
  5
1F3
100
AcDbEntity
  8
LAYER0001
  6
CONTINUOUS
 62
       7
100
AcDbLine
 10
-106.19026315
 20
-103.66324028
 30
0.0
 11
-106.24488845
 21
-103.64851007
 31
0.0
  0
LINE
  5
1F4
100
AcDbEntity
  8
LAYER0001
  6
CONTINUOUS
 62
       7
100
AcDbLine
 10
-106.24488845
 20
-103.64851007
 30
0.0
 11
-106.29950222
 21
-103.63362891
 31
0.0
  0
LINE
  5
1F5
100
AcDbEntity
  8
LAYER0001
  6
CONTINUOUS
 62
       7
100
AcDbLine
 10
-106.29950222
 20
-103.63362891
 30
0.0
 11
-106.3541083
 21
-103.6186471
 31
0.0
  0
LINE
  5
1F6
100
AcDbEntity
  8
LAYER0001
  6
CONTINUOUS
 62
       7
100
AcDbLine
 10
-106.3541083
 20
-103.6186471
 30
0.0
 11
-106.40871054
 21
-103.60361498
 31
0.0
  0
ENDBLK
  5
1F7
100
AcDbEntity
  8
0
100
AcDbBlockEnd
  0
BLOCK
  5
1F8
100
AcDbEntity
  8
0
100
AcDbBlockBegin
  2
GROUP_10
 70
       0
 10
0.0
 20
0.0
 30
0.0
  3
GROUP_10
  1

  0
LINE
  5
1F9
100
AcDbEntity
  8
LAYER0001
  6
CONTINUOUS
 62
       7
100
AcDbLine
 10
-102.28371056
 20
-103.84923501
 30
0.0
 11
-102.33942076
 21
-103.84870476
 31
0.0
  0
LINE
  5
1FA
100
AcDbEntity
  8
LAYER0001
  6
CONTINUOUS
 62
       7
100
AcDbLine
 10
-102.33942076
 20
-103.84870476
 30
0.0
 11
-102.39508013
 21
-103.84750931
 31
0.0
  0
LINE
  5
1FB
100
AcDbEntity
  8
LAYER0001
  6
CONTINUOUS
 62
       7
100
AcDbLine
 10
-102.39508013
 20
-103.84750931
 30
0.0
 11
-102.45065499
 21
-103.84520774
 31
0.0
  0
LINE
  5
1FC
100
AcDbEntity
  8
LAYER0001
  6
CONTINUOUS
 62
       7
100
AcDbLine
 10
-102.45065499
 20
-103.84520774
 30
0.0
 11
-102.50614525
 21
-103.84179916
 31
0.0
  0
LINE
  5
1FD
100
AcDbEntity
  8
LAYER0001
  6
CONTINUOUS
 62
       7
100
AcDbLine
 10
-102.50614525
 20
-103.84179916
 30
0.0
 11
-102.56155478
 21
-103.8373339
 31
0.0
  0
LINE
  5
1FE
100
AcDbEntity
  8
LAYER0001
  6
CONTINUOUS
 62
       7
100
AcDbLine
 10
-102.56155478
 20
-103.8373339
 30
0.0
 11
-102.6168874
 21
-103.83186227
 31
0.0
  0
LINE
  5
1FF
100
AcDbEntity
  8
LAYER0001
  6
CONTINUOUS
 62
       7
100
AcDbLine
 10
-102.6168874
 20
-103.83186227
 30
0.0
 11
-102.67214698
 21
-103.82543459
 31
0.0
  0
LINE
  5
200
100
AcDbEntity
  8
LAYER0001
  6
CONTINUOUS
 62
       7
100
AcDbLine
 10
-102.67214698
 20
-103.82543459
 30
0.0
 11
-102.72733735
 21
-103.81810119
 31
0.0
  0
LINE
  5
201
100
AcDbEntity
  8
LAYER0001
  6
CONTINUOUS
 62
       7
100
AcDbLine
 10
-102.72733735
 20
-103.81810119
 30
0.0
 11
-102.78246235
 21
-103.80991236
 31
0.0
  0
LINE
  5
202
100
AcDbEntity
  8
LAYER0001
  6
CONTINUOUS
 62
       7
100
AcDbLine
 10
-102.78246235
 20
-103.80991236
 30
0.0
 11
-102.83752584
 21
-103.80091845
 31
0.0
  0
LINE
  5
203
100
AcDbEntity
  8
LAYER0001
  6
CONTINUOUS
 62
       7
100
AcDbLine
 10
-102.83752584
 20
-103.80091845
 30
0.0
 11
-102.89253166
 21
-103.79116976
 31
0.0
  0
LINE
  5
204
100
AcDbEntity
  8
LAYER0001
  6
CONTINUOUS
 62
       7
100
AcDbLine
 10
-102.89253166
 20
-103.79116976
 30
0.0
 11
-102.94748364
 21
-103.78071662
 31
0.0
  0
LINE
  5
205
100
AcDbEntity
  8
LAYER0001
  6
CONTINUOUS
 62
       7
100
AcDbLine
 10
-102.94748364
 20
-103.78071662
 30
0.0
 11
-103.00238565
 21
-103.76960933
 31
0.0
  0
LINE
  5
206
100
AcDbEntity
  8
LAYER0001
  6
CONTINUOUS
 62
       7
100
AcDbLine
 10
-103.00238565
 20
-103.76960933
 30
0.0
 11
-103.05724152
 21
-103.75789823
 31
0.0
  0
LINE
  5
207
100
AcDbEntity
  8
LAYER0001
  6
CONTINUOUS
 62
       7
100
AcDbLine
 10
-103.05724152
 20
-103.75789823
 30
0.0
 11
-103.11205509
 21
-103.74563362
 31
0.0
  0
LINE
  5
208
100
AcDbEntity
  8
LAYER0001
  6
CONTINUOUS
 62
       7
100
AcDbLine
 10
-103.11205509
 20
-103.74563362
 30
0.0
 11
-103.16683021
 21
-103.73286583
 31
0.0
  0
LINE
  5
209
100
AcDbEntity
  8
LAYER0001
  6
CONTINUOUS
 62
       7
100
AcDbLine
 10
-103.16683021
 20
-103.73286583
 30
0.0
 11
-103.22157073
 21
-103.71964517
 31
0.0
  0
LINE
  5
20A
100
AcDbEntity
  8
LAYER0001
  6
CONTINUOUS
 62
       7
100
AcDbLine
 10
-103.22157073
 20
-103.71964517
 30
0.0
 11
-103.2762805
 21
-103.70602197
 31
0.0
  0
LINE
  5
20B
100
AcDbEntity
  8
LAYER0001
  6
CONTINUOUS
 62
       7
100
AcDbLine
 10
-103.2762805
 20
-103.70602197
 30
0.0
 11
-103.33096334
 21
-103.69204654
 31
0.0
  0
LINE
  5
20C
100
AcDbEntity
  8
LAYER0001
  6
CONTINUOUS
 62
       7
100
AcDbLine
 10
-103.33096334
 20
-103.69204654
 30
0.0
 11
-103.38562312
 21
-103.6777692
 31
0.0
  0
LINE
  5
20D
100
AcDbEntity
  8
LAYER0001
  6
CONTINUOUS
 62
       7
100
AcDbLine
 10
-103.38562312
 20
-103.6777692
 30
0.0
 11
-103.44026368
 21
-103.66324026
 31
0.0
  0
LINE
  5
20E
100
AcDbEntity
  8
LAYER0001
  6
CONTINUOUS
 62
       7
100
AcDbLine
 10
-103.44026368
 20
-103.66324026
 30
0.0
 11
-103.49488885
 21
-103.64851006
 31
0.0
  0
LINE
  5
20F
100
AcDbEntity
  8
LAYER0001
  6
CONTINUOUS
 62
       7
100
AcDbLine
 10
-103.49488885
 20
-103.64851006
 30
0.0
 11
-103.5495025
 21
-103.6336289
 31
0.0
  0
LINE
  5
210
100
AcDbEntity
  8
LAYER0001
  6
CONTINUOUS
 62
       7
100
AcDbLine
 10
-103.5495025
 20
-103.6336289
 30
0.0
 11
-103.60410845
 21
-103.6186471
 31
0.0
  0
LINE
  5
211
100
AcDbEntity
  8
LAYER0001
  6
CONTINUOUS
 62
       7
100
AcDbLine
 10
-103.60410845
 20
-103.6186471
 30
0.0
 11
-103.65871055
 21
-103.60361498
 31
0.0
  0
ENDBLK
  5
212
100
AcDbEntity
  8
0
100
AcDbBlockEnd
  0
BLOCK
  5
213
100
AcDbEntity
  8
0
100
AcDbBlockBegin
  2
GROUP_11
 70
       0
 10
0.0
 20
0.0
 30
0.0
  3
GROUP_11
  1

  0
LINE
  5
214
100
AcDbEntity
  8
LAYER0001
  6
CONTINUOUS
 62
       7
100
AcDbLine
 10
-100.90871057
 20
-103.84923501
 30
0.0
 11
-100.90871057
 21
-103.84768785
 31
0.0
  0
LINE
  5
215
100
AcDbEntity
  8
LAYER0001
  6
CONTINUOUS
 62
       7
100
AcDbLine
 10
-100.90871057
 20
-103.84768785
 30
0.0
 11
-100.90871057
 21
-103.84595864
 31
0.0
  0
LINE
  5
216
100
AcDbEntity
  8
LAYER0001
  6
CONTINUOUS
 62
       7
100
AcDbLine
 10
-100.90871057
 20
-103.84595864
 30
0.0
 11
-100.90871057
 21
-103.84386532
 31
0.0
  0
LINE
  5
217
100
AcDbEntity
  8
LAYER0001
  6
CONTINUOUS
 62
       7
100
AcDbLine
 10
-100.90871057
 20
-103.84386532
 30
0.0
 11
-100.90871057
 21
-103.84122585
 31
0.0
  0
LINE
  5
218
100
AcDbEntity
  8
LAYER0001
  6
CONTINUOUS
 62
       7
100
AcDbLine
 10
-100.90871057
 20
-103.84122585
 30
0.0
 11
-100.90871057
 21
-103.83785817
 31
0.0
  0
LINE
  5
219
100
AcDbEntity
  8
LAYER0001
  6
CONTINUOUS
 62
       7
100
AcDbLine
 10
-100.90871057
 20
-103.83785817
 30
0.0
 11
-100.90871057
 21
-103.83358023
 31
0.0
  0
LINE
  5
21A
100
AcDbEntity
  8
LAYER0001
  6
CONTINUOUS
 62
       7
100
AcDbLine
 10
-100.90871057
 20
-103.83358023
 30
0.0
 11
-100.90871057
 21
-103.82822637
 31
0.0
  0
LINE
  5
21B
100
AcDbEntity
  8
LAYER0001
  6
CONTINUOUS
 62
       7
100
AcDbLine
 10
-100.90871057
 20
-103.82822637
 30
0.0
 11
-100.90871057
 21
-103.8217786
 31
0.0
  0
LINE
  5
21C
100
AcDbEntity
  8
LAYER0001
  6
CONTINUOUS
 62
       7
100
AcDbLine
 10
-100.90871057
 20
-103.8217786
 30
0.0
 11
-100.90871057
 21
-103.814297
 31
0.0
  0
LINE
  5
21D
100
AcDbEntity
  8
LAYER0001
  6
CONTINUOUS
 62
       7
100
AcDbLine
 10
-100.90871057
 20
-103.814297
 30
0.0
 11
-100.90871057
 21
-103.80584239
 31
0.0
  0
LINE
  5
21E
100
AcDbEntity
  8
LAYER0001
  6
CONTINUOUS
 62
       7
100
AcDbLine
 10
-100.90871057
 20
-103.80584239
 30
0.0
 11
-100.90871057
 21
-103.79647558
 31
0.0
  0
LINE
  5
21F
100
AcDbEntity
  8
LAYER0001
  6
CONTINUOUS
 62
       7
100
AcDbLine
 10
-100.90871057
 20
-103.79647558
 30
0.0
 11
-100.90871057
 21
-103.78625739
 31
0.0
  0
LINE
  5
220
100
AcDbEntity
  8
LAYER0001
  6
CONTINUOUS
 62
       7
100
AcDbLine
 10
-100.90871057
 20
-103.78625739
 30
0.0
 11
-100.90871057
 21
-103.77524863
 31
0.0
  0
LINE
  5
221
100
AcDbEntity
  8
LAYER0001
  6
CONTINUOUS
 62
       7
100
AcDbLine
 10
-100.90871057
 20
-103.77524863
 30
0.0
 11
-100.90871057
 21
-103.76351012
 31
0.0
  0
LINE
  5
222
100
AcDbEntity
  8
LAYER0001
  6
CONTINUOUS
 62
       7
100
AcDbLine
 10
-100.90871057
 20
-103.76351012
 30
0.0
 11
-100.90871057
 21
-103.75110265
 31
0.0
  0
LINE
  5
223
100
AcDbEntity
  8
LAYER0001
  6
CONTINUOUS
 62
       7
100
AcDbLine
 10
-100.90871057
 20
-103.75110265
 30
0.0
 11
-100.90871057
 21
-103.73808706
 31
0.0
  0
LINE
  5
224
100
AcDbEntity
  8
LAYER0001
  6
CONTINUOUS
 62
       7
100
AcDbLine
 10
-100.90871057
 20
-103.73808706
 30
0.0
 11
-100.90871057
 21
-103.72452415
 31
0.0
  0
LINE
  5
225
100
AcDbEntity
  8
LAYER0001
  6
CONTINUOUS
 62
       7
100
AcDbLine
 10
-100.90871057
 20
-103.72452415
 30
0.0
 11
-100.90871057
 21
-103.71047473
 31
0.0
  0
LINE
  5
226
100
AcDbEntity
  8
LAYER0001
  6
CONTINUOUS
 62
       7
100
AcDbLine
 10
-100.90871057
 20
-103.71047473
 30
0.0
 11
-100.90871057
 21
-103.69599962
 31
0.0
  0
LINE
  5
227
100
AcDbEntity
  8
LAYER0001
  6
CONTINUOUS
 62
       7
100
AcDbLine
 10
-100.90871057
 20
-103.69599962
 30
0.0
 11
-100.90871057
 21
-103.68115964
 31
0.0
  0
LINE
  5
228
100
AcDbEntity
  8
LAYER0001
  6
CONTINUOUS
 62
       7
100
AcDbLine
 10
-100.90871057
 20
-103.68115964
 30
0.0
 11
-100.90871057
 21
-103.66601558
 31
0.0
  0
LINE
  5
229
100
AcDbEntity
  8
LAYER0001
  6
CONTINUOUS
 62
       7
100
AcDbLine
 10
-100.90871057
 20
-103.66601558
 30
0.0
 11
-100.90871057
 21
-103.65062828
 31
0.0
  0
LINE
  5
22A
100
AcDbEntity
  8
LAYER0001
  6
CONTINUOUS
 62
       7
100
AcDbLine
 10
-100.90871057
 20
-103.65062828
 30
0.0
 11
-100.90871057
 21
-103.63505854
 31
0.0
  0
LINE
  5
22B
100
AcDbEntity
  8
LAYER0001
  6
CONTINUOUS
 62
       7
100
AcDbLine
 10
-100.90871057
 20
-103.63505854
 30
0.0
 11
-100.90871057
 21
-103.61936717
 31
0.0
  0
LINE
  5
22C
100
AcDbEntity
  8
LAYER0001
  6
CONTINUOUS
 62
       7
100
AcDbLine
 10
-100.90871057
 20
-103.61936717
 30
0.0
 11
-100.90871057
 21
-103.60361498
 31
0.0
  0
ENDBLK
  5
22D
100
AcDbEntity
  8
0
100
AcDbBlockEnd
  0
BLOCK
  5
22E
100
AcDbEntity
  8
0
100
AcDbBlockBegin
  2
GROUP_12
 70
       0
 10
0.0
 20
0.0
 30
0.0
  3
GROUP_12
  1

  0
LINE
  5
22F
100
AcDbEntity
  8
LAYER0001
  6
CONTINUOUS
 62
       7
100
AcDbLine
 10
-106.40871054
 20
-103.60361498
 30
0.0
 11
-106.40871054
 21
-103.61936717
 31
0.0
  0
LINE
  5
230
100
AcDbEntity
  8
LAYER0001
  6
CONTINUOUS
 62
       7
100
AcDbLine
 10
-106.40871054
 20
-103.61936717
 30
0.0
 11
-106.40871054
 21
-103.63505854
 31
0.0
  0
LINE
  5
231
100
AcDbEntity
  8
LAYER0001
  6
CONTINUOUS
 62
       7
100
AcDbLine
 10
-106.40871054
 20
-103.63505854
 30
0.0
 11
-106.40871054
 21
-103.65062828
 31
0.0
  0
LINE
  5
232
100
AcDbEntity
  8
LAYER0001
  6
CONTINUOUS
 62
       7
100
AcDbLine
 10
-106.40871054
 20
-103.65062828
 30
0.0
 11
-106.40871054
 21
-103.66601558
 31
0.0
  0
LINE
  5
233
100
AcDbEntity
  8
LAYER0001
  6
CONTINUOUS
 62
       7
100
AcDbLine
 10
-106.40871054
 20
-103.66601558
 30
0.0
 11
-106.40871054
 21
-103.68115964
 31
0.0
  0
LINE
  5
234
100
AcDbEntity
  8
LAYER0001
  6
CONTINUOUS
 62
       7
100
AcDbLine
 10
-106.40871054
 20
-103.68115964
 30
0.0
 11
-106.40871054
 21
-103.69599962
 31
0.0
  0
LINE
  5
235
100
AcDbEntity
  8
LAYER0001
  6
CONTINUOUS
 62
       7
100
AcDbLine
 10
-106.40871054
 20
-103.69599962
 30
0.0
 11
-106.40871054
 21
-103.71047473
 31
0.0
  0
LINE
  5
236
100
AcDbEntity
  8
LAYER0001
  6
CONTINUOUS
 62
       7
100
AcDbLine
 10
-106.40871054
 20
-103.71047473
 30
0.0
 11
-106.40871054
 21
-103.72452415
 31
0.0
  0
LINE
  5
237
100
AcDbEntity
  8
LAYER0001
  6
CONTINUOUS
 62
       7
100
AcDbLine
 10
-106.40871054
 20
-103.72452415
 30
0.0
 11
-106.40871054
 21
-103.73808706
 31
0.0
  0
LINE
  5
238
100
AcDbEntity
  8
LAYER0001
  6
CONTINUOUS
 62
       7
100
AcDbLine
 10
-106.40871054
 20
-103.73808706
 30
0.0
 11
-106.40871054
 21
-103.75110265
 31
0.0
  0
LINE
  5
239
100
AcDbEntity
  8
LAYER0001
  6
CONTINUOUS
 62
       7
100
AcDbLine
 10
-106.40871054
 20
-103.75110265
 30
0.0
 11
-106.40871054
 21
-103.76351012
 31
0.0
  0
LINE
  5
23A
100
AcDbEntity
  8
LAYER0001
  6
CONTINUOUS
 62
       7
100
AcDbLine
 10
-106.40871054
 20
-103.76351012
 30
0.0
 11
-106.40871054
 21
-103.77524863
 31
0.0
  0
LINE
  5
23B
100
AcDbEntity
  8
LAYER0001
  6
CONTINUOUS
 62
       7
100
AcDbLine
 10
-106.40871054
 20
-103.77524863
 30
0.0
 11
-106.40871054
 21
-103.78625739
 31
0.0
  0
LINE
  5
23C
100
AcDbEntity
  8
LAYER0001
  6
CONTINUOUS
 62
       7
100
AcDbLine
 10
-106.40871054
 20
-103.78625739
 30
0.0
 11
-106.40871054
 21
-103.79647558
 31
0.0
  0
LINE
  5
23D
100
AcDbEntity
  8
LAYER0001
  6
CONTINUOUS
 62
       7
100
AcDbLine
 10
-106.40871054
 20
-103.79647558
 30
0.0
 11
-106.40871054
 21
-103.80584239
 31
0.0
  0
LINE
  5
23E
100
AcDbEntity
  8
LAYER0001
  6
CONTINUOUS
 62
       7
100
AcDbLine
 10
-106.40871054
 20
-103.80584239
 30
0.0
 11
-106.40871054
 21
-103.814297
 31
0.0
  0
LINE
  5
23F
100
AcDbEntity
  8
LAYER0001
  6
CONTINUOUS
 62
       7
100
AcDbLine
 10
-106.40871054
 20
-103.814297
 30
0.0
 11
-106.40871054
 21
-103.8217786
 31
0.0
  0
LINE
  5
240
100
AcDbEntity
  8
LAYER0001
  6
CONTINUOUS
 62
       7
100
AcDbLine
 10
-106.40871054
 20
-103.8217786
 30
0.0
 11
-106.40871054
 21
-103.82822637
 31
0.0
  0
LINE
  5
241
100
AcDbEntity
  8
LAYER0001
  6
CONTINUOUS
 62
       7
100
AcDbLine
 10
-106.40871054
 20
-103.82822637
 30
0.0
 11
-106.40871054
 21
-103.83358023
 31
0.0
  0
LINE
  5
242
100
AcDbEntity
  8
LAYER0001
  6
CONTINUOUS
 62
       7
100
AcDbLine
 10
-106.40871054
 20
-103.83358023
 30
0.0
 11
-106.40871054
 21
-103.83785817
 31
0.0
  0
LINE
  5
243
100
AcDbEntity
  8
LAYER0001
  6
CONTINUOUS
 62
       7
100
AcDbLine
 10
-106.40871054
 20
-103.83785817
 30
0.0
 11
-106.40871054
 21
-103.84122585
 31
0.0
  0
LINE
  5
244
100
AcDbEntity
  8
LAYER0001
  6
CONTINUOUS
 62
       7
100
AcDbLine
 10
-106.40871054
 20
-103.84122585
 30
0.0
 11
-106.40871054
 21
-103.84386532
 31
0.0
  0
LINE
  5
245
100
AcDbEntity
  8
LAYER0001
  6
CONTINUOUS
 62
       7
100
AcDbLine
 10
-106.40871054
 20
-103.84386532
 30
0.0
 11
-106.40871054
 21
-103.84595864
 31
0.0
  0
LINE
  5
246
100
AcDbEntity
  8
LAYER0001
  6
CONTINUOUS
 62
       7
100
AcDbLine
 10
-106.40871054
 20
-103.84595864
 30
0.0
 11
-106.40871054
 21
-103.84768785
 31
0.0
  0
LINE
  5
247
100
AcDbEntity
  8
LAYER0001
  6
CONTINUOUS
 62
       7
100
AcDbLine
 10
-106.40871054
 20
-103.84768785
 30
0.0
 11
-106.40871054
 21
-103.84923501
 31
0.0
  0
ENDBLK
  5
248
100
AcDbEntity
  8
0
100
AcDbBlockEnd
  0
BLOCK
  5
249
100
AcDbEntity
  8
0
100
AcDbBlockBegin
  2
GROUP_13
 70
       0
 10
0.0
 20
0.0
 30
0.0
  3
GROUP_13
  1

  0
LINE
  5
24A
100
AcDbEntity
  8
LAYER0001
  6
CONTINUOUS
 62
       7
100
AcDbLine
 10
-89.29332992
 20
-103.84923501
 30
0.0
 11
-89.34903984
 21
-103.84870476
 31
0.0
  0
LINE
  5
24B
100
AcDbEntity
  8
LAYER0001
  6
CONTINUOUS
 62
       7
100
AcDbLine
 10
-89.34903984
 20
-103.84870476
 30
0.0
 11
-89.40469894
 21
-103.84750932
 31
0.0
  0
LINE
  5
24C
100
AcDbEntity
  8
LAYER0001
  6
CONTINUOUS
 62
       7
100
AcDbLine
 10
-89.40469894
 20
-103.84750932
 30
0.0
 11
-89.46027356
 21
-103.84520775
 31
0.0
  0
LINE
  5
24D
100
AcDbEntity
  8
LAYER0001
  6
CONTINUOUS
 62
       7
100
AcDbLine
 10
-89.46027356
 20
-103.84520775
 30
0.0
 11
-89.51576363
 21
-103.84179917
 31
0.0
  0
LINE
  5
24E
100
AcDbEntity
  8
LAYER0001
  6
CONTINUOUS
 62
       7
100
AcDbLine
 10
-89.51576363
 20
-103.84179917
 30
0.0
 11
-89.57117299
 21
-103.83733391
 31
0.0
  0
LINE
  5
24F
100
AcDbEntity
  8
LAYER0001
  6
CONTINUOUS
 62
       7
100
AcDbLine
 10
-89.57117299
 20
-103.83733391
 30
0.0
 11
-89.62650548
 21
-103.83186228
 31
0.0
  0
LINE
  5
250
100
AcDbEntity
  8
LAYER0001
  6
CONTINUOUS
 62
       7
100
AcDbLine
 10
-89.62650548
 20
-103.83186228
 30
0.0
 11
-89.68176496
 21
-103.82543461
 31
0.0
  0
LINE
  5
251
100
AcDbEntity
  8
LAYER0001
  6
CONTINUOUS
 62
       7
100
AcDbLine
 10
-89.68176496
 20
-103.82543461
 30
0.0
 11
-89.73695525
 21
-103.8181012
 31
0.0
  0
LINE
  5
252
100
AcDbEntity
  8
LAYER0001
  6
CONTINUOUS
 62
       7
100
AcDbLine
 10
-89.73695525
 20
-103.8181012
 30
0.0
 11
-89.7920802
 21
-103.80991238
 31
0.0
  0
LINE
  5
253
100
AcDbEntity
  8
LAYER0001
  6
CONTINUOUS
 62
       7
100
AcDbLine
 10
-89.7920802
 20
-103.80991238
 30
0.0
 11
-89.84714366
 21
-103.80091847
 31
0.0
  0
LINE
  5
254
100
AcDbEntity
  8
LAYER0001
  6
CONTINUOUS
 62
       7
100
AcDbLine
 10
-89.84714366
 20
-103.80091847
 30
0.0
 11
-89.90214948
 21
-103.79116978
 31
0.0
  0
LINE
  5
255
100
AcDbEntity
  8
LAYER0001
  6
CONTINUOUS
 62
       7
100
AcDbLine
 10
-89.90214948
 20
-103.79116978
 30
0.0
 11
-89.95710148
 21
-103.78071663
 31
0.0
  0
LINE
  5
256
100
AcDbEntity
  8
LAYER0001
  6
CONTINUOUS
 62
       7
100
AcDbLine
 10
-89.95710148
 20
-103.78071663
 30
0.0
 11
-90.01200353
 21
-103.76960935
 31
0.0
  0
LINE
  5
257
100
AcDbEntity
  8
LAYER0001
  6
CONTINUOUS
 62
       7
100
AcDbLine
 10
-90.01200353
 20
-103.76960935
 30
0.0
 11
-90.06685945
 21
-103.75789824
 31
0.0
  0
LINE
  5
258
100
AcDbEntity
  8
LAYER0001
  6
CONTINUOUS
 62
       7
100
AcDbLine
 10
-90.06685945
 20
-103.75789824
 30
0.0
 11
-90.1216731
 21
-103.74563363
 31
0.0
  0
LINE
  5
259
100
AcDbEntity
  8
LAYER0001
  6
CONTINUOUS
 62
       7
100
AcDbLine
 10
-90.1216731
 20
-103.74563363
 30
0.0
 11
-90.17644832
 21
-103.73286584
 31
0.0
  0
LINE
  5
25A
100
AcDbEntity
  8
LAYER0001
  6
CONTINUOUS
 62
       7
100
AcDbLine
 10
-90.17644832
 20
-103.73286584
 30
0.0
 11
-90.23118894
 21
-103.71964518
 31
0.0
  0
LINE
  5
25B
100
AcDbEntity
  8
LAYER0001
  6
CONTINUOUS
 62
       7
100
AcDbLine
 10
-90.23118894
 20
-103.71964518
 30
0.0
 11
-90.28589882
 21
-103.70602198
 31
0.0
  0
LINE
  5
25C
100
AcDbEntity
  8
LAYER0001
  6
CONTINUOUS
 62
       7
100
AcDbLine
 10
-90.28589882
 20
-103.70602198
 30
0.0
 11
-90.3405818
 21
-103.69204655
 31
0.0
  0
LINE
  5
25D
100
AcDbEntity
  8
LAYER0001
  6
CONTINUOUS
 62
       7
100
AcDbLine
 10
-90.3405818
 20
-103.69204655
 30
0.0
 11
-90.39524172
 21
-103.67776921
 31
0.0
  0
LINE
  5
25E
100
AcDbEntity
  8
LAYER0001
  6
CONTINUOUS
 62
       7
100
AcDbLine
 10
-90.39524172
 20
-103.67776921
 30
0.0
 11
-90.44988242
 21
-103.66324027
 31
0.0
  0
LINE
  5
25F
100
AcDbEntity
  8
LAYER0001
  6
CONTINUOUS
 62
       7
100
AcDbLine
 10
-90.44988242
 20
-103.66324027
 30
0.0
 11
-90.50450774
 21
-103.64851006
 31
0.0
  0
LINE
  5
260
100
AcDbEntity
  8
LAYER0001
  6
CONTINUOUS
 62
       7
100
AcDbLine
 10
-90.50450774
 20
-103.64851006
 30
0.0
 11
-90.55912154
 21
-103.6336289
 31
0.0
  0
LINE
  5
261
100
AcDbEntity
  8
LAYER0001
  6
CONTINUOUS
 62
       7
100
AcDbLine
 10
-90.55912154
 20
-103.6336289
 30
0.0
 11
-90.61372765
 21
-103.6186471
 31
0.0
  0
LINE
  5
262
100
AcDbEntity
  8
LAYER0001
  6
CONTINUOUS
 62
       7
100
AcDbLine
 10
-90.61372765
 20
-103.6186471
 30
0.0
 11
-90.66832992
 21
-103.60361498
 31
0.0
  0
ENDBLK
  5
263
100
AcDbEntity
  8
0
100
AcDbBlockEnd
  0
BLOCK
  5
264
100
AcDbEntity
  8
0
100
AcDbBlockBegin
  2
GROUP_14
 70
       0
 10
0.0
 20
0.0
 30
0.0
  3
GROUP_14
  1

  0
LINE
  5
265
100
AcDbEntity
  8
LAYER0001
  6
CONTINUOUS
 62
       7
100
AcDbLine
 10
-92.04332991
 20
-103.84923501
 30
0.0
 11
-92.09903982
 21
-103.84870476
 31
0.0
  0
LINE
  5
266
100
AcDbEntity
  8
LAYER0001
  6
CONTINUOUS
 62
       7
100
AcDbLine
 10
-92.09903982
 20
-103.84870476
 30
0.0
 11
-92.15469893
 21
-103.84750932
 31
0.0
  0
LINE
  5
267
100
AcDbEntity
  8
LAYER0001
  6
CONTINUOUS
 62
       7
100
AcDbLine
 10
-92.15469893
 20
-103.84750932
 30
0.0
 11
-92.21027355
 21
-103.84520775
 31
0.0
  0
LINE
  5
268
100
AcDbEntity
  8
LAYER0001
  6
CONTINUOUS
 62
       7
100
AcDbLine
 10
-92.21027355
 20
-103.84520775
 30
0.0
 11
-92.26576362
 21
-103.84179917
 31
0.0
  0
LINE
  5
269
100
AcDbEntity
  8
LAYER0001
  6
CONTINUOUS
 62
       7
100
AcDbLine
 10
-92.26576362
 20
-103.84179917
 30
0.0
 11
-92.32117298
 21
-103.83733391
 31
0.0
  0
LINE
  5
26A
100
AcDbEntity
  8
LAYER0001
  6
CONTINUOUS
 62
       7
100
AcDbLine
 10
-92.32117298
 20
-103.83733391
 30
0.0
 11
-92.37650547
 21
-103.83186228
 31
0.0
  0
LINE
  5
26B
100
AcDbEntity
  8
LAYER0001
  6
CONTINUOUS
 62
       7
100
AcDbLine
 10
-92.37650547
 20
-103.83186228
 30
0.0
 11
-92.43176494
 21
-103.82543461
 31
0.0
  0
LINE
  5
26C
100
AcDbEntity
  8
LAYER0001
  6
CONTINUOUS
 62
       7
100
AcDbLine
 10
-92.43176494
 20
-103.82543461
 30
0.0
 11
-92.48695523
 21
-103.8181012
 31
0.0
  0
LINE
  5
26D
100
AcDbEntity
  8
LAYER0001
  6
CONTINUOUS
 62
       7
100
AcDbLine
 10
-92.48695523
 20
-103.8181012
 30
0.0
 11
-92.54208019
 21
-103.80991238
 31
0.0
  0
LINE
  5
26E
100
AcDbEntity
  8
LAYER0001
  6
CONTINUOUS
 62
       7
100
AcDbLine
 10
-92.54208019
 20
-103.80991238
 30
0.0
 11
-92.59714365
 21
-103.80091847
 31
0.0
  0
LINE
  5
26F
100
AcDbEntity
  8
LAYER0001
  6
CONTINUOUS
 62
       7
100
AcDbLine
 10
-92.59714365
 20
-103.80091847
 30
0.0
 11
-92.65214946
 21
-103.79116978
 31
0.0
  0
LINE
  5
270
100
AcDbEntity
  8
LAYER0001
  6
CONTINUOUS
 62
       7
100
AcDbLine
 10
-92.65214946
 20
-103.79116978
 30
0.0
 11
-92.70710147
 21
-103.78071663
 31
0.0
  0
LINE
  5
271
100
AcDbEntity
  8
LAYER0001
  6
CONTINUOUS
 62
       7
100
AcDbLine
 10
-92.70710147
 20
-103.78071663
 30
0.0
 11
-92.76200351
 21
-103.76960935
 31
0.0
  0
LINE
  5
272
100
AcDbEntity
  8
LAYER0001
  6
CONTINUOUS
 62
       7
100
AcDbLine
 10
-92.76200351
 20
-103.76960935
 30
0.0
 11
-92.81685944
 21
-103.75789824
 31
0.0
  0
LINE
  5
273
100
AcDbEntity
  8
LAYER0001
  6
CONTINUOUS
 62
       7
100
AcDbLine
 10
-92.81685944
 20
-103.75789824
 30
0.0
 11
-92.87167309
 21
-103.74563363
 31
0.0
  0
LINE
  5
274
100
AcDbEntity
  8
LAYER0001
  6
CONTINUOUS
 62
       7
100
AcDbLine
 10
-92.87167309
 20
-103.74563363
 30
0.0
 11
-92.9264483
 21
-103.73286584
 31
0.0
  0
LINE
  5
275
100
AcDbEntity
  8
LAYER0001
  6
CONTINUOUS
 62
       7
100
AcDbLine
 10
-92.9264483
 20
-103.73286584
 30
0.0
 11
-92.98118893
 21
-103.71964518
 31
0.0
  0
LINE
  5
276
100
AcDbEntity
  8
LAYER0001
  6
CONTINUOUS
 62
       7
100
AcDbLine
 10
-92.98118893
 20
-103.71964518
 30
0.0
 11
-93.03589881
 21
-103.70602198
 31
0.0
  0
LINE
  5
277
100
AcDbEntity
  8
LAYER0001
  6
CONTINUOUS
 62
       7
100
AcDbLine
 10
-93.03589881
 20
-103.70602198
 30
0.0
 11
-93.09058178
 21
-103.69204655
 31
0.0
  0
LINE
  5
278
100
AcDbEntity
  8
LAYER0001
  6
CONTINUOUS
 62
       7
100
AcDbLine
 10
-93.09058178
 20
-103.69204655
 30
0.0
 11
-93.1452417
 21
-103.67776921
 31
0.0
  0
LINE
  5
279
100
AcDbEntity
  8
LAYER0001
  6
CONTINUOUS
 62
       7
100
AcDbLine
 10
-93.1452417
 20
-103.67776921
 30
0.0
 11
-93.1998824
 21
-103.66324027
 31
0.0
  0
LINE
  5
27A
100
AcDbEntity
  8
LAYER0001
  6
CONTINUOUS
 62
       7
100
AcDbLine
 10
-93.1998824
 20
-103.66324027
 30
0.0
 11
-93.25450773
 21
-103.64851006
 31
0.0
  0
LINE
  5
27B
100
AcDbEntity
  8
LAYER0001
  6
CONTINUOUS
 62
       7
100
AcDbLine
 10
-93.25450773
 20
-103.64851006
 30
0.0
 11
-93.30912152
 21
-103.6336289
 31
0.0
  0
LINE
  5
27C
100
AcDbEntity
  8
LAYER0001
  6
CONTINUOUS
 62
       7
100
AcDbLine
 10
-93.30912152
 20
-103.6336289
 30
0.0
 11
-93.36372763
 21
-103.6186471
 31
0.0
  0
LINE
  5
27D
100
AcDbEntity
  8
LAYER0001
  6
CONTINUOUS
 62
       7
100
AcDbLine
 10
-93.36372763
 20
-103.6186471
 30
0.0
 11
-93.4183299
 21
-103.60361498
 31
0.0
  0
ENDBLK
  5
27E
100
AcDbEntity
  8
0
100
AcDbBlockEnd
  0
BLOCK
  5
27F
100
AcDbEntity
  8
0
100
AcDbBlockBegin
  2
GROUP_15
 70
       0
 10
0.0
 20
0.0
 30
0.0
  3
GROUP_15
  1

  0
LINE
  5
280
100
AcDbEntity
  8
LAYER0001
  6
CONTINUOUS
 62
       7
100
AcDbLine
 10
-87.918329
 20
-103.84923501
 30
0.0
 11
-87.918329
 21
-103.84768786
 31
0.0
  0
LINE
  5
281
100
AcDbEntity
  8
LAYER0001
  6
CONTINUOUS
 62
       7
100
AcDbLine
 10
-87.918329
 20
-103.84768786
 30
0.0
 11
-87.918329
 21
-103.84595865
 31
0.0
  0
LINE
  5
282
100
AcDbEntity
  8
LAYER0001
  6
CONTINUOUS
 62
       7
100
AcDbLine
 10
-87.918329
 20
-103.84595865
 30
0.0
 11
-87.918329
 21
-103.84386534
 31
0.0
  0
LINE
  5
283
100
AcDbEntity
  8
LAYER0001
  6
CONTINUOUS
 62
       7
100
AcDbLine
 10
-87.918329
 20
-103.84386534
 30
0.0
 11
-87.918329
 21
-103.84122587
 31
0.0
  0
LINE
  5
284
100
AcDbEntity
  8
LAYER0001
  6
CONTINUOUS
 62
       7
100
AcDbLine
 10
-87.918329
 20
-103.84122587
 30
0.0
 11
-87.918329
 21
-103.83785819
 31
0.0
  0
LINE
  5
285
100
AcDbEntity
  8
LAYER0001
  6
CONTINUOUS
 62
       7
100
AcDbLine
 10
-87.918329
 20
-103.83785819
 30
0.0
 11
-87.918329
 21
-103.83358025
 31
0.0
  0
LINE
  5
286
100
AcDbEntity
  8
LAYER0001
  6
CONTINUOUS
 62
       7
100
AcDbLine
 10
-87.918329
 20
-103.83358025
 30
0.0
 11
-87.918329
 21
-103.82822641
 31
0.0
  0
LINE
  5
287
100
AcDbEntity
  8
LAYER0001
  6
CONTINUOUS
 62
       7
100
AcDbLine
 10
-87.918329
 20
-103.82822641
 30
0.0
 11
-87.918329
 21
-103.82177863
 31
0.0
  0
LINE
  5
288
100
AcDbEntity
  8
LAYER0001
  6
CONTINUOUS
 62
       7
100
AcDbLine
 10
-87.918329
 20
-103.82177863
 30
0.0
 11
-87.918329
 21
-103.81429704
 31
0.0
  0
LINE
  5
289
100
AcDbEntity
  8
LAYER0001
  6
CONTINUOUS
 62
       7
100
AcDbLine
 10
-87.918329
 20
-103.81429704
 30
0.0
 11
-87.918329
 21
-103.80584243
 31
0.0
  0
LINE
  5
28A
100
AcDbEntity
  8
LAYER0001
  6
CONTINUOUS
 62
       7
100
AcDbLine
 10
-87.918329
 20
-103.80584243
 30
0.0
 11
-87.918329
 21
-103.79647562
 31
0.0
  0
LINE
  5
28B
100
AcDbEntity
  8
LAYER0001
  6
CONTINUOUS
 62
       7
100
AcDbLine
 10
-87.918329
 20
-103.79647562
 30
0.0
 11
-87.918329
 21
-103.78625743
 31
0.0
  0
LINE
  5
28C
100
AcDbEntity
  8
LAYER0001
  6
CONTINUOUS
 62
       7
100
AcDbLine
 10
-87.918329
 20
-103.78625743
 30
0.0
 11
-87.918329
 21
-103.77524867
 31
0.0
  0
LINE
  5
28D
100
AcDbEntity
  8
LAYER0001
  6
CONTINUOUS
 62
       7
100
AcDbLine
 10
-87.918329
 20
-103.77524867
 30
0.0
 11
-87.918329
 21
-103.76351015
 31
0.0
  0
LINE
  5
28E
100
AcDbEntity
  8
LAYER0001
  6
CONTINUOUS
 62
       7
100
AcDbLine
 10
-87.918329
 20
-103.76351015
 30
0.0
 11
-87.918329
 21
-103.75110269
 31
0.0
  0
LINE
  5
28F
100
AcDbEntity
  8
LAYER0001
  6
CONTINUOUS
 62
       7
100
AcDbLine
 10
-87.918329
 20
-103.75110269
 30
0.0
 11
-87.918329
 21
-103.7380871
 31
0.0
  0
LINE
  5
290
100
AcDbEntity
  8
LAYER0001
  6
CONTINUOUS
 62
       7
100
AcDbLine
 10
-87.918329
 20
-103.7380871
 30
0.0
 11
-87.918329
 21
-103.72452418
 31
0.0
  0
LINE
  5
291
100
AcDbEntity
  8
LAYER0001
  6
CONTINUOUS
 62
       7
100
AcDbLine
 10
-87.918329
 20
-103.72452418
 30
0.0
 11
-87.918329
 21
-103.71047476
 31
0.0
  0
LINE
  5
292
100
AcDbEntity
  8
LAYER0001
  6
CONTINUOUS
 62
       7
100
AcDbLine
 10
-87.918329
 20
-103.71047476
 30
0.0
 11
-87.918329
 21
-103.69599965
 31
0.0
  0
LINE
  5
293
100
AcDbEntity
  8
LAYER0001
  6
CONTINUOUS
 62
       7
100
AcDbLine
 10
-87.918329
 20
-103.69599965
 30
0.0
 11
-87.918329
 21
-103.68115966
 31
0.0
  0
LINE
  5
294
100
AcDbEntity
  8
LAYER0001
  6
CONTINUOUS
 62
       7
100
AcDbLine
 10
-87.918329
 20
-103.68115966
 30
0.0
 11
-87.918329
 21
-103.6660156
 31
0.0
  0
LINE
  5
295
100
AcDbEntity
  8
LAYER0001
  6
CONTINUOUS
 62
       7
100
AcDbLine
 10
-87.918329
 20
-103.6660156
 30
0.0
 11
-87.918329
 21
-103.65062829
 31
0.0
  0
LINE
  5
296
100
AcDbEntity
  8
LAYER0001
  6
CONTINUOUS
 62
       7
100
AcDbLine
 10
-87.918329
 20
-103.65062829
 30
0.0
 11
-87.918329
 21
-103.63505854
 31
0.0
  0
LINE
  5
297
100
AcDbEntity
  8
LAYER0001
  6
CONTINUOUS
 62
       7
100
AcDbLine
 10
-87.918329
 20
-103.63505854
 30
0.0
 11
-87.918329
 21
-103.61936717
 31
0.0
  0
LINE
  5
298
100
AcDbEntity
  8
LAYER0001
  6
CONTINUOUS
 62
       7
100
AcDbLine
 10
-87.918329
 20
-103.61936717
 30
0.0
 11
-87.918329
 21
-103.60361498
 31
0.0
  0
ENDBLK
  5
299
100
AcDbEntity
  8
0
100
AcDbBlockEnd
  0
BLOCK
  5
29A
100
AcDbEntity
  8
0
100
AcDbBlockBegin
  2
GROUP_16
 70
       0
 10
0.0
 20
0.0
 30
0.0
  3
GROUP_16
  1

  0
LINE
  5
29B
100
AcDbEntity
  8
LAYER0001
  6
CONTINUOUS
 62
       7
100
AcDbLine
 10
-93.4183299
 20
-103.60361498
 30
0.0
 11
-93.4183299
 21
-103.61936717
 31
0.0
  0
LINE
  5
29C
100
AcDbEntity
  8
LAYER0001
  6
CONTINUOUS
 62
       7
100
AcDbLine
 10
-93.4183299
 20
-103.61936717
 30
0.0
 11
-93.4183299
 21
-103.63505854
 31
0.0
  0
LINE
  5
29D
100
AcDbEntity
  8
LAYER0001
  6
CONTINUOUS
 62
       7
100
AcDbLine
 10
-93.4183299
 20
-103.63505854
 30
0.0
 11
-93.4183299
 21
-103.65062829
 31
0.0
  0
LINE
  5
29E
100
AcDbEntity
  8
LAYER0001
  6
CONTINUOUS
 62
       7
100
AcDbLine
 10
-93.4183299
 20
-103.65062829
 30
0.0
 11
-93.4183299
 21
-103.6660156
 31
0.0
  0
LINE
  5
29F
100
AcDbEntity
  8
LAYER0001
  6
CONTINUOUS
 62
       7
100
AcDbLine
 10
-93.4183299
 20
-103.6660156
 30
0.0
 11
-93.4183299
 21
-103.68115966
 31
0.0
  0
LINE
  5
2A0
100
AcDbEntity
  8
LAYER0001
  6
CONTINUOUS
 62
       7
100
AcDbLine
 10
-93.4183299
 20
-103.68115966
 30
0.0
 11
-93.4183299
 21
-103.69599965
 31
0.0
  0
LINE
  5
2A1
100
AcDbEntity
  8
LAYER0001
  6
CONTINUOUS
 62
       7
100
AcDbLine
 10
-93.4183299
 20
-103.69599965
 30
0.0
 11
-93.4183299
 21
-103.71047476
 31
0.0
  0
LINE
  5
2A2
100
AcDbEntity
  8
LAYER0001
  6
CONTINUOUS
 62
       7
100
AcDbLine
 10
-93.4183299
 20
-103.71047476
 30
0.0
 11
-93.4183299
 21
-103.72452418
 31
0.0
  0
LINE
  5
2A3
100
AcDbEntity
  8
LAYER0001
  6
CONTINUOUS
 62
       7
100
AcDbLine
 10
-93.4183299
 20
-103.72452418
 30
0.0
 11
-93.4183299
 21
-103.7380871
 31
0.0
  0
LINE
  5
2A4
100
AcDbEntity
  8
LAYER0001
  6
CONTINUOUS
 62
       7
100
AcDbLine
 10
-93.4183299
 20
-103.7380871
 30
0.0
 11
-93.4183299
 21
-103.75110269
 31
0.0
  0
LINE
  5
2A5
100
AcDbEntity
  8
LAYER0001
  6
CONTINUOUS
 62
       7
100
AcDbLine
 10
-93.4183299
 20
-103.75110269
 30
0.0
 11
-93.4183299
 21
-103.76351015
 31
0.0
  0
LINE
  5
2A6
100
AcDbEntity
  8
LAYER0001
  6
CONTINUOUS
 62
       7
100
AcDbLine
 10
-93.4183299
 20
-103.76351015
 30
0.0
 11
-93.4183299
 21
-103.77524867
 31
0.0
  0
LINE
  5
2A7
100
AcDbEntity
  8
LAYER0001
  6
CONTINUOUS
 62
       7
100
AcDbLine
 10
-93.4183299
 20
-103.77524867
 30
0.0
 11
-93.4183299
 21
-103.78625743
 31
0.0
  0
LINE
  5
2A8
100
AcDbEntity
  8
LAYER0001
  6
CONTINUOUS
 62
       7
100
AcDbLine
 10
-93.4183299
 20
-103.78625743
 30
0.0
 11
-93.4183299
 21
-103.79647562
 31
0.0
  0
LINE
  5
2A9
100
AcDbEntity
  8
LAYER0001
  6
CONTINUOUS
 62
       7
100
AcDbLine
 10
-93.4183299
 20
-103.79647562
 30
0.0
 11
-93.4183299
 21
-103.80584243
 31
0.0
  0
LINE
  5
2AA
100
AcDbEntity
  8
LAYER0001
  6
CONTINUOUS
 62
       7
100
AcDbLine
 10
-93.4183299
 20
-103.80584243
 30
0.0
 11
-93.4183299
 21
-103.81429704
 31
0.0
  0
LINE
  5
2AB
100
AcDbEntity
  8
LAYER0001
  6
CONTINUOUS
 62
       7
100
AcDbLine
 10
-93.4183299
 20
-103.81429704
 30
0.0
 11
-93.4183299
 21
-103.82177863
 31
0.0
  0
LINE
  5
2AC
100
AcDbEntity
  8
LAYER0001
  6
CONTINUOUS
 62
       7
100
AcDbLine
 10
-93.4183299
 20
-103.82177863
 30
0.0
 11
-93.4183299
 21
-103.82822641
 31
0.0
  0
LINE
  5
2AD
100
AcDbEntity
  8
LAYER0001
  6
CONTINUOUS
 62
       7
100
AcDbLine
 10
-93.4183299
 20
-103.82822641
 30
0.0
 11
-93.4183299
 21
-103.83358025
 31
0.0
  0
LINE
  5
2AE
100
AcDbEntity
  8
LAYER0001
  6
CONTINUOUS
 62
       7
100
AcDbLine
 10
-93.4183299
 20
-103.83358025
 30
0.0
 11
-93.4183299
 21
-103.83785819
 31
0.0
  0
LINE
  5
2AF
100
AcDbEntity
  8
LAYER0001
  6
CONTINUOUS
 62
       7
100
AcDbLine
 10
-93.4183299
 20
-103.83785819
 30
0.0
 11
-93.4183299
 21
-103.84122587
 31
0.0
  0
LINE
  5
2B0
100
AcDbEntity
  8
LAYER0001
  6
CONTINUOUS
 62
       7
100
AcDbLine
 10
-93.4183299
 20
-103.84122587
 30
0.0
 11
-93.4183299
 21
-103.84386534
 31
0.0
  0
LINE
  5
2B1
100
AcDbEntity
  8
LAYER0001
  6
CONTINUOUS
 62
       7
100
AcDbLine
 10
-93.4183299
 20
-103.84386534
 30
0.0
 11
-93.4183299
 21
-103.84595865
 31
0.0
  0
LINE
  5
2B2
100
AcDbEntity
  8
LAYER0001
  6
CONTINUOUS
 62
       7
100
AcDbLine
 10
-93.4183299
 20
-103.84595865
 30
0.0
 11
-93.4183299
 21
-103.84768786
 31
0.0
  0
LINE
  5
2B3
100
AcDbEntity
  8
LAYER0001
  6
CONTINUOUS
 62
       7
100
AcDbLine
 10
-93.4183299
 20
-103.84768786
 30
0.0
 11
-93.4183299
 21
-103.84923501
 31
0.0
  0
ENDBLK
  5
2B4
100
AcDbEntity
  8
0
100
AcDbBlockEnd
  0
BLOCK
  5
2B5
100
AcDbEntity
  8
0
100
AcDbBlockBegin
  2
GROUP_17
 70
       0
 10
0.0
 20
0.0
 30
0.0
  3
GROUP_17
  1

  0
LINE
  5
2B6
100
AcDbEntity
  8
LAYER0001
  6
CONTINUOUS
 62
       7
100
AcDbLine
 10
-90.91085082
 20
-90.74923508
 30
0.0
 11
-90.88399594
 21
-90.74962896
 31
0.0
  0
LINE
  5
2B7
100
AcDbEntity
  8
LAYER0001
  6
CONTINUOUS
 62
       7
100
AcDbLine
 10
-90.88399594
 20
-90.74962896
 30
0.0
 11
-90.85728794
 21
-90.75081402
 31
0.0
  0
LINE
  5
2B8
100
AcDbEntity
  8
LAYER0001
  6
CONTINUOUS
 62
       7
100
AcDbLine
 10
-90.85728794
 20
-90.75081402
 30
0.0
 11
-90.83072704
 21
-90.75279542
 31
0.0
  0
LINE
  5
2B9
100
AcDbEntity
  8
LAYER0001
  6
CONTINUOUS
 62
       7
100
AcDbLine
 10
-90.83072704
 20
-90.75279542
 30
0.0
 11
-90.80431346
 21
-90.75557828
 31
0.0
  0
LINE
  5
2BA
100
AcDbEntity
  8
LAYER0001
  6
CONTINUOUS
 62
       7
100
AcDbLine
 10
-90.80431346
 20
-90.75557828
 30
0.0
 11
-90.77804741
 21
-90.75916776
 31
0.0
  0
LINE
  5
2BB
100
AcDbEntity
  8
LAYER0001
  6
CONTINUOUS
 62
       7
100
AcDbLine
 10
-90.77804741
 20
-90.75916776
 30
0.0
 11
-90.75192911
 21
-90.76356899
 31
0.0
  0
LINE
  5
2BC
100
AcDbEntity
  8
LAYER0001
  6
CONTINUOUS
 62
       7
100
AcDbLine
 10
-90.75192911
 20
-90.76356899
 30
0.0
 11
-90.72595877
 21
-90.76878713
 31
0.0
  0
LINE
  5
2BD
100
AcDbEntity
  8
LAYER0001
  6
CONTINUOUS
 62
       7
100
AcDbLine
 10
-90.72595877
 20
-90.76878713
 30
0.0
 11
-90.70013661
 21
-90.7748273
 31
0.0
  0
LINE
  5
2BE
100
AcDbEntity
  8
LAYER0001
  6
CONTINUOUS
 62
       7
100
AcDbLine
 10
-90.70013661
 20
-90.7748273
 30
0.0
 11
-90.67446286
 21
-90.78169466
 31
0.0
  0
LINE
  5
2BF
100
AcDbEntity
  8
LAYER0001
  6
CONTINUOUS
 62
       7
100
AcDbLine
 10
-90.67446286
 20
-90.78169466
 30
0.0
 11
-90.64893771
 21
-90.78939435
 31
0.0
  0
LINE
  5
2C0
100
AcDbEntity
  8
LAYER0001
  6
CONTINUOUS
 62
       7
100
AcDbLine
 10
-90.64893771
 20
-90.78939435
 30
0.0
 11
-90.62356139
 21
-90.7979315
 31
0.0
  0
LINE
  5
2C1
100
AcDbEntity
  8
LAYER0001
  6
CONTINUOUS
 62
       7
100
AcDbLine
 10
-90.62356139
 20
-90.7979315
 30
0.0
 11
-90.59833412
 21
-90.80731127
 31
0.0
  0
LINE
  5
2C2
100
AcDbEntity
  8
LAYER0001
  6
CONTINUOUS
 62
       7
100
AcDbLine
 10
-90.59833412
 20
-90.80731127
 30
0.0
 11
-90.57326701
 21
-90.81753777
 31
0.0
  0
LINE
  5
2C3
100
AcDbEntity
  8
LAYER0001
  6
CONTINUOUS
 62
       7
100
AcDbLine
 10
-90.57326701
 20
-90.81753777
 30
0.0
 11
-90.54843272
 21
-90.82860942
 31
0.0
  0
LINE
  5
2C4
100
AcDbEntity
  8
LAYER0001
  6
CONTINUOUS
 62
       7
100
AcDbLine
 10
-90.54843272
 20
-90.82860942
 30
0.0
 11
-90.52386041
 21
-90.84052864
 31
0.0
  0
LINE
  5
2C5
100
AcDbEntity
  8
LAYER0001
  6
CONTINUOUS
 62
       7
100
AcDbLine
 10
-90.52386041
 20
-90.84052864
 30
0.0
 11
-90.49956916
 21
-90.85329882
 31
0.0
  0
LINE
  5
2C6
100
AcDbEntity
  8
LAYER0001
  6
CONTINUOUS
 62
       7
100
AcDbLine
 10
-90.49956916
 20
-90.85329882
 30
0.0
 11
-90.475578
 21
-90.86692335
 31
0.0
  0
LINE
  5
2C7
100
AcDbEntity
  8
LAYER0001
  6
CONTINUOUS
 62
       7
100
AcDbLine
 10
-90.475578
 20
-90.86692335
 30
0.0
 11
-90.45190601
 21
-90.88140559
 31
0.0
  0
LINE
  5
2C8
100
AcDbEntity
  8
LAYER0001
  6
CONTINUOUS
 62
       7
100
AcDbLine
 10
-90.45190601
 20
-90.88140559
 30
0.0
 11
-90.42857224
 21
-90.89674892
 31
0.0
  0
LINE
  5
2C9
100
AcDbEntity
  8
LAYER0001
  6
CONTINUOUS
 62
       7
100
AcDbLine
 10
-90.42857224
 20
-90.89674892
 30
0.0
 11
-90.40559574
 21
-90.91295673
 31
0.0
  0
LINE
  5
2CA
100
AcDbEntity
  8
LAYER0001
  6
CONTINUOUS
 62
       7
100
AcDbLine
 10
-90.40559574
 20
-90.91295673
 30
0.0
 11
-90.38299557
 21
-90.9300324
 31
0.0
  0
LINE
  5
2CB
100
AcDbEntity
  8
LAYER0001
  6
CONTINUOUS
 62
       7
100
AcDbLine
 10
-90.38299557
 20
-90.9300324
 30
0.0
 11
-90.36079079
 21
-90.9479793
 31
0.0
  0
LINE
  5
2CC
100
AcDbEntity
  8
LAYER0001
  6
CONTINUOUS
 62
       7
100
AcDbLine
 10
-90.36079079
 20
-90.9479793
 30
0.0
 11
-90.33900046
 21
-90.96680082
 31
0.0
  0
LINE
  5
2CD
100
AcDbEntity
  8
LAYER0001
  6
CONTINUOUS
 62
       7
100
AcDbLine
 10
-90.33900046
 20
-90.96680082
 30
0.0
 11
-90.31764363
 21
-90.98650033
 31
0.0
  0
LINE
  5
2CE
100
AcDbEntity
  8
LAYER0001
  6
CONTINUOUS
 62
       7
100
AcDbLine
 10
-90.31764363
 20
-90.98650033
 30
0.0
 11
-90.29673936
 21
-91.00708122
 31
0.0
  0
LINE
  5
2CF
100
AcDbEntity
  8
LAYER0001
  6
CONTINUOUS
 62
       7
100
AcDbLine
 10
-90.29673936
 20
-91.00708122
 30
0.0
 11
-90.27632788
 21
-91.02853711
 31
0.0
  0
LINE
  5
2D0
100
AcDbEntity
  8
LAYER0001
  6
CONTINUOUS
 62
       7
100
AcDbLine
 10
-90.27632788
 20
-91.02853711
 30
0.0
 11
-90.25645459
 21
-91.05084806
 31
0.0
  0
LINE
  5
2D1
100
AcDbEntity
  8
LAYER0001
  6
CONTINUOUS
 62
       7
100
AcDbLine
 10
-90.25645459
 20
-91.05084806
 30
0.0
 11
-90.23714629
 21
-91.07399706
 31
0.0
  0
LINE
  5
2D2
100
AcDbEntity
  8
LAYER0001
  6
CONTINUOUS
 62
       7
100
AcDbLine
 10
-90.23714629
 20
-91.07399706
 30
0.0
 11
-90.21842979
 21
-91.09796708
 31
0.0
  0
LINE
  5
2D3
100
AcDbEntity
  8
LAYER0001
  6
CONTINUOUS
 62
       7
100
AcDbLine
 10
-90.21842979
 20
-91.09796708
 30
0.0
 11
-90.20033189
 21
-91.12274113
 31
0.0
  0
LINE
  5
2D4
100
AcDbEntity
  8
LAYER0001
  6
CONTINUOUS
 62
       7
100
AcDbLine
 10
-90.20033189
 20
-91.12274113
 30
0.0
 11
-90.18287939
 21
-91.1483022
 31
0.0
  0
LINE
  5
2D5
100
AcDbEntity
  8
LAYER0001
  6
CONTINUOUS
 62
       7
100
AcDbLine
 10
-90.18287939
 20
-91.1483022
 30
0.0
 11
-90.16609909
 21
-91.17463327
 31
0.0
  0
LINE
  5
2D6
100
AcDbEntity
  8
LAYER0001
  6
CONTINUOUS
 62
       7
100
AcDbLine
 10
-90.16609909
 20
-91.17463327
 30
0.0
 11
-90.15001781
 21
-91.20171733
 31
0.0
  0
LINE
  5
2D7
100
AcDbEntity
  8
LAYER0001
  6
CONTINUOUS
 62
       7
100
AcDbLine
 10
-90.15001781
 20
-91.20171733
 30
0.0
 11
-90.13466235
 21
-91.22953738
 31
0.0
  0
LINE
  5
2D8
100
AcDbEntity
  8
LAYER0001
  6
CONTINUOUS
 62
       7
100
AcDbLine
 10
-90.13466235
 20
-91.22953738
 30
0.0
 11
-90.1200595
 21
-91.2580764
 31
0.0
  0
LINE
  5
2D9
100
AcDbEntity
  8
LAYER0001
  6
CONTINUOUS
 62
       7
100
AcDbLine
 10
-90.1200595
 20
-91.2580764
 30
0.0
 11
-90.10623607
 21
-91.28731739
 31
0.0
  0
LINE
  5
2DA
100
AcDbEntity
  8
LAYER0001
  6
CONTINUOUS
 62
       7
100
AcDbLine
 10
-90.10623607
 20
-91.28731739
 30
0.0
 11
-90.09321887
 21
-91.31724334
 31
0.0
  0
LINE
  5
2DB
100
AcDbEntity
  8
LAYER0001
  6
CONTINUOUS
 62
       7
100
AcDbLine
 10
-90.09321887
 20
-91.31724334
 30
0.0
 11
-90.08103825
 21
-91.34782816
 31
0.0
  0
LINE
  5
2DC
100
AcDbEntity
  8
LAYER0001
  6
CONTINUOUS
 62
       7
100
AcDbLine
 10
-90.08103825
 20
-91.34782816
 30
0.0
 11
-90.06973822
 21
-91.37899325
 31
0.0
  0
LINE
  5
2DD
100
AcDbEntity
  8
LAYER0001
  6
CONTINUOUS
 62
       7
100
AcDbLine
 10
-90.06973822
 20
-91.37899325
 30
0.0
 11
-90.05933848
 21
-91.41069425
 31
0.0
  0
LINE
  5
2DE
100
AcDbEntity
  8
LAYER0001
  6
CONTINUOUS
 62
       7
100
AcDbLine
 10
-90.05933848
 20
-91.41069425
 30
0.0
 11
-90.04985471
 21
-91.44289503
 31
0.0
  0
LINE
  5
2DF
100
AcDbEntity
  8
LAYER0001
  6
CONTINUOUS
 62
       7
100
AcDbLine
 10
-90.04985471
 20
-91.44289503
 30
0.0
 11
-90.04130262
 21
-91.4755595
 31
0.0
  0
LINE
  5
2E0
100
AcDbEntity
  8
LAYER0001
  6
CONTINUOUS
 62
       7
100
AcDbLine
 10
-90.04130262
 20
-91.4755595
 30
0.0
 11
-90.0336979
 21
-91.50865154
 31
0.0
  0
LINE
  5
2E1
100
AcDbEntity
  8
LAYER0001
  6
CONTINUOUS
 62
       7
100
AcDbLine
 10
-90.0336979
 20
-91.50865154
 30
0.0
 11
-90.02705623
 21
-91.54213506
 31
0.0
  0
LINE
  5
2E2
100
AcDbEntity
  8
LAYER0001
  6
CONTINUOUS
 62
       7
100
AcDbLine
 10
-90.02705623
 20
-91.54213506
 30
0.0
 11
-90.02139331
 21
-91.57597394
 31
0.0
  0
LINE
  5
2E3
100
AcDbEntity
  8
LAYER0001
  6
CONTINUOUS
 62
       7
100
AcDbLine
 10
-90.02139331
 20
-91.57597394
 30
0.0
 11
-90.01672482
 21
-91.61013208
 31
0.0
  0
LINE
  5
2E4
100
AcDbEntity
  8
LAYER0001
  6
CONTINUOUS
 62
       7
100
AcDbLine
 10
-90.01672482
 20
-91.61013208
 30
0.0
 11
-90.01306646
 21
-91.64457337
 31
0.0
  0
LINE
  5
2E5
100
AcDbEntity
  8
LAYER0001
  6
CONTINUOUS
 62
       7
100
AcDbLine
 10
-90.01306646
 20
-91.64457337
 30
0.0
 11
-90.01043392
 21
-91.6792617
 31
0.0
  0
LINE
  5
2E6
100
AcDbEntity
  8
LAYER0001
  6
CONTINUOUS
 62
       7
100
AcDbLine
 10
-90.01043392
 20
-91.6792617
 30
0.0
 11
-90.00884289
 21
-91.71416097
 31
0.0
  0
LINE
  5
2E7
100
AcDbEntity
  8
LAYER0001
  6
CONTINUOUS
 62
       7
100
AcDbLine
 10
-90.00884289
 20
-91.71416097
 30
0.0
 11
-90.00830906
 21
-91.74923508
 31
0.0
  0
ENDBLK
  5
2E8
100
AcDbEntity
  8
0
100
AcDbBlockEnd
  0
BLOCK
  5
2E9
100
AcDbEntity
  8
0
100
AcDbBlockBegin
  2
GROUP_18
 70
       0
 10
0.0
 20
0.0
 30
0.0
  3
GROUP_18
  1

  0
LINE
  5
2EA
100
AcDbEntity
  8
LAYER0001
  6
CONTINUOUS
 62
       7
100
AcDbLine
 10
-117.30911185
 20
-91.74923522
 30
0.0
 11
-117.30874948
 21
-91.72008889
 31
0.0
  0
LINE
  5
2EB
100
AcDbEntity
  8
LAYER0001
  6
CONTINUOUS
 62
       7
100
AcDbLine
 10
-117.30874948
 20
-91.72008889
 30
0.0
 11
-117.30766596
 21
-91.69111703
 31
0.0
  0
LINE
  5
2EC
100
AcDbEntity
  8
LAYER0001
  6
CONTINUOUS
 62
       7
100
AcDbLine
 10
-117.30766596
 20
-91.69111703
 30
0.0
 11
-117.30586669
 21
-91.66231825
 31
0.0
  0
LINE
  5
2ED
100
AcDbEntity
  8
LAYER0001
  6
CONTINUOUS
 62
       7
100
AcDbLine
 10
-117.30586669
 20
-91.66231825
 30
0.0
 11
-117.30335706
 21
-91.63369116
 31
0.0
  0
LINE
  5
2EE
100
AcDbEntity
  8
LAYER0001
  6
CONTINUOUS
 62
       7
100
AcDbLine
 10
-117.30335706
 20
-91.63369116
 30
0.0
 11
-117.30014247
 21
-91.60523436
 31
0.0
  0
LINE
  5
2EF
100
AcDbEntity
  8
LAYER0001
  6
CONTINUOUS
 62
       7
100
AcDbLine
 10
-117.30014247
 20
-91.60523436
 30
0.0
 11
-117.29622831
 21
-91.57694647
 31
0.0
  0
LINE
  5
2F0
100
AcDbEntity
  8
LAYER0001
  6
CONTINUOUS
 62
       7
100
AcDbLine
 10
-117.29622831
 20
-91.57694647
 30
0.0
 11
-117.29161999
 21
-91.54882609
 31
0.0
  0
LINE
  5
2F1
100
AcDbEntity
  8
LAYER0001
  6
CONTINUOUS
 62
       7
100
AcDbLine
 10
-117.29161999
 20
-91.54882609
 30
0.0
 11
-117.28631939
 21
-91.5208712
 31
0.0
  0
LINE
  5
2F2
100
AcDbEntity
  8
LAYER0001
  6
CONTINUOUS
 62
       7
100
AcDbLine
 10
-117.28631939
 20
-91.5208712
 30
0.0
 11
-117.28031674
 21
-91.49309653
 31
0.0
  0
LINE
  5
2F3
100
AcDbEntity
  8
LAYER0001
  6
CONTINUOUS
 62
       7
100
AcDbLine
 10
-117.28031674
 20
-91.49309653
 30
0.0
 11
-117.27362887
 21
-91.46555102
 31
0.0
  0
LINE
  5
2F4
100
AcDbEntity
  8
LAYER0001
  6
CONTINUOUS
 62
       7
100
AcDbLine
 10
-117.27362887
 20
-91.46555102
 30
0.0
 11
-117.26627673
 21
-91.43828645
 31
0.0
  0
LINE
  5
2F5
100
AcDbEntity
  8
LAYER0001
  6
CONTINUOUS
 62
       7
100
AcDbLine
 10
-117.26627673
 20
-91.43828645
 30
0.0
 11
-117.25828129
 21
-91.41135462
 31
0.0
  0
LINE
  5
2F6
100
AcDbEntity
  8
LAYER0001
  6
CONTINUOUS
 62
       7
100
AcDbLine
 10
-117.25828129
 20
-91.41135462
 30
0.0
 11
-117.24966352
 21
-91.38480732
 31
0.0
  0
LINE
  5
2F7
100
AcDbEntity
  8
LAYER0001
  6
CONTINUOUS
 62
       7
100
AcDbLine
 10
-117.24966352
 20
-91.38480732
 30
0.0
 11
-117.24044438
 21
-91.35869633
 31
0.0
  0
LINE
  5
2F8
100
AcDbEntity
  8
LAYER0001
  6
CONTINUOUS
 62
       7
100
AcDbLine
 10
-117.24044438
 20
-91.35869633
 30
0.0
 11
-117.23064483
 21
-91.33307345
 31
0.0
  0
LINE
  5
2F9
100
AcDbEntity
  8
LAYER0001
  6
CONTINUOUS
 62
       7
100
AcDbLine
 10
-117.23064483
 20
-91.33307345
 30
0.0
 11
-117.22026794
 21
-91.30793009
 31
0.0
  0
LINE
  5
2FA
100
AcDbEntity
  8
LAYER0001
  6
CONTINUOUS
 62
       7
100
AcDbLine
 10
-117.22026794
 20
-91.30793009
 30
0.0
 11
-117.20931336
 21
-91.28323103
 31
0.0
  0
LINE
  5
2FB
100
AcDbEntity
  8
LAYER0001
  6
CONTINUOUS
 62
       7
100
AcDbLine
 10
-117.20931336
 20
-91.28323103
 30
0.0
 11
-117.19779695
 21
-91.25898812
 31
0.0
  0
LINE
  5
2FC
100
AcDbEntity
  8
LAYER0001
  6
CONTINUOUS
 62
       7
100
AcDbLine
 10
-117.19779695
 20
-91.25898812
 30
0.0
 11
-117.18573455
 21
-91.2352132
 31
0.0
  0
LINE
  5
2FD
100
AcDbEntity
  8
LAYER0001
  6
CONTINUOUS
 62
       7
100
AcDbLine
 10
-117.18573455
 20
-91.2352132
 30
0.0
 11
-117.17314203
 21
-91.21191811
 31
0.0
  0
LINE
  5
2FE
100
AcDbEntity
  8
LAYER0001
  6
CONTINUOUS
 62
       7
100
AcDbLine
 10
-117.17314203
 20
-91.21191811
 30
0.0
 11
-117.16003522
 21
-91.18911468
 31
0.0
  0
LINE
  5
2FF
100
AcDbEntity
  8
LAYER0001
  6
CONTINUOUS
 62
       7
100
AcDbLine
 10
-117.16003522
 20
-91.18911468
 30
0.0
 11
-117.14642999
 21
-91.16681477
 31
0.0
  0
LINE
  5
300
100
AcDbEntity
  8
LAYER0001
  6
CONTINUOUS
 62
       7
100
AcDbLine
 10
-117.14642999
 20
-91.16681477
 30
0.0
 11
-117.13234219
 21
-91.14503021
 31
0.0
  0
LINE
  5
301
100
AcDbEntity
  8
LAYER0001
  6
CONTINUOUS
 62
       7
100
AcDbLine
 10
-117.13234219
 20
-91.14503021
 30
0.0
 11
-117.11778766
 21
-91.12377285
 31
0.0
  0
LINE
  5
302
100
AcDbEntity
  8
LAYER0001
  6
CONTINUOUS
 62
       7
100
AcDbLine
 10
-117.11778766
 20
-91.12377285
 30
0.0
 11
-117.10278227
 21
-91.10305452
 31
0.0
  0
LINE
  5
303
100
AcDbEntity
  8
LAYER0001
  6
CONTINUOUS
 62
       7
100
AcDbLine
 10
-117.10278227
 20
-91.10305452
 30
0.0
 11
-117.08734187
 21
-91.08288707
 31
0.0
  0
LINE
  5
304
100
AcDbEntity
  8
LAYER0001
  6
CONTINUOUS
 62
       7
100
AcDbLine
 10
-117.08734187
 20
-91.08288707
 30
0.0
 11
-117.0714823
 21
-91.06328234
 31
0.0
  0
LINE
  5
305
100
AcDbEntity
  8
LAYER0001
  6
CONTINUOUS
 62
       7
100
AcDbLine
 10
-117.0714823
 20
-91.06328234
 30
0.0
 11
-117.05521942
 21
-91.04425216
 31
0.0
  0
LINE
  5
306
100
AcDbEntity
  8
LAYER0001
  6
CONTINUOUS
 62
       7
100
AcDbLine
 10
-117.05521942
 20
-91.04425216
 30
0.0
 11
-117.03856908
 21
-91.02580839
 31
0.0
  0
LINE
  5
307
100
AcDbEntity
  8
LAYER0001
  6
CONTINUOUS
 62
       7
100
AcDbLine
 10
-117.03856908
 20
-91.02580839
 30
0.0
 11
-117.02154714
 21
-91.00796286
 31
0.0
  0
LINE
  5
308
100
AcDbEntity
  8
LAYER0001
  6
CONTINUOUS
 62
       7
100
AcDbLine
 10
-117.02154714
 20
-91.00796286
 30
0.0
 11
-117.00418069
 21
-90.99072502
 31
0.0
  0
LINE
  5
309
100
AcDbEntity
  8
LAYER0001
  6
CONTINUOUS
 62
       7
100
AcDbLine
 10
-117.00418069
 20
-90.99072502
 30
0.0
 11
-116.98649333
 21
-90.97409538
 31
0.0
  0
LINE
  5
30A
100
AcDbEntity
  8
LAYER0001
  6
CONTINUOUS
 62
       7
100
AcDbLine
 10
-116.98649333
 20
-90.97409538
 30
0.0
 11
-116.96849565
 21
-90.95807236
 31
0.0
  0
LINE
  5
30B
100
AcDbEntity
  8
LAYER0001
  6
CONTINUOUS
 62
       7
100
AcDbLine
 10
-116.96849565
 20
-90.95807236
 30
0.0
 11
-116.95019822
 21
-90.94265436
 31
0.0
  0
LINE
  5
30C
100
AcDbEntity
  8
LAYER0001
  6
CONTINUOUS
 62
       7
100
AcDbLine
 10
-116.95019822
 20
-90.94265436
 30
0.0
 11
-116.93161166
 21
-90.9278398
 31
0.0
  0
LINE
  5
30D
100
AcDbEntity
  8
LAYER0001
  6
CONTINUOUS
 62
       7
100
AcDbLine
 10
-116.93161166
 20
-90.9278398
 30
0.0
 11
-116.91274653
 21
-90.91362709
 31
0.0
  0
LINE
  5
30E
100
AcDbEntity
  8
LAYER0001
  6
CONTINUOUS
 62
       7
100
AcDbLine
 10
-116.91274653
 20
-90.91362709
 30
0.0
 11
-116.89361344
 21
-90.90001466
 31
0.0
  0
LINE
  5
30F
100
AcDbEntity
  8
LAYER0001
  6
CONTINUOUS
 62
       7
100
AcDbLine
 10
-116.89361344
 20
-90.90001466
 30
0.0
 11
-116.87422296
 21
-90.8870009
 31
0.0
  0
LINE
  5
310
100
AcDbEntity
  8
LAYER0001
  6
CONTINUOUS
 62
       7
100
AcDbLine
 10
-116.87422296
 20
-90.8870009
 30
0.0
 11
-116.8545857
 21
-90.87458424
 31
0.0
  0
LINE
  5
311
100
AcDbEntity
  8
LAYER0001
  6
CONTINUOUS
 62
       7
100
AcDbLine
 10
-116.8545857
 20
-90.87458424
 30
0.0
 11
-116.83471224
 21
-90.86276309
 31
0.0
  0
LINE
  5
312
100
AcDbEntity
  8
LAYER0001
  6
CONTINUOUS
 62
       7
100
AcDbLine
 10
-116.83471224
 20
-90.86276309
 30
0.0
 11
-116.81461317
 21
-90.85153586
 31
0.0
  0
LINE
  5
313
100
AcDbEntity
  8
LAYER0001
  6
CONTINUOUS
 62
       7
100
AcDbLine
 10
-116.81461317
 20
-90.85153586
 30
0.0
 11
-116.79429907
 21
-90.84090097
 31
0.0
  0
LINE
  5
314
100
AcDbEntity
  8
LAYER0001
  6
CONTINUOUS
 62
       7
100
AcDbLine
 10
-116.79429907
 20
-90.84090097
 30
0.0
 11
-116.77378055
 21
-90.83085683
 31
0.0
  0
LINE
  5
315
100
AcDbEntity
  8
LAYER0001
  6
CONTINUOUS
 62
       7
100
AcDbLine
 10
-116.77378055
 20
-90.83085683
 30
0.0
 11
-116.75306818
 21
-90.82140185
 31
0.0
  0
LINE
  5
316
100
AcDbEntity
  8
LAYER0001
  6
CONTINUOUS
 62
       7
100
AcDbLine
 10
-116.75306818
 20
-90.82140185
 30
0.0
 11
-116.73217256
 21
-90.81253446
 31
0.0
  0
LINE
  5
317
100
AcDbEntity
  8
LAYER0001
  6
CONTINUOUS
 62
       7
100
AcDbLine
 10
-116.73217256
 20
-90.81253446
 30
0.0
 11
-116.7111402
 21
-90.80425895
 31
0.0
  0
LINE
  5
318
100
AcDbEntity
  8
LAYER0001
  6
CONTINUOUS
 62
       7
100
AcDbLine
 10
-116.7111402
 20
-90.80425895
 30
0.0
 11
-116.69001068
 21
-90.79657832
 31
0.0
  0
LINE
  5
319
100
AcDbEntity
  8
LAYER0001
  6
CONTINUOUS
 62
       7
100
AcDbLine
 10
-116.69001068
 20
-90.79657832
 30
0.0
 11
-116.66878419
 21
-90.78948899
 31
0.0
  0
LINE
  5
31A
100
AcDbEntity
  8
LAYER0001
  6
CONTINUOUS
 62
       7
100
AcDbLine
 10
-116.66878419
 20
-90.78948899
 30
0.0
 11
-116.64746092
 21
-90.78298738
 31
0.0
  0
LINE
  5
31B
100
AcDbEntity
  8
LAYER0001
  6
CONTINUOUS
 62
       7
100
AcDbLine
 10
-116.64746092
 20
-90.78298738
 30
0.0
 11
-116.62604105
 21
-90.77706991
 31
0.0
  0
LINE
  5
31C
100
AcDbEntity
  8
LAYER0001
  6
CONTINUOUS
 62
       7
100
AcDbLine
 10
-116.62604105
 20
-90.77706991
 30
0.0
 11
-116.60452476
 21
-90.77173299
 31
0.0
  0
LINE
  5
31D
100
AcDbEntity
  8
LAYER0001
  6
CONTINUOUS
 62
       7
100
AcDbLine
 10
-116.60452476
 20
-90.77173299
 30
0.0
 11
-116.58291224
 21
-90.76697305
 31
0.0
  0
LINE
  5
31E
100
AcDbEntity
  8
LAYER0001
  6
CONTINUOUS
 62
       7
100
AcDbLine
 10
-116.58291224
 20
-90.76697305
 30
0.0
 11
-116.56120368
 21
-90.76278652
 31
0.0
  0
LINE
  5
31F
100
AcDbEntity
  8
LAYER0001
  6
CONTINUOUS
 62
       7
100
AcDbLine
 10
-116.56120368
 20
-90.76278652
 30
0.0
 11
-116.53939926
 21
-90.7591698
 31
0.0
  0
LINE
  5
320
100
AcDbEntity
  8
LAYER0001
  6
CONTINUOUS
 62
       7
100
AcDbLine
 10
-116.53939926
 20
-90.7591698
 30
0.0
 11
-116.51749917
 21
-90.75611932
 31
0.0
  0
LINE
  5
321
100
AcDbEntity
  8
LAYER0001
  6
CONTINUOUS
 62
       7
100
AcDbLine
 10
-116.51749917
 20
-90.75611932
 30
0.0
 11
-116.49550358
 21
-90.7536315
 31
0.0
  0
LINE
  5
322
100
AcDbEntity
  8
LAYER0001
  6
CONTINUOUS
 62
       7
100
AcDbLine
 10
-116.49550358
 20
-90.7536315
 30
0.0
 11
-116.4734127
 21
-90.75170276
 31
0.0
  0
LINE
  5
323
100
AcDbEntity
  8
LAYER0001
  6
CONTINUOUS
 62
       7
100
AcDbLine
 10
-116.4734127
 20
-90.75170276
 30
0.0
 11
-116.4512267
 21
-90.75032952
 31
0.0
  0
LINE
  5
324
100
AcDbEntity
  8
LAYER0001
  6
CONTINUOUS
 62
       7
100
AcDbLine
 10
-116.4512267
 20
-90.75032952
 30
0.0
 11
-116.42894576
 21
-90.7495082
 31
0.0
  0
LINE
  5
325
100
AcDbEntity
  8
LAYER0001
  6
CONTINUOUS
 62
       7
100
AcDbLine
 10
-116.42894576
 20
-90.7495082
 30
0.0
 11
-116.40657008
 21
-90.74923522
 31
0.0
  0
ENDBLK
  5
326
100
AcDbEntity
  8
0
100
AcDbBlockEnd
  0
BLOCK
  5
327
100
AcDbEntity
  8
0
100
AcDbBlockBegin
  2
GROUP_19
 70
       0
 10
0.0
 20
0.0
 30
0.0
  3
GROUP_19
  1

  0
LINE
  5
328
100
AcDbEntity
  8
LAYER0001
  6
CONTINUOUS
 62
       7
100
AcDbLine
 10
26.54510679
 20
-46.12766921
 30
0.0
 11
26.54959733
 21
-46.07886083
 31
0.0
  0
LINE
  5
329
100
AcDbEntity
  8
LAYER0001
  6
CONTINUOUS
 62
       7
100
AcDbLine
 10
26.54959733
 20
-46.07886083
 30
0.0
 11
26.55466311
 21
-46.03029747
 31
0.0
  0
LINE
  5
32A
100
AcDbEntity
  8
LAYER0001
  6
CONTINUOUS
 62
       7
100
AcDbLine
 10
26.55466311
 20
-46.03029747
 30
0.0
 11
26.56087937
 21
-45.98222415
 31
0.0
  0
LINE
  5
32B
100
AcDbEntity
  8
LAYER0001
  6
CONTINUOUS
 62
       7
100
AcDbLine
 10
26.56087937
 20
-45.98222415
 30
0.0
 11
26.56882135
 21
-45.93488589
 31
0.0
  0
LINE
  5
32C
100
AcDbEntity
  8
LAYER0001
  6
CONTINUOUS
 62
       7
100
AcDbLine
 10
26.56882135
 20
-45.93488589
 30
0.0
 11
26.57906429
 21
-45.88852771
 31
0.0
  0
LINE
  5
32D
100
AcDbEntity
  8
LAYER0001
  6
CONTINUOUS
 62
       7
100
AcDbLine
 10
26.57906429
 20
-45.88852771
 30
0.0
 11
26.59212334
 21
-45.84338246
 31
0.0
  0
LINE
  5
32E
100
AcDbEntity
  8
LAYER0001
  6
CONTINUOUS
 62
       7
100
AcDbLine
 10
26.59212334
 20
-45.84338246
 30
0.0
 11
26.60795339
 21
-45.79956934
 31
0.0
  0
LINE
  5
32F
100
AcDbEntity
  8
LAYER0001
  6
CONTINUOUS
 62
       7
100
AcDbLine
 10
26.60795339
 20
-45.79956934
 30
0.0
 11
26.62620424
 21
-45.75714571
 31
0.0
  0
LINE
  5
330
100
AcDbEntity
  8
LAYER0001
  6
CONTINUOUS
 62
       7
100
AcDbLine
 10
26.62620424
 20
-45.75714571
 30
0.0
 11
26.64652264
 21
-45.71616828
 31
0.0
  0
LINE
  5
331
100
AcDbEntity
  8
LAYER0001
  6
CONTINUOUS
 62
       7
100
AcDbLine
 10
26.64652264
 20
-45.71616828
 30
0.0
 11
26.66855533
 21
-45.6766938
 31
0.0
  0
LINE
  5
332
100
AcDbEntity
  8
LAYER0001
  6
CONTINUOUS
 62
       7
100
AcDbLine
 10
26.66855533
 20
-45.6766938
 30
0.0
 11
26.69195456
 21
-45.63877707
 31
0.0
  0
LINE
  5
333
100
AcDbEntity
  8
LAYER0001
  6
CONTINUOUS
 62
       7
100
AcDbLine
 10
26.69195456
 20
-45.63877707
 30
0.0
 11
26.71650482
 21
-45.60242755
 31
0.0
  0
LINE
  5
334
100
AcDbEntity
  8
LAYER0001
  6
CONTINUOUS
 62
       7
100
AcDbLine
 10
26.71650482
 20
-45.60242755
 30
0.0
 11
26.74212566
 21
-45.56760831
 31
0.0
  0
LINE
  5
335
100
AcDbEntity
  8
LAYER0001
  6
CONTINUOUS
 62
       7
100
AcDbLine
 10
26.74212566
 20
-45.56760831
 30
0.0
 11
26.76874273
 21
-45.53428031
 31
0.0
  0
LINE
  5
336
100
AcDbEntity
  8
LAYER0001
  6
CONTINUOUS
 62
       7
100
AcDbLine
 10
26.76874273
 20
-45.53428031
 30
0.0
 11
26.79628169
 21
-45.50240453
 31
0.0
  0
LINE
  5
337
100
AcDbEntity
  8
LAYER0001
  6
CONTINUOUS
 62
       7
100
AcDbLine
 10
26.79628169
 20
-45.50240453
 30
0.0
 11
26.8246682
 21
-45.47194194
 31
0.0
  0
LINE
  5
338
100
AcDbEntity
  8
LAYER0001
  6
CONTINUOUS
 62
       7
100
AcDbLine
 10
26.8246682
 20
-45.47194194
 30
0.0
 11
26.85382792
 21
-45.44285352
 31
0.0
  0
LINE
  5
339
100
AcDbEntity
  8
LAYER0001
  6
CONTINUOUS
 62
       7
100
AcDbLine
 10
26.85382792
 20
-45.44285352
 30
0.0
 11
26.8836865
 21
-45.41510022
 31
0.0
  0
LINE
  5
33A
100
AcDbEntity
  8
LAYER0001
  6
CONTINUOUS
 62
       7
100
AcDbLine
 10
26.8836865
 20
-45.41510022
 30
0.0
 11
26.91417076
 21
-45.38864519
 31
0.0
  0
LINE
  5
33B
100
AcDbEntity
  8
LAYER0001
  6
CONTINUOUS
 62
       7
100
AcDbLine
 10
26.91417076
 20
-45.38864519
 30
0.0
 11
26.94522353
 21
-45.36348162
 31
0.0
  0
LINE
  5
33C
100
AcDbEntity
  8
LAYER0001
  6
CONTINUOUS
 62
       7
100
AcDbLine
 10
26.94522353
 20
-45.36348162
 30
0.0
 11
26.97679943
 21
-45.3396248
 31
0.0
  0
LINE
  5
33D
100
AcDbEntity
  8
LAYER0001
  6
CONTINUOUS
 62
       7
100
AcDbLine
 10
26.97679943
 20
-45.3396248
 30
0.0
 11
27.00885335
 21
-45.3170905
 31
0.0
  0
LINE
  5
33E
100
AcDbEntity
  8
LAYER0001
  6
CONTINUOUS
 62
       7
100
AcDbLine
 10
27.00885335
 20
-45.3170905
 30
0.0
 11
27.04134017
 21
-45.29589453
 31
0.0
  0
LINE
  5
33F
100
AcDbEntity
  8
LAYER0001
  6
CONTINUOUS
 62
       7
100
AcDbLine
 10
27.04134017
 20
-45.29589453
 30
0.0
 11
27.07421478
 21
-45.27605267
 31
0.0
  0
LINE
  5
340
100
AcDbEntity
  8
LAYER0001
  6
CONTINUOUS
 62
       7
100
AcDbLine
 10
27.07421478
 20
-45.27605267
 30
0.0
 11
27.10743208
 21
-45.25758071
 31
0.0
  0
LINE
  5
341
100
AcDbEntity
  8
LAYER0001
  6
CONTINUOUS
 62
       7
100
AcDbLine
 10
27.10743208
 20
-45.25758071
 30
0.0
 11
27.14094695
 21
-45.24049445
 31
0.0
  0
LINE
  5
342
100
AcDbEntity
  8
LAYER0001
  6
CONTINUOUS
 62
       7
100
AcDbLine
 10
27.14094695
 20
-45.24049445
 30
0.0
 11
27.17471428
 21
-45.22480968
 31
0.0
  0
LINE
  5
343
100
AcDbEntity
  8
LAYER0001
  6
CONTINUOUS
 62
       7
100
AcDbLine
 10
27.17471428
 20
-45.22480968
 30
0.0
 11
27.20868896
 21
-45.21054218
 31
0.0
  0
LINE
  5
344
100
AcDbEntity
  8
LAYER0001
  6
CONTINUOUS
 62
       7
100
AcDbLine
 10
27.20868896
 20
-45.21054218
 30
0.0
 11
27.24282587
 21
-45.19770775
 31
0.0
  0
LINE
  5
345
100
AcDbEntity
  8
LAYER0001
  6
CONTINUOUS
 62
       7
100
AcDbLine
 10
27.24282587
 20
-45.19770775
 30
0.0
 11
27.27707993
 21
-45.18632205
 31
0.0
  0
LINE
  5
346
100
AcDbEntity
  8
LAYER0001
  6
CONTINUOUS
 62
       7
100
AcDbLine
 10
27.27707993
 20
-45.18632205
 30
0.0
 11
27.31141585
 21
-45.17635885
 31
0.0
  0
LINE
  5
347
100
AcDbEntity
  8
LAYER0001
  6
CONTINUOUS
 62
       7
100
AcDbLine
 10
27.31141585
 20
-45.17635885
 30
0.0
 11
27.34582223
 21
-45.16768966
 31
0.0
  0
LINE
  5
348
100
AcDbEntity
  8
LAYER0001
  6
CONTINUOUS
 62
       7
100
AcDbLine
 10
27.34582223
 20
-45.16768966
 30
0.0
 11
27.38029124
 21
-45.16017071
 31
0.0
  0
LINE
  5
349
100
AcDbEntity
  8
LAYER0001
  6
CONTINUOUS
 62
       7
100
AcDbLine
 10
27.38029124
 20
-45.16017071
 30
0.0
 11
27.41481505
 21
-45.15365821
 31
0.0
  0
LINE
  5
34A
100
AcDbEntity
  8
LAYER0001
  6
CONTINUOUS
 62
       7
100
AcDbLine
 10
27.41481505
 20
-45.15365821
 30
0.0
 11
27.44938583
 21
-45.1480084
 31
0.0
  0
LINE
  5
34B
100
AcDbEntity
  8
LAYER0001
  6
CONTINUOUS
 62
       7
100
AcDbLine
 10
27.44938583
 20
-45.1480084
 30
0.0
 11
27.48399575
 21
-45.14307748
 31
0.0
  0
LINE
  5
34C
100
AcDbEntity
  8
LAYER0001
  6
CONTINUOUS
 62
       7
100
AcDbLine
 10
27.48399575
 20
-45.14307748
 30
0.0
 11
27.51863699
 21
-45.13872167
 31
0.0
  0
LINE
  5
34D
100
AcDbEntity
  8
LAYER0001
  6
CONTINUOUS
 62
       7
100
AcDbLine
 10
27.51863699
 20
-45.13872167
 30
0.0
 11
27.55330171
 21
-45.13479721
 31
0.0
  0
LINE
  5
34E
100
AcDbEntity
  8
LAYER0001
  6
CONTINUOUS
 62
       7
100
AcDbLine
 10
27.55330171
 20
-45.13479721
 30
0.0
 11
27.58798209
 21
-45.13116031
 31
0.0
  0
LINE
  5
34F
100
AcDbEntity
  8
LAYER0001
  6
CONTINUOUS
 62
       7
100
AcDbLine
 10
27.58798209
 20
-45.13116031
 30
0.0
 11
27.6226703
 21
-45.12766718
 31
0.0
  0
ENDBLK
  5
350
100
AcDbEntity
  8
0
100
AcDbBlockEnd
  0
BLOCK
  5
351
100
AcDbEntity
  8
0
100
AcDbBlockBegin
  2
GROUP_20
 70
       0
 10
0.0
 20
0.0
 30
0.0
  3
GROUP_20
  1

  0
LINE
  5
352
100
AcDbEntity
  8
LAYER0001
  6
CONTINUOUS
 62
       7
100
AcDbLine
 10
27.6226703
 20
-75.72766736
 30
0.0
 11
27.58777843
 21
-75.72310712
 31
0.0
  0
LINE
  5
353
100
AcDbEntity
  8
LAYER0001
  6
CONTINUOUS
 62
       7
100
AcDbLine
 10
27.58777843
 20
-75.72310712
 30
0.0
 11
27.55290013
 21
-75.71843445
 31
0.0
  0
LINE
  5
354
100
AcDbEntity
  8
LAYER0001
  6
CONTINUOUS
 62
       7
100
AcDbLine
 10
27.55290013
 20
-75.71843445
 30
0.0
 11
27.51804897
 21
-75.71353693
 31
0.0
  0
LINE
  5
355
100
AcDbEntity
  8
LAYER0001
  6
CONTINUOUS
 62
       7
100
AcDbLine
 10
27.51804897
 20
-75.71353693
 30
0.0
 11
27.48323851
 21
-75.70830211
 31
0.0
  0
LINE
  5
356
100
AcDbEntity
  8
LAYER0001
  6
CONTINUOUS
 62
       7
100
AcDbLine
 10
27.48323851
 20
-75.70830211
 30
0.0
 11
27.44848232
 21
-75.70261757
 31
0.0
  0
LINE
  5
357
100
AcDbEntity
  8
LAYER0001
  6
CONTINUOUS
 62
       7
100
AcDbLine
 10
27.44848232
 20
-75.70261757
 30
0.0
 11
27.41379396
 21
-75.69637088
 31
0.0
  0
LINE
  5
358
100
AcDbEntity
  8
LAYER0001
  6
CONTINUOUS
 62
       7
100
AcDbLine
 10
27.41379396
 20
-75.69637088
 30
0.0
 11
27.37918701
 21
-75.68944962
 31
0.0
  0
LINE
  5
359
100
AcDbEntity
  8
LAYER0001
  6
CONTINUOUS
 62
       7
100
AcDbLine
 10
27.37918701
 20
-75.68944962
 30
0.0
 11
27.34467504
 21
-75.68174134
 31
0.0
  0
LINE
  5
35A
100
AcDbEntity
  8
LAYER0001
  6
CONTINUOUS
 62
       7
100
AcDbLine
 10
27.34467504
 20
-75.68174134
 30
0.0
 11
27.3102716
 21
-75.67313362
 31
0.0
  0
LINE
  5
35B
100
AcDbEntity
  8
LAYER0001
  6
CONTINUOUS
 62
       7
100
AcDbLine
 10
27.3102716
 20
-75.67313362
 30
0.0
 11
27.27599027
 21
-75.66351404
 31
0.0
  0
LINE
  5
35C
100
AcDbEntity
  8
LAYER0001
  6
CONTINUOUS
 62
       7
100
AcDbLine
 10
27.27599027
 20
-75.66351404
 30
0.0
 11
27.24184461
 21
-75.65277015
 31
0.0
  0
LINE
  5
35D
100
AcDbEntity
  8
LAYER0001
  6
CONTINUOUS
 62
       7
100
AcDbLine
 10
27.24184461
 20
-75.65277015
 30
0.0
 11
27.20784819
 21
-75.64078953
 31
0.0
  0
LINE
  5
35E
100
AcDbEntity
  8
LAYER0001
  6
CONTINUOUS
 62
       7
100
AcDbLine
 10
27.20784819
 20
-75.64078953
 30
0.0
 11
27.17401459
 21
-75.62745976
 31
0.0
  0
LINE
  5
35F
100
AcDbEntity
  8
LAYER0001
  6
CONTINUOUS
 62
       7
100
AcDbLine
 10
27.17401459
 20
-75.62745976
 30
0.0
 11
27.14035739
 21
-75.61266848
 31
0.0
  0
LINE
  5
360
100
AcDbEntity
  8
LAYER0001
  6
CONTINUOUS
 62
       7
100
AcDbLine
 10
27.14035739
 20
-75.61266848
 30
0.0
 11
27.10690136
 21
-75.59633831
 31
0.0
  0
LINE
  5
361
100
AcDbEntity
  8
LAYER0001
  6
CONTINUOUS
 62
       7
100
AcDbLine
 10
27.10690136
 20
-75.59633831
 30
0.0
 11
27.07369901
 21
-75.57847867
 31
0.0
  0
LINE
  5
362
100
AcDbEntity
  8
LAYER0001
  6
CONTINUOUS
 62
       7
100
AcDbLine
 10
27.07369901
 20
-75.57847867
 30
0.0
 11
27.0408071
 21
-75.55911227
 31
0.0
  0
LINE
  5
363
100
AcDbEntity
  8
LAYER0001
  6
CONTINUOUS
 62
       7
100
AcDbLine
 10
27.0408071
 20
-75.55911227
 30
0.0
 11
27.00828238
 21
-75.53826181
 31
0.0
  0
LINE
  5
364
100
AcDbEntity
  8
LAYER0001
  6
CONTINUOUS
 62
       7
100
AcDbLine
 10
27.00828238
 20
-75.53826181
 30
0.0
 11
26.97618161
 21
-75.51595
 31
0.0
  0
LINE
  5
365
100
AcDbEntity
  8
LAYER0001
  6
CONTINUOUS
 62
       7
100
AcDbLine
 10
26.97618161
 20
-75.51595
 30
0.0
 11
26.94456155
 21
-75.49219954
 31
0.0
  0
LINE
  5
366
100
AcDbEntity
  8
LAYER0001
  6
CONTINUOUS
 62
       7
100
AcDbLine
 10
26.94456155
 20
-75.49219954
 30
0.0
 11
26.91347895
 21
-75.46703314
 31
0.0
  0
LINE
  5
367
100
AcDbEntity
  8
LAYER0001
  6
CONTINUOUS
 62
       7
100
AcDbLine
 10
26.91347895
 20
-75.46703314
 30
0.0
 11
26.88299057
 21
-75.4404735
 31
0.0
  0
LINE
  5
368
100
AcDbEntity
  8
LAYER0001
  6
CONTINUOUS
 62
       7
100
AcDbLine
 10
26.88299057
 20
-75.4404735
 30
0.0
 11
26.85315316
 21
-75.41254332
 31
0.0
  0
LINE
  5
369
100
AcDbEntity
  8
LAYER0001
  6
CONTINUOUS
 62
       7
100
AcDbLine
 10
26.85315316
 20
-75.41254332
 30
0.0
 11
26.82402349
 21
-75.3832653
 31
0.0
  0
LINE
  5
36A
100
AcDbEntity
  8
LAYER0001
  6
CONTINUOUS
 62
       7
100
AcDbLine
 10
26.82402349
 20
-75.3832653
 30
0.0
 11
26.79566678
 21
-75.35264714
 31
0.0
  0
LINE
  5
36B
100
AcDbEntity
  8
LAYER0001
  6
CONTINUOUS
 62
       7
100
AcDbLine
 10
26.79566678
 20
-75.35264714
 30
0.0
 11
26.7681716
 21
-75.3206552
 31
0.0
  0
LINE
  5
36C
100
AcDbEntity
  8
LAYER0001
  6
CONTINUOUS
 62
       7
100
AcDbLine
 10
26.7681716
 20
-75.3206552
 30
0.0
 11
26.74163053
 21
-75.28724871
 31
0.0
  0
LINE
  5
36D
100
AcDbEntity
  8
LAYER0001
  6
CONTINUOUS
 62
       7
100
AcDbLine
 10
26.74163053
 20
-75.28724871
 30
0.0
 11
26.71613617
 21
-75.25238691
 31
0.0
  0
LINE
  5
36E
100
AcDbEntity
  8
LAYER0001
  6
CONTINUOUS
 62
       7
100
AcDbLine
 10
26.71613617
 20
-75.25238691
 30
0.0
 11
26.69178109
 21
-75.21602903
 31
0.0
  0
LINE
  5
36F
100
AcDbEntity
  8
LAYER0001
  6
CONTINUOUS
 62
       7
100
AcDbLine
 10
26.69178109
 20
-75.21602903
 30
0.0
 11
26.66865788
 21
-75.17813432
 31
0.0
  0
LINE
  5
370
100
AcDbEntity
  8
LAYER0001
  6
CONTINUOUS
 62
       7
100
AcDbLine
 10
26.66865788
 20
-75.17813432
 30
0.0
 11
26.64685986
 21
-75.1386625
 31
0.0
  0
LINE
  5
371
100
AcDbEntity
  8
LAYER0001
  6
CONTINUOUS
 62
       7
100
AcDbLine
 10
26.64685986
 20
-75.1386625
 30
0.0
 11
26.62655718
 21
-75.09762366
 31
0.0
  0
LINE
  5
372
100
AcDbEntity
  8
LAYER0001
  6
CONTINUOUS
 62
       7
100
AcDbLine
 10
26.62655718
 20
-75.09762366
 30
0.0
 11
26.60806288
 21
-75.05512156
 31
0.0
  0
LINE
  5
373
100
AcDbEntity
  8
LAYER0001
  6
CONTINUOUS
 62
       7
100
AcDbLine
 10
26.60806288
 20
-75.05512156
 30
0.0
 11
26.59170556
 21
-75.01127016
 31
0.0
  0
LINE
  5
374
100
AcDbEntity
  8
LAYER0001
  6
CONTINUOUS
 62
       7
100
AcDbLine
 10
26.59170556
 20
-75.01127016
 30
0.0
 11
26.57781382
 21
-74.96618344
 31
0.0
  0
LINE
  5
375
100
AcDbEntity
  8
LAYER0001
  6
CONTINUOUS
 62
       7
100
AcDbLine
 10
26.57781382
 20
-74.96618344
 30
0.0
 11
26.56671626
 21
-74.91997536
 31
0.0
  0
LINE
  5
376
100
AcDbEntity
  8
LAYER0001
  6
CONTINUOUS
 62
       7
100
AcDbLine
 10
26.56671626
 20
-74.91997536
 30
0.0
 11
26.55856504
 21
-74.87278183
 31
0.0
  0
LINE
  5
377
100
AcDbEntity
  8
LAYER0001
  6
CONTINUOUS
 62
       7
100
AcDbLine
 10
26.55856504
 20
-74.87278183
 30
0.0
 11
26.55276998
 21
-74.824831
 31
0.0
  0
LINE
  5
378
100
AcDbEntity
  8
LAYER0001
  6
CONTINUOUS
 62
       7
100
AcDbLine
 10
26.55276998
 20
-74.824831
 30
0.0
 11
26.54854569
 21
-74.77637531
 31
0.0
  0
LINE
  5
379
100
AcDbEntity
  8
LAYER0001
  6
CONTINUOUS
 62
       7
100
AcDbLine
 10
26.54854569
 20
-74.77637531
 30
0.0
 11
26.54510679
 21
-74.72766719
 31
0.0
  0
ENDBLK
  5
37A
100
AcDbEntity
  8
0
100
AcDbBlockEnd
  0
BLOCK
  5
37B
100
AcDbEntity
  8
0
100
AcDbBlockBegin
  2
GROUP_21
 70
       0
 10
0.0
 20
0.0
 30
0.0
  3
GROUP_21
  1

  0
LINE
  5
37C
100
AcDbEntity
  8
LAYER0001
  6
CONTINUOUS
 62
       7
100
AcDbLine
 10
-8.49534442
 20
-93.3276675
 30
0.0
 11
-8.53452639
 21
-93.32495039
 31
0.0
  0
LINE
  5
37D
100
AcDbEntity
  8
LAYER0001
  6
CONTINUOUS
 62
       7
100
AcDbLine
 10
-8.53452639
 20
-93.32495039
 30
0.0
 11
-8.57365203
 21
-93.32191562
 31
0.0
  0
LINE
  5
37E
100
AcDbEntity
  8
LAYER0001
  6
CONTINUOUS
 62
       7
100
AcDbLine
 10
-8.57365203
 20
-93.32191562
 30
0.0
 11
-8.612665
 21
-93.3182455
 31
0.0
  0
LINE
  5
37F
100
AcDbEntity
  8
LAYER0001
  6
CONTINUOUS
 62
       7
100
AcDbLine
 10
-8.612665
 20
-93.3182455
 30
0.0
 11
-8.65150898
 21
-93.31362236
 31
0.0
  0
LINE
  5
380
100
AcDbEntity
  8
LAYER0001
  6
CONTINUOUS
 62
       7
100
AcDbLine
 10
-8.65150898
 20
-93.31362236
 30
0.0
 11
-8.69012763
 21
-93.30772854
 31
0.0
  0
LINE
  5
381
100
AcDbEntity
  8
LAYER0001
  6
CONTINUOUS
 62
       7
100
AcDbLine
 10
-8.69012763
 20
-93.30772854
 30
0.0
 11
-8.72846461
 21
-93.30024664
 31
0.0
  0
LINE
  5
382
100
AcDbEntity
  8
LAYER0001
  6
CONTINUOUS
 62
       7
100
AcDbLine
 10
-8.72846461
 20
-93.30024664
 30
0.0
 11
-8.76646174
 21
-93.29096084
 31
0.0
  0
LINE
  5
383
100
AcDbEntity
  8
LAYER0001
  6
CONTINUOUS
 62
       7
100
AcDbLine
 10
-8.76646174
 20
-93.29096084
 30
0.0
 11
-8.8040563
 21
-93.27990666
 31
0.0
  0
LINE
  5
384
100
AcDbEntity
  8
LAYER0001
  6
CONTINUOUS
 62
       7
100
AcDbLine
 10
-8.8040563
 20
-93.27990666
 30
0.0
 11
-8.84118486
 21
-93.26715783
 31
0.0
  0
LINE
  5
385
100
AcDbEntity
  8
LAYER0001
  6
CONTINUOUS
 62
       7
100
AcDbLine
 10
-8.84118486
 20
-93.26715783
 30
0.0
 11
-8.877784
 21
-93.25278808
 31
0.0
  0
LINE
  5
386
100
AcDbEntity
  8
LAYER0001
  6
CONTINUOUS
 62
       7
100
AcDbLine
 10
-8.877784
 20
-93.25278808
 30
0.0
 11
-8.91379028
 21
-93.23687115
 31
0.0
  0
LINE
  5
387
100
AcDbEntity
  8
LAYER0001
  6
CONTINUOUS
 62
       7
100
AcDbLine
 10
-8.91379028
 20
-93.23687115
 30
0.0
 11
-8.9491403
 21
-93.21948077
 31
0.0
  0
LINE
  5
388
100
AcDbEntity
  8
LAYER0001
  6
CONTINUOUS
 62
       7
100
AcDbLine
 10
-8.9491403
 20
-93.21948077
 30
0.0
 11
-8.98377061
 21
-93.20069067
 31
0.0
  0
LINE
  5
389
100
AcDbEntity
  8
LAYER0001
  6
CONTINUOUS
 62
       7
100
AcDbLine
 10
-8.98377061
 20
-93.20069067
 30
0.0
 11
-9.0176178
 21
-93.18057458
 31
0.0
  0
LINE
  5
38A
100
AcDbEntity
  8
LAYER0001
  6
CONTINUOUS
 62
       7
100
AcDbLine
 10
-9.0176178
 20
-93.18057458
 30
0.0
 11
-9.05061932
 21
-93.15920512
 31
0.0
  0
LINE
  5
38B
100
AcDbEntity
  8
LAYER0001
  6
CONTINUOUS
 62
       7
100
AcDbLine
 10
-9.05061932
 20
-93.15920512
 30
0.0
 11
-9.08273077
 21
-93.13663166
 31
0.0
  0
LINE
  5
38C
100
AcDbEntity
  8
LAYER0001
  6
CONTINUOUS
 62
       7
100
AcDbLine
 10
-9.08273077
 20
-93.13663166
 30
0.0
 11
-9.11392485
 21
-93.11288167
 31
0.0
  0
LINE
  5
38D
100
AcDbEntity
  8
LAYER0001
  6
CONTINUOUS
 62
       7
100
AcDbLine
 10
-9.11392485
 20
-93.11288167
 30
0.0
 11
-9.14417492
 21
-93.0879818
 31
0.0
  0
LINE
  5
38E
100
AcDbEntity
  8
LAYER0001
  6
CONTINUOUS
 62
       7
100
AcDbLine
 10
-9.14417492
 20
-93.0879818
 30
0.0
 11
-9.17345433
 21
-93.06195866
 31
0.0
  0
LINE
  5
38F
100
AcDbEntity
  8
LAYER0001
  6
CONTINUOUS
 62
       7
100
AcDbLine
 10
-9.17345433
 20
-93.06195866
 30
0.0
 11
-9.20173645
 21
-93.03483889
 31
0.0
  0
LINE
  5
390
100
AcDbEntity
  8
LAYER0001
  6
CONTINUOUS
 62
       7
100
AcDbLine
 10
-9.20173645
 20
-93.03483889
 30
0.0
 11
-9.22899464
 21
-93.00664913
 31
0.0
  0
LINE
  5
391
100
AcDbEntity
  8
LAYER0001
  6
CONTINUOUS
 62
       7
100
AcDbLine
 10
-9.22899464
 20
-93.00664913
 30
0.0
 11
-9.25520225
 21
-92.97741601
 31
0.0
  0
LINE
  5
392
100
AcDbEntity
  8
LAYER0001
  6
CONTINUOUS
 62
       7
100
AcDbLine
 10
-9.25520225
 20
-92.97741601
 30
0.0
 11
-9.28033265
 21
-92.94716615
 31
0.0
  0
LINE
  5
393
100
AcDbEntity
  8
LAYER0001
  6
CONTINUOUS
 62
       7
100
AcDbLine
 10
-9.28033265
 20
-92.94716615
 30
0.0
 11
-9.30434918
 21
-92.91593067
 31
0.0
  0
LINE
  5
394
100
AcDbEntity
  8
LAYER0001
  6
CONTINUOUS
 62
       7
100
AcDbLine
 10
-9.30434918
 20
-92.91593067
 30
0.0
 11
-9.32717127
 21
-92.88376037
 31
0.0
  0
LINE
  5
395
100
AcDbEntity
  8
LAYER0001
  6
CONTINUOUS
 62
       7
100
AcDbLine
 10
-9.32717127
 20
-92.88376037
 30
0.0
 11
-9.34870627
 21
-92.85071143
 31
0.0
  0
LINE
  5
396
100
AcDbEntity
  8
LAYER0001
  6
CONTINUOUS
 62
       7
100
AcDbLine
 10
-9.34870627
 20
-92.85071143
 30
0.0
 11
-9.36886155
 21
-92.81684006
 31
0.0
  0
LINE
  5
397
100
AcDbEntity
  8
LAYER0001
  6
CONTINUOUS
 62
       7
100
AcDbLine
 10
-9.36886155
 20
-92.81684006
 30
0.0
 11
-9.38754447
 21
-92.78220245
 31
0.0
  0
LINE
  5
398
100
AcDbEntity
  8
LAYER0001
  6
CONTINUOUS
 62
       7
100
AcDbLine
 10
-9.38754447
 20
-92.78220245
 30
0.0
 11
-9.40466239
 21
-92.74685478
 31
0.0
  0
LINE
  5
399
100
AcDbEntity
  8
LAYER0001
  6
CONTINUOUS
 62
       7
100
AcDbLine
 10
-9.40466239
 20
-92.74685478
 30
0.0
 11
-9.42012269
 21
-92.71085325
 31
0.0
  0
LINE
  5
39A
100
AcDbEntity
  8
LAYER0001
  6
CONTINUOUS
 62
       7
100
AcDbLine
 10
-9.42012269
 20
-92.71085325
 30
0.0
 11
-9.43383272
 21
-92.67425405
 31
0.0
  0
LINE
  5
39B
100
AcDbEntity
  8
LAYER0001
  6
CONTINUOUS
 62
       7
100
AcDbLine
 10
-9.43383272
 20
-92.67425405
 30
0.0
 11
-9.4457061
 21
-92.63711346
 31
0.0
  0
LINE
  5
39C
100
AcDbEntity
  8
LAYER0001
  6
CONTINUOUS
 62
       7
100
AcDbLine
 10
-9.4457061
 20
-92.63711346
 30
0.0
 11
-9.45580584
 21
-92.59948975
 31
0.0
  0
LINE
  5
39D
100
AcDbEntity
  8
LAYER0001
  6
CONTINUOUS
 62
       7
100
AcDbLine
 10
-9.45580584
 20
-92.59948975
 30
0.0
 11
-9.4643476
 21
-92.56144323
 31
0.0
  0
LINE
  5
39E
100
AcDbEntity
  8
LAYER0001
  6
CONTINUOUS
 62
       7
100
AcDbLine
 10
-9.4643476
 20
-92.56144323
 30
0.0
 11
-9.47155397
 21
-92.5230343
 31
0.0
  0
LINE
  5
39F
100
AcDbEntity
  8
LAYER0001
  6
CONTINUOUS
 62
       7
100
AcDbLine
 10
-9.47155397
 20
-92.5230343
 30
0.0
 11
-9.47764749
 21
-92.48432337
 31
0.0
  0
LINE
  5
3A0
100
AcDbEntity
  8
LAYER0001
  6
CONTINUOUS
 62
       7
100
AcDbLine
 10
-9.47764749
 20
-92.48432337
 30
0.0
 11
-9.48285075
 21
-92.44537082
 31
0.0
  0
LINE
  5
3A1
100
AcDbEntity
  8
LAYER0001
  6
CONTINUOUS
 62
       7
100
AcDbLine
 10
-9.48285075
 20
-92.44537082
 30
0.0
 11
-9.48738631
 21
-92.40623707
 31
0.0
  0
LINE
  5
3A2
100
AcDbEntity
  8
LAYER0001
  6
CONTINUOUS
 62
       7
100
AcDbLine
 10
-9.48738631
 20
-92.40623707
 30
0.0
 11
-9.49147673
 21
-92.36698252
 31
0.0
  0
LINE
  5
3A3
100
AcDbEntity
  8
LAYER0001
  6
CONTINUOUS
 62
       7
100
AcDbLine
 10
-9.49147673
 20
-92.36698252
 30
0.0
 11
-9.49534458
 21
-92.32766756
 31
0.0
  0
ENDBLK
  5
3A4
100
AcDbEntity
  8
0
100
AcDbBlockEnd
  0
BLOCK
  5
3A5
100
AcDbEntity
  8
0
100
AcDbBlockBegin
  2
GROUP_22
 70
       0
 10
0.0
 20
0.0
 30
0.0
  3
GROUP_22
  1

  0
LINE
  5
3A6
100
AcDbEntity
  8
LAYER0001
  6
CONTINUOUS
 62
       7
100
AcDbLine
 10
-9.49534458
 20
-88.02766788
 30
0.0
 11
-9.49270148
 21
-87.98847387
 31
0.0
  0
LINE
  5
3A7
100
AcDbEntity
  8
LAYER0001
  6
CONTINUOUS
 62
       7
100
AcDbLine
 10
-9.49270148
 20
-87.98847387
 30
0.0
 11
-9.48973092
 21
-87.94933556
 31
0.0
  0
LINE
  5
3A8
100
AcDbEntity
  8
LAYER0001
  6
CONTINUOUS
 62
       7
100
AcDbLine
 10
-9.48973092
 20
-87.94933556
 30
0.0
 11
-9.48610542
 21
-87.91030866
 31
0.0
  0
LINE
  5
3A9
100
AcDbEntity
  8
LAYER0001
  6
CONTINUOUS
 62
       7
100
AcDbLine
 10
-9.48610542
 20
-87.91030866
 30
0.0
 11
-9.48149752
 21
-87.87144886
 31
0.0
  0
LINE
  5
3AA
100
AcDbEntity
  8
LAYER0001
  6
CONTINUOUS
 62
       7
100
AcDbLine
 10
-9.48149752
 20
-87.87144886
 30
0.0
 11
-9.47557977
 21
-87.83281186
 31
0.0
  0
LINE
  5
3AB
100
AcDbEntity
  8
LAYER0001
  6
CONTINUOUS
 62
       7
100
AcDbLine
 10
-9.47557977
 20
-87.83281186
 30
0.0
 11
-9.46802733
 21
-87.79445344
 31
0.0
  0
LINE
  5
3AC
100
AcDbEntity
  8
LAYER0001
  6
CONTINUOUS
 62
       7
100
AcDbLine
 10
-9.46802733
 20
-87.79445344
 30
0.0
 11
-9.45866554
 21
-87.75643263
 31
0.0
  0
LINE
  5
3AD
100
AcDbEntity
  8
LAYER0001
  6
CONTINUOUS
 62
       7
100
AcDbLine
 10
-9.45866554
 20
-87.75643263
 30
0.0
 11
-9.44754804
 21
-87.7188135
 31
0.0
  0
LINE
  5
3AE
100
AcDbEntity
  8
LAYER0001
  6
CONTINUOUS
 62
       7
100
AcDbLine
 10
-9.44754804
 20
-87.7188135
 30
0.0
 11
-9.43474758
 21
-87.68166052
 31
0.0
  0
LINE
  5
3AF
100
AcDbEntity
  8
LAYER0001
  6
CONTINUOUS
 62
       7
100
AcDbLine
 10
-9.43474758
 20
-87.68166052
 30
0.0
 11
-9.42033691
 21
-87.64503818
 31
0.0
  0
LINE
  5
3B0
100
AcDbEntity
  8
LAYER0001
  6
CONTINUOUS
 62
       7
100
AcDbLine
 10
-9.42033691
 20
-87.64503818
 30
0.0
 11
-9.40438879
 21
-87.60901095
 31
0.0
  0
LINE
  5
3B1
100
AcDbEntity
  8
LAYER0001
  6
CONTINUOUS
 62
       7
100
AcDbLine
 10
-9.40438879
 20
-87.60901095
 30
0.0
 11
-9.38697597
 21
-87.5736433
 31
0.0
  0
LINE
  5
3B2
100
AcDbEntity
  8
LAYER0001
  6
CONTINUOUS
 62
       7
100
AcDbLine
 10
-9.38697597
 20
-87.5736433
 30
0.0
 11
-9.36817121
 21
-87.53899973
 31
0.0
  0
LINE
  5
3B3
100
AcDbEntity
  8
LAYER0001
  6
CONTINUOUS
 62
       7
100
AcDbLine
 10
-9.36817121
 20
-87.53899973
 30
0.0
 11
-9.34804724
 21
-87.5051447
 31
0.0
  0
LINE
  5
3B4
100
AcDbEntity
  8
LAYER0001
  6
CONTINUOUS
 62
       7
100
AcDbLine
 10
-9.34804724
 20
-87.5051447
 30
0.0
 11
-9.32667421
 21
-87.4721405
 31
0.0
  0
LINE
  5
3B5
100
AcDbEntity
  8
LAYER0001
  6
CONTINUOUS
 62
       7
100
AcDbLine
 10
-9.32667421
 20
-87.4721405
 30
0.0
 11
-9.30409528
 21
-87.44002709
 31
0.0
  0
LINE
  5
3B6
100
AcDbEntity
  8
LAYER0001
  6
CONTINUOUS
 62
       7
100
AcDbLine
 10
-9.30409528
 20
-87.44002709
 30
0.0
 11
-9.28033789
 21
-87.40883134
 31
0.0
  0
LINE
  5
3B7
100
AcDbEntity
  8
LAYER0001
  6
CONTINUOUS
 62
       7
100
AcDbLine
 10
-9.28033789
 20
-87.40883134
 30
0.0
 11
-9.25542926
 21
-87.37857996
 31
0.0
  0
LINE
  5
3B8
100
AcDbEntity
  8
LAYER0001
  6
CONTINUOUS
 62
       7
100
AcDbLine
 10
-9.25542926
 20
-87.37857996
 30
0.0
 11
-9.22939661
 21
-87.34929965
 31
0.0
  0
LINE
  5
3B9
100
AcDbEntity
  8
LAYER0001
  6
CONTINUOUS
 62
       7
100
AcDbLine
 10
-9.22939661
 20
-87.34929965
 30
0.0
 11
-9.20226717
 21
-87.32101713
 31
0.0
  0
LINE
  5
3BA
100
AcDbEntity
  8
LAYER0001
  6
CONTINUOUS
 62
       7
100
AcDbLine
 10
-9.20226717
 20
-87.32101713
 30
0.0
 11
-9.17406817
 21
-87.29375909
 31
0.0
  0
LINE
  5
3BB
100
AcDbEntity
  8
LAYER0001
  6
CONTINUOUS
 62
       7
100
AcDbLine
 10
-9.17406817
 20
-87.29375909
 30
0.0
 11
-9.14482682
 21
-87.26755225
 31
0.0
  0
LINE
  5
3BC
100
AcDbEntity
  8
LAYER0001
  6
CONTINUOUS
 62
       7
100
AcDbLine
 10
-9.14482682
 20
-87.26755225
 30
0.0
 11
-9.11457036
 21
-87.24242333
 31
0.0
  0
LINE
  5
3BD
100
AcDbEntity
  8
LAYER0001
  6
CONTINUOUS
 62
       7
100
AcDbLine
 10
-9.11457036
 20
-87.24242333
 30
0.0
 11
-9.08333219
 21
-87.21841324
 31
0.0
  0
LINE
  5
3BE
100
AcDbEntity
  8
LAYER0001
  6
CONTINUOUS
 62
       7
100
AcDbLine
 10
-9.08333219
 20
-87.21841324
 30
0.0
 11
-9.05116433
 21
-87.19560574
 31
0.0
  0
LINE
  5
3BF
100
AcDbEntity
  8
LAYER0001
  6
CONTINUOUS
 62
       7
100
AcDbLine
 10
-9.05116433
 20
-87.19560574
 30
0.0
 11
-9.0181223
 21
-87.17409268
 31
0.0
  0
LINE
  5
3C0
100
AcDbEntity
  8
LAYER0001
  6
CONTINUOUS
 62
       7
100
AcDbLine
 10
-9.0181223
 20
-87.17409268
 30
0.0
 11
-8.98426163
 21
-87.1539659
 31
0.0
  0
LINE
  5
3C1
100
AcDbEntity
  8
LAYER0001
  6
CONTINUOUS
 62
       7
100
AcDbLine
 10
-8.98426163
 20
-87.1539659
 30
0.0
 11
-8.94963785
 21
-87.13531722
 31
0.0
  0
LINE
  5
3C2
100
AcDbEntity
  8
LAYER0001
  6
CONTINUOUS
 62
       7
100
AcDbLine
 10
-8.94963785
 20
-87.13531722
 30
0.0
 11
-8.91430648
 21
-87.11823849
 31
0.0
  0
LINE
  5
3C3
100
AcDbEntity
  8
LAYER0001
  6
CONTINUOUS
 62
       7
100
AcDbLine
 10
-8.91430648
 20
-87.11823849
 30
0.0
 11
-8.87832305
 21
-87.10282153
 31
0.0
  0
LINE
  5
3C4
100
AcDbEntity
  8
LAYER0001
  6
CONTINUOUS
 62
       7
100
AcDbLine
 10
-8.87832305
 20
-87.10282153
 30
0.0
 11
-8.84174308
 21
-87.08915819
 31
0.0
  0
LINE
  5
3C5
100
AcDbEntity
  8
LAYER0001
  6
CONTINUOUS
 62
       7
100
AcDbLine
 10
-8.84174308
 20
-87.08915819
 30
0.0
 11
-8.80462224
 21
-87.07733143
 31
0.0
  0
LINE
  5
3C6
100
AcDbEntity
  8
LAYER0001
  6
CONTINUOUS
 62
       7
100
AcDbLine
 10
-8.80462224
 20
-87.07733143
 30
0.0
 11
-8.76701866
 21
-87.06726427
 31
0.0
  0
LINE
  5
3C7
100
AcDbEntity
  8
LAYER0001
  6
CONTINUOUS
 62
       7
100
AcDbLine
 10
-8.76701866
 20
-87.06726427
 30
0.0
 11
-8.72899262
 21
-87.05874079
 31
0.0
  0
LINE
  5
3C8
100
AcDbEntity
  8
LAYER0001
  6
CONTINUOUS
 62
       7
100
AcDbLine
 10
-8.72899262
 20
-87.05874079
 30
0.0
 11
-8.69060447
 21
-87.05154046
 31
0.0
  0
LINE
  5
3C9
100
AcDbEntity
  8
LAYER0001
  6
CONTINUOUS
 62
       7
100
AcDbLine
 10
-8.69060447
 20
-87.05154046
 30
0.0
 11
-8.65191457
 21
-87.04544276
 31
0.0
  0
LINE
  5
3CA
100
AcDbEntity
  8
LAYER0001
  6
CONTINUOUS
 62
       7
100
AcDbLine
 10
-8.65191457
 20
-87.04544276
 30
0.0
 11
-8.61298326
 21
-87.04022716
 31
0.0
  0
LINE
  5
3CB
100
AcDbEntity
  8
LAYER0001
  6
CONTINUOUS
 62
       7
100
AcDbLine
 10
-8.61298326
 20
-87.04022716
 30
0.0
 11
-8.5738709
 21
-87.03567314
 31
0.0
  0
LINE
  5
3CC
100
AcDbEntity
  8
LAYER0001
  6
CONTINUOUS
 62
       7
100
AcDbLine
 10
-8.5738709
 20
-87.03567314
 30
0.0
 11
-8.53463784
 21
-87.03156017
 31
0.0
  0
LINE
  5
3CD
100
AcDbEntity
  8
LAYER0001
  6
CONTINUOUS
 62
       7
100
AcDbLine
 10
-8.53463784
 20
-87.03156017
 30
0.0
 11
-8.49534442
 21
-87.02766772
 31
0.0
  0
ENDBLK
  5
3CE
100
AcDbEntity
  8
0
100
AcDbBlockEnd
  0
BLOCK
  5
3CF
100
AcDbEntity
  8
0
100
AcDbBlockBegin
  2
GROUP_23
 70
       0
 10
0.0
 20
0.0
 30
0.0
  3
GROUP_23
  1

  0
LINE
  5
3D0
100
AcDbEntity
  8
LAYER0001
  6
CONTINUOUS
 62
       7
100
AcDbLine
 10
-1.92237388
 20
-91.12766744
 30
0.0
 11
-1.90011992
 21
-91.12806132
 31
0.0
  0
LINE
  5
3D1
100
AcDbEntity
  8
LAYER0001
  6
CONTINUOUS
 62
       7
100
AcDbLine
 10
-1.90011992
 20
-91.12806132
 30
0.0
 11
-1.87790914
 21
-91.12924638
 31
0.0
  0
LINE
  5
3D2
100
AcDbEntity
  8
LAYER0001
  6
CONTINUOUS
 62
       7
100
AcDbLine
 10
-1.87790914
 20
-91.12924638
 30
0.0
 11
-1.8557427
 21
-91.13122778
 31
0.0
  0
LINE
  5
3D3
100
AcDbEntity
  8
LAYER0001
  6
CONTINUOUS
 62
       7
100
AcDbLine
 10
-1.8557427
 20
-91.13122778
 30
0.0
 11
-1.83362174
 21
-91.13401064
 31
0.0
  0
LINE
  5
3D4
100
AcDbEntity
  8
LAYER0001
  6
CONTINUOUS
 62
       7
100
AcDbLine
 10
-1.83362174
 20
-91.13401064
 30
0.0
 11
-1.81154742
 21
-91.13760012
 31
0.0
  0
LINE
  5
3D5
100
AcDbEntity
  8
LAYER0001
  6
CONTINUOUS
 62
       7
100
AcDbLine
 10
-1.81154742
 20
-91.13760012
 30
0.0
 11
-1.78952088
 21
-91.14200135
 31
0.0
  0
LINE
  5
3D6
100
AcDbEntity
  8
LAYER0001
  6
CONTINUOUS
 62
       7
100
AcDbLine
 10
-1.78952088
 20
-91.14200135
 30
0.0
 11
-1.76754328
 21
-91.14721949
 31
0.0
  0
LINE
  5
3D7
100
AcDbEntity
  8
LAYER0001
  6
CONTINUOUS
 62
       7
100
AcDbLine
 10
-1.76754328
 20
-91.14721949
 30
0.0
 11
-1.74561578
 21
-91.15325966
 31
0.0
  0
LINE
  5
3D8
100
AcDbEntity
  8
LAYER0001
  6
CONTINUOUS
 62
       7
100
AcDbLine
 10
-1.74561578
 20
-91.15325966
 30
0.0
 11
-1.72373951
 21
-91.16012702
 31
0.0
  0
LINE
  5
3D9
100
AcDbEntity
  8
LAYER0001
  6
CONTINUOUS
 62
       7
100
AcDbLine
 10
-1.72373951
 20
-91.16012702
 30
0.0
 11
-1.70191563
 21
-91.16782671
 31
0.0
  0
LINE
  5
3DA
100
AcDbEntity
  8
LAYER0001
  6
CONTINUOUS
 62
       7
100
AcDbLine
 10
-1.70191563
 20
-91.16782671
 30
0.0
 11
-1.6801453
 21
-91.17636386
 31
0.0
  0
LINE
  5
3DB
100
AcDbEntity
  8
LAYER0001
  6
CONTINUOUS
 62
       7
100
AcDbLine
 10
-1.6801453
 20
-91.17636386
 30
0.0
 11
-1.65842966
 21
-91.18574363
 31
0.0
  0
LINE
  5
3DC
100
AcDbEntity
  8
LAYER0001
  6
CONTINUOUS
 62
       7
100
AcDbLine
 10
-1.65842966
 20
-91.18574363
 30
0.0
 11
-1.63677901
 21
-91.19597013
 31
0.0
  0
LINE
  5
3DD
100
AcDbEntity
  8
LAYER0001
  6
CONTINUOUS
 62
       7
100
AcDbLine
 10
-1.63677901
 20
-91.19597013
 30
0.0
 11
-1.61525622
 21
-91.20704178
 31
0.0
  0
LINE
  5
3DE
100
AcDbEntity
  8
LAYER0001
  6
CONTINUOUS
 62
       7
100
AcDbLine
 10
-1.61525622
 20
-91.20704178
 30
0.0
 11
-1.59388909
 21
-91.218961
 31
0.0
  0
LINE
  5
3DF
100
AcDbEntity
  8
LAYER0001
  6
CONTINUOUS
 62
       7
100
AcDbLine
 10
-1.59388909
 20
-91.218961
 30
0.0
 11
-1.57269705
 21
-91.23173118
 31
0.0
  0
LINE
  5
3E0
100
AcDbEntity
  8
LAYER0001
  6
CONTINUOUS
 62
       7
100
AcDbLine
 10
-1.57269705
 20
-91.23173118
 30
0.0
 11
-1.55169951
 21
-91.24535571
 31
0.0
  0
LINE
  5
3E1
100
AcDbEntity
  8
LAYER0001
  6
CONTINUOUS
 62
       7
100
AcDbLine
 10
-1.55169951
 20
-91.24535571
 30
0.0
 11
-1.53091589
 21
-91.25983795
 31
0.0
  0
LINE
  5
3E2
100
AcDbEntity
  8
LAYER0001
  6
CONTINUOUS
 62
       7
100
AcDbLine
 10
-1.53091589
 20
-91.25983795
 30
0.0
 11
-1.51036562
 21
-91.27518128
 31
0.0
  0
LINE
  5
3E3
100
AcDbEntity
  8
LAYER0001
  6
CONTINUOUS
 62
       7
100
AcDbLine
 10
-1.51036562
 20
-91.27518128
 30
0.0
 11
-1.49006812
 21
-91.29138909
 31
0.0
  0
LINE
  5
3E4
100
AcDbEntity
  8
LAYER0001
  6
CONTINUOUS
 62
       7
100
AcDbLine
 10
-1.49006812
 20
-91.29138909
 30
0.0
 11
-1.47004281
 21
-91.30846476
 31
0.0
  0
LINE
  5
3E5
100
AcDbEntity
  8
LAYER0001
  6
CONTINUOUS
 62
       7
100
AcDbLine
 10
-1.47004281
 20
-91.30846476
 30
0.0
 11
-1.45030911
 21
-91.32641166
 31
0.0
  0
LINE
  5
3E6
100
AcDbEntity
  8
LAYER0001
  6
CONTINUOUS
 62
       7
100
AcDbLine
 10
-1.45030911
 20
-91.32641166
 30
0.0
 11
-1.43088643
 21
-91.34523318
 31
0.0
  0
LINE
  5
3E7
100
AcDbEntity
  8
LAYER0001
  6
CONTINUOUS
 62
       7
100
AcDbLine
 10
-1.43088643
 20
-91.34523318
 30
0.0
 11
-1.41179421
 21
-91.36493269
 31
0.0
  0
LINE
  5
3E8
100
AcDbEntity
  8
LAYER0001
  6
CONTINUOUS
 62
       7
100
AcDbLine
 10
-1.41179421
 20
-91.36493269
 30
0.0
 11
-1.39305186
 21
-91.38551358
 31
0.0
  0
LINE
  5
3E9
100
AcDbEntity
  8
LAYER0001
  6
CONTINUOUS
 62
       7
100
AcDbLine
 10
-1.39305186
 20
-91.38551358
 30
0.0
 11
-1.37469865
 21
-91.40696947
 31
0.0
  0
LINE
  5
3EA
100
AcDbEntity
  8
LAYER0001
  6
CONTINUOUS
 62
       7
100
AcDbLine
 10
-1.37469865
 20
-91.40696947
 30
0.0
 11
-1.35677992
 21
-91.42928042
 31
0.0
  0
LINE
  5
3EB
100
AcDbEntity
  8
LAYER0001
  6
CONTINUOUS
 62
       7
100
AcDbLine
 10
-1.35677992
 20
-91.42928042
 30
0.0
 11
-1.3393242
 21
-91.45242942
 31
0.0
  0
LINE
  5
3EC
100
AcDbEntity
  8
LAYER0001
  6
CONTINUOUS
 62
       7
100
AcDbLine
 10
-1.3393242
 20
-91.45242942
 30
0.0
 11
-1.32236004
 21
-91.47639944
 31
0.0
  0
LINE
  5
3ED
100
AcDbEntity
  8
LAYER0001
  6
CONTINUOUS
 62
       7
100
AcDbLine
 10
-1.32236004
 20
-91.47639944
 30
0.0
 11
-1.30591596
 21
-91.50117349
 31
0.0
  0
LINE
  5
3EE
100
AcDbEntity
  8
LAYER0001
  6
CONTINUOUS
 62
       7
100
AcDbLine
 10
-1.30591596
 20
-91.50117349
 30
0.0
 11
-1.29002051
 21
-91.52673456
 31
0.0
  0
LINE
  5
3EF
100
AcDbEntity
  8
LAYER0001
  6
CONTINUOUS
 62
       7
100
AcDbLine
 10
-1.29002051
 20
-91.52673456
 30
0.0
 11
-1.27470221
 21
-91.55306563
 31
0.0
  0
LINE
  5
3F0
100
AcDbEntity
  8
LAYER0001
  6
CONTINUOUS
 62
       7
100
AcDbLine
 10
-1.27470221
 20
-91.55306563
 30
0.0
 11
-1.25998961
 21
-91.58014969
 31
0.0
  0
LINE
  5
3F1
100
AcDbEntity
  8
LAYER0001
  6
CONTINUOUS
 62
       7
100
AcDbLine
 10
-1.25998961
 20
-91.58014969
 30
0.0
 11
-1.24591123
 21
-91.60796974
 31
0.0
  0
LINE
  5
3F2
100
AcDbEntity
  8
LAYER0001
  6
CONTINUOUS
 62
       7
100
AcDbLine
 10
-1.24591123
 20
-91.60796974
 30
0.0
 11
-1.23249561
 21
-91.63650876
 31
0.0
  0
LINE
  5
3F3
100
AcDbEntity
  8
LAYER0001
  6
CONTINUOUS
 62
       7
100
AcDbLine
 10
-1.23249561
 20
-91.63650876
 30
0.0
 11
-1.21977129
 21
-91.66574975
 31
0.0
  0
LINE
  5
3F4
100
AcDbEntity
  8
LAYER0001
  6
CONTINUOUS
 62
       7
100
AcDbLine
 10
-1.21977129
 20
-91.66574975
 30
0.0
 11
-1.2077668
 21
-91.6956757
 31
0.0
  0
LINE
  5
3F5
100
AcDbEntity
  8
LAYER0001
  6
CONTINUOUS
 62
       7
100
AcDbLine
 10
-1.2077668
 20
-91.6956757
 30
0.0
 11
-1.19651446
 21
-91.72626052
 31
0.0
  0
LINE
  5
3F6
100
AcDbEntity
  8
LAYER0001
  6
CONTINUOUS
 62
       7
100
AcDbLine
 10
-1.19651446
 20
-91.72626052
 30
0.0
 11
-1.18606121
 21
-91.75742561
 31
0.0
  0
LINE
  5
3F7
100
AcDbEntity
  8
LAYER0001
  6
CONTINUOUS
 62
       7
100
AcDbLine
 10
-1.18606121
 20
-91.75742561
 30
0.0
 11
-1.17642822
 21
-91.78912661
 31
0.0
  0
LINE
  5
3F8
100
AcDbEntity
  8
LAYER0001
  6
CONTINUOUS
 62
       7
100
AcDbLine
 10
-1.17642822
 20
-91.78912661
 30
0.0
 11
-1.16763241
 21
-91.82132739
 31
0.0
  0
LINE
  5
3F9
100
AcDbEntity
  8
LAYER0001
  6
CONTINUOUS
 62
       7
100
AcDbLine
 10
-1.16763241
 20
-91.82132739
 30
0.0
 11
-1.15969069
 21
-91.85399186
 31
0.0
  0
LINE
  5
3FA
100
AcDbEntity
  8
LAYER0001
  6
CONTINUOUS
 62
       7
100
AcDbLine
 10
-1.15969069
 20
-91.85399186
 30
0.0
 11
-1.15261995
 21
-91.8870839
 31
0.0
  0
LINE
  5
3FB
100
AcDbEntity
  8
LAYER0001
  6
CONTINUOUS
 62
       7
100
AcDbLine
 10
-1.15261995
 20
-91.8870839
 30
0.0
 11
-1.14643713
 21
-91.92056742
 31
0.0
  0
LINE
  5
3FC
100
AcDbEntity
  8
LAYER0001
  6
CONTINUOUS
 62
       7
100
AcDbLine
 10
-1.14643713
 20
-91.92056742
 30
0.0
 11
-1.14115911
 21
-91.9544063
 31
0.0
  0
LINE
  5
3FD
100
AcDbEntity
  8
LAYER0001
  6
CONTINUOUS
 62
       7
100
AcDbLine
 10
-1.14115911
 20
-91.9544063
 30
0.0
 11
-1.13680281
 21
-91.98856444
 31
0.0
  0
LINE
  5
3FE
100
AcDbEntity
  8
LAYER0001
  6
CONTINUOUS
 62
       7
100
AcDbLine
 10
-1.13680281
 20
-91.98856444
 30
0.0
 11
-1.13338515
 21
-92.02300573
 31
0.0
  0
LINE
  5
3FF
100
AcDbEntity
  8
LAYER0001
  6
CONTINUOUS
 62
       7
100
AcDbLine
 10
-1.13338515
 20
-92.02300573
 30
0.0
 11
-1.13092302
 21
-92.05769406
 31
0.0
  0
LINE
  5
400
100
AcDbEntity
  8
LAYER0001
  6
CONTINUOUS
 62
       7
100
AcDbLine
 10
-1.13092302
 20
-92.05769406
 30
0.0
 11
-1.12943335
 21
-92.09259333
 31
0.0
  0
LINE
  5
401
100
AcDbEntity
  8
LAYER0001
  6
CONTINUOUS
 62
       7
100
AcDbLine
 10
-1.12943335
 20
-92.09259333
 30
0.0
 11
-1.12893303
 21
-92.12766744
 31
0.0
  0
ENDBLK
  5
402
100
AcDbEntity
  8
0
100
AcDbBlockEnd
  0
ENDSEC
  0
SECTION
  2
ENTITIES
  0
LINE
  5
403
100
AcDbEntity
  8
LAYER0001
  6
CONTINUOUS
 62
       7
100
AcDbLine
 10
-123.65871026
 20
160.15074871
 30
0.0
 11
-123.65871391
 21
129.45076728
 31
0.0
  0
LINE
  5
404
100
AcDbEntity
  8
LAYER0001
  6
CONTINUOUS
 62
       7
100
AcDbLine
 10
-83.65871255
 20
161.45075762
 30
0.0
 11
-83.65871198
 21
169.73439051
 31
0.0
  0
LINE
  5
405
100
AcDbEntity
  8
LAYER0001
  6
CONTINUOUS
 62
       7
100
AcDbLine
 10
-83.658711
 20
33.45076644
 30
0.0
 11
-83.65871175
 21
64.15076327
 31
0.0
  0
LINE
  5
406
100
AcDbEntity
  8
LAYER0001
  6
CONTINUOUS
 62
       7
100
AcDbLine
 10
-123.65870936
 20
64.15076327
 30
0.0
 11
-123.65871011
 21
33.45076644
 31
0.0
  0
LINE
  5
407
100
AcDbEntity
  8
LAYER0001
  6
CONTINUOUS
 62
       7
100
AcDbLine
 10
-83.658711
 20
65.45077169
 30
0.0
 11
-83.65871175
 21
96.15076852
 31
0.0
  0
LINE
  5
408
100
AcDbEntity
  8
LAYER0001
  6
CONTINUOUS
 62
       7
100
AcDbLine
 10
-123.65870936
 20
96.15076852
 30
0.0
 11
-123.65871011
 21
65.45077169
 31
0.0
  0
LINE
  5
409
100
AcDbEntity
  8
LAYER0001
  6
CONTINUOUS
 62
       7
100
AcDbLine
 10
-83.658711
 20
97.45076203
 30
0.0
 11
-83.65871175
 21
128.15075886
 31
0.0
  0
LINE
  5
40A
100
AcDbEntity
  8
LAYER0001
  6
CONTINUOUS
 62
       7
100
AcDbLine
 10
-123.65870936
 20
128.15075886
 30
0.0
 11
-123.65871011
 21
97.45076203
 31
0.0
  0
LINE
  5
40B
100
AcDbEntity
  8
LAYER0001
  6
CONTINUOUS
 62
       7
100
AcDbLine
 10
-83.65871473
 20
129.45076728
 30
0.0
 11
-83.65871264
 21
160.15074249
 31
0.0
  0
LINE
  5
40C
100
AcDbEntity
  8
LAYER0001
  6
CONTINUOUS
 62
       7
100
AcDbLine
 10
-123.65870912
 20
169.73439069
 30
0.0
 11
-123.65871011
 21
161.45075762
 31
0.0
  0
LINE
  5
40D
100
AcDbEntity
  8
LAYER0001
  6
CONTINUOUS
 62
       7
100
AcDbLine
 10
-83.658711
 20
1.4507612
 30
0.0
 11
-83.65871175
 21
32.15075802
 31
0.0
  0
LINE
  5
40E
100
AcDbEntity
  8
LAYER0001
  6
CONTINUOUS
 62
       7
100
AcDbLine
 10
-123.65870936
 20
32.15075802
 30
0.0
 11
-123.65871011
 21
1.4507612
 31
0.0
  0
LINE
  5
40F
100
AcDbEntity
  8
LAYER0001
  6
CONTINUOUS
 62
       7
100
AcDbLine
 10
-120.14909176
 20
-100.54923503
 30
0.0
 11
-120.14909176
 21
-101.24923524
 31
0.0
  0
LINE
  5
410
100
AcDbEntity
  8
LAYER0001
  6
CONTINUOUS
 62
       7
100
AcDbLine
 10
-113.14909155
 20
-101.24923524
 30
0.0
 11
-113.14909155
 21
-100.54923503
 31
0.0
  0
LINE
  5
411
100
AcDbEntity
  8
LAYER0001
  6
CONTINUOUS
 62
       7
100
AcDbLine
 10
-107.15871066
 20
-100.54923503
 30
0.0
 11
-107.15871066
 21
-101.24923524
 31
0.0
  0
LINE
  5
412
100
AcDbEntity
  8
LAYER0001
  6
CONTINUOUS
 62
       7
100
AcDbLine
 10
-100.15871045
 20
-101.24923524
 30
0.0
 11
-100.15871045
 21
-100.54923503
 31
0.0
  0
LINE
  5
413
100
AcDbEntity
  8
LAYER0001
  6
CONTINUOUS
 62
       7
100
AcDbLine
 10
-94.16832956
 20
-100.54923503
 30
0.0
 11
-94.16832956
 21
-101.24923524
 31
0.0
  0
LINE
  5
414
100
AcDbEntity
  8
LAYER0001
  6
CONTINUOUS
 62
       7
100
AcDbLine
 10
-87.16832934
 20
-101.24923524
 30
0.0
 11
-87.16832934
 21
-100.54923503
 31
0.0
  0
LINE
  5
415
100
AcDbEntity
  8
LAYER0001
  6
CONTINUOUS
 62
       7
100
AcDbLine
 10
-102.48352524
 20
-91.9492352
 30
0.0
 11
-102.48352524
 21
-87.64923552
 31
0.0
  0
LINE
  5
416
100
AcDbEntity
  8
LAYER0001
  6
CONTINUOUS
 62
       7
100
AcDbLine
 10
-104.83389587
 20
-87.64923552
 30
0.0
 11
-104.83389587
 21
-91.9492352
 31
0.0
  0
LINE
  5
417
100
AcDbEntity
  8
LAYER0001
  6
CONTINUOUS
 62
       7
100
AcDbLine
 10
-102.81682545
 20
-92.94580461
 30
0.0
 11
-102.86206561
 21
-92.94923513
 31
0.0
  0
LINE
  5
418
100
AcDbEntity
  8
LAYER0001
  6
CONTINUOUS
 62
       7
100
AcDbLine
 10
-104.50059566
 20
-86.65266635
 30
0.0
 11
-104.4553555
 21
-86.64923536
 31
0.0
  0
LINE
  5
419
100
AcDbEntity
  8
LAYER0001
  6
CONTINUOUS
 62
       7
100
AcDbLine
 10
-104.88760704
 20
-88.54923539
 30
0.0
 11
-104.88760704
 21
-88.94923518
 31
0.0
  0
LINE
  5
41A
100
AcDbEntity
  8
LAYER0001
  6
CONTINUOUS
 62
       7
100
AcDbLine
 10
-102.42981405
 20
-88.94923518
 30
0.0
 11
-102.42981405
 21
-88.54923539
 31
0.0
  0
LINE
  5
41B
100
AcDbEntity
  8
LAYER0001
  6
CONTINUOUS
 62
       7
100
AcDbLine
 10
-108.65871043
 20
-90.74923522
 30
0.0
 11
-108.65871055
 21
-92.44923522
 31
0.0
  0
LINE
  5
41C
100
AcDbEntity
  8
LAYER0001
  6
CONTINUOUS
 62
       7
100
AcDbLine
 10
-98.65871055
 20
-92.44923522
 30
0.0
 11
-98.65871068
 21
-90.74923521
 31
0.0
  0
LINE
  5
41D
100
AcDbEntity
  8
LAYER0001
  6
CONTINUOUS
 62
       7
100
AcDbLine
 10
-92.16832923
 20
-96.04923522
 30
0.0
 11
-92.16832923
 21
-100.54923503
 31
0.0
  0
LINE
  5
41E
100
AcDbEntity
  8
LAYER0001
  6
CONTINUOUS
 62
       7
100
AcDbLine
 10
-92.16832923
 20
-103.84923501
 30
0.0
 11
-92.16832923
 21
-104.84923518
 31
0.0
  0
LINE
  5
41F
100
AcDbEntity
  8
LAYER0001
  6
CONTINUOUS
 62
       7
100
AcDbLine
 10
-89.16832967
 20
-104.84923518
 30
0.0
 11
-89.16832967
 21
-103.84923501
 31
0.0
  0
LINE
  5
420
100
AcDbEntity
  8
LAYER0001
  6
CONTINUOUS
 62
       7
100
AcDbLine
 10
-89.16832967
 20
-100.54923503
 30
0.0
 11
-89.16832967
 21
-96.04923522
 31
0.0
  0
LINE
  5
421
100
AcDbEntity
  8
LAYER0001
  6
CONTINUOUS
 62
       7
100
AcDbLine
 10
-118.14909144
 20
-96.04923522
 30
0.0
 11
-118.14909144
 21
-100.54923503
 31
0.0
  0
LINE
  5
422
100
AcDbEntity
  8
LAYER0001
  6
CONTINUOUS
 62
       7
100
AcDbLine
 10
-118.14909144
 20
-103.84923501
 30
0.0
 11
-118.14909144
 21
-104.84923518
 31
0.0
  0
LINE
  5
423
100
AcDbEntity
  8
LAYER0001
  6
CONTINUOUS
 62
       7
100
AcDbLine
 10
-115.14909188
 20
-104.84923518
 30
0.0
 11
-115.14909188
 21
-103.84923501
 31
0.0
  0
LINE
  5
424
100
AcDbEntity
  8
LAYER0001
  6
CONTINUOUS
 62
       7
100
AcDbLine
 10
-115.14909188
 20
-100.54923503
 30
0.0
 11
-115.14909188
 21
-96.04923522
 31
0.0
  0
LINE
  5
425
100
AcDbEntity
  8
LAYER0001
  6
CONTINUOUS
 62
       7
100
AcDbLine
 10
-105.15871057
 20
-96.04923522
 30
0.0
 11
-105.15871057
 21
-100.54923503
 31
0.0
  0
LINE
  5
426
100
AcDbEntity
  8
LAYER0001
  6
CONTINUOUS
 62
       7
100
AcDbLine
 10
-105.15871057
 20
-103.84923501
 30
0.0
 11
-105.15871057
 21
-104.84923518
 31
0.0
  0
LINE
  5
427
100
AcDbEntity
  8
LAYER0001
  6
CONTINUOUS
 62
       7
100
AcDbLine
 10
-102.15871054
 20
-104.84923518
 30
0.0
 11
-102.15871054
 21
-103.84923501
 31
0.0
  0
LINE
  5
428
100
AcDbEntity
  8
LAYER0001
  6
CONTINUOUS
 62
       7
100
AcDbLine
 10
-102.15871054
 20
-100.54923503
 30
0.0
 11
-102.15871054
 21
-96.04923522
 31
0.0
  0
LINE
  5
429
100
AcDbEntity
  8
LAYER0001
  6
CONTINUOUS
 62
       7
100
AcDbLine
 10
-83.658711
 20
-96.04923522
 30
0.0
 11
-83.658711
 21
0.15076155
 31
0.0
  0
LINE
  5
42A
100
AcDbEntity
  8
LAYER0001
  6
CONTINUOUS
 62
       7
100
AcDbLine
 10
-123.65871011
 20
0.15076155
 30
0.0
 11
-123.65871011
 21
-96.04923522
 31
0.0
  0
LINE
  5
42B
100
AcDbEntity
  8
LAYER0001
  6
CONTINUOUS
 62
       7
100
AcDbLine
 10
-100.53551009
 20
-88.54923525
 30
0.0
 11
-100.53551009
 21
-90.74923523
 31
0.0
  0
LINE
  5
42C
100
AcDbEntity
  8
LAYER0001
  6
CONTINUOUS
 62
       7
100
AcDbLine
 10
-106.78191077
 20
-90.74923522
 30
0.0
 11
-106.78191077
 21
-88.54923524
 31
0.0
  0
LINE
  5
42D
100
AcDbEntity
  8
LAYER0001
  6
CONTINUOUS
 62
       7
100
AcDbLine
 10
-103.65871055
 20
161.45075762
 30
0.0
 11
-123.65871011
 21
161.45075762
 31
0.0
  0
LINE
  5
42E
100
AcDbEntity
  8
LAYER0001
  6
CONTINUOUS
 62
       7
100
AcDbLine
 10
-83.65871255
 20
161.45075762
 30
0.0
 11
-103.65871055
 21
161.45075762
 31
0.0
  0
LINE
  5
42F
100
AcDbEntity
  8
LAYER0001
  6
CONTINUOUS
 62
       7
100
AcDbLine
 10
-103.65871055
 20
171.7358073
 30
0.0
 11
-111.68617955
 21
171.7358099
 31
0.0
  0
LINE
  5
430
100
AcDbEntity
  8
LAYER0001
  6
CONTINUOUS
 62
       7
100
AcDbLine
 10
-95.63124156
 20
171.7358099
 30
0.0
 11
-103.65871055
 21
171.7358073
 31
0.0
  0
LINE
  5
431
100
AcDbEntity
  8
LAYER0001
  6
CONTINUOUS
 62
       7
100
AcDbLine
 10
-123.65871391
 20
129.45076728
 30
0.0
 11
-83.65871473
 21
129.45076728
 31
0.0
  0
LINE
  5
432
100
AcDbEntity
  8
LAYER0001
  6
CONTINUOUS
 62
       7
100
AcDbLine
 10
-123.65871026
 20
160.15074871
 30
0.0
 11
-83.65871264
 21
160.15074249
 31
0.0
  0
LINE
  5
433
100
AcDbEntity
  8
LAYER0001
  6
CONTINUOUS
 62
       7
100
AcDbLine
 10
-123.65871011
 20
97.45076203
 30
0.0
 11
-83.658711
 21
97.45076203
 31
0.0
  0
LINE
  5
434
100
AcDbEntity
  8
LAYER0001
  6
CONTINUOUS
 62
       7
100
AcDbLine
 10
-123.65870936
 20
128.15075886
 30
0.0
 11
-83.65871175
 21
128.15075886
 31
0.0
  0
LINE
  5
435
100
AcDbEntity
  8
LAYER0001
  6
CONTINUOUS
 62
       7
100
AcDbLine
 10
-123.65871011
 20
1.4507612
 30
0.0
 11
-83.658711
 21
1.4507612
 31
0.0
  0
LINE
  5
436
100
AcDbEntity
  8
LAYER0001
  6
CONTINUOUS
 62
       7
100
AcDbLine
 10
-123.65870936
 20
32.15075802
 30
0.0
 11
-83.65871175
 21
32.15075802
 31
0.0
  0
LINE
  5
437
100
AcDbEntity
  8
LAYER0001
  6
CONTINUOUS
 62
       7
100
AcDbLine
 10
-123.65871011
 20
65.45077169
 30
0.0
 11
-83.658711
 21
65.45077169
 31
0.0
  0
LINE
  5
438
100
AcDbEntity
  8
LAYER0001
  6
CONTINUOUS
 62
       7
100
AcDbLine
 10
-123.65870936
 20
96.15076852
 30
0.0
 11
-83.65871175
 21
96.15076852
 31
0.0
  0
LINE
  5
439
100
AcDbEntity
  8
LAYER0001
  6
CONTINUOUS
 62
       7
100
AcDbLine
 10
-123.65871011
 20
33.45076644
 30
0.0
 11
-83.658711
 21
33.45076644
 31
0.0
  0
LINE
  5
43A
100
AcDbEntity
  8
LAYER0001
  6
CONTINUOUS
 62
       7
100
AcDbLine
 10
-123.65870936
 20
64.15076327
 30
0.0
 11
-83.65871175
 21
64.15076327
 31
0.0
  0
LINE
  5
43B
100
AcDbEntity
  8
LAYER0001
  6
CONTINUOUS
 62
       7
100
AcDbLine
 10
-83.658711
 20
0.15076155
 30
0.0
 11
-123.65871011
 21
0.15076155
 31
0.0
  0
LINE
  5
43C
100
AcDbEntity
  8
LAYER0001
  6
CONTINUOUS
 62
       7
100
AcDbLine
 10
-116.64909119
 20
-100.54923503
 30
0.0
 11
-120.14909176
 21
-100.54923503
 31
0.0
  0
LINE
  5
43D
100
AcDbEntity
  8
LAYER0001
  6
CONTINUOUS
 62
       7
100
AcDbLine
 10
-113.14909155
 20
-100.54923503
 30
0.0
 11
-116.64909119
 21
-100.54923503
 31
0.0
  0
LINE
  5
43E
100
AcDbEntity
  8
LAYER0001
  6
CONTINUOUS
 62
       7
100
AcDbLine
 10
-116.64909119
 20
-101.24923524
 30
0.0
 11
-120.14909176
 21
-101.24923524
 31
0.0
  0
LINE
  5
43F
100
AcDbEntity
  8
LAYER0001
  6
CONTINUOUS
 62
       7
100
AcDbLine
 10
-113.14909155
 20
-101.24923524
 30
0.0
 11
-116.64909119
 21
-101.24923524
 31
0.0
  0
LINE
  5
440
100
AcDbEntity
  8
LAYER0001
  6
CONTINUOUS
 62
       7
100
AcDbLine
 10
-116.64909119
 20
-103.60361498
 30
0.0
 11
-116.64909119
 21
-101.24923524
 31
0.0
  0
LINE
  5
441
100
AcDbEntity
  8
LAYER0001
  6
CONTINUOUS
 62
       7
100
AcDbLine
 10
-113.89909121
 20
-103.60361498
 30
0.0
 11
-113.89909121
 21
-101.24923524
 31
0.0
  0
LINE
  5
442
100
AcDbEntity
  8
LAYER0001
  6
CONTINUOUS
 62
       7
100
AcDbLine
 10
-113.89909121
 20
-103.60361498
 30
0.0
 11
-115.2740912
 21
-103.84923501
 31
0.0
  0
LINE
  5
443
100
AcDbEntity
  8
LAYER0001
  6
CONTINUOUS
 62
       7
100
AcDbLine
 10
-119.39909211
 20
-103.60361498
 30
0.0
 11
-119.39909211
 21
-101.24923524
 31
0.0
  0
LINE
  5
444
100
AcDbEntity
  8
LAYER0001
  6
CONTINUOUS
 62
       7
100
AcDbLine
 10
-116.64909119
 20
-103.60361498
 30
0.0
 11
-118.02409118
 21
-103.84923501
 31
0.0
  0
LINE
  5
445
100
AcDbEntity
  8
LAYER0001
  6
CONTINUOUS
 62
       7
100
AcDbLine
 10
-115.2740912
 20
-103.84923501
 30
0.0
 11
-118.02409118
 21
-103.84923501
 31
0.0
  0
LINE
  5
446
100
AcDbEntity
  8
LAYER0001
  6
CONTINUOUS
 62
       7
100
AcDbLine
 10
-113.89909121
 20
-103.84923501
 30
0.0
 11
-115.2740912
 21
-103.84923501
 31
0.0
  0
LINE
  5
447
100
AcDbEntity
  8
LAYER0001
  6
CONTINUOUS
 62
       7
100
AcDbLine
 10
-118.02409118
 20
-103.84923501
 30
0.0
 11
-119.39909211
 21
-103.84923501
 31
0.0
  0
LINE
  5
448
100
AcDbEntity
  8
LAYER0001
  6
CONTINUOUS
 62
       7
100
AcDbLine
 10
-103.65871055
 20
-100.54923503
 30
0.0
 11
-107.15871066
 21
-100.54923503
 31
0.0
  0
LINE
  5
449
100
AcDbEntity
  8
LAYER0001
  6
CONTINUOUS
 62
       7
100
AcDbLine
 10
-100.15871045
 20
-100.54923503
 30
0.0
 11
-103.65871055
 21
-100.54923503
 31
0.0
  0
LINE
  5
44A
100
AcDbEntity
  8
LAYER0001
  6
CONTINUOUS
 62
       7
100
AcDbLine
 10
-103.65871055
 20
-101.24923524
 30
0.0
 11
-107.15871066
 21
-101.24923524
 31
0.0
  0
LINE
  5
44B
100
AcDbEntity
  8
LAYER0001
  6
CONTINUOUS
 62
       7
100
AcDbLine
 10
-100.15871045
 20
-101.24923524
 30
0.0
 11
-103.65871055
 21
-101.24923524
 31
0.0
  0
LINE
  5
44C
100
AcDbEntity
  8
LAYER0001
  6
CONTINUOUS
 62
       7
100
AcDbLine
 10
-106.40871054
 20
-103.60361498
 30
0.0
 11
-106.40871054
 21
-101.24923524
 31
0.0
  0
LINE
  5
44D
100
AcDbEntity
  8
LAYER0001
  6
CONTINUOUS
 62
       7
100
AcDbLine
 10
-103.65871055
 20
-103.60361498
 30
0.0
 11
-103.65871055
 21
-101.24923524
 31
0.0
  0
LINE
  5
44E
100
AcDbEntity
  8
LAYER0001
  6
CONTINUOUS
 62
       7
100
AcDbLine
 10
-103.65871055
 20
-103.60361498
 30
0.0
 11
-105.03371055
 21
-103.84923501
 31
0.0
  0
LINE
  5
44F
100
AcDbEntity
  8
LAYER0001
  6
CONTINUOUS
 62
       7
100
AcDbLine
 10
-100.90871057
 20
-103.60361498
 30
0.0
 11
-100.90871057
 21
-101.24923524
 31
0.0
  0
LINE
  5
450
100
AcDbEntity
  8
LAYER0001
  6
CONTINUOUS
 62
       7
100
AcDbLine
 10
-100.90871057
 20
-103.60361498
 30
0.0
 11
-102.28371056
 21
-103.84923501
 31
0.0
  0
LINE
  5
451
100
AcDbEntity
  8
LAYER0001
  6
CONTINUOUS
 62
       7
100
AcDbLine
 10
-102.28371056
 20
-103.84923501
 30
0.0
 11
-105.03371055
 21
-103.84923501
 31
0.0
  0
LINE
  5
452
100
AcDbEntity
  8
LAYER0001
  6
CONTINUOUS
 62
       7
100
AcDbLine
 10
-100.90871057
 20
-103.84923501
 30
0.0
 11
-102.28371056
 21
-103.84923501
 31
0.0
  0
LINE
  5
453
100
AcDbEntity
  8
LAYER0001
  6
CONTINUOUS
 62
       7
100
AcDbLine
 10
-105.03371055
 20
-103.84923501
 30
0.0
 11
-106.40871054
 21
-103.84923501
 31
0.0
  0
LINE
  5
454
100
AcDbEntity
  8
LAYER0001
  6
CONTINUOUS
 62
       7
100
AcDbLine
 10
-90.66832992
 20
-101.24923524
 30
0.0
 11
-94.16832956
 21
-101.24923524
 31
0.0
  0
LINE
  5
455
100
AcDbEntity
  8
LAYER0001
  6
CONTINUOUS
 62
       7
100
AcDbLine
 10
-87.16832934
 20
-101.24923524
 30
0.0
 11
-90.66832992
 21
-101.24923524
 31
0.0
  0
LINE
  5
456
100
AcDbEntity
  8
LAYER0001
  6
CONTINUOUS
 62
       7
100
AcDbLine
 10
-90.66832992
 20
-100.54923503
 30
0.0
 11
-94.16832956
 21
-100.54923503
 31
0.0
  0
LINE
  5
457
100
AcDbEntity
  8
LAYER0001
  6
CONTINUOUS
 62
       7
100
AcDbLine
 10
-87.16832934
 20
-100.54923503
 30
0.0
 11
-90.66832992
 21
-100.54923503
 31
0.0
  0
LINE
  5
458
100
AcDbEntity
  8
LAYER0001
  6
CONTINUOUS
 62
       7
100
AcDbLine
 10
-90.66832992
 20
-103.60361498
 30
0.0
 11
-90.66832992
 21
-101.24923524
 31
0.0
  0
LINE
  5
459
100
AcDbEntity
  8
LAYER0001
  6
CONTINUOUS
 62
       7
100
AcDbLine
 10
-87.918329
 20
-103.60361498
 30
0.0
 11
-87.918329
 21
-101.24923524
 31
0.0
  0
LINE
  5
45A
100
AcDbEntity
  8
LAYER0001
  6
CONTINUOUS
 62
       7
100
AcDbLine
 10
-87.918329
 20
-103.60361498
 30
0.0
 11
-89.29332992
 21
-103.84923501
 31
0.0
  0
LINE
  5
45B
100
AcDbEntity
  8
LAYER0001
  6
CONTINUOUS
 62
       7
100
AcDbLine
 10
-93.4183299
 20
-103.60361498
 30
0.0
 11
-93.4183299
 21
-101.24923524
 31
0.0
  0
LINE
  5
45C
100
AcDbEntity
  8
LAYER0001
  6
CONTINUOUS
 62
       7
100
AcDbLine
 10
-90.66832992
 20
-103.60361498
 30
0.0
 11
-92.04332991
 21
-103.84923501
 31
0.0
  0
LINE
  5
45D
100
AcDbEntity
  8
LAYER0001
  6
CONTINUOUS
 62
       7
100
AcDbLine
 10
-89.29332992
 20
-103.84923501
 30
0.0
 11
-92.04332991
 21
-103.84923501
 31
0.0
  0
LINE
  5
45E
100
AcDbEntity
  8
LAYER0001
  6
CONTINUOUS
 62
       7
100
AcDbLine
 10
-87.918329
 20
-103.84923501
 30
0.0
 11
-89.29332992
 21
-103.84923501
 31
0.0
  0
LINE
  5
45F
100
AcDbEntity
  8
LAYER0001
  6
CONTINUOUS
 62
       7
100
AcDbLine
 10
-92.04332991
 20
-103.84923501
 30
0.0
 11
-93.4183299
 21
-103.84923501
 31
0.0
  0
LINE
  5
460
100
AcDbEntity
  8
LAYER0001
  6
CONTINUOUS
 62
       7
100
AcDbLine
 10
-104.4581842
 20
-86.64923538
 30
0.0
 11
-102.85923686
 21
-86.64923538
 31
0.0
  0
LINE
  5
461
100
AcDbEntity
  8
LAYER0001
  6
CONTINUOUS
 62
       7
100
AcDbLine
 10
-102.85923689
 20
-92.94923522
 30
0.0
 11
-104.45818422
 21
-92.94923522
 31
0.0
  0
LINE
  5
462
100
AcDbEntity
  8
LAYER0001
  6
CONTINUOUS
 62
       7
100
AcDbLine
 10
-104.45818422
 20
-92.94923522
 30
0.0
 11
-105.4109849
 21
-92.94923522
 31
0.0
  0
LINE
  5
463
100
AcDbEntity
  8
LAYER0001
  6
CONTINUOUS
 62
       7
100
AcDbLine
 10
-101.90643621
 20
-92.94923522
 30
0.0
 11
-102.85923689
 21
-92.94923522
 31
0.0
  0
LINE
  5
464
100
AcDbEntity
  8
LAYER0001
  6
CONTINUOUS
 62
       7
100
AcDbLine
 10
-102.42981405
 20
-88.94923518
 30
0.0
 11
-101.61210033
 21
-88.94923518
 31
0.0
  0
LINE
  5
465
100
AcDbEntity
  8
LAYER0001
  6
CONTINUOUS
 62
       7
100
AcDbLine
 10
-105.70532077
 20
-88.94923518
 30
0.0
 11
-104.88760704
 21
-88.94923518
 31
0.0
  0
LINE
  5
466
100
AcDbEntity
  8
LAYER0001
  6
CONTINUOUS
 62
       7
100
AcDbLine
 10
-105.4109849
 20
-92.94923522
 30
0.0
 11
-108.15871055
 21
-92.94923522
 31
0.0
  0
LINE
  5
467
100
AcDbEntity
  8
LAYER0001
  6
CONTINUOUS
 62
       7
100
AcDbLine
 10
-99.15871055
 20
-92.94923522
 30
0.0
 11
-101.90643621
 21
-92.94923522
 31
0.0
  0
LINE
  5
468
100
AcDbEntity
  8
LAYER0001
  6
CONTINUOUS
 62
       7
100
AcDbLine
 10
-101.61210033
 20
-88.94923518
 30
0.0
 11
-100.53551029
 21
-88.94923518
 31
0.0
  0
LINE
  5
469
100
AcDbEntity
  8
LAYER0001
  6
CONTINUOUS
 62
       7
100
AcDbLine
 10
-106.78191081
 20
-88.94923518
 30
0.0
 11
-105.70532077
 21
-88.94923518
 31
0.0
  0
LINE
  5
46A
100
AcDbEntity
  8
LAYER0001
  6
CONTINUOUS
 62
       7
100
AcDbLine
 10
-92.16832923
 20
-104.84923518
 30
0.0
 11
-89.16832967
 21
-104.84923518
 31
0.0
  0
LINE
  5
46B
100
AcDbEntity
  8
LAYER0001
  6
CONTINUOUS
 62
       7
100
AcDbLine
 10
-118.14909144
 20
-104.84923518
 30
0.0
 11
-115.14909188
 21
-104.84923518
 31
0.0
  0
LINE
  5
46C
100
AcDbEntity
  8
LAYER0001
  6
CONTINUOUS
 62
       7
100
AcDbLine
 10
-105.15871057
 20
-104.84923518
 30
0.0
 11
-102.15871054
 21
-104.84923518
 31
0.0
  0
LINE
  5
46D
100
AcDbEntity
  8
LAYER0001
  6
CONTINUOUS
 62
       7
100
AcDbLine
 10
-123.65871011
 20
-96.04923522
 30
0.0
 11
-83.658711
 21
-96.04923522
 31
0.0
  0
LINE
  5
46E
100
AcDbEntity
  8
LAYER0001
  6
CONTINUOUS
 62
       7
100
AcDbLine
 10
-90.00830906
 20
-91.74923508
 30
0.0
 11
-90.00830906
 21
-96.04923522
 31
0.0
  0
LINE
  5
46F
100
AcDbEntity
  8
LAYER0001
  6
CONTINUOUS
 62
       7
100
AcDbLine
 10
-100.06360801
 20
-90.74923523
 30
0.0
 11
-90.91085082
 21
-90.74923508
 31
0.0
  0
LINE
  5
470
100
AcDbEntity
  8
LAYER0001
  6
CONTINUOUS
 62
       7
100
AcDbLine
 10
-100.53551009
 20
-88.54923525
 30
0.0
 11
-102.42981405
 21
-88.54923539
 31
0.0
  0
LINE
  5
471
100
AcDbEntity
  8
LAYER0001
  6
CONTINUOUS
 62
       7
100
AcDbLine
 10
-104.88760704
 20
-88.54923539
 30
0.0
 11
-106.78191077
 21
-88.54923524
 31
0.0
  0
LINE
  5
472
100
AcDbEntity
  8
LAYER0001
  6
CONTINUOUS
 62
       7
100
AcDbLine
 10
-116.40657008
 20
-90.74923522
 30
0.0
 11
-107.25381285
 21
-90.74923522
 31
0.0
  0
LINE
  5
473
100
AcDbEntity
  8
LAYER0001
  6
CONTINUOUS
 62
       7
100
AcDbLine
 10
-117.30911185
 20
-91.74923522
 30
0.0
 11
-117.30911205
 21
-96.04923522
 31
0.0
  0
LINE
  5
474
100
AcDbEntity
  8
LAYER0001
  6
CONTINUOUS
 62
       7
100
AcDbLine
 10
-100.06360801
 20
-90.74923523
 30
0.0
 11
-100.53551009
 21
-90.74923523
 31
0.0
  0
LINE
  5
475
100
AcDbEntity
  8
LAYER0001
  6
CONTINUOUS
 62
       7
100
AcDbLine
 10
-106.78191077
 20
-90.74923522
 30
0.0
 11
-107.25381285
 21
-90.74923522
 31
0.0
  0
LINE
  5
476
100
AcDbEntity
  8
LAYER0001
  6
CONTINUOUS
 62
       7
100
AcDbLine
 10
33.28840377
 20
-75.72766736
 30
0.0
 11
33.28840377
 21
-45.12766718
 31
0.0
  0
LINE
  5
477
100
AcDbEntity
  8
LAYER0001
  6
CONTINUOUS
 62
       7
100
AcDbLine
 10
-6.51159567
 20
-0.22767081
 30
0.0
 11
-6.51159567
 21
-91.12766761
 31
0.0
  0
LINE
  5
478
100
AcDbEntity
  8
LAYER0001
  6
CONTINUOUS
 62
       7
100
AcDbLine
 10
33.48840343
 20
-45.12766718
 30
0.0
 11
33.48840343
 21
-0.22767081
 31
0.0
  0
LINE
  5
479
100
AcDbEntity
  8
LAYER0001
  6
CONTINUOUS
 62
       7
100
AcDbLine
 10
33.48840343
 20
-96.42766758
 30
0.0
 11
33.48840343
 21
-75.72766736
 31
0.0
  0
LINE
  5
47A
100
AcDbEntity
  8
LAYER0001
  6
CONTINUOUS
 62
       7
100
AcDbLine
 10
4.48840427
 20
-96.42766758
 30
0.0
 11
4.48840427
 21
-105.22766754
 31
0.0
  0
LINE
  5
47B
100
AcDbEntity
  8
LAYER0001
  6
CONTINUOUS
 62
       7
100
AcDbLine
 10
7.48840383
 20
-105.22766754
 30
0.0
 11
7.48840383
 21
-96.42766758
 31
0.0
  0
LINE
  5
47C
100
AcDbEntity
  8
LAYER0001
  6
CONTINUOUS
 62
       7
100
AcDbLine
 10
26.98840423
 20
-96.42766758
 30
0.0
 11
26.98840423
 21
-105.22766754
 31
0.0
  0
LINE
  5
47D
100
AcDbEntity
  8
LAYER0001
  6
CONTINUOUS
 62
       7
100
AcDbLine
 10
29.98840379
 20
-105.22766754
 30
0.0
 11
29.98840379
 21
-96.42766758
 31
0.0
  0
LINE
  5
47E
100
AcDbEntity
  8
LAYER0001
  6
CONTINUOUS
 62
       7
100
AcDbLine
 10
-2.1317877
 20
-91.12766774
 30
0.0
 11
-2.1317877
 21
-96.42766758
 31
0.0
  0
LINE
  5
47F
100
AcDbEntity
  8
LAYER0001
  6
CONTINUOUS
 62
       7
100
AcDbLine
 10
33.48840343
 20
-0.22767081
 30
0.0
 11
-6.51159567
 21
-0.22767081
 31
0.0
  0
LINE
  5
480
100
AcDbEntity
  8
LAYER0001
  6
CONTINUOUS
 62
       7
100
AcDbLine
 10
27.6226703
 20
-45.12766718
 30
0.0
 11
33.48840343
 21
-45.12766718
 31
0.0
  0
LINE
  5
481
100
AcDbEntity
  8
LAYER0001
  6
CONTINUOUS
 62
       7
100
AcDbLine
 10
26.54510679
 20
-74.72766719
 30
0.0
 11
26.54510679
 21
-46.12766921
 31
0.0
  0
LINE
  5
482
100
AcDbEntity
  8
LAYER0001
  6
CONTINUOUS
 62
       7
100
AcDbLine
 10
27.6226703
 20
-75.72766736
 30
0.0
 11
33.48840343
 21
-75.72766736
 31
0.0
  0
LINE
  5
483
100
AcDbEntity
  8
LAYER0001
  6
CONTINUOUS
 62
       7
100
AcDbLine
 10
-2.1317877
 20
-93.3276675
 30
0.0
 11
-5.45641651
 21
-93.3276675
 31
0.0
  0
LINE
  5
484
100
AcDbEntity
  8
LAYER0001
  6
CONTINUOUS
 62
       7
100
AcDbLine
 10
-5.45641651
 20
-93.3276675
 30
0.0
 11
-8.49534442
 21
-93.3276675
 31
0.0
  0
LINE
  5
485
100
AcDbEntity
  8
LAYER0001
  6
CONTINUOUS
 62
       7
100
AcDbLine
 10
-8.49534442
 20
-87.02766772
 30
0.0
 11
-6.51159567
 21
-87.02766751
 31
0.0
  0
LINE
  5
486
100
AcDbEntity
  8
LAYER0001
  6
CONTINUOUS
 62
       7
100
AcDbLine
 10
-9.49534458
 20
-92.32766756
 30
0.0
 11
-9.49534458
 21
-88.02766788
 31
0.0
  0
LINE
  5
487
100
AcDbEntity
  8
LAYER0001
  6
CONTINUOUS
 62
       7
100
AcDbLine
 10
5.98840405
 20
-105.22766754
 30
0.0
 11
7.48840383
 21
-105.22766754
 31
0.0
  0
LINE
  5
488
100
AcDbEntity
  8
LAYER0001
  6
CONTINUOUS
 62
       7
100
AcDbLine
 10
4.48840427
 20
-105.22766754
 30
0.0
 11
5.98840405
 21
-105.22766754
 31
0.0
  0
LINE
  5
489
100
AcDbEntity
  8
LAYER0001
  6
CONTINUOUS
 62
       7
100
AcDbLine
 10
26.98840423
 20
-105.22766754
 30
0.0
 11
29.98840379
 21
-105.22766754
 31
0.0
  0
LINE
  5
48A
100
AcDbEntity
  8
LAYER0001
  6
CONTINUOUS
 62
       7
100
AcDbLine
 10
-1.12893303
 20
-96.42766758
 30
0.0
 11
33.48840343
 21
-96.42766758
 31
0.0
  0
LINE
  5
48B
100
AcDbEntity
  8
LAYER0001
  6
CONTINUOUS
 62
       7
100
AcDbLine
 10
-1.12893303
 20
-92.12766744
 30
0.0
 11
-1.12893303
 21
-96.42766758
 31
0.0
  0
LINE
  5
48C
100
AcDbEntity
  8
LAYER0001
  6
CONTINUOUS
 62
       7
100
AcDbLine
 10
-6.51159567
 20
-91.12766761
 30
0.0
 11
-1.92237388
 21
-91.12766744
 31
0.0
  0
LINE
  5
48D
100
AcDbEntity
  8
LAYER0001
  6
CONTINUOUS
 62
       7
100
AcDbLine
 10
-1.94402096
 20
-96.42766758
 30
0.0
 11
-1.12893303
 21
-96.42766758
 31
0.0
  0
LINE
  5
48E
100
AcDbEntity
  8
LAYER0001
  6
CONTINUOUS
 62
       7
100
AcDbLine
 10
-2.1317877
 20
-96.42766758
 30
0.0
 11
-1.94402096
 21
-96.42766758
 31
0.0
  0
LINE
  5
48F
100
AcDbEntity
  8
LAYER0001
  6
CONTINUOUS
 62
       7
100
AcDbLine
 10
-6.18582442
 20
-91.12766759
 30
0.0
 11
-6.19233995
 21
-91.12766759
 31
0.0
  0
LINE
  5
490
100
AcDbEntity
  8
LAYER0001
  6
CONTINUOUS
 62
       7
100
AcDbLine
 10
-105.05871033
 20
-151.98668285
 30
0.0
 11
-102.25871038
 21
-151.98668285
 31
0.0
  0
LINE
  5
491
100
AcDbEntity
  8
LAYER0001
  6
CONTINUOUS
 62
       7
100
AcDbLine
 10
-107.65871078
 20
-154.78668302
 30
0.0
 11
-99.6587104
 21
-154.78668302
 31
0.0
  0
LINE
  5
492
100
AcDbEntity
  8
LAYER0001
  6
CONTINUOUS
 62
       7
100
AcDbLine
 10
-109.65871061
 20
-160.9325812
 30
0.0
 11
-109.65871061
 21
-156.78668303
 31
0.0
  0
LINE
  5
493
100
AcDbEntity
  8
LAYER0001
  6
CONTINUOUS
 62
       7
100
AcDbLine
 10
-99.63364766
 20
-165.28668285
 30
0.0
 11
-107.68377348
 21
-165.28668308
 31
0.0
  0
LINE
  5
494
100
AcDbEntity
  8
LAYER0001
  6
CONTINUOUS
 62
       7
100
AcDbLine
 10
-97.65871056
 20
-156.78668307
 30
0.0
 11
-97.65871056
 21
-160.93258109
 31
0.0
  0
LINE
  5
495
100
AcDbEntity
  8
LAYER0001
  6
CONTINUOUS
 62
       7
100
AcDbLine
 10
-104.82898879
 20
-132.65698472
 30
0.0
 11
-104.82898879
 21
-135.62556798
 31
0.0
  0
LINE
  5
496
100
AcDbEntity
  8
LAYER0001
  6
CONTINUOUS
 62
       7
100
AcDbLine
 10
-102.48843576
 20
-132.65698472
 30
0.0
 11
-102.48843576
 21
-135.62556797
 31
0.0
  0
LINE
  5
497
100
AcDbEntity
  8
LAYER0001
  6
CONTINUOUS
 62
       7
100
AcDbLine
 10
-104.53389758
 20
-132.30293682
 30
0.0
 11
-102.78352697
 21
-132.30293682
 31
0.0
  0
LINE
  5
498
100
AcDbEntity
  8
LAYER0001
  6
CONTINUOUS
 62
       7
100
AcDbLine
 10
-94.28939415
 20
-143.28668294
 30
0.0
 11
-91.65871053
 21
-143.28668306
 31
0.0
  0
LINE
  5
499
100
AcDbEntity
  8
LAYER0001
  6
CONTINUOUS
 62
       7
100
AcDbLine
 10
-115.65871053
 20
-143.28668306
 30
0.0
 11
-113.02802642
 21
-143.28668294
 31
0.0
  0
LINE
  5
49A
100
AcDbEntity
  8
LAYER0001
  6
CONTINUOUS
 62
       7
100
AcDbLine
 10
33.48840343
 20
33.07233408
 30
0.0
 11
33.48840268
 21
63.77233091
 31
0.0
  0
LINE
  5
49B
100
AcDbEntity
  8
LAYER0001
  6
CONTINUOUS
 62
       7
100
AcDbLine
 10
-6.51159492
 20
95.77233616
 30
0.0
 11
33.48840268
 21
95.77233616
 31
0.0
  0
LINE
  5
49C
100
AcDbEntity
  8
LAYER0001
  6
CONTINUOUS
 62
       7
100
AcDbLine
 10
13.48840388
 20
171.35737494
 30
0.0
 11
5.46093489
 21
171.35737754
 31
0.0
  0
LINE
  5
49D
100
AcDbEntity
  8
LAYER0001
  6
CONTINUOUS
 62
       7
100
AcDbLine
 10
-6.51159567
 20
1.07232884
 30
0.0
 11
33.48840343
 21
1.07232884
 31
0.0
  0
LINE
  5
49E
100
AcDbEntity
  8
LAYER0001
  6
CONTINUOUS
 62
       7
100
AcDbLine
 10
-6.51159583
 20
159.77231635
 30
0.0
 11
-6.51159947
 21
129.07233492
 31
0.0
  0
LINE
  5
49F
100
AcDbEntity
  8
LAYER0001
  6
CONTINUOUS
 62
       7
100
AcDbLine
 10
-6.51159492
 20
95.77233616
 30
0.0
 11
-6.51159567
 21
65.07233933
 31
0.0
  0
LINE
  5
4A0
100
AcDbEntity
  8
LAYER0001
  6
CONTINUOUS
 62
       7
100
AcDbLine
 10
-6.51159469
 20
169.35595833
 30
0.0
 11
-6.51159567
 21
161.07232526
 31
0.0
  0
LINE
  5
4A1
100
AcDbEntity
  8
LAYER0001
  6
CONTINUOUS
 62
       7
100
AcDbLine
 10
-6.51159947
 20
129.07233492
 30
0.0
 11
33.4883997
 21
129.07233492
 31
0.0
  0
LINE
  5
4A2
100
AcDbEntity
  8
LAYER0001
  6
CONTINUOUS
 62
       7
100
AcDbLine
 10
33.4883997
 20
129.07233492
 30
0.0
 11
33.4884018
 21
159.77231013
 31
0.0
  0
LINE
  5
4A3
100
AcDbEntity
  8
LAYER0001
  6
CONTINUOUS
 62
       7
100
AcDbLine
 10
-6.51159567
 20
65.07233933
 30
0.0
 11
33.48840343
 21
65.07233933
 31
0.0
  0
LINE
  5
4A4
100
AcDbEntity
  8
LAYER0001
  6
CONTINUOUS
 62
       7
100
AcDbLine
 10
21.51587288
 20
171.35737754
 30
0.0
 11
13.48840388
 21
171.35737494
 31
0.0
  0
LINE
  5
4A5
100
AcDbEntity
  8
LAYER0001
  6
CONTINUOUS
 62
       7
100
AcDbLine
 10
-6.51159567
 20
33.07233408
 30
0.0
 11
33.48840343
 21
33.07233408
 31
0.0
  0
LINE
  5
4A6
100
AcDbEntity
  8
LAYER0001
  6
CONTINUOUS
 62
       7
100
AcDbLine
 10
-6.51159492
 20
63.77233091
 30
0.0
 11
-6.51159567
 21
33.07233408
 31
0.0
  0
LINE
  5
4A7
100
AcDbEntity
  8
LAYER0001
  6
CONTINUOUS
 62
       7
100
AcDbLine
 10
-6.51159492
 20
31.77232566
 30
0.0
 11
-6.51159567
 21
1.07232884
 31
0.0
  0
LINE
  5
4A8
100
AcDbEntity
  8
LAYER0001
  6
CONTINUOUS
 62
       7
100
AcDbLine
 10
-6.51159567
 20
97.07232967
 30
0.0
 11
33.48840343
 21
97.07232967
 31
0.0
  0
LINE
  5
4A9
100
AcDbEntity
  8
LAYER0001
  6
CONTINUOUS
 62
       7
100
AcDbLine
 10
33.48840343
 20
97.07232967
 30
0.0
 11
33.48840268
 21
127.7723265
 31
0.0
  0
LINE
  5
4AA
100
AcDbEntity
  8
LAYER0001
  6
CONTINUOUS
 62
       7
100
AcDbLine
 10
33.48840343
 20
1.07232884
 30
0.0
 11
33.48840268
 21
31.77232566
 31
0.0
  0
LINE
  5
4AB
100
AcDbEntity
  8
LAYER0001
  6
CONTINUOUS
 62
       7
100
AcDbLine
 10
-6.51159583
 20
159.77231635
 30
0.0
 11
33.4884018
 21
159.77231013
 31
0.0
  0
LINE
  5
4AC
100
AcDbEntity
  8
LAYER0001
  6
CONTINUOUS
 62
       7
100
AcDbLine
 10
-6.51159492
 20
63.77233091
 30
0.0
 11
33.48840268
 21
63.77233091
 31
0.0
  0
LINE
  5
4AD
100
AcDbEntity
  8
LAYER0001
  6
CONTINUOUS
 62
       7
100
AcDbLine
 10
33.48840189
 20
161.07232526
 30
0.0
 11
13.48840388
 21
161.07232526
 31
0.0
  0
LINE
  5
4AE
100
AcDbEntity
  8
LAYER0001
  6
CONTINUOUS
 62
       7
100
AcDbLine
 10
33.48840189
 20
161.07232526
 30
0.0
 11
33.48840245
 21
169.35595815
 31
0.0
  0
LINE
  5
4AF
100
AcDbEntity
  8
LAYER0001
  6
CONTINUOUS
 62
       7
100
AcDbLine
 10
33.48840343
 20
65.07233933
 30
0.0
 11
33.48840268
 21
95.77233616
 31
0.0
  0
LINE
  5
4B0
100
AcDbEntity
  8
LAYER0001
  6
CONTINUOUS
 62
       7
100
AcDbLine
 10
13.48840388
 20
161.07232526
 30
0.0
 11
-6.51159567
 21
161.07232526
 31
0.0
  0
LINE
  5
4B1
100
AcDbEntity
  8
LAYER0001
  6
CONTINUOUS
 62
       7
100
AcDbLine
 10
-6.51159492
 20
127.7723265
 30
0.0
 11
33.48840268
 21
127.7723265
 31
0.0
  0
LINE
  5
4B2
100
AcDbEntity
  8
LAYER0001
  6
CONTINUOUS
 62
       7
100
AcDbLine
 10
-6.51159492
 20
31.77232566
 30
0.0
 11
33.48840268
 21
31.77232566
 31
0.0
  0
LINE
  5
4B3
100
AcDbEntity
  8
LAYER0001
  6
CONTINUOUS
 62
       7
100
AcDbLine
 10
-6.51159492
 20
127.7723265
 30
0.0
 11
-6.51159567
 21
97.07232967
 31
0.0
  0
ARC
  5
4B4
100
AcDbEntity
  8
LAYER0001
  6
CONTINUOUS
 62
       7
100
AcDbCircle
 10
-97.05871055
 20
171.50520303
 30
0.0
 40
0.3
100
AcDbArc
 50
50.2363587
 51
87.4731145
  0
ARC
  5
4B5
100
AcDbEntity
  8
LAYER0001
  6
CONTINUOUS
 62
       7
100
AcDbCircle
 10
-110.25871055
 20
171.50520303
 30
0.0
 40
0.3
100
AcDbArc
 50
92.5268855
 51
129.7636413
  0
ARC
  5
4B6
100
AcDbEntity
  8
LAYER0001
  6
CONTINUOUS
 62
       7
100
AcDbCircle
 10
-103.65871055
 20
21.95076478
 30
0.0
 40
150.0
100
AcDbArc
 50
87.4731145
 51
92.5268855
  0
ARC
  5
4B7
100
AcDbEntity
  8
LAYER0001
  6
CONTINUOUS
 62
       7
100
AcDbCircle
 10
-84.65871198
 20
169.73439058
 30
0.0
 40
1.0
100
AcDbArc
 50
359.99999609
 51
442.67388065
  0
ARC
  5
4B8
100
AcDbEntity
  8
LAYER0001
  6
CONTINUOUS
 62
       7
100
AcDbCircle
 10
-122.65870912
 20
169.73439058
 30
0.0
 40
1.0
100
AcDbArc
 50
97.32611935
 51
179.9999932
  0
ARC
  5
4B9
100
AcDbEntity
  8
LAYER0001
  6
CONTINUOUS
 62
       7
100
AcDbCircle
 10
-103.65871055
 20
21.95076478
 30
0.0
 40
150.0
100
AcDbArc
 50
82.67388065
 51
86.93226718
  0
ARC
  5
4BA
100
AcDbEntity
  8
LAYER0001
  6
CONTINUOUS
 62
       7
100
AcDbCircle
 10
-103.65871055
 20
21.95076478
 30
0.0
 40
150.0
100
AcDbArc
 50
93.06773282
 51
97.32611935
  0
ARC
  5
4BB
100
AcDbEntity
  8
LAYER0001
  6
CONTINUOUS
 62
       7
100
AcDbCircle
 10
-121.90871055
 20
64.80077002
 30
0.0
 40
0.75
100
AcDbArc
 50
119.92643487
 51
240.07356513
  0
ARC
  5
4BC
100
AcDbEntity
  8
LAYER0001
  6
CONTINUOUS
 62
       7
100
AcDbCircle
 10
-85.40871055
 20
64.80077002
 30
0.0
 40
0.75
100
AcDbArc
 50
299.92643487
 51
420.07356513
  0
ARC
  5
4BD
100
AcDbEntity
  8
LAYER0001
  6
CONTINUOUS
 62
       7
100
AcDbCircle
 10
-121.90871055
 20
96.80077527
 30
0.0
 40
0.75
100
AcDbArc
 50
119.92643487
 51
240.07356513
  0
ARC
  5
4BE
100
AcDbEntity
  8
LAYER0001
  6
CONTINUOUS
 62
       7
100
AcDbCircle
 10
-85.40871055
 20
96.80077527
 30
0.0
 40
0.75
100
AcDbArc
 50
299.92643487
 51
420.07356513
  0
ARC
  5
4BF
100
AcDbEntity
  8
LAYER0001
  6
CONTINUOUS
 62
       7
100
AcDbCircle
 10
-121.90871055
 20
128.80076561
 30
0.0
 40
0.75
100
AcDbArc
 50
119.92643487
 51
240.07356513
  0
ARC
  5
4C0
100
AcDbEntity
  8
LAYER0001
  6
CONTINUOUS
 62
       7
100
AcDbCircle
 10
-85.40871055
 20
128.80076561
 30
0.0
 40
0.75
100
AcDbArc
 50
299.92643487
 51
420.07356513
  0
ARC
  5
4C1
100
AcDbEntity
  8
LAYER0001
  6
CONTINUOUS
 62
       7
100
AcDbCircle
 10
-121.90871055
 20
160.80077086
 30
0.0
 40
0.75
100
AcDbArc
 50
119.92643487
 51
240.07356513
  0
ARC
  5
4C2
100
AcDbEntity
  8
LAYER0001
  6
CONTINUOUS
 62
       7
100
AcDbCircle
 10
-85.40871055
 20
160.80077086
 30
0.0
 40
0.75
100
AcDbArc
 50
299.92643487
 51
420.07356513
  0
ARC
  5
4C3
100
AcDbEntity
  8
LAYER0001
  6
CONTINUOUS
 62
       7
100
AcDbCircle
 10
-99.15871055
 20
-92.44923522
 30
0.0
 40
0.5
100
AcDbArc
 50
270.0
 51
360.0
  0
ARC
  5
4C4
100
AcDbEntity
  8
LAYER0001
  6
CONTINUOUS
 62
       7
100
AcDbCircle
 10
-108.15871055
 20
-92.44923522
 30
0.0
 40
0.5
100
AcDbArc
 50
180.0
 51
270.0
  0
ARC
  5
4C5
100
AcDbEntity
  8
LAYER0001
  6
CONTINUOUS
 62
       7
100
AcDbCircle
 10
-85.40871055
 20
0.80076478
 30
0.0
 40
0.75
100
AcDbArc
 50
299.92643487
 51
420.07356513
  0
ARC
  5
4C6
100
AcDbEntity
  8
LAYER0001
  6
CONTINUOUS
 62
       7
100
AcDbCircle
 10
-121.90871055
 20
0.80076478
 30
0.0
 40
0.75
100
AcDbArc
 50
119.92643487
 51
240.07356513
  0
ARC
  5
4C7
100
AcDbEntity
  8
LAYER0001
  6
CONTINUOUS
 62
       7
100
AcDbCircle
 10
-85.40871055
 20
32.80076478
 30
0.0
 40
0.75
100
AcDbArc
 50
299.92643487
 51
420.07356513
  0
ARC
  5
4C8
100
AcDbEntity
  8
LAYER0001
  6
CONTINUOUS
 62
       7
100
AcDbCircle
 10
-121.90871055
 20
32.80076478
 30
0.0
 40
0.75
100
AcDbArc
 50
119.92643487
 51
240.07356513
  0
ARC
  5
4C9
100
AcDbEntity
  8
LAYER0001
  6
CONTINUOUS
 62
       7
100
AcDbCircle
 10
-107.65871059
 20
-156.78668303
 30
0.0
 40
2.00000001
100
AcDbArc
 50
90.00000544
 51
180.0
  0
ARC
  5
4CA
100
AcDbEntity
  8
LAYER0001
  6
CONTINUOUS
 62
       7
100
AcDbCircle
 10
-112.6587106
 20
-164.28668308
 30
0.0
 40
4.49999993
100
AcDbArc
 50
354.26082952
 51
408.18968444
  0
ARC
  5
4CB
100
AcDbEntity
  8
LAYER0001
  6
CONTINUOUS
 62
       7
100
AcDbCircle
 10
-107.68377348
 20
-164.78668308
 30
0.0
 40
0.5
100
AcDbArc
 50
174.26082953
 51
270.0
  0
ARC
  5
4CC
100
AcDbEntity
  8
LAYER0001
  6
CONTINUOUS
 62
       7
100
AcDbCircle
 10
-99.63364785
 20
-164.78668296
 30
0.0
 40
0.49999989
100
AcDbArc
 50
270.00002261
 51
365.73917048
  0
ARC
  5
4CD
100
AcDbEntity
  8
LAYER0001
  6
CONTINUOUS
 62
       7
100
AcDbCircle
 10
-94.65871075
 20
-164.28668323
 30
0.0
 40
4.5
100
AcDbArc
 50
131.81031154
 51
185.73916717
  0
ARC
  5
4CE
100
AcDbEntity
  8
LAYER0001
  6
CONTINUOUS
 62
       7
100
AcDbCircle
 10
-99.65871059
 20
-156.78668306
 30
0.0
 40
2.00000004
100
AcDbArc
 50
359.99999962
 51
449.99999456
  0
ARC
  5
4CF
100
AcDbEntity
  8
LAYER0001
  6
CONTINUOUS
 62
       7
100
AcDbCircle
 10
-105.05871033
 20
-143.98668292
 30
0.0
 40
7.99999993
100
AcDbArc
 50
174.98019998
 51
270.0
  0
ARC
  5
4D0
100
AcDbEntity
  8
LAYER0001
  6
CONTINUOUS
 62
       7
100
AcDbCircle
 10
-102.25871033
 20
-143.98668284
 30
0.0
 40
8.00000001
100
AcDbArc
 50
269.99999964
 51
365.01979942
  0
ARC
  5
4D1
100
AcDbEntity
  8
LAYER0001
  6
CONTINUOUS
 62
       7
100
AcDbCircle
 10
-103.65871224
 20
-140.4866844
 30
0.0
 40
5.0
100
AcDbArc
 50
103.53594299
 51
436.46405774
  0
ARC
  5
4D2
100
AcDbEntity
  8
LAYER0001
  6
CONTINUOUS
 62
       7
100
AcDbCircle
 10
-102.78352698
 20
-132.60293683
 30
0.0
 40
0.3
100
AcDbArc
 50
349.62094182
 51
449.99999794
  0
ARC
  5
4D3
100
AcDbEntity
  8
LAYER0001
  6
CONTINUOUS
 62
       7
100
AcDbCircle
 10
-104.53389757
 20
-132.60293683
 30
0.0
 40
0.3
100
AcDbArc
 50
90.00000206
 51
190.37905817
  0
CIRCLE
  5
4D4
100
AcDbEntity
  8
LAYER0001
  6
CONTINUOUS
 62
       7
100
AcDbCircle
 10
-90.6683295
 20
-147.78668303
 30
0.0
 40
1.5
  0
CIRCLE
  5
4D5
100
AcDbEntity
  8
LAYER0001
  6
CONTINUOUS
 62
       7
100
AcDbCircle
 10
-116.64909161
 20
-147.78668303
 30
0.0
 40
1.5
  0
CIRCLE
  5
4D6
100
AcDbEntity
  8
LAYER0001
  6
CONTINUOUS
 62
       7
100
AcDbCircle
 10
-103.65871055
 20
-170.28668303
 30
0.0
 40
1.5
  0
ARC
  5
4D7
100
AcDbEntity
  8
LAYER0001
  6
CONTINUOUS
 62
       7
100
AcDbCircle
 10
-115.65871053
 20
-146.28668306
 30
0.0
 40
3.0
100
AcDbArc
 50
90.0
 51
143.13010235
  0
ARC
  5
4D8
100
AcDbEntity
  8
LAYER0001
  6
CONTINUOUS
 62
       7
100
AcDbCircle
 10
-103.65871053
 20
-155.28668306
 30
0.0
 40
18.0
100
AcDbArc
 50
143.13010235
 51
396.86989765
  0
ARC
  5
4D9
100
AcDbEntity
  8
LAYER0001
  6
CONTINUOUS
 62
       7
100
AcDbCircle
 10
-91.65871053
 20
-146.28668306
 30
0.0
 40
3.0
100
AcDbArc
 50
36.86989765
 51
90.0
  0
ARC
  5
4DA
100
AcDbEntity
  8
LAYER0001
  6
CONTINUOUS
 62
       7
100
AcDbCircle
 10
-103.65871053
 20
-155.28668306
 30
0.0
 40
20.00000002
100
AcDbArc
 50
93.35451634
 51
446.64549367
  0
ARC
  5
4DB
100
AcDbEntity
  8
LAYER0001
  6
CONTINUOUS
 62
       7
100
AcDbCircle
 10
20.08840388
 20
171.12677067
 30
0.0
 40
0.3
100
AcDbArc
 50
50.2363587
 51
87.4731145
  0
ARC
  5
4DC
100
AcDbEntity
  8
LAYER0001
  6
CONTINUOUS
 62
       7
100
AcDbCircle
 10
-4.76159612
 20
64.42233766
 30
0.0
 40
0.75
100
AcDbArc
 50
119.92643487
 51
240.07356513
  0
ARC
  5
4DD
100
AcDbEntity
  8
LAYER0001
  6
CONTINUOUS
 62
       7
100
AcDbCircle
 10
31.73840388
 20
128.42233325
 30
0.0
 40
0.75
100
AcDbArc
 50
299.92643487
 51
420.07356513
  0
ARC
  5
4DE
100
AcDbEntity
  8
LAYER0001
  6
CONTINUOUS
 62
       7
100
AcDbCircle
 10
-4.76159612
 20
0.42233242
 30
0.0
 40
0.75
100
AcDbArc
 50
119.92643487
 51
240.07356513
  0
ARC
  5
4DF
100
AcDbEntity
  8
LAYER0001
  6
CONTINUOUS
 62
       7
100
AcDbCircle
 10
-5.51159469
 20
169.35595822
 30
0.0
 40
1.0
100
AcDbArc
 50
97.32611935
 51
179.9999932
  0
ARC
  5
4E0
100
AcDbEntity
  8
LAYER0001
  6
CONTINUOUS
 62
       7
100
AcDbCircle
 10
-4.76159612
 20
96.42234291
 30
0.0
 40
0.75
100
AcDbArc
 50
119.92643487
 51
240.07356513
  0
ARC
  5
4E1
100
AcDbEntity
  8
LAYER0001
  6
CONTINUOUS
 62
       7
100
AcDbCircle
 10
31.73840388
 20
160.4223385
 30
0.0
 40
0.75
100
AcDbArc
 50
299.92643487
 51
420.07356513
  0
ARC
  5
4E2
100
AcDbEntity
  8
LAYER0001
  6
CONTINUOUS
 62
       7
100
AcDbCircle
 10
13.48840388
 20
21.57233242
 30
0.0
 40
150.0
100
AcDbArc
 50
93.06773282
 51
97.32611935
  0
ARC
  5
4E3
100
AcDbEntity
  8
LAYER0001
  6
CONTINUOUS
 62
       7
100
AcDbCircle
 10
6.88840388
 20
171.12677067
 30
0.0
 40
0.3
100
AcDbArc
 50
92.5268855
 51
129.7636413
  0
ARC
  5
4E4
100
AcDbEntity
  8
LAYER0001
  6
CONTINUOUS
 62
       7
100
AcDbCircle
 10
-4.76159612
 20
128.42233325
 30
0.0
 40
0.75
100
AcDbArc
 50
119.92643487
 51
240.07356513
  0
ARC
  5
4E5
100
AcDbEntity
  8
LAYER0001
  6
CONTINUOUS
 62
       7
100
AcDbCircle
 10
31.73840388
 20
32.42233242
 30
0.0
 40
0.75
100
AcDbArc
 50
299.92643487
 51
420.07356513
  0
ARC
  5
4E6
100
AcDbEntity
  8
LAYER0001
  6
CONTINUOUS
 62
       7
100
AcDbCircle
 10
32.48840245
 20
169.35595822
 30
0.0
 40
1.0
100
AcDbArc
 50
359.99999609
 51
442.67388065
  0
ARC
  5
4E7
100
AcDbEntity
  8
LAYER0001
  6
CONTINUOUS
 62
       7
100
AcDbCircle
 10
31.73840388
 20
64.42233766
 30
0.0
 40
0.75
100
AcDbArc
 50
299.92643487
 51
420.07356513
  0
ARC
  5
4E8
100
AcDbEntity
  8
LAYER0001
  6
CONTINUOUS
 62
       7
100
AcDbCircle
 10
13.48840388
 20
21.57233242
 30
0.0
 40
150.0
100
AcDbArc
 50
87.4731145
 51
92.5268855
  0
ARC
  5
4E9
100
AcDbEntity
  8
LAYER0001
  6
CONTINUOUS
 62
       7
100
AcDbCircle
 10
-4.76159612
 20
160.4223385
 30
0.0
 40
0.75
100
AcDbArc
 50
119.92643487
 51
240.07356513
  0
ARC
  5
4EA
100
AcDbEntity
  8
LAYER0001
  6
CONTINUOUS
 62
       7
100
AcDbCircle
 10
31.73840388
 20
0.42233242
 30
0.0
 40
0.75
100
AcDbArc
 50
299.92643487
 51
420.07356513
  0
ARC
  5
4EB
100
AcDbEntity
  8
LAYER0001
  6
CONTINUOUS
 62
       7
100
AcDbCircle
 10
13.48840388
 20
21.57233242
 30
0.0
 40
150.0
100
AcDbArc
 50
82.67388065
 51
86.93226718
  0
ARC
  5
4EC
100
AcDbEntity
  8
LAYER0001
  6
CONTINUOUS
 62
       7
100
AcDbCircle
 10
31.73840388
 20
96.42234291
 30
0.0
 40
0.75
100
AcDbArc
 50
299.92643487
 51
420.07356513
  0
ARC
  5
4ED
100
AcDbEntity
  8
LAYER0001
  6
CONTINUOUS
 62
       7
100
AcDbCircle
 10
-4.76159612
 20
32.42233242
 30
0.0
 40
0.75
100
AcDbArc
 50
119.92643487
 51
240.07356513
  0
LINE
  5
4EE
100
AcDbEntity
  8
LAYER0001
  6
CENTER
 62
       7
100
AcDbLine
 10
-127.1429127
 20
-155.28668306
 30
0.0
 11
-79.21452733
 21
-155.28668306
 31
0.0
  0
LINE
  5
4EF
100
AcDbEntity
  8
LAYER0001
  6
CENTER
 62
       7
100
AcDbLine
 10
-103.65871053
 20
-178.42197724
 30
0.0
 11
-103.65871053
 21
-127.06368859
 31
0.0
  0
LINE
  5
4F0
100
AcDbEntity
  8
LAYER0001
  6
CENTER
 62
       7
100
AcDbLine
 10
-103.65871055
 20
-113.74923522
 30
0.0
 11
-103.65871055
 21
178.04354488
 31
0.0
  0
LINE
  5
4F1
100
AcDbEntity
  8
LAYER0001
  6
CENTER
 62
       7
100
AcDbLine
 10
-90.6683295
 20
-113.74923522
 30
0.0
 11
-90.6683295
 21
-94.14881844
 31
0.0
  0
LINE
  5
4F2
100
AcDbEntity
  8
LAYER0001
  6
CENTER
 62
       7
100
AcDbLine
 10
-116.64909161
 20
-113.74923522
 30
0.0
 11
-116.64909161
 21
-93.67878624
 31
0.0
  0
LINE
  5
4F3
100
AcDbEntity
  8
LAYER0001
  6
CENTER
 62
       7
100
AcDbLine
 10
13.48840388
 20
-101.52772505
 30
0.0
 11
13.48840388
 21
178.42197724
 31
0.0
  0
LINE
  5
4F4
100
AcDbEntity
  8
LAYER0001
  6
CENTER
 62
       7
100
AcDbLine
 10
28.48840388
 20
-114.12766758
 30
0.0
 11
28.48840388
 21
-93.5871864
 31
0.0
  0
LINE
  5
4F5
100
AcDbEntity
  8
LAYER0001
  6
CENTER
 62
       7
100
AcDbLine
 10
5.98840388
 20
-114.12766758
 30
0.0
 11
5.98840388
 21
-93.9005412
 31
0.0
  0
CIRCLE
  5
4F6
100
AcDbEntity
  8
LAYER0001
  6
CENTER
 62
       7
100
AcDbCircle
 10
-103.65871053
 20
-155.28668306
 30
0.0
 40
15.0
  0
INSERT
  5
4F7
100
AcDbEntity
  8
LAYER0001
  6
CONTINUOUS
100
AcDbBlockReference
  2
GROUP_1
 10
0.0
 20
0.0
 30
0.0
  0
INSERT
  5
4F8
100
AcDbEntity
  8
LAYER0001
  6
CONTINUOUS
100
AcDbBlockReference
  2
GROUP_2
 10
0.0
 20
0.0
 30
0.0
  0
INSERT
  5
4F9
100
AcDbEntity
  8
LAYER0001
  6
CONTINUOUS
100
AcDbBlockReference
  2
GROUP_3
 10
0.0
 20
0.0
 30
0.0
  0
INSERT
  5
4FA
100
AcDbEntity
  8
LAYER0001
  6
CONTINUOUS
100
AcDbBlockReference
  2
GROUP_4
 10
0.0
 20
0.0
 30
0.0
  0
INSERT
  5
4FB
100
AcDbEntity
  8
LAYER0001
  6
CONTINUOUS
100
AcDbBlockReference
  2
GROUP_5
 10
0.0
 20
0.0
 30
0.0
  0
INSERT
  5
4FC
100
AcDbEntity
  8
LAYER0001
  6
CONTINUOUS
100
AcDbBlockReference
  2
GROUP_6
 10
0.0
 20
0.0
 30
0.0
  0
INSERT
  5
4FD
100
AcDbEntity
  8
LAYER0001
  6
CONTINUOUS
100
AcDbBlockReference
  2
GROUP_7
 10
0.0
 20
0.0
 30
0.0
  0
INSERT
  5
4FE
100
AcDbEntity
  8
LAYER0001
  6
CONTINUOUS
100
AcDbBlockReference
  2
GROUP_8
 10
0.0
 20
0.0
 30
0.0
  0
INSERT
  5
4FF
100
AcDbEntity
  8
LAYER0001
  6
CONTINUOUS
100
AcDbBlockReference
  2
GROUP_9
 10
0.0
 20
0.0
 30
0.0
  0
INSERT
  5
500
100
AcDbEntity
  8
LAYER0001
  6
CONTINUOUS
100
AcDbBlockReference
  2
GROUP_10
 10
0.0
 20
0.0
 30
0.0
  0
INSERT
  5
501
100
AcDbEntity
  8
LAYER0001
  6
CONTINUOUS
100
AcDbBlockReference
  2
GROUP_11
 10
0.0
 20
0.0
 30
0.0
  0
INSERT
  5
502
100
AcDbEntity
  8
LAYER0001
  6
CONTINUOUS
100
AcDbBlockReference
  2
GROUP_12
 10
0.0
 20
0.0
 30
0.0
  0
INSERT
  5
503
100
AcDbEntity
  8
LAYER0001
  6
CONTINUOUS
100
AcDbBlockReference
  2
GROUP_13
 10
0.0
 20
0.0
 30
0.0
  0
INSERT
  5
504
100
AcDbEntity
  8
LAYER0001
  6
CONTINUOUS
100
AcDbBlockReference
  2
GROUP_14
 10
0.0
 20
0.0
 30
0.0
  0
INSERT
  5
505
100
AcDbEntity
  8
LAYER0001
  6
CONTINUOUS
100
AcDbBlockReference
  2
GROUP_15
 10
0.0
 20
0.0
 30
0.0
  0
INSERT
  5
506
100
AcDbEntity
  8
LAYER0001
  6
CONTINUOUS
100
AcDbBlockReference
  2
GROUP_16
 10
0.0
 20
0.0
 30
0.0
  0
INSERT
  5
507
100
AcDbEntity
  8
LAYER0001
  6
CONTINUOUS
100
AcDbBlockReference
  2
GROUP_17
 10
0.0
 20
0.0
 30
0.0
  0
INSERT
  5
508
100
AcDbEntity
  8
LAYER0001
  6
CONTINUOUS
100
AcDbBlockReference
  2
GROUP_18
 10
0.0
 20
0.0
 30
0.0
  0
INSERT
  5
509
100
AcDbEntity
  8
LAYER0001
  6
CONTINUOUS
100
AcDbBlockReference
  2
GROUP_19
 10
0.0
 20
0.0
 30
0.0
  0
INSERT
  5
50A
100
AcDbEntity
  8
LAYER0001
  6
CONTINUOUS
100
AcDbBlockReference
  2
GROUP_20
 10
0.0
 20
0.0
 30
0.0
  0
INSERT
  5
50B
100
AcDbEntity
  8
LAYER0001
  6
CONTINUOUS
100
AcDbBlockReference
  2
GROUP_21
 10
0.0
 20
0.0
 30
0.0
  0
INSERT
  5
50C
100
AcDbEntity
  8
LAYER0001
  6
CONTINUOUS
100
AcDbBlockReference
  2
GROUP_22
 10
0.0
 20
0.0
 30
0.0
  0
INSERT
  5
50D
100
AcDbEntity
  8
LAYER0001
  6
CONTINUOUS
100
AcDbBlockReference
  2
GROUP_23
 10
0.0
 20
0.0
 30
0.0
  0
TEXT
  5
50E
100
AcDbEntity
  8
LAYER0001
 62
       7
100
AcDbText
 10
78.3244935
 20
-147.35839582
 30
0.0
 40
9.525
  1
000
 72
       5
 11
106.8994935
 21
-147.35839582
 31
0.0
100
AcDbText
  0
TEXT
  5
50F
100
AcDbEntity
  8
LAYER0001
 62
       7
100
AcDbText
 10
66.56391267
 20
-99.15374508
 30
0.0
 40
6.35
  1
Lamp 5 Layers shown
 72
       5
 11
187.21391267
 21
-99.15374508
 31
0.0
100
AcDbText
  0
ENDSEC
  0
SECTION
  2
OBJECTS
  0
DICTIONARY
  5
19
100
AcDbDictionary
  3
ACAD_GROUP
350
1A
  3
ACAD_MLINESTYLE
350
1B
  0
DICTIONARY
  5
1A
102
{ACAD_REACTORS
330
19
102
}
100
AcDbDictionary
  0
DICTIONARY
  5
1B
102
{ACAD_REACTORS
330
19
102
}
100
AcDbDictionary
  3
STANDARD
350
1C
  0
MLINESTYLE
  5
1C
102
{ACAD_REACTORS
330
1B
102
}
100
AcDbMlineStyle
  2
STANDARD
 70
       0
  3

 62
       0
 51
90.0
 52
90.0
 71
       2
 49
0.5
 62
     256
  6
BYLAYER
 49
-0.5
 62
     256
  6
BYLAYER
  0
ENDSEC
  0
EOF

