  0
SECTION
  2
HEADER
  9
$ACADVER
  1
AC1014
  9
$ACADMAINTVER
 70
       0
  9
$DWGCODEPAGE
  3
ANSI_932
  9
$INSBASE
 10
0.0
 20
0.0
 30
0.0
  9
$EXTMIN
 10
-196.54758311
 20
-266.58249896
 30
0.0
  9
$EXTMAX
 10
178.05018735
 20
266.58249896
 30
0.0
  9
$LIMMIN
 10
-208.25376343
 20
-283.24390514
  9
$LIMMAX
 10
189.75636768
 20
283.24390514
  9
$ORTHOMODE
 70
       0
  9
$REGENMODE
 70
       1
  9
$FILLMODE
 70
       1
  9
$QTEXTMODE
 70
       0
  9
$MIRRTEXT
 70
       1
  9
$DRAGMODE
 70
       2
  9
$LTSCALE
 40
1.0
  9
$OSMODE
 70
       0
  9
$ATTMODE
 70
       1
  9
$TEXTSIZE
 40
0.2
  9
$TRACEWID
 40
0.05
  9
$TEXTSTYLE
  7
STANDARD
  9
$CLAYER
  8
0
  9
$CELTYPE
  6
CONTINUOUS
  9
$CECOLOR
 62
     256
  9
$CELTSCALE
 40
1.0
  9
$DELOBJ
 70
       1
  9
$DISPSILH
 70
       0
  9
$DIMSCALE
 40
1.0
  9
$DIMASZ
 40
0.18
  9
$DIMEXO
 40
0.0625
  9
$DIMDLI
 40
0.38
  9
$DIMRND
 40
0.0
  9
$DIMDLE
 40
0.0
  9
$DIMEXE
 40
0.18
  9
$DIMTP
 40
0.0
  9
$DIMTM
 40
0.0
  9
$DIMTXT
 40
0.18
  9
$DIMCEN
 40
0.09
  9
$DIMTSZ
 40
0.0
  9
$DIMTOL
 70
       0
  9
$DIMLIM
 70
       0
  9
$DIMTIH
 70
       1
  9
$DIMTOH
 70
       1
  9
$DIMSE1
 70
       0
  9
$DIMSE2
 70
       0
  9
$DIMTAD
 70
       0
  9
$DIMZIN
 70
       0
  9
$DIMBLK
  1

  9
$DIMASO
 70
       1
  9
$DIMSHO
 70
       1
  9
$DIMPOST
  1

  9
$DIMAPOST
  1

  9
$DIMALT
 70
       0
  9
$DIMALTD
 70
       2
  9
$DIMALTF
 40
25.4
  9
$DIMLFAC
 40
1.0
  9
$DIMTOFL
 70
       0
  9
$DIMTVP
 40
0.0
  9
$DIMTIX
 70
       0
  9
$DIMSOXD
 70
       0
  9
$DIMSAH
 70
       0
  9
$DIMBLK1
  1

  9
$DIMBLK2
  1

  9
$DIMSTYLE
  2
STANDARD
  9
$DIMCLRD
 70
       0
  9
$DIMCLRE
 70
       0
  9
$DIMCLRT
 70
       0
  9
$DIMTFAC
 40
1.0
  9
$DIMGAP
 40
0.09
  9
$DIMJUST
 70
       0
  9
$DIMSD1
 70
       0
  9
$DIMSD2
 70
       0
  9
$DIMTOLJ
 70
       1
  9
$DIMTZIN
 70
       0
  9
$DIMALTZ
 70
       0
  9
$DIMALTTZ
 70
       0
  9
$DIMFIT
 70
       3
  9
$DIMUPT
 70
       0
  9
$DIMUNIT
 70
       2
  9
$DIMDEC
 70
       4
  9
$DIMTDEC
 70
       4
  9
$DIMALTU
 70
       2
  9
$DIMALTTD
 70
       2
  9
$DIMTXSTY
  7
STANDARD
  9
$DIMAUNIT
 70
       0
  9
$LUNITS
 70
       2
  9
$LUPREC
 70
       4
  9
$SKETCHINC
 40
0.1
  9
$FILLETRAD
 40
0.0
  9
$AUNITS
 70
       0
  9
$AUPREC
 70
       0
  9
$MENU
  1
acad
  9
$ELEVATION
 40
0.0
  9
$PELEVATION
 40
0.0
  9
$THICKNESS
 40
0.0
  9
$LIMCHECK
 70
       0
  9
$BLIPMODE
 70
       1
  9
$CHAMFERA
 40
0.0
  9
$CHAMFERB
 40
0.0
  9
$CHAMFERC
 40
0.0
  9
$CHAMFERD
 40
0.0
  9
$SKPOLY
 70
       0
  9
$TDCREATE
 40
0.000000000
  9
$TDUPDATE
 40
0.000000000
  9
$TDINDWG
 40
0.0000000000
  9
$TDUSRTIMER
 40
0.0000000000
  9
$USRTIMER
 70
       1
  9
$ANGBASE
 50
0.0
  9
$ANGDIR
 70
       0
  9
$PDMODE
 70
       0
  9
$PDSIZE
 40
1.0
  9
$PLINEWID
 40
0.0
  9
$COORDS
 70
       1
  9
$SPLFRAME
 70
       0
  9
$SPLINETYPE
 70
       6
  9
$SPLINESEGS
 70
       8
  9
$ATTDIA
 70
       0
  9
$ATTREQ
 70
       1
  9
$HANDLING
 70
       1
  9
$HANDSEED
  5
546
  9
$SURFTAB1
 70
       6
  9
$SURFTAB2
 70
       6
  9
$SURFTYPE
 70
       6
  9
$SURFU
 70
       6
  9
$SURFV
 70
       6
  9
$UCSNAME
  2

  9
$UCSORG
 10
0.0
 20
0.0
 30
0.0
  9
$UCSXDIR
 10
1.0
 20
0.0
 30
0.0
  9
$UCSYDIR
 10
0.0
 20
1.0
 30
0.0
  9
$PUCSNAME
  2

  9
$PUCSORG
 10
0.0
 20
0.0
 30
0.0
  9
$PUCSXDIR
 10
1.0
 20
0.0
 30
0.0
  9
$PUCSYDIR
 10
0.0
 20
1.0
 30
0.0
  9
$USERI1
 70
       0
  9
$USERI2
 70
       0
  9
$USERI3
 70
       0
  9
$USERI4
 70
       0
  9
$USERI5
 70
       0
  9
$USERR1
 40
0.0
  9
$USERR2
 40
0.0
  9
$USERR3
 40
0.0
  9
$USERR4
 40
0.0
  9
$USERR5
 40
0.0
  9
$WORLDVIEW
 70
       1
  9
$SHADEDGE
 70
       3
  9
$SHADEDIF
 70
      70
  9
$TILEMODE
 70
       1
  9
$MAXACTVP
 70
      16
  9
$PINSBASE
 10
0.0
 20
0.0
 30
0.0
  9
$PLIMCHECK
 70
       0
  9
$PEXTMIN
 10
1.00000000E+20
 20
1.00000000E+20
 30
1.00000000E+20
  9
$PEXTMAX
 10
-1.00000000E+20
 20
-1.00000000E+20
 30
-1.00000000E+20
  9
$PLIMMIN
 10
0.0
 20
0.0
  9
$PLIMMAX
 10
12.0
 20
9.0
  9
$UNITMODE
 70
       0
  9
$VISRETAIN
 70
       0
  9
$PLINEGEN
 70
       1
  9
$PSLTSCALE
 70
       0
  9
$TREEDEPTH
 70
    3020
  9
$PICKSTYLE
 70
       1
  9
$CMLSTYLE
  2
STANDARD
  9
$CMLJUST
 70
       0
  9
$CMLSCALE
 40
1.0
  9
$PROXYGRAPHICS
 70
       0
  9
$MEASUREMENT
 70
       0
  0
ENDSEC
  0
SECTION
  2
CLASSES
  0
CLASS
  1
LWPOLYLINE
  2
AcDbPolyline
  3
"AutoCAD"
 90
        0
280
       0
281
       1
  0
CLASS
  1
IMAGE
  2
AcDbRasterImage
  3
ISM
 90
      127
280
       0
281
       1
  0
CLASS
  1
OLE2FRAME
  2
AcDbOle2Frame
  3
""
 90
        0
280
       0
281
       1
  0
CLASS
  1
HATCH
  2
AcDbHatch
  3
"ACAD_SEDONA"
 90
        0
280
       0
281
       1
  0
CLASS
  1
DICTIONARYVAR
  2
AcDbDictionaryVar
  3
"AutoCAD"
 90
        0
280
       0
281
       0
  0
CLASS
  1
RASTERVARIABLES
  2
AcDbRasterVariables
  3
ISM
 90
        0
280
       0
281
       0
  0
CLASS
  1
IMAGEDEF
  2
AcDbRasterImageDef
  3
ISM
 90
        0
280
       0
281
       0
  0
CLASS
  1
IMAGEDEF_REACTOR
  2
AcDbRasterImageDefReactor
  3
ISM
 90
        1
280
       0
281
       0
  0
CLASS
  1
IDBUFFER
  2
AcDbIdBuffer
  3
"Acad"
 90
        0
280
       0
281
       0
  0
CLASS
  1
SPATIAL_FILTER
  2
AcDbSpatialFilter
  3
"Acad"
 90
        0
280
       0
281
       0
  0
CLASS
  1
XRECORD
  2
AcDbXrecord
  3
"<Built In>"
 90
        0
280
       0
281
       0
  0
CLASS
  1
SORTENTSTABLE
  2
AcDbSortentsTable
  3
"AutoCAD"
 90
        0
280
       0
281
       0
  0
CLASS
  1
LAYER_INDEX
  2
AcDbLayerIndex
  3
"Acad"
 90
        0
280
       0
281
       0
  0
CLASS
  1
SPATIAL_INDEX
  2
AcDbSpatialIndex
  3
"Acad"
 90
        0
280
       0
281
       0
  0
CLASS
  1
OBJECT_PTR
  2
CAseDLPNTableRecord
  3
"ASE-LPNTableRecord"
 90
        1
280
       0
281
       0
  0
CLASS
  1
LAYOUT
  2
AcDbLayout
  3
"AutoCAD 2000"
 90
        1
280
       0
281
       0
  0
CLASS
  1
PLOTSETTINGS
  2
AcDbPlotSettings
  3
"AutoCAD 2000"
 90
        1
280
       0
281
       0
  0
CLASS
  1
ACDBDICTIONARYWDFLT
  2
AcDbDictionaryWithDefault
  3
"AutoCAD 2000"
 90
        1
280
       0
281
       0
  0
CLASS
  1
ACDBPLACEHOLDER
  2
AcDbPlaceHolder
  3
"AutoCAD 2000"
 90
        1
280
       0
281
       0
  0
CLASS
  1
VBA_PROJECT
  2
AcDbVbaProject
  3
"acadvba"
 90
        1
280
       0
281
       0
  0
CLASS
  1
WIPEOUT
  2
AcDbWipeout
  3
WipeOut|AutoCAD Express Tool|expresstools@autodesk.com
 90
      127
280
       0
281
       1
  0
CLASS
  1
WIPEOUTVARIABLES
  2
AcDbWipeoutVariables
  3
WipeOut|AutoCAD Express Tool|expresstools@autodesk.com
 90
        0
280
       0
281
       0
  0
CLASS
  1
RTEXT
  2
RText
  3
RText|AutoCAD Express Tool|expresstools@autodesk.com
 90
        0
280
       0
281
       1
  0
CLASS
  1
ARCALIGNEDTEXT
  2
AcDbArcAlignedText
  3
ATEXT|AutoCAD Express Tool|expresstools@autodesk.com
 90
        0
280
       0
281
       1
  0
ENDSEC
  0
SECTION
  2
TABLES
  0
TABLE
  2
VPORT
  5
7
100
AcDbSymbolTable
 70
       1
  0
VPORT
  5
15
100
AcDbSymbolTableRecord
100
AcDbViewportTableRecord
  2
*ACTIVE
 70
       0
 10
0.0
 20
0.0
 11
1.0
 21
1.0
 12
-9.24869788
 22
0.0
 13
0.0
 23
0.0
 14
1.0
 24
1.0
 15
0.0
 25
0.0
 16
0.0
 26
0.0
 36
1.0
 17
0.0
 27
0.0
 37
0.0
 40
566.48781028
 41
0.70259258
 42
50.0
 43
0.0
 44
0.0
 50
0.0
 51
0.0
 71
       0
 72
     100
 73
       1
 74
       1
 75
       0
 76
       0
 77
       0
 78
       0
  0
ENDTAB
  0
TABLE
  2
LTYPE
  5
4
100
AcDbSymbolTable
 70
      30
  0
LTYPE
  5
11
100
AcDbSymbolTableRecord
100
AcDbLinetypeTableRecord
  2
BYBLOCK
 70
      64
  3

 72
      65
 73
       0
 40
0.0
  0
LTYPE
  5
12
100
AcDbSymbolTableRecord
100
AcDbLinetypeTableRecord
  2
BYLAYER
 70
      64
  3

 72
      65
 73
       0
 40
0.0
  0
LTYPE
  5
13
100
AcDbSymbolTableRecord
100
AcDbLinetypeTableRecord
  2
CONTINUOUS
 70
      64
  3
Solid line
 72
      65
 73
       0
 40
0.0
  0
LTYPE
  5
1D
100
AcDbSymbolTableRecord
100
AcDbLinetypeTableRecord
  2
HIDDENX2
 70
      64
  3
CADPAC LINETYPE
 72
      65
 73
       2
 40
30.15139988
 49
22.61354991
 74
       0
 49
-7.53784997
 74
       0
  0
LTYPE
  5
1E
100
AcDbSymbolTableRecord
100
AcDbLinetypeTableRecord
  2
HIDDEN
 70
      64
  3
CADPAC LINETYPE
 72
      65
 73
       2
 40
22.61354991
 49
15.07569994
 74
       0
 49
-7.53784997
 74
       0
  0
LTYPE
  5
1F
100
AcDbSymbolTableRecord
100
AcDbLinetypeTableRecord
  2
HIDDEN2
 70
      64
  3
CADPAC LINETYPE
 72
      65
 73
       2
 40
18.84462493
 49
11.30677496
 74
       0
 49
-7.53784997
 74
       0
  0
LTYPE
  5
20
100
AcDbSymbolTableRecord
100
AcDbLinetypeTableRecord
  2
DASHED
 70
      64
  3
CADPAC LINETYPE
 72
      65
 73
       2
 40
22.61354991
 49
15.07569994
 74
       0
 49
-7.53784997
 74
       0
  0
LTYPE
  5
21
100
AcDbSymbolTableRecord
100
AcDbLinetypeTableRecord
  2
DASHED2
 70
      64
  3
CADPAC LINETYPE
 72
      65
 73
       2
 40
16.96016243
 49
11.30677496
 74
       0
 49
-5.65338748
 74
       0
  0
LTYPE
  5
22
100
AcDbSymbolTableRecord
100
AcDbLinetypeTableRecord
  2
DASHEDX2
 70
      64
  3
CADPAC LINETYPE
 72
      65
 73
       2
 40
33.92032487
 49
22.61354991
 74
       0
 49
-11.30677496
 74
       0
  0
LTYPE
  5
23
100
AcDbSymbolTableRecord
100
AcDbLinetypeTableRecord
  2
DOTX2
 70
      64
  3
CADPAC LINETYPE
 72
      65
 73
       2
 40
9.42231246
 49
0.0
 74
       0
 49
-9.42231246
 74
       0
  0
LTYPE
  5
24
100
AcDbSymbolTableRecord
100
AcDbLinetypeTableRecord
  2
DOT
 70
      64
  3
CADPAC LINETYPE
 72
      65
 73
       2
 40
7.53784997
 49
0.0
 74
       0
 49
-7.53784997
 74
       0
  0
LTYPE
  5
25
100
AcDbSymbolTableRecord
100
AcDbLinetypeTableRecord
  2
DOT2
 70
      64
  3
CADPAC LINETYPE
 72
      65
 73
       2
 40
5.65338748
 49
0.0
 74
       0
 49
-5.65338748
 74
       0
  0
LTYPE
  5
26
100
AcDbSymbolTableRecord
100
AcDbLinetypeTableRecord
  2
CENTERX2
 70
      64
  3
CADPAC LINETYPE
 72
      65
 73
       4
 40
45.22709982
 49
18.84462493
 74
       0
 49
-9.42231246
 74
       0
 49
7.53784997
 74
       0
 49
-9.42231246
 74
       0
  0
LTYPE
  5
27
100
AcDbSymbolTableRecord
100
AcDbLinetypeTableRecord
  2
CENTER
 70
      64
  3
CADPAC LINETYPE
 72
      65
 73
       4
 40
34.67410986
 49
15.07569994
 74
       0
 49
-7.53784997
 74
       0
 49
4.52270998
 74
       0
 49
-7.53784997
 74
       0
  0
LTYPE
  5
28
100
AcDbSymbolTableRecord
100
AcDbLinetypeTableRecord
  2
CENTER2
 70
      64
  3
CADPAC LINETYPE
 72
      65
 73
       4
 40
24.12111991
 49
11.30677496
 74
       0
 49
-5.65338748
 74
       0
 49
1.50756999
 74
       0
 49
-5.65338748
 74
       0
  0
LTYPE
  5
29
100
AcDbSymbolTableRecord
100
AcDbLinetypeTableRecord
  2
DASHDOTX2
 70
      64
  3
CADPAC LINETYPE
 72
      65
 73
       4
 40
37.68924985
 49
18.84462493
 74
       0
 49
-9.42231246
 74
       0
 49
0.0
 74
       0
 49
-9.42231246
 74
       0
  0
LTYPE
  5
2A
100
AcDbSymbolTableRecord
100
AcDbLinetypeTableRecord
  2
DASHDOT
 70
      64
  3
CADPAC LINETYPE
 72
      65
 73
       4
 40
30.15139988
 49
15.07569994
 74
       0
 49
-7.53784997
 74
       0
 49
0.0
 74
       0
 49
-7.53784997
 74
       0
  0
LTYPE
  5
2B
100
AcDbSymbolTableRecord
100
AcDbLinetypeTableRecord
  2
DASHDOT2
 70
      64
  3
CADPAC LINETYPE
 72
      65
 73
       4
 40
22.61354991
 49
11.30677496
 74
       0
 49
-5.65338748
 74
       0
 49
0.0
 74
       0
 49
-5.65338748
 74
       0
  0
LTYPE
  5
2C
100
AcDbSymbolTableRecord
100
AcDbLinetypeTableRecord
  2
DIVIDEX2
 70
      64
  3
CADPAC LINETYPE
 72
      65
 73
       6
 40
47.11156232
 49
18.84462493
 74
       0
 49
-9.42231246
 74
       0
 49
0.0
 74
       0
 49
-9.42231246
 74
       0
 49
0.0
 74
       0
 49
-9.42231246
 74
       0
  0
LTYPE
  5
2D
100
AcDbSymbolTableRecord
100
AcDbLinetypeTableRecord
  2
DIVIDE
 70
      64
  3
CADPAC LINETYPE
 72
      65
 73
       6
 40
37.68924985
 49
15.07569994
 74
       0
 49
-7.53784997
 74
       0
 49
0.0
 74
       0
 49
-7.53784997
 74
       0
 49
0.0
 74
       0
 49
-7.53784997
 74
       0
  0
LTYPE
  5
2E
100
AcDbSymbolTableRecord
100
AcDbLinetypeTableRecord
  2
DIVIDE2
 70
      64
  3
CADPAC LINETYPE
 72
      65
 73
       6
 40
28.26693739
 49
11.30677496
 74
       0
 49
-5.65338748
 74
       0
 49
0.0
 74
       0
 49
-5.65338748
 74
       0
 49
0.0
 74
       0
 49
-5.65338748
 74
       0
  0
LTYPE
  5
2F
100
AcDbSymbolTableRecord
100
AcDbLinetypeTableRecord
  2
BORDERX2
 70
      64
  3
CADPAC LINETYPE
 72
      65
 73
       6
 40
65.95618724
 49
18.84462493
 74
       0
 49
-9.42231246
 74
       0
 49
18.84462493
 74
       0
 49
-9.42231246
 74
       0
 49
0.0
 74
       0
 49
-9.42231246
 74
       0
  0
LTYPE
  5
30
100
AcDbSymbolTableRecord
100
AcDbLinetypeTableRecord
  2
BORDER
 70
      64
  3
CADPAC LINETYPE
 72
      65
 73
       6
 40
52.76494979
 49
15.07569994
 74
       0
 49
-7.53784997
 74
       0
 49
15.07569994
 74
       0
 49
-7.53784997
 74
       0
 49
0.0
 74
       0
 49
-7.53784997
 74
       0
  0
LTYPE
  5
31
100
AcDbSymbolTableRecord
100
AcDbLinetypeTableRecord
  2
BORDER2
 70
      64
  3
CADPAC LINETYPE
 72
      65
 73
       6
 40
39.57371235
 49
11.30677496
 74
       0
 49
-5.65338748
 74
       0
 49
11.30677496
 74
       0
 49
-5.65338748
 74
       0
 49
0.0
 74
       0
 49
-5.65338748
 74
       0
  0
LTYPE
  5
32
100
AcDbSymbolTableRecord
100
AcDbLinetypeTableRecord
  2
PHANTOMX2
 70
      64
  3
CADPAC LINETYPE
 72
      65
 73
       6
 40
56.53387478
 49
18.84462493
 74
       0
 49
-7.53784997
 74
       0
 49
7.53784997
 74
       0
 49
-7.53784997
 74
       0
 49
7.53784997
 74
       0
 49
-7.53784997
 74
       0
  0
LTYPE
  5
33
100
AcDbSymbolTableRecord
100
AcDbLinetypeTableRecord
  2
PHANTOM
 70
      64
  3
CADPAC LINETYPE
 72
      65
 73
       6
 40
46.73466982
 49
15.07569994
 74
       0
 49
-7.53784997
 74
       0
 49
4.52270998
 74
       0
 49
-7.53784997
 74
       0
 49
4.52270998
 74
       0
 49
-7.53784997
 74
       0
  0
LTYPE
  5
34
100
AcDbSymbolTableRecord
100
AcDbLinetypeTableRecord
  2
PHANTOM2
 70
      64
  3
CADPAC LINETYPE
 72
      65
 73
       6
 40
39.95060484
 49
11.30677496
 74
       0
 49
-7.53784997
 74
       0
 49
3.01513999
 74
       0
 49
-7.53784997
 74
       0
 49
3.01513999
 74
       0
 49
-7.53784997
 74
       0
  0
LTYPE
  5
35
100
AcDbSymbolTableRecord
100
AcDbLinetypeTableRecord
  2
ACAD_ISO06W100
 70
      64
  3
CADPAC LINETYPE
 72
      65
 73
       8
 40
50.8804873
 49
18.84462493
 74
       0
 49
-9.42231246
 74
       0
 49
0.0
 74
       0
 49
-7.53784997
 74
       0
 49
0.0
 74
       0
 49
-7.53784997
 74
       0
 49
0.0
 74
       0
 49
-7.53784997
 74
       0
  0
LTYPE
  5
36
100
AcDbSymbolTableRecord
100
AcDbLinetypeTableRecord
  2
ACAD_ISO13W100
 70
      64
  3
CADPAC LINETYPE
 72
      65
 73
       8
 40
60.30279976
 49
15.07569994
 74
       0
 49
-7.53784997
 74
       0
 49
15.07569994
 74
       0
 49
-7.53784997
 74
       0
 49
0.0
 74
       0
 49
-7.53784997
 74
       0
 49
0.0
 74
       0
 49
-7.53784997
 74
       0
  0
LTYPE
  5
37
100
AcDbSymbolTableRecord
100
AcDbLinetypeTableRecord
  2
ACAD_ISO14W100
 70
      64
  3
CADPAC LINETYPE
 72
      65
 73
       8
 40
45.22709982
 49
15.07569994
 74
       0
 49
-7.53784997
 74
       0
 49
0.0
 74
       0
 49
-7.53784997
 74
       0
 49
0.0
 74
       0
 49
-7.53784997
 74
       0
 49
0.0
 74
       0
 49
-7.53784997
 74
       0
  0
ENDTAB
  0
TABLE
  2
LAYER
  5
2
100
AcDbSymbolTable
 70
       5
  0
LAYER
  5
14
100
AcDbSymbolTableRecord
100
AcDbLayerTableRecord
  2
0
 70
       0
 62
       7
  6
CONTINUOUS
  0
LAYER
  5
38
100
AcDbSymbolTableRecord
100
AcDbLayerTableRecord
  2
LAYER0001
 70
       0
 62
       7
  6
CONTINUOUS
  0
LAYER
  5
39
100
AcDbSymbolTableRecord
100
AcDbLayerTableRecord
  2
LAYER0002
 70
       0
 62
       7
  6
CONTINUOUS
  0
LAYER
  5
3A
100
AcDbSymbolTableRecord
100
AcDbLayerTableRecord
  2
LAYER0003
 70
       0
 62
       7
  6
CONTINUOUS
  0
LAYER
  5
3B
100
AcDbSymbolTableRecord
100
AcDbLayerTableRecord
  2
LAYER0004
 70
       0
 62
       7
  6
CONTINUOUS
  0
ENDTAB
  0
TABLE
  2
STYLE
  5
3
100
AcDbSymbolTable
 70
       1
  0
STYLE
  5
17
100
AcDbSymbolTableRecord
100
AcDbTextStyleTableRecord
  2
STANDARD
 70
       0
 40
0.0
 41
1.0
 50
0.0
 71
       0
 42
17.19791667
  3
txt.shx
  4
bigfont.shx
  0
ENDTAB
  0
TABLE
  2
VIEW
  5
5
100
AcDbSymbolTable
 70
       1
  0
VIEW
  5
3C
100
AcDbSymbolTableRecord
100
AcDbViewTableRecord
  2
QQQQ
 70
       0
 40
566.48781028
 10
-9.24869788
 20
0.0
 41
398.01013111
 11
0.0
 21
0.0
 31
1.0
 12
100.0
 22
100.0
 32
0.0
 42
50.0
 43
0.0
 44
0.0
 50
0.0
 71
       0
  0
ENDTAB
  0
TABLE
  2
UCS
  5
6
100
AcDbSymbolTable
 70
       0
  0
ENDTAB
  0
TABLE
  2
APPID
  5
8
100
AcDbSymbolTable
 70
       1
  0
APPID
  5
16
100
AcDbSymbolTableRecord
100
AcDbRegAppTableRecord
  2
ACAD
 70
       0
  0
ENDTAB
  0
TABLE
  2
DIMSTYLE
  5
9
100
AcDbSymbolTable
 70
       1
  0
DIMSTYLE
105
18
100
AcDbSymbolTableRecord
100
AcDbDimStyleTableRecord
  2
STANDARD
 70
       0
  3

  4

  5

  6

  7

 40
1.0
 41
0.18
 42
0.0625
 43
0.38
 44
0.18
 45
0.0
 46
0.0
 47
0.0
 48
0.0
 71
       0
 72
       0
 73
       1
 74
       1
 75
       0
 76
       0
 77
       0
 78
       0
140
0.18
141
0.09
142
0.0
143
25.4
144
1.0
145
0.0
146
1.0
147
0.09
170
       0
171
       2
172
       0
173
       0
174
       0
175
       0
176
       0
177
       0
178
       0
270
       2
271
       4
272
       4
273
       2
274
       2
275
       0
280
       0
281
       0
282
       0
283
       1
284
       0
285
       0
286
       0
287
       0
288
       0
340
17
  0
ENDTAB
  0
TABLE
  2
BLOCK_RECORD
  5
1
100
AcDbSymbolTable
 70
       4
  0
BLOCK_RECORD
  5
A
100
AcDbSymbolTableRecord
100
AcDbBlockTableRecord
  2
*MODEL_SPACE
  0
BLOCK_RECORD
  5
B
100
AcDbSymbolTableRecord
100
AcDbBlockTableRecord
  2
*PAPER_SPACE
  0
BLOCK_RECORD
  5
3D
100
AcDbSymbolTableRecord
100
AcDbBlockTableRecord
  2
GROUP_1
  0
BLOCK_RECORD
  5
3E
100
AcDbSymbolTableRecord
100
AcDbBlockTableRecord
  2
GROUP_2
  0
BLOCK_RECORD
  5
3F
100
AcDbSymbolTableRecord
100
AcDbBlockTableRecord
  2
GROUP_3
  0
BLOCK_RECORD
  5
40
100
AcDbSymbolTableRecord
100
AcDbBlockTableRecord
  2
GROUP_4
  0
ENDTAB
  0
ENDSEC
  0
SECTION
  2
BLOCKS
  0
BLOCK
  5
D
100
AcDbEntity
  8
0
100
AcDbBlockBegin
  2
*MODEL_SPACE
 70
       0
 10
0.0
 20
0.0
 30
0.0
  3
*MODEL_SPACE
  1

  0
ENDBLK
  5
E
100
AcDbEntity
  8
0
100
AcDbBlockEnd
  0
BLOCK
  5
F
100
AcDbEntity
 67
       1
  8
0
100
AcDbBlockBegin
  2
*PAPER_SPACE
 70
       0
 10
0.0
 20
0.0
 30
0.0
  3
*PAPER_SPACE
  1

  0
ENDBLK
  5
10
100
AcDbEntity
 67
       1
  8
0
100
AcDbBlockEnd
  0
BLOCK
  5
41
100
AcDbEntity
  8
0
100
AcDbBlockBegin
  2
GROUP_1
 70
       0
 10
0.0
 20
0.0
 30
0.0
  3
GROUP_1
  1

  0
LINE
  5
42
100
AcDbEntity
  8
LAYER0001
  6
CONTINUOUS
 62
       7
100
AcDbLine
 10
-116.40513529
 20
-223.15025238
 30
0.0
 11
-116.40791404
 21
-223.03302693
 31
0.0
  0
LINE
  5
43
100
AcDbEntity
  8
LAYER0001
  6
CONTINUOUS
 62
       7
100
AcDbLine
 10
-116.40791404
 20
-223.03302693
 30
0.0
 11
-116.4110282
 21
-222.91584052
 31
0.0
  0
LINE
  5
44
100
AcDbEntity
  8
LAYER0001
  6
CONTINUOUS
 62
       7
100
AcDbLine
 10
-116.4110282
 20
-222.91584052
 30
0.0
 11
-116.41481317
 21
-222.79873217
 31
0.0
  0
LINE
  5
45
100
AcDbEntity
  8
LAYER0001
  6
CONTINUOUS
 62
       7
100
AcDbLine
 10
-116.41481317
 20
-222.79873217
 30
0.0
 11
-116.41960437
 21
-222.68174092
 31
0.0
  0
LINE
  5
46
100
AcDbEntity
  8
LAYER0001
  6
CONTINUOUS
 62
       7
100
AcDbLine
 10
-116.41960437
 20
-222.68174092
 30
0.0
 11
-116.42573721
 21
-222.56490579
 31
0.0
  0
LINE
  5
47
100
AcDbEntity
  8
LAYER0001
  6
CONTINUOUS
 62
       7
100
AcDbLine
 10
-116.42573721
 20
-222.56490579
 30
0.0
 11
-116.43354708
 21
-222.44826582
 31
0.0
  0
LINE
  5
48
100
AcDbEntity
  8
LAYER0001
  6
CONTINUOUS
 62
       7
100
AcDbLine
 10
-116.43354708
 20
-222.44826582
 30
0.0
 11
-116.44332859
 21
-222.33185529
 31
0.0
  0
LINE
  5
49
100
AcDbEntity
  8
LAYER0001
  6
CONTINUOUS
 62
       7
100
AcDbLine
 10
-116.44332859
 20
-222.33185529
 30
0.0
 11
-116.45509254
 21
-222.21567545
 31
0.0
  0
LINE
  5
4A
100
AcDbEntity
  8
LAYER0001
  6
CONTINUOUS
 62
       7
100
AcDbLine
 10
-116.45509254
 20
-222.21567545
 30
0.0
 11
-116.46872922
 21
-222.09971355
 31
0.0
  0
LINE
  5
4B
100
AcDbEntity
  8
LAYER0001
  6
CONTINUOUS
 62
       7
100
AcDbLine
 10
-116.46872922
 20
-222.09971355
 30
0.0
 11
-116.48412845
 21
-221.98395676
 31
0.0
  0
LINE
  5
4C
100
AcDbEntity
  8
LAYER0001
  6
CONTINUOUS
 62
       7
100
AcDbLine
 10
-116.48412845
 20
-221.98395676
 30
0.0
 11
-116.50118009
 21
-221.86839226
 31
0.0
  0
LINE
  5
4D
100
AcDbEntity
  8
LAYER0001
  6
CONTINUOUS
 62
       7
100
AcDbLine
 10
-116.50118009
 20
-221.86839226
 30
0.0
 11
-116.51977398
 21
-221.75300723
 31
0.0
  0
LINE
  5
4E
100
AcDbEntity
  8
LAYER0001
  6
CONTINUOUS
 62
       7
100
AcDbLine
 10
-116.51977398
 20
-221.75300723
 30
0.0
 11
-116.53979994
 21
-221.63778885
 31
0.0
  0
LINE
  5
4F
100
AcDbEntity
  8
LAYER0001
  6
CONTINUOUS
 62
       7
100
AcDbLine
 10
-116.53979994
 20
-221.63778885
 30
0.0
 11
-116.56114783
 21
-221.52272431
 31
0.0
  0
LINE
  5
50
100
AcDbEntity
  8
LAYER0001
  6
CONTINUOUS
 62
       7
100
AcDbLine
 10
-116.56114783
 20
-221.52272431
 30
0.0
 11
-116.58370748
 21
-221.40780078
 31
0.0
  0
LINE
  5
51
100
AcDbEntity
  8
LAYER0001
  6
CONTINUOUS
 62
       7
100
AcDbLine
 10
-116.58370748
 20
-221.40780078
 30
0.0
 11
-116.60736873
 21
-221.29300544
 31
0.0
  0
LINE
  5
52
100
AcDbEntity
  8
LAYER0001
  6
CONTINUOUS
 62
       7
100
AcDbLine
 10
-116.60736873
 20
-221.29300544
 30
0.0
 11
-116.63202143
 21
-221.17832548
 31
0.0
  0
LINE
  5
53
100
AcDbEntity
  8
LAYER0001
  6
CONTINUOUS
 62
       7
100
AcDbLine
 10
-116.63202143
 20
-221.17832548
 30
0.0
 11
-116.6575554
 21
-221.06374808
 31
0.0
  0
LINE
  5
54
100
AcDbEntity
  8
LAYER0001
  6
CONTINUOUS
 62
       7
100
AcDbLine
 10
-116.6575554
 20
-221.06374808
 30
0.0
 11
-116.6838605
 21
-220.9492604
 31
0.0
  0
LINE
  5
55
100
AcDbEntity
  8
LAYER0001
  6
CONTINUOUS
 62
       7
100
AcDbLine
 10
-116.6838605
 20
-220.9492604
 30
0.0
 11
-116.71082655
 21
-220.83484965
 31
0.0
  0
LINE
  5
56
100
AcDbEntity
  8
LAYER0001
  6
CONTINUOUS
 62
       7
100
AcDbLine
 10
-116.71082655
 20
-220.83484965
 30
0.0
 11
-116.73834341
 21
-220.72050299
 31
0.0
  0
LINE
  5
57
100
AcDbEntity
  8
LAYER0001
  6
CONTINUOUS
 62
       7
100
AcDbLine
 10
-116.73834341
 20
-220.72050299
 30
0.0
 11
-116.76630091
 21
-220.60620761
 31
0.0
  0
LINE
  5
58
100
AcDbEntity
  8
LAYER0001
  6
CONTINUOUS
 62
       7
100
AcDbLine
 10
-116.76630091
 20
-220.60620761
 30
0.0
 11
-116.79458889
 21
-220.49195069
 31
0.0
  0
LINE
  5
59
100
AcDbEntity
  8
LAYER0001
  6
CONTINUOUS
 62
       7
100
AcDbLine
 10
-116.79458889
 20
-220.49195069
 30
0.0
 11
-116.82309719
 21
-220.37771941
 31
0.0
  0
LINE
  5
5A
100
AcDbEntity
  8
LAYER0001
  6
CONTINUOUS
 62
       7
100
AcDbLine
 10
-116.82309719
 20
-220.37771941
 30
0.0
 11
-116.85171564
 21
-220.26350095
 31
0.0
  0
ENDBLK
  5
5B
100
AcDbEntity
  8
0
100
AcDbBlockEnd
  0
BLOCK
  5
5C
100
AcDbEntity
  8
0
100
AcDbBlockBegin
  2
GROUP_2
 70
       0
 10
0.0
 20
0.0
 30
0.0
  3
GROUP_2
  1

  0
LINE
  5
5D
100
AcDbEntity
  8
LAYER0001
  6
CONTINUOUS
 62
       7
100
AcDbLine
 10
-116.40513529
 20
-227.48037941
 30
0.0
 11
-116.40609914
 21
-227.53885974
 31
0.0
  0
LINE
  5
5E
100
AcDbEntity
  8
LAYER0001
  6
CONTINUOUS
 62
       7
100
AcDbLine
 10
-116.40609914
 20
-227.53885974
 30
0.0
 11
-116.40827164
 21
-227.59728676
 31
0.0
  0
LINE
  5
5F
100
AcDbEntity
  8
LAYER0001
  6
CONTINUOUS
 62
       7
100
AcDbLine
 10
-116.40827164
 20
-227.59728676
 30
0.0
 11
-116.41245504
 21
-227.65562509
 31
0.0
  0
LINE
  5
60
100
AcDbEntity
  8
LAYER0001
  6
CONTINUOUS
 62
       7
100
AcDbLine
 10
-116.41245504
 20
-227.65562509
 30
0.0
 11
-116.41865134
 21
-227.71387465
 31
0.0
  0
LINE
  5
61
100
AcDbEntity
  8
LAYER0001
  6
CONTINUOUS
 62
       7
100
AcDbLine
 10
-116.41865134
 20
-227.71387465
 30
0.0
 11
-116.42676906
 21
-227.77203948
 31
0.0
  0
LINE
  5
62
100
AcDbEntity
  8
LAYER0001
  6
CONTINUOUS
 62
       7
100
AcDbLine
 10
-116.42676906
 20
-227.77203948
 30
0.0
 11
-116.43671668
 21
-227.8301236
 31
0.0
  0
LINE
  5
63
100
AcDbEntity
  8
LAYER0001
  6
CONTINUOUS
 62
       7
100
AcDbLine
 10
-116.43671668
 20
-227.8301236
 30
0.0
 11
-116.44840272
 21
-227.88813106
 31
0.0
  0
LINE
  5
64
100
AcDbEntity
  8
LAYER0001
  6
CONTINUOUS
 62
       7
100
AcDbLine
 10
-116.44840272
 20
-227.88813106
 30
0.0
 11
-116.46173568
 21
-227.94606588
 31
0.0
  0
LINE
  5
65
100
AcDbEntity
  8
LAYER0001
  6
CONTINUOUS
 62
       7
100
AcDbLine
 10
-116.46173568
 20
-227.94606588
 30
0.0
 11
-116.47662407
 21
-228.00393211
 31
0.0
  0
LINE
  5
66
100
AcDbEntity
  8
LAYER0001
  6
CONTINUOUS
 62
       7
100
AcDbLine
 10
-116.47662407
 20
-228.00393211
 30
0.0
 11
-116.49297639
 21
-228.06173378
 31
0.0
  0
LINE
  5
67
100
AcDbEntity
  8
LAYER0001
  6
CONTINUOUS
 62
       7
100
AcDbLine
 10
-116.49297639
 20
-228.06173378
 30
0.0
 11
-116.51070114
 21
-228.11947492
 31
0.0
  0
LINE
  5
68
100
AcDbEntity
  8
LAYER0001
  6
CONTINUOUS
 62
       7
100
AcDbLine
 10
-116.51070114
 20
-228.11947492
 30
0.0
 11
-116.52970682
 21
-228.17715957
 31
0.0
  0
LINE
  5
69
100
AcDbEntity
  8
LAYER0001
  6
CONTINUOUS
 62
       7
100
AcDbLine
 10
-116.52970682
 20
-228.17715957
 30
0.0
 11
-116.54990195
 21
-228.23479176
 31
0.0
  0
LINE
  5
6A
100
AcDbEntity
  8
LAYER0001
  6
CONTINUOUS
 62
       7
100
AcDbLine
 10
-116.54990195
 20
-228.23479176
 30
0.0
 11
-116.57119503
 21
-228.29237553
 31
0.0
  0
LINE
  5
6B
100
AcDbEntity
  8
LAYER0001
  6
CONTINUOUS
 62
       7
100
AcDbLine
 10
-116.57119503
 20
-228.29237553
 30
0.0
 11
-116.59349456
 21
-228.34991491
 31
0.0
  0
LINE
  5
6C
100
AcDbEntity
  8
LAYER0001
  6
CONTINUOUS
 62
       7
100
AcDbLine
 10
-116.59349456
 20
-228.34991491
 30
0.0
 11
-116.61670904
 21
-228.40741395
 31
0.0
  0
LINE
  5
6D
100
AcDbEntity
  8
LAYER0001
  6
CONTINUOUS
 62
       7
100
AcDbLine
 10
-116.61670904
 20
-228.40741395
 30
0.0
 11
-116.64074699
 21
-228.46487667
 31
0.0
  0
LINE
  5
6E
100
AcDbEntity
  8
LAYER0001
  6
CONTINUOUS
 62
       7
100
AcDbLine
 10
-116.64074699
 20
-228.46487667
 30
0.0
 11
-116.6655169
 21
-228.5223071
 31
0.0
  0
LINE
  5
6F
100
AcDbEntity
  8
LAYER0001
  6
CONTINUOUS
 62
       7
100
AcDbLine
 10
-116.6655169
 20
-228.5223071
 30
0.0
 11
-116.69092728
 21
-228.57970929
 31
0.0
  0
LINE
  5
70
100
AcDbEntity
  8
LAYER0001
  6
CONTINUOUS
 62
       7
100
AcDbLine
 10
-116.69092728
 20
-228.57970929
 30
0.0
 11
-116.71688663
 21
-228.63708727
 31
0.0
  0
LINE
  5
71
100
AcDbEntity
  8
LAYER0001
  6
CONTINUOUS
 62
       7
100
AcDbLine
 10
-116.71688663
 20
-228.63708727
 30
0.0
 11
-116.74330346
 21
-228.69444508
 31
0.0
  0
LINE
  5
72
100
AcDbEntity
  8
LAYER0001
  6
CONTINUOUS
 62
       7
100
AcDbLine
 10
-116.74330346
 20
-228.69444508
 30
0.0
 11
-116.77008627
 21
-228.75178674
 31
0.0
  0
LINE
  5
73
100
AcDbEntity
  8
LAYER0001
  6
CONTINUOUS
 62
       7
100
AcDbLine
 10
-116.77008627
 20
-228.75178674
 30
0.0
 11
-116.79714357
 21
-228.8091163
 31
0.0
  0
LINE
  5
74
100
AcDbEntity
  8
LAYER0001
  6
CONTINUOUS
 62
       7
100
AcDbLine
 10
-116.79714357
 20
-228.8091163
 30
0.0
 11
-116.82438386
 21
-228.86643779
 31
0.0
  0
LINE
  5
75
100
AcDbEntity
  8
LAYER0001
  6
CONTINUOUS
 62
       7
100
AcDbLine
 10
-116.82438386
 20
-228.86643779
 30
0.0
 11
-116.85171564
 21
-228.92375525
 31
0.0
  0
ENDBLK
  5
76
100
AcDbEntity
  8
0
100
AcDbBlockEnd
  0
BLOCK
  5
77
100
AcDbEntity
  8
0
100
AcDbBlockBegin
  2
GROUP_3
 70
       0
 10
0.0
 20
0.0
 30
0.0
  3
GROUP_3
  1

  0
LINE
  5
78
100
AcDbEntity
  8
LAYER0001
  6
CONTINUOUS
 62
       7
100
AcDbLine
 10
-116.40513529
 20
-218.82012535
 30
0.0
 11
-116.40609914
 21
-218.76164502
 31
0.0
  0
LINE
  5
79
100
AcDbEntity
  8
LAYER0001
  6
CONTINUOUS
 62
       7
100
AcDbLine
 10
-116.40609914
 20
-218.76164502
 30
0.0
 11
-116.40827164
 21
-218.703218
 31
0.0
  0
LINE
  5
7A
100
AcDbEntity
  8
LAYER0001
  6
CONTINUOUS
 62
       7
100
AcDbLine
 10
-116.40827164
 20
-218.703218
 30
0.0
 11
-116.41245504
 21
-218.64487967
 31
0.0
  0
LINE
  5
7B
100
AcDbEntity
  8
LAYER0001
  6
CONTINUOUS
 62
       7
100
AcDbLine
 10
-116.41245504
 20
-218.64487967
 30
0.0
 11
-116.41865134
 21
-218.58663011
 31
0.0
  0
LINE
  5
7C
100
AcDbEntity
  8
LAYER0001
  6
CONTINUOUS
 62
       7
100
AcDbLine
 10
-116.41865134
 20
-218.58663011
 30
0.0
 11
-116.42676906
 21
-218.52846528
 31
0.0
  0
LINE
  5
7D
100
AcDbEntity
  8
LAYER0001
  6
CONTINUOUS
 62
       7
100
AcDbLine
 10
-116.42676906
 20
-218.52846528
 30
0.0
 11
-116.43671668
 21
-218.47038116
 31
0.0
  0
LINE
  5
7E
100
AcDbEntity
  8
LAYER0001
  6
CONTINUOUS
 62
       7
100
AcDbLine
 10
-116.43671668
 20
-218.47038116
 30
0.0
 11
-116.44840272
 21
-218.4123737
 31
0.0
  0
LINE
  5
7F
100
AcDbEntity
  8
LAYER0001
  6
CONTINUOUS
 62
       7
100
AcDbLine
 10
-116.44840272
 20
-218.4123737
 30
0.0
 11
-116.46173568
 21
-218.35443888
 31
0.0
  0
LINE
  5
80
100
AcDbEntity
  8
LAYER0001
  6
CONTINUOUS
 62
       7
100
AcDbLine
 10
-116.46173568
 20
-218.35443888
 30
0.0
 11
-116.47662407
 21
-218.29657265
 31
0.0
  0
LINE
  5
81
100
AcDbEntity
  8
LAYER0001
  6
CONTINUOUS
 62
       7
100
AcDbLine
 10
-116.47662407
 20
-218.29657265
 30
0.0
 11
-116.49297639
 21
-218.23877098
 31
0.0
  0
LINE
  5
82
100
AcDbEntity
  8
LAYER0001
  6
CONTINUOUS
 62
       7
100
AcDbLine
 10
-116.49297639
 20
-218.23877098
 30
0.0
 11
-116.51070114
 21
-218.18102984
 31
0.0
  0
LINE
  5
83
100
AcDbEntity
  8
LAYER0001
  6
CONTINUOUS
 62
       7
100
AcDbLine
 10
-116.51070114
 20
-218.18102984
 30
0.0
 11
-116.52970682
 21
-218.12334519
 31
0.0
  0
LINE
  5
84
100
AcDbEntity
  8
LAYER0001
  6
CONTINUOUS
 62
       7
100
AcDbLine
 10
-116.52970682
 20
-218.12334519
 30
0.0
 11
-116.54990195
 21
-218.065713
 31
0.0
  0
LINE
  5
85
100
AcDbEntity
  8
LAYER0001
  6
CONTINUOUS
 62
       7
100
AcDbLine
 10
-116.54990195
 20
-218.065713
 30
0.0
 11
-116.57119503
 21
-218.00812923
 31
0.0
  0
LINE
  5
86
100
AcDbEntity
  8
LAYER0001
  6
CONTINUOUS
 62
       7
100
AcDbLine
 10
-116.57119503
 20
-218.00812923
 30
0.0
 11
-116.59349456
 21
-217.95058985
 31
0.0
  0
LINE
  5
87
100
AcDbEntity
  8
LAYER0001
  6
CONTINUOUS
 62
       7
100
AcDbLine
 10
-116.59349456
 20
-217.95058985
 30
0.0
 11
-116.61670904
 21
-217.89309081
 31
0.0
  0
LINE
  5
88
100
AcDbEntity
  8
LAYER0001
  6
CONTINUOUS
 62
       7
100
AcDbLine
 10
-116.61670904
 20
-217.89309081
 30
0.0
 11
-116.64074699
 21
-217.83562809
 31
0.0
  0
LINE
  5
89
100
AcDbEntity
  8
LAYER0001
  6
CONTINUOUS
 62
       7
100
AcDbLine
 10
-116.64074699
 20
-217.83562809
 30
0.0
 11
-116.6655169
 21
-217.77819766
 31
0.0
  0
LINE
  5
8A
100
AcDbEntity
  8
LAYER0001
  6
CONTINUOUS
 62
       7
100
AcDbLine
 10
-116.6655169
 20
-217.77819766
 30
0.0
 11
-116.69092728
 21
-217.72079547
 31
0.0
  0
LINE
  5
8B
100
AcDbEntity
  8
LAYER0001
  6
CONTINUOUS
 62
       7
100
AcDbLine
 10
-116.69092728
 20
-217.72079547
 30
0.0
 11
-116.71688663
 21
-217.66341749
 31
0.0
  0
LINE
  5
8C
100
AcDbEntity
  8
LAYER0001
  6
CONTINUOUS
 62
       7
100
AcDbLine
 10
-116.71688663
 20
-217.66341749
 30
0.0
 11
-116.74330346
 21
-217.60605968
 31
0.0
  0
LINE
  5
8D
100
AcDbEntity
  8
LAYER0001
  6
CONTINUOUS
 62
       7
100
AcDbLine
 10
-116.74330346
 20
-217.60605968
 30
0.0
 11
-116.77008627
 21
-217.54871802
 31
0.0
  0
LINE
  5
8E
100
AcDbEntity
  8
LAYER0001
  6
CONTINUOUS
 62
       7
100
AcDbLine
 10
-116.77008627
 20
-217.54871802
 30
0.0
 11
-116.79714357
 21
-217.49138846
 31
0.0
  0
LINE
  5
8F
100
AcDbEntity
  8
LAYER0001
  6
CONTINUOUS
 62
       7
100
AcDbLine
 10
-116.79714357
 20
-217.49138846
 30
0.0
 11
-116.82438386
 21
-217.43406697
 31
0.0
  0
LINE
  5
90
100
AcDbEntity
  8
LAYER0001
  6
CONTINUOUS
 62
       7
100
AcDbLine
 10
-116.82438386
 20
-217.43406697
 30
0.0
 11
-116.85171564
 21
-217.37674951
 31
0.0
  0
ENDBLK
  5
91
100
AcDbEntity
  8
0
100
AcDbBlockEnd
  0
BLOCK
  5
92
100
AcDbEntity
  8
0
100
AcDbBlockBegin
  2
GROUP_4
 70
       0
 10
0.0
 20
0.0
 30
0.0
  3
GROUP_4
  1

  0
LINE
  5
93
100
AcDbEntity
  8
LAYER0001
  6
CONTINUOUS
 62
       7
100
AcDbLine
 10
-116.40513529
 20
-223.15025238
 30
0.0
 11
-116.40791404
 21
-223.26747783
 31
0.0
  0
LINE
  5
94
100
AcDbEntity
  8
LAYER0001
  6
CONTINUOUS
 62
       7
100
AcDbLine
 10
-116.40791404
 20
-223.26747783
 30
0.0
 11
-116.4110282
 21
-223.38466424
 31
0.0
  0
LINE
  5
95
100
AcDbEntity
  8
LAYER0001
  6
CONTINUOUS
 62
       7
100
AcDbLine
 10
-116.4110282
 20
-223.38466424
 30
0.0
 11
-116.41481317
 21
-223.50177259
 31
0.0
  0
LINE
  5
96
100
AcDbEntity
  8
LAYER0001
  6
CONTINUOUS
 62
       7
100
AcDbLine
 10
-116.41481317
 20
-223.50177259
 30
0.0
 11
-116.41960437
 21
-223.61876384
 31
0.0
  0
LINE
  5
97
100
AcDbEntity
  8
LAYER0001
  6
CONTINUOUS
 62
       7
100
AcDbLine
 10
-116.41960437
 20
-223.61876384
 30
0.0
 11
-116.42573721
 21
-223.73559897
 31
0.0
  0
LINE
  5
98
100
AcDbEntity
  8
LAYER0001
  6
CONTINUOUS
 62
       7
100
AcDbLine
 10
-116.42573721
 20
-223.73559897
 30
0.0
 11
-116.43354708
 21
-223.85223894
 31
0.0
  0
LINE
  5
99
100
AcDbEntity
  8
LAYER0001
  6
CONTINUOUS
 62
       7
100
AcDbLine
 10
-116.43354708
 20
-223.85223894
 30
0.0
 11
-116.44332859
 21
-223.96864947
 31
0.0
  0
LINE
  5
9A
100
AcDbEntity
  8
LAYER0001
  6
CONTINUOUS
 62
       7
100
AcDbLine
 10
-116.44332859
 20
-223.96864947
 30
0.0
 11
-116.45509254
 21
-224.08482931
 31
0.0
  0
LINE
  5
9B
100
AcDbEntity
  8
LAYER0001
  6
CONTINUOUS
 62
       7
100
AcDbLine
 10
-116.45509254
 20
-224.08482931
 30
0.0
 11
-116.46872922
 21
-224.20079121
 31
0.0
  0
LINE
  5
9C
100
AcDbEntity
  8
LAYER0001
  6
CONTINUOUS
 62
       7
100
AcDbLine
 10
-116.46872922
 20
-224.20079121
 30
0.0
 11
-116.48412845
 21
-224.316548
 31
0.0
  0
LINE
  5
9D
100
AcDbEntity
  8
LAYER0001
  6
CONTINUOUS
 62
       7
100
AcDbLine
 10
-116.48412845
 20
-224.316548
 30
0.0
 11
-116.50118009
 21
-224.4321125
 31
0.0
  0
LINE
  5
9E
100
AcDbEntity
  8
LAYER0001
  6
CONTINUOUS
 62
       7
100
AcDbLine
 10
-116.50118009
 20
-224.4321125
 30
0.0
 11
-116.51977398
 21
-224.54749753
 31
0.0
  0
LINE
  5
9F
100
AcDbEntity
  8
LAYER0001
  6
CONTINUOUS
 62
       7
100
AcDbLine
 10
-116.51977398
 20
-224.54749753
 30
0.0
 11
-116.53979994
 21
-224.66271591
 31
0.0
  0
LINE
  5
A0
100
AcDbEntity
  8
LAYER0001
  6
CONTINUOUS
 62
       7
100
AcDbLine
 10
-116.53979994
 20
-224.66271591
 30
0.0
 11
-116.56114783
 21
-224.77778045
 31
0.0
  0
LINE
  5
A1
100
AcDbEntity
  8
LAYER0001
  6
CONTINUOUS
 62
       7
100
AcDbLine
 10
-116.56114783
 20
-224.77778045
 30
0.0
 11
-116.58370748
 21
-224.89270398
 31
0.0
  0
LINE
  5
A2
100
AcDbEntity
  8
LAYER0001
  6
CONTINUOUS
 62
       7
100
AcDbLine
 10
-116.58370748
 20
-224.89270398
 30
0.0
 11
-116.60736873
 21
-225.00749932
 31
0.0
  0
LINE
  5
A3
100
AcDbEntity
  8
LAYER0001
  6
CONTINUOUS
 62
       7
100
AcDbLine
 10
-116.60736873
 20
-225.00749932
 30
0.0
 11
-116.63202143
 21
-225.12217928
 31
0.0
  0
LINE
  5
A4
100
AcDbEntity
  8
LAYER0001
  6
CONTINUOUS
 62
       7
100
AcDbLine
 10
-116.63202143
 20
-225.12217928
 30
0.0
 11
-116.6575554
 21
-225.23675668
 31
0.0
  0
LINE
  5
A5
100
AcDbEntity
  8
LAYER0001
  6
CONTINUOUS
 62
       7
100
AcDbLine
 10
-116.6575554
 20
-225.23675668
 30
0.0
 11
-116.6838605
 21
-225.35124436
 31
0.0
  0
LINE
  5
A6
100
AcDbEntity
  8
LAYER0001
  6
CONTINUOUS
 62
       7
100
AcDbLine
 10
-116.6838605
 20
-225.35124436
 30
0.0
 11
-116.71082655
 21
-225.46565511
 31
0.0
  0
LINE
  5
A7
100
AcDbEntity
  8
LAYER0001
  6
CONTINUOUS
 62
       7
100
AcDbLine
 10
-116.71082655
 20
-225.46565511
 30
0.0
 11
-116.73834341
 21
-225.58000177
 31
0.0
  0
LINE
  5
A8
100
AcDbEntity
  8
LAYER0001
  6
CONTINUOUS
 62
       7
100
AcDbLine
 10
-116.73834341
 20
-225.58000177
 30
0.0
 11
-116.76630091
 21
-225.69429715
 31
0.0
  0
LINE
  5
A9
100
AcDbEntity
  8
LAYER0001
  6
CONTINUOUS
 62
       7
100
AcDbLine
 10
-116.76630091
 20
-225.69429715
 30
0.0
 11
-116.79458889
 21
-225.80855407
 31
0.0
  0
LINE
  5
AA
100
AcDbEntity
  8
LAYER0001
  6
CONTINUOUS
 62
       7
100
AcDbLine
 10
-116.79458889
 20
-225.80855407
 30
0.0
 11
-116.82309719
 21
-225.92278535
 31
0.0
  0
LINE
  5
AB
100
AcDbEntity
  8
LAYER0001
  6
CONTINUOUS
 62
       7
100
AcDbLine
 10
-116.82309719
 20
-225.92278535
 30
0.0
 11
-116.85171564
 21
-226.03700381
 31
0.0
  0
ENDBLK
  5
AC
100
AcDbEntity
  8
0
100
AcDbBlockEnd
  0
ENDSEC
  0
SECTION
  2
ENTITIES
  0
LINE
  5
AD
100
AcDbEntity
  8
LAYER0003
  6
CONTINUOUS
 62
       7
100
AcDbLine
 10
-151.4551345
 20
-111.45406193
 30
0.0
 11
-151.4551345
 21
-110.75406196
 31
0.0
  0
LINE
  5
AE
100
AcDbEntity
  8
LAYER0003
  6
CONTINUOUS
 62
       7
100
AcDbLine
 10
-158.45513565
 20
-115.25406188
 30
0.0
 11
-158.45513565
 21
-120.25406177
 31
0.0
  0
LINE
  5
AF
100
AcDbEntity
  8
LAYER0003
  6
CONTINUOUS
 62
       7
100
AcDbLine
 10
-151.4551345
 20
-110.75406196
 30
0.0
 11
-161.45513428
 21
-110.75406196
 31
0.0
  0
LINE
  5
B0
100
AcDbEntity
  8
LAYER0003
  6
CONTINUOUS
 62
       7
100
AcDbLine
 10
-156.45513532
 20
-114.94145461
 30
0.0
 11
-156.45513532
 21
-111.45406193
 31
0.0
  0
LINE
  5
B1
100
AcDbEntity
  8
LAYER0003
  6
CONTINUOUS
 62
       7
100
AcDbLine
 10
-159.95513496
 20
-115.25406188
 30
0.0
 11
-159.95513496
 21
-111.45406193
 31
0.0
  0
LINE
  5
B2
100
AcDbEntity
  8
LAYER0003
  6
CONTINUOUS
 62
       7
100
AcDbLine
 10
-158.45513565
 20
-120.25406177
 30
0.0
 11
-154.45513499
 21
-120.25406177
 31
0.0
  0
LINE
  5
B3
100
AcDbEntity
  8
LAYER0003
  6
CONTINUOUS
 62
       7
100
AcDbLine
 10
-161.45513428
 20
-110.75406196
 30
0.0
 11
-161.45513428
 21
-111.45406193
 31
0.0
  0
LINE
  5
B4
100
AcDbEntity
  8
LAYER0003
  6
CONTINUOUS
 62
       7
100
AcDbLine
 10
-154.45513499
 20
-120.25406177
 30
0.0
 11
-154.45513499
 21
-115.25406188
 31
0.0
  0
LINE
  5
B5
100
AcDbEntity
  8
LAYER0003
  6
CONTINUOUS
 62
       7
100
AcDbLine
 10
-151.4551345
 20
-111.45406193
 30
0.0
 11
-161.45513428
 21
-111.45406193
 31
0.0
  0
LINE
  5
B6
100
AcDbEntity
  8
LAYER0003
  6
CONTINUOUS
 62
       7
100
AcDbLine
 10
-152.95513474
 20
-115.25406188
 30
0.0
 11
-152.95513474
 21
-111.45406193
 31
0.0
  0
LINE
  5
B7
100
AcDbEntity
  8
LAYER0003
  6
CONTINUOUS
 62
       7
100
AcDbLine
 10
-152.95513474
 20
-115.25406188
 30
0.0
 11
-159.95513496
 21
-115.25406188
 31
0.0
  0
LINE
  5
B8
100
AcDbEntity
  8
LAYER0003
  6
CONTINUOUS
 62
       7
100
AcDbLine
 10
-132.8355876
 20
-111.45406193
 30
0.0
 11
-132.8355876
 21
-110.75406196
 31
0.0
  0
LINE
  5
B9
100
AcDbEntity
  8
LAYER0003
  6
CONTINUOUS
 62
       7
100
AcDbLine
 10
-139.83558875
 20
-115.25406188
 30
0.0
 11
-139.83558875
 21
-120.25406177
 31
0.0
  0
LINE
  5
BA
100
AcDbEntity
  8
LAYER0003
  6
CONTINUOUS
 62
       7
100
AcDbLine
 10
-132.8355876
 20
-110.75406196
 30
0.0
 11
-142.83558738
 21
-110.75406196
 31
0.0
  0
LINE
  5
BB
100
AcDbEntity
  8
LAYER0003
  6
CONTINUOUS
 62
       7
100
AcDbLine
 10
-137.83558842
 20
-114.94145461
 30
0.0
 11
-137.83558842
 21
-111.45406193
 31
0.0
  0
LINE
  5
BC
100
AcDbEntity
  8
LAYER0003
  6
CONTINUOUS
 62
       7
100
AcDbLine
 10
-141.33558806
 20
-115.25406188
 30
0.0
 11
-141.33558806
 21
-111.45406193
 31
0.0
  0
LINE
  5
BD
100
AcDbEntity
  8
LAYER0003
  6
CONTINUOUS
 62
       7
100
AcDbLine
 10
-139.83558875
 20
-120.25406177
 30
0.0
 11
-135.83558809
 21
-120.25406177
 31
0.0
  0
LINE
  5
BE
100
AcDbEntity
  8
LAYER0003
  6
CONTINUOUS
 62
       7
100
AcDbLine
 10
-142.83558738
 20
-110.75406196
 30
0.0
 11
-142.83558738
 21
-111.45406193
 31
0.0
  0
LINE
  5
BF
100
AcDbEntity
  8
LAYER0003
  6
CONTINUOUS
 62
       7
100
AcDbLine
 10
-135.83558809
 20
-120.25406177
 30
0.0
 11
-135.83558809
 21
-115.25406188
 31
0.0
  0
LINE
  5
C0
100
AcDbEntity
  8
LAYER0003
  6
CONTINUOUS
 62
       7
100
AcDbLine
 10
-132.8355876
 20
-111.45406193
 30
0.0
 11
-142.83558738
 21
-111.45406193
 31
0.0
  0
LINE
  5
C1
100
AcDbEntity
  8
LAYER0003
  6
CONTINUOUS
 62
       7
100
AcDbLine
 10
-134.33558784
 20
-115.25406188
 30
0.0
 11
-134.33558784
 21
-111.45406193
 31
0.0
  0
LINE
  5
C2
100
AcDbEntity
  8
LAYER0003
  6
CONTINUOUS
 62
       7
100
AcDbLine
 10
-134.33558784
 20
-115.25406188
 30
0.0
 11
-141.33558806
 21
-115.25406188
 31
0.0
  0
LINE
  5
C3
100
AcDbEntity
  8
LAYER0004
  6
CONTINUOUS
 62
       7
100
AcDbLine
 10
-126.65513541
 20
-28.75406167
 30
0.0
 11
-126.65513541
 21
-28.21816376
 31
0.0
  0
LINE
  5
C4
100
AcDbEntity
  8
LAYER0004
  6
CONTINUOUS
 62
       7
100
AcDbLine
 10
-127.01240007
 20
-29.37286219
 30
0.0
 11
-126.65513541
 21
-28.21816376
 31
0.0
  0
LINE
  5
C5
100
AcDbEntity
  8
LAYER0004
  6
CONTINUOUS
 62
       7
100
AcDbLine
 10
-127.01240007
 20
-27.06346533
 30
0.0
 11
-127.46435787
 21
-27.06345788
 31
0.0
  0
LINE
  5
C6
100
AcDbEntity
  8
LAYER0004
  6
CONTINUOUS
 62
       7
100
AcDbLine
 10
-126.65513541
 20
-28.75406167
 30
0.0
 11
-127.01240007
 21
-29.37286219
 31
0.0
  0
LINE
  5
C7
100
AcDbEntity
  8
LAYER0004
  6
CONTINUOUS
 62
       7
100
AcDbLine
 10
-114.75513328
 20
-19.25406477
 30
0.0
 11
-115.10513548
 21
-19.25406477
 31
0.0
  0
LINE
  5
C8
100
AcDbEntity
  8
LAYER0004
  6
CONTINUOUS
 62
       7
100
AcDbLine
 10
-115.10513548
 20
-30.25406471
 30
0.0
 11
-114.75513328
 21
-30.25406471
 31
0.0
  0
LINE
  5
C9
100
AcDbEntity
  8
LAYER0004
  6
CONTINUOUS
 62
       7
100
AcDbLine
 10
-116.40513513
 20
-27.92905888
 30
0.0
 11
-115.10513548
 21
-27.92905888
 31
0.0
  0
LINE
  5
CA
100
AcDbEntity
  8
LAYER0004
  6
CONTINUOUS
 62
       7
100
AcDbLine
 10
-115.10513548
 20
-21.57906315
 30
0.0
 11
-116.40513513
 21
-21.57906315
 31
0.0
  0
LINE
  5
CB
100
AcDbEntity
  8
LAYER0004
  6
CONTINUOUS
 62
       7
100
AcDbLine
 10
-100.65513722
 20
-24.75406052
 30
0.0
 11
-100.65513722
 21
-18.65406206
 31
0.0
  0
LINE
  5
CC
100
AcDbEntity
  8
LAYER0004
  6
CONTINUOUS
 62
       7
100
AcDbLine
 10
-114.75513328
 20
-31.25405928
 30
0.0
 11
-107.15513501
 21
-31.25405928
 31
0.0
  0
LINE
  5
CD
100
AcDbEntity
  8
LAYER0004
  6
CONTINUOUS
 62
       7
100
AcDbLine
 10
-101.15513403
 20
-18.65406206
 30
0.0
 11
-101.15513508
 21
-8.3986273
 31
0.0
  0
LINE
  5
CE
100
AcDbEntity
  8
LAYER0004
  6
CONTINUOUS
 62
       7
100
AcDbLine
 10
-113.15513508
 20
-8.3986273
 30
0.0
 11
-113.15513599
 21
-18.65406206
 31
0.0
  0
LINE
  5
CF
100
AcDbEntity
  8
LAYER0004
  6
CONTINUOUS
 62
       7
100
AcDbLine
 10
-101.38011747
 20
1.08516626
 30
0.0
 11
-101.62985894
 21
6.34593645
 31
0.0
  0
LINE
  5
D0
100
AcDbEntity
  8
LAYER0004
  6
CONTINUOUS
 62
       7
100
AcDbLine
 10
-112.68041107
 20
6.34593645
 30
0.0
 11
-112.93015268
 21
1.08516626
 31
0.0
  0
LINE
  5
D1
100
AcDbEntity
  8
LAYER0004
  6
CONTINUOUS
 62
       7
100
AcDbLine
 10
-101.67733032
 20
7.34593847
 30
0.0
 11
-101.74853924
 21
8.84594151
 31
0.0
  0
LINE
  5
D2
100
AcDbEntity
  8
LAYER0004
  6
CONTINUOUS
 62
       7
100
AcDbLine
 10
-112.56173078
 20
8.84594151
 30
0.0
 11
-112.6329397
 21
7.34593847
 31
0.0
  0
LINE
  5
D3
100
AcDbEntity
  8
LAYER0004
  6
CONTINUOUS
 62
       7
100
AcDbLine
 10
-101.79601062
 20
9.84593609
 30
0.0
 11
-101.86721954
 21
11.34593913
 31
0.0
  0
LINE
  5
D4
100
AcDbEntity
  8
LAYER0004
  6
CONTINUOUS
 62
       7
100
AcDbLine
 10
-112.44305048
 20
11.34593913
 30
0.0
 11
-112.5142594
 21
9.84593609
 31
0.0
  0
LINE
  5
D5
100
AcDbEntity
  8
LAYER0004
  6
CONTINUOUS
 62
       7
100
AcDbLine
 10
-101.91469464
 20
12.34594116
 30
0.0
 11
-103.65513537
 21
49.00815466
 31
0.0
  0
LINE
  5
D6
100
AcDbEntity
  8
LAYER0004
  6
CONTINUOUS
 62
       7
100
AcDbLine
 10
-110.65513465
 20
49.00815466
 30
0.0
 11
-112.39557538
 21
12.34594116
 31
0.0
  0
LINE
  5
D7
100
AcDbEntity
  8
LAYER0004
  6
CONTINUOUS
 62
       7
100
AcDbLine
 10
-102.13042248
 20
6.34593645
 30
0.0
 11
-102.17789385
 21
7.34593847
 31
0.0
  0
LINE
  5
D8
100
AcDbEntity
  8
LAYER0004
  6
CONTINUOUS
 62
       7
100
AcDbLine
 10
-112.13237617
 20
7.34593847
 30
0.0
 11
-112.17984754
 21
6.34593645
 31
0.0
  0
LINE
  5
D9
100
AcDbEntity
  8
LAYER0004
  6
CONTINUOUS
 62
       7
100
AcDbLine
 10
-102.24910278
 20
8.84594151
 30
0.0
 11
-102.29657415
 21
9.84593609
 31
0.0
  0
LINE
  5
DA
100
AcDbEntity
  8
LAYER0004
  6
CONTINUOUS
 62
       7
100
AcDbLine
 10
-112.01369587
 20
9.84593609
 30
0.0
 11
-112.06116724
 21
8.84594151
 31
0.0
  0
LINE
  5
DB
100
AcDbEntity
  8
LAYER0004
  6
CONTINUOUS
 62
       7
100
AcDbLine
 10
-102.36778307
 20
11.34593913
 30
0.0
 11
-102.41525445
 21
12.34594116
 31
0.0
  0
LINE
  5
DC
100
AcDbEntity
  8
LAYER0004
  6
CONTINUOUS
 62
       7
100
AcDbLine
 10
-111.89501557
 20
12.34594116
 30
0.0
 11
-111.94248695
 21
11.34593913
 31
0.0
  0
LINE
  5
DD
100
AcDbEntity
  8
LAYER0004
  6
CONTINUOUS
 62
       7
100
AcDbLine
 10
-180.07468071
 20
-110.75406196
 30
0.0
 11
-180.07468071
 21
-111.45406193
 31
0.0
  0
LINE
  5
DE
100
AcDbEntity
  8
LAYER0004
  6
CONTINUOUS
 62
       7
100
AcDbLine
 10
-170.07468093
 20
-111.45406193
 30
0.0
 11
-170.07468093
 21
-110.75406196
 31
0.0
  0
LINE
  5
DF
100
AcDbEntity
  8
LAYER0004
  6
CONTINUOUS
 62
       7
100
AcDbLine
 10
-126.65513541
 20
-20.75406036
 30
0.0
 11
-127.01240007
 21
-20.13525984
 31
0.0
  0
LINE
  5
E0
100
AcDbEntity
  8
LAYER0004
  6
CONTINUOUS
 62
       7
100
AcDbLine
 10
-126.45513574
 20
-16.80695882
 30
0.0
 11
-126.45513574
 21
40.24594405
 31
0.0
  0
LINE
  5
E1
100
AcDbEntity
  8
LAYER0004
  6
CONTINUOUS
 62
       7
100
AcDbLine
 10
-126.45513575
 20
-85.25406255
 30
0.0
 11
-126.45513575
 21
-32.64591715
 31
0.0
  0
LINE
  5
E2
100
AcDbEntity
  8
LAYER0004
  6
CONTINUOUS
 62
       7
100
AcDbLine
 10
-186.45513441
 20
40.24594405
 30
0.0
 11
-186.45513441
 21
-85.25406255
 31
0.0
  0
LINE
  5
E3
100
AcDbEntity
  8
LAYER0004
  6
CONTINUOUS
 62
       7
100
AcDbLine
 10
-177.07468208
 20
-109.75406191
 30
0.0
 11
-177.07468208
 21
-110.75406196
 31
0.0
  0
LINE
  5
E4
100
AcDbEntity
  8
LAYER0004
  6
CONTINUOUS
 62
       7
100
AcDbLine
 10
-177.07468208
 20
-115.25406188
 30
0.0
 11
-177.07468208
 21
-120.25406177
 31
0.0
  0
LINE
  5
E5
100
AcDbEntity
  8
LAYER0004
  6
CONTINUOUS
 62
       7
100
AcDbLine
 10
-173.07468142
 20
-120.25406177
 30
0.0
 11
-173.07468142
 21
-115.25406188
 31
0.0
  0
LINE
  5
E6
100
AcDbEntity
  8
LAYER0004
  6
CONTINUOUS
 62
       7
100
AcDbLine
 10
-173.07468142
 20
-110.75406196
 30
0.0
 11
-173.07468142
 21
-109.75406191
 31
0.0
  0
LINE
  5
E7
100
AcDbEntity
  8
LAYER0004
  6
CONTINUOUS
 62
       7
100
AcDbLine
 10
-139.83558874
 20
-109.75406191
 30
0.0
 11
-139.83558874
 21
-110.75406196
 31
0.0
  0
LINE
  5
E8
100
AcDbEntity
  8
LAYER0004
  6
CONTINUOUS
 62
       7
100
AcDbLine
 10
-135.83558809
 20
-110.75406196
 30
0.0
 11
-135.83558809
 21
-109.75406191
 31
0.0
  0
LINE
  5
E9
100
AcDbEntity
  8
LAYER0004
  6
CONTINUOUS
 62
       7
100
AcDbLine
 10
-158.45513518
 20
-109.75406191
 30
0.0
 11
-158.45513518
 21
-110.75406196
 31
0.0
  0
LINE
  5
EA
100
AcDbEntity
  8
LAYER0004
  6
CONTINUOUS
 62
       7
100
AcDbLine
 10
-154.45513499
 20
-110.75406196
 30
0.0
 11
-154.45513499
 21
-109.75406191
 31
0.0
  0
LINE
  5
EB
100
AcDbEntity
  8
LAYER0004
  6
CONTINUOUS
 62
       7
100
AcDbLine
 10
-126.45513575
 20
-109.75406191
 30
0.0
 11
-126.45513575
 21
-85.25406255
 31
0.0
  0
LINE
  5
EC
100
AcDbEntity
  8
LAYER0004
  6
CONTINUOUS
 62
       7
100
AcDbLine
 10
-186.45513441
 20
-85.25406255
 30
0.0
 11
-186.45513441
 21
-109.75406191
 31
0.0
  0
LINE
  5
ED
100
AcDbEntity
  8
LAYER0004
  6
CONTINUOUS
 62
       7
100
AcDbLine
 10
-176.45513495
 20
70.24593809
 30
0.0
 11
-176.45513495
 21
240.0295639
 31
0.0
  0
LINE
  5
EE
100
AcDbEntity
  8
LAYER0004
  6
CONTINUOUS
 62
       7
100
AcDbLine
 10
-172.9611234
 20
57.99593905
 30
0.0
 11
-139.94914677
 21
57.99593905
 31
0.0
  0
LINE
  5
EF
100
AcDbEntity
  8
LAYER0004
  6
CONTINUOUS
 62
       7
100
AcDbLine
 10
-174.39432453
 20
45.84593454
 30
0.0
 11
-174.39432453
 21
56.24593177
 31
0.0
  0
LINE
  5
F0
100
AcDbEntity
  8
LAYER0004
  6
CONTINUOUS
 62
       7
100
AcDbLine
 10
-172.9611234
 20
44.09594217
 30
0.0
 11
-139.94914677
 21
44.09594217
 31
0.0
  0
LINE
  5
F1
100
AcDbEntity
  8
LAYER0004
  6
CONTINUOUS
 62
       7
100
AcDbLine
 10
-138.51594563
 20
45.84593454
 30
0.0
 11
-138.51594563
 21
56.24593177
 31
0.0
  0
LINE
  5
F2
100
AcDbEntity
  8
LAYER0004
  6
CONTINUOUS
 62
       7
100
AcDbLine
 10
-126.45513574
 20
40.24594405
 30
0.0
 11
-186.45513441
 21
40.24594405
 31
0.0
  0
LINE
  5
F3
100
AcDbEntity
  8
LAYER0004
  6
CONTINUOUS
 62
       7
100
AcDbLine
 10
-124.75513491
 20
-24.75406101
 30
0.0
 11
-124.75513491
 21
-29.7540637
 31
0.0
  0
LINE
  5
F4
100
AcDbEntity
  8
LAYER0004
  6
CONTINUOUS
 62
       7
100
AcDbLine
 10
-116.85171548
 20
-29.7540637
 30
0.0
 11
-124.75513491
 21
-29.7540637
 31
0.0
  0
LINE
  5
F5
100
AcDbEntity
  8
LAYER0004
  6
CONTINUOUS
 62
       7
100
AcDbLine
 10
-116.40513513
 20
-22.2540634
 30
0.0
 11
-116.40513513
 21
-27.25405863
 31
0.0
  0
LINE
  5
F6
100
AcDbEntity
  8
LAYER0004
  6
CONTINUOUS
 62
       7
100
AcDbLine
 10
-116.85171548
 20
-19.75405833
 30
0.0
 11
-124.75513491
 21
-19.75405833
 31
0.0
  0
LINE
  5
F7
100
AcDbEntity
  8
LAYER0004
  6
CONTINUOUS
 62
       7
100
AcDbLine
 10
-124.75513491
 20
-19.75405833
 30
0.0
 11
-124.75513491
 21
-24.75406101
 31
0.0
  0
LINE
  5
F8
100
AcDbEntity
  8
LAYER0004
  6
CONTINUOUS
 62
       7
100
AcDbLine
 10
-115.10513548
 20
-19.25406477
 30
0.0
 11
-115.10513548
 21
-30.25406471
 31
0.0
  0
LINE
  5
F9
100
AcDbEntity
  8
LAYER0004
  6
CONTINUOUS
 62
       7
100
AcDbLine
 10
-116.40513513
 20
-27.25405863
 30
0.0
 11
-116.40513513
 21
-29.7540637
 31
0.0
  0
LINE
  5
FA
100
AcDbEntity
  8
LAYER0004
  6
CONTINUOUS
 62
       7
100
AcDbLine
 10
-116.40513513
 20
-19.75405833
 30
0.0
 11
-116.40513513
 21
-22.2540634
 31
0.0
  0
LINE
  5
FB
100
AcDbEntity
  8
LAYER0004
  6
CONTINUOUS
 62
       7
100
AcDbLine
 10
-107.15513501
 20
-18.65406206
 30
0.0
 11
-100.65513722
 21
-18.65406206
 31
0.0
  0
LINE
  5
FC
100
AcDbEntity
  8
LAYER0004
  6
CONTINUOUS
 62
       7
100
AcDbLine
 10
-114.75513328
 20
-18.65406206
 30
0.0
 11
-107.15513501
 21
-18.65406206
 31
0.0
  0
LINE
  5
FD
100
AcDbEntity
  8
LAYER0004
  6
CONTINUOUS
 62
       7
100
AcDbLine
 10
-114.75513328
 20
-18.65406206
 30
0.0
 11
-114.75513328
 21
-24.75406101
 31
0.0
  0
LINE
  5
FE
100
AcDbEntity
  8
LAYER0004
  6
CONTINUOUS
 62
       7
100
AcDbLine
 10
-114.75513328
 20
-24.75406101
 30
0.0
 11
-114.75513328
 21
-31.25405928
 31
0.0
  0
LINE
  5
FF
100
AcDbEntity
  8
LAYER0004
  6
CONTINUOUS
 62
       7
100
AcDbLine
 10
-101.62985894
 20
6.34593645
 30
0.0
 11
-112.68041107
 21
6.34593645
 31
0.0
  0
LINE
  5
100
100
AcDbEntity
  8
LAYER0004
  6
CONTINUOUS
 62
       7
100
AcDbLine
 10
-101.67733032
 20
7.34593847
 30
0.0
 11
-112.6329397
 21
7.34593847
 31
0.0
  0
LINE
  5
101
100
AcDbEntity
  8
LAYER0004
  6
CONTINUOUS
 62
       7
100
AcDbLine
 10
-101.74853924
 20
8.84594151
 30
0.0
 11
-112.56173078
 21
8.84594151
 31
0.0
  0
LINE
  5
102
100
AcDbEntity
  8
LAYER0004
  6
CONTINUOUS
 62
       7
100
AcDbLine
 10
-101.86721954
 20
11.34593913
 30
0.0
 11
-112.44305048
 21
11.34593913
 31
0.0
  0
LINE
  5
103
100
AcDbEntity
  8
LAYER0004
  6
CONTINUOUS
 62
       7
100
AcDbLine
 10
-101.79601062
 20
9.84593609
 30
0.0
 11
-112.5142594
 21
9.84593609
 31
0.0
  0
LINE
  5
104
100
AcDbEntity
  8
LAYER0004
  6
CONTINUOUS
 62
       7
100
AcDbLine
 10
-101.91469464
 20
12.34594116
 30
0.0
 11
-112.39557538
 21
12.34594116
 31
0.0
  0
LINE
  5
105
100
AcDbEntity
  8
LAYER0004
  6
CONTINUOUS
 62
       7
100
AcDbLine
 10
-170.07468093
 20
-110.75406196
 30
0.0
 11
-180.07468071
 21
-110.75406196
 31
0.0
  0
LINE
  5
106
100
AcDbEntity
  8
LAYER0004
  6
CONTINUOUS
 62
       7
100
AcDbLine
 10
-170.07468093
 20
-111.45406193
 30
0.0
 11
-180.07468071
 21
-111.45406193
 31
0.0
  0
LINE
  5
107
100
AcDbEntity
  8
LAYER0004
  6
CONTINUOUS
 62
       7
100
AcDbLine
 10
-175.07468175
 20
-114.94145461
 30
0.0
 11
-175.07468175
 21
-111.45406193
 31
0.0
  0
LINE
  5
108
100
AcDbEntity
  8
LAYER0004
  6
CONTINUOUS
 62
       7
100
AcDbLine
 10
-171.57468117
 20
-115.25406188
 30
0.0
 11
-171.57468117
 21
-111.45406193
 31
0.0
  0
LINE
  5
109
100
AcDbEntity
  8
LAYER0004
  6
CONTINUOUS
 62
       7
100
AcDbLine
 10
-178.57468139
 20
-115.25406188
 30
0.0
 11
-178.57468139
 21
-111.45406193
 31
0.0
  0
LINE
  5
10A
100
AcDbEntity
  8
LAYER0004
  6
CONTINUOUS
 62
       7
100
AcDbLine
 10
-171.57468117
 20
-115.25406188
 30
0.0
 11
-178.57468139
 21
-115.25406188
 31
0.0
  0
LINE
  5
10B
100
AcDbEntity
  8
LAYER0004
  6
CONTINUOUS
 62
       7
100
AcDbLine
 10
-186.45513441
 20
-107.75406181
 30
0.0
 11
-126.45513575
 21
-107.75406181
 31
0.0
  0
LINE
  5
10C
100
AcDbEntity
  8
LAYER0004
  6
CONTINUOUS
 62
       7
100
AcDbLine
 10
-186.45513441
 20
-109.75406191
 30
0.0
 11
-126.45513575
 21
-109.75406191
 31
0.0
  0
LINE
  5
10D
100
AcDbEntity
  8
LAYER0004
  6
CONTINUOUS
 62
       7
100
AcDbLine
 10
-169.20513484
 20
-32.75406232
 30
0.0
 11
-169.20513484
 21
15.24593809
 31
0.0
  0
LINE
  5
10E
100
AcDbEntity
  8
LAYER0004
  6
CONTINUOUS
 62
       7
100
AcDbLine
 10
-143.70513532
 20
15.24593809
 30
0.0
 11
-143.70513532
 21
-32.75406232
 31
0.0
  0
LINE
  5
10F
100
AcDbEntity
  8
LAYER0004
  6
CONTINUOUS
 62
       7
100
AcDbLine
 10
-126.65513541
 20
-24.75406101
 30
0.0
 11
-126.65513541
 21
-28.21816376
 31
0.0
  0
LINE
  5
110
100
AcDbEntity
  8
LAYER0004
  6
CONTINUOUS
 62
       7
100
AcDbLine
 10
-126.65513541
 20
-24.75406101
 30
0.0
 11
-126.65513541
 21
-21.28995827
 31
0.0
  0
LINE
  5
111
100
AcDbEntity
  8
LAYER0004
  6
CONTINUOUS
 62
       7
100
AcDbLine
 10
-127.01240007
 20
-22.44466415
 30
0.0
 11
-127.46435787
 21
-22.44466415
 31
0.0
  0
LINE
  5
112
100
AcDbEntity
  8
LAYER0004
  6
CONTINUOUS
 62
       7
100
AcDbLine
 10
-127.01240007
 20
-20.13525984
 30
0.0
 11
-126.65513541
 21
-21.28995827
 31
0.0
  0
LINE
  5
113
100
AcDbEntity
  8
LAYER0004
  6
CONTINUOUS
 62
       7
100
AcDbLine
 10
-126.65513541
 20
-20.75406036
 30
0.0
 11
-126.65513541
 21
-21.28995827
 31
0.0
  0
LINE
  5
114
100
AcDbEntity
  8
LAYER0004
  6
CONTINUOUS
 62
       7
100
AcDbLine
 10
-177.07468208
 20
-120.25406177
 30
0.0
 11
-173.07468142
 21
-120.25406177
 31
0.0
  0
LINE
  5
115
100
AcDbEntity
  8
LAYER0004
  6
CONTINUOUS
 62
       7
100
AcDbLine
 10
-186.45513441
 20
-85.25406255
 30
0.0
 11
-126.45513575
 21
-85.25406255
 31
0.0
  0
LINE
  5
116
100
AcDbEntity
  8
LAYER0004
  6
CONTINUOUS
 62
       7
100
AcDbLine
 10
-169.04955648
 20
-91.75406268
 30
0.0
 11
-143.86071369
 21
-91.75406268
 31
0.0
  0
LINE
  5
117
100
AcDbEntity
  8
LAYER0004
  6
CONTINUOUS
 62
       7
100
AcDbLine
 10
-170.40899966
 20
-92.75406098
 30
0.0
 11
-170.40899966
 21
-99.25406205
 31
0.0
  0
LINE
  5
118
100
AcDbEntity
  8
LAYER0004
  6
CONTINUOUS
 62
       7
100
AcDbLine
 10
-143.86071369
 20
-100.25406221
 30
0.0
 11
-169.04955648
 21
-100.25406221
 31
0.0
  0
LINE
  5
119
100
AcDbEntity
  8
LAYER0004
  6
CONTINUOUS
 62
       7
100
AcDbLine
 10
-142.50127051
 20
-92.75406098
 30
0.0
 11
-142.50127051
 21
-99.25406205
 31
0.0
  0
LINE
  5
11A
100
AcDbEntity
  8
LAYER0004
  6
CONTINUOUS
 62
       7
100
AcDbLine
 10
-169.68986217
 20
-95.30406224
 30
0.0
 11
-169.68986217
 21
-96.70406172
 31
0.0
  0
LINE
  5
11B
100
AcDbEntity
  8
LAYER0004
  6
CONTINUOUS
 62
       7
100
AcDbLine
 10
-143.220408
 20
-95.30406224
 30
0.0
 11
-143.220408
 21
-96.70406172
 31
0.0
  0
LINE
  5
11C
100
AcDbEntity
  8
LAYER0004
  6
CONTINUOUS
 62
       7
100
AcDbLine
 10
-169.68986217
 20
-96.70406172
 30
0.0
 11
-143.220408
 21
-96.70406172
 31
0.0
  0
LINE
  5
11D
100
AcDbEntity
  8
LAYER0004
  6
CONTINUOUS
 62
       7
100
AcDbLine
 10
-169.68986217
 20
-95.30406224
 30
0.0
 11
-143.220408
 21
-95.30406224
 31
0.0
  0
LINE
  5
11E
100
AcDbEntity
  8
LAYER0004
  6
CONTINUOUS
 62
       7
100
AcDbLine
 10
-147.95513462
 20
-100.25406221
 30
0.0
 11
-147.95513462
 21
-96.70406172
 31
0.0
  0
LINE
  5
11F
100
AcDbEntity
  8
LAYER0004
  6
CONTINUOUS
 62
       7
100
AcDbLine
 10
-147.95513462
 20
-95.30406224
 30
0.0
 11
-147.95513462
 21
-91.75406268
 31
0.0
  0
LINE
  5
120
100
AcDbEntity
  8
LAYER0004
  6
CONTINUOUS
 62
       7
100
AcDbLine
 10
-164.95513554
 20
-91.75406268
 30
0.0
 11
-164.95513554
 21
-95.30406224
 31
0.0
  0
LINE
  5
121
100
AcDbEntity
  8
LAYER0004
  6
CONTINUOUS
 62
       7
100
AcDbLine
 10
-164.95513554
 20
-96.70406172
 30
0.0
 11
-164.95513554
 21
-100.25406221
 31
0.0
  0
LINE
  5
122
100
AcDbEntity
  8
LAYER0004
  6
CONTINUOUS
 62
       7
100
AcDbLine
 10
70.73772227
 20
40.24594405
 30
0.0
 11
70.73772266
 21
68.4945525
 31
0.0
  0
LINE
  5
123
100
AcDbEntity
  8
LAYER0004
  6
CONTINUOUS
 62
       7
100
AcDbLine
 10
10.7377232
 20
68.4945525
 30
0.0
 11
10.7377236
 21
40.24594405
 31
0.0
  0
LINE
  5
124
100
AcDbEntity
  8
LAYER0004
  6
CONTINUOUS
 62
       7
100
AcDbLine
 10
46.73772293
 20
-18.65406206
 30
0.0
 11
46.73772293
 21
-8.3986273
 31
0.0
  0
LINE
  5
125
100
AcDbEntity
  8
LAYER0004
  6
CONTINUOUS
 62
       7
100
AcDbLine
 10
34.73772293
 20
-8.3986273
 30
0.0
 11
34.73772293
 21
-18.65406206
 31
0.0
  0
LINE
  5
126
100
AcDbEntity
  8
LAYER0004
  6
CONTINUOUS
 62
       7
100
AcDbLine
 10
46.51274054
 20
1.08516626
 30
0.0
 11
46.26299946
 21
6.34593645
 31
0.0
  0
LINE
  5
127
100
AcDbEntity
  8
LAYER0004
  6
CONTINUOUS
 62
       7
100
AcDbLine
 10
35.2124464
 20
6.34593645
 30
0.0
 11
34.96270533
 21
1.08516626
 31
0.0
  0
LINE
  5
128
100
AcDbEntity
  8
LAYER0004
  6
CONTINUOUS
 62
       7
100
AcDbLine
 10
46.21552669
 20
7.34593847
 30
0.0
 11
46.14431823
 21
8.84594151
 31
0.0
  0
LINE
  5
129
100
AcDbEntity
  8
LAYER0004
  6
CONTINUOUS
 62
       7
100
AcDbLine
 10
35.33112763
 20
8.84594151
 30
0.0
 11
35.25991917
 21
7.34593847
 31
0.0
  0
LINE
  5
12A
100
AcDbEntity
  8
LAYER0004
  6
CONTINUOUS
 62
       7
100
AcDbLine
 10
46.09684593
 20
9.84593609
 30
0.0
 11
46.02563747
 21
11.34593913
 31
0.0
  0
LINE
  5
12B
100
AcDbEntity
  8
LAYER0004
  6
CONTINUOUS
 62
       7
100
AcDbLine
 10
35.4498084
 20
11.34593913
 30
0.0
 11
35.37859994
 21
9.84593609
 31
0.0
  0
LINE
  5
12C
100
AcDbEntity
  8
LAYER0004
  6
CONTINUOUS
 62
       7
100
AcDbLine
 10
45.97816516
 20
12.34594116
 30
0.0
 11
44.23772304
 21
49.00815466
 31
0.0
  0
LINE
  5
12D
100
AcDbEntity
  8
LAYER0004
  6
CONTINUOUS
 62
       7
100
AcDbLine
 10
37.23772282
 20
49.00815466
 30
0.0
 11
35.4972807
 21
12.34594116
 31
0.0
  0
LINE
  5
12E
100
AcDbEntity
  8
LAYER0004
  6
CONTINUOUS
 62
       7
100
AcDbLine
 10
45.76243593
 20
6.34593645
 30
0.0
 11
45.71496363
 21
7.34593847
 31
0.0
  0
LINE
  5
12F
100
AcDbEntity
  8
LAYER0004
  6
CONTINUOUS
 62
       7
100
AcDbLine
 10
35.76048224
 20
7.34593847
 30
0.0
 11
35.71300993
 21
6.34593645
 31
0.0
  0
LINE
  5
130
100
AcDbEntity
  8
LAYER0004
  6
CONTINUOUS
 62
       7
100
AcDbLine
 10
45.64375517
 20
8.84594151
 30
0.0
 11
45.59628286
 21
9.84593609
 31
0.0
  0
LINE
  5
131
100
AcDbEntity
  8
LAYER0004
  6
CONTINUOUS
 62
       7
100
AcDbLine
 10
35.879163
 20
9.84593609
 30
0.0
 11
35.8316907
 21
8.84594151
 31
0.0
  0
LINE
  5
132
100
AcDbEntity
  8
LAYER0004
  6
CONTINUOUS
 62
       7
100
AcDbLine
 10
45.5250744
 20
11.34593913
 30
0.0
 11
45.4776021
 21
12.34594116
 31
0.0
  0
LINE
  5
133
100
AcDbEntity
  8
LAYER0004
  6
CONTINUOUS
 62
       7
100
AcDbLine
 10
35.99784377
 20
12.34594116
 30
0.0
 11
35.95037146
 21
11.34593913
 31
0.0
  0
LINE
  5
134
100
AcDbEntity
  8
LAYER0004
  6
CONTINUOUS
 62
       7
100
AcDbLine
 10
11.11955136
 20
27.99593804
 30
0.0
 11
10.98772215
 21
27.99593804
 31
0.0
  0
LINE
  5
135
100
AcDbEntity
  8
LAYER0004
  6
CONTINUOUS
 62
       7
100
AcDbLine
 10
10.98772232
 20
-45.50406194
 30
0.0
 11
11.11955174
 21
-45.50406194
 31
0.0
  0
LINE
  5
136
100
AcDbEntity
  8
LAYER0004
  6
CONTINUOUS
 62
       7
100
AcDbLine
 10
9.33772412
 20
-43.63739362
 30
0.0
 11
10.58772293
 21
-45.30406191
 31
0.0
  0
LINE
  5
137
100
AcDbEntity
  8
LAYER0004
  6
CONTINUOUS
 62
       7
100
AcDbLine
 10
10.58772293
 20
27.79593809
 30
0.0
 11
9.33772412
 21
26.12926939
 31
0.0
  0
LINE
  5
138
100
AcDbEntity
  8
LAYER0004
  6
CONTINUOUS
 62
       7
100
AcDbLine
 10
70.73772227
 20
-85.25406255
 30
0.0
 11
70.73772227
 21
40.24594405
 31
0.0
  0
LINE
  5
139
100
AcDbEntity
  8
LAYER0004
  6
CONTINUOUS
 62
       7
100
AcDbLine
 10
10.7377236
 20
-46.79238668
 30
0.0
 11
10.7377236
 21
-85.25406255
 31
0.0
  0
LINE
  5
13A
100
AcDbEntity
  8
LAYER0004
  6
CONTINUOUS
 62
       7
100
AcDbLine
 10
10.7377236
 20
40.24594405
 30
0.0
 11
10.7377236
 21
29.28426245
 31
0.0
  0
LINE
  5
13B
100
AcDbEntity
  8
LAYER0004
  6
CONTINUOUS
 62
       7
100
AcDbLine
 10
60.23772333
 20
-109.75406191
 30
0.0
 11
60.23772333
 21
-120.25406177
 31
0.0
  0
LINE
  5
13C
100
AcDbEntity
  8
LAYER0004
  6
CONTINUOUS
 62
       7
100
AcDbLine
 10
64.23772213
 20
-120.25406177
 30
0.0
 11
64.23772213
 21
-109.75406191
 31
0.0
  0
LINE
  5
13D
100
AcDbEntity
  8
LAYER0004
  6
CONTINUOUS
 62
       7
100
AcDbLine
 10
27.98772317
 20
-109.75406191
 30
0.0
 11
27.98772317
 21
-120.25406177
 31
0.0
  0
LINE
  5
13E
100
AcDbEntity
  8
LAYER0004
  6
CONTINUOUS
 62
       7
100
AcDbLine
 10
31.9877229
 20
-120.25406177
 30
0.0
 11
31.9877229
 21
-109.75406191
 31
0.0
  0
LINE
  5
13F
100
AcDbEntity
  8
LAYER0004
  6
CONTINUOUS
 62
       7
100
AcDbLine
 10
70.73772227
 20
-109.75406191
 30
0.0
 11
70.73772227
 21
-85.25406255
 31
0.0
  0
LINE
  5
140
100
AcDbEntity
  8
LAYER0004
  6
CONTINUOUS
 62
       7
100
AcDbLine
 10
10.7377236
 20
-100.25406221
 30
0.0
 11
10.7377236
 21
-109.75406191
 31
0.0
  0
LINE
  5
141
100
AcDbEntity
  8
LAYER0004
  6
CONTINUOUS
 62
       7
100
AcDbLine
 10
10.7377236
 20
-85.25406255
 30
0.0
 11
10.7377236
 21
-91.75406268
 31
0.0
  0
LINE
  5
142
100
AcDbEntity
  8
LAYER0004
  6
CONTINUOUS
 62
       7
100
AcDbLine
 10
11.23772275
 20
-95.30406224
 30
0.0
 11
11.23772275
 21
-96.70406172
 31
0.0
  0
LINE
  5
143
100
AcDbEntity
  8
LAYER0004
  6
CONTINUOUS
 62
       7
100
AcDbLine
 10
13.62034579
 20
-91.75406268
 30
0.0
 11
13.62034579
 21
-95.30406224
 31
0.0
  0
LINE
  5
144
100
AcDbEntity
  8
LAYER0004
  6
CONTINUOUS
 62
       7
100
AcDbLine
 10
13.62034579
 20
-96.70406172
 30
0.0
 11
13.62034579
 21
-100.25406221
 31
0.0
  0
LINE
  5
145
100
AcDbEntity
  8
LAYER0004
  6
CONTINUOUS
 62
       7
100
AcDbLine
 10
10.7377236
 20
57.99593905
 30
0.0
 11
15.68672706
 21
57.99593905
 31
0.0
  0
LINE
  5
146
100
AcDbEntity
  8
LAYER0004
  6
CONTINUOUS
 62
       7
100
AcDbLine
 10
10.7377236
 20
44.09594217
 30
0.0
 11
15.68672706
 21
44.09594217
 31
0.0
  0
LINE
  5
147
100
AcDbEntity
  8
LAYER0004
  6
CONTINUOUS
 62
       7
100
AcDbLine
 10
16.69223507
 20
45.84593454
 30
0.0
 11
16.69223507
 21
56.24593177
 31
0.0
  0
LINE
  5
148
100
AcDbEntity
  8
LAYER0004
  6
CONTINUOUS
 62
       7
100
AcDbLine
 10
70.73772227
 20
40.24594405
 30
0.0
 11
44.65368571
 21
40.24594405
 31
0.0
  0
LINE
  5
149
100
AcDbEntity
  8
LAYER0004
  6
CONTINUOUS
 62
       7
100
AcDbLine
 10
36.82176017
 20
40.24594405
 30
0.0
 11
10.7377236
 21
40.24594405
 31
0.0
  0
LINE
  5
14A
100
AcDbEntity
  8
LAYER0004
  6
CONTINUOUS
 62
       7
100
AcDbLine
 10
47.23772307
 20
-24.75406101
 30
0.0
 11
47.23772307
 21
-18.65406206
 31
0.0
  0
LINE
  5
14B
100
AcDbEntity
  8
LAYER0004
  6
CONTINUOUS
 62
       7
100
AcDbLine
 10
34.2377228
 20
-18.65406206
 30
0.0
 11
34.2377228
 21
-24.75406101
 31
0.0
  0
LINE
  5
14C
100
AcDbEntity
  8
LAYER0004
  6
CONTINUOUS
 62
       7
100
AcDbLine
 10
34.2377228
 20
-18.65406206
 30
0.0
 11
47.23772307
 21
-18.65406206
 31
0.0
  0
LINE
  5
14D
100
AcDbEntity
  8
LAYER0004
  6
CONTINUOUS
 62
       7
100
AcDbLine
 10
46.26299946
 20
6.34593645
 30
0.0
 11
35.2124464
 21
6.34593645
 31
0.0
  0
LINE
  5
14E
100
AcDbEntity
  8
LAYER0004
  6
CONTINUOUS
 62
       7
100
AcDbLine
 10
46.21552669
 20
7.34593847
 30
0.0
 11
35.25991917
 21
7.34593847
 31
0.0
  0
LINE
  5
14F
100
AcDbEntity
  8
LAYER0004
  6
CONTINUOUS
 62
       7
100
AcDbLine
 10
46.14431823
 20
8.84594151
 30
0.0
 11
35.33112763
 21
8.84594151
 31
0.0
  0
LINE
  5
150
100
AcDbEntity
  8
LAYER0004
  6
CONTINUOUS
 62
       7
100
AcDbLine
 10
46.02563747
 20
11.34593913
 30
0.0
 11
35.4498084
 21
11.34593913
 31
0.0
  0
LINE
  5
151
100
AcDbEntity
  8
LAYER0004
  6
CONTINUOUS
 62
       7
100
AcDbLine
 10
46.09684593
 20
9.84593609
 30
0.0
 11
35.37859994
 21
9.84593609
 31
0.0
  0
LINE
  5
152
100
AcDbEntity
  8
LAYER0004
  6
CONTINUOUS
 62
       7
100
AcDbLine
 10
45.97816516
 20
12.34594116
 30
0.0
 11
35.4972807
 21
12.34594116
 31
0.0
  0
LINE
  5
153
100
AcDbEntity
  8
LAYER0004
  6
CONTINUOUS
 62
       7
100
AcDbLine
 10
10.7377236
 20
-109.75406191
 30
0.0
 11
70.73772227
 21
-109.75406191
 31
0.0
  0
LINE
  5
154
100
AcDbEntity
  8
LAYER0004
  6
CONTINUOUS
 62
       7
100
AcDbLine
 10
10.7377236
 20
-107.75406181
 30
0.0
 11
70.73772226
 21
-107.75406181
 31
0.0
  0
LINE
  5
155
100
AcDbEntity
  8
LAYER0004
  6
CONTINUOUS
 62
       7
100
AcDbLine
 10
9.23772243
 20
-43.50405778
 30
0.0
 11
9.23772243
 21
25.99593351
 31
0.0
  0
LINE
  5
156
100
AcDbEntity
  8
LAYER0004
  6
CONTINUOUS
 62
       7
100
AcDbLine
 10
13.70071147
 20
19.28684989
 30
0.0
 11
13.70071147
 21
-36.79498157
 31
0.0
  0
LINE
  5
157
100
AcDbEntity
  8
LAYER0004
  6
CONTINUOUS
 62
       7
100
AcDbLine
 10
60.23772333
 20
-120.25406177
 30
0.0
 11
64.23772213
 21
-120.25406177
 31
0.0
  0
LINE
  5
158
100
AcDbEntity
  8
LAYER0004
  6
CONTINUOUS
 62
       7
100
AcDbLine
 10
27.98772317
 20
-120.25406177
 30
0.0
 11
31.9877229
 21
-120.25406177
 31
0.0
  0
LINE
  5
159
100
AcDbEntity
  8
LAYER0004
  6
CONTINUOUS
 62
       7
100
AcDbLine
 10
10.7377236
 20
-91.75406268
 30
0.0
 11
13.50941782
 21
-91.75406268
 31
0.0
  0
LINE
  5
15A
100
AcDbEntity
  8
LAYER0004
  6
CONTINUOUS
 62
       7
100
AcDbLine
 10
13.50941782
 20
-100.25406221
 30
0.0
 11
10.7377236
 21
-100.25406221
 31
0.0
  0
LINE
  5
15B
100
AcDbEntity
  8
LAYER0004
  6
CONTINUOUS
 62
       7
100
AcDbLine
 10
14.18043201
 20
-92.75406098
 30
0.0
 11
14.18043201
 21
-99.25406205
 31
0.0
  0
LINE
  5
15C
100
AcDbEntity
  8
LAYER0004
  6
CONTINUOUS
 62
       7
100
AcDbLine
 10
10.7377236
 20
-85.25406255
 30
0.0
 11
70.73772227
 21
-85.25406255
 31
0.0
  0
LINE
  5
15D
100
AcDbEntity
  8
LAYER0004
  6
CONTINUOUS
 62
       7
100
AcDbLine
 10
11.23772275
 20
-96.70406172
 30
0.0
 11
14.18043201
 21
-96.70406172
 31
0.0
  0
LINE
  5
15E
100
AcDbEntity
  8
LAYER0004
  6
CONTINUOUS
 62
       7
100
AcDbLine
 10
11.23772275
 20
-95.30406224
 30
0.0
 11
14.18043201
 21
-95.30406224
 31
0.0
  0
LINE
  5
15F
100
AcDbEntity
  8
LAYER0004
  6
CONTINUOUS
 62
       7
100
AcDbLine
 10
-169.20513484
 20
-193.4002517
 30
0.0
 11
-169.20513484
 21
-195.99445259
 31
0.0
  0
LINE
  5
160
100
AcDbEntity
  8
LAYER0004
  6
CONTINUOUS
 62
       7
100
AcDbLine
 10
-143.70513399
 20
-193.40025171
 30
0.0
 11
-143.70513399
 21
-195.9944526
 31
0.0
  0
LINE
  5
161
100
AcDbEntity
  8
LAYER0004
  6
CONTINUOUS
 62
       7
100
AcDbLine
 10
-143.90513395
 20
-193.00025248
 30
0.0
 11
-145.57180079
 21
-191.75025367
 31
0.0
  0
LINE
  5
162
100
AcDbEntity
  8
LAYER0004
  6
CONTINUOUS
 62
       7
100
AcDbLine
 10
-167.33846804
 20
-191.75025366
 30
0.0
 11
-169.00513488
 21
-193.00025247
 31
0.0
  0
LINE
  5
163
100
AcDbEntity
  8
LAYER0004
  6
CONTINUOUS
 62
       7
100
AcDbLine
 10
-167.03846809
 20
-191.65025338
 30
0.0
 11
-145.87180075
 21
-191.65025338
 31
0.0
  0
LINE
  5
164
100
AcDbEntity
  8
LAYER0004
  6
CONTINUOUS
 62
       7
100
AcDbLine
 10
-157.95513509
 20
51.7959384
 30
0.0
 11
-154.95513507
 21
51.7959384
 31
0.0
  0
LINE
  5
165
100
AcDbEntity
  8
LAYER0004
  6
CONTINUOUS
 62
       7
100
AcDbLine
 10
-157.95513509
 20
50.29594281
 30
0.0
 11
-154.95513507
 21
50.29594281
 31
0.0
  0
LINE
  5
166
100
AcDbEntity
  8
LAYER0004
  6
CONTINUOUS
 62
       7
100
AcDbLine
 10
-157.95513509
 20
50.29594281
 30
0.0
 11
-157.95513509
 21
51.7959384
 31
0.0
  0
LINE
  5
167
100
AcDbEntity
  8
LAYER0004
  6
CONTINUOUS
 62
       7
100
AcDbLine
 10
-154.95513507
 20
50.29594281
 30
0.0
 11
-154.95513507
 21
51.7959384
 31
0.0
  0
LINE
  5
168
100
AcDbEntity
  8
LAYER0004
  6
CONTINUOUS
 62
       7
100
AcDbLine
 10
-150.98983712
 20
50.29594281
 30
0.0
 11
-153.96313636
 21
50.29594281
 31
0.0
  0
LINE
  5
169
100
AcDbEntity
  8
LAYER0004
  6
CONTINUOUS
 62
       7
100
AcDbLine
 10
-153.96980091
 20
50.29594281
 30
0.0
 11
-150.99650167
 21
50.29594281
 31
0.0
  0
LINE
  5
16A
100
AcDbEntity
  8
LAYER0004
  6
CONTINUOUS
 62
       7
100
AcDbLine
 10
-158.94046926
 20
51.7959384
 30
0.0
 11
-161.9137685
 21
51.7959384
 31
0.0
  0
LINE
  5
16B
100
AcDbEntity
  8
LAYER0004
  6
CONTINUOUS
 62
       7
100
AcDbLine
 10
-153.96980091
 20
50.29594281
 30
0.0
 11
-153.96980091
 21
51.7959384
 31
0.0
  0
LINE
  5
16C
100
AcDbEntity
  8
LAYER0004
  6
CONTINUOUS
 62
       7
100
AcDbLine
 10
-161.92043304
 20
51.7959384
 30
0.0
 11
-158.9471338
 21
51.7959384
 31
0.0
  0
LINE
  5
16D
100
AcDbEntity
  8
LAYER0004
  6
CONTINUOUS
 62
       7
100
AcDbLine
 10
-150.98983712
 20
51.7959384
 30
0.0
 11
-153.96313636
 21
51.7959384
 31
0.0
  0
LINE
  5
16E
100
AcDbEntity
  8
LAYER0004
  6
CONTINUOUS
 62
       7
100
AcDbLine
 10
-153.96980091
 20
51.7959384
 30
0.0
 11
-150.99650167
 21
51.7959384
 31
0.0
  0
LINE
  5
16F
100
AcDbEntity
  8
LAYER0004
  6
CONTINUOUS
 62
       7
100
AcDbLine
 10
-161.92043304
 20
50.29594281
 30
0.0
 11
-158.9471338
 21
50.29594281
 31
0.0
  0
LINE
  5
170
100
AcDbEntity
  8
LAYER0004
  6
CONTINUOUS
 62
       7
100
AcDbLine
 10
-158.94046926
 20
50.29594281
 30
0.0
 11
-161.9137685
 21
50.29594281
 31
0.0
  0
LINE
  5
171
100
AcDbEntity
  8
LAYER0004
  6
CONTINUOUS
 62
       7
100
AcDbLine
 10
-158.94046926
 20
50.29594281
 30
0.0
 11
-158.94046926
 21
51.7959384
 31
0.0
  0
LINE
  5
172
100
AcDbEntity
  8
LAYER0004
  6
CONTINUOUS
 62
       7
100
AcDbLine
 10
-150.99650167
 20
50.29594281
 30
0.0
 11
-150.99650167
 21
51.7959384
 31
0.0
  0
LINE
  5
173
100
AcDbEntity
  8
LAYER0004
  6
CONTINUOUS
 62
       7
100
AcDbLine
 10
-161.92043304
 20
50.29594281
 30
0.0
 11
-161.92043304
 21
51.7959384
 31
0.0
  0
LINE
  5
174
100
AcDbEntity
  8
LAYER0004
  6
CONTINUOUS
 62
       7
100
AcDbLine
 10
-162.88156353
 20
50.29594281
 30
0.0
 11
-165.77523585
 21
50.29594281
 31
0.0
  0
LINE
  5
175
100
AcDbEntity
  8
LAYER0004
  6
CONTINUOUS
 62
       7
100
AcDbLine
 10
-165.78844573
 20
50.29594281
 30
0.0
 11
-162.89477387
 21
50.29594281
 31
0.0
  0
LINE
  5
176
100
AcDbEntity
  8
LAYER0004
  6
CONTINUOUS
 62
       7
100
AcDbLine
 10
-162.88156353
 20
50.29594281
 30
0.0
 11
-162.88156353
 21
51.7959384
 31
0.0
  0
LINE
  5
177
100
AcDbEntity
  8
LAYER0004
  6
CONTINUOUS
 62
       7
100
AcDbLine
 10
-165.78844573
 20
51.7959384
 30
0.0
 11
-162.89477387
 21
51.7959384
 31
0.0
  0
LINE
  5
178
100
AcDbEntity
  8
LAYER0004
  6
CONTINUOUS
 62
       7
100
AcDbLine
 10
-162.88156353
 20
51.7959384
 30
0.0
 11
-165.77523585
 21
51.7959384
 31
0.0
  0
LINE
  5
179
100
AcDbEntity
  8
LAYER0004
  6
CONTINUOUS
 62
       7
100
AcDbLine
 10
-150.02870664
 20
51.7959384
 30
0.0
 11
-147.13503431
 21
51.7959384
 31
0.0
  0
LINE
  5
17A
100
AcDbEntity
  8
LAYER0004
  6
CONTINUOUS
 62
       7
100
AcDbLine
 10
-150.02870664
 20
50.29594281
 30
0.0
 11
-147.13503431
 21
50.29594281
 31
0.0
  0
LINE
  5
17B
100
AcDbEntity
  8
LAYER0004
  6
CONTINUOUS
 62
       7
100
AcDbLine
 10
-147.12182443
 20
50.29594281
 30
0.0
 11
-150.01549629
 21
50.29594281
 31
0.0
  0
LINE
  5
17C
100
AcDbEntity
  8
LAYER0004
  6
CONTINUOUS
 62
       7
100
AcDbLine
 10
-147.12182443
 20
51.7959384
 30
0.0
 11
-150.01549629
 21
51.7959384
 31
0.0
  0
LINE
  5
17D
100
AcDbEntity
  8
LAYER0004
  6
CONTINUOUS
 62
       7
100
AcDbLine
 10
-150.02870664
 20
50.29594281
 30
0.0
 11
-150.02870664
 21
51.7959384
 31
0.0
  0
LINE
  5
17E
100
AcDbEntity
  8
LAYER0004
  6
CONTINUOUS
 62
       7
100
AcDbLine
 10
-165.78844573
 20
50.29594281
 30
0.0
 11
-165.78844573
 21
51.7959384
 31
0.0
  0
LINE
  5
17F
100
AcDbEntity
  8
LAYER0004
  6
CONTINUOUS
 62
       7
100
AcDbLine
 10
-147.12182443
 20
50.29594281
 30
0.0
 11
-147.12182443
 21
51.7959384
 31
0.0
  0
LINE
  5
180
100
AcDbEntity
  8
LAYER0004
  6
CONTINUOUS
 62
       7
100
AcDbLine
 10
-146.20200649
 20
51.7959384
 30
0.0
 11
-143.43946997
 21
51.7959384
 31
0.0
  0
LINE
  5
181
100
AcDbEntity
  8
LAYER0004
  6
CONTINUOUS
 62
       7
100
AcDbLine
 10
-166.70826368
 20
50.29594281
 30
0.0
 11
-169.4708002
 21
50.29594281
 31
0.0
  0
LINE
  5
182
100
AcDbEntity
  8
LAYER0004
  6
CONTINUOUS
 62
       7
100
AcDbLine
 10
-146.20200649
 20
50.29594281
 30
0.0
 11
-143.43946997
 21
50.29594281
 31
0.0
  0
LINE
  5
183
100
AcDbEntity
  8
LAYER0004
  6
CONTINUOUS
 62
       7
100
AcDbLine
 10
-166.70826368
 20
51.7959384
 30
0.0
 11
-169.4708002
 21
51.7959384
 31
0.0
  0
LINE
  5
184
100
AcDbEntity
  8
LAYER0004
  6
CONTINUOUS
 62
       7
100
AcDbLine
 10
-166.70826368
 20
50.29594281
 30
0.0
 11
-166.70826368
 21
51.7959384
 31
0.0
  0
LINE
  5
185
100
AcDbEntity
  8
LAYER0004
  6
CONTINUOUS
 62
       7
100
AcDbLine
 10
-143.41994852
 20
50.29594281
 30
0.0
 11
-146.18248503
 21
50.29594281
 31
0.0
  0
LINE
  5
186
100
AcDbEntity
  8
LAYER0004
  6
CONTINUOUS
 62
       7
100
AcDbLine
 10
-143.41994852
 20
51.7959384
 30
0.0
 11
-146.18248503
 21
51.7959384
 31
0.0
  0
LINE
  5
187
100
AcDbEntity
  8
LAYER0004
  6
CONTINUOUS
 62
       7
100
AcDbLine
 10
-169.49032165
 20
51.7959384
 30
0.0
 11
-166.72778513
 21
51.7959384
 31
0.0
  0
LINE
  5
188
100
AcDbEntity
  8
LAYER0004
  6
CONTINUOUS
 62
       7
100
AcDbLine
 10
-169.49032165
 20
50.29594281
 30
0.0
 11
-166.72778513
 21
50.29594281
 31
0.0
  0
LINE
  5
189
100
AcDbEntity
  8
LAYER0004
  6
CONTINUOUS
 62
       7
100
AcDbLine
 10
-146.20200649
 20
50.29594281
 30
0.0
 11
-146.20200649
 21
51.7959384
 31
0.0
  0
LINE
  5
18A
100
AcDbEntity
  8
LAYER0004
  6
CONTINUOUS
 62
       7
100
AcDbLine
 10
-169.49032165
 20
50.29594281
 30
0.0
 11
-169.49032165
 21
51.7959384
 31
0.0
  0
LINE
  5
18B
100
AcDbEntity
  8
LAYER0004
  6
CONTINUOUS
 62
       7
100
AcDbLine
 10
-143.41994852
 20
50.29594281
 30
0.0
 11
-143.41994852
 21
51.7959384
 31
0.0
  0
LINE
  5
18C
100
AcDbEntity
  8
LAYER0004
  6
CONTINUOUS
 62
       7
100
AcDbLine
 10
-186.45513495
 20
67.73585787
 30
0.0
 11
-186.45513441
 21
40.24594405
 31
0.0
  0
LINE
  5
18D
100
AcDbEntity
  8
LAYER0004
  6
CONTINUOUS
 62
       7
100
AcDbLine
 10
-126.45513495
 20
67.73585787
 30
0.0
 11
-126.45513574
 21
40.24594405
 31
0.0
  0
LINE
  5
18E
100
AcDbEntity
  8
LAYER0004
  6
CONTINUOUS
 62
       7
100
AcDbLine
 10
-126.65513541
 20
-21.57906315
 30
0.0
 11
-124.75513491
 21
-21.57906315
 31
0.0
  0
LINE
  5
18F
100
AcDbEntity
  8
LAYER0004
  6
CONTINUOUS
 62
       7
100
AcDbLine
 10
-126.65513541
 20
-27.92905888
 30
0.0
 11
-124.75513491
 21
-27.92905888
 31
0.0
  0
LINE
  5
190
100
AcDbEntity
  8
LAYER0004
  6
CONTINUOUS
 62
       7
100
AcDbLine
 10
-127.01240007
 20
-20.13525984
 30
0.0
 11
-127.18067324
 21
-20.13525984
 31
0.0
  0
LINE
  5
191
100
AcDbEntity
  8
LAYER0004
  6
CONTINUOUS
 62
       7
100
AcDbLine
 10
-127.01240007
 20
-29.37286219
 30
0.0
 11
-127.18079605
 21
-29.37286219
 31
0.0
  0
LINE
  5
192
100
AcDbEntity
  8
LAYER0004
  6
CONTINUOUS
 62
       7
100
AcDbLine
 10
-124.75513491
 20
-24.75406101
 30
0.0
 11
-116.40513513
 21
-24.75406101
 31
0.0
  0
LINE
  5
193
100
AcDbEntity
  8
LAYER0004
  6
CONTINUOUS
 62
       7
100
AcDbLine
 10
-127.55615089
 20
-25.00619611
 30
0.0
 11
-127.55893402
 21
-24.92252767
 31
0.0
  0
LINE
  5
194
100
AcDbEntity
  8
LAYER0004
  6
CONTINUOUS
 62
       7
100
AcDbLine
 10
-127.55893402
 20
-24.92252767
 30
0.0
 11
-127.56130831
 21
-24.83874399
 31
0.0
  0
LINE
  5
195
100
AcDbEntity
  8
LAYER0004
  6
CONTINUOUS
 62
       7
100
AcDbLine
 10
-127.56130831
 20
-24.83874399
 30
0.0
 11
-127.56306978
 21
-24.75479623
 31
0.0
  0
LINE
  5
196
100
AcDbEntity
  8
LAYER0004
  6
CONTINUOUS
 62
       7
100
AcDbLine
 10
-127.56306978
 20
-24.75479623
 30
0.0
 11
-127.56423437
 21
-24.67070682
 31
0.0
  0
LINE
  5
197
100
AcDbEntity
  8
LAYER0004
  6
CONTINUOUS
 62
       7
100
AcDbLine
 10
-127.56423437
 20
-24.67070682
 30
0.0
 11
-127.56482886
 21
-24.5865017
 31
0.0
  0
LINE
  5
198
100
AcDbEntity
  8
LAYER0004
  6
CONTINUOUS
 62
       7
100
AcDbLine
 10
-127.56482886
 20
-24.5865017
 30
0.0
 11
-127.56488001
 21
-24.50220682
 31
0.0
  0
LINE
  5
199
100
AcDbEntity
  8
LAYER0004
  6
CONTINUOUS
 62
       7
100
AcDbLine
 10
-127.56488001
 20
-24.50220682
 30
0.0
 11
-127.56441458
 21
-24.41784813
 31
0.0
  0
LINE
  5
19A
100
AcDbEntity
  8
LAYER0004
  6
CONTINUOUS
 62
       7
100
AcDbLine
 10
-127.56441458
 20
-24.41784813
 30
0.0
 11
-127.56345935
 21
-24.33345158
 31
0.0
  0
LINE
  5
19B
100
AcDbEntity
  8
LAYER0004
  6
CONTINUOUS
 62
       7
100
AcDbLine
 10
-127.56345935
 20
-24.33345158
 30
0.0
 11
-127.56204108
 21
-24.24904309
 31
0.0
  0
LINE
  5
19C
100
AcDbEntity
  8
LAYER0004
  6
CONTINUOUS
 62
       7
100
AcDbLine
 10
-127.56204108
 20
-24.24904309
 30
0.0
 11
-127.56018653
 21
-24.16464863
 31
0.0
  0
LINE
  5
19D
100
AcDbEntity
  8
LAYER0004
  6
CONTINUOUS
 62
       7
100
AcDbLine
 10
-127.56018653
 20
-24.16464863
 30
0.0
 11
-127.55792248
 21
-24.08029414
 31
0.0
  0
LINE
  5
19E
100
AcDbEntity
  8
LAYER0004
  6
CONTINUOUS
 62
       7
100
AcDbLine
 10
-127.55792248
 20
-24.08029414
 30
0.0
 11
-127.5552757
 21
-23.99600556
 31
0.0
  0
LINE
  5
19F
100
AcDbEntity
  8
LAYER0004
  6
CONTINUOUS
 62
       7
100
AcDbLine
 10
-127.5552757
 20
-23.99600556
 30
0.0
 11
-127.55227294
 21
-23.91180883
 31
0.0
  0
LINE
  5
1A0
100
AcDbEntity
  8
LAYER0004
  6
CONTINUOUS
 62
       7
100
AcDbLine
 10
-127.55227294
 20
-23.91180883
 30
0.0
 11
-127.54894098
 21
-23.8277299
 31
0.0
  0
LINE
  5
1A1
100
AcDbEntity
  8
LAYER0004
  6
CONTINUOUS
 62
       7
100
AcDbLine
 10
-127.54894098
 20
-23.8277299
 30
0.0
 11
-127.54530658
 21
-23.74379472
 31
0.0
  0
LINE
  5
1A2
100
AcDbEntity
  8
LAYER0004
  6
CONTINUOUS
 62
       7
100
AcDbLine
 10
-127.54530658
 20
-23.74379472
 30
0.0
 11
-127.54139651
 21
-23.66002924
 31
0.0
  0
LINE
  5
1A3
100
AcDbEntity
  8
LAYER0004
  6
CONTINUOUS
 62
       7
100
AcDbLine
 10
-127.54139651
 20
-23.66002924
 30
0.0
 11
-127.53723754
 21
-23.57645939
 31
0.0
  0
LINE
  5
1A4
100
AcDbEntity
  8
LAYER0004
  6
CONTINUOUS
 62
       7
100
AcDbLine
 10
-127.53723754
 20
-23.57645939
 30
0.0
 11
-127.53285644
 21
-23.49311112
 31
0.0
  0
LINE
  5
1A5
100
AcDbEntity
  8
LAYER0004
  6
CONTINUOUS
 62
       7
100
AcDbLine
 10
-127.53285644
 20
-23.49311112
 30
0.0
 11
-127.52827996
 21
-23.41001037
 31
0.0
  0
LINE
  5
1A6
100
AcDbEntity
  8
LAYER0004
  6
CONTINUOUS
 62
       7
100
AcDbLine
 10
-127.52827996
 20
-23.41001037
 30
0.0
 11
-127.5235348
 21
-23.32718271
 31
0.0
  0
LINE
  5
1A7
100
AcDbEntity
  8
LAYER0004
  6
CONTINUOUS
 62
       7
100
AcDbLine
 10
-127.5235348
 20
-23.32718271
 30
0.0
 11
-127.51864298
 21
-23.24463302
 31
0.0
  0
LINE
  5
1A8
100
AcDbEntity
  8
LAYER0004
  6
CONTINUOUS
 62
       7
100
AcDbLine
 10
-127.51864298
 20
-23.24463302
 30
0.0
 11
-127.51361966
 21
-23.16233571
 31
0.0
  0
LINE
  5
1A9
100
AcDbEntity
  8
LAYER0004
  6
CONTINUOUS
 62
       7
100
AcDbLine
 10
-127.51361966
 20
-23.16233571
 30
0.0
 11
-127.50847945
 21
-23.08026274
 31
0.0
  0
LINE
  5
1AA
100
AcDbEntity
  8
LAYER0004
  6
CONTINUOUS
 62
       7
100
AcDbLine
 10
-127.50847945
 20
-23.08026274
 30
0.0
 11
-127.50323696
 21
-22.99838607
 31
0.0
  0
LINE
  5
1AB
100
AcDbEntity
  8
LAYER0004
  6
CONTINUOUS
 62
       7
100
AcDbLine
 10
-127.50323696
 20
-22.99838607
 30
0.0
 11
-127.49790681
 21
-22.91667766
 31
0.0
  0
LINE
  5
1AC
100
AcDbEntity
  8
LAYER0004
  6
CONTINUOUS
 62
       7
100
AcDbLine
 10
-127.49790681
 20
-22.91667766
 30
0.0
 11
-127.4925036
 21
-22.83510946
 31
0.0
  0
LINE
  5
1AD
100
AcDbEntity
  8
LAYER0004
  6
CONTINUOUS
 62
       7
100
AcDbLine
 10
-127.4925036
 20
-22.83510946
 30
0.0
 11
-127.48704195
 21
-22.75365342
 31
0.0
  0
LINE
  5
1AE
100
AcDbEntity
  8
LAYER0004
  6
CONTINUOUS
 62
       7
100
AcDbLine
 10
-127.48704195
 20
-22.75365342
 30
0.0
 11
-127.48153647
 21
-22.67228152
 31
0.0
  0
LINE
  5
1AF
100
AcDbEntity
  8
LAYER0004
  6
CONTINUOUS
 62
       7
100
AcDbLine
 10
-127.48153647
 20
-22.67228152
 30
0.0
 11
-127.47600176
 21
-22.5909657
 31
0.0
  0
LINE
  5
1B0
100
AcDbEntity
  8
LAYER0004
  6
CONTINUOUS
 62
       7
100
AcDbLine
 10
-127.47600176
 20
-22.5909657
 30
0.0
 11
-127.47045245
 21
-22.50967792
 31
0.0
  0
LINE
  5
1B1
100
AcDbEntity
  8
LAYER0004
  6
CONTINUOUS
 62
       7
100
AcDbLine
 10
-126.48038606
 20
-32.59482736
 30
0.0
 11
-126.48600011
 21
-32.57385988
 31
0.0
  0
LINE
  5
1B2
100
AcDbEntity
  8
LAYER0004
  6
CONTINUOUS
 62
       7
100
AcDbLine
 10
-126.48600011
 20
-32.57385988
 30
0.0
 11
-126.4932106
 21
-32.5469011
 31
0.0
  0
LINE
  5
1B3
100
AcDbEntity
  8
LAYER0004
  6
CONTINUOUS
 62
       7
100
AcDbLine
 10
-126.4932106
 20
-32.5469011
 30
0.0
 11
-126.50190732
 21
-32.51435548
 31
0.0
  0
LINE
  5
1B4
100
AcDbEntity
  8
LAYER0004
  6
CONTINUOUS
 62
       7
100
AcDbLine
 10
-126.50190732
 20
-32.51435548
 30
0.0
 11
-126.51198639
 21
-32.47659486
 31
0.0
  0
LINE
  5
1B5
100
AcDbEntity
  8
LAYER0004
  6
CONTINUOUS
 62
       7
100
AcDbLine
 10
-126.51198639
 20
-32.47659486
 30
0.0
 11
-126.52339242
 21
-32.43374
 31
0.0
  0
LINE
  5
1B6
100
AcDbEntity
  8
LAYER0004
  6
CONTINUOUS
 62
       7
100
AcDbLine
 10
-126.52339242
 20
-32.43374
 30
0.0
 11
-126.53609257
 21
-32.38579518
 31
0.0
  0
LINE
  5
1B7
100
AcDbEntity
  8
LAYER0004
  6
CONTINUOUS
 62
       7
100
AcDbLine
 10
-126.53609257
 20
-32.38579518
 30
0.0
 11
-126.5500541
 21
-32.33276403
 31
0.0
  0
LINE
  5
1B8
100
AcDbEntity
  8
LAYER0004
  6
CONTINUOUS
 62
       7
100
AcDbLine
 10
-126.5500541
 20
-32.33276403
 30
0.0
 11
-126.56524428
 21
-32.2746502
 31
0.0
  0
LINE
  5
1B9
100
AcDbEntity
  8
LAYER0004
  6
CONTINUOUS
 62
       7
100
AcDbLine
 10
-126.56524428
 20
-32.2746502
 30
0.0
 11
-126.58163038
 21
-32.21145731
 31
0.0
  0
LINE
  5
1BA
100
AcDbEntity
  8
LAYER0004
  6
CONTINUOUS
 62
       7
100
AcDbLine
 10
-126.58163038
 20
-32.21145731
 30
0.0
 11
-126.59917967
 21
-32.14318901
 31
0.0
  0
LINE
  5
1BB
100
AcDbEntity
  8
LAYER0004
  6
CONTINUOUS
 62
       7
100
AcDbLine
 10
-126.59917967
 20
-32.14318901
 30
0.0
 11
-126.61785904
 21
-32.06984981
 31
0.0
  0
LINE
  5
1BC
100
AcDbEntity
  8
LAYER0004
  6
CONTINUOUS
 62
       7
100
AcDbLine
 10
-126.61785904
 20
-32.06984981
 30
0.0
 11
-126.63762442
 21
-31.99147004
 31
0.0
  0
LINE
  5
1BD
100
AcDbEntity
  8
LAYER0004
  6
CONTINUOUS
 62
       7
100
AcDbLine
 10
-126.63762442
 20
-31.99147004
 30
0.0
 11
-126.65841922
 21
-31.90810949
 31
0.0
  0
LINE
  5
1BE
100
AcDbEntity
  8
LAYER0004
  6
CONTINUOUS
 62
       7
100
AcDbLine
 10
-126.65841922
 20
-31.90810949
 30
0.0
 11
-126.68018617
 21
-31.81982952
 31
0.0
  0
LINE
  5
1BF
100
AcDbEntity
  8
LAYER0004
  6
CONTINUOUS
 62
       7
100
AcDbLine
 10
-126.68018617
 20
-31.81982952
 30
0.0
 11
-126.702868
 21
-31.7266915
 31
0.0
  0
LINE
  5
1C0
100
AcDbEntity
  8
LAYER0004
  6
CONTINUOUS
 62
       7
100
AcDbLine
 10
-126.702868
 20
-31.7266915
 30
0.0
 11
-126.72640744
 21
-31.62875681
 31
0.0
  0
LINE
  5
1C1
100
AcDbEntity
  8
LAYER0004
  6
CONTINUOUS
 62
       7
100
AcDbLine
 10
-126.72640744
 20
-31.62875681
 30
0.0
 11
-126.75074723
 21
-31.52608682
 31
0.0
  0
LINE
  5
1C2
100
AcDbEntity
  8
LAYER0004
  6
CONTINUOUS
 62
       7
100
AcDbLine
 10
-126.75074723
 20
-31.52608682
 30
0.0
 11
-126.7758301
 21
-31.4187429
 31
0.0
  0
LINE
  5
1C3
100
AcDbEntity
  8
LAYER0004
  6
CONTINUOUS
 62
       7
100
AcDbLine
 10
-126.7758301
 20
-31.4187429
 30
0.0
 11
-126.80159641
 21
-31.30678976
 31
0.0
  0
LINE
  5
1C4
100
AcDbEntity
  8
LAYER0004
  6
CONTINUOUS
 62
       7
100
AcDbLine
 10
-126.80159641
 20
-31.30678976
 30
0.0
 11
-126.8279747
 21
-31.19030879
 31
0.0
  0
LINE
  5
1C5
100
AcDbEntity
  8
LAYER0004
  6
CONTINUOUS
 62
       7
100
AcDbLine
 10
-126.8279747
 20
-31.19030879
 30
0.0
 11
-126.85488979
 21
-31.06938663
 31
0.0
  0
LINE
  5
1C6
100
AcDbEntity
  8
LAYER0004
  6
CONTINUOUS
 62
       7
100
AcDbLine
 10
-126.85488979
 20
-31.06938663
 30
0.0
 11
-126.88226648
 21
-30.9441099
 31
0.0
  0
LINE
  5
1C7
100
AcDbEntity
  8
LAYER0004
  6
CONTINUOUS
 62
       7
100
AcDbLine
 10
-126.88226648
 20
-30.9441099
 30
0.0
 11
-126.91002961
 21
-30.81456523
 31
0.0
  0
LINE
  5
1C8
100
AcDbEntity
  8
LAYER0004
  6
CONTINUOUS
 62
       7
100
AcDbLine
 10
-126.91002961
 20
-30.81456523
 30
0.0
 11
-126.93810398
 21
-30.68083926
 31
0.0
  0
LINE
  5
1C9
100
AcDbEntity
  8
LAYER0004
  6
CONTINUOUS
 62
       7
100
AcDbLine
 10
-126.93810398
 20
-30.68083926
 30
0.0
 11
-126.96641441
 21
-30.54301861
 31
0.0
  0
LINE
  5
1CA
100
AcDbEntity
  8
LAYER0004
  6
CONTINUOUS
 62
       7
100
AcDbLine
 10
-126.96641441
 20
-30.54301861
 30
0.0
 11
-126.99488568
 21
-30.40118994
 31
0.0
  0
LINE
  5
1CB
100
AcDbEntity
  8
LAYER0004
  6
CONTINUOUS
 62
       7
100
AcDbLine
 10
-126.99488568
 20
-30.40118994
 30
0.0
 11
-127.02344029
 21
-30.2554409
 31
0.0
  0
LINE
  5
1CC
100
AcDbEntity
  8
LAYER0004
  6
CONTINUOUS
 62
       7
100
AcDbLine
 10
-127.02344029
 20
-30.2554409
 30
0.0
 11
-127.05199761
 21
-30.10586058
 31
0.0
  0
LINE
  5
1CD
100
AcDbEntity
  8
LAYER0004
  6
CONTINUOUS
 62
       7
100
AcDbLine
 10
-127.05199761
 20
-30.10586058
 30
0.0
 11
-127.08047674
 21
-29.95253814
 31
0.0
  0
LINE
  5
1CE
100
AcDbEntity
  8
LAYER0004
  6
CONTINUOUS
 62
       7
100
AcDbLine
 10
-127.08047674
 20
-29.95253814
 30
0.0
 11
-127.10879681
 21
-29.79556276
 31
0.0
  0
LINE
  5
1CF
100
AcDbEntity
  8
LAYER0004
  6
CONTINUOUS
 62
       7
100
AcDbLine
 10
-127.10879681
 20
-29.79556276
 30
0.0
 11
-127.13687692
 21
-29.63502364
 31
0.0
  0
LINE
  5
1D0
100
AcDbEntity
  8
LAYER0004
  6
CONTINUOUS
 62
       7
100
AcDbLine
 10
-127.13687692
 20
-29.63502364
 30
0.0
 11
-127.16463619
 21
-29.47100993
 31
0.0
  0
LINE
  5
1D1
100
AcDbEntity
  8
LAYER0004
  6
CONTINUOUS
 62
       7
100
AcDbLine
 10
-127.16463619
 20
-29.47100993
 30
0.0
 11
-127.19199373
 21
-29.30361084
 31
0.0
  0
LINE
  5
1D2
100
AcDbEntity
  8
LAYER0004
  6
CONTINUOUS
 62
       7
100
AcDbLine
 10
-127.19199373
 20
-29.30361084
 30
0.0
 11
-127.21887074
 21
-29.13291791
 31
0.0
  0
LINE
  5
1D3
100
AcDbEntity
  8
LAYER0004
  6
CONTINUOUS
 62
       7
100
AcDbLine
 10
-127.21887074
 20
-29.13291791
 30
0.0
 11
-127.24520478
 21
-28.95904141
 31
0.0
  0
LINE
  5
1D4
100
AcDbEntity
  8
LAYER0004
  6
CONTINUOUS
 62
       7
100
AcDbLine
 10
-127.24520478
 20
-28.95904141
 30
0.0
 11
-127.27094112
 21
-28.78210041
 31
0.0
  0
LINE
  5
1D5
100
AcDbEntity
  8
LAYER0004
  6
CONTINUOUS
 62
       7
100
AcDbLine
 10
-127.27094112
 20
-28.78210041
 30
0.0
 11
-127.29602505
 21
-28.60221403
 31
0.0
  0
LINE
  5
1D6
100
AcDbEntity
  8
LAYER0004
  6
CONTINUOUS
 62
       7
100
AcDbLine
 10
-127.29602505
 20
-28.60221403
 30
0.0
 11
-127.32040189
 21
-28.4195014
 31
0.0
  0
LINE
  5
1D7
100
AcDbEntity
  8
LAYER0004
  6
CONTINUOUS
 62
       7
100
AcDbLine
 10
-127.32040189
 20
-28.4195014
 30
0.0
 11
-127.34401694
 21
-28.23408164
 31
0.0
  0
LINE
  5
1D8
100
AcDbEntity
  8
LAYER0004
  6
CONTINUOUS
 62
       7
100
AcDbLine
 10
-127.34401694
 20
-28.23408164
 30
0.0
 11
-127.36681551
 21
-28.04607387
 31
0.0
  0
LINE
  5
1D9
100
AcDbEntity
  8
LAYER0004
  6
CONTINUOUS
 62
       7
100
AcDbLine
 10
-127.36681551
 20
-28.04607387
 30
0.0
 11
-127.38874273
 21
-27.85559723
 31
0.0
  0
LINE
  5
1DA
100
AcDbEntity
  8
LAYER0004
  6
CONTINUOUS
 62
       7
100
AcDbLine
 10
-127.38874273
 20
-27.85559723
 30
0.0
 11
-127.40971915
 21
-27.66277463
 31
0.0
  0
LINE
  5
1DB
100
AcDbEntity
  8
LAYER0004
  6
CONTINUOUS
 62
       7
100
AcDbLine
 10
-127.40971915
 20
-27.66277463
 30
0.0
 11
-127.42961481
 21
-27.46773665
 31
0.0
  0
LINE
  5
1DC
100
AcDbEntity
  8
LAYER0004
  6
CONTINUOUS
 62
       7
100
AcDbLine
 10
-127.42961481
 20
-27.46773665
 30
0.0
 11
-127.44829359
 21
-27.27061482
 31
0.0
  0
LINE
  5
1DD
100
AcDbEntity
  8
LAYER0004
  6
CONTINUOUS
 62
       7
100
AcDbLine
 10
-127.44829359
 20
-27.27061482
 30
0.0
 11
-127.46561935
 21
-27.07154068
 31
0.0
  0
LINE
  5
1DE
100
AcDbEntity
  8
LAYER0004
  6
CONTINUOUS
 62
       7
100
AcDbLine
 10
-127.46561935
 20
-27.07154068
 30
0.0
 11
-127.48145596
 21
-26.87064575
 31
0.0
  0
LINE
  5
1DF
100
AcDbEntity
  8
LAYER0004
  6
CONTINUOUS
 62
       7
100
AcDbLine
 10
-127.48145596
 20
-26.87064575
 30
0.0
 11
-127.49566728
 21
-26.66806157
 31
0.0
  0
LINE
  5
1E0
100
AcDbEntity
  8
LAYER0004
  6
CONTINUOUS
 62
       7
100
AcDbLine
 10
-127.49566728
 20
-26.66806157
 30
0.0
 11
-127.50811719
 21
-26.46391968
 31
0.0
  0
LINE
  5
1E1
100
AcDbEntity
  8
LAYER0004
  6
CONTINUOUS
 62
       7
100
AcDbLine
 10
-127.50811719
 20
-26.46391968
 30
0.0
 11
-127.51869913
 21
-26.25835684
 31
0.0
  0
LINE
  5
1E2
100
AcDbEntity
  8
LAYER0004
  6
CONTINUOUS
 62
       7
100
AcDbLine
 10
-127.51869913
 20
-26.25835684
 30
0.0
 11
-127.52756483
 21
-26.05155563
 31
0.0
  0
LINE
  5
1E3
100
AcDbEntity
  8
LAYER0004
  6
CONTINUOUS
 62
       7
100
AcDbLine
 10
-127.52756483
 20
-26.05155563
 30
0.0
 11
-127.53499939
 21
-25.84372229
 31
0.0
  0
LINE
  5
1E4
100
AcDbEntity
  8
LAYER0004
  6
CONTINUOUS
 62
       7
100
AcDbLine
 10
-127.53499939
 20
-25.84372229
 30
0.0
 11
-127.54128906
 21
-25.63506324
 31
0.0
  0
LINE
  5
1E5
100
AcDbEntity
  8
LAYER0004
  6
CONTINUOUS
 62
       7
100
AcDbLine
 10
-127.54128906
 20
-25.63506324
 30
0.0
 11
-127.54672004
 21
-25.42578491
 31
0.0
  0
LINE
  5
1E6
100
AcDbEntity
  8
LAYER0004
  6
CONTINUOUS
 62
       7
100
AcDbLine
 10
-127.54672004
 20
-25.42578491
 30
0.0
 11
-127.55157858
 21
-25.21609372
 31
0.0
  0
LINE
  5
1E7
100
AcDbEntity
  8
LAYER0004
  6
CONTINUOUS
 62
       7
100
AcDbLine
 10
-127.55157858
 20
-25.21609372
 30
0.0
 11
-127.55615089
 21
-25.00619611
 31
0.0
  0
LINE
  5
1E8
100
AcDbEntity
  8
LAYER0004
  6
CONTINUOUS
 62
       7
100
AcDbLine
 10
-127.47045245
 20
-22.50967792
 30
0.0
 11
-127.45636672
 21
-22.35147655
 31
0.0
  0
LINE
  5
1E9
100
AcDbEntity
  8
LAYER0004
  6
CONTINUOUS
 62
       7
100
AcDbLine
 10
-127.45636672
 20
-22.35147655
 30
0.0
 11
-127.44210693
 21
-22.19360824
 31
0.0
  0
LINE
  5
1EA
100
AcDbEntity
  8
LAYER0004
  6
CONTINUOUS
 62
       7
100
AcDbLine
 10
-127.44210693
 20
-22.19360824
 30
0.0
 11
-127.42749902
 21
-22.03640603
 31
0.0
  0
LINE
  5
1EB
100
AcDbEntity
  8
LAYER0004
  6
CONTINUOUS
 62
       7
100
AcDbLine
 10
-127.42749902
 20
-22.03640603
 30
0.0
 11
-127.41236894
 21
-21.88020297
 31
0.0
  0
LINE
  5
1EC
100
AcDbEntity
  8
LAYER0004
  6
CONTINUOUS
 62
       7
100
AcDbLine
 10
-127.41236894
 20
-21.88020297
 30
0.0
 11
-127.39654307
 21
-21.72533155
 31
0.0
  0
LINE
  5
1ED
100
AcDbEntity
  8
LAYER0004
  6
CONTINUOUS
 62
       7
100
AcDbLine
 10
-127.39654307
 20
-21.72533155
 30
0.0
 11
-127.37991691
 21
-21.57203747
 31
0.0
  0
LINE
  5
1EE
100
AcDbEntity
  8
LAYER0004
  6
CONTINUOUS
 62
       7
100
AcDbLine
 10
-127.37991691
 20
-21.57203747
 30
0.0
 11
-127.36252864
 21
-21.4203872
 31
0.0
  0
LINE
  5
1EF
100
AcDbEntity
  8
LAYER0004
  6
CONTINUOUS
 62
       7
100
AcDbLine
 10
-127.36252864
 20
-21.4203872
 30
0.0
 11
-127.34443413
 21
-21.27042503
 31
0.0
  0
LINE
  5
1F0
100
AcDbEntity
  8
LAYER0004
  6
CONTINUOUS
 62
       7
100
AcDbLine
 10
-127.34443413
 20
-21.27042503
 30
0.0
 11
-127.32568922
 21
-21.12219526
 31
0.0
  0
LINE
  5
1F1
100
AcDbEntity
  8
LAYER0004
  6
CONTINUOUS
 62
       7
100
AcDbLine
 10
-127.32568922
 20
-21.12219526
 30
0.0
 11
-127.30634977
 21
-20.97574219
 31
0.0
  0
LINE
  5
1F2
100
AcDbEntity
  8
LAYER0004
  6
CONTINUOUS
 62
       7
100
AcDbLine
 10
-127.30634977
 20
-20.97574219
 30
0.0
 11
-127.28647162
 21
-20.83111011
 31
0.0
  0
LINE
  5
1F3
100
AcDbEntity
  8
LAYER0004
  6
CONTINUOUS
 62
       7
100
AcDbLine
 10
-127.28647162
 20
-20.83111011
 30
0.0
 11
-127.26611063
 21
-20.68834331
 31
0.0
  0
LINE
  5
1F4
100
AcDbEntity
  8
LAYER0004
  6
CONTINUOUS
 62
       7
100
AcDbLine
 10
-127.26611063
 20
-20.68834331
 30
0.0
 11
-127.24532265
 21
-20.54748609
 31
0.0
  0
LINE
  5
1F5
100
AcDbEntity
  8
LAYER0004
  6
CONTINUOUS
 62
       7
100
AcDbLine
 10
-127.24532265
 20
-20.54748609
 30
0.0
 11
-127.22416354
 21
-20.40858274
 31
0.0
  0
LINE
  5
1F6
100
AcDbEntity
  8
LAYER0004
  6
CONTINUOUS
 62
       7
100
AcDbLine
 10
-127.22416354
 20
-20.40858274
 30
0.0
 11
-127.20268602
 21
-20.2716782
 31
0.0
  0
LINE
  5
1F7
100
AcDbEntity
  8
LAYER0004
  6
CONTINUOUS
 62
       7
100
AcDbLine
 10
-127.20268602
 20
-20.2716782
 30
0.0
 11
-127.18092851
 21
-20.13682039
 31
0.0
  0
LINE
  5
1F8
100
AcDbEntity
  8
LAYER0004
  6
CONTINUOUS
 62
       7
100
AcDbLine
 10
-127.18092851
 20
-20.13682039
 30
0.0
 11
-127.15892528
 21
-20.00405807
 31
0.0
  0
LINE
  5
1F9
100
AcDbEntity
  8
LAYER0004
  6
CONTINUOUS
 62
       7
100
AcDbLine
 10
-127.15892528
 20
-20.00405807
 30
0.0
 11
-127.13671062
 21
-19.87344002
 31
0.0
  0
LINE
  5
1FA
100
AcDbEntity
  8
LAYER0004
  6
CONTINUOUS
 62
       7
100
AcDbLine
 10
-127.13671062
 20
-19.87344002
 30
0.0
 11
-127.1143188
 21
-19.74501499
 31
0.0
  0
LINE
  5
1FB
100
AcDbEntity
  8
LAYER0004
  6
CONTINUOUS
 62
       7
100
AcDbLine
 10
-127.1143188
 20
-19.74501499
 30
0.0
 11
-127.09178412
 21
-19.61883175
 31
0.0
  0
LINE
  5
1FC
100
AcDbEntity
  8
LAYER0004
  6
CONTINUOUS
 62
       7
100
AcDbLine
 10
-127.09178412
 20
-19.61883175
 30
0.0
 11
-127.06914085
 21
-19.49493907
 31
0.0
  0
LINE
  5
1FD
100
AcDbEntity
  8
LAYER0004
  6
CONTINUOUS
 62
       7
100
AcDbLine
 10
-127.06914085
 20
-19.49493907
 30
0.0
 11
-127.04642326
 21
-19.37338572
 31
0.0
  0
LINE
  5
1FE
100
AcDbEntity
  8
LAYER0004
  6
CONTINUOUS
 62
       7
100
AcDbLine
 10
-127.04642326
 20
-19.37338572
 30
0.0
 11
-127.02366566
 21
-19.25422046
 31
0.0
  0
LINE
  5
1FF
100
AcDbEntity
  8
LAYER0004
  6
CONTINUOUS
 62
       7
100
AcDbLine
 10
-127.02366566
 20
-19.25422046
 30
0.0
 11
-127.00090245
 21
-19.13749203
 31
0.0
  0
LINE
  5
200
100
AcDbEntity
  8
LAYER0004
  6
CONTINUOUS
 62
       7
100
AcDbLine
 10
-127.00090245
 20
-19.13749203
 30
0.0
 11
-126.97817106
 21
-19.02324829
 31
0.0
  0
LINE
  5
201
100
AcDbEntity
  8
LAYER0004
  6
CONTINUOUS
 62
       7
100
AcDbLine
 10
-126.97817106
 20
-19.02324829
 30
0.0
 11
-126.95551185
 21
-18.91153631
 31
0.0
  0
LINE
  5
202
100
AcDbEntity
  8
LAYER0004
  6
CONTINUOUS
 62
       7
100
AcDbLine
 10
-126.95551185
 20
-18.91153631
 30
0.0
 11
-126.9329653
 21
-18.80240309
 31
0.0
  0
LINE
  5
203
100
AcDbEntity
  8
LAYER0004
  6
CONTINUOUS
 62
       7
100
AcDbLine
 10
-126.9329653
 20
-18.80240309
 30
0.0
 11
-126.91057188
 21
-18.69589567
 31
0.0
  0
LINE
  5
204
100
AcDbEntity
  8
LAYER0004
  6
CONTINUOUS
 62
       7
100
AcDbLine
 10
-126.91057188
 20
-18.69589567
 30
0.0
 11
-126.88837207
 21
-18.59206106
 31
0.0
  0
LINE
  5
205
100
AcDbEntity
  8
LAYER0004
  6
CONTINUOUS
 62
       7
100
AcDbLine
 10
-126.88837207
 20
-18.59206106
 30
0.0
 11
-126.86640635
 21
-18.49094627
 31
0.0
  0
LINE
  5
206
100
AcDbEntity
  8
LAYER0004
  6
CONTINUOUS
 62
       7
100
AcDbLine
 10
-126.86640635
 20
-18.49094627
 30
0.0
 11
-126.84471519
 21
-18.39259832
 31
0.0
  0
LINE
  5
207
100
AcDbEntity
  8
LAYER0004
  6
CONTINUOUS
 62
       7
100
AcDbLine
 10
-126.84471519
 20
-18.39259832
 30
0.0
 11
-126.82333907
 21
-18.29706424
 31
0.0
  0
LINE
  5
208
100
AcDbEntity
  8
LAYER0004
  6
CONTINUOUS
 62
       7
100
AcDbLine
 10
-126.82333907
 20
-18.29706424
 30
0.0
 11
-126.80231847
 21
-18.20439104
 31
0.0
  0
LINE
  5
209
100
AcDbEntity
  8
LAYER0004
  6
CONTINUOUS
 62
       7
100
AcDbLine
 10
-126.80231847
 20
-18.20439104
 30
0.0
 11
-126.78169176
 21
-18.11462158
 31
0.0
  0
LINE
  5
20A
100
AcDbEntity
  8
LAYER0004
  6
CONTINUOUS
 62
       7
100
AcDbLine
 10
-126.78169176
 20
-18.11462158
 30
0.0
 11
-126.76148947
 21
-18.02778324
 31
0.0
  0
LINE
  5
20B
100
AcDbEntity
  8
LAYER0004
  6
CONTINUOUS
 62
       7
100
AcDbLine
 10
-126.76148947
 20
-18.02778324
 30
0.0
 11
-126.7417403
 21
-17.94389974
 31
0.0
  0
LINE
  5
20C
100
AcDbEntity
  8
LAYER0004
  6
CONTINUOUS
 62
       7
100
AcDbLine
 10
-126.7417403
 20
-17.94389974
 30
0.0
 11
-126.72247295
 21
-17.86299483
 31
0.0
  0
LINE
  5
20D
100
AcDbEntity
  8
LAYER0004
  6
CONTINUOUS
 62
       7
100
AcDbLine
 10
-126.72247295
 20
-17.86299483
 30
0.0
 11
-126.70371611
 21
-17.78509223
 31
0.0
  0
LINE
  5
20E
100
AcDbEntity
  8
LAYER0004
  6
CONTINUOUS
 62
       7
100
AcDbLine
 10
-126.70371611
 20
-17.78509223
 30
0.0
 11
-126.68549848
 21
-17.7102157
 31
0.0
  0
LINE
  5
20F
100
AcDbEntity
  8
LAYER0004
  6
CONTINUOUS
 62
       7
100
AcDbLine
 10
-126.68549848
 20
-17.7102157
 30
0.0
 11
-126.66784876
 21
-17.63838895
 31
0.0
  0
LINE
  5
210
100
AcDbEntity
  8
LAYER0004
  6
CONTINUOUS
 62
       7
100
AcDbLine
 10
-126.66784876
 20
-17.63838895
 30
0.0
 11
-126.65079565
 21
-17.56963575
 31
0.0
  0
LINE
  5
211
100
AcDbEntity
  8
LAYER0004
  6
CONTINUOUS
 62
       7
100
AcDbLine
 10
-126.65079565
 20
-17.56963575
 30
0.0
 11
-126.63436784
 21
-17.50397981
 31
0.0
  0
LINE
  5
212
100
AcDbEntity
  8
LAYER0004
  6
CONTINUOUS
 62
       7
100
AcDbLine
 10
-126.63436784
 20
-17.50397981
 30
0.0
 11
-126.61859401
 21
-17.4414452
 31
0.0
  0
LINE
  5
213
100
AcDbEntity
  8
LAYER0004
  6
CONTINUOUS
 62
       7
100
AcDbLine
 10
-126.61859401
 20
-17.4414452
 30
0.0
 11
-126.60350206
 21
-17.38206495
 31
0.0
  0
LINE
  5
214
100
AcDbEntity
  8
LAYER0004
  6
CONTINUOUS
 62
       7
100
AcDbLine
 10
-126.60350206
 20
-17.38206495
 30
0.0
 11
-126.58911907
 21
-17.32588203
 31
0.0
  0
LINE
  5
215
100
AcDbEntity
  8
LAYER0004
  6
CONTINUOUS
 62
       7
100
AcDbLine
 10
-126.58911907
 20
-17.32588203
 30
0.0
 11
-126.57547206
 21
-17.27293992
 31
0.0
  0
LINE
  5
216
100
AcDbEntity
  8
LAYER0004
  6
CONTINUOUS
 62
       7
100
AcDbLine
 10
-126.57547206
 20
-17.27293992
 30
0.0
 11
-126.56258808
 21
-17.22328212
 31
0.0
  0
LINE
  5
217
100
AcDbEntity
  8
LAYER0004
  6
CONTINUOUS
 62
       7
100
AcDbLine
 10
-126.56258808
 20
-17.22328212
 30
0.0
 11
-126.55049414
 21
-17.17695212
 31
0.0
  0
LINE
  5
218
100
AcDbEntity
  8
LAYER0004
  6
CONTINUOUS
 62
       7
100
AcDbLine
 10
-126.55049414
 20
-17.17695212
 30
0.0
 11
-126.53921728
 21
-17.13399339
 31
0.0
  0
LINE
  5
219
100
AcDbEntity
  8
LAYER0004
  6
CONTINUOUS
 62
       7
100
AcDbLine
 10
-126.53921728
 20
-17.13399339
 30
0.0
 11
-126.52878453
 21
-17.09444944
 31
0.0
  0
LINE
  5
21A
100
AcDbEntity
  8
LAYER0004
  6
CONTINUOUS
 62
       7
100
AcDbLine
 10
-126.52878453
 20
-17.09444944
 30
0.0
 11
-126.51922291
 21
-17.05836374
 31
0.0
  0
LINE
  5
21B
100
AcDbEntity
  8
LAYER0004
  6
CONTINUOUS
 62
       7
100
AcDbLine
 10
-126.51922291
 20
-17.05836374
 30
0.0
 11
-126.51055946
 21
-17.02577979
 31
0.0
  0
LINE
  5
21C
100
AcDbEntity
  8
LAYER0004
  6
CONTINUOUS
 62
       7
100
AcDbLine
 10
-126.51055946
 20
-17.02577979
 30
0.0
 11
-126.5028142
 21
-16.9967223
 31
0.0
  0
LINE
  5
21D
100
AcDbEntity
  8
LAYER0004
  6
CONTINUOUS
 62
       7
100
AcDbLine
 10
-126.5028142
 20
-16.9967223
 30
0.0
 11
-126.49597379
 21
-16.97112645
 31
0.0
  0
LINE
  5
21E
100
AcDbEntity
  8
LAYER0004
  6
CONTINUOUS
 62
       7
100
AcDbLine
 10
-126.49597379
 20
-16.97112645
 30
0.0
 11
-126.49001494
 21
-16.94890072
 31
0.0
  0
LINE
  5
21F
100
AcDbEntity
  8
LAYER0004
  6
CONTINUOUS
 62
       7
100
AcDbLine
 10
-126.49001494
 20
-16.94890072
 30
0.0
 11
-126.48491434
 21
-16.92995362
 31
0.0
  0
LINE
  5
220
100
AcDbEntity
  8
LAYER0004
  6
CONTINUOUS
 62
       7
100
AcDbLine
 10
-126.48491434
 20
-16.92995362
 30
0.0
 11
-126.4806495
 21
-16.91419646
 31
0.0
  0
LINE
  5
221
100
AcDbEntity
  8
LAYER0004
  6
CONTINUOUS
 62
       7
100
AcDbLine
 10
-126.4806495
 20
-16.91419646
 30
0.0
 11
-126.47731544
 21
-16.90195582
 31
0.0
  0
LINE
  5
222
100
AcDbEntity
  8
LAYER0004
  6
CONTINUOUS
 62
       7
100
AcDbLine
 10
-126.47731544
 20
-16.90195582
 30
0.0
 11
-126.47524736
 21
-16.89440701
 31
0.0
  0
LINE
  5
223
100
AcDbEntity
  8
LAYER0004
  6
CONTINUOUS
 62
       7
100
AcDbLine
 10
-126.47524736
 20
-16.89440701
 30
0.0
 11
-126.47454265
 21
-16.89185819
 31
0.0
  0
LINE
  5
224
100
AcDbEntity
  8
LAYER0004
  6
CONTINUOUS
 62
       7
100
AcDbLine
 10
-139.94914677
 20
57.99593905
 30
0.0
 11
-139.89197427
 21
57.9891383
 31
0.0
  0
LINE
  5
225
100
AcDbEntity
  8
LAYER0004
  6
CONTINUOUS
 62
       7
100
AcDbLine
 10
-139.89197427
 20
57.9891383
 30
0.0
 11
-139.83489965
 21
57.98195267
 31
0.0
  0
LINE
  5
226
100
AcDbEntity
  8
LAYER0004
  6
CONTINUOUS
 62
       7
100
AcDbLine
 10
-139.83489965
 20
57.98195267
 30
0.0
 11
-139.77802079
 21
57.97399729
 31
0.0
  0
LINE
  5
227
100
AcDbEntity
  8
LAYER0004
  6
CONTINUOUS
 62
       7
100
AcDbLine
 10
-139.77802079
 20
57.97399729
 30
0.0
 11
-139.72143556
 21
57.96488727
 31
0.0
  0
LINE
  5
228
100
AcDbEntity
  8
LAYER0004
  6
CONTINUOUS
 62
       7
100
AcDbLine
 10
-139.72143556
 20
57.96488727
 30
0.0
 11
-139.66524185
 21
57.95423774
 31
0.0
  0
LINE
  5
229
100
AcDbEntity
  8
LAYER0004
  6
CONTINUOUS
 62
       7
100
AcDbLine
 10
-139.66524185
 20
57.95423774
 30
0.0
 11
-139.60953753
 21
57.94166381
 31
0.0
  0
LINE
  5
22A
100
AcDbEntity
  8
LAYER0004
  6
CONTINUOUS
 62
       7
100
AcDbLine
 10
-139.60953753
 20
57.94166381
 30
0.0
 11
-139.55442049
 21
57.92678061
 31
0.0
  0
LINE
  5
22B
100
AcDbEntity
  8
LAYER0004
  6
CONTINUOUS
 62
       7
100
AcDbLine
 10
-139.55442049
 20
57.92678061
 30
0.0
 11
-139.4999886
 21
57.90920326
 31
0.0
  0
LINE
  5
22C
100
AcDbEntity
  8
LAYER0004
  6
CONTINUOUS
 62
       7
100
AcDbLine
 10
-139.4999886
 20
57.90920326
 30
0.0
 11
-139.44633945
 21
57.88855343
 31
0.0
  0
LINE
  5
22D
100
AcDbEntity
  8
LAYER0004
  6
CONTINUOUS
 62
       7
100
AcDbLine
 10
-139.44633945
 20
57.88855343
 30
0.0
 11
-139.39356028
 21
57.86468442
 31
0.0
  0
LINE
  5
22E
100
AcDbEntity
  8
LAYER0004
  6
CONTINUOUS
 62
       7
100
AcDbLine
 10
-139.39356028
 20
57.86468442
 30
0.0
 11
-139.34172547
 21
57.83773774
 31
0.0
  0
LINE
  5
22F
100
AcDbEntity
  8
LAYER0004
  6
CONTINUOUS
 62
       7
100
AcDbLine
 10
-139.34172547
 20
57.83773774
 30
0.0
 11
-139.29090861
 21
57.80787293
 31
0.0
  0
LINE
  5
230
100
AcDbEntity
  8
LAYER0004
  6
CONTINUOUS
 62
       7
100
AcDbLine
 10
-139.29090861
 20
57.80787293
 30
0.0
 11
-139.24118325
 21
57.77524953
 31
0.0
  0
LINE
  5
231
100
AcDbEntity
  8
LAYER0004
  6
CONTINUOUS
 62
       7
100
AcDbLine
 10
-139.24118325
 20
57.77524953
 30
0.0
 11
-139.19262299
 21
57.74002709
 31
0.0
  0
LINE
  5
232
100
AcDbEntity
  8
LAYER0004
  6
CONTINUOUS
 62
       7
100
AcDbLine
 10
-139.19262299
 20
57.74002709
 30
0.0
 11
-139.14530139
 21
57.70236517
 31
0.0
  0
LINE
  5
233
100
AcDbEntity
  8
LAYER0004
  6
CONTINUOUS
 62
       7
100
AcDbLine
 10
-139.14530139
 20
57.70236517
 30
0.0
 11
-139.09929203
 21
57.66242329
 31
0.0
  0
LINE
  5
234
100
AcDbEntity
  8
LAYER0004
  6
CONTINUOUS
 62
       7
100
AcDbLine
 10
-139.09929203
 20
57.66242329
 30
0.0
 11
-139.05466848
 21
57.62036101
 31
0.0
  0
LINE
  5
235
100
AcDbEntity
  8
LAYER0004
  6
CONTINUOUS
 62
       7
100
AcDbLine
 10
-139.05466848
 20
57.62036101
 30
0.0
 11
-139.01150056
 21
57.57632726
 31
0.0
  0
LINE
  5
236
100
AcDbEntity
  8
LAYER0004
  6
CONTINUOUS
 62
       7
100
AcDbLine
 10
-139.01150056
 20
57.57632726
 30
0.0
 11
-138.96983306
 21
57.53040021
 31
0.0
  0
LINE
  5
237
100
AcDbEntity
  8
LAYER0004
  6
CONTINUOUS
 62
       7
100
AcDbLine
 10
-138.96983306
 20
57.53040021
 30
0.0
 11
-138.9297005
 21
57.48262908
 31
0.0
  0
LINE
  5
238
100
AcDbEntity
  8
LAYER0004
  6
CONTINUOUS
 62
       7
100
AcDbLine
 10
-138.9297005
 20
57.48262908
 30
0.0
 11
-138.89113739
 21
57.43306302
 31
0.0
  0
LINE
  5
239
100
AcDbEntity
  8
LAYER0004
  6
CONTINUOUS
 62
       7
100
AcDbLine
 10
-138.89113739
 20
57.43306302
 30
0.0
 11
-138.85417825
 21
57.38175114
 31
0.0
  0
LINE
  5
23A
100
AcDbEntity
  8
LAYER0004
  6
CONTINUOUS
 62
       7
100
AcDbLine
 10
-138.85417825
 20
57.38175114
 30
0.0
 11
-138.81885757
 21
57.32874261
 31
0.0
  0
LINE
  5
23B
100
AcDbEntity
  8
LAYER0004
  6
CONTINUOUS
 62
       7
100
AcDbLine
 10
-138.81885757
 20
57.32874261
 30
0.0
 11
-138.78520986
 21
57.27408653
 31
0.0
  0
LINE
  5
23C
100
AcDbEntity
  8
LAYER0004
  6
CONTINUOUS
 62
       7
100
AcDbLine
 10
-138.78520986
 20
57.27408653
 30
0.0
 11
-138.75326963
 21
57.21783207
 31
0.0
  0
LINE
  5
23D
100
AcDbEntity
  8
LAYER0004
  6
CONTINUOUS
 62
       7
100
AcDbLine
 10
-138.75326963
 20
57.21783207
 30
0.0
 11
-138.72307155
 21
57.16002852
 31
0.0
  0
LINE
  5
23E
100
AcDbEntity
  8
LAYER0004
  6
CONTINUOUS
 62
       7
100
AcDbLine
 10
-138.72307155
 20
57.16002852
 30
0.0
 11
-138.69467037
 21
57.10074557
 31
0.0
  0
LINE
  5
23F
100
AcDbEntity
  8
LAYER0004
  6
CONTINUOUS
 62
       7
100
AcDbLine
 10
-138.69467037
 20
57.10074557
 30
0.0
 11
-138.66815916
 21
57.04009184
 31
0.0
  0
LINE
  5
240
100
AcDbEntity
  8
LAYER0004
  6
CONTINUOUS
 62
       7
100
AcDbLine
 10
-138.66815916
 20
57.04009184
 30
0.0
 11
-138.64363529
 21
56.97818033
 31
0.0
  0
LINE
  5
241
100
AcDbEntity
  8
LAYER0004
  6
CONTINUOUS
 62
       7
100
AcDbLine
 10
-138.64363529
 20
56.97818033
 30
0.0
 11
-138.62119618
 21
56.91512405
 31
0.0
  0
LINE
  5
242
100
AcDbEntity
  8
LAYER0004
  6
CONTINUOUS
 62
       7
100
AcDbLine
 10
-138.62119618
 20
56.91512405
 30
0.0
 11
-138.60093921
 21
56.85103599
 31
0.0
  0
LINE
  5
243
100
AcDbEntity
  8
LAYER0004
  6
CONTINUOUS
 62
       7
100
AcDbLine
 10
-138.60093921
 20
56.85103599
 30
0.0
 11
-138.58296176
 21
56.78602917
 31
0.0
  0
LINE
  5
244
100
AcDbEntity
  8
LAYER0004
  6
CONTINUOUS
 62
       7
100
AcDbLine
 10
-138.58296176
 20
56.78602917
 30
0.0
 11
-138.56736124
 21
56.72021658
 31
0.0
  0
LINE
  5
245
100
AcDbEntity
  8
LAYER0004
  6
CONTINUOUS
 62
       7
100
AcDbLine
 10
-138.56736124
 20
56.72021658
 30
0.0
 11
-138.55423503
 21
56.65371124
 31
0.0
  0
LINE
  5
246
100
AcDbEntity
  8
LAYER0004
  6
CONTINUOUS
 62
       7
100
AcDbLine
 10
-138.55423503
 20
56.65371124
 30
0.0
 11
-138.54365189
 21
56.58662525
 31
0.0
  0
LINE
  5
247
100
AcDbEntity
  8
LAYER0004
  6
CONTINUOUS
 62
       7
100
AcDbLine
 10
-138.54365189
 20
56.58662525
 30
0.0
 11
-138.53535879
 21
56.5190607
 31
0.0
  0
LINE
  5
248
100
AcDbEntity
  8
LAYER0004
  6
CONTINUOUS
 62
       7
100
AcDbLine
 10
-138.53535879
 20
56.5190607
 30
0.0
 11
-138.52890026
 21
56.45111339
 31
0.0
  0
LINE
  5
249
100
AcDbEntity
  8
LAYER0004
  6
CONTINUOUS
 62
       7
100
AcDbLine
 10
-138.52890026
 20
56.45111339
 30
0.0
 11
-138.52381765
 21
56.382879
 31
0.0
  0
LINE
  5
24A
100
AcDbEntity
  8
LAYER0004
  6
CONTINUOUS
 62
       7
100
AcDbLine
 10
-138.52381765
 20
56.382879
 30
0.0
 11
-138.51965232
 21
56.31445323
 31
0.0
  0
LINE
  5
24B
100
AcDbEntity
  8
LAYER0004
  6
CONTINUOUS
 62
       7
100
AcDbLine
 10
-138.51965232
 20
56.31445323
 30
0.0
 11
-138.51594563
 21
56.24593177
 31
0.0
  0
LINE
  5
24C
100
AcDbEntity
  8
LAYER0004
  6
CONTINUOUS
 62
       7
100
AcDbLine
 10
-174.39432453
 20
56.24593177
 30
0.0
 11
-174.38886093
 21
56.31466677
 31
0.0
  0
LINE
  5
24D
100
AcDbEntity
  8
LAYER0004
  6
CONTINUOUS
 62
       7
100
AcDbLine
 10
-174.38886093
 20
56.31466677
 30
0.0
 11
-174.38308718
 21
56.38329777
 31
0.0
  0
LINE
  5
24E
100
AcDbEntity
  8
LAYER0004
  6
CONTINUOUS
 62
       7
100
AcDbLine
 10
-174.38308718
 20
56.38329777
 30
0.0
 11
-174.37669315
 21
56.45172079
 31
0.0
  0
LINE
  5
24F
100
AcDbEntity
  8
LAYER0004
  6
CONTINUOUS
 62
       7
100
AcDbLine
 10
-174.37669315
 20
56.45172079
 30
0.0
 11
-174.3693687
 21
56.51983183
 31
0.0
  0
LINE
  5
250
100
AcDbEntity
  8
LAYER0004
  6
CONTINUOUS
 62
       7
100
AcDbLine
 10
-174.3693687
 20
56.51983183
 30
0.0
 11
-174.36080368
 21
56.58752691
 31
0.0
  0
LINE
  5
251
100
AcDbEntity
  8
LAYER0004
  6
CONTINUOUS
 62
       7
100
AcDbLine
 10
-174.36080368
 20
56.58752691
 30
0.0
 11
-174.35068795
 21
56.65470203
 31
0.0
  0
LINE
  5
252
100
AcDbEntity
  8
LAYER0004
  6
CONTINUOUS
 62
       7
100
AcDbLine
 10
-174.35068795
 20
56.65470203
 30
0.0
 11
-174.33871138
 21
56.72125319
 31
0.0
  0
LINE
  5
253
100
AcDbEntity
  8
LAYER0004
  6
CONTINUOUS
 62
       7
100
AcDbLine
 10
-174.33871138
 20
56.72125319
 30
0.0
 11
-174.32456381
 21
56.78707641
 31
0.0
  0
LINE
  5
254
100
AcDbEntity
  8
LAYER0004
  6
CONTINUOUS
 62
       7
100
AcDbLine
 10
-174.32456381
 20
56.78707641
 30
0.0
 11
-174.30794029
 21
56.85206775
 31
0.0
  0
LINE
  5
255
100
AcDbEntity
  8
LAYER0004
  6
CONTINUOUS
 62
       7
100
AcDbLine
 10
-174.30794029
 20
56.85206775
 30
0.0
 11
-174.28872005
 21
56.91612522
 31
0.0
  0
LINE
  5
256
100
AcDbEntity
  8
LAYER0004
  6
CONTINUOUS
 62
       7
100
AcDbLine
 10
-174.28872005
 20
56.91612522
 30
0.0
 11
-174.26701217
 21
56.9791493
 31
0.0
  0
LINE
  5
257
100
AcDbEntity
  8
LAYER0004
  6
CONTINUOUS
 62
       7
100
AcDbLine
 10
-174.26701217
 20
56.9791493
 30
0.0
 11
-174.24294017
 21
57.04104059
 31
0.0
  0
LINE
  5
258
100
AcDbEntity
  8
LAYER0004
  6
CONTINUOUS
 62
       7
100
AcDbLine
 10
-174.24294017
 20
57.04104059
 30
0.0
 11
-174.21662759
 21
57.1016997
 31
0.0
  0
LINE
  5
259
100
AcDbEntity
  8
LAYER0004
  6
CONTINUOUS
 62
       7
100
AcDbLine
 10
-174.21662759
 20
57.1016997
 30
0.0
 11
-174.18819795
 21
57.16102725
 31
0.0
  0
LINE
  5
25A
100
AcDbEntity
  8
LAYER0004
  6
CONTINUOUS
 62
       7
100
AcDbLine
 10
-174.18819795
 20
57.16102725
 30
0.0
 11
-174.15777479
 21
57.21892386
 31
0.0
  0
LINE
  5
25B
100
AcDbEntity
  8
LAYER0004
  6
CONTINUOUS
 62
       7
100
AcDbLine
 10
-174.15777479
 20
57.21892386
 30
0.0
 11
-174.12548162
 21
57.27529014
 31
0.0
  0
LINE
  5
25C
100
AcDbEntity
  8
LAYER0004
  6
CONTINUOUS
 62
       7
100
AcDbLine
 10
-174.12548162
 20
57.27529014
 30
0.0
 11
-174.09144199
 21
57.33002669
 31
0.0
  0
LINE
  5
25D
100
AcDbEntity
  8
LAYER0004
  6
CONTINUOUS
 62
       7
100
AcDbLine
 10
-174.09144199
 20
57.33002669
 30
0.0
 11
-174.05577101
 21
57.38303903
 31
0.0
  0
LINE
  5
25E
100
AcDbEntity
  8
LAYER0004
  6
CONTINUOUS
 62
       7
100
AcDbLine
 10
-174.05577101
 20
57.38303903
 30
0.0
 11
-174.01852744
 21
57.43426542
 31
0.0
  0
LINE
  5
25F
100
AcDbEntity
  8
LAYER0004
  6
CONTINUOUS
 62
       7
100
AcDbLine
 10
-174.01852744
 20
57.43426542
 30
0.0
 11
-173.97974686
 21
57.48365759
 31
0.0
  0
LINE
  5
260
100
AcDbEntity
  8
LAYER0004
  6
CONTINUOUS
 62
       7
100
AcDbLine
 10
-173.97974686
 20
57.48365759
 30
0.0
 11
-173.93946481
 21
57.53116732
 31
0.0
  0
LINE
  5
261
100
AcDbEntity
  8
LAYER0004
  6
CONTINUOUS
 62
       7
100
AcDbLine
 10
-173.93946481
 20
57.53116732
 30
0.0
 11
-173.8977168
 21
57.57674638
 31
0.0
  0
LINE
  5
262
100
AcDbEntity
  8
LAYER0004
  6
CONTINUOUS
 62
       7
100
AcDbLine
 10
-173.8977168
 20
57.57674638
 30
0.0
 11
-173.85453834
 21
57.62034655
 31
0.0
  0
LINE
  5
263
100
AcDbEntity
  8
LAYER0004
  6
CONTINUOUS
 62
       7
100
AcDbLine
 10
-173.85453834
 20
57.62034655
 30
0.0
 11
-173.80996497
 21
57.66191961
 31
0.0
  0
LINE
  5
264
100
AcDbEntity
  8
LAYER0004
  6
CONTINUOUS
 62
       7
100
AcDbLine
 10
-173.80996497
 20
57.66191961
 30
0.0
 11
-173.7640322
 21
57.70141731
 31
0.0
  0
LINE
  5
265
100
AcDbEntity
  8
LAYER0004
  6
CONTINUOUS
 62
       7
100
AcDbLine
 10
-173.7640322
 20
57.70141731
 30
0.0
 11
-173.71677568
 21
57.73879126
 31
0.0
  0
LINE
  5
266
100
AcDbEntity
  8
LAYER0004
  6
CONTINUOUS
 62
       7
100
AcDbLine
 10
-173.71677568
 20
57.73879126
 30
0.0
 11
-173.66824714
 21
57.7739688
 31
0.0
  0
LINE
  5
267
100
AcDbEntity
  8
LAYER0004
  6
CONTINUOUS
 62
       7
100
AcDbLine
 10
-173.66824714
 20
57.7739688
 30
0.0
 11
-173.61852977
 21
57.80682989
 31
0.0
  0
LINE
  5
268
100
AcDbEntity
  8
LAYER0004
  6
CONTINUOUS
 62
       7
100
AcDbLine
 10
-173.61852977
 20
57.80682989
 30
0.0
 11
-173.56771043
 21
57.83724901
 31
0.0
  0
LINE
  5
269
100
AcDbEntity
  8
LAYER0004
  6
CONTINUOUS
 62
       7
100
AcDbLine
 10
-173.56771043
 20
57.83724901
 30
0.0
 11
-173.51587593
 21
57.86510063
 31
0.0
  0
LINE
  5
26A
100
AcDbEntity
  8
LAYER0004
  6
CONTINUOUS
 62
       7
100
AcDbLine
 10
-173.51587593
 20
57.86510063
 30
0.0
 11
-173.46311313
 21
57.89025923
 31
0.0
  0
LINE
  5
26B
100
AcDbEntity
  8
LAYER0004
  6
CONTINUOUS
 62
       7
100
AcDbLine
 10
-173.46311313
 20
57.89025923
 30
0.0
 11
-173.40950885
 21
57.91259927
 31
0.0
  0
LINE
  5
26C
100
AcDbEntity
  8
LAYER0004
  6
CONTINUOUS
 62
       7
100
AcDbLine
 10
-173.40950885
 20
57.91259927
 30
0.0
 11
-173.35514995
 21
57.93199524
 31
0.0
  0
LINE
  5
26D
100
AcDbEntity
  8
LAYER0004
  6
CONTINUOUS
 62
       7
100
AcDbLine
 10
-173.35514995
 20
57.93199524
 30
0.0
 11
-173.30012325
 21
57.94832161
 31
0.0
  0
LINE
  5
26E
100
AcDbEntity
  8
LAYER0004
  6
CONTINUOUS
 62
       7
100
AcDbLine
 10
-173.30012325
 20
57.94832161
 30
0.0
 11
-173.24451613
 21
57.96148765
 31
0.0
  0
LINE
  5
26F
100
AcDbEntity
  8
LAYER0004
  6
CONTINUOUS
 62
       7
100
AcDbLine
 10
-173.24451613
 20
57.96148765
 30
0.0
 11
-173.18842203
 21
57.97180336
 31
0.0
  0
LINE
  5
270
100
AcDbEntity
  8
LAYER0004
  6
CONTINUOUS
 62
       7
100
AcDbLine
 10
-173.18842203
 20
57.97180336
 30
0.0
 11
-173.1319383
 21
57.97983545
 31
0.0
  0
LINE
  5
271
100
AcDbEntity
  8
LAYER0004
  6
CONTINUOUS
 62
       7
100
AcDbLine
 10
-173.1319383
 20
57.97983545
 30
0.0
 11
-173.07516235
 21
57.98615482
 31
0.0
  0
LINE
  5
272
100
AcDbEntity
  8
LAYER0004
  6
CONTINUOUS
 62
       7
100
AcDbLine
 10
-173.07516235
 20
57.98615482
 30
0.0
 11
-173.01819158
 21
57.99133239
 31
0.0
  0
LINE
  5
273
100
AcDbEntity
  8
LAYER0004
  6
CONTINUOUS
 62
       7
100
AcDbLine
 10
-173.01819158
 20
57.99133239
 30
0.0
 11
-172.9611234
 21
57.99593905
 31
0.0
  0
LINE
  5
274
100
AcDbEntity
  8
LAYER0004
  6
CONTINUOUS
 62
       7
100
AcDbLine
 10
-172.9611234
 20
44.09594217
 30
0.0
 11
-173.01829571
 21
44.10274282
 31
0.0
  0
LINE
  5
275
100
AcDbEntity
  8
LAYER0004
  6
CONTINUOUS
 62
       7
100
AcDbLine
 10
-173.01829571
 20
44.10274282
 30
0.0
 11
-173.07537014
 21
44.10992835
 31
0.0
  0
LINE
  5
276
100
AcDbEntity
  8
LAYER0004
  6
CONTINUOUS
 62
       7
100
AcDbLine
 10
-173.07537014
 20
44.10992835
 30
0.0
 11
-173.1322488
 21
44.11788363
 31
0.0
  0
LINE
  5
277
100
AcDbEntity
  8
LAYER0004
  6
CONTINUOUS
 62
       7
100
AcDbLine
 10
-173.1322488
 20
44.11788363
 30
0.0
 11
-173.18883381
 21
44.12699356
 31
0.0
  0
LINE
  5
278
100
AcDbEntity
  8
LAYER0004
  6
CONTINUOUS
 62
       7
100
AcDbLine
 10
-173.18883381
 20
44.12699356
 30
0.0
 11
-173.24502729
 21
44.137643
 31
0.0
  0
LINE
  5
279
100
AcDbEntity
  8
LAYER0004
  6
CONTINUOUS
 62
       7
100
AcDbLine
 10
-173.24502729
 20
44.137643
 30
0.0
 11
-173.30073136
 21
44.15021683
 31
0.0
  0
LINE
  5
27A
100
AcDbEntity
  8
LAYER0004
  6
CONTINUOUS
 62
       7
100
AcDbLine
 10
-173.30073136
 20
44.15021683
 30
0.0
 11
-173.35584813
 21
44.16509994
 31
0.0
  0
LINE
  5
27B
100
AcDbEntity
  8
LAYER0004
  6
CONTINUOUS
 62
       7
100
AcDbLine
 10
-173.35584813
 20
44.16509994
 30
0.0
 11
-173.41027972
 21
44.18267721
 31
0.0
  0
LINE
  5
27C
100
AcDbEntity
  8
LAYER0004
  6
CONTINUOUS
 62
       7
100
AcDbLine
 10
-173.41027972
 20
44.18267721
 30
0.0
 11
-173.46392853
 21
44.20332695
 31
0.0
  0
LINE
  5
27D
100
AcDbEntity
  8
LAYER0004
  6
CONTINUOUS
 62
       7
100
AcDbLine
 10
-173.46392853
 20
44.20332695
 30
0.0
 11
-173.51670734
 21
44.22719589
 31
0.0
  0
LINE
  5
27E
100
AcDbEntity
  8
LAYER0004
  6
CONTINUOUS
 62
       7
100
AcDbLine
 10
-173.51670734
 20
44.22719589
 30
0.0
 11
-173.56854179
 21
44.25414248
 31
0.0
  0
LINE
  5
27F
100
AcDbEntity
  8
LAYER0004
  6
CONTINUOUS
 62
       7
100
AcDbLine
 10
-173.56854179
 20
44.25414248
 30
0.0
 11
-173.61935833
 21
44.28400717
 31
0.0
  0
LINE
  5
280
100
AcDbEntity
  8
LAYER0004
  6
CONTINUOUS
 62
       7
100
AcDbLine
 10
-173.61935833
 20
44.28400717
 30
0.0
 11
-173.66908341
 21
44.31663038
 31
0.0
  0
LINE
  5
281
100
AcDbEntity
  8
LAYER0004
  6
CONTINUOUS
 62
       7
100
AcDbLine
 10
-173.66908341
 20
44.31663038
 30
0.0
 11
-173.7176435
 21
44.35185254
 31
0.0
  0
LINE
  5
282
100
AcDbEntity
  8
LAYER0004
  6
CONTINUOUS
 62
       7
100
AcDbLine
 10
-173.7176435
 20
44.35185254
 30
0.0
 11
-173.76496504
 21
44.38951409
 31
0.0
  0
LINE
  5
283
100
AcDbEntity
  8
LAYER0004
  6
CONTINUOUS
 62
       7
100
AcDbLine
 10
-173.76496504
 20
44.38951409
 30
0.0
 11
-173.81097449
 21
44.42945544
 31
0.0
  0
LINE
  5
284
100
AcDbEntity
  8
LAYER0004
  6
CONTINUOUS
 62
       7
100
AcDbLine
 10
-173.81097449
 20
44.42945544
 30
0.0
 11
-173.85559829
 21
44.47151703
 31
0.0
  0
LINE
  5
285
100
AcDbEntity
  8
LAYER0004
  6
CONTINUOUS
 62
       7
100
AcDbLine
 10
-173.85559829
 20
44.47151703
 30
0.0
 11
-173.89876666
 21
44.51554991
 31
0.0
  0
LINE
  5
286
100
AcDbEntity
  8
LAYER0004
  6
CONTINUOUS
 62
       7
100
AcDbLine
 10
-173.89876666
 20
44.51554991
 30
0.0
 11
-173.94043478
 21
44.56147593
 31
0.0
  0
LINE
  5
287
100
AcDbEntity
  8
LAYER0004
  6
CONTINUOUS
 62
       7
100
AcDbLine
 10
-173.94043478
 20
44.56147593
 30
0.0
 11
-173.98056804
 21
44.60924593
 31
0.0
  0
LINE
  5
288
100
AcDbEntity
  8
LAYER0004
  6
CONTINUOUS
 62
       7
100
AcDbLine
 10
-173.98056804
 20
44.60924593
 30
0.0
 11
-174.01913189
 21
44.65881081
 31
0.0
  0
LINE
  5
289
100
AcDbEntity
  8
LAYER0004
  6
CONTINUOUS
 62
       7
100
AcDbLine
 10
-174.01913189
 20
44.65881081
 30
0.0
 11
-174.05609176
 21
44.7101215
 31
0.0
  0
LINE
  5
28A
100
AcDbEntity
  8
LAYER0004
  6
CONTINUOUS
 62
       7
100
AcDbLine
 10
-174.05609176
 20
44.7101215
 30
0.0
 11
-174.0914131
 21
44.76312891
 31
0.0
  0
LINE
  5
28B
100
AcDbEntity
  8
LAYER0004
  6
CONTINUOUS
 62
       7
100
AcDbLine
 10
-174.0914131
 20
44.76312891
 30
0.0
 11
-174.12506132
 21
44.81778396
 31
0.0
  0
LINE
  5
28C
100
AcDbEntity
  8
LAYER0004
  6
CONTINUOUS
 62
       7
100
AcDbLine
 10
-174.12506132
 20
44.81778396
 30
0.0
 11
-174.15700188
 21
44.87403756
 31
0.0
  0
LINE
  5
28D
100
AcDbEntity
  8
LAYER0004
  6
CONTINUOUS
 62
       7
100
AcDbLine
 10
-174.15700188
 20
44.87403756
 30
0.0
 11
-174.18720004
 21
44.93184046
 31
0.0
  0
LINE
  5
28E
100
AcDbEntity
  8
LAYER0004
  6
CONTINUOUS
 62
       7
100
AcDbLine
 10
-174.18720004
 20
44.93184046
 30
0.0
 11
-174.21560103
 21
44.99112298
 31
0.0
  0
LINE
  5
28F
100
AcDbEntity
  8
LAYER0004
  6
CONTINUOUS
 62
       7
100
AcDbLine
 10
-174.21560103
 20
44.99112298
 30
0.0
 11
-174.24211184
 21
45.05177647
 31
0.0
  0
LINE
  5
290
100
AcDbEntity
  8
LAYER0004
  6
CONTINUOUS
 62
       7
100
AcDbLine
 10
-174.24211184
 20
45.05177647
 30
0.0
 11
-174.26663516
 21
45.11368789
 31
0.0
  0
LINE
  5
291
100
AcDbEntity
  8
LAYER0004
  6
CONTINUOUS
 62
       7
100
AcDbLine
 10
-174.26663516
 20
45.11368789
 30
0.0
 11
-174.28907367
 21
45.17674419
 31
0.0
  0
LINE
  5
292
100
AcDbEntity
  8
LAYER0004
  6
CONTINUOUS
 62
       7
100
AcDbLine
 10
-174.28907367
 20
45.17674419
 30
0.0
 11
-174.30933003
 21
45.24083232
 31
0.0
  0
LINE
  5
293
100
AcDbEntity
  8
LAYER0004
  6
CONTINUOUS
 62
       7
100
AcDbLine
 10
-174.30933003
 20
45.24083232
 30
0.0
 11
-174.32730692
 21
45.30583923
 31
0.0
  0
LINE
  5
294
100
AcDbEntity
  8
LAYER0004
  6
CONTINUOUS
 62
       7
100
AcDbLine
 10
-174.32730692
 20
45.30583923
 30
0.0
 11
-174.34290704
 21
45.37165187
 31
0.0
  0
LINE
  5
295
100
AcDbEntity
  8
LAYER0004
  6
CONTINUOUS
 62
       7
100
AcDbLine
 10
-174.34290704
 20
45.37165187
 30
0.0
 11
-174.35603304
 21
45.4381572
 31
0.0
  0
LINE
  5
296
100
AcDbEntity
  8
LAYER0004
  6
CONTINUOUS
 62
       7
100
AcDbLine
 10
-174.35603304
 20
45.4381572
 30
0.0
 11
-174.36661622
 21
45.50524306
 31
0.0
  0
LINE
  5
297
100
AcDbEntity
  8
LAYER0004
  6
CONTINUOUS
 62
       7
100
AcDbLine
 10
-174.36661622
 20
45.50524306
 30
0.0
 11
-174.37490952
 21
45.57280735
 31
0.0
  0
LINE
  5
298
100
AcDbEntity
  8
LAYER0004
  6
CONTINUOUS
 62
       7
100
AcDbLine
 10
-174.37490952
 20
45.57280735
 30
0.0
 11
-174.3813684
 21
45.64075431
 31
0.0
  0
LINE
  5
299
100
AcDbEntity
  8
LAYER0004
  6
CONTINUOUS
 62
       7
100
AcDbLine
 10
-174.3813684
 20
45.64075431
 30
0.0
 11
-174.38645145
 21
45.70898828
 31
0.0
  0
LINE
  5
29A
100
AcDbEntity
  8
LAYER0004
  6
CONTINUOUS
 62
       7
100
AcDbLine
 10
-174.38645145
 20
45.70898828
 30
0.0
 11
-174.3906173
 21
45.77741357
 31
0.0
  0
LINE
  5
29B
100
AcDbEntity
  8
LAYER0004
  6
CONTINUOUS
 62
       7
100
AcDbLine
 10
-174.3906173
 20
45.77741357
 30
0.0
 11
-174.39432453
 21
45.84593454
 31
0.0
  0
LINE
  5
29C
100
AcDbEntity
  8
LAYER0004
  6
CONTINUOUS
 62
       7
100
AcDbLine
 10
-138.51594563
 20
45.84593454
 30
0.0
 11
-138.52140957
 21
45.77719994
 31
0.0
  0
LINE
  5
29D
100
AcDbEntity
  8
LAYER0004
  6
CONTINUOUS
 62
       7
100
AcDbLine
 10
-138.52140957
 20
45.77719994
 30
0.0
 11
-138.52718365
 21
45.70856934
 31
0.0
  0
LINE
  5
29E
100
AcDbEntity
  8
LAYER0004
  6
CONTINUOUS
 62
       7
100
AcDbLine
 10
-138.52718365
 20
45.70856934
 30
0.0
 11
-138.53357801
 21
45.64014671
 31
0.0
  0
LINE
  5
29F
100
AcDbEntity
  8
LAYER0004
  6
CONTINUOUS
 62
       7
100
AcDbLine
 10
-138.53357801
 20
45.64014671
 30
0.0
 11
-138.54090281
 21
45.57203605
 31
0.0
  0
LINE
  5
2A0
100
AcDbEntity
  8
LAYER0004
  6
CONTINUOUS
 62
       7
100
AcDbLine
 10
-138.54090281
 20
45.57203605
 30
0.0
 11
-138.54946818
 21
45.50434134
 31
0.0
  0
LINE
  5
2A1
100
AcDbEntity
  8
LAYER0004
  6
CONTINUOUS
 62
       7
100
AcDbLine
 10
-138.54946818
 20
45.50434134
 30
0.0
 11
-138.55958427
 21
45.43716659
 31
0.0
  0
LINE
  5
2A2
100
AcDbEntity
  8
LAYER0004
  6
CONTINUOUS
 62
       7
100
AcDbLine
 10
-138.55958427
 20
45.43716659
 30
0.0
 11
-138.57156122
 21
45.37061576
 31
0.0
  0
LINE
  5
2A3
100
AcDbEntity
  8
LAYER0004
  6
CONTINUOUS
 62
       7
100
AcDbLine
 10
-138.57156122
 20
45.37061576
 30
0.0
 11
-138.58570917
 21
45.30479287
 31
0.0
  0
LINE
  5
2A4
100
AcDbEntity
  8
LAYER0004
  6
CONTINUOUS
 62
       7
100
AcDbLine
 10
-138.58570917
 20
45.30479287
 30
0.0
 11
-138.60233309
 21
45.23980183
 31
0.0
  0
LINE
  5
2A5
100
AcDbEntity
  8
LAYER0004
  6
CONTINUOUS
 62
       7
100
AcDbLine
 10
-138.60233309
 20
45.23980183
 30
0.0
 11
-138.62155368
 21
45.17574464
 31
0.0
  0
LINE
  5
2A6
100
AcDbEntity
  8
LAYER0004
  6
CONTINUOUS
 62
       7
100
AcDbLine
 10
-138.62155368
 20
45.17574464
 30
0.0
 11
-138.64326187
 21
45.11272086
 31
0.0
  0
LINE
  5
2A7
100
AcDbEntity
  8
LAYER0004
  6
CONTINUOUS
 62
       7
100
AcDbLine
 10
-138.64326187
 20
45.11272086
 30
0.0
 11
-138.66733413
 21
45.05082989
 31
0.0
  0
LINE
  5
2A8
100
AcDbEntity
  8
LAYER0004
  6
CONTINUOUS
 62
       7
100
AcDbLine
 10
-138.66733413
 20
45.05082989
 30
0.0
 11
-138.69364695
 21
44.99017114
 31
0.0
  0
LINE
  5
2A9
100
AcDbEntity
  8
LAYER0004
  6
CONTINUOUS
 62
       7
100
AcDbLine
 10
-138.69364695
 20
44.99017114
 30
0.0
 11
-138.72207679
 21
44.93084401
 31
0.0
  0
LINE
  5
2AA
100
AcDbEntity
  8
LAYER0004
  6
CONTINUOUS
 62
       7
100
AcDbLine
 10
-138.72207679
 20
44.93084401
 30
0.0
 11
-138.75250015
 21
44.87294792
 31
0.0
  0
LINE
  5
2AB
100
AcDbEntity
  8
LAYER0004
  6
CONTINUOUS
 62
       7
100
AcDbLine
 10
-138.75250015
 20
44.87294792
 30
0.0
 11
-138.78479351
 21
44.81658227
 31
0.0
  0
LINE
  5
2AC
100
AcDbEntity
  8
LAYER0004
  6
CONTINUOUS
 62
       7
100
AcDbLine
 10
-138.78479351
 20
44.81658227
 30
0.0
 11
-138.81883333
 21
44.76184647
 31
0.0
  0
LINE
  5
2AD
100
AcDbEntity
  8
LAYER0004
  6
CONTINUOUS
 62
       7
100
AcDbLine
 10
-138.81883333
 20
44.76184647
 30
0.0
 11
-138.85450452
 21
44.70883501
 31
0.0
  0
LINE
  5
2AE
100
AcDbEntity
  8
LAYER0004
  6
CONTINUOUS
 62
       7
100
AcDbLine
 10
-138.85450452
 20
44.70883501
 30
0.0
 11
-138.8917483
 21
44.65760959
 31
0.0
  0
LINE
  5
2AF
100
AcDbEntity
  8
LAYER0004
  6
CONTINUOUS
 62
       7
100
AcDbLine
 10
-138.8917483
 20
44.65760959
 30
0.0
 11
-138.93052907
 21
44.60821837
 31
0.0
  0
LINE
  5
2B0
100
AcDbEntity
  8
LAYER0004
  6
CONTINUOUS
 62
       7
100
AcDbLine
 10
-138.93052907
 20
44.60821837
 30
0.0
 11
-138.97081128
 21
44.5607095
 31
0.0
  0
LINE
  5
2B1
100
AcDbEntity
  8
LAYER0004
  6
CONTINUOUS
 62
       7
100
AcDbLine
 10
-138.97081128
 20
44.5607095
 30
0.0
 11
-139.01255939
 21
44.51513111
 31
0.0
  0
LINE
  5
2B2
100
AcDbEntity
  8
LAYER0004
  6
CONTINUOUS
 62
       7
100
AcDbLine
 10
-139.01255939
 20
44.51513111
 30
0.0
 11
-139.05573785
 21
44.47153136
 31
0.0
  0
LINE
  5
2B3
100
AcDbEntity
  8
LAYER0004
  6
CONTINUOUS
 62
       7
100
AcDbLine
 10
-139.05573785
 20
44.47153136
 30
0.0
 11
-139.10031113
 21
44.42995838
 31
0.0
  0
LINE
  5
2B4
100
AcDbEntity
  8
LAYER0004
  6
CONTINUOUS
 62
       7
100
AcDbLine
 10
-139.10031113
 20
44.42995838
 30
0.0
 11
-139.14624367
 21
44.3904603
 31
0.0
  0
LINE
  5
2B5
100
AcDbEntity
  8
LAYER0004
  6
CONTINUOUS
 62
       7
100
AcDbLine
 10
-139.14624367
 20
44.3904603
 30
0.0
 11
-139.19349981
 21
44.35308548
 31
0.0
  0
LINE
  5
2B6
100
AcDbEntity
  8
LAYER0004
  6
CONTINUOUS
 62
       7
100
AcDbLine
 10
-139.19349981
 20
44.35308548
 30
0.0
 11
-139.24202782
 21
44.31790655
 31
0.0
  0
LINE
  5
2B7
100
AcDbEntity
  8
LAYER0004
  6
CONTINUOUS
 62
       7
100
AcDbLine
 10
-139.24202782
 20
44.31790655
 30
0.0
 11
-139.29174452
 21
44.28504373
 31
0.0
  0
LINE
  5
2B8
100
AcDbEntity
  8
LAYER0004
  6
CONTINUOUS
 62
       7
100
AcDbLine
 10
-139.29174452
 20
44.28504373
 30
0.0
 11
-139.34256313
 21
44.25462271
 31
0.0
  0
LINE
  5
2B9
100
AcDbEntity
  8
LAYER0004
  6
CONTINUOUS
 62
       7
100
AcDbLine
 10
-139.34256313
 20
44.25462271
 30
0.0
 11
-139.39439685
 21
44.22676921
 31
0.0
  0
LINE
  5
2BA
100
AcDbEntity
  8
LAYER0004
  6
CONTINUOUS
 62
       7
100
AcDbLine
 10
-139.39439685
 20
44.22676921
 30
0.0
 11
-139.44715888
 21
44.20160894
 31
0.0
  0
LINE
  5
2BB
100
AcDbEntity
  8
LAYER0004
  6
CONTINUOUS
 62
       7
100
AcDbLine
 10
-139.44715888
 20
44.20160894
 30
0.0
 11
-139.50076244
 21
44.1792676
 31
0.0
  0
LINE
  5
2BC
100
AcDbEntity
  8
LAYER0004
  6
CONTINUOUS
 62
       7
100
AcDbLine
 10
-139.50076244
 20
44.1792676
 30
0.0
 11
-139.55512072
 21
44.15987089
 31
0.0
  0
LINE
  5
2BD
100
AcDbEntity
  8
LAYER0004
  6
CONTINUOUS
 62
       7
100
AcDbLine
 10
-139.55512072
 20
44.15987089
 30
0.0
 11
-139.61014692
 21
44.14354453
 31
0.0
  0
LINE
  5
2BE
100
AcDbEntity
  8
LAYER0004
  6
CONTINUOUS
 62
       7
100
AcDbLine
 10
-139.61014692
 20
44.14354453
 30
0.0
 11
-139.66575373
 21
44.13037941
 31
0.0
  0
LINE
  5
2BF
100
AcDbEntity
  8
LAYER0004
  6
CONTINUOUS
 62
       7
100
AcDbLine
 10
-139.66575373
 20
44.13037941
 30
0.0
 11
-139.72184768
 21
44.12006549
 31
0.0
  0
LINE
  5
2C0
100
AcDbEntity
  8
LAYER0004
  6
CONTINUOUS
 62
       7
100
AcDbLine
 10
-139.72184768
 20
44.12006549
 30
0.0
 11
-139.77833141
 21
44.11203588
 31
0.0
  0
LINE
  5
2C1
100
AcDbEntity
  8
LAYER0004
  6
CONTINUOUS
 62
       7
100
AcDbLine
 10
-139.77833141
 20
44.11203588
 30
0.0
 11
-139.83510746
 21
44.10571951
 31
0.0
  0
LINE
  5
2C2
100
AcDbEntity
  8
LAYER0004
  6
CONTINUOUS
 62
       7
100
AcDbLine
 10
-139.83510746
 20
44.10571951
 30
0.0
 11
-139.89207839
 21
44.1005453
 31
0.0
  0
LINE
  5
2C3
100
AcDbEntity
  8
LAYER0004
  6
CONTINUOUS
 62
       7
100
AcDbLine
 10
-139.89207839
 20
44.1005453
 30
0.0
 11
-139.94914677
 21
44.09594217
 31
0.0
  0
LINE
  5
2C4
100
AcDbEntity
  8
LAYER0004
  6
CONTINUOUS
 62
       7
100
AcDbLine
 10
-126.65513541
 20
-28.21816376
 30
0.0
 11
-126.65590665
 21
-28.17137718
 31
0.0
  0
LINE
  5
2C5
100
AcDbEntity
  8
LAYER0004
  6
CONTINUOUS
 62
       7
100
AcDbLine
 10
-126.65590665
 20
-28.17137718
 30
0.0
 11
-126.65764498
 21
-28.1246334
 31
0.0
  0
LINE
  5
2C6
100
AcDbEntity
  8
LAYER0004
  6
CONTINUOUS
 62
       7
100
AcDbLine
 10
-126.65764498
 20
-28.1246334
 30
0.0
 11
-126.66099208
 21
-28.07796083
 31
0.0
  0
LINE
  5
2C7
100
AcDbEntity
  8
LAYER0004
  6
CONTINUOUS
 62
       7
100
AcDbLine
 10
-126.66099208
 20
-28.07796083
 30
0.0
 11
-126.66594945
 21
-28.03135952
 31
0.0
  0
LINE
  5
2C8
100
AcDbEntity
  8
LAYER0004
  6
CONTINUOUS
 62
       7
100
AcDbLine
 10
-126.66594945
 20
-28.03135952
 30
0.0
 11
-126.67244389
 21
-27.98482624
 31
0.0
  0
LINE
  5
2C9
100
AcDbEntity
  8
LAYER0004
  6
CONTINUOUS
 62
       7
100
AcDbLine
 10
-126.67244389
 20
-27.98482624
 30
0.0
 11
-126.68040222
 21
-27.93835775
 31
0.0
  0
LINE
  5
2CA
100
AcDbEntity
  8
LAYER0004
  6
CONTINUOUS
 62
       7
100
AcDbLine
 10
-126.68040222
 20
-27.93835775
 30
0.0
 11
-126.68975124
 21
-27.89195081
 31
0.0
  0
LINE
  5
2CB
100
AcDbEntity
  8
LAYER0004
  6
CONTINUOUS
 62
       7
100
AcDbLine
 10
-126.68975124
 20
-27.89195081
 30
0.0
 11
-126.70041775
 21
-27.84560218
 31
0.0
  0
LINE
  5
2CC
100
AcDbEntity
  8
LAYER0004
  6
CONTINUOUS
 62
       7
100
AcDbLine
 10
-126.70041775
 20
-27.84560218
 30
0.0
 11
-126.71232857
 21
-27.79930862
 31
0.0
  0
LINE
  5
2CD
100
AcDbEntity
  8
LAYER0004
  6
CONTINUOUS
 62
       7
100
AcDbLine
 10
-126.71232857
 20
-27.79930862
 30
0.0
 11
-126.72541049
 21
-27.75306689
 31
0.0
  0
LINE
  5
2CE
100
AcDbEntity
  8
LAYER0004
  6
CONTINUOUS
 62
       7
100
AcDbLine
 10
-126.72541049
 20
-27.75306689
 30
0.0
 11
-126.73959032
 21
-27.70687376
 31
0.0
  0
LINE
  5
2CF
100
AcDbEntity
  8
LAYER0004
  6
CONTINUOUS
 62
       7
100
AcDbLine
 10
-126.73959032
 20
-27.70687376
 30
0.0
 11
-126.75479488
 21
-27.66072597
 31
0.0
  0
LINE
  5
2D0
100
AcDbEntity
  8
LAYER0004
  6
CONTINUOUS
 62
       7
100
AcDbLine
 10
-126.75479488
 20
-27.66072597
 30
0.0
 11
-126.77095095
 21
-27.6146203
 31
0.0
  0
LINE
  5
2D1
100
AcDbEntity
  8
LAYER0004
  6
CONTINUOUS
 62
       7
100
AcDbLine
 10
-126.77095095
 20
-27.6146203
 30
0.0
 11
-126.78798536
 21
-27.5685535
 31
0.0
  0
LINE
  5
2D2
100
AcDbEntity
  8
LAYER0004
  6
CONTINUOUS
 62
       7
100
AcDbLine
 10
-126.78798536
 20
-27.5685535
 30
0.0
 11
-126.8058249
 21
-27.52252234
 31
0.0
  0
LINE
  5
2D3
100
AcDbEntity
  8
LAYER0004
  6
CONTINUOUS
 62
       7
100
AcDbLine
 10
-126.8058249
 20
-27.52252234
 30
0.0
 11
-126.82439638
 21
-27.47652357
 31
0.0
  0
LINE
  5
2D4
100
AcDbEntity
  8
LAYER0004
  6
CONTINUOUS
 62
       7
100
AcDbLine
 10
-126.82439638
 20
-27.47652357
 30
0.0
 11
-126.84362661
 21
-27.43055395
 31
0.0
  0
LINE
  5
2D5
100
AcDbEntity
  8
LAYER0004
  6
CONTINUOUS
 62
       7
100
AcDbLine
 10
-126.84362661
 20
-27.43055395
 30
0.0
 11
-126.8634424
 21
-27.38461025
 31
0.0
  0
LINE
  5
2D6
100
AcDbEntity
  8
LAYER0004
  6
CONTINUOUS
 62
       7
100
AcDbLine
 10
-126.8634424
 20
-27.38461025
 30
0.0
 11
-126.88377054
 21
-27.33868923
 31
0.0
  0
LINE
  5
2D7
100
AcDbEntity
  8
LAYER0004
  6
CONTINUOUS
 62
       7
100
AcDbLine
 10
-126.88377054
 20
-27.33868923
 30
0.0
 11
-126.90453785
 21
-27.29278764
 31
0.0
  0
LINE
  5
2D8
100
AcDbEntity
  8
LAYER0004
  6
CONTINUOUS
 62
       7
100
AcDbLine
 10
-126.90453785
 20
-27.29278764
 30
0.0
 11
-126.92567113
 21
-27.24690225
 31
0.0
  0
LINE
  5
2D9
100
AcDbEntity
  8
LAYER0004
  6
CONTINUOUS
 62
       7
100
AcDbLine
 10
-126.92567113
 20
-27.24690225
 30
0.0
 11
-126.94709718
 21
-27.20102982
 31
0.0
  0
LINE
  5
2DA
100
AcDbEntity
  8
LAYER0004
  6
CONTINUOUS
 62
       7
100
AcDbLine
 10
-126.94709718
 20
-27.20102982
 30
0.0
 11
-126.96874282
 21
-27.15516711
 31
0.0
  0
LINE
  5
2DB
100
AcDbEntity
  8
LAYER0004
  6
CONTINUOUS
 62
       7
100
AcDbLine
 10
-126.96874282
 20
-27.15516711
 30
0.0
 11
-126.99053485
 21
-27.10931087
 31
0.0
  0
LINE
  5
2DC
100
AcDbEntity
  8
LAYER0004
  6
CONTINUOUS
 62
       7
100
AcDbLine
 10
-126.99053485
 20
-27.10931087
 30
0.0
 11
-127.01240007
 21
-27.06346533
 31
0.0
  0
LINE
  5
2DD
100
AcDbEntity
  8
LAYER0004
  6
CONTINUOUS
 62
       7
100
AcDbLine
 10
-116.40513513
 20
-29.7540637
 30
0.0
 11
-116.40791388
 21
-29.7540637
 31
0.0
  0
LINE
  5
2DE
100
AcDbEntity
  8
LAYER0004
  6
CONTINUOUS
 62
       7
100
AcDbLine
 10
-116.40791388
 20
-29.7540637
 30
0.0
 11
-116.41102804
 21
-29.7540637
 31
0.0
  0
LINE
  5
2DF
100
AcDbEntity
  8
LAYER0004
  6
CONTINUOUS
 62
       7
100
AcDbLine
 10
-116.41102804
 20
-29.7540637
 30
0.0
 11
-116.41481301
 21
-29.7540637
 31
0.0
  0
LINE
  5
2E0
100
AcDbEntity
  8
LAYER0004
  6
CONTINUOUS
 62
       7
100
AcDbLine
 10
-116.41481301
 20
-29.7540637
 30
0.0
 11
-116.41960421
 21
-29.7540637
 31
0.0
  0
LINE
  5
2E1
100
AcDbEntity
  8
LAYER0004
  6
CONTINUOUS
 62
       7
100
AcDbLine
 10
-116.41960421
 20
-29.7540637
 30
0.0
 11
-116.42573704
 21
-29.7540637
 31
0.0
  0
LINE
  5
2E2
100
AcDbEntity
  8
LAYER0004
  6
CONTINUOUS
 62
       7
100
AcDbLine
 10
-116.42573704
 20
-29.7540637
 30
0.0
 11
-116.43354691
 21
-29.7540637
 31
0.0
  0
LINE
  5
2E3
100
AcDbEntity
  8
LAYER0004
  6
CONTINUOUS
 62
       7
100
AcDbLine
 10
-116.43354691
 20
-29.7540637
 30
0.0
 11
-116.44332842
 21
-29.7540637
 31
0.0
  0
LINE
  5
2E4
100
AcDbEntity
  8
LAYER0004
  6
CONTINUOUS
 62
       7
100
AcDbLine
 10
-116.44332842
 20
-29.7540637
 30
0.0
 11
-116.45509237
 21
-29.7540637
 31
0.0
  0
LINE
  5
2E5
100
AcDbEntity
  8
LAYER0004
  6
CONTINUOUS
 62
       7
100
AcDbLine
 10
-116.45509237
 20
-29.7540637
 30
0.0
 11
-116.46872905
 21
-29.7540637
 31
0.0
  0
LINE
  5
2E6
100
AcDbEntity
  8
LAYER0004
  6
CONTINUOUS
 62
       7
100
AcDbLine
 10
-116.46872905
 20
-29.7540637
 30
0.0
 11
-116.48412829
 21
-29.7540637
 31
0.0
  0
LINE
  5
2E7
100
AcDbEntity
  8
LAYER0004
  6
CONTINUOUS
 62
       7
100
AcDbLine
 10
-116.48412829
 20
-29.7540637
 30
0.0
 11
-116.50117993
 21
-29.7540637
 31
0.0
  0
LINE
  5
2E8
100
AcDbEntity
  8
LAYER0004
  6
CONTINUOUS
 62
       7
100
AcDbLine
 10
-116.50117993
 20
-29.7540637
 30
0.0
 11
-116.51977381
 21
-29.7540637
 31
0.0
  0
LINE
  5
2E9
100
AcDbEntity
  8
LAYER0004
  6
CONTINUOUS
 62
       7
100
AcDbLine
 10
-116.51977381
 20
-29.7540637
 30
0.0
 11
-116.53979978
 21
-29.7540637
 31
0.0
  0
LINE
  5
2EA
100
AcDbEntity
  8
LAYER0004
  6
CONTINUOUS
 62
       7
100
AcDbLine
 10
-116.53979978
 20
-29.7540637
 30
0.0
 11
-116.56114767
 21
-29.7540637
 31
0.0
  0
LINE
  5
2EB
100
AcDbEntity
  8
LAYER0004
  6
CONTINUOUS
 62
       7
100
AcDbLine
 10
-116.56114767
 20
-29.7540637
 30
0.0
 11
-116.58370732
 21
-29.7540637
 31
0.0
  0
LINE
  5
2EC
100
AcDbEntity
  8
LAYER0004
  6
CONTINUOUS
 62
       7
100
AcDbLine
 10
-116.58370732
 20
-29.7540637
 30
0.0
 11
-116.60736857
 21
-29.7540637
 31
0.0
  0
LINE
  5
2ED
100
AcDbEntity
  8
LAYER0004
  6
CONTINUOUS
 62
       7
100
AcDbLine
 10
-116.60736857
 20
-29.7540637
 30
0.0
 11
-116.63202126
 21
-29.7540637
 31
0.0
  0
LINE
  5
2EE
100
AcDbEntity
  8
LAYER0004
  6
CONTINUOUS
 62
       7
100
AcDbLine
 10
-116.63202126
 20
-29.7540637
 30
0.0
 11
-116.65755523
 21
-29.7540637
 31
0.0
  0
LINE
  5
2EF
100
AcDbEntity
  8
LAYER0004
  6
CONTINUOUS
 62
       7
100
AcDbLine
 10
-116.65755523
 20
-29.7540637
 30
0.0
 11
-116.68386033
 21
-29.7540637
 31
0.0
  0
LINE
  5
2F0
100
AcDbEntity
  8
LAYER0004
  6
CONTINUOUS
 62
       7
100
AcDbLine
 10
-116.68386033
 20
-29.7540637
 30
0.0
 11
-116.71082639
 21
-29.7540637
 31
0.0
  0
LINE
  5
2F1
100
AcDbEntity
  8
LAYER0004
  6
CONTINUOUS
 62
       7
100
AcDbLine
 10
-116.71082639
 20
-29.7540637
 30
0.0
 11
-116.73834324
 21
-29.7540637
 31
0.0
  0
LINE
  5
2F2
100
AcDbEntity
  8
LAYER0004
  6
CONTINUOUS
 62
       7
100
AcDbLine
 10
-116.73834324
 20
-29.7540637
 30
0.0
 11
-116.76630074
 21
-29.7540637
 31
0.0
  0
LINE
  5
2F3
100
AcDbEntity
  8
LAYER0004
  6
CONTINUOUS
 62
       7
100
AcDbLine
 10
-116.76630074
 20
-29.7540637
 30
0.0
 11
-116.79458872
 21
-29.7540637
 31
0.0
  0
LINE
  5
2F4
100
AcDbEntity
  8
LAYER0004
  6
CONTINUOUS
 62
       7
100
AcDbLine
 10
-116.79458872
 20
-29.7540637
 30
0.0
 11
-116.82309702
 21
-29.7540637
 31
0.0
  0
LINE
  5
2F5
100
AcDbEntity
  8
LAYER0004
  6
CONTINUOUS
 62
       7
100
AcDbLine
 10
-116.82309702
 20
-29.7540637
 30
0.0
 11
-116.85171548
 21
-29.7540637
 31
0.0
  0
LINE
  5
2F6
100
AcDbEntity
  8
LAYER0004
  6
CONTINUOUS
 62
       7
100
AcDbLine
 10
-116.85171548
 20
-19.75405833
 30
0.0
 11
-116.82309702
 21
-19.75405833
 31
0.0
  0
LINE
  5
2F7
100
AcDbEntity
  8
LAYER0004
  6
CONTINUOUS
 62
       7
100
AcDbLine
 10
-116.82309702
 20
-19.75405833
 30
0.0
 11
-116.79458872
 21
-19.75405833
 31
0.0
  0
LINE
  5
2F8
100
AcDbEntity
  8
LAYER0004
  6
CONTINUOUS
 62
       7
100
AcDbLine
 10
-116.79458872
 20
-19.75405833
 30
0.0
 11
-116.76630074
 21
-19.75405833
 31
0.0
  0
LINE
  5
2F9
100
AcDbEntity
  8
LAYER0004
  6
CONTINUOUS
 62
       7
100
AcDbLine
 10
-116.76630074
 20
-19.75405833
 30
0.0
 11
-116.73834324
 21
-19.75405833
 31
0.0
  0
LINE
  5
2FA
100
AcDbEntity
  8
LAYER0004
  6
CONTINUOUS
 62
       7
100
AcDbLine
 10
-116.73834324
 20
-19.75405833
 30
0.0
 11
-116.71082639
 21
-19.75405833
 31
0.0
  0
LINE
  5
2FB
100
AcDbEntity
  8
LAYER0004
  6
CONTINUOUS
 62
       7
100
AcDbLine
 10
-116.71082639
 20
-19.75405833
 30
0.0
 11
-116.68386033
 21
-19.75405833
 31
0.0
  0
LINE
  5
2FC
100
AcDbEntity
  8
LAYER0004
  6
CONTINUOUS
 62
       7
100
AcDbLine
 10
-116.68386033
 20
-19.75405833
 30
0.0
 11
-116.65755523
 21
-19.75405833
 31
0.0
  0
LINE
  5
2FD
100
AcDbEntity
  8
LAYER0004
  6
CONTINUOUS
 62
       7
100
AcDbLine
 10
-116.65755523
 20
-19.75405833
 30
0.0
 11
-116.63202126
 21
-19.75405833
 31
0.0
  0
LINE
  5
2FE
100
AcDbEntity
  8
LAYER0004
  6
CONTINUOUS
 62
       7
100
AcDbLine
 10
-116.63202126
 20
-19.75405833
 30
0.0
 11
-116.60736857
 21
-19.75405833
 31
0.0
  0
LINE
  5
2FF
100
AcDbEntity
  8
LAYER0004
  6
CONTINUOUS
 62
       7
100
AcDbLine
 10
-116.60736857
 20
-19.75405833
 30
0.0
 11
-116.58370732
 21
-19.75405833
 31
0.0
  0
LINE
  5
300
100
AcDbEntity
  8
LAYER0004
  6
CONTINUOUS
 62
       7
100
AcDbLine
 10
-116.58370732
 20
-19.75405833
 30
0.0
 11
-116.56114767
 21
-19.75405833
 31
0.0
  0
LINE
  5
301
100
AcDbEntity
  8
LAYER0004
  6
CONTINUOUS
 62
       7
100
AcDbLine
 10
-116.56114767
 20
-19.75405833
 30
0.0
 11
-116.53979978
 21
-19.75405833
 31
0.0
  0
LINE
  5
302
100
AcDbEntity
  8
LAYER0004
  6
CONTINUOUS
 62
       7
100
AcDbLine
 10
-116.53979978
 20
-19.75405833
 30
0.0
 11
-116.51977381
 21
-19.75405833
 31
0.0
  0
LINE
  5
303
100
AcDbEntity
  8
LAYER0004
  6
CONTINUOUS
 62
       7
100
AcDbLine
 10
-116.51977381
 20
-19.75405833
 30
0.0
 11
-116.50117993
 21
-19.75405833
 31
0.0
  0
LINE
  5
304
100
AcDbEntity
  8
LAYER0004
  6
CONTINUOUS
 62
       7
100
AcDbLine
 10
-116.50117993
 20
-19.75405833
 30
0.0
 11
-116.48412829
 21
-19.75405833
 31
0.0
  0
LINE
  5
305
100
AcDbEntity
  8
LAYER0004
  6
CONTINUOUS
 62
       7
100
AcDbLine
 10
-116.48412829
 20
-19.75405833
 30
0.0
 11
-116.46872905
 21
-19.75405833
 31
0.0
  0
LINE
  5
306
100
AcDbEntity
  8
LAYER0004
  6
CONTINUOUS
 62
       7
100
AcDbLine
 10
-116.46872905
 20
-19.75405833
 30
0.0
 11
-116.45509237
 21
-19.75405833
 31
0.0
  0
LINE
  5
307
100
AcDbEntity
  8
LAYER0004
  6
CONTINUOUS
 62
       7
100
AcDbLine
 10
-116.45509237
 20
-19.75405833
 30
0.0
 11
-116.44332842
 21
-19.75405833
 31
0.0
  0
LINE
  5
308
100
AcDbEntity
  8
LAYER0004
  6
CONTINUOUS
 62
       7
100
AcDbLine
 10
-116.44332842
 20
-19.75405833
 30
0.0
 11
-116.43354691
 21
-19.75405833
 31
0.0
  0
LINE
  5
309
100
AcDbEntity
  8
LAYER0004
  6
CONTINUOUS
 62
       7
100
AcDbLine
 10
-116.43354691
 20
-19.75405833
 30
0.0
 11
-116.42573704
 21
-19.75405833
 31
0.0
  0
LINE
  5
30A
100
AcDbEntity
  8
LAYER0004
  6
CONTINUOUS
 62
       7
100
AcDbLine
 10
-116.42573704
 20
-19.75405833
 30
0.0
 11
-116.41960421
 21
-19.75405833
 31
0.0
  0
LINE
  5
30B
100
AcDbEntity
  8
LAYER0004
  6
CONTINUOUS
 62
       7
100
AcDbLine
 10
-116.41960421
 20
-19.75405833
 30
0.0
 11
-116.41481301
 21
-19.75405833
 31
0.0
  0
LINE
  5
30C
100
AcDbEntity
  8
LAYER0004
  6
CONTINUOUS
 62
       7
100
AcDbLine
 10
-116.41481301
 20
-19.75405833
 30
0.0
 11
-116.41102804
 21
-19.75405833
 31
0.0
  0
LINE
  5
30D
100
AcDbEntity
  8
LAYER0004
  6
CONTINUOUS
 62
       7
100
AcDbLine
 10
-116.41102804
 20
-19.75405833
 30
0.0
 11
-116.40791388
 21
-19.75405833
 31
0.0
  0
LINE
  5
30E
100
AcDbEntity
  8
LAYER0004
  6
CONTINUOUS
 62
       7
100
AcDbLine
 10
-116.40791388
 20
-19.75405833
 30
0.0
 11
-116.40513513
 21
-19.75405833
 31
0.0
  0
LINE
  5
30F
100
AcDbEntity
  8
LAYER0004
  6
CONTINUOUS
 62
       7
100
AcDbLine
 10
-126.65513541
 20
-24.75406101
 30
0.0
 11
-126.66181458
 21
-24.84789637
 31
0.0
  0
LINE
  5
310
100
AcDbEntity
  8
LAYER0004
  6
CONTINUOUS
 62
       7
100
AcDbLine
 10
-126.66181458
 20
-24.84789637
 30
0.0
 11
-126.66857115
 21
-24.94171688
 31
0.0
  0
LINE
  5
311
100
AcDbEntity
  8
LAYER0004
  6
CONTINUOUS
 62
       7
100
AcDbLine
 10
-126.66857115
 20
-24.94171688
 30
0.0
 11
-126.67548253
 21
-25.03550771
 31
0.0
  0
LINE
  5
312
100
AcDbEntity
  8
LAYER0004
  6
CONTINUOUS
 62
       7
100
AcDbLine
 10
-126.67548253
 20
-25.03550771
 30
0.0
 11
-126.68262613
 21
-25.12925403
 31
0.0
  0
LINE
  5
313
100
AcDbEntity
  8
LAYER0004
  6
CONTINUOUS
 62
       7
100
AcDbLine
 10
-126.68262613
 20
-25.12925403
 30
0.0
 11
-126.69007936
 21
-25.22294099
 31
0.0
  0
LINE
  5
314
100
AcDbEntity
  8
LAYER0004
  6
CONTINUOUS
 62
       7
100
AcDbLine
 10
-126.69007936
 20
-25.22294099
 30
0.0
 11
-126.69791962
 21
-25.31655375
 31
0.0
  0
LINE
  5
315
100
AcDbEntity
  8
LAYER0004
  6
CONTINUOUS
 62
       7
100
AcDbLine
 10
-126.69791962
 20
-25.31655375
 30
0.0
 11
-126.70622432
 21
-25.41007747
 31
0.0
  0
LINE
  5
316
100
AcDbEntity
  8
LAYER0004
  6
CONTINUOUS
 62
       7
100
AcDbLine
 10
-126.70622432
 20
-25.41007747
 30
0.0
 11
-126.71507086
 21
-25.50349732
 31
0.0
  0
LINE
  5
317
100
AcDbEntity
  8
LAYER0004
  6
CONTINUOUS
 62
       7
100
AcDbLine
 10
-126.71507086
 20
-25.50349732
 30
0.0
 11
-126.72453666
 21
-25.59679845
 31
0.0
  0
LINE
  5
318
100
AcDbEntity
  8
LAYER0004
  6
CONTINUOUS
 62
       7
100
AcDbLine
 10
-126.72453666
 20
-25.59679845
 30
0.0
 11
-126.73469911
 21
-25.68996602
 31
0.0
  0
LINE
  5
319
100
AcDbEntity
  8
LAYER0004
  6
CONTINUOUS
 62
       7
100
AcDbLine
 10
-126.73469911
 20
-25.68996602
 30
0.0
 11
-126.74563563
 21
-25.7829852
 31
0.0
  0
LINE
  5
31A
100
AcDbEntity
  8
LAYER0004
  6
CONTINUOUS
 62
       7
100
AcDbLine
 10
-126.74563563
 20
-25.7829852
 30
0.0
 11
-126.75742362
 21
-25.87584114
 31
0.0
  0
LINE
  5
31B
100
AcDbEntity
  8
LAYER0004
  6
CONTINUOUS
 62
       7
100
AcDbLine
 10
-126.75742362
 20
-25.87584114
 30
0.0
 11
-126.77014049
 21
-25.96851901
 31
0.0
  0
LINE
  5
31C
100
AcDbEntity
  8
LAYER0004
  6
CONTINUOUS
 62
       7
100
AcDbLine
 10
-126.77014049
 20
-25.96851901
 30
0.0
 11
-126.78386364
 21
-26.06100397
 31
0.0
  0
LINE
  5
31D
100
AcDbEntity
  8
LAYER0004
  6
CONTINUOUS
 62
       7
100
AcDbLine
 10
-126.78386364
 20
-26.06100397
 30
0.0
 11
-126.79867048
 21
-26.15328117
 31
0.0
  0
LINE
  5
31E
100
AcDbEntity
  8
LAYER0004
  6
CONTINUOUS
 62
       7
100
AcDbLine
 10
-126.79867048
 20
-26.15328117
 30
0.0
 11
-126.81463841
 21
-26.24533578
 31
0.0
  0
LINE
  5
31F
100
AcDbEntity
  8
LAYER0004
  6
CONTINUOUS
 62
       7
100
AcDbLine
 10
-126.81463841
 20
-26.24533578
 30
0.0
 11
-126.83184486
 21
-26.33715295
 31
0.0
  0
LINE
  5
320
100
AcDbEntity
  8
LAYER0004
  6
CONTINUOUS
 62
       7
100
AcDbLine
 10
-126.83184486
 20
-26.33715295
 30
0.0
 11
-126.85036721
 21
-26.42871786
 31
0.0
  0
LINE
  5
321
100
AcDbEntity
  8
LAYER0004
  6
CONTINUOUS
 62
       7
100
AcDbLine
 10
-126.85036721
 20
-26.42871786
 30
0.0
 11
-126.87028287
 21
-26.52001565
 31
0.0
  0
LINE
  5
322
100
AcDbEntity
  8
LAYER0004
  6
CONTINUOUS
 62
       7
100
AcDbLine
 10
-126.87028287
 20
-26.52001565
 30
0.0
 11
-126.89163737
 21
-26.6110376
 31
0.0
  0
LINE
  5
323
100
AcDbEntity
  8
LAYER0004
  6
CONTINUOUS
 62
       7
100
AcDbLine
 10
-126.89163737
 20
-26.6110376
 30
0.0
 11
-126.91426357
 21
-26.70181576
 31
0.0
  0
LINE
  5
324
100
AcDbEntity
  8
LAYER0004
  6
CONTINUOUS
 62
       7
100
AcDbLine
 10
-126.91426357
 20
-26.70181576
 30
0.0
 11
-126.93790732
 21
-26.79239885
 31
0.0
  0
LINE
  5
325
100
AcDbEntity
  8
LAYER0004
  6
CONTINUOUS
 62
       7
100
AcDbLine
 10
-126.93790732
 20
-26.79239885
 30
0.0
 11
-126.96231425
 21
-26.88283562
 31
0.0
  0
LINE
  5
326
100
AcDbEntity
  8
LAYER0004
  6
CONTINUOUS
 62
       7
100
AcDbLine
 10
-126.96231425
 20
-26.88283562
 30
0.0
 11
-126.98722996
 21
-26.97317486
 31
0.0
  0
LINE
  5
327
100
AcDbEntity
  8
LAYER0004
  6
CONTINUOUS
 62
       7
100
AcDbLine
 10
-126.98722996
 20
-26.97317486
 30
0.0
 11
-127.01240007
 21
-27.06346533
 31
0.0
  0
LINE
  5
328
100
AcDbEntity
  8
LAYER0004
  6
CONTINUOUS
 62
       7
100
AcDbLine
 10
-127.01240007
 20
-22.44466415
 30
0.0
 11
-126.98949339
 21
-22.53603443
 31
0.0
  0
LINE
  5
329
100
AcDbEntity
  8
LAYER0004
  6
CONTINUOUS
 62
       7
100
AcDbLine
 10
-126.98949339
 20
-22.53603443
 30
0.0
 11
-126.96667507
 21
-22.62741502
 31
0.0
  0
LINE
  5
32A
100
AcDbEntity
  8
LAYER0004
  6
CONTINUOUS
 62
       7
100
AcDbLine
 10
-126.96667507
 20
-22.62741502
 30
0.0
 11
-126.94403345
 21
-22.71881624
 31
0.0
  0
LINE
  5
32B
100
AcDbEntity
  8
LAYER0004
  6
CONTINUOUS
 62
       7
100
AcDbLine
 10
-126.94403345
 20
-22.71881624
 30
0.0
 11
-126.92165689
 21
-22.81024839
 31
0.0
  0
LINE
  5
32C
100
AcDbEntity
  8
LAYER0004
  6
CONTINUOUS
 62
       7
100
AcDbLine
 10
-126.92165689
 20
-22.81024839
 30
0.0
 11
-126.89963373
 21
-22.90172179
 31
0.0
  0
LINE
  5
32D
100
AcDbEntity
  8
LAYER0004
  6
CONTINUOUS
 62
       7
100
AcDbLine
 10
-126.89963373
 20
-22.90172179
 30
0.0
 11
-126.87805234
 21
-22.99324674
 31
0.0
  0
LINE
  5
32E
100
AcDbEntity
  8
LAYER0004
  6
CONTINUOUS
 62
       7
100
AcDbLine
 10
-126.87805234
 20
-22.99324674
 30
0.0
 11
-126.85700105
 21
-23.08483357
 31
0.0
  0
LINE
  5
32F
100
AcDbEntity
  8
LAYER0004
  6
CONTINUOUS
 62
       7
100
AcDbLine
 10
-126.85700105
 20
-23.08483357
 30
0.0
 11
-126.83656822
 21
-23.17649258
 31
0.0
  0
LINE
  5
330
100
AcDbEntity
  8
LAYER0004
  6
CONTINUOUS
 62
       7
100
AcDbLine
 10
-126.83656822
 20
-23.17649258
 30
0.0
 11
-126.81684221
 21
-23.26823408
 31
0.0
  0
LINE
  5
331
100
AcDbEntity
  8
LAYER0004
  6
CONTINUOUS
 62
       7
100
AcDbLine
 10
-126.81684221
 20
-23.26823408
 30
0.0
 11
-126.79791136
 21
-23.36006838
 31
0.0
  0
LINE
  5
332
100
AcDbEntity
  8
LAYER0004
  6
CONTINUOUS
 62
       7
100
AcDbLine
 10
-126.79791136
 20
-23.36006838
 30
0.0
 11
-126.77986403
 21
-23.4520058
 31
0.0
  0
LINE
  5
333
100
AcDbEntity
  8
LAYER0004
  6
CONTINUOUS
 62
       7
100
AcDbLine
 10
-126.77986403
 20
-23.4520058
 30
0.0
 11
-126.76278857
 21
-23.54405665
 31
0.0
  0
LINE
  5
334
100
AcDbEntity
  8
LAYER0004
  6
CONTINUOUS
 62
       7
100
AcDbLine
 10
-126.76278857
 20
-23.54405665
 30
0.0
 11
-126.74677333
 21
-23.63623124
 31
0.0
  0
LINE
  5
335
100
AcDbEntity
  8
LAYER0004
  6
CONTINUOUS
 62
       7
100
AcDbLine
 10
-126.74677333
 20
-23.63623124
 30
0.0
 11
-126.73190666
 21
-23.72853988
 31
0.0
  0
LINE
  5
336
100
AcDbEntity
  8
LAYER0004
  6
CONTINUOUS
 62
       7
100
AcDbLine
 10
-126.73190666
 20
-23.72853988
 30
0.0
 11
-126.71827691
 21
-23.82099288
 31
0.0
  0
LINE
  5
337
100
AcDbEntity
  8
LAYER0004
  6
CONTINUOUS
 62
       7
100
AcDbLine
 10
-126.71827691
 20
-23.82099288
 30
0.0
 11
-126.70597244
 21
-23.91360055
 31
0.0
  0
LINE
  5
338
100
AcDbEntity
  8
LAYER0004
  6
CONTINUOUS
 62
       7
100
AcDbLine
 10
-126.70597244
 20
-23.91360055
 30
0.0
 11
-126.69508159
 21
-24.00637322
 31
0.0
  0
LINE
  5
339
100
AcDbEntity
  8
LAYER0004
  6
CONTINUOUS
 62
       7
100
AcDbLine
 10
-126.69508159
 20
-24.00637322
 30
0.0
 11
-126.68569272
 21
-24.09932118
 31
0.0
  0
LINE
  5
33A
100
AcDbEntity
  8
LAYER0004
  6
CONTINUOUS
 62
       7
100
AcDbLine
 10
-126.68569272
 20
-24.09932118
 30
0.0
 11
-126.67789342
 21
-24.19245466
 31
0.0
  0
LINE
  5
33B
100
AcDbEntity
  8
LAYER0004
  6
CONTINUOUS
 62
       7
100
AcDbLine
 10
-126.67789342
 20
-24.19245466
 30
0.0
 11
-126.67166306
 21
-24.28577125
 31
0.0
  0
LINE
  5
33C
100
AcDbEntity
  8
LAYER0004
  6
CONTINUOUS
 62
       7
100
AcDbLine
 10
-126.67166306
 20
-24.28577125
 30
0.0
 11
-126.66676217
 21
-24.37924301
 31
0.0
  0
LINE
  5
33D
100
AcDbEntity
  8
LAYER0004
  6
CONTINUOUS
 62
       7
100
AcDbLine
 10
-126.66676217
 20
-24.37924301
 30
0.0
 11
-126.66292486
 21
-24.47283889
 31
0.0
  0
LINE
  5
33E
100
AcDbEntity
  8
LAYER0004
  6
CONTINUOUS
 62
       7
100
AcDbLine
 10
-126.66292486
 20
-24.47283889
 30
0.0
 11
-126.65988522
 21
-24.56652788
 31
0.0
  0
LINE
  5
33F
100
AcDbEntity
  8
LAYER0004
  6
CONTINUOUS
 62
       7
100
AcDbLine
 10
-126.65988522
 20
-24.56652788
 30
0.0
 11
-126.65737737
 21
-24.66027893
 31
0.0
  0
LINE
  5
340
100
AcDbEntity
  8
LAYER0004
  6
CONTINUOUS
 62
       7
100
AcDbLine
 10
-126.65737737
 20
-24.66027893
 30
0.0
 11
-126.65513541
 21
-24.75406101
 31
0.0
  0
LINE
  5
341
100
AcDbEntity
  8
LAYER0004
  6
CONTINUOUS
 62
       7
100
AcDbLine
 10
-126.65513541
 20
-21.28995827
 30
0.0
 11
-126.65590665
 21
-21.33674485
 31
0.0
  0
LINE
  5
342
100
AcDbEntity
  8
LAYER0004
  6
CONTINUOUS
 62
       7
100
AcDbLine
 10
-126.65590665
 20
-21.33674485
 30
0.0
 11
-126.65764498
 21
-21.38348862
 31
0.0
  0
LINE
  5
343
100
AcDbEntity
  8
LAYER0004
  6
CONTINUOUS
 62
       7
100
AcDbLine
 10
-126.65764498
 20
-21.38348862
 30
0.0
 11
-126.66099208
 21
-21.4301612
 31
0.0
  0
LINE
  5
344
100
AcDbEntity
  8
LAYER0004
  6
CONTINUOUS
 62
       7
100
AcDbLine
 10
-126.66099208
 20
-21.4301612
 30
0.0
 11
-126.66594945
 21
-21.47676251
 31
0.0
  0
LINE
  5
345
100
AcDbEntity
  8
LAYER0004
  6
CONTINUOUS
 62
       7
100
AcDbLine
 10
-126.66594945
 20
-21.47676251
 30
0.0
 11
-126.67244389
 21
-21.52329578
 31
0.0
  0
LINE
  5
346
100
AcDbEntity
  8
LAYER0004
  6
CONTINUOUS
 62
       7
100
AcDbLine
 10
-126.67244389
 20
-21.52329578
 30
0.0
 11
-126.68040222
 21
-21.56976427
 31
0.0
  0
LINE
  5
347
100
AcDbEntity
  8
LAYER0004
  6
CONTINUOUS
 62
       7
100
AcDbLine
 10
-126.68040222
 20
-21.56976427
 30
0.0
 11
-126.68975124
 21
-21.61617122
 31
0.0
  0
LINE
  5
348
100
AcDbEntity
  8
LAYER0004
  6
CONTINUOUS
 62
       7
100
AcDbLine
 10
-126.68975124
 20
-21.61617122
 30
0.0
 11
-126.70041775
 21
-21.66251985
 31
0.0
  0
LINE
  5
349
100
AcDbEntity
  8
LAYER0004
  6
CONTINUOUS
 62
       7
100
AcDbLine
 10
-126.70041775
 20
-21.66251985
 30
0.0
 11
-126.71232857
 21
-21.70881341
 31
0.0
  0
LINE
  5
34A
100
AcDbEntity
  8
LAYER0004
  6
CONTINUOUS
 62
       7
100
AcDbLine
 10
-126.71232857
 20
-21.70881341
 30
0.0
 11
-126.72541049
 21
-21.75505513
 31
0.0
  0
LINE
  5
34B
100
AcDbEntity
  8
LAYER0004
  6
CONTINUOUS
 62
       7
100
AcDbLine
 10
-126.72541049
 20
-21.75505513
 30
0.0
 11
-126.73959032
 21
-21.80124827
 31
0.0
  0
LINE
  5
34C
100
AcDbEntity
  8
LAYER0004
  6
CONTINUOUS
 62
       7
100
AcDbLine
 10
-126.73959032
 20
-21.80124827
 30
0.0
 11
-126.75479488
 21
-21.84739606
 31
0.0
  0
LINE
  5
34D
100
AcDbEntity
  8
LAYER0004
  6
CONTINUOUS
 62
       7
100
AcDbLine
 10
-126.75479488
 20
-21.84739606
 30
0.0
 11
-126.77095095
 21
-21.89350173
 31
0.0
  0
LINE
  5
34E
100
AcDbEntity
  8
LAYER0004
  6
CONTINUOUS
 62
       7
100
AcDbLine
 10
-126.77095095
 20
-21.89350173
 30
0.0
 11
-126.78798536
 21
-21.93956853
 31
0.0
  0
LINE
  5
34F
100
AcDbEntity
  8
LAYER0004
  6
CONTINUOUS
 62
       7
100
AcDbLine
 10
-126.78798536
 20
-21.93956853
 30
0.0
 11
-126.8058249
 21
-21.98559969
 31
0.0
  0
LINE
  5
350
100
AcDbEntity
  8
LAYER0004
  6
CONTINUOUS
 62
       7
100
AcDbLine
 10
-126.8058249
 20
-21.98559969
 30
0.0
 11
-126.82439638
 21
-22.03159846
 31
0.0
  0
LINE
  5
351
100
AcDbEntity
  8
LAYER0004
  6
CONTINUOUS
 62
       7
100
AcDbLine
 10
-126.82439638
 20
-22.03159846
 30
0.0
 11
-126.84362661
 21
-22.07756808
 31
0.0
  0
LINE
  5
352
100
AcDbEntity
  8
LAYER0004
  6
CONTINUOUS
 62
       7
100
AcDbLine
 10
-126.84362661
 20
-22.07756808
 30
0.0
 11
-126.8634424
 21
-22.12351178
 31
0.0
  0
LINE
  5
353
100
AcDbEntity
  8
LAYER0004
  6
CONTINUOUS
 62
       7
100
AcDbLine
 10
-126.8634424
 20
-22.12351178
 30
0.0
 11
-126.88377054
 21
-22.1694328
 31
0.0
  0
LINE
  5
354
100
AcDbEntity
  8
LAYER0004
  6
CONTINUOUS
 62
       7
100
AcDbLine
 10
-126.88377054
 20
-22.1694328
 30
0.0
 11
-126.90453785
 21
-22.21533439
 31
0.0
  0
LINE
  5
355
100
AcDbEntity
  8
LAYER0004
  6
CONTINUOUS
 62
       7
100
AcDbLine
 10
-126.90453785
 20
-22.21533439
 30
0.0
 11
-126.92567113
 21
-22.26121978
 31
0.0
  0
LINE
  5
356
100
AcDbEntity
  8
LAYER0004
  6
CONTINUOUS
 62
       7
100
AcDbLine
 10
-126.92567113
 20
-22.26121978
 30
0.0
 11
-126.94709718
 21
-22.30709221
 31
0.0
  0
LINE
  5
357
100
AcDbEntity
  8
LAYER0004
  6
CONTINUOUS
 62
       7
100
AcDbLine
 10
-126.94709718
 20
-22.30709221
 30
0.0
 11
-126.96874282
 21
-22.35295492
 31
0.0
  0
LINE
  5
358
100
AcDbEntity
  8
LAYER0004
  6
CONTINUOUS
 62
       7
100
AcDbLine
 10
-126.96874282
 20
-22.35295492
 30
0.0
 11
-126.99053485
 21
-22.39881116
 31
0.0
  0
LINE
  5
359
100
AcDbEntity
  8
LAYER0004
  6
CONTINUOUS
 62
       7
100
AcDbLine
 10
-126.99053485
 20
-22.39881116
 30
0.0
 11
-127.01240007
 21
-22.44466415
 31
0.0
  0
LINE
  5
35A
100
AcDbEntity
  8
LAYER0004
  6
CONTINUOUS
 62
       7
100
AcDbLine
 10
-143.86071369
 20
-91.75406268
 30
0.0
 11
-143.81530847
 21
-91.75834653
 31
0.0
  0
LINE
  5
35B
100
AcDbEntity
  8
LAYER0004
  6
CONTINUOUS
 62
       7
100
AcDbLine
 10
-143.81530847
 20
-91.75834653
 30
0.0
 11
-143.76993146
 21
-91.76273458
 31
0.0
  0
LINE
  5
35C
100
AcDbEntity
  8
LAYER0004
  6
CONTINUOUS
 62
       7
100
AcDbLine
 10
-143.76993146
 20
-91.76273458
 30
0.0
 11
-143.72461088
 21
-91.76733101
 31
0.0
  0
LINE
  5
35D
100
AcDbEntity
  8
LAYER0004
  6
CONTINUOUS
 62
       7
100
AcDbLine
 10
-143.72461088
 20
-91.76733101
 30
0.0
 11
-143.67937493
 21
-91.77224002
 31
0.0
  0
LINE
  5
35E
100
AcDbEntity
  8
LAYER0004
  6
CONTINUOUS
 62
       7
100
AcDbLine
 10
-143.67937493
 20
-91.77224002
 30
0.0
 11
-143.63425183
 21
-91.77756581
 31
0.0
  0
LINE
  5
35F
100
AcDbEntity
  8
LAYER0004
  6
CONTINUOUS
 62
       7
100
AcDbLine
 10
-143.63425183
 20
-91.77756581
 30
0.0
 11
-143.58926978
 21
-91.78341257
 31
0.0
  0
LINE
  5
360
100
AcDbEntity
  8
LAYER0004
  6
CONTINUOUS
 62
       7
100
AcDbLine
 10
-143.58926978
 20
-91.78341257
 30
0.0
 11
-143.54445701
 21
-91.78988449
 31
0.0
  0
LINE
  5
361
100
AcDbEntity
  8
LAYER0004
  6
CONTINUOUS
 62
       7
100
AcDbLine
 10
-143.54445701
 20
-91.78988449
 30
0.0
 11
-143.49984173
 21
-91.79708577
 31
0.0
  0
LINE
  5
362
100
AcDbEntity
  8
LAYER0004
  6
CONTINUOUS
 62
       7
100
AcDbLine
 10
-143.49984173
 20
-91.79708577
 30
0.0
 11
-143.45545214
 21
-91.8051206
 31
0.0
  0
LINE
  5
363
100
AcDbEntity
  8
LAYER0004
  6
CONTINUOUS
 62
       7
100
AcDbLine
 10
-143.45545214
 20
-91.8051206
 30
0.0
 11
-143.41131645
 21
-91.81409318
 31
0.0
  0
LINE
  5
364
100
AcDbEntity
  8
LAYER0004
  6
CONTINUOUS
 62
       7
100
AcDbLine
 10
-143.41131645
 20
-91.81409318
 30
0.0
 11
-143.36746289
 21
-91.8241077
 31
0.0
  0
LINE
  5
365
100
AcDbEntity
  8
LAYER0004
  6
CONTINUOUS
 62
       7
100
AcDbLine
 10
-143.36746289
 20
-91.8241077
 30
0.0
 11
-143.32391965
 21
-91.83526835
 31
0.0
  0
LINE
  5
366
100
AcDbEntity
  8
LAYER0004
  6
CONTINUOUS
 62
       7
100
AcDbLine
 10
-143.32391965
 20
-91.83526835
 30
0.0
 11
-143.28071496
 21
-91.84767932
 31
0.0
  0
LINE
  5
367
100
AcDbEntity
  8
LAYER0004
  6
CONTINUOUS
 62
       7
100
AcDbLine
 10
-143.28071496
 20
-91.84767932
 30
0.0
 11
-143.23787703
 21
-91.86144482
 31
0.0
  0
LINE
  5
368
100
AcDbEntity
  8
LAYER0004
  6
CONTINUOUS
 62
       7
100
AcDbLine
 10
-143.23787703
 20
-91.86144482
 30
0.0
 11
-143.19543406
 21
-91.87666903
 31
0.0
  0
LINE
  5
369
100
AcDbEntity
  8
LAYER0004
  6
CONTINUOUS
 62
       7
100
AcDbLine
 10
-143.19543406
 20
-91.87666903
 30
0.0
 11
-143.1534156
 21
-91.89345264
 31
0.0
  0
LINE
  5
36A
100
AcDbEntity
  8
LAYER0004
  6
CONTINUOUS
 62
       7
100
AcDbLine
 10
-143.1534156
 20
-91.89345264
 30
0.0
 11
-143.11187415
 21
-91.91183603
 31
0.0
  0
LINE
  5
36B
100
AcDbEntity
  8
LAYER0004
  6
CONTINUOUS
 62
       7
100
AcDbLine
 10
-143.11187415
 20
-91.91183603
 30
0.0
 11
-143.07088145
 21
-91.93180893
 31
0.0
  0
LINE
  5
36C
100
AcDbEntity
  8
LAYER0004
  6
CONTINUOUS
 62
       7
100
AcDbLine
 10
-143.07088145
 20
-91.93180893
 30
0.0
 11
-143.03050987
 21
-91.95335946
 31
0.0
  0
LINE
  5
36D
100
AcDbEntity
  8
LAYER0004
  6
CONTINUOUS
 62
       7
100
AcDbLine
 10
-143.03050987
 20
-91.95335946
 30
0.0
 11
-142.99083177
 21
-91.97647576
 31
0.0
  0
LINE
  5
36E
100
AcDbEntity
  8
LAYER0004
  6
CONTINUOUS
 62
       7
100
AcDbLine
 10
-142.99083177
 20
-91.97647576
 30
0.0
 11
-142.95191952
 21
-92.00114597
 31
0.0
  0
LINE
  5
36F
100
AcDbEntity
  8
LAYER0004
  6
CONTINUOUS
 62
       7
100
AcDbLine
 10
-142.95191952
 20
-92.00114597
 30
0.0
 11
-142.91384546
 21
-92.02735822
 31
0.0
  0
LINE
  5
370
100
AcDbEntity
  8
LAYER0004
  6
CONTINUOUS
 62
       7
100
AcDbLine
 10
-142.91384546
 20
-92.02735822
 30
0.0
 11
-142.87668197
 21
-92.05510065
 31
0.0
  0
LINE
  5
371
100
AcDbEntity
  8
LAYER0004
  6
CONTINUOUS
 62
       7
100
AcDbLine
 10
-142.87668197
 20
-92.05510065
 30
0.0
 11
-142.8405014
 21
-92.0843614
 31
0.0
  0
LINE
  5
372
100
AcDbEntity
  8
LAYER0004
  6
CONTINUOUS
 62
       7
100
AcDbLine
 10
-142.8405014
 20
-92.0843614
 30
0.0
 11
-142.80537994
 21
-92.11513212
 31
0.0
  0
LINE
  5
373
100
AcDbEntity
  8
LAYER0004
  6
CONTINUOUS
 62
       7
100
AcDbLine
 10
-142.80537994
 20
-92.11513212
 30
0.0
 11
-142.77142135
 21
-92.14742979
 31
0.0
  0
LINE
  5
374
100
AcDbEntity
  8
LAYER0004
  6
CONTINUOUS
 62
       7
100
AcDbLine
 10
-142.77142135
 20
-92.14742979
 30
0.0
 11
-142.73874149
 21
-92.18128253
 31
0.0
  0
LINE
  5
375
100
AcDbEntity
  8
LAYER0004
  6
CONTINUOUS
 62
       7
100
AcDbLine
 10
-142.73874149
 20
-92.18128253
 30
0.0
 11
-142.70745626
 21
-92.21671849
 31
0.0
  0
LINE
  5
376
100
AcDbEntity
  8
LAYER0004
  6
CONTINUOUS
 62
       7
100
AcDbLine
 10
-142.70745626
 20
-92.21671849
 30
0.0
 11
-142.67768156
 21
-92.25376581
 31
0.0
  0
LINE
  5
377
100
AcDbEntity
  8
LAYER0004
  6
CONTINUOUS
 62
       7
100
AcDbLine
 10
-142.67768156
 20
-92.25376581
 30
0.0
 11
-142.64953331
 21
-92.29245266
 31
0.0
  0
LINE
  5
378
100
AcDbEntity
  8
LAYER0004
  6
CONTINUOUS
 62
       7
100
AcDbLine
 10
-142.64953331
 20
-92.29245266
 30
0.0
 11
-142.62312743
 21
-92.33280718
 31
0.0
  0
LINE
  5
379
100
AcDbEntity
  8
LAYER0004
  6
CONTINUOUS
 62
       7
100
AcDbLine
 10
-142.62312743
 20
-92.33280718
 30
0.0
 11
-142.59863073
 21
-92.37482402
 31
0.0
  0
LINE
  5
37A
100
AcDbEntity
  8
LAYER0004
  6
CONTINUOUS
 62
       7
100
AcDbLine
 10
-142.59863073
 20
-92.37482402
 30
0.0
 11
-142.57637607
 21
-92.41838867
 31
0.0
  0
LINE
  5
37B
100
AcDbEntity
  8
LAYER0004
  6
CONTINUOUS
 62
       7
100
AcDbLine
 10
-142.57637607
 20
-92.41838867
 30
0.0
 11
-142.55673012
 21
-92.46336435
 31
0.0
  0
LINE
  5
37C
100
AcDbEntity
  8
LAYER0004
  6
CONTINUOUS
 62
       7
100
AcDbLine
 10
-142.55673012
 20
-92.46336435
 30
0.0
 11
-142.54005952
 21
-92.50961432
 31
0.0
  0
LINE
  5
37D
100
AcDbEntity
  8
LAYER0004
  6
CONTINUOUS
 62
       7
100
AcDbLine
 10
-142.54005952
 20
-92.50961432
 30
0.0
 11
-142.52673095
 21
-92.55700182
 31
0.0
  0
LINE
  5
37E
100
AcDbEntity
  8
LAYER0004
  6
CONTINUOUS
 62
       7
100
AcDbLine
 10
-142.52673095
 20
-92.55700182
 30
0.0
 11
-142.5169656
 21
-92.60537734
 31
0.0
  0
LINE
  5
37F
100
AcDbEntity
  8
LAYER0004
  6
CONTINUOUS
 62
       7
100
AcDbLine
 10
-142.5169656
 20
-92.60537734
 30
0.0
 11
-142.51011455
 21
-92.65451507
 31
0.0
  0
LINE
  5
380
100
AcDbEntity
  8
LAYER0004
  6
CONTINUOUS
 62
       7
100
AcDbLine
 10
-142.51011455
 20
-92.65451507
 30
0.0
 11
-142.50520673
 21
-92.70416098
 31
0.0
  0
LINE
  5
381
100
AcDbEntity
  8
LAYER0004
  6
CONTINUOUS
 62
       7
100
AcDbLine
 10
-142.50520673
 20
-92.70416098
 30
0.0
 11
-142.50127051
 21
-92.75406098
 31
0.0
  0
LINE
  5
382
100
AcDbEntity
  8
LAYER0004
  6
CONTINUOUS
 62
       7
100
AcDbLine
 10
-170.40899966
 20
-92.75406098
 30
0.0
 11
-170.4037983
 21
-92.70403595
 31
0.0
  0
LINE
  5
383
100
AcDbEntity
  8
LAYER0004
  6
CONTINUOUS
 62
       7
100
AcDbLine
 10
-170.4037983
 20
-92.70403595
 30
0.0
 11
-170.39788938
 21
-92.65426063
 31
0.0
  0
LINE
  5
384
100
AcDbEntity
  8
LAYER0004
  6
CONTINUOUS
 62
       7
100
AcDbLine
 10
-170.39788938
 20
-92.65426063
 30
0.0
 11
-170.39056534
 21
-92.60498475
 31
0.0
  0
LINE
  5
385
100
AcDbEntity
  8
LAYER0004
  6
CONTINUOUS
 62
       7
100
AcDbLine
 10
-170.39056534
 20
-92.60498475
 30
0.0
 11
-170.38111863
 21
-92.55645802
 31
0.0
  0
LINE
  5
386
100
AcDbEntity
  8
LAYER0004
  6
CONTINUOUS
 62
       7
100
AcDbLine
 10
-170.38111863
 20
-92.55645802
 30
0.0
 11
-170.36884167
 21
-92.50893018
 31
0.0
  0
LINE
  5
387
100
AcDbEntity
  8
LAYER0004
  6
CONTINUOUS
 62
       7
100
AcDbLine
 10
-170.36884167
 20
-92.50893018
 30
0.0
 11
-170.35312318
 21
-92.46263614
 31
0.0
  0
LINE
  5
388
100
AcDbEntity
  8
LAYER0004
  6
CONTINUOUS
 62
       7
100
AcDbLine
 10
-170.35312318
 20
-92.46263614
 30
0.0
 11
-170.33405386
 21
-92.417703
 31
0.0
  0
LINE
  5
389
100
AcDbEntity
  8
LAYER0004
  6
CONTINUOUS
 62
       7
100
AcDbLine
 10
-170.33405386
 20
-92.417703
 30
0.0
 11
-170.31203529
 21
-92.3742101
 31
0.0
  0
LINE
  5
38A
100
AcDbEntity
  8
LAYER0004
  6
CONTINUOUS
 62
       7
100
AcDbLine
 10
-170.31203529
 20
-92.3742101
 30
0.0
 11
-170.28747049
 21
-92.33223654
 31
0.0
  0
LINE
  5
38B
100
AcDbEntity
  8
LAYER0004
  6
CONTINUOUS
 62
       7
100
AcDbLine
 10
-170.28747049
 20
-92.33223654
 30
0.0
 11
-170.26076244
 21
-92.29186145
 31
0.0
  0
LINE
  5
38C
100
AcDbEntity
  8
LAYER0004
  6
CONTINUOUS
 62
       7
100
AcDbLine
 10
-170.26076244
 20
-92.29186145
 30
0.0
 11
-170.23230105
 21
-92.25315905
 31
0.0
  0
LINE
  5
38D
100
AcDbEntity
  8
LAYER0004
  6
CONTINUOUS
 62
       7
100
AcDbLine
 10
-170.23230105
 20
-92.25315905
 30
0.0
 11
-170.2023049
 21
-92.21613962
 31
0.0
  0
LINE
  5
38E
100
AcDbEntity
  8
LAYER0004
  6
CONTINUOUS
 62
       7
100
AcDbLine
 10
-170.2023049
 20
-92.21613962
 30
0.0
 11
-170.17087222
 21
-92.18076847
 31
0.0
  0
LINE
  5
38F
100
AcDbEntity
  8
LAYER0004
  6
CONTINUOUS
 62
       7
100
AcDbLine
 10
-170.17087222
 20
-92.18076847
 30
0.0
 11
-170.13809872
 21
-92.14701
 31
0.0
  0
LINE
  5
390
100
AcDbEntity
  8
LAYER0004
  6
CONTINUOUS
 62
       7
100
AcDbLine
 10
-170.13809872
 20
-92.14701
 30
0.0
 11
-170.10408016
 21
-92.11482861
 31
0.0
  0
LINE
  5
391
100
AcDbEntity
  8
LAYER0004
  6
CONTINUOUS
 62
       7
100
AcDbLine
 10
-170.10408016
 20
-92.11482861
 30
0.0
 11
-170.06891224
 21
-92.0841887
 31
0.0
  0
LINE
  5
392
100
AcDbEntity
  8
LAYER0004
  6
CONTINUOUS
 62
       7
100
AcDbLine
 10
-170.06891224
 20
-92.0841887
 30
0.0
 11
-170.03269071
 21
-92.05505465
 31
0.0
  0
LINE
  5
393
100
AcDbEntity
  8
LAYER0004
  6
CONTINUOUS
 62
       7
100
AcDbLine
 10
-170.03269071
 20
-92.05505465
 30
0.0
 11
-169.99551124
 21
-92.02739094
 31
0.0
  0
LINE
  5
394
100
AcDbEntity
  8
LAYER0004
  6
CONTINUOUS
 62
       7
100
AcDbLine
 10
-169.99551124
 20
-92.02739094
 30
0.0
 11
-169.95745816
 21
-92.00117262
 31
0.0
  0
LINE
  5
395
100
AcDbEntity
  8
LAYER0004
  6
CONTINUOUS
 62
       7
100
AcDbLine
 10
-169.95745816
 20
-92.00117262
 30
0.0
 11
-169.91859136
 21
-91.97639774
 31
0.0
  0
LINE
  5
396
100
AcDbEntity
  8
LAYER0004
  6
CONTINUOUS
 62
       7
100
AcDbLine
 10
-169.91859136
 20
-91.97639774
 30
0.0
 11
-169.87896751
 21
-91.95306731
 31
0.0
  0
LINE
  5
397
100
AcDbEntity
  8
LAYER0004
  6
CONTINUOUS
 62
       7
100
AcDbLine
 10
-169.87896751
 20
-91.95306731
 30
0.0
 11
-169.83864331
 21
-91.93118237
 31
0.0
  0
LINE
  5
398
100
AcDbEntity
  8
LAYER0004
  6
CONTINUOUS
 62
       7
100
AcDbLine
 10
-169.83864331
 20
-91.93118237
 30
0.0
 11
-169.79767542
 21
-91.91074393
 31
0.0
  0
LINE
  5
399
100
AcDbEntity
  8
LAYER0004
  6
CONTINUOUS
 62
       7
100
AcDbLine
 10
-169.79767542
 20
-91.91074393
 30
0.0
 11
-169.75612055
 21
-91.89175303
 31
0.0
  0
LINE
  5
39A
100
AcDbEntity
  8
LAYER0004
  6
CONTINUOUS
 62
       7
100
AcDbLine
 10
-169.75612055
 20
-91.89175303
 30
0.0
 11
-169.71403536
 21
-91.87421069
 31
0.0
  0
LINE
  5
39B
100
AcDbEntity
  8
LAYER0004
  6
CONTINUOUS
 62
       7
100
AcDbLine
 10
-169.71403536
 20
-91.87421069
 30
0.0
 11
-169.67147653
 21
-91.85811794
 31
0.0
  0
LINE
  5
39C
100
AcDbEntity
  8
LAYER0004
  6
CONTINUOUS
 62
       7
100
AcDbLine
 10
-169.67147653
 20
-91.85811794
 30
0.0
 11
-169.62850077
 21
-91.84347581
 31
0.0
  0
LINE
  5
39D
100
AcDbEntity
  8
LAYER0004
  6
CONTINUOUS
 62
       7
100
AcDbLine
 10
-169.62850077
 20
-91.84347581
 30
0.0
 11
-169.58516473
 21
-91.83028531
 31
0.0
  0
LINE
  5
39E
100
AcDbEntity
  8
LAYER0004
  6
CONTINUOUS
 62
       7
100
AcDbLine
 10
-169.58516473
 20
-91.83028531
 30
0.0
 11
-169.54152485
 21
-91.81854643
 31
0.0
  0
LINE
  5
39F
100
AcDbEntity
  8
LAYER0004
  6
CONTINUOUS
 62
       7
100
AcDbLine
 10
-169.54152485
 20
-91.81854643
 30
0.0
 11
-169.49762455
 21
-91.80820868
 31
0.0
  0
LINE
  5
3A0
100
AcDbEntity
  8
LAYER0004
  6
CONTINUOUS
 62
       7
100
AcDbLine
 10
-169.49762455
 20
-91.80820868
 30
0.0
 11
-169.45348879
 21
-91.79914966
 31
0.0
  0
LINE
  5
3A1
100
AcDbEntity
  8
LAYER0004
  6
CONTINUOUS
 62
       7
100
AcDbLine
 10
-169.45348879
 20
-91.79914966
 30
0.0
 11
-169.40914112
 21
-91.79124151
 31
0.0
  0
LINE
  5
3A2
100
AcDbEntity
  8
LAYER0004
  6
CONTINUOUS
 62
       7
100
AcDbLine
 10
-169.40914112
 20
-91.79124151
 30
0.0
 11
-169.36460509
 21
-91.78435636
 31
0.0
  0
LINE
  5
3A3
100
AcDbEntity
  8
LAYER0004
  6
CONTINUOUS
 62
       7
100
AcDbLine
 10
-169.36460509
 20
-91.78435636
 30
0.0
 11
-169.31990424
 21
-91.77836633
 31
0.0
  0
LINE
  5
3A4
100
AcDbEntity
  8
LAYER0004
  6
CONTINUOUS
 62
       7
100
AcDbLine
 10
-169.31990424
 20
-91.77836633
 30
0.0
 11
-169.27506211
 21
-91.77314354
 31
0.0
  0
LINE
  5
3A5
100
AcDbEntity
  8
LAYER0004
  6
CONTINUOUS
 62
       7
100
AcDbLine
 10
-169.27506211
 20
-91.77314354
 30
0.0
 11
-169.23010226
 21
-91.76856012
 31
0.0
  0
LINE
  5
3A6
100
AcDbEntity
  8
LAYER0004
  6
CONTINUOUS
 62
       7
100
AcDbLine
 10
-169.23010226
 20
-91.76856012
 30
0.0
 11
-169.18504822
 21
-91.7644882
 31
0.0
  0
LINE
  5
3A7
100
AcDbEntity
  8
LAYER0004
  6
CONTINUOUS
 62
       7
100
AcDbLine
 10
-169.18504822
 20
-91.7644882
 30
0.0
 11
-169.13992355
 21
-91.76079991
 31
0.0
  0
LINE
  5
3A8
100
AcDbEntity
  8
LAYER0004
  6
CONTINUOUS
 62
       7
100
AcDbLine
 10
-169.13992355
 20
-91.76079991
 30
0.0
 11
-169.09475179
 21
-91.75736736
 31
0.0
  0
LINE
  5
3A9
100
AcDbEntity
  8
LAYER0004
  6
CONTINUOUS
 62
       7
100
AcDbLine
 10
-169.09475179
 20
-91.75736736
 30
0.0
 11
-169.04955648
 21
-91.75406268
 31
0.0
  0
LINE
  5
3AA
100
AcDbEntity
  8
LAYER0004
  6
CONTINUOUS
 62
       7
100
AcDbLine
 10
-169.04955648
 20
-100.25406221
 30
0.0
 11
-169.09496169
 21
-100.24977822
 31
0.0
  0
LINE
  5
3AB
100
AcDbEntity
  8
LAYER0004
  6
CONTINUOUS
 62
       7
100
AcDbLine
 10
-169.09496169
 20
-100.24977822
 30
0.0
 11
-169.1403387
 21
-100.24539002
 31
0.0
  0
LINE
  5
3AC
100
AcDbEntity
  8
LAYER0004
  6
CONTINUOUS
 62
       7
100
AcDbLine
 10
-169.1403387
 20
-100.24539002
 30
0.0
 11
-169.18565928
 21
-100.24079345
 31
0.0
  0
LINE
  5
3AD
100
AcDbEntity
  8
LAYER0004
  6
CONTINUOUS
 62
       7
100
AcDbLine
 10
-169.18565928
 20
-100.24079345
 30
0.0
 11
-169.23089522
 21
-100.23588429
 31
0.0
  0
LINE
  5
3AE
100
AcDbEntity
  8
LAYER0004
  6
CONTINUOUS
 62
       7
100
AcDbLine
 10
-169.23089522
 20
-100.23588429
 30
0.0
 11
-169.27601832
 21
-100.23055836
 31
0.0
  0
LINE
  5
3AF
100
AcDbEntity
  8
LAYER0004
  6
CONTINUOUS
 62
       7
100
AcDbLine
 10
-169.27601832
 20
-100.23055836
 30
0.0
 11
-169.32100036
 21
-100.22471146
 31
0.0
  0
LINE
  5
3B0
100
AcDbEntity
  8
LAYER0004
  6
CONTINUOUS
 62
       7
100
AcDbLine
 10
-169.32100036
 20
-100.22471146
 30
0.0
 11
-169.36581312
 21
-100.21823941
 31
0.0
  0
LINE
  5
3B1
100
AcDbEntity
  8
LAYER0004
  6
CONTINUOUS
 62
       7
100
AcDbLine
 10
-169.36581312
 20
-100.21823941
 30
0.0
 11
-169.4104284
 21
-100.211038
 31
0.0
  0
LINE
  5
3B2
100
AcDbEntity
  8
LAYER0004
  6
CONTINUOUS
 62
       7
100
AcDbLine
 10
-169.4104284
 20
-100.211038
 30
0.0
 11
-169.45481799
 21
-100.20300305
 31
0.0
  0
LINE
  5
3B3
100
AcDbEntity
  8
LAYER0004
  6
CONTINUOUS
 62
       7
100
AcDbLine
 10
-169.45481799
 20
-100.20300305
 30
0.0
 11
-169.49895366
 21
-100.19403036
 31
0.0
  0
LINE
  5
3B4
100
AcDbEntity
  8
LAYER0004
  6
CONTINUOUS
 62
       7
100
AcDbLine
 10
-169.49895366
 20
-100.19403036
 30
0.0
 11
-169.54280722
 21
-100.18401574
 31
0.0
  0
LINE
  5
3B5
100
AcDbEntity
  8
LAYER0004
  6
CONTINUOUS
 62
       7
100
AcDbLine
 10
-169.54280722
 20
-100.18401574
 30
0.0
 11
-169.58635044
 21
-100.17285499
 31
0.0
  0
LINE
  5
3B6
100
AcDbEntity
  8
LAYER0004
  6
CONTINUOUS
 62
       7
100
AcDbLine
 10
-169.58635044
 20
-100.17285499
 30
0.0
 11
-169.62955513
 21
-100.16044393
 31
0.0
  0
LINE
  5
3B7
100
AcDbEntity
  8
LAYER0004
  6
CONTINUOUS
 62
       7
100
AcDbLine
 10
-169.62955513
 20
-100.16044393
 30
0.0
 11
-169.67239305
 21
-100.14667835
 31
0.0
  0
LINE
  5
3B8
100
AcDbEntity
  8
LAYER0004
  6
CONTINUOUS
 62
       7
100
AcDbLine
 10
-169.67239305
 20
-100.14667835
 30
0.0
 11
-169.71483601
 21
-100.13145407
 31
0.0
  0
LINE
  5
3B9
100
AcDbEntity
  8
LAYER0004
  6
CONTINUOUS
 62
       7
100
AcDbLine
 10
-169.71483601
 20
-100.13145407
 30
0.0
 11
-169.75685445
 21
-100.1146704
 31
0.0
  0
LINE
  5
3BA
100
AcDbEntity
  8
LAYER0004
  6
CONTINUOUS
 62
       7
100
AcDbLine
 10
-169.75685445
 20
-100.1146704
 30
0.0
 11
-169.79839589
 21
-100.09628696
 31
0.0
  0
LINE
  5
3BB
100
AcDbEntity
  8
LAYER0004
  6
CONTINUOUS
 62
       7
100
AcDbLine
 10
-169.79839589
 20
-100.09628696
 30
0.0
 11
-169.83938857
 21
-100.07631404
 31
0.0
  0
LINE
  5
3BC
100
AcDbEntity
  8
LAYER0004
  6
CONTINUOUS
 62
       7
100
AcDbLine
 10
-169.83938857
 20
-100.07631404
 30
0.0
 11
-169.87976015
 21
-100.05476349
 31
0.0
  0
LINE
  5
3BD
100
AcDbEntity
  8
LAYER0004
  6
CONTINUOUS
 62
       7
100
AcDbLine
 10
-169.87976015
 20
-100.05476349
 30
0.0
 11
-169.91943824
 21
-100.03164718
 31
0.0
  0
LINE
  5
3BE
100
AcDbEntity
  8
LAYER0004
  6
CONTINUOUS
 62
       7
100
AcDbLine
 10
-169.91943824
 20
-100.03164718
 30
0.0
 11
-169.95835051
 21
-100.00697697
 31
0.0
  0
LINE
  5
3BF
100
AcDbEntity
  8
LAYER0004
  6
CONTINUOUS
 62
       7
100
AcDbLine
 10
-169.95835051
 20
-100.00697697
 30
0.0
 11
-169.99642459
 21
-99.98076474
 31
0.0
  0
LINE
  5
3C0
100
AcDbEntity
  8
LAYER0004
  6
CONTINUOUS
 62
       7
100
AcDbLine
 10
-169.99642459
 20
-99.98076474
 30
0.0
 11
-170.03358812
 21
-99.95302234
 31
0.0
  0
LINE
  5
3C1
100
AcDbEntity
  8
LAYER0004
  6
CONTINUOUS
 62
       7
100
AcDbLine
 10
-170.03358812
 20
-99.95302234
 30
0.0
 11
-170.06976874
 21
-99.92376163
 31
0.0
  0
LINE
  5
3C2
100
AcDbEntity
  8
LAYER0004
  6
CONTINUOUS
 62
       7
100
AcDbLine
 10
-170.06976874
 20
-99.92376163
 30
0.0
 11
-170.10489027
 21
-99.89299098
 31
0.0
  0
LINE
  5
3C3
100
AcDbEntity
  8
LAYER0004
  6
CONTINUOUS
 62
       7
100
AcDbLine
 10
-170.10489027
 20
-99.89299098
 30
0.0
 11
-170.13884894
 21
-99.86069337
 31
0.0
  0
LINE
  5
3C4
100
AcDbEntity
  8
LAYER0004
  6
CONTINUOUS
 62
       7
100
AcDbLine
 10
-170.13884894
 20
-99.86069337
 30
0.0
 11
-170.17152889
 21
-99.8268407
 31
0.0
  0
LINE
  5
3C5
100
AcDbEntity
  8
LAYER0004
  6
CONTINUOUS
 62
       7
100
AcDbLine
 10
-170.17152889
 20
-99.8268407
 30
0.0
 11
-170.20281419
 21
-99.7914048
 31
0.0
  0
LINE
  5
3C6
100
AcDbEntity
  8
LAYER0004
  6
CONTINUOUS
 62
       7
100
AcDbLine
 10
-170.20281419
 20
-99.7914048
 30
0.0
 11
-170.23258895
 21
-99.75435752
 31
0.0
  0
LINE
  5
3C7
100
AcDbEntity
  8
LAYER0004
  6
CONTINUOUS
 62
       7
100
AcDbLine
 10
-170.23258895
 20
-99.75435752
 30
0.0
 11
-170.26073723
 21
-99.7156707
 31
0.0
  0
LINE
  5
3C8
100
AcDbEntity
  8
LAYER0004
  6
CONTINUOUS
 62
       7
100
AcDbLine
 10
-170.26073723
 20
-99.7156707
 30
0.0
 11
-170.28714311
 21
-99.67531619
 31
0.0
  0
LINE
  5
3C9
100
AcDbEntity
  8
LAYER0004
  6
CONTINUOUS
 62
       7
100
AcDbLine
 10
-170.28714311
 20
-99.67531619
 30
0.0
 11
-170.31163976
 21
-99.63329931
 31
0.0
  0
LINE
  5
3CA
100
AcDbEntity
  8
LAYER0004
  6
CONTINUOUS
 62
       7
100
AcDbLine
 10
-170.31163976
 20
-99.63329931
 30
0.0
 11
-170.33389434
 21
-99.58973461
 31
0.0
  0
LINE
  5
3CB
100
AcDbEntity
  8
LAYER0004
  6
CONTINUOUS
 62
       7
100
AcDbLine
 10
-170.33389434
 20
-99.58973461
 30
0.0
 11
-170.3535402
 21
-99.54475885
 31
0.0
  0
LINE
  5
3CC
100
AcDbEntity
  8
LAYER0004
  6
CONTINUOUS
 62
       7
100
AcDbLine
 10
-170.3535402
 20
-99.54475885
 30
0.0
 11
-170.3702107
 21
-99.49850881
 31
0.0
  0
LINE
  5
3CD
100
AcDbEntity
  8
LAYER0004
  6
CONTINUOUS
 62
       7
100
AcDbLine
 10
-170.3702107
 20
-99.49850881
 30
0.0
 11
-170.38353921
 21
-99.45112126
 31
0.0
  0
LINE
  5
3CE
100
AcDbEntity
  8
LAYER0004
  6
CONTINUOUS
 62
       7
100
AcDbLine
 10
-170.38353921
 20
-99.45112126
 30
0.0
 11
-170.39330453
 21
-99.40274571
 31
0.0
  0
LINE
  5
3CF
100
AcDbEntity
  8
LAYER0004
  6
CONTINUOUS
 62
       7
100
AcDbLine
 10
-170.39330453
 20
-99.40274571
 30
0.0
 11
-170.40015557
 21
-99.35360796
 31
0.0
  0
LINE
  5
3D0
100
AcDbEntity
  8
LAYER0004
  6
CONTINUOUS
 62
       7
100
AcDbLine
 10
-170.40015557
 20
-99.35360796
 30
0.0
 11
-170.40506341
 21
-99.30396205
 31
0.0
  0
LINE
  5
3D1
100
AcDbEntity
  8
LAYER0004
  6
CONTINUOUS
 62
       7
100
AcDbLine
 10
-170.40506341
 20
-99.30396205
 30
0.0
 11
-170.40899966
 21
-99.25406205
 31
0.0
  0
LINE
  5
3D2
100
AcDbEntity
  8
LAYER0004
  6
CONTINUOUS
 62
       7
100
AcDbLine
 10
-142.50127051
 20
-99.25406205
 30
0.0
 11
-142.50647183
 21
-99.30408711
 31
0.0
  0
LINE
  5
3D3
100
AcDbEntity
  8
LAYER0004
  6
CONTINUOUS
 62
       7
100
AcDbLine
 10
-142.50647183
 20
-99.30408711
 30
0.0
 11
-142.51238071
 21
-99.35386244
 31
0.0
  0
LINE
  5
3D4
100
AcDbEntity
  8
LAYER0004
  6
CONTINUOUS
 62
       7
100
AcDbLine
 10
-142.51238071
 20
-99.35386244
 30
0.0
 11
-142.5197047
 21
-99.40313835
 31
0.0
  0
LINE
  5
3D5
100
AcDbEntity
  8
LAYER0004
  6
CONTINUOUS
 62
       7
100
AcDbLine
 10
-142.5197047
 20
-99.40313835
 30
0.0
 11
-142.52915136
 21
-99.4516651
 31
0.0
  0
LINE
  5
3D6
100
AcDbEntity
  8
LAYER0004
  6
CONTINUOUS
 62
       7
100
AcDbLine
 10
-142.52915136
 20
-99.4516651
 30
0.0
 11
-142.54142826
 21
-99.49919298
 31
0.0
  0
LINE
  5
3D7
100
AcDbEntity
  8
LAYER0004
  6
CONTINUOUS
 62
       7
100
AcDbLine
 10
-142.54142826
 20
-99.49919298
 30
0.0
 11
-142.55714668
 21
-99.54548707
 31
0.0
  0
LINE
  5
3D8
100
AcDbEntity
  8
LAYER0004
  6
CONTINUOUS
 62
       7
100
AcDbLine
 10
-142.55714668
 20
-99.54548707
 30
0.0
 11
-142.57621594
 21
-99.59042025
 31
0.0
  0
LINE
  5
3D9
100
AcDbEntity
  8
LAYER0004
  6
CONTINUOUS
 62
       7
100
AcDbLine
 10
-142.57621594
 20
-99.59042025
 30
0.0
 11
-142.59823446
 21
-99.6339132
 31
0.0
  0
LINE
  5
3DA
100
AcDbEntity
  8
LAYER0004
  6
CONTINUOUS
 62
       7
100
AcDbLine
 10
-142.59823446
 20
-99.6339132
 30
0.0
 11
-142.62279924
 21
-99.6758868
 31
0.0
  0
LINE
  5
3DB
100
AcDbEntity
  8
LAYER0004
  6
CONTINUOUS
 62
       7
100
AcDbLine
 10
-142.62279924
 20
-99.6758868
 30
0.0
 11
-142.64950728
 21
-99.71626191
 31
0.0
  0
LINE
  5
3DC
100
AcDbEntity
  8
LAYER0004
  6
CONTINUOUS
 62
       7
100
AcDbLine
 10
-142.64950728
 20
-99.71626191
 30
0.0
 11
-142.67796868
 21
-99.7549643
 31
0.0
  0
LINE
  5
3DD
100
AcDbEntity
  8
LAYER0004
  6
CONTINUOUS
 62
       7
100
AcDbLine
 10
-142.67796868
 20
-99.7549643
 30
0.0
 11
-142.70796487
 21
-99.79198371
 31
0.0
  0
LINE
  5
3DE
100
AcDbEntity
  8
LAYER0004
  6
CONTINUOUS
 62
       7
100
AcDbLine
 10
-142.70796487
 20
-99.79198371
 30
0.0
 11
-142.7393976
 21
-99.82735483
 31
0.0
  0
LINE
  5
3DF
100
AcDbEntity
  8
LAYER0004
  6
CONTINUOUS
 62
       7
100
AcDbLine
 10
-142.7393976
 20
-99.82735483
 30
0.0
 11
-142.77217115
 21
-99.86111324
 31
0.0
  0
LINE
  5
3E0
100
AcDbEntity
  8
LAYER0004
  6
CONTINUOUS
 62
       7
100
AcDbLine
 10
-142.77217115
 20
-99.86111324
 30
0.0
 11
-142.80618979
 21
-99.89329457
 31
0.0
  0
LINE
  5
3E1
100
AcDbEntity
  8
LAYER0004
  6
CONTINUOUS
 62
       7
100
AcDbLine
 10
-142.80618979
 20
-99.89329457
 30
0.0
 11
-142.84135777
 21
-99.92393441
 31
0.0
  0
LINE
  5
3E2
100
AcDbEntity
  8
LAYER0004
  6
CONTINUOUS
 62
       7
100
AcDbLine
 10
-142.84135777
 20
-99.92393441
 30
0.0
 11
-142.87757936
 21
-99.95306839
 31
0.0
  0
LINE
  5
3E3
100
AcDbEntity
  8
LAYER0004
  6
CONTINUOUS
 62
       7
100
AcDbLine
 10
-142.87757936
 20
-99.95306839
 30
0.0
 11
-142.91475889
 21
-99.98073205
 31
0.0
  0
LINE
  5
3E4
100
AcDbEntity
  8
LAYER0004
  6
CONTINUOUS
 62
       7
100
AcDbLine
 10
-142.91475889
 20
-99.98073205
 30
0.0
 11
-142.95281201
 21
-100.00695031
 31
0.0
  0
LINE
  5
3E5
100
AcDbEntity
  8
LAYER0004
  6
CONTINUOUS
 62
       7
100
AcDbLine
 10
-142.95281201
 20
-100.00695031
 30
0.0
 11
-142.99167884
 21
-100.03172515
 31
0.0
  0
LINE
  5
3E6
100
AcDbEntity
  8
LAYER0004
  6
CONTINUOUS
 62
       7
100
AcDbLine
 10
-142.99167884
 20
-100.03172515
 30
0.0
 11
-143.03130271
 21
-100.05505555
 31
0.0
  0
LINE
  5
3E7
100
AcDbEntity
  8
LAYER0004
  6
CONTINUOUS
 62
       7
100
AcDbLine
 10
-143.03130271
 20
-100.05505555
 30
0.0
 11
-143.07162694
 21
-100.07694047
 31
0.0
  0
LINE
  5
3E8
100
AcDbEntity
  8
LAYER0004
  6
CONTINUOUS
 62
       7
100
AcDbLine
 10
-143.07162694
 20
-100.07694047
 30
0.0
 11
-143.11259483
 21
-100.09737889
 31
0.0
  0
LINE
  5
3E9
100
AcDbEntity
  8
LAYER0004
  6
CONTINUOUS
 62
       7
100
AcDbLine
 10
-143.11259483
 20
-100.09737889
 30
0.0
 11
-143.15414971
 21
-100.1163698
 31
0.0
  0
LINE
  5
3EA
100
AcDbEntity
  8
LAYER0004
  6
CONTINUOUS
 62
       7
100
AcDbLine
 10
-143.15414971
 20
-100.1163698
 30
0.0
 11
-143.1962349
 21
-100.13391215
 31
0.0
  0
LINE
  5
3EB
100
AcDbEntity
  8
LAYER0004
  6
CONTINUOUS
 62
       7
100
AcDbLine
 10
-143.1962349
 20
-100.13391215
 30
0.0
 11
-143.23879372
 21
-100.15000494
 31
0.0
  0
LINE
  5
3EC
100
AcDbEntity
  8
LAYER0004
  6
CONTINUOUS
 62
       7
100
AcDbLine
 10
-143.23879372
 20
-100.15000494
 30
0.0
 11
-143.28176948
 21
-100.16464712
 31
0.0
  0
LINE
  5
3ED
100
AcDbEntity
  8
LAYER0004
  6
CONTINUOUS
 62
       7
100
AcDbLine
 10
-143.28176948
 20
-100.16464712
 30
0.0
 11
-143.3251055
 21
-100.17783769
 31
0.0
  0
LINE
  5
3EE
100
AcDbEntity
  8
LAYER0004
  6
CONTINUOUS
 62
       7
100
AcDbLine
 10
-143.3251055
 20
-100.17783769
 30
0.0
 11
-143.36874538
 21
-100.18957665
 31
0.0
  0
LINE
  5
3EF
100
AcDbEntity
  8
LAYER0004
  6
CONTINUOUS
 62
       7
100
AcDbLine
 10
-143.36874538
 20
-100.18957665
 30
0.0
 11
-143.41264567
 21
-100.19991451
 31
0.0
  0
LINE
  5
3F0
100
AcDbEntity
  8
LAYER0004
  6
CONTINUOUS
 62
       7
100
AcDbLine
 10
-143.41264567
 20
-100.19991451
 30
0.0
 11
-143.45678142
 21
-100.20897365
 31
0.0
  0
LINE
  5
3F1
100
AcDbEntity
  8
LAYER0004
  6
CONTINUOUS
 62
       7
100
AcDbLine
 10
-143.45678142
 20
-100.20897365
 30
0.0
 11
-143.50112908
 21
-100.21688193
 31
0.0
  0
LINE
  5
3F2
100
AcDbEntity
  8
LAYER0004
  6
CONTINUOUS
 62
       7
100
AcDbLine
 10
-143.50112908
 20
-100.21688193
 30
0.0
 11
-143.54566511
 21
-100.22376724
 31
0.0
  0
LINE
  5
3F3
100
AcDbEntity
  8
LAYER0004
  6
CONTINUOUS
 62
       7
100
AcDbLine
 10
-143.54566511
 20
-100.22376724
 30
0.0
 11
-143.59036596
 21
-100.22975743
 31
0.0
  0
LINE
  5
3F4
100
AcDbEntity
  8
LAYER0004
  6
CONTINUOUS
 62
       7
100
AcDbLine
 10
-143.59036596
 20
-100.22975743
 30
0.0
 11
-143.63520808
 21
-100.2349804
 31
0.0
  0
LINE
  5
3F5
100
AcDbEntity
  8
LAYER0004
  6
CONTINUOUS
 62
       7
100
AcDbLine
 10
-143.63520808
 20
-100.2349804
 30
0.0
 11
-143.68016792
 21
-100.23956399
 31
0.0
  0
LINE
  5
3F6
100
AcDbEntity
  8
LAYER0004
  6
CONTINUOUS
 62
       7
100
AcDbLine
 10
-143.68016792
 20
-100.23956399
 30
0.0
 11
-143.72522196
 21
-100.2436361
 31
0.0
  0
LINE
  5
3F7
100
AcDbEntity
  8
LAYER0004
  6
CONTINUOUS
 62
       7
100
AcDbLine
 10
-143.72522196
 20
-100.2436361
 30
0.0
 11
-143.77034662
 21
-100.24732459
 31
0.0
  0
LINE
  5
3F8
100
AcDbEntity
  8
LAYER0004
  6
CONTINUOUS
 62
       7
100
AcDbLine
 10
-143.77034662
 20
-100.24732459
 30
0.0
 11
-143.81551838
 21
-100.25075734
 31
0.0
  0
LINE
  5
3F9
100
AcDbEntity
  8
LAYER0004
  6
CONTINUOUS
 62
       7
100
AcDbLine
 10
-143.81551838
 20
-100.25075734
 30
0.0
 11
-143.86071369
 21
-100.25406221
 31
0.0
  0
LINE
  5
3FA
100
AcDbEntity
  8
LAYER0004
  6
CONTINUOUS
 62
       7
100
AcDbLine
 10
15.68672706
 20
57.99593905
 30
0.0
 11
15.72488662
 21
57.9891383
 31
0.0
  0
LINE
  5
3FB
100
AcDbEntity
  8
LAYER0004
  6
CONTINUOUS
 62
       7
100
AcDbLine
 10
15.72488662
 20
57.9891383
 30
0.0
 11
15.76300574
 21
57.98195267
 31
0.0
  0
LINE
  5
3FC
100
AcDbEntity
  8
LAYER0004
  6
CONTINUOUS
 62
       7
100
AcDbLine
 10
15.76300574
 20
57.98195267
 30
0.0
 11
15.80104398
 21
57.97399729
 31
0.0
  0
LINE
  5
3FD
100
AcDbEntity
  8
LAYER0004
  6
CONTINUOUS
 62
       7
100
AcDbLine
 10
15.80104398
 20
57.97399729
 30
0.0
 11
15.8389609
 21
57.96488727
 31
0.0
  0
LINE
  5
3FE
100
AcDbEntity
  8
LAYER0004
  6
CONTINUOUS
 62
       7
100
AcDbLine
 10
15.8389609
 20
57.96488727
 30
0.0
 11
15.87671604
 21
57.95423774
 31
0.0
  0
LINE
  5
3FF
100
AcDbEntity
  8
LAYER0004
  6
CONTINUOUS
 62
       7
100
AcDbLine
 10
15.87671604
 20
57.95423774
 30
0.0
 11
15.91426898
 21
57.94166381
 31
0.0
  0
LINE
  5
400
100
AcDbEntity
  8
LAYER0004
  6
CONTINUOUS
 62
       7
100
AcDbLine
 10
15.91426898
 20
57.94166381
 30
0.0
 11
15.95157928
 21
57.92678061
 31
0.0
  0
LINE
  5
401
100
AcDbEntity
  8
LAYER0004
  6
CONTINUOUS
 62
       7
100
AcDbLine
 10
15.95157928
 20
57.92678061
 30
0.0
 11
15.98860648
 21
57.90920326
 31
0.0
  0
LINE
  5
402
100
AcDbEntity
  8
LAYER0004
  6
CONTINUOUS
 62
       7
100
AcDbLine
 10
15.98860648
 20
57.90920326
 30
0.0
 11
16.0253098
 21
57.88855343
 31
0.0
  0
LINE
  5
403
100
AcDbEntity
  8
LAYER0004
  6
CONTINUOUS
 62
       7
100
AcDbLine
 10
16.0253098
 20
57.88855343
 30
0.0
 11
16.0616361
 21
57.86468442
 31
0.0
  0
LINE
  5
404
100
AcDbEntity
  8
LAYER0004
  6
CONTINUOUS
 62
       7
100
AcDbLine
 10
16.0616361
 20
57.86468442
 30
0.0
 11
16.09751687
 21
57.83773774
 31
0.0
  0
LINE
  5
405
100
AcDbEntity
  8
LAYER0004
  6
CONTINUOUS
 62
       7
100
AcDbLine
 10
16.09751687
 20
57.83773774
 30
0.0
 11
16.13288264
 21
57.80787293
 31
0.0
  0
LINE
  5
406
100
AcDbEntity
  8
LAYER0004
  6
CONTINUOUS
 62
       7
100
AcDbLine
 10
16.13288264
 20
57.80787293
 30
0.0
 11
16.16766394
 21
57.77524953
 31
0.0
  0
LINE
  5
407
100
AcDbEntity
  8
LAYER0004
  6
CONTINUOUS
 62
       7
100
AcDbLine
 10
16.16766394
 20
57.77524953
 30
0.0
 11
16.20179129
 21
57.74002709
 31
0.0
  0
LINE
  5
408
100
AcDbEntity
  8
LAYER0004
  6
CONTINUOUS
 62
       7
100
AcDbLine
 10
16.20179129
 20
57.74002709
 30
0.0
 11
16.23519523
 21
57.70236517
 31
0.0
  0
LINE
  5
409
100
AcDbEntity
  8
LAYER0004
  6
CONTINUOUS
 62
       7
100
AcDbLine
 10
16.23519523
 20
57.70236517
 30
0.0
 11
16.26780628
 21
57.66242329
 31
0.0
  0
LINE
  5
40A
100
AcDbEntity
  8
LAYER0004
  6
CONTINUOUS
 62
       7
100
AcDbLine
 10
16.26780628
 20
57.66242329
 30
0.0
 11
16.29955498
 21
57.62036101
 31
0.0
  0
LINE
  5
40B
100
AcDbEntity
  8
LAYER0004
  6
CONTINUOUS
 62
       7
100
AcDbLine
 10
16.29955498
 20
57.62036101
 30
0.0
 11
16.33037525
 21
57.57632726
 31
0.0
  0
LINE
  5
40C
100
AcDbEntity
  8
LAYER0004
  6
CONTINUOUS
 62
       7
100
AcDbLine
 10
16.33037525
 20
57.57632726
 30
0.0
 11
16.36022369
 21
57.53040021
 31
0.0
  0
LINE
  5
40D
100
AcDbEntity
  8
LAYER0004
  6
CONTINUOUS
 62
       7
100
AcDbLine
 10
16.36022369
 20
57.53040021
 30
0.0
 11
16.38906617
 21
57.48262908
 31
0.0
  0
LINE
  5
40E
100
AcDbEntity
  8
LAYER0004
  6
CONTINUOUS
 62
       7
100
AcDbLine
 10
16.38906617
 20
57.48262908
 30
0.0
 11
16.4168686
 21
57.43306302
 31
0.0
  0
LINE
  5
40F
100
AcDbEntity
  8
LAYER0004
  6
CONTINUOUS
 62
       7
100
AcDbLine
 10
16.4168686
 20
57.43306302
 30
0.0
 11
16.44359687
 21
57.38175114
 31
0.0
  0
LINE
  5
410
100
AcDbEntity
  8
LAYER0004
  6
CONTINUOUS
 62
       7
100
AcDbLine
 10
16.44359687
 20
57.38175114
 30
0.0
 11
16.46921689
 21
57.32874261
 31
0.0
  0
LINE
  5
411
100
AcDbEntity
  8
LAYER0004
  6
CONTINUOUS
 62
       7
100
AcDbLine
 10
16.46921689
 20
57.32874261
 30
0.0
 11
16.49369454
 21
57.27408653
 31
0.0
  0
LINE
  5
412
100
AcDbEntity
  8
LAYER0004
  6
CONTINUOUS
 62
       7
100
AcDbLine
 10
16.49369454
 20
57.27408653
 30
0.0
 11
16.51699574
 21
57.21783207
 31
0.0
  0
LINE
  5
413
100
AcDbEntity
  8
LAYER0004
  6
CONTINUOUS
 62
       7
100
AcDbLine
 10
16.51699574
 20
57.21783207
 30
0.0
 11
16.53908625
 21
57.16002852
 31
0.0
  0
LINE
  5
414
100
AcDbEntity
  8
LAYER0004
  6
CONTINUOUS
 62
       7
100
AcDbLine
 10
16.53908625
 20
57.16002852
 30
0.0
 11
16.5599168
 21
57.10074557
 31
0.0
  0
LINE
  5
415
100
AcDbEntity
  8
LAYER0004
  6
CONTINUOUS
 62
       7
100
AcDbLine
 10
16.5599168
 20
57.10074557
 30
0.0
 11
16.57940937
 21
57.04009184
 31
0.0
  0
LINE
  5
416
100
AcDbEntity
  8
LAYER0004
  6
CONTINUOUS
 62
       7
100
AcDbLine
 10
16.57940937
 20
57.04009184
 30
0.0
 11
16.59748269
 21
56.97818033
 31
0.0
  0
LINE
  5
417
100
AcDbEntity
  8
LAYER0004
  6
CONTINUOUS
 62
       7
100
AcDbLine
 10
16.59748269
 20
56.97818033
 30
0.0
 11
16.61405551
 21
56.91512405
 31
0.0
  0
LINE
  5
418
100
AcDbEntity
  8
LAYER0004
  6
CONTINUOUS
 62
       7
100
AcDbLine
 10
16.61405551
 20
56.91512405
 30
0.0
 11
16.62904656
 21
56.85103599
 31
0.0
  0
LINE
  5
419
100
AcDbEntity
  8
LAYER0004
  6
CONTINUOUS
 62
       7
100
AcDbLine
 10
16.62904656
 20
56.85103599
 30
0.0
 11
16.64237458
 21
56.78602917
 31
0.0
  0
LINE
  5
41A
100
AcDbEntity
  8
LAYER0004
  6
CONTINUOUS
 62
       7
100
AcDbLine
 10
16.64237458
 20
56.78602917
 30
0.0
 11
16.65395831
 21
56.72021658
 31
0.0
  0
LINE
  5
41B
100
AcDbEntity
  8
LAYER0004
  6
CONTINUOUS
 62
       7
100
AcDbLine
 10
16.65395831
 20
56.72021658
 30
0.0
 11
16.66371649
 21
56.65371124
 31
0.0
  0
LINE
  5
41C
100
AcDbEntity
  8
LAYER0004
  6
CONTINUOUS
 62
       7
100
AcDbLine
 10
16.66371649
 20
56.65371124
 30
0.0
 11
16.67158957
 21
56.58662525
 31
0.0
  0
LINE
  5
41D
100
AcDbEntity
  8
LAYER0004
  6
CONTINUOUS
 62
       7
100
AcDbLine
 10
16.67158957
 20
56.58662525
 30
0.0
 11
16.67776215
 21
56.5190607
 31
0.0
  0
LINE
  5
41E
100
AcDbEntity
  8
LAYER0004
  6
CONTINUOUS
 62
       7
100
AcDbLine
 10
16.67776215
 20
56.5190607
 30
0.0
 11
16.68257241
 21
56.45111339
 31
0.0
  0
LINE
  5
41F
100
AcDbEntity
  8
LAYER0004
  6
CONTINUOUS
 62
       7
100
AcDbLine
 10
16.68257241
 20
56.45111339
 30
0.0
 11
16.68636093
 21
56.382879
 31
0.0
  0
LINE
  5
420
100
AcDbEntity
  8
LAYER0004
  6
CONTINUOUS
 62
       7
100
AcDbLine
 10
16.68636093
 20
56.382879
 30
0.0
 11
16.68946829
 21
56.31445323
 31
0.0
  0
LINE
  5
421
100
AcDbEntity
  8
LAYER0004
  6
CONTINUOUS
 62
       7
100
AcDbLine
 10
16.68946829
 20
56.31445323
 30
0.0
 11
16.69223507
 21
56.24593177
 31
0.0
  0
LINE
  5
422
100
AcDbEntity
  8
LAYER0004
  6
CONTINUOUS
 62
       7
100
AcDbLine
 10
16.69223507
 20
45.84593454
 30
0.0
 11
16.68814622
 21
45.77719994
 31
0.0
  0
LINE
  5
423
100
AcDbEntity
  8
LAYER0004
  6
CONTINUOUS
 62
       7
100
AcDbLine
 10
16.68814622
 20
45.77719994
 30
0.0
 11
16.68382897
 21
45.70856934
 31
0.0
  0
LINE
  5
424
100
AcDbEntity
  8
LAYER0004
  6
CONTINUOUS
 62
       7
100
AcDbLine
 10
16.68382897
 20
45.70856934
 30
0.0
 11
16.67905492
 21
45.64014671
 31
0.0
  0
LINE
  5
425
100
AcDbEntity
  8
LAYER0004
  6
CONTINUOUS
 62
       7
100
AcDbLine
 10
16.67905492
 20
45.64014671
 30
0.0
 11
16.67359568
 21
45.57203605
 31
0.0
  0
LINE
  5
426
100
AcDbEntity
  8
LAYER0004
  6
CONTINUOUS
 62
       7
100
AcDbLine
 10
16.67359568
 20
45.57203605
 30
0.0
 11
16.66722285
 21
45.50434134
 31
0.0
  0
LINE
  5
427
100
AcDbEntity
  8
LAYER0004
  6
CONTINUOUS
 62
       7
100
AcDbLine
 10
16.66722285
 20
45.50434134
 30
0.0
 11
16.65970803
 21
45.43716659
 31
0.0
  0
LINE
  5
428
100
AcDbEntity
  8
LAYER0004
  6
CONTINUOUS
 62
       7
100
AcDbLine
 10
16.65970803
 20
45.43716659
 30
0.0
 11
16.65082282
 21
45.37061576
 31
0.0
  0
LINE
  5
429
100
AcDbEntity
  8
LAYER0004
  6
CONTINUOUS
 62
       7
100
AcDbLine
 10
16.65082282
 20
45.37061576
 30
0.0
 11
16.64033883
 21
45.30479287
 31
0.0
  0
LINE
  5
42A
100
AcDbEntity
  8
LAYER0004
  6
CONTINUOUS
 62
       7
100
AcDbLine
 10
16.64033883
 20
45.30479287
 30
0.0
 11
16.6280316
 21
45.23980183
 31
0.0
  0
LINE
  5
42B
100
AcDbEntity
  8
LAYER0004
  6
CONTINUOUS
 62
       7
100
AcDbLine
 10
16.6280316
 20
45.23980183
 30
0.0
 11
16.61381723
 21
45.17574464
 31
0.0
  0
LINE
  5
42C
100
AcDbEntity
  8
LAYER0004
  6
CONTINUOUS
 62
       7
100
AcDbLine
 10
16.61381723
 20
45.17574464
 30
0.0
 11
16.59778707
 21
45.11272086
 31
0.0
  0
LINE
  5
42D
100
AcDbEntity
  8
LAYER0004
  6
CONTINUOUS
 62
       7
100
AcDbLine
 10
16.59778707
 20
45.11272086
 30
0.0
 11
16.5800435
 21
45.05082989
 31
0.0
  0
LINE
  5
42E
100
AcDbEntity
  8
LAYER0004
  6
CONTINUOUS
 62
       7
100
AcDbLine
 10
16.5800435
 20
45.05082989
 30
0.0
 11
16.56068888
 21
44.99017114
 31
0.0
  0
LINE
  5
42F
100
AcDbEntity
  8
LAYER0004
  6
CONTINUOUS
 62
       7
100
AcDbLine
 10
16.56068888
 20
44.99017114
 30
0.0
 11
16.53982558
 21
44.93084401
 31
0.0
  0
LINE
  5
430
100
AcDbEntity
  8
LAYER0004
  6
CONTINUOUS
 62
       7
100
AcDbLine
 10
16.53982558
 20
44.93084401
 30
0.0
 11
16.51755598
 21
44.87294792
 31
0.0
  0
LINE
  5
431
100
AcDbEntity
  8
LAYER0004
  6
CONTINUOUS
 62
       7
100
AcDbLine
 10
16.51755598
 20
44.87294792
 30
0.0
 11
16.49398243
 21
44.81658227
 31
0.0
  0
LINE
  5
432
100
AcDbEntity
  8
LAYER0004
  6
CONTINUOUS
 62
       7
100
AcDbLine
 10
16.49398243
 20
44.81658227
 30
0.0
 11
16.46920731
 21
44.76184647
 31
0.0
  0
LINE
  5
433
100
AcDbEntity
  8
LAYER0004
  6
CONTINUOUS
 62
       7
100
AcDbLine
 10
16.46920731
 20
44.76184647
 30
0.0
 11
16.44332654
 21
44.70883501
 31
0.0
  0
LINE
  5
434
100
AcDbEntity
  8
LAYER0004
  6
CONTINUOUS
 62
       7
100
AcDbLine
 10
16.44332654
 20
44.70883501
 30
0.0
 11
16.41639274
 21
44.65760959
 31
0.0
  0
LINE
  5
435
100
AcDbEntity
  8
LAYER0004
  6
CONTINUOUS
 62
       7
100
AcDbLine
 10
16.41639274
 20
44.65760959
 30
0.0
 11
16.38844076
 21
44.60821837
 31
0.0
  0
LINE
  5
436
100
AcDbEntity
  8
LAYER0004
  6
CONTINUOUS
 62
       7
100
AcDbLine
 10
16.38844076
 20
44.60821837
 30
0.0
 11
16.35950542
 21
44.5607095
 31
0.0
  0
LINE
  5
437
100
AcDbEntity
  8
LAYER0004
  6
CONTINUOUS
 62
       7
100
AcDbLine
 10
16.35950542
 20
44.5607095
 30
0.0
 11
16.32962151
 21
44.51513111
 31
0.0
  0
LINE
  5
438
100
AcDbEntity
  8
LAYER0004
  6
CONTINUOUS
 62
       7
100
AcDbLine
 10
16.32962151
 20
44.51513111
 30
0.0
 11
16.29882383
 21
44.47153136
 31
0.0
  0
LINE
  5
439
100
AcDbEntity
  8
LAYER0004
  6
CONTINUOUS
 62
       7
100
AcDbLine
 10
16.29882383
 20
44.47153136
 30
0.0
 11
16.26714717
 21
44.42995838
 31
0.0
  0
LINE
  5
43A
100
AcDbEntity
  8
LAYER0004
  6
CONTINUOUS
 62
       7
100
AcDbLine
 10
16.26714717
 20
44.42995838
 30
0.0
 11
16.23462635
 21
44.3904603
 31
0.0
  0
LINE
  5
43B
100
AcDbEntity
  8
LAYER0004
  6
CONTINUOUS
 62
       7
100
AcDbLine
 10
16.23462635
 20
44.3904603
 30
0.0
 11
16.20129626
 21
44.35308548
 31
0.0
  0
LINE
  5
43C
100
AcDbEntity
  8
LAYER0004
  6
CONTINUOUS
 62
       7
100
AcDbLine
 10
16.20129626
 20
44.35308548
 30
0.0
 11
16.16720417
 21
44.31790655
 31
0.0
  0
LINE
  5
43D
100
AcDbEntity
  8
LAYER0004
  6
CONTINUOUS
 62
       7
100
AcDbLine
 10
16.16720417
 20
44.31790655
 30
0.0
 11
16.13242153
 21
44.28504373
 31
0.0
  0
LINE
  5
43E
100
AcDbEntity
  8
LAYER0004
  6
CONTINUOUS
 62
       7
100
AcDbLine
 10
16.13242153
 20
44.28504373
 30
0.0
 11
16.09702263
 21
44.25462271
 31
0.0
  0
LINE
  5
43F
100
AcDbEntity
  8
LAYER0004
  6
CONTINUOUS
 62
       7
100
AcDbLine
 10
16.09702263
 20
44.25462271
 30
0.0
 11
16.0610817
 21
44.22676921
 31
0.0
  0
LINE
  5
440
100
AcDbEntity
  8
LAYER0004
  6
CONTINUOUS
 62
       7
100
AcDbLine
 10
16.0610817
 20
44.22676921
 30
0.0
 11
16.02467303
 21
44.20160894
 31
0.0
  0
LINE
  5
441
100
AcDbEntity
  8
LAYER0004
  6
CONTINUOUS
 62
       7
100
AcDbLine
 10
16.02467303
 20
44.20160894
 30
0.0
 11
15.98787087
 21
44.1792676
 31
0.0
  0
LINE
  5
442
100
AcDbEntity
  8
LAYER0004
  6
CONTINUOUS
 62
       7
100
AcDbLine
 10
15.98787087
 20
44.1792676
 30
0.0
 11
15.95074949
 21
44.15987089
 31
0.0
  0
LINE
  5
443
100
AcDbEntity
  8
LAYER0004
  6
CONTINUOUS
 62
       7
100
AcDbLine
 10
15.95074949
 20
44.15987089
 30
0.0
 11
15.91338314
 21
44.14354453
 31
0.0
  0
LINE
  5
444
100
AcDbEntity
  8
LAYER0004
  6
CONTINUOUS
 62
       7
100
AcDbLine
 10
15.91338314
 20
44.14354453
 30
0.0
 11
15.87584366
 21
44.13037941
 31
0.0
  0
LINE
  5
445
100
AcDbEntity
  8
LAYER0004
  6
CONTINUOUS
 62
       7
100
AcDbLine
 10
15.87584366
 20
44.13037941
 30
0.0
 11
15.83817501
 21
44.12006549
 31
0.0
  0
LINE
  5
446
100
AcDbEntity
  8
LAYER0004
  6
CONTINUOUS
 62
       7
100
AcDbLine
 10
15.83817501
 20
44.12006549
 30
0.0
 11
15.80040324
 21
44.11203588
 31
0.0
  0
LINE
  5
447
100
AcDbEntity
  8
LAYER0004
  6
CONTINUOUS
 62
       7
100
AcDbLine
 10
15.80040324
 20
44.11203588
 30
0.0
 11
15.76255415
 21
44.10571951
 31
0.0
  0
LINE
  5
448
100
AcDbEntity
  8
LAYER0004
  6
CONTINUOUS
 62
       7
100
AcDbLine
 10
15.76255415
 20
44.10571951
 30
0.0
 11
15.72465349
 21
44.1005453
 31
0.0
  0
LINE
  5
449
100
AcDbEntity
  8
LAYER0004
  6
CONTINUOUS
 62
       7
100
AcDbLine
 10
15.72465349
 20
44.1005453
 30
0.0
 11
15.68672706
 21
44.09594217
 31
0.0
  0
LINE
  5
44A
100
AcDbEntity
  8
LAYER0004
  6
CONTINUOUS
 62
       7
100
AcDbLine
 10
13.50941782
 20
-91.75406268
 30
0.0
 11
13.53083442
 21
-91.75834653
 31
0.0
  0
LINE
  5
44B
100
AcDbEntity
  8
LAYER0004
  6
CONTINUOUS
 62
       7
100
AcDbLine
 10
13.53083442
 20
-91.75834653
 30
0.0
 11
13.55224477
 21
-91.76273458
 31
0.0
  0
LINE
  5
44C
100
AcDbEntity
  8
LAYER0004
  6
CONTINUOUS
 62
       7
100
AcDbLine
 10
13.55224477
 20
-91.76273458
 30
0.0
 11
13.57364261
 21
-91.76733101
 31
0.0
  0
LINE
  5
44D
100
AcDbEntity
  8
LAYER0004
  6
CONTINUOUS
 62
       7
100
AcDbLine
 10
13.57364261
 20
-91.76733101
 30
0.0
 11
13.59502167
 21
-91.77224002
 31
0.0
  0
LINE
  5
44E
100
AcDbEntity
  8
LAYER0004
  6
CONTINUOUS
 62
       7
100
AcDbLine
 10
13.59502167
 20
-91.77224002
 30
0.0
 11
13.61637571
 21
-91.77756581
 31
0.0
  0
LINE
  5
44F
100
AcDbEntity
  8
LAYER0004
  6
CONTINUOUS
 62
       7
100
AcDbLine
 10
13.61637571
 20
-91.77756581
 30
0.0
 11
13.63769847
 21
-91.78341257
 31
0.0
  0
LINE
  5
450
100
AcDbEntity
  8
LAYER0004
  6
CONTINUOUS
 62
       7
100
AcDbLine
 10
13.63769847
 20
-91.78341257
 30
0.0
 11
13.65898368
 21
-91.78988449
 31
0.0
  0
LINE
  5
451
100
AcDbEntity
  8
LAYER0004
  6
CONTINUOUS
 62
       7
100
AcDbLine
 10
13.65898368
 20
-91.78988449
 30
0.0
 11
13.6802251
 21
-91.79708577
 31
0.0
  0
LINE
  5
452
100
AcDbEntity
  8
LAYER0004
  6
CONTINUOUS
 62
       7
100
AcDbLine
 10
13.6802251
 20
-91.79708577
 30
0.0
 11
13.70141647
 21
-91.8051206
 31
0.0
  0
LINE
  5
453
100
AcDbEntity
  8
LAYER0004
  6
CONTINUOUS
 62
       7
100
AcDbLine
 10
13.70141647
 20
-91.8051206
 30
0.0
 11
13.72255153
 21
-91.81409318
 31
0.0
  0
LINE
  5
454
100
AcDbEntity
  8
LAYER0004
  6
CONTINUOUS
 62
       7
100
AcDbLine
 10
13.72255153
 20
-91.81409318
 30
0.0
 11
13.74362402
 21
-91.8241077
 31
0.0
  0
LINE
  5
455
100
AcDbEntity
  8
LAYER0004
  6
CONTINUOUS
 62
       7
100
AcDbLine
 10
13.74362402
 20
-91.8241077
 30
0.0
 11
13.76462768
 21
-91.83526835
 31
0.0
  0
LINE
  5
456
100
AcDbEntity
  8
LAYER0004
  6
CONTINUOUS
 62
       7
100
AcDbLine
 10
13.76462768
 20
-91.83526835
 30
0.0
 11
13.78555627
 21
-91.84767932
 31
0.0
  0
LINE
  5
457
100
AcDbEntity
  8
LAYER0004
  6
CONTINUOUS
 62
       7
100
AcDbLine
 10
13.78555627
 20
-91.84767932
 30
0.0
 11
13.80640352
 21
-91.86144482
 31
0.0
  0
LINE
  5
458
100
AcDbEntity
  8
LAYER0004
  6
CONTINUOUS
 62
       7
100
AcDbLine
 10
13.80640352
 20
-91.86144482
 30
0.0
 11
13.82716318
 21
-91.87666903
 31
0.0
  0
LINE
  5
459
100
AcDbEntity
  8
LAYER0004
  6
CONTINUOUS
 62
       7
100
AcDbLine
 10
13.82716318
 20
-91.87666903
 30
0.0
 11
13.84782781
 21
-91.89345264
 31
0.0
  0
LINE
  5
45A
100
AcDbEntity
  8
LAYER0004
  6
CONTINUOUS
 62
       7
100
AcDbLine
 10
13.84782781
 20
-91.89345264
 30
0.0
 11
13.86836967
 21
-91.91183603
 31
0.0
  0
LINE
  5
45B
100
AcDbEntity
  8
LAYER0004
  6
CONTINUOUS
 62
       7
100
AcDbLine
 10
13.86836967
 20
-91.91183603
 30
0.0
 11
13.88874401
 21
-91.93180893
 31
0.0
  0
LINE
  5
45C
100
AcDbEntity
  8
LAYER0004
  6
CONTINUOUS
 62
       7
100
AcDbLine
 10
13.88874401
 20
-91.93180893
 30
0.0
 11
13.90890551
 21
-91.95335946
 31
0.0
  0
LINE
  5
45D
100
AcDbEntity
  8
LAYER0004
  6
CONTINUOUS
 62
       7
100
AcDbLine
 10
13.90890551
 20
-91.95335946
 30
0.0
 11
13.92880886
 21
-91.97647576
 31
0.0
  0
LINE
  5
45E
100
AcDbEntity
  8
LAYER0004
  6
CONTINUOUS
 62
       7
100
AcDbLine
 10
13.92880886
 20
-91.97647576
 30
0.0
 11
13.94840875
 21
-92.00114597
 31
0.0
  0
LINE
  5
45F
100
AcDbEntity
  8
LAYER0004
  6
CONTINUOUS
 62
       7
100
AcDbLine
 10
13.94840875
 20
-92.00114597
 30
0.0
 11
13.96765989
 21
-92.02735822
 31
0.0
  0
LINE
  5
460
100
AcDbEntity
  8
LAYER0004
  6
CONTINUOUS
 62
       7
100
AcDbLine
 10
13.96765989
 20
-92.02735822
 30
0.0
 11
13.98651695
 21
-92.05510065
 31
0.0
  0
LINE
  5
461
100
AcDbEntity
  8
LAYER0004
  6
CONTINUOUS
 62
       7
100
AcDbLine
 10
13.98651695
 20
-92.05510065
 30
0.0
 11
14.00493465
 21
-92.0843614
 31
0.0
  0
LINE
  5
462
100
AcDbEntity
  8
LAYER0004
  6
CONTINUOUS
 62
       7
100
AcDbLine
 10
14.00493465
 20
-92.0843614
 30
0.0
 11
14.022866
 21
-92.11513212
 31
0.0
  0
LINE
  5
463
100
AcDbEntity
  8
LAYER0004
  6
CONTINUOUS
 62
       7
100
AcDbLine
 10
14.022866
 20
-92.11513212
 30
0.0
 11
14.04025216
 21
-92.14742979
 31
0.0
  0
LINE
  5
464
100
AcDbEntity
  8
LAYER0004
  6
CONTINUOUS
 62
       7
100
AcDbLine
 10
14.04025216
 20
-92.14742979
 30
0.0
 11
14.05702902
 21
-92.18128253
 31
0.0
  0
LINE
  5
465
100
AcDbEntity
  8
LAYER0004
  6
CONTINUOUS
 62
       7
100
AcDbLine
 10
14.05702902
 20
-92.18128253
 30
0.0
 11
14.07313246
 21
-92.21671849
 31
0.0
  0
LINE
  5
466
100
AcDbEntity
  8
LAYER0004
  6
CONTINUOUS
 62
       7
100
AcDbLine
 10
14.07313246
 20
-92.21671849
 30
0.0
 11
14.08849838
 21
-92.25376581
 31
0.0
  0
LINE
  5
467
100
AcDbEntity
  8
LAYER0004
  6
CONTINUOUS
 62
       7
100
AcDbLine
 10
14.08849838
 20
-92.25376581
 30
0.0
 11
14.10306266
 21
-92.29245266
 31
0.0
  0
LINE
  5
468
100
AcDbEntity
  8
LAYER0004
  6
CONTINUOUS
 62
       7
100
AcDbLine
 10
14.10306266
 20
-92.29245266
 30
0.0
 11
14.11676118
 21
-92.33280718
 31
0.0
  0
LINE
  5
469
100
AcDbEntity
  8
LAYER0004
  6
CONTINUOUS
 62
       7
100
AcDbLine
 10
14.11676118
 20
-92.33280718
 30
0.0
 11
14.12950219
 21
-92.37482402
 31
0.0
  0
LINE
  5
46A
100
AcDbEntity
  8
LAYER0004
  6
CONTINUOUS
 62
       7
100
AcDbLine
 10
14.12950219
 20
-92.37482402
 30
0.0
 11
14.14110388
 21
-92.41838867
 31
0.0
  0
LINE
  5
46B
100
AcDbEntity
  8
LAYER0004
  6
CONTINUOUS
 62
       7
100
AcDbLine
 10
14.14110388
 20
-92.41838867
 30
0.0
 11
14.15136608
 21
-92.46336435
 31
0.0
  0
LINE
  5
46C
100
AcDbEntity
  8
LAYER0004
  6
CONTINUOUS
 62
       7
100
AcDbLine
 10
14.15136608
 20
-92.46336435
 30
0.0
 11
14.16008864
 21
-92.50961432
 31
0.0
  0
LINE
  5
46D
100
AcDbEntity
  8
LAYER0004
  6
CONTINUOUS
 62
       7
100
AcDbLine
 10
14.16008864
 20
-92.50961432
 30
0.0
 11
14.16707138
 21
-92.55700182
 31
0.0
  0
LINE
  5
46E
100
AcDbEntity
  8
LAYER0004
  6
CONTINUOUS
 62
       7
100
AcDbLine
 10
14.16707138
 20
-92.55700182
 30
0.0
 11
14.17219117
 21
-92.60537734
 31
0.0
  0
LINE
  5
46F
100
AcDbEntity
  8
LAYER0004
  6
CONTINUOUS
 62
       7
100
AcDbLine
 10
14.17219117
 20
-92.60537734
 30
0.0
 11
14.17578566
 21
-92.65451507
 31
0.0
  0
LINE
  5
470
100
AcDbEntity
  8
LAYER0004
  6
CONTINUOUS
 62
       7
100
AcDbLine
 10
14.17578566
 20
-92.65451507
 30
0.0
 11
14.1783631
 21
-92.70416098
 31
0.0
  0
LINE
  5
471
100
AcDbEntity
  8
LAYER0004
  6
CONTINUOUS
 62
       7
100
AcDbLine
 10
14.1783631
 20
-92.70416098
 30
0.0
 11
14.18043201
 21
-92.75406098
 31
0.0
  0
LINE
  5
472
100
AcDbEntity
  8
LAYER0004
  6
CONTINUOUS
 62
       7
100
AcDbLine
 10
14.18043201
 20
-99.25406205
 30
0.0
 11
14.17769546
 21
-99.30408711
 31
0.0
  0
LINE
  5
473
100
AcDbEntity
  8
LAYER0004
  6
CONTINUOUS
 62
       7
100
AcDbLine
 10
14.17769546
 20
-99.30408711
 30
0.0
 11
14.17459003
 21
-99.35386244
 31
0.0
  0
LINE
  5
474
100
AcDbEntity
  8
LAYER0004
  6
CONTINUOUS
 62
       7
100
AcDbLine
 10
14.17459003
 20
-99.35386244
 30
0.0
 11
14.1707468
 21
-99.40313835
 31
0.0
  0
LINE
  5
475
100
AcDbEntity
  8
LAYER0004
  6
CONTINUOUS
 62
       7
100
AcDbLine
 10
14.1707468
 20
-99.40313835
 30
0.0
 11
14.16579688
 21
-99.4516651
 31
0.0
  0
LINE
  5
476
100
AcDbEntity
  8
LAYER0004
  6
CONTINUOUS
 62
       7
100
AcDbLine
 10
14.16579688
 20
-99.4516651
 30
0.0
 11
14.15937137
 21
-99.49919298
 31
0.0
  0
LINE
  5
477
100
AcDbEntity
  8
LAYER0004
  6
CONTINUOUS
 62
       7
100
AcDbLine
 10
14.15937137
 20
-99.49919298
 30
0.0
 11
14.15115238
 21
-99.54548707
 31
0.0
  0
LINE
  5
478
100
AcDbEntity
  8
LAYER0004
  6
CONTINUOUS
 62
       7
100
AcDbLine
 10
14.15115238
 20
-99.54548707
 30
0.0
 11
14.14119392
 21
-99.59042025
 31
0.0
  0
LINE
  5
479
100
AcDbEntity
  8
LAYER0004
  6
CONTINUOUS
 62
       7
100
AcDbLine
 10
14.14119392
 20
-99.59042025
 30
0.0
 11
14.12971472
 21
-99.6339132
 31
0.0
  0
LINE
  5
47A
100
AcDbEntity
  8
LAYER0004
  6
CONTINUOUS
 62
       7
100
AcDbLine
 10
14.12971472
 20
-99.6339132
 30
0.0
 11
14.11693424
 21
-99.6758868
 31
0.0
  0
LINE
  5
47B
100
AcDbEntity
  8
LAYER0004
  6
CONTINUOUS
 62
       7
100
AcDbLine
 10
14.11693424
 20
-99.6758868
 30
0.0
 11
14.10307197
 21
-99.71626191
 31
0.0
  0
LINE
  5
47C
100
AcDbEntity
  8
LAYER0004
  6
CONTINUOUS
 62
       7
100
AcDbLine
 10
14.10307197
 20
-99.71626191
 30
0.0
 11
14.0883403
 21
-99.7549643
 31
0.0
  0
LINE
  5
47D
100
AcDbEntity
  8
LAYER0004
  6
CONTINUOUS
 62
       7
100
AcDbLine
 10
14.0883403
 20
-99.7549643
 30
0.0
 11
14.07285902
 21
-99.79198371
 31
0.0
  0
LINE
  5
47E
100
AcDbEntity
  8
LAYER0004
  6
CONTINUOUS
 62
       7
100
AcDbLine
 10
14.07285902
 20
-99.79198371
 30
0.0
 11
14.05668286
 21
-99.82735483
 31
0.0
  0
LINE
  5
47F
100
AcDbEntity
  8
LAYER0004
  6
CONTINUOUS
 62
       7
100
AcDbLine
 10
14.05668286
 20
-99.82735483
 30
0.0
 11
14.03986522
 21
-99.86111324
 31
0.0
  0
LINE
  5
480
100
AcDbEntity
  8
LAYER0004
  6
CONTINUOUS
 62
       7
100
AcDbLine
 10
14.03986522
 20
-99.86111324
 30
0.0
 11
14.02245949
 21
-99.89329457
 31
0.0
  0
LINE
  5
481
100
AcDbEntity
  8
LAYER0004
  6
CONTINUOUS
 62
       7
100
AcDbLine
 10
14.02245949
 20
-99.89329457
 30
0.0
 11
14.00451906
 21
-99.92393441
 31
0.0
  0
LINE
  5
482
100
AcDbEntity
  8
LAYER0004
  6
CONTINUOUS
 62
       7
100
AcDbLine
 10
14.00451906
 20
-99.92393441
 30
0.0
 11
13.98609731
 21
-99.95306839
 31
0.0
  0
LINE
  5
483
100
AcDbEntity
  8
LAYER0004
  6
CONTINUOUS
 62
       7
100
AcDbLine
 10
13.98609731
 20
-99.95306839
 30
0.0
 11
13.9672476
 21
-99.98073205
 31
0.0
  0
LINE
  5
484
100
AcDbEntity
  8
LAYER0004
  6
CONTINUOUS
 62
       7
100
AcDbLine
 10
13.9672476
 20
-99.98073205
 30
0.0
 11
13.94801776
 21
-100.00695031
 31
0.0
  0
LINE
  5
485
100
AcDbEntity
  8
LAYER0004
  6
CONTINUOUS
 62
       7
100
AcDbLine
 10
13.94801776
 20
-100.00695031
 30
0.0
 11
13.92844368
 21
-100.03172515
 31
0.0
  0
LINE
  5
486
100
AcDbEntity
  8
LAYER0004
  6
CONTINUOUS
 62
       7
100
AcDbLine
 10
13.92844368
 20
-100.03172515
 30
0.0
 11
13.90855967
 21
-100.05505555
 31
0.0
  0
LINE
  5
487
100
AcDbEntity
  8
LAYER0004
  6
CONTINUOUS
 62
       7
100
AcDbLine
 10
13.90855967
 20
-100.05505555
 30
0.0
 11
13.88840005
 21
-100.07694047
 31
0.0
  0
LINE
  5
488
100
AcDbEntity
  8
LAYER0004
  6
CONTINUOUS
 62
       7
100
AcDbLine
 10
13.88840005
 20
-100.07694047
 30
0.0
 11
13.86799914
 21
-100.09737889
 31
0.0
  0
LINE
  5
489
100
AcDbEntity
  8
LAYER0004
  6
CONTINUOUS
 62
       7
100
AcDbLine
 10
13.86799914
 20
-100.09737889
 30
0.0
 11
13.84739126
 21
-100.1163698
 31
0.0
  0
LINE
  5
48A
100
AcDbEntity
  8
LAYER0004
  6
CONTINUOUS
 62
       7
100
AcDbLine
 10
13.84739126
 20
-100.1163698
 30
0.0
 11
13.82661074
 21
-100.13391215
 31
0.0
  0
LINE
  5
48B
100
AcDbEntity
  8
LAYER0004
  6
CONTINUOUS
 62
       7
100
AcDbLine
 10
13.82661074
 20
-100.13391215
 30
0.0
 11
13.80569188
 21
-100.15000494
 31
0.0
  0
LINE
  5
48C
100
AcDbEntity
  8
LAYER0004
  6
CONTINUOUS
 62
       7
100
AcDbLine
 10
13.80569188
 20
-100.15000494
 30
0.0
 11
13.78466901
 21
-100.16464712
 31
0.0
  0
LINE
  5
48D
100
AcDbEntity
  8
LAYER0004
  6
CONTINUOUS
 62
       7
100
AcDbLine
 10
13.78466901
 20
-100.16464712
 30
0.0
 11
13.76357646
 21
-100.17783769
 31
0.0
  0
LINE
  5
48E
100
AcDbEntity
  8
LAYER0004
  6
CONTINUOUS
 62
       7
100
AcDbLine
 10
13.76357646
 20
-100.17783769
 30
0.0
 11
13.74244826
 21
-100.18957665
 31
0.0
  0
LINE
  5
48F
100
AcDbEntity
  8
LAYER0004
  6
CONTINUOUS
 62
       7
100
AcDbLine
 10
13.74244826
 20
-100.18957665
 30
0.0
 11
13.72130551
 21
-100.19991451
 31
0.0
  0
LINE
  5
490
100
AcDbEntity
  8
LAYER0004
  6
CONTINUOUS
 62
       7
100
AcDbLine
 10
13.72130551
 20
-100.19991451
 30
0.0
 11
13.7001508
 21
-100.20897365
 31
0.0
  0
LINE
  5
491
100
AcDbEntity
  8
LAYER0004
  6
CONTINUOUS
 62
       7
100
AcDbLine
 10
13.7001508
 20
-100.20897365
 30
0.0
 11
13.67898534
 21
-100.21688193
 31
0.0
  0
LINE
  5
492
100
AcDbEntity
  8
LAYER0004
  6
CONTINUOUS
 62
       7
100
AcDbLine
 10
13.67898534
 20
-100.21688193
 30
0.0
 11
13.65781032
 21
-100.22376724
 31
0.0
  0
LINE
  5
493
100
AcDbEntity
  8
LAYER0004
  6
CONTINUOUS
 62
       7
100
AcDbLine
 10
13.65781032
 20
-100.22376724
 30
0.0
 11
13.63662693
 21
-100.22975743
 31
0.0
  0
LINE
  5
494
100
AcDbEntity
  8
LAYER0004
  6
CONTINUOUS
 62
       7
100
AcDbLine
 10
13.63662693
 20
-100.22975743
 30
0.0
 11
13.61543636
 21
-100.2349804
 31
0.0
  0
LINE
  5
495
100
AcDbEntity
  8
LAYER0004
  6
CONTINUOUS
 62
       7
100
AcDbLine
 10
13.61543636
 20
-100.2349804
 30
0.0
 11
13.59423983
 21
-100.23956399
 31
0.0
  0
LINE
  5
496
100
AcDbEntity
  8
LAYER0004
  6
CONTINUOUS
 62
       7
100
AcDbLine
 10
13.59423983
 20
-100.23956399
 30
0.0
 11
13.57303851
 21
-100.2436361
 31
0.0
  0
LINE
  5
497
100
AcDbEntity
  8
LAYER0004
  6
CONTINUOUS
 62
       7
100
AcDbLine
 10
13.57303851
 20
-100.2436361
 30
0.0
 11
13.5518336
 21
-100.24732459
 31
0.0
  0
LINE
  5
498
100
AcDbEntity
  8
LAYER0004
  6
CONTINUOUS
 62
       7
100
AcDbLine
 10
13.5518336
 20
-100.24732459
 30
0.0
 11
13.53062631
 21
-100.25075734
 31
0.0
  0
LINE
  5
499
100
AcDbEntity
  8
LAYER0004
  6
CONTINUOUS
 62
       7
100
AcDbLine
 10
13.53062631
 20
-100.25075734
 30
0.0
 11
13.50941782
 21
-100.25406221
 31
0.0
  0
LINE
  5
49A
100
AcDbEntity
  8
LAYER0004
  6
CONTINUOUS
 62
       7
100
AcDbLine
 10
-174.0283576
 20
-198.83602021
 30
0.0
 11
-174.0228325
 21
-198.83201459
 31
0.0
  0
LINE
  5
49B
100
AcDbEntity
  8
LAYER0004
  6
CONTINUOUS
 62
       7
100
AcDbLine
 10
-174.0228325
 20
-198.83201459
 30
0.0
 11
-174.01699383
 21
-198.82778529
 31
0.0
  0
LINE
  5
49C
100
AcDbEntity
  8
LAYER0004
  6
CONTINUOUS
 62
       7
100
AcDbLine
 10
-174.01699383
 20
-198.82778529
 30
0.0
 11
-174.01052803
 21
-198.82310862
 31
0.0
  0
LINE
  5
49D
100
AcDbEntity
  8
LAYER0004
  6
CONTINUOUS
 62
       7
100
AcDbLine
 10
-174.01052803
 20
-198.82310862
 30
0.0
 11
-174.00312152
 21
-198.81776091
 31
0.0
  0
LINE
  5
49E
100
AcDbEntity
  8
LAYER0004
  6
CONTINUOUS
 62
       7
100
AcDbLine
 10
-174.00312152
 20
-198.81776091
 30
0.0
 11
-173.99446075
 21
-198.81151848
 31
0.0
  0
LINE
  5
49F
100
AcDbEntity
  8
LAYER0004
  6
CONTINUOUS
 62
       7
100
AcDbLine
 10
-173.99446075
 20
-198.81151848
 30
0.0
 11
-173.98423214
 21
-198.80415763
 31
0.0
  0
LINE
  5
4A0
100
AcDbEntity
  8
LAYER0004
  6
CONTINUOUS
 62
       7
100
AcDbLine
 10
-173.98423214
 20
-198.80415763
 30
0.0
 11
-173.97212213
 21
-198.7954547
 31
0.0
  0
LINE
  5
4A1
100
AcDbEntity
  8
LAYER0004
  6
CONTINUOUS
 62
       7
100
AcDbLine
 10
-173.97212213
 20
-198.7954547
 30
0.0
 11
-173.95781715
 21
-198.785186
 31
0.0
  0
LINE
  5
4A2
100
AcDbEntity
  8
LAYER0004
  6
CONTINUOUS
 62
       7
100
AcDbLine
 10
-173.95781715
 20
-198.785186
 30
0.0
 11
-173.94100888
 21
-198.77313172
 31
0.0
  0
LINE
  5
4A3
100
AcDbEntity
  8
LAYER0004
  6
CONTINUOUS
 62
       7
100
AcDbLine
 10
-173.94100888
 20
-198.77313172
 30
0.0
 11
-173.92157535
 21
-198.75920979
 31
0.0
  0
LINE
  5
4A4
100
AcDbEntity
  8
LAYER0004
  6
CONTINUOUS
 62
       7
100
AcDbLine
 10
-173.92157535
 20
-198.75920979
 30
0.0
 11
-173.899627
 21
-198.74350991
 31
0.0
  0
LINE
  5
4A5
100
AcDbEntity
  8
LAYER0004
  6
CONTINUOUS
 62
       7
100
AcDbLine
 10
-173.899627
 20
-198.74350991
 30
0.0
 11
-173.87528891
 21
-198.72613258
 31
0.0
  0
LINE
  5
4A6
100
AcDbEntity
  8
LAYER0004
  6
CONTINUOUS
 62
       7
100
AcDbLine
 10
-173.87528891
 20
-198.72613258
 30
0.0
 11
-173.84868612
 21
-198.7071783
 31
0.0
  0
LINE
  5
4A7
100
AcDbEntity
  8
LAYER0004
  6
CONTINUOUS
 62
       7
100
AcDbLine
 10
-173.84868612
 20
-198.7071783
 30
0.0
 11
-173.8199437
 21
-198.68674756
 31
0.0
  0
LINE
  5
4A8
100
AcDbEntity
  8
LAYER0004
  6
CONTINUOUS
 62
       7
100
AcDbLine
 10
-173.8199437
 20
-198.68674756
 30
0.0
 11
-173.78918669
 21
-198.66494087
 31
0.0
  0
LINE
  5
4A9
100
AcDbEntity
  8
LAYER0004
  6
CONTINUOUS
 62
       7
100
AcDbLine
 10
-173.78918669
 20
-198.66494087
 30
0.0
 11
-173.75654015
 21
-198.64185871
 31
0.0
  0
LINE
  5
4AA
100
AcDbEntity
  8
LAYER0004
  6
CONTINUOUS
 62
       7
100
AcDbLine
 10
-173.75654015
 20
-198.64185871
 30
0.0
 11
-173.72212915
 21
-198.61760158
 31
0.0
  0
LINE
  5
4AB
100
AcDbEntity
  8
LAYER0004
  6
CONTINUOUS
 62
       7
100
AcDbLine
 10
-173.72212915
 20
-198.61760158
 30
0.0
 11
-173.68607022
 21
-198.59226365
 31
0.0
  0
LINE
  5
4AC
100
AcDbEntity
  8
LAYER0004
  6
CONTINUOUS
 62
       7
100
AcDbLine
 10
-173.68607022
 20
-198.59226365
 30
0.0
 11
-173.64842292
 21
-198.56589665
 31
0.0
  0
LINE
  5
4AD
100
AcDbEntity
  8
LAYER0004
  6
CONTINUOUS
 62
       7
100
AcDbLine
 10
-173.64842292
 20
-198.56589665
 30
0.0
 11
-173.6092234
 21
-198.53853488
 31
0.0
  0
LINE
  5
4AE
100
AcDbEntity
  8
LAYER0004
  6
CONTINUOUS
 62
       7
100
AcDbLine
 10
-173.6092234
 20
-198.53853488
 30
0.0
 11
-173.56850773
 21
-198.51021258
 31
0.0
  0
LINE
  5
4AF
100
AcDbEntity
  8
LAYER0004
  6
CONTINUOUS
 62
       7
100
AcDbLine
 10
-173.56850773
 20
-198.51021258
 30
0.0
 11
-173.52631197
 21
-198.48096401
 31
0.0
  0
LINE
  5
4B0
100
AcDbEntity
  8
LAYER0004
  6
CONTINUOUS
 62
       7
100
AcDbLine
 10
-173.52631197
 20
-198.48096401
 30
0.0
 11
-173.4826722
 21
-198.45082341
 31
0.0
  0
LINE
  5
4B1
100
AcDbEntity
  8
LAYER0004
  6
CONTINUOUS
 62
       7
100
AcDbLine
 10
-173.4826722
 20
-198.45082341
 30
0.0
 11
-173.43762448
 21
-198.41982502
 31
0.0
  0
LINE
  5
4B2
100
AcDbEntity
  8
LAYER0004
  6
CONTINUOUS
 62
       7
100
AcDbLine
 10
-173.43762448
 20
-198.41982502
 30
0.0
 11
-173.39120489
 21
-198.3880031
 31
0.0
  0
LINE
  5
4B3
100
AcDbEntity
  8
LAYER0004
  6
CONTINUOUS
 62
       7
100
AcDbLine
 10
-173.39120489
 20
-198.3880031
 30
0.0
 11
-173.34344962
 21
-198.35539199
 31
0.0
  0
LINE
  5
4B4
100
AcDbEntity
  8
LAYER0004
  6
CONTINUOUS
 62
       7
100
AcDbLine
 10
-173.34344962
 20
-198.35539199
 30
0.0
 11
-173.29441113
 21
-198.32203816
 31
0.0
  0
LINE
  5
4B5
100
AcDbEntity
  8
LAYER0004
  6
CONTINUOUS
 62
       7
100
AcDbLine
 10
-173.29441113
 20
-198.32203816
 30
0.0
 11
-173.24417364
 21
-198.28801183
 31
0.0
  0
LINE
  5
4B6
100
AcDbEntity
  8
LAYER0004
  6
CONTINUOUS
 62
       7
100
AcDbLine
 10
-173.24417364
 20
-198.28801183
 30
0.0
 11
-173.19282507
 21
-198.25338595
 31
0.0
  0
LINE
  5
4B7
100
AcDbEntity
  8
LAYER0004
  6
CONTINUOUS
 62
       7
100
AcDbLine
 10
-173.19282507
 20
-198.25338595
 30
0.0
 11
-173.14045333
 21
-198.21823348
 31
0.0
  0
LINE
  5
4B8
100
AcDbEntity
  8
LAYER0004
  6
CONTINUOUS
 62
       7
100
AcDbLine
 10
-173.14045333
 20
-198.21823348
 30
0.0
 11
-173.08714633
 21
-198.18262736
 31
0.0
  0
LINE
  5
4B9
100
AcDbEntity
  8
LAYER0004
  6
CONTINUOUS
 62
       7
100
AcDbLine
 10
-173.08714633
 20
-198.18262736
 30
0.0
 11
-173.03299198
 21
-198.14664057
 31
0.0
  0
LINE
  5
4BA
100
AcDbEntity
  8
LAYER0004
  6
CONTINUOUS
 62
       7
100
AcDbLine
 10
-173.03299198
 20
-198.14664057
 30
0.0
 11
-172.97807818
 21
-198.11034604
 31
0.0
  0
LINE
  5
4BB
100
AcDbEntity
  8
LAYER0004
  6
CONTINUOUS
 62
       7
100
AcDbLine
 10
-172.97807818
 20
-198.11034604
 30
0.0
 11
-172.92249286
 21
-198.07381674
 31
0.0
  0
LINE
  5
4BC
100
AcDbEntity
  8
LAYER0004
  6
CONTINUOUS
 62
       7
100
AcDbLine
 10
-172.92249286
 20
-198.07381674
 30
0.0
 11
-172.86632441
 21
-198.0371232
 31
0.0
  0
LINE
  5
4BD
100
AcDbEntity
  8
LAYER0004
  6
CONTINUOUS
 62
       7
100
AcDbLine
 10
-172.86632441
 20
-198.0371232
 30
0.0
 11
-172.80966693
 21
-198.00030792
 31
0.0
  0
LINE
  5
4BE
100
AcDbEntity
  8
LAYER0004
  6
CONTINUOUS
 62
       7
100
AcDbLine
 10
-172.80966693
 20
-198.00030792
 30
0.0
 11
-172.7526182
 21
-197.9633955
 31
0.0
  0
LINE
  5
4BF
100
AcDbEntity
  8
LAYER0004
  6
CONTINUOUS
 62
       7
100
AcDbLine
 10
-172.7526182
 20
-197.9633955
 30
0.0
 11
-172.69527601
 21
-197.92641021
 31
0.0
  0
LINE
  5
4C0
100
AcDbEntity
  8
LAYER0004
  6
CONTINUOUS
 62
       7
100
AcDbLine
 10
-172.69527601
 20
-197.92641021
 30
0.0
 11
-172.6377382
 21
-197.88937634
 31
0.0
  0
LINE
  5
4C1
100
AcDbEntity
  8
LAYER0004
  6
CONTINUOUS
 62
       7
100
AcDbLine
 10
-172.6377382
 20
-197.88937634
 30
0.0
 11
-172.58010257
 21
-197.85231819
 31
0.0
  0
LINE
  5
4C2
100
AcDbEntity
  8
LAYER0004
  6
CONTINUOUS
 62
       7
100
AcDbLine
 10
10.7377236
 20
-46.79238668
 30
0.0
 11
13.70071147
 21
-36.79498157
 31
0.0
  0
LINE
  5
4C3
100
AcDbEntity
  8
LAYER0004
  6
CONTINUOUS
 62
       7
100
AcDbLine
 10
10.7377236
 20
29.28426245
 30
0.0
 11
13.70071147
 21
19.28684989
 31
0.0
  0
ARC
  5
4C4
100
AcDbEntity
  8
LAYER0004
  6
CONTINUOUS
 62
       7
100
AcDbCircle
 10
-107.15513508
 20
-24.75406142
 30
0.0
 40
6.49999786
100
AcDbArc
 50
270.00000062
 51
360.00000793
  0
ARC
  5
4C5
100
AcDbEntity
  8
LAYER0004
  6
CONTINUOUS
 62
       7
100
AcDbCircle
 10
86.84486492
 20
-8.3986273
 30
0.0
 40
200.0
100
AcDbArc
 50
177.28207406
 51
180.0
  0
ARC
  5
4C6
100
AcDbEntity
  8
LAYER0004
  6
CONTINUOUS
 62
       7
100
AcDbCircle
 10
-301.15513508
 20
-8.3986273
 30
0.0
 40
200.0
100
AcDbArc
 50
0.0
 51
2.71792594
  0
ARC
  5
4C7
100
AcDbEntity
  8
LAYER0004
  6
CONTINUOUS
 62
       7
100
AcDbCircle
 10
-107.15513501
 20
48.84199647
 30
0.0
 40
3.5039415
100
AcDbArc
 50
2.71800617
 51
177.28199383
  0
ARC
  5
4C8
100
AcDbEntity
  8
LAYER0004
  6
CONTINUOUS
 62
       7
100
AcDbCircle
 10
-156.45513508
 20
15.24593809
 30
0.0
 40
12.74999976
100
AcDbArc
 50
0.0
 51
180.0
  0
ARC
  5
4C9
100
AcDbEntity
  8
LAYER0004
  6
CONTINUOUS
 62
       7
100
AcDbCircle
 10
-156.45513508
 20
-32.75406191
 30
0.0
 40
12.74999976
100
AcDbArc
 50
180.00000184
 51
359.99999816
  0
ARC
  5
4CA
100
AcDbEntity
  8
LAYER0004
  6
CONTINUOUS
 62
       7
100
AcDbCircle
 10
234.73772293
 20
-8.3986273
 30
0.0
 40
200.0
100
AcDbArc
 50
177.28207406
 51
180.0
  0
ARC
  5
4CB
100
AcDbEntity
  8
LAYER0004
  6
CONTINUOUS
 62
       7
100
AcDbCircle
 10
-153.26227707
 20
-8.3986273
 30
0.0
 40
200.0
100
AcDbArc
 50
0.0
 51
2.71792594
  0
ARC
  5
4CC
100
AcDbEntity
  8
LAYER0004
  6
CONTINUOUS
 62
       7
100
AcDbCircle
 10
40.73772293
 20
48.84199647
 30
0.0
 40
3.50394197
100
AcDbArc
 50
2.71800581
 51
177.28199419
  0
ARC
  5
4CD
100
AcDbEntity
  8
LAYER0004
  6
CONTINUOUS
 62
       7
100
AcDbCircle
 10
10.98772283
 20
27.49593816
 30
0.0
 40
0.49999988
100
AcDbArc
 50
90.00007792
 51
143.1301019
  0
ARC
  5
4CE
100
AcDbEntity
  8
LAYER0004
  6
CONTINUOUS
 62
       7
100
AcDbCircle
 10
10.987723
 20
-45.00406185
 30
0.0
 40
0.50000009
100
AcDbArc
 50
216.86989833
 51
269.99992208
  0
ARC
  5
4CF
100
AcDbEntity
  8
LAYER0004
  6
CONTINUOUS
 62
       7
100
AcDbCircle
 10
9.7377237
 20
-43.33739466
 30
0.0
 40
0.49999904
100
AcDbArc
 50
180.0
 51
216.86983118
  0
ARC
  5
4D0
100
AcDbEntity
  8
LAYER0004
  6
CONTINUOUS
 62
       7
100
AcDbCircle
 10
9.7377238
 20
25.82927078
 30
0.0
 40
0.49999891
100
AcDbArc
 50
143.13020778
 51
180.0
  0
ARC
  5
4D1
100
AcDbEntity
  8
LAYER0004
  6
CONTINUOUS
 62
       7
100
AcDbCircle
 10
40.73772294
 20
-24.75406191
 30
0.0
 40
6.50000014
100
AcDbArc
 50
179.99999207
 51
360.00000793
  0
CIRCLE
  5
4D2
100
AcDbEntity
  8
LAYER0004
  6
CONTINUOUS
 62
       7
100
AcDbCircle
 10
-156.45513508
 20
-223.15025238
 30
0.0
 40
15.5
  0
CIRCLE
  5
4D3
100
AcDbEntity
  8
LAYER0004
  6
CONTINUOUS
 62
       7
100
AcDbCircle
 10
-156.45513508
 20
-223.15025238
 30
0.0
 40
30.0
  0
ARC
  5
4D4
100
AcDbEntity
  8
LAYER0004
  6
CONTINUOUS
 62
       7
100
AcDbCircle
 10
-168.70513496
 20
-193.40025238
 30
0.0
 40
0.49999988
100
AcDbArc
 50
126.86989742
 51
179.99992208
  0
ARC
  5
4D5
100
AcDbEntity
  8
LAYER0004
  6
CONTINUOUS
 62
       7
100
AcDbCircle
 10
-144.20513388
 20
-193.40025239
 30
0.0
 40
0.49999989
100
AcDbArc
 50
0.00007792
 51
53.13010258
  0
ARC
  5
4D6
100
AcDbEntity
  8
LAYER0004
  6
CONTINUOUS
 62
       7
100
AcDbCircle
 10
-145.87180109
 20
-192.1502531
 30
0.0
 40
0.49999972
100
AcDbArc
 50
53.13003566
 51
89.99996104
  0
ARC
  5
4D7
100
AcDbEntity
  8
LAYER0004
  6
CONTINUOUS
 62
       7
100
AcDbCircle
 10
-167.03846776
 20
-192.1502531
 30
0.0
 40
0.49999972
100
AcDbArc
 50
90.00003782
 51
126.86996273
  0
CIRCLE
  5
4D8
100
AcDbEntity
  8
LAYER0004
  6
CONTINUOUS
 62
       7
100
AcDbCircle
 10
-137.8355889
 20
-212.40025238
 30
0.0
 40
2.0
  0
CIRCLE
  5
4D9
100
AcDbEntity
  8
LAYER0004
  6
CONTINUOUS
 62
       7
100
AcDbCircle
 10
-175.07468126
 20
-212.40025238
 30
0.0
 40
2.0
  0
CIRCLE
  5
4DA
100
AcDbEntity
  8
LAYER0004
  6
CONTINUOUS
 62
       7
100
AcDbCircle
 10
-156.45513508
 20
-244.65025238
 30
0.0
 40
2.0
  0
ARC
  5
4DB
100
AcDbEntity
  8
LAYER0004
  6
CONTINUOUS
 62
       7
100
AcDbCircle
 10
-137.45513495
 20
240.0295639
 30
0.0
 40
1.0
100
AcDbArc
 50
0.0
 51
82.6738801
  0
ARC
  5
4DC
100
AcDbEntity
  8
LAYER0004
  6
CONTINUOUS
 62
       7
100
AcDbCircle
 10
-175.45513495
 20
240.0295639
 30
0.0
 40
1.0
100
AcDbArc
 50
97.3261199
 51
180.0
  0
LINE
  5
4DD
100
AcDbEntity
  8
LAYER0004
  6
CENTERX2
 62
       7
100
AcDbLine
 10
-156.45513495
 20
-128.91048512
 30
0.0
 11
-156.45513495
 21
256.32932592
 31
0.0
  0
LINE
  5
4DE
100
AcDbEntity
  8
LAYER0004
  6
CENTERX2
 62
       7
100
AcDbLine
 10
-175.07468126
 20
-125.25406191
 30
0.0
 11
-175.07468126
 21
-105.45334385
 31
0.0
  0
LINE
  5
4DF
100
AcDbEntity
  8
LAYER0004
  6
CENTERX2
 62
       7
100
AcDbLine
 10
-137.8355889
 20
-125.25406191
 30
0.0
 11
-137.8355889
 21
-104.76997916
 31
0.0
  0
LINE
  5
4E0
100
AcDbEntity
  8
LAYER0004
  6
CENTERX2
 62
       7
100
AcDbLine
 10
29.98772293
 20
-125.25406191
 30
0.0
 11
29.98772293
 21
-105.16858884
 31
0.0
  0
LINE
  5
4E1
100
AcDbEntity
  8
LAYER0004
  6
CENTERX2
 62
       7
100
AcDbLine
 10
62.23772293
 20
-125.25406191
 30
0.0
 11
62.23772293
 21
-104.61104177
 31
0.0
  0
LINE
  5
4E2
100
AcDbEntity
  8
LAYER0004
  6
CENTERX2
 62
       7
100
AcDbLine
 10
-156.45513508
 20
-223.15025238
 30
0.0
 11
-137.8355889
 21
-212.40025238
 31
0.0
  0
LINE
  5
4E3
100
AcDbEntity
  8
LAYER0004
  6
CENTERX2
 62
       7
100
AcDbLine
 10
-156.45513508
 20
-223.15025238
 30
0.0
 11
-175.07468126
 21
-212.40025238
 31
0.0
  0
LINE
  5
4E4
100
AcDbEntity
  8
LAYER0004
  6
CENTERX2
 62
       7
100
AcDbLine
 10
-189.34377983
 20
-223.15025238
 30
0.0
 11
-122.59773524
 21
-223.15025238
 31
0.0
  0
LINE
  5
4E5
100
AcDbEntity
  8
LAYER0004
  6
CENTERX2
 62
       7
100
AcDbLine
 10
-156.45513508
 20
-190.01403176
 30
0.0
 11
-156.45513508
 21
-256.32932592
 31
0.0
  0
LINE
  5
4E6
100
AcDbEntity
  8
LAYER0004
  6
CENTERX2
 62
       7
100
AcDbLine
 10
-137.8355889
 20
-216.29332309
 30
0.0
 11
-137.8355889
 21
-208.30569654
 31
0.0
  0
LINE
  5
4E7
100
AcDbEntity
  8
LAYER0004
  6
CENTERX2
 62
       7
100
AcDbLine
 10
-141.65764936
 20
-212.40025238
 30
0.0
 11
-133.82977534
 21
-212.40025238
 31
0.0
  0
LINE
  5
4E8
100
AcDbEntity
  8
LAYER0004
  6
CENTERX2
 62
       7
100
AcDbLine
 10
-175.07468126
 20
-216.61282815
 30
0.0
 11
-175.07468126
 21
-208.62520161
 31
0.0
  0
LINE
  5
4E9
100
AcDbEntity
  8
LAYER0004
  6
CENTERX2
 62
       7
100
AcDbLine
 10
-171.05211504
 20
-212.40025238
 30
0.0
 11
-179.43912291
 21
-212.40025238
 31
0.0
  0
LINE
  5
4EA
100
AcDbEntity
  8
LAYER0004
  6
CENTERX2
 62
       7
100
AcDbLine
 10
-161.70659198
 20
-244.65025238
 30
0.0
 11
-152.60069772
 21
-244.65025238
 31
0.0
  0
LINE
  5
4EB
100
AcDbEntity
  8
LAYER0004
  6
CENTERX2
 62
       7
100
AcDbLine
 10
-47.87659483
 20
-24.75406101
 30
0.0
 11
123.33742065
 21
-24.75406101
 31
0.0
  0
LINE
  5
4EC
100
AcDbEntity
  8
LAYER0004
  6
CENTERX2
 62
       7
100
AcDbLine
 10
40.73772293
 20
256.32932592
 30
0.0
 11
40.73772293
 21
-117.93590053
 31
0.0
  0
CIRCLE
  5
4ED
100
AcDbEntity
  8
LAYER0004
  6
CENTERX2
 62
       7
100
AcDbCircle
 10
-156.45513508
 20
-223.15025238
 30
0.0
 40
21.5
  0
CIRCLE
  5
4EE
100
AcDbEntity
  8
LAYER0004
  6
PHANTOM
 62
       7
100
AcDbCircle
 10
40.73772294
 20
-24.75406191
 30
0.0
 40
77.09999999
  0
LINE
  5
4EF
100
AcDbEntity
  8
LAYER0002
  6
CONTINUOUS
 62
       7
100
AcDbLine
 10
-136.45513495
 20
70.24593809
 30
0.0
 11
-136.45513495
 21
240.0295639
 31
0.0
  0
LINE
  5
4F0
100
AcDbEntity
  8
LAYER0002
  6
CONTINUOUS
 62
       7
100
AcDbLine
 10
20.73772293
 20
70.24593809
 30
0.0
 11
20.73772293
 21
240.0295639
 31
0.0
  0
LINE
  5
4F1
100
AcDbEntity
  8
LAYER0002
  6
CONTINUOUS
 62
       7
100
AcDbLine
 10
40.73772368
 20
102.24593493
 30
0.0
 11
60.73772173
 21
102.24593493
 31
0.0
  0
LINE
  5
4F2
100
AcDbEntity
  8
LAYER0002
  6
CONTINUOUS
 62
       7
100
AcDbLine
 10
40.73772293
 20
103.5459427
 30
0.0
 11
60.73772248
 21
103.5459427
 31
0.0
  0
LINE
  5
4F3
100
AcDbEntity
  8
LAYER0002
  6
CONTINUOUS
 62
       7
100
AcDbLine
 10
40.73772293
 20
135.54593304
 30
0.0
 11
60.73772248
 21
135.54593304
 31
0.0
  0
LINE
  5
4F4
100
AcDbEntity
  8
LAYER0002
  6
CONTINUOUS
 62
       7
100
AcDbLine
 10
40.73772293
 20
198.24593643
 30
0.0
 11
60.73772248
 21
198.24593643
 31
0.0
  0
LINE
  5
4F5
100
AcDbEntity
  8
LAYER0002
  6
CONTINUOUS
 62
       7
100
AcDbLine
 10
40.73772293
 20
199.54594353
 30
0.0
 11
60.73772248
 21
199.54594353
 31
0.0
  0
LINE
  5
4F6
100
AcDbEntity
  8
LAYER0002
  6
CONTINUOUS
 62
       7
100
AcDbLine
 10
20.73772338
 20
71.54593745
 30
0.0
 11
40.73772293
 21
71.54593745
 31
0.0
  0
LINE
  5
4F7
100
AcDbEntity
  8
LAYER0002
  6
CONTINUOUS
 62
       7
100
AcDbLine
 10
20.73772263
 20
134.24594018
 30
0.0
 11
40.73772218
 21
134.24594018
 31
0.0
  0
LINE
  5
4F8
100
AcDbEntity
  8
LAYER0002
  6
CONTINUOUS
 62
       7
100
AcDbLine
 10
20.737723
 20
166.24593102
 30
0.0
 11
40.73772256
 21
166.24593102
 31
0.0
  0
LINE
  5
4F9
100
AcDbEntity
  8
LAYER0002
  6
CONTINUOUS
 62
       7
100
AcDbLine
 10
20.73772338
 20
198.24593643
 30
0.0
 11
40.73772293
 21
198.24593643
 31
0.0
  0
LINE
  5
4FA
100
AcDbEntity
  8
LAYER0002
  6
CONTINUOUS
 62
       7
100
AcDbLine
 10
20.73772338
 20
230.24594167
 30
0.0
 11
40.73772293
 21
230.24594167
 31
0.0
  0
LINE
  5
4FB
100
AcDbEntity
  8
LAYER0002
  6
CONTINUOUS
 62
       7
100
AcDbLine
 10
60.73772292
 20
70.24593809
 30
0.0
 11
60.73772292
 21
240.02956391
 31
0.0
  0
LINE
  5
4FC
100
AcDbEntity
  8
LAYER0002
  6
CONTINUOUS
 62
       7
100
AcDbLine
 10
60.73772248
 20
231.54594878
 30
0.0
 11
20.73772338
 21
231.54594878
 31
0.0
  0
LINE
  5
4FD
100
AcDbEntity
  8
LAYER0002
  6
CONTINUOUS
 62
       7
100
AcDbLine
 10
40.73772293
 20
71.54593745
 30
0.0
 11
60.73772248
 21
71.54593745
 31
0.0
  0
LINE
  5
4FE
100
AcDbEntity
  8
LAYER0002
  6
CONTINUOUS
 62
       7
100
AcDbLine
 10
40.73772218
 20
134.24594018
 30
0.0
 11
60.73772323
 21
134.24594018
 31
0.0
  0
LINE
  5
4FF
100
AcDbEntity
  8
LAYER0002
  6
CONTINUOUS
 62
       7
100
AcDbLine
 10
40.73772256
 20
166.24593102
 30
0.0
 11
60.73772211
 21
166.24593102
 31
0.0
  0
LINE
  5
500
100
AcDbEntity
  8
LAYER0002
  6
CONTINUOUS
 62
       7
100
AcDbLine
 10
40.73772293
 20
167.54593829
 30
0.0
 11
60.73772248
 21
167.54593829
 31
0.0
  0
LINE
  5
501
100
AcDbEntity
  8
LAYER0002
  6
CONTINUOUS
 62
       7
100
AcDbLine
 10
40.73772293
 20
230.24594167
 30
0.0
 11
60.73772248
 21
230.24594167
 31
0.0
  0
LINE
  5
502
100
AcDbEntity
  8
LAYER0002
  6
CONTINUOUS
 62
       7
100
AcDbLine
 10
60.73772292
 20
70.24593809
 30
0.0
 11
20.73772293
 21
70.24593809
 31
0.0
  0
LINE
  5
503
100
AcDbEntity
  8
LAYER0002
  6
CONTINUOUS
 62
       7
100
AcDbLine
 10
20.73772413
 20
102.24593493
 30
0.0
 11
40.73772368
 21
102.24593493
 31
0.0
  0
LINE
  5
504
100
AcDbEntity
  8
LAYER0002
  6
CONTINUOUS
 62
       7
100
AcDbLine
 10
20.73772338
 20
103.5459427
 30
0.0
 11
40.73772293
 21
103.5459427
 31
0.0
  0
LINE
  5
505
100
AcDbEntity
  8
LAYER0002
  6
CONTINUOUS
 62
       7
100
AcDbLine
 10
20.73772338
 20
135.54593304
 30
0.0
 11
40.73772293
 21
135.54593304
 31
0.0
  0
LINE
  5
506
100
AcDbEntity
  8
LAYER0002
  6
CONTINUOUS
 62
       7
100
AcDbLine
 10
20.73772338
 20
167.54593829
 30
0.0
 11
40.73772293
 21
167.54593829
 31
0.0
  0
LINE
  5
507
100
AcDbEntity
  8
LAYER0002
  6
CONTINUOUS
 62
       7
100
AcDbLine
 10
20.73772338
 20
199.54594353
 30
0.0
 11
40.73772293
 21
199.54594353
 31
0.0
  0
LINE
  5
508
100
AcDbEntity
  8
LAYER0002
  6
CONTINUOUS
 62
       7
100
AcDbLine
 10
-136.4551354
 20
231.54594878
 30
0.0
 11
-176.4551345
 21
231.54594878
 31
0.0
  0
LINE
  5
509
100
AcDbEntity
  8
LAYER0002
  6
CONTINUOUS
 62
       7
100
AcDbLine
 10
-156.45513495
 20
71.54593745
 30
0.0
 11
-136.4551354
 21
71.54593745
 31
0.0
  0
LINE
  5
50A
100
AcDbEntity
  8
LAYER0002
  6
CONTINUOUS
 62
       7
100
AcDbLine
 10
-156.4551342
 20
102.24593493
 30
0.0
 11
-136.45513614
 21
102.24593493
 31
0.0
  0
LINE
  5
50B
100
AcDbEntity
  8
LAYER0002
  6
CONTINUOUS
 62
       7
100
AcDbLine
 10
-156.4551357
 20
134.24594018
 30
0.0
 11
-136.45513465
 21
134.24594018
 31
0.0
  0
LINE
  5
50C
100
AcDbEntity
  8
LAYER0002
  6
CONTINUOUS
 62
       7
100
AcDbLine
 10
-156.45513495
 20
103.5459427
 30
0.0
 11
-136.4551354
 21
103.5459427
 31
0.0
  0
LINE
  5
50D
100
AcDbEntity
  8
LAYER0002
  6
CONTINUOUS
 62
       7
100
AcDbLine
 10
-156.45513532
 20
166.24593102
 30
0.0
 11
-136.45513577
 21
166.24593102
 31
0.0
  0
LINE
  5
50E
100
AcDbEntity
  8
LAYER0002
  6
CONTINUOUS
 62
       7
100
AcDbLine
 10
-156.45513495
 20
135.54593304
 30
0.0
 11
-136.4551354
 21
135.54593304
 31
0.0
  0
LINE
  5
50F
100
AcDbEntity
  8
LAYER0002
  6
CONTINUOUS
 62
       7
100
AcDbLine
 10
-156.45513495
 20
198.24593643
 30
0.0
 11
-136.4551354
 21
198.24593643
 31
0.0
  0
LINE
  5
510
100
AcDbEntity
  8
LAYER0002
  6
CONTINUOUS
 62
       7
100
AcDbLine
 10
-156.45513495
 20
167.54593829
 30
0.0
 11
-136.4551354
 21
167.54593829
 31
0.0
  0
LINE
  5
511
100
AcDbEntity
  8
LAYER0002
  6
CONTINUOUS
 62
       7
100
AcDbLine
 10
-156.45513495
 20
230.24594167
 30
0.0
 11
-136.4551354
 21
230.24594167
 31
0.0
  0
LINE
  5
512
100
AcDbEntity
  8
LAYER0002
  6
CONTINUOUS
 62
       7
100
AcDbLine
 10
-156.45513495
 20
199.54594353
 30
0.0
 11
-136.4551354
 21
199.54594353
 31
0.0
  0
LINE
  5
513
100
AcDbEntity
  8
LAYER0002
  6
CONTINUOUS
 62
       7
100
AcDbLine
 10
-136.45513495
 20
70.24593809
 30
0.0
 11
-176.45513495
 21
70.24593809
 31
0.0
  0
LINE
  5
514
100
AcDbEntity
  8
LAYER0002
  6
CONTINUOUS
 62
       7
100
AcDbLine
 10
-176.4551345
 20
71.54593745
 30
0.0
 11
-156.45513495
 21
71.54593745
 31
0.0
  0
LINE
  5
515
100
AcDbEntity
  8
LAYER0002
  6
CONTINUOUS
 62
       7
100
AcDbLine
 10
-176.45513375
 20
102.24593493
 30
0.0
 11
-156.4551342
 21
102.24593493
 31
0.0
  0
LINE
  5
516
100
AcDbEntity
  8
LAYER0002
  6
CONTINUOUS
 62
       7
100
AcDbLine
 10
-176.45513525
 20
134.24594018
 30
0.0
 11
-156.4551357
 21
134.24594018
 31
0.0
  0
LINE
  5
517
100
AcDbEntity
  8
LAYER0002
  6
CONTINUOUS
 62
       7
100
AcDbLine
 10
-176.4551345
 20
103.5459427
 30
0.0
 11
-156.45513495
 21
103.5459427
 31
0.0
  0
LINE
  5
518
100
AcDbEntity
  8
LAYER0002
  6
CONTINUOUS
 62
       7
100
AcDbLine
 10
-176.45513488
 20
166.24593102
 30
0.0
 11
-156.45513532
 21
166.24593102
 31
0.0
  0
LINE
  5
519
100
AcDbEntity
  8
LAYER0002
  6
CONTINUOUS
 62
       7
100
AcDbLine
 10
-176.4551345
 20
135.54593304
 30
0.0
 11
-156.45513495
 21
135.54593304
 31
0.0
  0
LINE
  5
51A
100
AcDbEntity
  8
LAYER0002
  6
CONTINUOUS
 62
       7
100
AcDbLine
 10
-176.4551345
 20
198.24593643
 30
0.0
 11
-156.45513495
 21
198.24593643
 31
0.0
  0
LINE
  5
51B
100
AcDbEntity
  8
LAYER0002
  6
CONTINUOUS
 62
       7
100
AcDbLine
 10
-176.4551345
 20
167.54593829
 30
0.0
 11
-156.45513495
 21
167.54593829
 31
0.0
  0
LINE
  5
51C
100
AcDbEntity
  8
LAYER0002
  6
CONTINUOUS
 62
       7
100
AcDbLine
 10
-176.4551345
 20
230.24594167
 30
0.0
 11
-156.45513495
 21
230.24594167
 31
0.0
  0
LINE
  5
51D
100
AcDbEntity
  8
LAYER0002
  6
CONTINUOUS
 62
       7
100
AcDbLine
 10
-176.4551345
 20
199.54594353
 30
0.0
 11
-156.45513495
 21
199.54594353
 31
0.0
  0
ARC
  5
51E
100
AcDbEntity
  8
LAYER0002
  6
CONTINUOUS
 62
       7
100
AcDbCircle
 10
-156.45513495
 20
92.24593831
 30
0.0
 40
149.99999997
100
AcDbArc
 50
82.6738801
 51
97.3261199
  0
ARC
  5
51F
100
AcDbEntity
  8
LAYER0002
  6
CONTINUOUS
 62
       7
100
AcDbCircle
 10
40.73772293
 20
-78.41474938
 30
0.0
 40
150.0
100
AcDbArc
 50
97.66225566
 51
101.223161
  0
ARC
  5
520
100
AcDbEntity
  8
LAYER0002
  6
CONTINUOUS
 62
       7
100
AcDbCircle
 10
40.73772293
 20
-78.41474938
 30
0.0
 40
150.0
100
AcDbArc
 50
78.776839
 51
82.33774434
  0
ARC
  5
521
100
AcDbEntity
  8
LAYER0002
  6
CONTINUOUS
 62
       7
100
AcDbCircle
 10
40.73772293
 20
92.24593831
 30
0.0
 40
149.99999997
100
AcDbArc
 50
82.6738801
 51
97.3261199
  0
ARC
  5
522
100
AcDbEntity
  8
LAYER0002
  6
CONTINUOUS
 62
       7
100
AcDbCircle
 10
69.73772293
 20
67.73585787
 30
0.0
 40
1.0
100
AcDbArc
 50
0.0
 51
78.77683938
  0
ARC
  5
523
100
AcDbEntity
  8
LAYER0002
  6
CONTINUOUS
 62
       7
100
AcDbCircle
 10
11.73772293
 20
67.73585787
 30
0.0
 40
1.0
100
AcDbArc
 50
101.22316062
 51
180.0
  0
ARC
  5
524
100
AcDbEntity
  8
LAYER0002
  6
CONTINUOUS
 62
       7
100
AcDbCircle
 10
-127.45513495
 20
67.73585787
 30
0.0
 40
1.0
100
AcDbArc
 50
0.0
 51
78.776839
  0
ARC
  5
525
100
AcDbEntity
  8
LAYER0002
  6
CONTINUOUS
 62
       7
100
AcDbCircle
 10
-156.45513495
 20
-78.41474938
 30
0.0
 40
150.0
100
AcDbArc
 50
97.66225566
 51
101.223161
  0
ARC
  5
526
100
AcDbEntity
  8
LAYER0002
  6
CONTINUOUS
 62
       7
100
AcDbCircle
 10
-185.45513495
 20
67.73585787
 30
0.0
 40
1.0
100
AcDbArc
 50
101.22316062
 51
180.0
  0
ARC
  5
527
100
AcDbEntity
  8
LAYER0002
  6
CONTINUOUS
 62
       7
100
AcDbCircle
 10
-156.45513495
 20
-78.41474938
 30
0.0
 40
150.0
100
AcDbArc
 50
78.776839
 51
82.33774434
  0
ARC
  5
528
100
AcDbEntity
  8
LAYER0002
  6
CONTINUOUS
 62
       7
100
AcDbCircle
 10
59.73772293
 20
240.02956391
 30
0.0
 40
0.99999999
100
AcDbArc
 50
0.0
 51
82.67388057
  0
ARC
  5
529
100
AcDbEntity
  8
LAYER0002
  6
CONTINUOUS
 62
       7
100
AcDbCircle
 10
21.73772293
 20
240.0295639
 30
0.0
 40
1.0
100
AcDbArc
 50
97.32611943
 51
180.0
  0
LINE
  5
52A
100
AcDbEntity
  8
LAYER0001
  6
CONTINUOUS
 62
       7
100
AcDbLine
 10
-126.62361877
 20
-219.97525242
 30
0.0
 11
-124.75513508
 21
-219.97525242
 31
0.0
  0
LINE
  5
52B
100
AcDbEntity
  8
LAYER0001
  6
CONTINUOUS
 62
       7
100
AcDbLine
 10
-116.85171564
 20
-226.03700381
 30
0.0
 11
-116.40513529
 21
-227.48037941
 31
0.0
  0
LINE
  5
52C
100
AcDbEntity
  8
LAYER0001
  6
CONTINUOUS
 62
       7
100
AcDbLine
 10
-116.85171564
 20
-226.03700381
 30
0.0
 11
-124.75513508
 21
-226.03700381
 31
0.0
  0
LINE
  5
52D
100
AcDbEntity
  8
LAYER0001
  6
CONTINUOUS
 62
       7
100
AcDbLine
 10
-114.75513344
 20
-217.65025241
 30
0.0
 11
-115.10513564
 21
-217.65025241
 31
0.0
  0
LINE
  5
52E
100
AcDbEntity
  8
LAYER0001
  6
CONTINUOUS
 62
       7
100
AcDbLine
 10
-116.40513529
 20
-226.32525234
 30
0.0
 11
-115.10513564
 21
-226.32525234
 31
0.0
  0
LINE
  5
52F
100
AcDbEntity
  8
LAYER0001
  6
CONTINUOUS
 62
       7
100
AcDbLine
 10
-116.40513529
 20
-218.15025249
 30
0.0
 11
-116.85171564
 21
-217.37674951
 31
0.0
  0
LINE
  5
530
100
AcDbEntity
  8
LAYER0001
  6
CONTINUOUS
 62
       7
100
AcDbLine
 10
-116.85171564
 20
-220.26350095
 30
0.0
 11
-124.75513508
 21
-220.26350095
 31
0.0
  0
LINE
  5
531
100
AcDbEntity
  8
LAYER0001
  6
CONTINUOUS
 62
       7
100
AcDbLine
 10
-116.40513529
 20
-218.82012535
 30
0.0
 11
-116.40513529
 21
-228.15025227
 31
0.0
  0
LINE
  5
532
100
AcDbEntity
  8
LAYER0001
  6
CONTINUOUS
 62
       7
100
AcDbLine
 10
-124.75513508
 20
-217.37674951
 30
0.0
 11
-124.75513508
 21
-228.92375525
 31
0.0
  0
LINE
  5
533
100
AcDbEntity
  8
LAYER0001
  6
CONTINUOUS
 62
       7
100
AcDbLine
 10
-114.75513344
 20
-229.65025251
 30
0.0
 11
-107.15513518
 21
-229.65025251
 31
0.0
  0
LINE
  5
534
100
AcDbEntity
  8
LAYER0001
  6
CONTINUOUS
 62
       7
100
AcDbLine
 10
-114.75513344
 20
-216.65025225
 30
0.0
 11
-107.15513518
 21
-216.65025225
 31
0.0
  0
LINE
  5
535
100
AcDbEntity
  8
LAYER0001
  6
CONTINUOUS
 62
       7
100
AcDbLine
 10
-116.40513529
 20
-228.15025227
 30
0.0
 11
-116.85171564
 21
-228.92375525
 31
0.0
  0
LINE
  5
536
100
AcDbEntity
  8
LAYER0001
  6
CONTINUOUS
 62
       7
100
AcDbLine
 10
-116.85171564
 20
-228.92375525
 30
0.0
 11
-124.75513508
 21
-228.92375525
 31
0.0
  0
LINE
  5
537
100
AcDbEntity
  8
LAYER0001
  6
CONTINUOUS
 62
       7
100
AcDbLine
 10
-126.62361877
 20
-226.32525234
 30
0.0
 11
-124.75513508
 21
-226.32525234
 31
0.0
  0
LINE
  5
538
100
AcDbEntity
  8
LAYER0001
  6
CONTINUOUS
 62
       7
100
AcDbLine
 10
-115.10513564
 20
-228.65025235
 30
0.0
 11
-114.75513344
 21
-228.65025235
 31
0.0
  0
LINE
  5
539
100
AcDbEntity
  8
LAYER0001
  6
CONTINUOUS
 62
       7
100
AcDbLine
 10
-115.10513564
 20
-219.97525242
 30
0.0
 11
-116.40513529
 21
-219.97525242
 31
0.0
  0
LINE
  5
53A
100
AcDbEntity
  8
LAYER0001
  6
CONTINUOUS
 62
       7
100
AcDbLine
 10
-115.10513564
 20
-217.65025241
 30
0.0
 11
-115.10513564
 21
-228.65025235
 31
0.0
  0
LINE
  5
53B
100
AcDbEntity
  8
LAYER0001
  6
CONTINUOUS
 62
       7
100
AcDbLine
 10
-116.85171564
 20
-220.26350095
 30
0.0
 11
-116.40513529
 21
-218.82012535
 31
0.0
  0
LINE
  5
53C
100
AcDbEntity
  8
LAYER0001
  6
CONTINUOUS
 62
       7
100
AcDbLine
 10
-116.85171564
 20
-217.37674951
 30
0.0
 11
-124.75513508
 21
-217.37674951
 31
0.0
  0
LINE
  5
53D
100
AcDbEntity
  8
LAYER0001
  6
CONTINUOUS
 62
       7
100
AcDbLine
 10
-116.40513529
 20
-218.15025249
 30
0.0
 11
-116.40513529
 21
-218.82012535
 31
0.0
  0
LINE
  5
53E
100
AcDbEntity
  8
LAYER0001
  6
CONTINUOUS
 62
       7
100
AcDbLine
 10
-114.75513344
 20
-216.65025225
 30
0.0
 11
-114.75513344
 21
-229.65025251
 31
0.0
  0
ARC
  5
53F
100
AcDbEntity
  8
LAYER0001
  6
CONTINUOUS
 62
       7
100
AcDbCircle
 10
-107.15513525
 20
-223.15025238
 30
0.0
 40
6.50000013
100
AcDbArc
 50
270.00000062
 51
449.99999938
  0
INSERT
  5
540
100
AcDbEntity
  8
0
  6
CONTINUOUS
100
AcDbBlockReference
  2
GROUP_1
 10
0.0
 20
0.0
 30
0.0
  0
INSERT
  5
541
100
AcDbEntity
  8
0
  6
CONTINUOUS
100
AcDbBlockReference
  2
GROUP_2
 10
0.0
 20
0.0
 30
0.0
  0
INSERT
  5
542
100
AcDbEntity
  8
0
  6
CONTINUOUS
100
AcDbBlockReference
  2
GROUP_3
 10
0.0
 20
0.0
 30
0.0
  0
INSERT
  5
543
100
AcDbEntity
  8
0
  6
CONTINUOUS
100
AcDbBlockReference
  2
GROUP_4
 10
0.0
 20
0.0
 30
0.0
  0
TEXT
  5
544
100
AcDbEntity
  8
LAYER0004
 62
       7
100
AcDbText
 10
167.84638408
 20
-244.57921945
 30
0.0
 40
17.19791667
  1
000
 72
       5
 11
219.44013409
 21
-244.57921945
 31
0.0
100
AcDbText
  0
TEXT
  5
545
100
AcDbEntity
  8
LAYER0004
 62
       7
100
AcDbText
 10
112.40055087
 20
-105.6217654
 30
0.0
 40
7.9375
  1
Lamp 5 Layers shown
 72
       5
 11
263.21305087
 21
-105.6217654
 31
0.0
100
AcDbText
  0
ENDSEC
  0
SECTION
  2
OBJECTS
  0
DICTIONARY
  5
19
100
AcDbDictionary
  3
ACAD_GROUP
350
1A
  3
ACAD_MLINESTYLE
350
1B
  0
DICTIONARY
  5
1A
102
{ACAD_REACTORS
330
19
102
}
100
AcDbDictionary
  0
DICTIONARY
  5
1B
102
{ACAD_REACTORS
330
19
102
}
100
AcDbDictionary
  3
STANDARD
350
1C
  0
MLINESTYLE
  5
1C
102
{ACAD_REACTORS
330
1B
102
}
100
AcDbMlineStyle
  2
STANDARD
 70
       0
  3

 62
       0
 51
90.0
 52
90.0
 71
       2
 49
0.5
 62
     256
  6
BYLAYER
 49
-0.5
 62
     256
  6
BYLAYER
  0
ENDSEC
  0
EOF
