  0
SECTION
  2
HEADER
  9
$ACADVER
  1
AC1014
  9
$ACADMAINTVER
 70
       0
  9
$DWGCODEPAGE
  3
ANSI_932
  9
$INSBASE
 10
0.0
 20
0.0
 30
0.0
  9
$EXTMIN
 10
-131.65668082
 20
-186.52850336
 30
0.0
  9
$EXTMAX
 10
90.07768079
 20
186.52850336
 30
0.0
  9
$LIMMIN
 10
-138.58587962
 20
-198.18653482
  9
$LIMMAX
 10
97.00687959
 20
198.18653482
  9
$ORTHOMODE
 70
       0
  9
$REGENMODE
 70
       1
  9
$FILLMODE
 70
       1
  9
$QTEXTMODE
 70
       0
  9
$MIRRTEXT
 70
       1
  9
$DRAGMODE
 70
       2
  9
$LTSCALE
 40
1.0
  9
$OSMODE
 70
       0
  9
$ATTMODE
 70
       1
  9
$TEXTSIZE
 40
0.2
  9
$TRACEWID
 40
0.05
  9
$TEXTSTYLE
  7
STANDARD
  9
$CLAYER
  8
0
  9
$CELTYPE
  6
CONTINUOUS
  9
$CECOLOR
 62
     256
  9
$CELTSCALE
 40
1.0
  9
$DELOBJ
 70
       1
  9
$DISPSILH
 70
       0
  9
$DIMSCALE
 40
1.0
  9
$DIMASZ
 40
0.18
  9
$DIMEXO
 40
0.0625
  9
$DIMDLI
 40
0.38
  9
$DIMRND
 40
0.0
  9
$DIMDLE
 40
0.0
  9
$DIMEXE
 40
0.18
  9
$DIMTP
 40
0.0
  9
$DIMTM
 40
0.0
  9
$DIMTXT
 40
0.18
  9
$DIMCEN
 40
0.09
  9
$DIMTSZ
 40
0.0
  9
$DIMTOL
 70
       0
  9
$DIMLIM
 70
       0
  9
$DIMTIH
 70
       1
  9
$DIMTOH
 70
       1
  9
$DIMSE1
 70
       0
  9
$DIMSE2
 70
       0
  9
$DIMTAD
 70
       0
  9
$DIMZIN
 70
       0
  9
$DIMBLK
  1

  9
$DIMASO
 70
       1
  9
$DIMSHO
 70
       1
  9
$DIMPOST
  1

  9
$DIMAPOST
  1

  9
$DIMALT
 70
       0
  9
$DIMALTD
 70
       2
  9
$DIMALTF
 40
25.4
  9
$DIMLFAC
 40
1.0
  9
$DIMTOFL
 70
       0
  9
$DIMTVP
 40
0.0
  9
$DIMTIX
 70
       0
  9
$DIMSOXD
 70
       0
  9
$DIMSAH
 70
       0
  9
$DIMBLK1
  1

  9
$DIMBLK2
  1

  9
$DIMSTYLE
  2
STANDARD
  9
$DIMCLRD
 70
       0
  9
$DIMCLRE
 70
       0
  9
$DIMCLRT
 70
       0
  9
$DIMTFAC
 40
1.0
  9
$DIMGAP
 40
0.09
  9
$DIMJUST
 70
       0
  9
$DIMSD1
 70
       0
  9
$DIMSD2
 70
       0
  9
$DIMTOLJ
 70
       1
  9
$DIMTZIN
 70
       0
  9
$DIMALTZ
 70
       0
  9
$DIMALTTZ
 70
       0
  9
$DIMFIT
 70
       3
  9
$DIMUPT
 70
       0
  9
$DIMUNIT
 70
       2
  9
$DIMDEC
 70
       4
  9
$DIMTDEC
 70
       4
  9
$DIMALTU
 70
       2
  9
$DIMALTTD
 70
       2
  9
$DIMTXSTY
  7
STANDARD
  9
$DIMAUNIT
 70
       0
  9
$LUNITS
 70
       2
  9
$LUPREC
 70
       4
  9
$SKETCHINC
 40
0.1
  9
$FILLETRAD
 40
0.0
  9
$AUNITS
 70
       0
  9
$AUPREC
 70
       0
  9
$MENU
  1
acad
  9
$ELEVATION
 40
0.0
  9
$PELEVATION
 40
0.0
  9
$THICKNESS
 40
0.0
  9
$LIMCHECK
 70
       0
  9
$BLIPMODE
 70
       1
  9
$CHAMFERA
 40
0.0
  9
$CHAMFERB
 40
0.0
  9
$CHAMFERC
 40
0.0
  9
$CHAMFERD
 40
0.0
  9
$SKPOLY
 70
       0
  9
$TDCREATE
 40
0.000000000
  9
$TDUPDATE
 40
0.000000000
  9
$TDINDWG
 40
0.0000000000
  9
$TDUSRTIMER
 40
0.0000000000
  9
$USRTIMER
 70
       1
  9
$ANGBASE
 50
0.0
  9
$ANGDIR
 70
       0
  9
$PDMODE
 70
       0
  9
$PDSIZE
 40
1.0
  9
$PLINEWID
 40
0.0
  9
$COORDS
 70
       1
  9
$SPLFRAME
 70
       0
  9
$SPLINETYPE
 70
       6
  9
$SPLINESEGS
 70
       8
  9
$ATTDIA
 70
       0
  9
$ATTREQ
 70
       1
  9
$HANDLING
 70
       1
  9
$HANDSEED
  5
51D
  9
$SURFTAB1
 70
       6
  9
$SURFTAB2
 70
       6
  9
$SURFTYPE
 70
       6
  9
$SURFU
 70
       6
  9
$SURFV
 70
       6
  9
$UCSNAME
  2

  9
$UCSORG
 10
0.0
 20
0.0
 30
0.0
  9
$UCSXDIR
 10
1.0
 20
0.0
 30
0.0
  9
$UCSYDIR
 10
0.0
 20
1.0
 30
0.0
  9
$PUCSNAME
  2

  9
$PUCSORG
 10
0.0
 20
0.0
 30
0.0
  9
$PUCSXDIR
 10
1.0
 20
0.0
 30
0.0
  9
$PUCSYDIR
 10
0.0
 20
1.0
 30
0.0
  9
$USERI1
 70
       0
  9
$USERI2
 70
       0
  9
$USERI3
 70
       0
  9
$USERI4
 70
       0
  9
$USERI5
 70
       0
  9
$USERR1
 40
0.0
  9
$USERR2
 40
0.0
  9
$USERR3
 40
0.0
  9
$USERR4
 40
0.0
  9
$USERR5
 40
0.0
  9
$WORLDVIEW
 70
       1
  9
$SHADEDGE
 70
       3
  9
$SHADEDIF
 70
      70
  9
$TILEMODE
 70
       1
  9
$MAXACTVP
 70
      16
  9
$PINSBASE
 10
0.0
 20
0.0
 30
0.0
  9
$PLIMCHECK
 70
       0
  9
$PEXTMIN
 10
1.00000000E+20
 20
1.00000000E+20
 30
1.00000000E+20
  9
$PEXTMAX
 10
-1.00000000E+20
 20
-1.00000000E+20
 30
-1.00000000E+20
  9
$PLIMMIN
 10
0.0
 20
0.0
  9
$PLIMMAX
 10
12.0
 20
9.0
  9
$UNITMODE
 70
       0
  9
$VISRETAIN
 70
       0
  9
$PLINEGEN
 70
       1
  9
$PSLTSCALE
 70
       0
  9
$TREEDEPTH
 70
    3020
  9
$PICKSTYLE
 70
       1
  9
$CMLSTYLE
  2
STANDARD
  9
$CMLJUST
 70
       0
  9
$CMLSCALE
 40
1.0
  9
$PROXYGRAPHICS
 70
       0
  9
$MEASUREMENT
 70
       0
  0
ENDSEC
  0
SECTION
  2
CLASSES
  0
CLASS
  1
LWPOLYLINE
  2
AcDbPolyline
  3
"AutoCAD"
 90
        0
280
       0
281
       1
  0
CLASS
  1
IMAGE
  2
AcDbRasterImage
  3
ISM
 90
      127
280
       0
281
       1
  0
CLASS
  1
OLE2FRAME
  2
AcDbOle2Frame
  3
""
 90
        0
280
       0
281
       1
  0
CLASS
  1
HATCH
  2
AcDbHatch
  3
"ACAD_SEDONA"
 90
        0
280
       0
281
       1
  0
CLASS
  1
DICTIONARYVAR
  2
AcDbDictionaryVar
  3
"AutoCAD"
 90
        0
280
       0
281
       0
  0
CLASS
  1
RASTERVARIABLES
  2
AcDbRasterVariables
  3
ISM
 90
        0
280
       0
281
       0
  0
CLASS
  1
IMAGEDEF
  2
AcDbRasterImageDef
  3
ISM
 90
        0
280
       0
281
       0
  0
CLASS
  1
IMAGEDEF_REACTOR
  2
AcDbRasterImageDefReactor
  3
ISM
 90
        1
280
       0
281
       0
  0
CLASS
  1
IDBUFFER
  2
AcDbIdBuffer
  3
"Acad"
 90
        0
280
       0
281
       0
  0
CLASS
  1
SPATIAL_FILTER
  2
AcDbSpatialFilter
  3
"Acad"
 90
        0
280
       0
281
       0
  0
CLASS
  1
XRECORD
  2
AcDbXrecord
  3
"<Built In>"
 90
        0
280
       0
281
       0
  0
CLASS
  1
SORTENTSTABLE
  2
AcDbSortentsTable
  3
"AutoCAD"
 90
        0
280
       0
281
       0
  0
CLASS
  1
LAYER_INDEX
  2
AcDbLayerIndex
  3
"Acad"
 90
        0
280
       0
281
       0
  0
CLASS
  1
SPATIAL_INDEX
  2
AcDbSpatialIndex
  3
"Acad"
 90
        0
280
       0
281
       0
  0
CLASS
  1
OBJECT_PTR
  2
CAseDLPNTableRecord
  3
"ASE-LPNTableRecord"
 90
        1
280
       0
281
       0
  0
CLASS
  1
LAYOUT
  2
AcDbLayout
  3
"AutoCAD 2000"
 90
        1
280
       0
281
       0
  0
CLASS
  1
PLOTSETTINGS
  2
AcDbPlotSettings
  3
"AutoCAD 2000"
 90
        1
280
       0
281
       0
  0
CLASS
  1
ACDBDICTIONARYWDFLT
  2
AcDbDictionaryWithDefault
  3
"AutoCAD 2000"
 90
        1
280
       0
281
       0
  0
CLASS
  1
ACDBPLACEHOLDER
  2
AcDbPlaceHolder
  3
"AutoCAD 2000"
 90
        1
280
       0
281
       0
  0
CLASS
  1
VBA_PROJECT
  2
AcDbVbaProject
  3
"acadvba"
 90
        1
280
       0
281
       0
  0
CLASS
  1
WIPEOUT
  2
AcDbWipeout
  3
WipeOut|AutoCAD Express Tool|expresstools@autodesk.com
 90
      127
280
       0
281
       1
  0
CLASS
  1
WIPEOUTVARIABLES
  2
AcDbWipeoutVariables
  3
WipeOut|AutoCAD Express Tool|expresstools@autodesk.com
 90
        0
280
       0
281
       0
  0
CLASS
  1
RTEXT
  2
RText
  3
RText|AutoCAD Express Tool|expresstools@autodesk.com
 90
        0
280
       0
281
       1
  0
CLASS
  1
ARCALIGNEDTEXT
  2
AcDbArcAlignedText
  3
ATEXT|AutoCAD Express Tool|expresstools@autodesk.com
 90
        0
280
       0
281
       1
  0
ENDSEC
  0
SECTION
  2
TABLES
  0
TABLE
  2
VPORT
  5
7
100
AcDbSymbolTable
 70
       1
  0
VPORT
  5
15
100
AcDbSymbolTableRecord
100
AcDbViewportTableRecord
  2
*ACTIVE
 70
       0
 10
0.0
 20
0.0
 11
1.0
 21
1.0
 12
-20.78950002
 22
0.0
 13
0.0
 23
0.0
 14
1.0
 24
1.0
 15
0.0
 25
0.0
 16
0.0
 26
0.0
 36
1.0
 17
0.0
 27
0.0
 37
0.0
 40
396.37306963
 41
0.59437126
 42
50.0
 43
0.0
 44
0.0
 50
0.0
 51
0.0
 71
       0
 72
     100
 73
       1
 74
       1
 75
       0
 76
       0
 77
       0
 78
       0
  0
ENDTAB
  0
TABLE
  2
LTYPE
  5
4
100
AcDbSymbolTable
 70
      30
  0
LTYPE
  5
11
100
AcDbSymbolTableRecord
100
AcDbLinetypeTableRecord
  2
BYBLOCK
 70
      64
  3

 72
      65
 73
       0
 40
0.0
  0
LTYPE
  5
12
100
AcDbSymbolTableRecord
100
AcDbLinetypeTableRecord
  2
BYLAYER
 70
      64
  3

 72
      65
 73
       0
 40
0.0
  0
LTYPE
  5
13
100
AcDbSymbolTableRecord
100
AcDbLinetypeTableRecord
  2
CONTINUOUS
 70
      64
  3
Solid line
 72
      65
 73
       0
 40
0.0
  0
LTYPE
  5
1D
100
AcDbSymbolTableRecord
100
AcDbLinetypeTableRecord
  2
HIDDENX2
 70
      64
  3
CADPAC LINETYPE
 72
      65
 73
       2
 40
21.09701693
 49
15.8227627
 74
       0
 49
-5.27425423
 74
       0
  0
LTYPE
  5
1E
100
AcDbSymbolTableRecord
100
AcDbLinetypeTableRecord
  2
HIDDEN
 70
      64
  3
CADPAC LINETYPE
 72
      65
 73
       2
 40
15.8227627
 49
10.54850847
 74
       0
 49
-5.27425423
 74
       0
  0
LTYPE
  5
1F
100
AcDbSymbolTableRecord
100
AcDbLinetypeTableRecord
  2
HIDDEN2
 70
      64
  3
CADPAC LINETYPE
 72
      65
 73
       2
 40
13.18563558
 49
7.91138135
 74
       0
 49
-5.27425423
 74
       0
  0
LTYPE
  5
20
100
AcDbSymbolTableRecord
100
AcDbLinetypeTableRecord
  2
DASHED
 70
      64
  3
CADPAC LINETYPE
 72
      65
 73
       2
 40
15.8227627
 49
10.54850847
 74
       0
 49
-5.27425423
 74
       0
  0
LTYPE
  5
21
100
AcDbSymbolTableRecord
100
AcDbLinetypeTableRecord
  2
DASHED2
 70
      64
  3
CADPAC LINETYPE
 72
      65
 73
       2
 40
11.86707202
 49
7.91138135
 74
       0
 49
-3.95569067
 74
       0
  0
LTYPE
  5
22
100
AcDbSymbolTableRecord
100
AcDbLinetypeTableRecord
  2
DASHEDX2
 70
      64
  3
CADPAC LINETYPE
 72
      65
 73
       2
 40
23.73414405
 49
15.8227627
 74
       0
 49
-7.91138135
 74
       0
  0
LTYPE
  5
23
100
AcDbSymbolTableRecord
100
AcDbLinetypeTableRecord
  2
DOTX2
 70
      64
  3
CADPAC LINETYPE
 72
      65
 73
       2
 40
6.59281779
 49
0.0
 74
       0
 49
-6.59281779
 74
       0
  0
LTYPE
  5
24
100
AcDbSymbolTableRecord
100
AcDbLinetypeTableRecord
  2
DOT
 70
      64
  3
CADPAC LINETYPE
 72
      65
 73
       2
 40
5.27425423
 49
0.0
 74
       0
 49
-5.27425423
 74
       0
  0
LTYPE
  5
25
100
AcDbSymbolTableRecord
100
AcDbLinetypeTableRecord
  2
DOT2
 70
      64
  3
CADPAC LINETYPE
 72
      65
 73
       2
 40
3.95569067
 49
0.0
 74
       0
 49
-3.95569067
 74
       0
  0
LTYPE
  5
26
100
AcDbSymbolTableRecord
100
AcDbLinetypeTableRecord
  2
CENTERX2
 70
      64
  3
CADPAC LINETYPE
 72
      65
 73
       4
 40
31.6455254
 49
13.18563558
 74
       0
 49
-6.59281779
 74
       0
 49
5.27425423
 74
       0
 49
-6.59281779
 74
       0
  0
LTYPE
  5
27
100
AcDbSymbolTableRecord
100
AcDbLinetypeTableRecord
  2
CENTER
 70
      64
  3
CADPAC LINETYPE
 72
      65
 73
       4
 40
24.26156947
 49
10.54850847
 74
       0
 49
-5.27425423
 74
       0
 49
3.16455254
 74
       0
 49
-5.27425423
 74
       0
  0
LTYPE
  5
28
100
AcDbSymbolTableRecord
100
AcDbLinetypeTableRecord
  2
CENTER2
 70
      64
  3
CADPAC LINETYPE
 72
      65
 73
       4
 40
16.87761355
 49
7.91138135
 74
       0
 49
-3.95569067
 74
       0
 49
1.05485085
 74
       0
 49
-3.95569067
 74
       0
  0
LTYPE
  5
29
100
AcDbSymbolTableRecord
100
AcDbLinetypeTableRecord
  2
DASHDOTX2
 70
      64
  3
CADPAC LINETYPE
 72
      65
 73
       4
 40
26.37127116
 49
13.18563558
 74
       0
 49
-6.59281779
 74
       0
 49
0.0
 74
       0
 49
-6.59281779
 74
       0
  0
LTYPE
  5
2A
100
AcDbSymbolTableRecord
100
AcDbLinetypeTableRecord
  2
DASHDOT
 70
      64
  3
CADPAC LINETYPE
 72
      65
 73
       4
 40
21.09701693
 49
10.54850847
 74
       0
 49
-5.27425423
 74
       0
 49
0.0
 74
       0
 49
-5.27425423
 74
       0
  0
LTYPE
  5
2B
100
AcDbSymbolTableRecord
100
AcDbLinetypeTableRecord
  2
DASHDOT2
 70
      64
  3
CADPAC LINETYPE
 72
      65
 73
       4
 40
15.8227627
 49
7.91138135
 74
       0
 49
-3.95569067
 74
       0
 49
0.0
 74
       0
 49
-3.95569067
 74
       0
  0
LTYPE
  5
2C
100
AcDbSymbolTableRecord
100
AcDbLinetypeTableRecord
  2
DIVIDEX2
 70
      64
  3
CADPAC LINETYPE
 72
      65
 73
       6
 40
32.96408896
 49
13.18563558
 74
       0
 49
-6.59281779
 74
       0
 49
0.0
 74
       0
 49
-6.59281779
 74
       0
 49
0.0
 74
       0
 49
-6.59281779
 74
       0
  0
LTYPE
  5
2D
100
AcDbSymbolTableRecord
100
AcDbLinetypeTableRecord
  2
DIVIDE
 70
      64
  3
CADPAC LINETYPE
 72
      65
 73
       6
 40
26.37127116
 49
10.54850847
 74
       0
 49
-5.27425423
 74
       0
 49
0.0
 74
       0
 49
-5.27425423
 74
       0
 49
0.0
 74
       0
 49
-5.27425423
 74
       0
  0
LTYPE
  5
2E
100
AcDbSymbolTableRecord
100
AcDbLinetypeTableRecord
  2
DIVIDE2
 70
      64
  3
CADPAC LINETYPE
 72
      65
 73
       6
 40
19.77845337
 49
7.91138135
 74
       0
 49
-3.95569067
 74
       0
 49
0.0
 74
       0
 49
-3.95569067
 74
       0
 49
0.0
 74
       0
 49
-3.95569067
 74
       0
  0
LTYPE
  5
2F
100
AcDbSymbolTableRecord
100
AcDbLinetypeTableRecord
  2
BORDERX2
 70
      64
  3
CADPAC LINETYPE
 72
      65
 73
       6
 40
46.14972454
 49
13.18563558
 74
       0
 49
-6.59281779
 74
       0
 49
13.18563558
 74
       0
 49
-6.59281779
 74
       0
 49
0.0
 74
       0
 49
-6.59281779
 74
       0
  0
LTYPE
  5
30
100
AcDbSymbolTableRecord
100
AcDbLinetypeTableRecord
  2
BORDER
 70
      64
  3
CADPAC LINETYPE
 72
      65
 73
       6
 40
36.91977963
 49
10.54850847
 74
       0
 49
-5.27425423
 74
       0
 49
10.54850847
 74
       0
 49
-5.27425423
 74
       0
 49
0.0
 74
       0
 49
-5.27425423
 74
       0
  0
LTYPE
  5
31
100
AcDbSymbolTableRecord
100
AcDbLinetypeTableRecord
  2
BORDER2
 70
      64
  3
CADPAC LINETYPE
 72
      65
 73
       6
 40
27.68983472
 49
7.91138135
 74
       0
 49
-3.95569067
 74
       0
 49
7.91138135
 74
       0
 49
-3.95569067
 74
       0
 49
0.0
 74
       0
 49
-3.95569067
 74
       0
  0
LTYPE
  5
32
100
AcDbSymbolTableRecord
100
AcDbLinetypeTableRecord
  2
PHANTOMX2
 70
      64
  3
CADPAC LINETYPE
 72
      65
 73
       6
 40
39.55690675
 49
13.18563558
 74
       0
 49
-5.27425423
 74
       0
 49
5.27425423
 74
       0
 49
-5.27425423
 74
       0
 49
5.27425423
 74
       0
 49
-5.27425423
 74
       0
  0
LTYPE
  5
33
100
AcDbSymbolTableRecord
100
AcDbLinetypeTableRecord
  2
PHANTOM
 70
      64
  3
CADPAC LINETYPE
 72
      65
 73
       6
 40
32.70037624
 49
10.54850847
 74
       0
 49
-5.27425423
 74
       0
 49
3.16455254
 74
       0
 49
-5.27425423
 74
       0
 49
3.16455254
 74
       0
 49
-5.27425423
 74
       0
  0
LTYPE
  5
34
100
AcDbSymbolTableRecord
100
AcDbLinetypeTableRecord
  2
PHANTOM2
 70
      64
  3
CADPAC LINETYPE
 72
      65
 73
       6
 40
27.95354743
 49
7.91138135
 74
       0
 49
-5.27425423
 74
       0
 49
2.10970169
 74
       0
 49
-5.27425423
 74
       0
 49
2.10970169
 74
       0
 49
-5.27425423
 74
       0
  0
LTYPE
  5
35
100
AcDbSymbolTableRecord
100
AcDbLinetypeTableRecord
  2
ACAD_ISO06W100
 70
      64
  3
CADPAC LINETYPE
 72
      65
 73
       8
 40
35.60121607
 49
13.18563558
 74
       0
 49
-6.59281779
 74
       0
 49
0.0
 74
       0
 49
-5.27425423
 74
       0
 49
0.0
 74
       0
 49
-5.27425423
 74
       0
 49
0.0
 74
       0
 49
-5.27425423
 74
       0
  0
LTYPE
  5
36
100
AcDbSymbolTableRecord
100
AcDbLinetypeTableRecord
  2
ACAD_ISO13W100
 70
      64
  3
CADPAC LINETYPE
 72
      65
 73
       8
 40
42.19403386
 49
10.54850847
 74
       0
 49
-5.27425423
 74
       0
 49
10.54850847
 74
       0
 49
-5.27425423
 74
       0
 49
0.0
 74
       0
 49
-5.27425423
 74
       0
 49
0.0
 74
       0
 49
-5.27425423
 74
       0
  0
LTYPE
  5
37
100
AcDbSymbolTableRecord
100
AcDbLinetypeTableRecord
  2
ACAD_ISO14W100
 70
      64
  3
CADPAC LINETYPE
 72
      65
 73
       8
 40
31.6455254
 49
10.54850847
 74
       0
 49
-5.27425423
 74
       0
 49
0.0
 74
       0
 49
-5.27425423
 74
       0
 49
0.0
 74
       0
 49
-5.27425423
 74
       0
 49
0.0
 74
       0
 49
-5.27425423
 74
       0
  0
ENDTAB
  0
TABLE
  2
LAYER
  5
2
100
AcDbSymbolTable
 70
       2
  0
LAYER
  5
14
100
AcDbSymbolTableRecord
100
AcDbLayerTableRecord
  2
0
 70
       0
 62
       7
  6
CONTINUOUS
  0
LAYER
  5
38
100
AcDbSymbolTableRecord
100
AcDbLayerTableRecord
  2
LAYER0001
 70
       0
 62
       7
  6
CONTINUOUS
  0
ENDTAB
  0
TABLE
  2
STYLE
  5
3
100
AcDbSymbolTable
 70
       1
  0
STYLE
  5
17
100
AcDbSymbolTableRecord
100
AcDbTextStyleTableRecord
  2
STANDARD
 70
       0
 40
0.0
 41
1.0
 50
0.0
 71
       0
 42
9.525
  3
txt.shx
  4
bigfont.shx
  0
ENDTAB
  0
TABLE
  2
VIEW
  5
5
100
AcDbSymbolTable
 70
       1
  0
VIEW
  5
39
100
AcDbSymbolTableRecord
100
AcDbViewTableRecord
  2
QQQQ
 70
       0
 40
396.37306963
 10
-20.78950002
 20
0.0
 41
235.59275922
 11
0.0
 21
0.0
 31
1.0
 12
100.0
 22
100.0
 32
0.0
 42
50.0
 43
0.0
 44
0.0
 50
0.0
 71
       0
  0
ENDTAB
  0
TABLE
  2
UCS
  5
6
100
AcDbSymbolTable
 70
       0
  0
ENDTAB
  0
TABLE
  2
APPID
  5
8
100
AcDbSymbolTable
 70
       1
  0
APPID
  5
16
100
AcDbSymbolTableRecord
100
AcDbRegAppTableRecord
  2
ACAD
 70
       0
  0
ENDTAB
  0
TABLE
  2
DIMSTYLE
  5
9
100
AcDbSymbolTable
 70
       1
  0
DIMSTYLE
105
18
100
AcDbSymbolTableRecord
100
AcDbDimStyleTableRecord
  2
STANDARD
 70
       0
  3

  4

  5

  6

  7

 40
1.0
 41
0.18
 42
0.0625
 43
0.38
 44
0.18
 45
0.0
 46
0.0
 47
0.0
 48
0.0
 71
       0
 72
       0
 73
       1
 74
       1
 75
       0
 76
       0
 77
       0
 78
       0
140
0.18
141
0.09
142
0.0
143
25.4
144
1.0
145
0.0
146
1.0
147
0.09
170
       0
171
       2
172
       0
173
       0
174
       0
175
       0
176
       0
177
       0
178
       0
270
       2
271
       4
272
       4
273
       2
274
       2
275
       0
280
       0
281
       0
282
       0
283
       1
284
       0
285
       0
286
       0
287
       0
288
       0
340
17
  0
ENDTAB
  0
TABLE
  2
BLOCK_RECORD
  5
1
100
AcDbSymbolTable
 70
      23
  0
BLOCK_RECORD
  5
A
100
AcDbSymbolTableRecord
100
AcDbBlockTableRecord
  2
*MODEL_SPACE
  0
BLOCK_RECORD
  5
B
100
AcDbSymbolTableRecord
100
AcDbBlockTableRecord
  2
*PAPER_SPACE
  0
BLOCK_RECORD
  5
3A
100
AcDbSymbolTableRecord
100
AcDbBlockTableRecord
  2
GROUP_1
  0
BLOCK_RECORD
  5
3B
100
AcDbSymbolTableRecord
100
AcDbBlockTableRecord
  2
GROUP_2
  0
BLOCK_RECORD
  5
3C
100
AcDbSymbolTableRecord
100
AcDbBlockTableRecord
  2
GROUP_3
  0
BLOCK_RECORD
  5
3D
100
AcDbSymbolTableRecord
100
AcDbBlockTableRecord
  2
GROUP_4
  0
BLOCK_RECORD
  5
3E
100
AcDbSymbolTableRecord
100
AcDbBlockTableRecord
  2
GROUP_5
  0
BLOCK_RECORD
  5
3F
100
AcDbSymbolTableRecord
100
AcDbBlockTableRecord
  2
GROUP_6
  0
BLOCK_RECORD
  5
40
100
AcDbSymbolTableRecord
100
AcDbBlockTableRecord
  2
GROUP_7
  0
BLOCK_RECORD
  5
41
100
AcDbSymbolTableRecord
100
AcDbBlockTableRecord
  2
GROUP_8
  0
BLOCK_RECORD
  5
42
100
AcDbSymbolTableRecord
100
AcDbBlockTableRecord
  2
GROUP_9
  0
BLOCK_RECORD
  5
43
100
AcDbSymbolTableRecord
100
AcDbBlockTableRecord
  2
GROUP_10
  0
BLOCK_RECORD
  5
44
100
AcDbSymbolTableRecord
100
AcDbBlockTableRecord
  2
GROUP_11
  0
BLOCK_RECORD
  5
45
100
AcDbSymbolTableRecord
100
AcDbBlockTableRecord
  2
GROUP_12
  0
BLOCK_RECORD
  5
46
100
AcDbSymbolTableRecord
100
AcDbBlockTableRecord
  2
GROUP_13
  0
BLOCK_RECORD
  5
47
100
AcDbSymbolTableRecord
100
AcDbBlockTableRecord
  2
GROUP_14
  0
BLOCK_RECORD
  5
48
100
AcDbSymbolTableRecord
100
AcDbBlockTableRecord
  2
GROUP_15
  0
BLOCK_RECORD
  5
49
100
AcDbSymbolTableRecord
100
AcDbBlockTableRecord
  2
GROUP_16
  0
BLOCK_RECORD
  5
4A
100
AcDbSymbolTableRecord
100
AcDbBlockTableRecord
  2
GROUP_17
  0
BLOCK_RECORD
  5
4B
100
AcDbSymbolTableRecord
100
AcDbBlockTableRecord
  2
GROUP_18
  0
BLOCK_RECORD
  5
4C
100
AcDbSymbolTableRecord
100
AcDbBlockTableRecord
  2
GROUP_19
  0
BLOCK_RECORD
  5
4D
100
AcDbSymbolTableRecord
100
AcDbBlockTableRecord
  2
GROUP_20
  0
BLOCK_RECORD
  5
4E
100
AcDbSymbolTableRecord
100
AcDbBlockTableRecord
  2
GROUP_21
  0
BLOCK_RECORD
  5
4F
100
AcDbSymbolTableRecord
100
AcDbBlockTableRecord
  2
GROUP_22
  0
BLOCK_RECORD
  5
50
100
AcDbSymbolTableRecord
100
AcDbBlockTableRecord
  2
GROUP_23
  0
ENDTAB
  0
ENDSEC
  0
SECTION
  2
BLOCKS
  0
BLOCK
  5
D
100
AcDbEntity
  8
0
100
AcDbBlockBegin
  2
*MODEL_SPACE
 70
       0
 10
0.0
 20
0.0
 30
0.0
  3
*MODEL_SPACE
  1

  0
ENDBLK
  5
E
100
AcDbEntity
  8
0
100
AcDbBlockEnd
  0
BLOCK
  5
F
100
AcDbEntity
 67
       1
  8
0
100
AcDbBlockBegin
  2
*PAPER_SPACE
 70
       0
 10
0.0
 20
0.0
 30
0.0
  3
*PAPER_SPACE
  1

  0
ENDBLK
  5
10
100
AcDbEntity
 67
       1
  8
0
100
AcDbBlockEnd
  0
BLOCK
  5
51
100
AcDbEntity
  8
0
100
AcDbBlockBegin
  2
GROUP_1
 70
       0
 10
0.0
 20
0.0
 30
0.0
  3
GROUP_1
  1

  0
LINE
  5
52
100
AcDbEntity
  8
LAYER0001
  6
CONTINUOUS
 62
       7
100
AcDbLine
 10
-101.21830062
 20
-86.71672429
 30
0.0
 11
-101.2186603
 21
-86.69413709
 31
0.0
  0
LINE
  5
53
100
AcDbEntity
  8
LAYER0001
  6
CONTINUOUS
 62
       7
100
AcDbLine
 10
-101.2186603
 20
-86.69413709
 30
0.0
 11
-101.21903189
 21
-86.67156843
 31
0.0
  0
LINE
  5
54
100
AcDbEntity
  8
LAYER0001
  6
CONTINUOUS
 62
       7
100
AcDbLine
 10
-101.21903189
 20
-86.67156843
 30
0.0
 11
-101.21942728
 21
-86.64903687
 31
0.0
  0
LINE
  5
55
100
AcDbEntity
  8
LAYER0001
  6
CONTINUOUS
 62
       7
100
AcDbLine
 10
-101.21942728
 20
-86.64903687
 30
0.0
 11
-101.21985839
 21
-86.62656095
 31
0.0
  0
LINE
  5
56
100
AcDbEntity
  8
LAYER0001
  6
CONTINUOUS
 62
       7
100
AcDbLine
 10
-101.21985839
 20
-86.62656095
 30
0.0
 11
-101.22033712
 21
-86.60415922
 31
0.0
  0
LINE
  5
57
100
AcDbEntity
  8
LAYER0001
  6
CONTINUOUS
 62
       7
100
AcDbLine
 10
-101.22033712
 20
-86.60415922
 30
0.0
 11
-101.22087537
 21
-86.58185022
 31
0.0
  0
LINE
  5
58
100
AcDbEntity
  8
LAYER0001
  6
CONTINUOUS
 62
       7
100
AcDbLine
 10
-101.22087537
 20
-86.58185022
 30
0.0
 11
-101.22148505
 21
-86.55965251
 31
0.0
  0
LINE
  5
59
100
AcDbEntity
  8
LAYER0001
  6
CONTINUOUS
 62
       7
100
AcDbLine
 10
-101.22148505
 20
-86.55965251
 30
0.0
 11
-101.22217806
 21
-86.53758462
 31
0.0
  0
LINE
  5
5A
100
AcDbEntity
  8
LAYER0001
  6
CONTINUOUS
 62
       7
100
AcDbLine
 10
-101.22217806
 20
-86.53758462
 30
0.0
 11
-101.22296631
 21
-86.51566512
 31
0.0
  0
LINE
  5
5B
100
AcDbEntity
  8
LAYER0001
  6
CONTINUOUS
 62
       7
100
AcDbLine
 10
-101.22296631
 20
-86.51566512
 30
0.0
 11
-101.2238617
 21
-86.49391254
 31
0.0
  0
LINE
  5
5C
100
AcDbEntity
  8
LAYER0001
  6
CONTINUOUS
 62
       7
100
AcDbLine
 10
-101.2238617
 20
-86.49391254
 30
0.0
 11
-101.22487614
 21
-86.47234543
 31
0.0
  0
LINE
  5
5D
100
AcDbEntity
  8
LAYER0001
  6
CONTINUOUS
 62
       7
100
AcDbLine
 10
-101.22487614
 20
-86.47234543
 30
0.0
 11
-101.22602152
 21
-86.45098234
 31
0.0
  0
LINE
  5
5E
100
AcDbEntity
  8
LAYER0001
  6
CONTINUOUS
 62
       7
100
AcDbLine
 10
-101.22602152
 20
-86.45098234
 30
0.0
 11
-101.22730709
 21
-86.42984138
 31
0.0
  0
LINE
  5
5F
100
AcDbEntity
  8
LAYER0001
  6
CONTINUOUS
 62
       7
100
AcDbLine
 10
-101.22730709
 20
-86.42984138
 30
0.0
 11
-101.22872821
 21
-86.40893848
 31
0.0
  0
LINE
  5
60
100
AcDbEntity
  8
LAYER0001
  6
CONTINUOUS
 62
       7
100
AcDbLine
 10
-101.22872821
 20
-86.40893848
 30
0.0
 11
-101.23027576
 21
-86.38828883
 31
0.0
  0
LINE
  5
61
100
AcDbEntity
  8
LAYER0001
  6
CONTINUOUS
 62
       7
100
AcDbLine
 10
-101.23027576
 20
-86.38828883
 30
0.0
 11
-101.23194062
 21
-86.36790762
 31
0.0
  0
LINE
  5
62
100
AcDbEntity
  8
LAYER0001
  6
CONTINUOUS
 62
       7
100
AcDbLine
 10
-101.23194062
 20
-86.36790762
 30
0.0
 11
-101.23371365
 21
-86.34781005
 31
0.0
  0
LINE
  5
63
100
AcDbEntity
  8
LAYER0001
  6
CONTINUOUS
 62
       7
100
AcDbLine
 10
-101.23371365
 20
-86.34781005
 30
0.0
 11
-101.23558575
 21
-86.32801131
 31
0.0
  0
LINE
  5
64
100
AcDbEntity
  8
LAYER0001
  6
CONTINUOUS
 62
       7
100
AcDbLine
 10
-101.23558575
 20
-86.32801131
 30
0.0
 11
-101.23754779
 21
-86.3085266
 31
0.0
  0
LINE
  5
65
100
AcDbEntity
  8
LAYER0001
  6
CONTINUOUS
 62
       7
100
AcDbLine
 10
-101.23754779
 20
-86.3085266
 30
0.0
 11
-101.23959063
 21
-86.28937111
 31
0.0
  0
LINE
  5
66
100
AcDbEntity
  8
LAYER0001
  6
CONTINUOUS
 62
       7
100
AcDbLine
 10
-101.23959063
 20
-86.28937111
 30
0.0
 11
-101.24170517
 21
-86.27056004
 31
0.0
  0
LINE
  5
67
100
AcDbEntity
  8
LAYER0001
  6
CONTINUOUS
 62
       7
100
AcDbLine
 10
-101.24170517
 20
-86.27056004
 30
0.0
 11
-101.24388228
 21
-86.25210859
 31
0.0
  0
LINE
  5
68
100
AcDbEntity
  8
LAYER0001
  6
CONTINUOUS
 62
       7
100
AcDbLine
 10
-101.24388228
 20
-86.25210859
 30
0.0
 11
-101.24611283
 21
-86.23403194
 31
0.0
  0
LINE
  5
69
100
AcDbEntity
  8
LAYER0001
  6
CONTINUOUS
 62
       7
100
AcDbLine
 10
-101.24611283
 20
-86.23403194
 30
0.0
 11
-101.2483877
 21
-86.2163453
 31
0.0
  0
LINE
  5
6A
100
AcDbEntity
  8
LAYER0001
  6
CONTINUOUS
 62
       7
100
AcDbLine
 10
-101.2483877
 20
-86.2163453
 30
0.0
 11
-101.25069777
 21
-86.19906387
 31
0.0
  0
LINE
  5
6B
100
AcDbEntity
  8
LAYER0001
  6
CONTINUOUS
 62
       7
100
AcDbLine
 10
-101.25069777
 20
-86.19906387
 30
0.0
 11
-101.25303421
 21
-86.1822024
 31
0.0
  0
LINE
  5
6C
100
AcDbEntity
  8
LAYER0001
  6
CONTINUOUS
 62
       7
100
AcDbLine
 10
-101.25303421
 20
-86.1822024
 30
0.0
 11
-101.2553906
 21
-86.16577224
 31
0.0
  0
LINE
  5
6D
100
AcDbEntity
  8
LAYER0001
  6
CONTINUOUS
 62
       7
100
AcDbLine
 10
-101.2553906
 20
-86.16577224
 30
0.0
 11
-101.25776172
 21
-86.14978304
 31
0.0
  0
LINE
  5
6E
100
AcDbEntity
  8
LAYER0001
  6
CONTINUOUS
 62
       7
100
AcDbLine
 10
-101.25776172
 20
-86.14978304
 30
0.0
 11
-101.26014232
 21
-86.13424443
 31
0.0
  0
LINE
  5
6F
100
AcDbEntity
  8
LAYER0001
  6
CONTINUOUS
 62
       7
100
AcDbLine
 10
-101.26014232
 20
-86.13424443
 30
0.0
 11
-101.2625272
 21
-86.11916605
 31
0.0
  0
LINE
  5
70
100
AcDbEntity
  8
LAYER0001
  6
CONTINUOUS
 62
       7
100
AcDbLine
 10
-101.2625272
 20
-86.11916605
 30
0.0
 11
-101.26491111
 21
-86.10455754
 31
0.0
  0
LINE
  5
71
100
AcDbEntity
  8
LAYER0001
  6
CONTINUOUS
 62
       7
100
AcDbLine
 10
-101.26491111
 20
-86.10455754
 30
0.0
 11
-101.26728883
 21
-86.09042854
 31
0.0
  0
LINE
  5
72
100
AcDbEntity
  8
LAYER0001
  6
CONTINUOUS
 62
       7
100
AcDbLine
 10
-101.26728883
 20
-86.09042854
 30
0.0
 11
-101.26965514
 21
-86.07678868
 31
0.0
  0
LINE
  5
73
100
AcDbEntity
  8
LAYER0001
  6
CONTINUOUS
 62
       7
100
AcDbLine
 10
-101.26965514
 20
-86.07678868
 30
0.0
 11
-101.2720048
 21
-86.0636476
 31
0.0
  0
LINE
  5
74
100
AcDbEntity
  8
LAYER0001
  6
CONTINUOUS
 62
       7
100
AcDbLine
 10
-101.2720048
 20
-86.0636476
 30
0.0
 11
-101.27433259
 21
-86.05101495
 31
0.0
  0
LINE
  5
75
100
AcDbEntity
  8
LAYER0001
  6
CONTINUOUS
 62
       7
100
AcDbLine
 10
-101.27433259
 20
-86.05101495
 30
0.0
 11
-101.27663328
 21
-86.03890035
 31
0.0
  0
LINE
  5
76
100
AcDbEntity
  8
LAYER0001
  6
CONTINUOUS
 62
       7
100
AcDbLine
 10
-101.27663328
 20
-86.03890035
 30
0.0
 11
-101.27890164
 21
-86.02731346
 31
0.0
  0
LINE
  5
77
100
AcDbEntity
  8
LAYER0001
  6
CONTINUOUS
 62
       7
100
AcDbLine
 10
-101.27890164
 20
-86.02731346
 30
0.0
 11
-101.28113245
 21
-86.0162639
 31
0.0
  0
LINE
  5
78
100
AcDbEntity
  8
LAYER0001
  6
CONTINUOUS
 62
       7
100
AcDbLine
 10
-101.28113245
 20
-86.0162639
 30
0.0
 11
-101.28332388
 21
-86.00575213
 31
0.0
  0
LINE
  5
79
100
AcDbEntity
  8
LAYER0001
  6
CONTINUOUS
 62
       7
100
AcDbLine
 10
-101.28332388
 20
-86.00575213
 30
0.0
 11
-101.28551232
 21
-85.99567551
 31
0.0
  0
LINE
  5
7A
100
AcDbEntity
  8
LAYER0001
  6
CONTINUOUS
 62
       7
100
AcDbLine
 10
-101.28551232
 20
-85.99567551
 30
0.0
 11
-101.28775818
 21
-85.9858666
 31
0.0
  0
LINE
  5
7B
100
AcDbEntity
  8
LAYER0001
  6
CONTINUOUS
 62
       7
100
AcDbLine
 10
-101.28775818
 20
-85.9858666
 30
0.0
 11
-101.29012227
 21
-85.97615691
 31
0.0
  0
LINE
  5
7C
100
AcDbEntity
  8
LAYER0001
  6
CONTINUOUS
 62
       7
100
AcDbLine
 10
-101.29012227
 20
-85.97615691
 30
0.0
 11
-101.29266535
 21
-85.96637799
 31
0.0
  0
LINE
  5
7D
100
AcDbEntity
  8
LAYER0001
  6
CONTINUOUS
 62
       7
100
AcDbLine
 10
-101.29266535
 20
-85.96637799
 30
0.0
 11
-101.29544823
 21
-85.95636137
 31
0.0
  0
LINE
  5
7E
100
AcDbEntity
  8
LAYER0001
  6
CONTINUOUS
 62
       7
100
AcDbLine
 10
-101.29544823
 20
-85.95636137
 30
0.0
 11
-101.2985317
 21
-85.94593858
 31
0.0
  0
LINE
  5
7F
100
AcDbEntity
  8
LAYER0001
  6
CONTINUOUS
 62
       7
100
AcDbLine
 10
-101.2985317
 20
-85.94593858
 30
0.0
 11
-101.30197997
 21
-85.93493939
 31
0.0
  0
LINE
  5
80
100
AcDbEntity
  8
LAYER0001
  6
CONTINUOUS
 62
       7
100
AcDbLine
 10
-101.30197997
 20
-85.93493939
 30
0.0
 11
-101.30599845
 21
-85.92312107
 31
0.0
  0
LINE
  5
81
100
AcDbEntity
  8
LAYER0001
  6
CONTINUOUS
 62
       7
100
AcDbLine
 10
-101.30599845
 20
-85.92312107
 30
0.0
 11
-101.31098074
 21
-85.91014422
 31
0.0
  0
LINE
  5
82
100
AcDbEntity
  8
LAYER0001
  6
CONTINUOUS
 62
       7
100
AcDbLine
 10
-101.31098074
 20
-85.91014422
 30
0.0
 11
-101.31733343
 21
-85.89566288
 31
0.0
  0
LINE
  5
83
100
AcDbEntity
  8
LAYER0001
  6
CONTINUOUS
 62
       7
100
AcDbLine
 10
-101.31733343
 20
-85.89566288
 30
0.0
 11
-101.3253636
 21
-85.87956607
 31
0.0
  0
LINE
  5
84
100
AcDbEntity
  8
LAYER0001
  6
CONTINUOUS
 62
       7
100
AcDbLine
 10
-101.3253636
 20
-85.87956607
 30
0.0
 11
-101.33507841
 21
-85.86245084
 31
0.0
  0
LINE
  5
85
100
AcDbEntity
  8
LAYER0001
  6
CONTINUOUS
 62
       7
100
AcDbLine
 10
-101.33507841
 20
-85.86245084
 30
0.0
 11
-101.34642872
 21
-85.84504699
 31
0.0
  0
LINE
  5
86
100
AcDbEntity
  8
LAYER0001
  6
CONTINUOUS
 62
       7
100
AcDbLine
 10
-101.34642872
 20
-85.84504699
 30
0.0
 11
-101.35934628
 21
-85.8279845
 31
0.0
  0
LINE
  5
87
100
AcDbEntity
  8
LAYER0001
  6
CONTINUOUS
 62
       7
100
AcDbLine
 10
-101.35934628
 20
-85.8279845
 30
0.0
 11
-101.37370714
 21
-85.8116031
 31
0.0
  0
LINE
  5
88
100
AcDbEntity
  8
LAYER0001
  6
CONTINUOUS
 62
       7
100
AcDbLine
 10
-101.37370714
 20
-85.8116031
 30
0.0
 11
-101.38937728
 21
-85.79619005
 31
0.0
  0
LINE
  5
89
100
AcDbEntity
  8
LAYER0001
  6
CONTINUOUS
 62
       7
100
AcDbLine
 10
-101.38937728
 20
-85.79619005
 30
0.0
 11
-101.40622409
 21
-85.78201942
 31
0.0
  0
LINE
  5
8A
100
AcDbEntity
  8
LAYER0001
  6
CONTINUOUS
 62
       7
100
AcDbLine
 10
-101.40622409
 20
-85.78201942
 30
0.0
 11
-101.4241378
 21
-85.76915019
 31
0.0
  0
LINE
  5
8B
100
AcDbEntity
  8
LAYER0001
  6
CONTINUOUS
 62
       7
100
AcDbLine
 10
-101.4241378
 20
-85.76915019
 30
0.0
 11
-101.44302727
 21
-85.75746597
 31
0.0
  0
LINE
  5
8C
100
AcDbEntity
  8
LAYER0001
  6
CONTINUOUS
 62
       7
100
AcDbLine
 10
-101.44302727
 20
-85.75746597
 30
0.0
 11
-101.46280191
 21
-85.74684524
 31
0.0
  0
LINE
  5
8D
100
AcDbEntity
  8
LAYER0001
  6
CONTINUOUS
 62
       7
100
AcDbLine
 10
-101.46280191
 20
-85.74684524
 30
0.0
 11
-101.48336956
 21
-85.73718109
 31
0.0
  0
LINE
  5
8E
100
AcDbEntity
  8
LAYER0001
  6
CONTINUOUS
 62
       7
100
AcDbLine
 10
-101.48336956
 20
-85.73718109
 30
0.0
 11
-101.50459915
 21
-85.72873042
 31
0.0
  0
LINE
  5
8F
100
AcDbEntity
  8
LAYER0001
  6
CONTINUOUS
 62
       7
100
AcDbLine
 10
-101.50459915
 20
-85.72873042
 30
0.0
 11
-101.52631896
 21
-85.72213031
 31
0.0
  0
LINE
  5
90
100
AcDbEntity
  8
LAYER0001
  6
CONTINUOUS
 62
       7
100
AcDbLine
 10
-101.52631896
 20
-85.72213031
 30
0.0
 11
-101.54835537
 21
-85.71803569
 31
0.0
  0
LINE
  5
91
100
AcDbEntity
  8
LAYER0001
  6
CONTINUOUS
 62
       7
100
AcDbLine
 10
-101.54835537
 20
-85.71803569
 30
0.0
 11
-101.57053474
 21
-85.71710152
 31
0.0
  0
LINE
  5
92
100
AcDbEntity
  8
LAYER0001
  6
CONTINUOUS
 62
       7
100
AcDbLine
 10
-101.57053474
 20
-85.71710152
 30
0.0
 11
-101.59270388
 21
-85.71953579
 31
0.0
  0
ENDBLK
  5
93
100
AcDbEntity
  8
0
100
AcDbBlockEnd
  0
BLOCK
  5
94
100
AcDbEntity
  8
0
100
AcDbBlockBegin
  2
GROUP_2
 70
       0
 10
0.0
 20
0.0
 30
0.0
  3
GROUP_2
  1

  0
LINE
  5
95
100
AcDbEntity
  8
LAYER0001
  6
CONTINUOUS
 62
       7
100
AcDbLine
 10
-103.20269384
 20
-85.72097748
 30
0.0
 11
-103.22276066
 21
-85.72200013
 31
0.0
  0
LINE
  5
96
100
AcDbEntity
  8
LAYER0001
  6
CONTINUOUS
 62
       7
100
AcDbLine
 10
-103.22276066
 20
-85.72200013
 30
0.0
 11
-103.24270771
 21
-85.72355664
 31
0.0
  0
LINE
  5
97
100
AcDbEntity
  8
LAYER0001
  6
CONTINUOUS
 62
       7
100
AcDbLine
 10
-103.24270771
 20
-85.72355664
 30
0.0
 11
-103.2624152
 21
-85.72618087
 31
0.0
  0
LINE
  5
98
100
AcDbEntity
  8
LAYER0001
  6
CONTINUOUS
 62
       7
100
AcDbLine
 10
-103.2624152
 20
-85.72618087
 30
0.0
 11
-103.28176343
 21
-85.73040563
 31
0.0
  0
LINE
  5
99
100
AcDbEntity
  8
LAYER0001
  6
CONTINUOUS
 62
       7
100
AcDbLine
 10
-103.28176343
 20
-85.73040563
 30
0.0
 11
-103.30064812
 21
-85.73653689
 31
0.0
  0
LINE
  5
9A
100
AcDbEntity
  8
LAYER0001
  6
CONTINUOUS
 62
       7
100
AcDbLine
 10
-103.30064812
 20
-85.73653689
 30
0.0
 11
-103.31899961
 21
-85.74437168
 31
0.0
  0
LINE
  5
9B
100
AcDbEntity
  8
LAYER0001
  6
CONTINUOUS
 62
       7
100
AcDbLine
 10
-103.31899961
 20
-85.74437168
 30
0.0
 11
-103.33675294
 21
-85.75363776
 31
0.0
  0
LINE
  5
9C
100
AcDbEntity
  8
LAYER0001
  6
CONTINUOUS
 62
       7
100
AcDbLine
 10
-103.33675294
 20
-85.75363776
 30
0.0
 11
-103.35384317
 21
-85.76406287
 31
0.0
  0
LINE
  5
9D
100
AcDbEntity
  8
LAYER0001
  6
CONTINUOUS
 62
       7
100
AcDbLine
 10
-103.35384317
 20
-85.76406287
 30
0.0
 11
-103.37020331
 21
-85.77541019
 31
0.0
  0
LINE
  5
9E
100
AcDbEntity
  8
LAYER0001
  6
CONTINUOUS
 62
       7
100
AcDbLine
 10
-103.37020331
 20
-85.77541019
 30
0.0
 11
-103.38575633
 21
-85.78762003
 31
0.0
  0
LINE
  5
9F
100
AcDbEntity
  8
LAYER0001
  6
CONTINUOUS
 62
       7
100
AcDbLine
 10
-103.38575633
 20
-85.78762003
 30
0.0
 11
-103.40042201
 21
-85.80068789
 31
0.0
  0
LINE
  5
A0
100
AcDbEntity
  8
LAYER0001
  6
CONTINUOUS
 62
       7
100
AcDbLine
 10
-103.40042201
 20
-85.80068789
 30
0.0
 11
-103.4141201
 21
-85.81460816
 31
0.0
  0
LINE
  5
A1
100
AcDbEntity
  8
LAYER0001
  6
CONTINUOUS
 62
       7
100
AcDbLine
 10
-103.4141201
 20
-85.81460816
 30
0.0
 11
-103.42676552
 21
-85.82928381
 31
0.0
  0
LINE
  5
A2
100
AcDbEntity
  8
LAYER0001
  6
CONTINUOUS
 62
       7
100
AcDbLine
 10
-103.42676552
 20
-85.82928381
 30
0.0
 11
-103.43826495
 21
-85.84446213
 31
0.0
  0
LINE
  5
A3
100
AcDbEntity
  8
LAYER0001
  6
CONTINUOUS
 62
       7
100
AcDbLine
 10
-103.43826495
 20
-85.84446213
 30
0.0
 11
-103.44852439
 21
-85.85987491
 31
0.0
  0
LINE
  5
A4
100
AcDbEntity
  8
LAYER0001
  6
CONTINUOUS
 62
       7
100
AcDbLine
 10
-103.44852439
 20
-85.85987491
 30
0.0
 11
-103.45746926
 21
-85.87518587
 31
0.0
  0
LINE
  5
A5
100
AcDbEntity
  8
LAYER0001
  6
CONTINUOUS
 62
       7
100
AcDbLine
 10
-103.45746926
 20
-85.87518587
 30
0.0
 11
-103.46506833
 21
-85.8899071
 31
0.0
  0
LINE
  5
A6
100
AcDbEntity
  8
LAYER0001
  6
CONTINUOUS
 62
       7
100
AcDbLine
 10
-103.46506833
 20
-85.8899071
 30
0.0
 11
-103.47131081
 21
-85.90355659
 31
0.0
  0
LINE
  5
A7
100
AcDbEntity
  8
LAYER0001
  6
CONTINUOUS
 62
       7
100
AcDbLine
 10
-103.47131081
 20
-85.90355659
 30
0.0
 11
-103.47635468
 21
-85.91595806
 31
0.0
  0
LINE
  5
A8
100
AcDbEntity
  8
LAYER0001
  6
CONTINUOUS
 62
       7
100
AcDbLine
 10
-103.47635468
 20
-85.91595806
 30
0.0
 11
-103.48046529
 21
-85.92713731
 31
0.0
  0
LINE
  5
A9
100
AcDbEntity
  8
LAYER0001
  6
CONTINUOUS
 62
       7
100
AcDbLine
 10
-103.48046529
 20
-85.92713731
 30
0.0
 11
-103.48387974
 21
-85.93726886
 31
0.0
  0
LINE
  5
AA
100
AcDbEntity
  8
LAYER0001
  6
CONTINUOUS
 62
       7
100
AcDbLine
 10
-103.48387974
 20
-85.93726886
 30
0.0
 11
-103.48680295
 21
-85.94668277
 31
0.0
  0
LINE
  5
AB
100
AcDbEntity
  8
LAYER0001
  6
CONTINUOUS
 62
       7
100
AcDbLine
 10
-103.48680295
 20
-85.94668277
 30
0.0
 11
-103.4894322
 21
-85.95570805
 31
0.0
  0
LINE
  5
AC
100
AcDbEntity
  8
LAYER0001
  6
CONTINUOUS
 62
       7
100
AcDbLine
 10
-103.4894322
 20
-85.95570805
 30
0.0
 11
-103.49187378
 21
-85.96454341
 31
0.0
  0
LINE
  5
AD
100
AcDbEntity
  8
LAYER0001
  6
CONTINUOUS
 62
       7
100
AcDbLine
 10
-103.49187378
 20
-85.96454341
 30
0.0
 11
-103.4941641
 21
-85.97328744
 31
0.0
  0
LINE
  5
AE
100
AcDbEntity
  8
LAYER0001
  6
CONTINUOUS
 62
       7
100
AcDbLine
 10
-103.4941641
 20
-85.97328744
 30
0.0
 11
-103.49633773
 21
-85.98203614
 31
0.0
  0
LINE
  5
AF
100
AcDbEntity
  8
LAYER0001
  6
CONTINUOUS
 62
       7
100
AcDbLine
 10
-103.49633773
 20
-85.98203614
 30
0.0
 11
-103.49842928
 21
-85.99088552
 31
0.0
  0
LINE
  5
B0
100
AcDbEntity
  8
LAYER0001
  6
CONTINUOUS
 62
       7
100
AcDbLine
 10
-103.49842928
 20
-85.99088552
 30
0.0
 11
-103.50047334
 21
-85.9999316
 31
0.0
  0
LINE
  5
B1
100
AcDbEntity
  8
LAYER0001
  6
CONTINUOUS
 62
       7
100
AcDbLine
 10
-103.50047334
 20
-85.9999316
 30
0.0
 11
-103.5025045
 21
-86.00927038
 31
0.0
  0
LINE
  5
B2
100
AcDbEntity
  8
LAYER0001
  6
CONTINUOUS
 62
       7
100
AcDbLine
 10
-103.5025045
 20
-86.00927038
 30
0.0
 11
-103.50455193
 21
-86.0189837
 31
0.0
  0
LINE
  5
B3
100
AcDbEntity
  8
LAYER0001
  6
CONTINUOUS
 62
       7
100
AcDbLine
 10
-103.50455193
 20
-86.0189837
 30
0.0
 11
-103.50661957
 21
-86.02908753
 31
0.0
  0
LINE
  5
B4
100
AcDbEntity
  8
LAYER0001
  6
CONTINUOUS
 62
       7
100
AcDbLine
 10
-103.50661957
 20
-86.02908753
 30
0.0
 11
-103.50870403
 21
-86.03957874
 31
0.0
  0
LINE
  5
B5
100
AcDbEntity
  8
LAYER0001
  6
CONTINUOUS
 62
       7
100
AcDbLine
 10
-103.50870403
 20
-86.03957874
 30
0.0
 11
-103.51080194
 21
-86.05045417
 31
0.0
  0
LINE
  5
B6
100
AcDbEntity
  8
LAYER0001
  6
CONTINUOUS
 62
       7
100
AcDbLine
 10
-103.51080194
 20
-86.05045417
 30
0.0
 11
-103.5129099
 21
-86.06171069
 31
0.0
  0
LINE
  5
B7
100
AcDbEntity
  8
LAYER0001
  6
CONTINUOUS
 62
       7
100
AcDbLine
 10
-103.5129099
 20
-86.06171069
 30
0.0
 11
-103.51502455
 21
-86.07334515
 31
0.0
  0
LINE
  5
B8
100
AcDbEntity
  8
LAYER0001
  6
CONTINUOUS
 62
       7
100
AcDbLine
 10
-103.51502455
 20
-86.07334515
 30
0.0
 11
-103.5171425
 21
-86.08535441
 31
0.0
  0
LINE
  5
B9
100
AcDbEntity
  8
LAYER0001
  6
CONTINUOUS
 62
       7
100
AcDbLine
 10
-103.5171425
 20
-86.08535441
 30
0.0
 11
-103.51926036
 21
-86.09773532
 31
0.0
  0
LINE
  5
BA
100
AcDbEntity
  8
LAYER0001
  6
CONTINUOUS
 62
       7
100
AcDbLine
 10
-103.51926036
 20
-86.09773532
 30
0.0
 11
-103.52137475
 21
-86.11048475
 31
0.0
  0
LINE
  5
BB
100
AcDbEntity
  8
LAYER0001
  6
CONTINUOUS
 62
       7
100
AcDbLine
 10
-103.52137475
 20
-86.11048475
 30
0.0
 11
-103.5234823
 21
-86.12359955
 31
0.0
  0
LINE
  5
BC
100
AcDbEntity
  8
LAYER0001
  6
CONTINUOUS
 62
       7
100
AcDbLine
 10
-103.5234823
 20
-86.12359955
 30
0.0
 11
-103.52557962
 21
-86.13707658
 31
0.0
  0
LINE
  5
BD
100
AcDbEntity
  8
LAYER0001
  6
CONTINUOUS
 62
       7
100
AcDbLine
 10
-103.52557962
 20
-86.13707658
 30
0.0
 11
-103.52766333
 21
-86.1509127
 31
0.0
  0
LINE
  5
BE
100
AcDbEntity
  8
LAYER0001
  6
CONTINUOUS
 62
       7
100
AcDbLine
 10
-103.52766333
 20
-86.1509127
 30
0.0
 11
-103.52973005
 21
-86.16510475
 31
0.0
  0
LINE
  5
BF
100
AcDbEntity
  8
LAYER0001
  6
CONTINUOUS
 62
       7
100
AcDbLine
 10
-103.52973005
 20
-86.16510475
 30
0.0
 11
-103.53177639
 21
-86.17964961
 31
0.0
  0
LINE
  5
C0
100
AcDbEntity
  8
LAYER0001
  6
CONTINUOUS
 62
       7
100
AcDbLine
 10
-103.53177639
 20
-86.17964961
 30
0.0
 11
-103.53379898
 21
-86.19454412
 31
0.0
  0
LINE
  5
C1
100
AcDbEntity
  8
LAYER0001
  6
CONTINUOUS
 62
       7
100
AcDbLine
 10
-103.53379898
 20
-86.19454412
 30
0.0
 11
-103.5357945
 21
-86.20978419
 31
0.0
  0
LINE
  5
C2
100
AcDbEntity
  8
LAYER0001
  6
CONTINUOUS
 62
       7
100
AcDbLine
 10
-103.5357945
 20
-86.20978419
 30
0.0
 11
-103.53776004
 21
-86.22536057
 31
0.0
  0
LINE
  5
C3
100
AcDbEntity
  8
LAYER0001
  6
CONTINUOUS
 62
       7
100
AcDbLine
 10
-103.53776004
 20
-86.22536057
 30
0.0
 11
-103.53969283
 21
-86.24126224
 31
0.0
  0
LINE
  5
C4
100
AcDbEntity
  8
LAYER0001
  6
CONTINUOUS
 62
       7
100
AcDbLine
 10
-103.53969283
 20
-86.24126224
 30
0.0
 11
-103.5415901
 21
-86.25747819
 31
0.0
  0
LINE
  5
C5
100
AcDbEntity
  8
LAYER0001
  6
CONTINUOUS
 62
       7
100
AcDbLine
 10
-103.5415901
 20
-86.25747819
 30
0.0
 11
-103.54344906
 21
-86.27399742
 31
0.0
  0
LINE
  5
C6
100
AcDbEntity
  8
LAYER0001
  6
CONTINUOUS
 62
       7
100
AcDbLine
 10
-103.54344906
 20
-86.27399742
 30
0.0
 11
-103.54526695
 21
-86.29080891
 31
0.0
  0
LINE
  5
C7
100
AcDbEntity
  8
LAYER0001
  6
CONTINUOUS
 62
       7
100
AcDbLine
 10
-103.54526695
 20
-86.29080891
 30
0.0
 11
-103.54704098
 21
-86.30790166
 31
0.0
  0
LINE
  5
C8
100
AcDbEntity
  8
LAYER0001
  6
CONTINUOUS
 62
       7
100
AcDbLine
 10
-103.54704098
 20
-86.30790166
 30
0.0
 11
-103.54876838
 21
-86.32526465
 31
0.0
  0
LINE
  5
C9
100
AcDbEntity
  8
LAYER0001
  6
CONTINUOUS
 62
       7
100
AcDbLine
 10
-103.54876838
 20
-86.32526465
 30
0.0
 11
-103.55044638
 21
-86.34288688
 31
0.0
  0
LINE
  5
CA
100
AcDbEntity
  8
LAYER0001
  6
CONTINUOUS
 62
       7
100
AcDbLine
 10
-103.55044638
 20
-86.34288688
 30
0.0
 11
-103.5520722
 21
-86.36075734
 31
0.0
  0
LINE
  5
CB
100
AcDbEntity
  8
LAYER0001
  6
CONTINUOUS
 62
       7
100
AcDbLine
 10
-103.5520722
 20
-86.36075734
 30
0.0
 11
-103.55364306
 21
-86.37886502
 31
0.0
  0
LINE
  5
CC
100
AcDbEntity
  8
LAYER0001
  6
CONTINUOUS
 62
       7
100
AcDbLine
 10
-103.55364306
 20
-86.37886502
 30
0.0
 11
-103.55515618
 21
-86.39719891
 31
0.0
  0
LINE
  5
CD
100
AcDbEntity
  8
LAYER0001
  6
CONTINUOUS
 62
       7
100
AcDbLine
 10
-103.55515618
 20
-86.39719891
 30
0.0
 11
-103.5566088
 21
-86.415748
 31
0.0
  0
LINE
  5
CE
100
AcDbEntity
  8
LAYER0001
  6
CONTINUOUS
 62
       7
100
AcDbLine
 10
-103.5566088
 20
-86.415748
 30
0.0
 11
-103.55799814
 21
-86.43450128
 31
0.0
  0
LINE
  5
CF
100
AcDbEntity
  8
LAYER0001
  6
CONTINUOUS
 62
       7
100
AcDbLine
 10
-103.55799814
 20
-86.43450128
 30
0.0
 11
-103.55932112
 21
-86.45344721
 31
0.0
  0
LINE
  5
D0
100
AcDbEntity
  8
LAYER0001
  6
CONTINUOUS
 62
       7
100
AcDbLine
 10
-103.55932112
 20
-86.45344721
 30
0.0
 11
-103.56057278
 21
-86.47257089
 31
0.0
  0
LINE
  5
D1
100
AcDbEntity
  8
LAYER0001
  6
CONTINUOUS
 62
       7
100
AcDbLine
 10
-103.56057278
 20
-86.47257089
 30
0.0
 11
-103.56174738
 21
-86.49185604
 31
0.0
  0
LINE
  5
D2
100
AcDbEntity
  8
LAYER0001
  6
CONTINUOUS
 62
       7
100
AcDbLine
 10
-103.56174738
 20
-86.49185604
 30
0.0
 11
-103.56283919
 21
-86.51128637
 31
0.0
  0
LINE
  5
D3
100
AcDbEntity
  8
LAYER0001
  6
CONTINUOUS
 62
       7
100
AcDbLine
 10
-103.56283919
 20
-86.51128637
 30
0.0
 11
-103.56384246
 21
-86.53084562
 31
0.0
  0
LINE
  5
D4
100
AcDbEntity
  8
LAYER0001
  6
CONTINUOUS
 62
       7
100
AcDbLine
 10
-103.56384246
 20
-86.53084562
 30
0.0
 11
-103.56475145
 21
-86.55051749
 31
0.0
  0
LINE
  5
D5
100
AcDbEntity
  8
LAYER0001
  6
CONTINUOUS
 62
       7
100
AcDbLine
 10
-103.56475145
 20
-86.55051749
 30
0.0
 11
-103.56556044
 21
-86.57028571
 31
0.0
  0
LINE
  5
D6
100
AcDbEntity
  8
LAYER0001
  6
CONTINUOUS
 62
       7
100
AcDbLine
 10
-103.56556044
 20
-86.57028571
 30
0.0
 11
-103.56626368
 21
-86.590134
 31
0.0
  0
LINE
  5
D7
100
AcDbEntity
  8
LAYER0001
  6
CONTINUOUS
 62
       7
100
AcDbLine
 10
-103.56626368
 20
-86.590134
 30
0.0
 11
-103.56685544
 21
-86.61004609
 31
0.0
  0
LINE
  5
D8
100
AcDbEntity
  8
LAYER0001
  6
CONTINUOUS
 62
       7
100
AcDbLine
 10
-103.56685544
 20
-86.61004609
 30
0.0
 11
-103.56732998
 21
-86.63000569
 31
0.0
  0
LINE
  5
D9
100
AcDbEntity
  8
LAYER0001
  6
CONTINUOUS
 62
       7
100
AcDbLine
 10
-103.56732998
 20
-86.63000569
 30
0.0
 11
-103.56768155
 21
-86.64999652
 31
0.0
  0
LINE
  5
DA
100
AcDbEntity
  8
LAYER0001
  6
CONTINUOUS
 62
       7
100
AcDbLine
 10
-103.56768155
 20
-86.64999652
 30
0.0
 11
-103.56790443
 21
-86.67000231
 31
0.0
  0
LINE
  5
DB
100
AcDbEntity
  8
LAYER0001
  6
CONTINUOUS
 62
       7
100
AcDbLine
 10
-103.56790443
 20
-86.67000231
 30
0.0
 11
-103.56799288
 21
-86.69000677
 31
0.0
  0
LINE
  5
DC
100
AcDbEntity
  8
LAYER0001
  6
CONTINUOUS
 62
       7
100
AcDbLine
 10
-103.56799288
 20
-86.69000677
 30
0.0
 11
-103.56794115
 21
-86.70999363
 31
0.0
  0
LINE
  5
DD
100
AcDbEntity
  8
LAYER0001
  6
CONTINUOUS
 62
       7
100
AcDbLine
 10
-103.56794115
 20
-86.70999363
 30
0.0
 11
-103.56774352
 21
-86.72994661
 31
0.0
  0
LINE
  5
DE
100
AcDbEntity
  8
LAYER0001
  6
CONTINUOUS
 62
       7
100
AcDbLine
 10
-103.56774352
 20
-86.72994661
 30
0.0
 11
-103.56740394
 21
-86.74985434
 31
0.0
  0
LINE
  5
DF
100
AcDbEntity
  8
LAYER0001
  6
CONTINUOUS
 62
       7
100
AcDbLine
 10
-103.56740394
 20
-86.74985434
 30
0.0
 11
-103.56698311
 21
-86.76973424
 31
0.0
  0
ENDBLK
  5
E0
100
AcDbEntity
  8
0
100
AcDbBlockEnd
  0
BLOCK
  5
E1
100
AcDbEntity
  8
0
100
AcDbBlockBegin
  2
GROUP_3
 70
       0
 10
0.0
 20
0.0
 30
0.0
  3
GROUP_3
  1

  0
LINE
  5
E2
100
AcDbEntity
  8
LAYER0001
  6
CONTINUOUS
 62
       7
100
AcDbLine
 10
-101.58330672
 20
-92.01288755
 30
0.0
 11
-101.56322583
 21
-92.01187325
 31
0.0
  0
LINE
  5
E3
100
AcDbEntity
  8
LAYER0001
  6
CONTINUOUS
 62
       7
100
AcDbLine
 10
-101.56322583
 20
-92.01187325
 30
0.0
 11
-101.54326282
 21
-92.01033357
 31
0.0
  0
LINE
  5
E4
100
AcDbEntity
  8
LAYER0001
  6
CONTINUOUS
 62
       7
100
AcDbLine
 10
-101.54326282
 20
-92.01033357
 30
0.0
 11
-101.52353556
 21
-92.00774313
 31
0.0
  0
LINE
  5
E5
100
AcDbEntity
  8
LAYER0001
  6
CONTINUOUS
 62
       7
100
AcDbLine
 10
-101.52353556
 20
-92.00774313
 30
0.0
 11
-101.50416189
 21
-92.00357704
 31
0.0
  0
LINE
  5
E6
100
AcDbEntity
  8
LAYER0001
  6
CONTINUOUS
 62
       7
100
AcDbLine
 10
-101.50416189
 20
-92.00357704
 30
0.0
 11
-101.48524643
 21
-91.99751258
 31
0.0
  0
LINE
  5
E7
100
AcDbEntity
  8
LAYER0001
  6
CONTINUOUS
 62
       7
100
AcDbLine
 10
-101.48524643
 20
-91.99751258
 30
0.0
 11
-101.46686029
 21
-91.98973898
 31
0.0
  0
LINE
  5
E8
100
AcDbEntity
  8
LAYER0001
  6
CONTINUOUS
 62
       7
100
AcDbLine
 10
-101.46686029
 20
-91.98973898
 30
0.0
 11
-101.44906936
 21
-91.98052532
 31
0.0
  0
LINE
  5
E9
100
AcDbEntity
  8
LAYER0001
  6
CONTINUOUS
 62
       7
100
AcDbLine
 10
-101.44906936
 20
-91.98052532
 30
0.0
 11
-101.43193955
 21
-91.97014067
 31
0.0
  0
LINE
  5
EA
100
AcDbEntity
  8
LAYER0001
  6
CONTINUOUS
 62
       7
100
AcDbLine
 10
-101.43193955
 20
-91.97014067
 30
0.0
 11
-101.41553838
 21
-91.9588236
 31
0.0
  0
LINE
  5
EB
100
AcDbEntity
  8
LAYER0001
  6
CONTINUOUS
 62
       7
100
AcDbLine
 10
-101.41553838
 20
-91.9588236
 30
0.0
 11
-101.39994265
 21
-91.94664037
 31
0.0
  0
LINE
  5
EC
100
AcDbEntity
  8
LAYER0001
  6
CONTINUOUS
 62
       7
100
AcDbLine
 10
-101.39994265
 20
-91.94664037
 30
0.0
 11
-101.38523242
 21
-91.93359677
 31
0.0
  0
LINE
  5
ED
100
AcDbEntity
  8
LAYER0001
  6
CONTINUOUS
 62
       7
100
AcDbLine
 10
-101.38523242
 20
-91.93359677
 30
0.0
 11
-101.37148778
 21
-91.91969928
 31
0.0
  0
LINE
  5
EE
100
AcDbEntity
  8
LAYER0001
  6
CONTINUOUS
 62
       7
100
AcDbLine
 10
-101.37148778
 20
-91.91969928
 30
0.0
 11
-101.35879345
 21
-91.90503877
 31
0.0
  0
LINE
  5
EF
100
AcDbEntity
  8
LAYER0001
  6
CONTINUOUS
 62
       7
100
AcDbLine
 10
-101.35879345
 20
-91.90503877
 30
0.0
 11
-101.34724285
 21
-91.88986546
 31
0.0
  0
LINE
  5
F0
100
AcDbEntity
  8
LAYER0001
  6
CONTINUOUS
 62
       7
100
AcDbLine
 10
-101.34724285
 20
-91.88986546
 30
0.0
 11
-101.33693033
 21
-91.87444748
 31
0.0
  0
LINE
  5
F1
100
AcDbEntity
  8
LAYER0001
  6
CONTINUOUS
 62
       7
100
AcDbLine
 10
-101.33693033
 20
-91.87444748
 30
0.0
 11
-101.3279323
 21
-91.85911576
 31
0.0
  0
LINE
  5
F2
100
AcDbEntity
  8
LAYER0001
  6
CONTINUOUS
 62
       7
100
AcDbLine
 10
-101.3279323
 20
-91.85911576
 30
0.0
 11
-101.32028085
 21
-91.8443562
 31
0.0
  0
LINE
  5
F3
100
AcDbEntity
  8
LAYER0001
  6
CONTINUOUS
 62
       7
100
AcDbLine
 10
-101.32028085
 20
-91.8443562
 30
0.0
 11
-101.31398891
 21
-91.83065563
 31
0.0
  0
LINE
  5
F4
100
AcDbEntity
  8
LAYER0001
  6
CONTINUOUS
 62
       7
100
AcDbLine
 10
-101.31398891
 20
-91.83065563
 30
0.0
 11
-101.3089056
 21
-91.81820428
 31
0.0
  0
LINE
  5
F5
100
AcDbEntity
  8
LAYER0001
  6
CONTINUOUS
 62
       7
100
AcDbLine
 10
-101.3089056
 20
-91.81820428
 30
0.0
 11
-101.30476546
 21
-91.80697871
 31
0.0
  0
LINE
  5
F6
100
AcDbEntity
  8
LAYER0001
  6
CONTINUOUS
 62
       7
100
AcDbLine
 10
-101.30476546
 20
-91.80697871
 30
0.0
 11
-101.30132935
 21
-91.796812
 31
0.0
  0
LINE
  5
F7
100
AcDbEntity
  8
LAYER0001
  6
CONTINUOUS
 62
       7
100
AcDbLine
 10
-101.30132935
 20
-91.796812
 30
0.0
 11
-101.29839167
 21
-91.78737486
 31
0.0
  0
LINE
  5
F8
100
AcDbEntity
  8
LAYER0001
  6
CONTINUOUS
 62
       7
100
AcDbLine
 10
-101.29839167
 20
-91.78737486
 30
0.0
 11
-101.29575391
 21
-91.77833623
 31
0.0
  0
LINE
  5
F9
100
AcDbEntity
  8
LAYER0001
  6
CONTINUOUS
 62
       7
100
AcDbLine
 10
-101.29575391
 20
-91.77833623
 30
0.0
 11
-101.29330559
 21
-91.76949128
 31
0.0
  0
LINE
  5
FA
100
AcDbEntity
  8
LAYER0001
  6
CONTINUOUS
 62
       7
100
AcDbLine
 10
-101.29330559
 20
-91.76949128
 30
0.0
 11
-101.2910098
 21
-91.76074062
 31
0.0
  0
LINE
  5
FB
100
AcDbEntity
  8
LAYER0001
  6
CONTINUOUS
 62
       7
100
AcDbLine
 10
-101.2910098
 20
-91.76074062
 30
0.0
 11
-101.28883189
 21
-91.75198809
 31
0.0
  0
LINE
  5
FC
100
AcDbEntity
  8
LAYER0001
  6
CONTINUOUS
 62
       7
100
AcDbLine
 10
-101.28883189
 20
-91.75198809
 30
0.0
 11
-101.28673718
 21
-91.74313754
 31
0.0
  0
LINE
  5
FD
100
AcDbEntity
  8
LAYER0001
  6
CONTINUOUS
 62
       7
100
AcDbLine
 10
-101.28673718
 20
-91.74313754
 30
0.0
 11
-101.28469103
 21
-91.7340928
 31
0.0
  0
LINE
  5
FE
100
AcDbEntity
  8
LAYER0001
  6
CONTINUOUS
 62
       7
100
AcDbLine
 10
-101.28469103
 20
-91.7340928
 30
0.0
 11
-101.28265878
 21
-91.72475774
 31
0.0
  0
LINE
  5
FF
100
AcDbEntity
  8
LAYER0001
  6
CONTINUOUS
 62
       7
100
AcDbLine
 10
-101.28265878
 20
-91.72475774
 30
0.0
 11
-101.28061073
 21
-91.71504917
 31
0.0
  0
LINE
  5
100
100
AcDbEntity
  8
LAYER0001
  6
CONTINUOUS
 62
       7
100
AcDbLine
 10
-101.28061073
 20
-91.71504917
 30
0.0
 11
-101.27854236
 21
-91.70494958
 31
0.0
  0
LINE
  5
101
100
AcDbEntity
  8
LAYER0001
  6
CONTINUOUS
 62
       7
100
AcDbLine
 10
-101.27854236
 20
-91.70494958
 30
0.0
 11
-101.27645705
 21
-91.69446209
 31
0.0
  0
LINE
  5
102
100
AcDbEntity
  8
LAYER0001
  6
CONTINUOUS
 62
       7
100
AcDbLine
 10
-101.27645705
 20
-91.69446209
 30
0.0
 11
-101.27435819
 21
-91.68358985
 31
0.0
  0
LINE
  5
103
100
AcDbEntity
  8
LAYER0001
  6
CONTINUOUS
 62
       7
100
AcDbLine
 10
-101.27435819
 20
-91.68358985
 30
0.0
 11
-101.27224917
 21
-91.67233602
 31
0.0
  0
LINE
  5
104
100
AcDbEntity
  8
LAYER0001
  6
CONTINUOUS
 62
       7
100
AcDbLine
 10
-101.27224917
 20
-91.67233602
 30
0.0
 11
-101.27013338
 21
-91.66070373
 31
0.0
  0
LINE
  5
105
100
AcDbEntity
  8
LAYER0001
  6
CONTINUOUS
 62
       7
100
AcDbLine
 10
-101.27013338
 20
-91.66070373
 30
0.0
 11
-101.2680142
 21
-91.64869613
 31
0.0
  0
LINE
  5
106
100
AcDbEntity
  8
LAYER0001
  6
CONTINUOUS
 62
       7
100
AcDbLine
 10
-101.2680142
 20
-91.64869613
 30
0.0
 11
-101.26589502
 21
-91.63631636
 31
0.0
  0
LINE
  5
107
100
AcDbEntity
  8
LAYER0001
  6
CONTINUOUS
 62
       7
100
AcDbLine
 10
-101.26589502
 20
-91.63631636
 30
0.0
 11
-101.26377923
 21
-91.62356758
 31
0.0
  0
LINE
  5
108
100
AcDbEntity
  8
LAYER0001
  6
CONTINUOUS
 62
       7
100
AcDbLine
 10
-101.26377923
 20
-91.62356758
 30
0.0
 11
-101.26167022
 21
-91.61045292
 31
0.0
  0
LINE
  5
109
100
AcDbEntity
  8
LAYER0001
  6
CONTINUOUS
 62
       7
100
AcDbLine
 10
-101.26167022
 20
-91.61045292
 30
0.0
 11
-101.25957138
 21
-91.59697554
 31
0.0
  0
LINE
  5
10A
100
AcDbEntity
  8
LAYER0001
  6
CONTINUOUS
 62
       7
100
AcDbLine
 10
-101.25957138
 20
-91.59697554
 30
0.0
 11
-101.2574861
 21
-91.58313858
 31
0.0
  0
LINE
  5
10B
100
AcDbEntity
  8
LAYER0001
  6
CONTINUOUS
 62
       7
100
AcDbLine
 10
-101.2574861
 20
-91.58313858
 30
0.0
 11
-101.25541775
 21
-91.56894519
 31
0.0
  0
LINE
  5
10C
100
AcDbEntity
  8
LAYER0001
  6
CONTINUOUS
 62
       7
100
AcDbLine
 10
-101.25541775
 20
-91.56894519
 30
0.0
 11
-101.25336974
 21
-91.5543985
 31
0.0
  0
LINE
  5
10D
100
AcDbEntity
  8
LAYER0001
  6
CONTINUOUS
 62
       7
100
AcDbLine
 10
-101.25336974
 20
-91.5543985
 30
0.0
 11
-101.25134546
 21
-91.53950168
 31
0.0
  0
LINE
  5
10E
100
AcDbEntity
  8
LAYER0001
  6
CONTINUOUS
 62
       7
100
AcDbLine
 10
-101.25134546
 20
-91.53950168
 30
0.0
 11
-101.24934821
 21
-91.52425875
 31
0.0
  0
LINE
  5
10F
100
AcDbEntity
  8
LAYER0001
  6
CONTINUOUS
 62
       7
100
AcDbLine
 10
-101.24934821
 20
-91.52425875
 30
0.0
 11
-101.24738092
 21
-91.50867891
 31
0.0
  0
LINE
  5
110
100
AcDbEntity
  8
LAYER0001
  6
CONTINUOUS
 62
       7
100
AcDbLine
 10
-101.24738092
 20
-91.50867891
 30
0.0
 11
-101.24544638
 21
-91.49277319
 31
0.0
  0
LINE
  5
111
100
AcDbEntity
  8
LAYER0001
  6
CONTINUOUS
 62
       7
100
AcDbLine
 10
-101.24544638
 20
-91.49277319
 30
0.0
 11
-101.24354736
 21
-91.47655261
 31
0.0
  0
LINE
  5
112
100
AcDbEntity
  8
LAYER0001
  6
CONTINUOUS
 62
       7
100
AcDbLine
 10
-101.24354736
 20
-91.47655261
 30
0.0
 11
-101.24168664
 21
-91.46002821
 31
0.0
  0
LINE
  5
113
100
AcDbEntity
  8
LAYER0001
  6
CONTINUOUS
 62
       7
100
AcDbLine
 10
-101.24168664
 20
-91.46002821
 30
0.0
 11
-101.23986701
 21
-91.44321101
 31
0.0
  0
LINE
  5
114
100
AcDbEntity
  8
LAYER0001
  6
CONTINUOUS
 62
       7
100
AcDbLine
 10
-101.23986701
 20
-91.44321101
 30
0.0
 11
-101.23809124
 21
-91.42611205
 31
0.0
  0
LINE
  5
115
100
AcDbEntity
  8
LAYER0001
  6
CONTINUOUS
 62
       7
100
AcDbLine
 10
-101.23809124
 20
-91.42611205
 30
0.0
 11
-101.23636212
 21
-91.40874235
 31
0.0
  0
LINE
  5
116
100
AcDbEntity
  8
LAYER0001
  6
CONTINUOUS
 62
       7
100
AcDbLine
 10
-101.23636212
 20
-91.40874235
 30
0.0
 11
-101.23468243
 21
-91.39111295
 31
0.0
  0
LINE
  5
117
100
AcDbEntity
  8
LAYER0001
  6
CONTINUOUS
 62
       7
100
AcDbLine
 10
-101.23468243
 20
-91.39111295
 30
0.0
 11
-101.23305494
 21
-91.37323488
 31
0.0
  0
LINE
  5
118
100
AcDbEntity
  8
LAYER0001
  6
CONTINUOUS
 62
       7
100
AcDbLine
 10
-101.23305494
 20
-91.37323488
 30
0.0
 11
-101.23148244
 21
-91.35511916
 31
0.0
  0
LINE
  5
119
100
AcDbEntity
  8
LAYER0001
  6
CONTINUOUS
 62
       7
100
AcDbLine
 10
-101.23148244
 20
-91.35511916
 30
0.0
 11
-101.22996771
 21
-91.33677682
 31
0.0
  0
LINE
  5
11A
100
AcDbEntity
  8
LAYER0001
  6
CONTINUOUS
 62
       7
100
AcDbLine
 10
-101.22996771
 20
-91.33677682
 30
0.0
 11
-101.22851353
 21
-91.31821891
 31
0.0
  0
LINE
  5
11B
100
AcDbEntity
  8
LAYER0001
  6
CONTINUOUS
 62
       7
100
AcDbLine
 10
-101.22851353
 20
-91.31821891
 30
0.0
 11
-101.22712267
 21
-91.29945643
 31
0.0
  0
LINE
  5
11C
100
AcDbEntity
  8
LAYER0001
  6
CONTINUOUS
 62
       7
100
AcDbLine
 10
-101.22712267
 20
-91.29945643
 30
0.0
 11
-101.22579821
 21
-91.28050094
 31
0.0
  0
LINE
  5
11D
100
AcDbEntity
  8
LAYER0001
  6
CONTINUOUS
 62
       7
100
AcDbLine
 10
-101.22579821
 20
-91.28050094
 30
0.0
 11
-101.2245451
 21
-91.26136733
 31
0.0
  0
LINE
  5
11E
100
AcDbEntity
  8
LAYER0001
  6
CONTINUOUS
 62
       7
100
AcDbLine
 10
-101.2245451
 20
-91.26136733
 30
0.0
 11
-101.22336909
 21
-91.24207192
 31
0.0
  0
LINE
  5
11F
100
AcDbEntity
  8
LAYER0001
  6
CONTINUOUS
 62
       7
100
AcDbLine
 10
-101.22336909
 20
-91.24207192
 30
0.0
 11
-101.22227593
 21
-91.22263101
 31
0.0
  0
LINE
  5
120
100
AcDbEntity
  8
LAYER0001
  6
CONTINUOUS
 62
       7
100
AcDbLine
 10
-101.22227593
 20
-91.22263101
 30
0.0
 11
-101.22127137
 21
-91.20306091
 31
0.0
  0
LINE
  5
121
100
AcDbEntity
  8
LAYER0001
  6
CONTINUOUS
 62
       7
100
AcDbLine
 10
-101.22127137
 20
-91.20306091
 30
0.0
 11
-101.22036115
 21
-91.18337793
 31
0.0
  0
LINE
  5
122
100
AcDbEntity
  8
LAYER0001
  6
CONTINUOUS
 62
       7
100
AcDbLine
 10
-101.22036115
 20
-91.18337793
 30
0.0
 11
-101.21955102
 21
-91.16359837
 31
0.0
  0
LINE
  5
123
100
AcDbEntity
  8
LAYER0001
  6
CONTINUOUS
 62
       7
100
AcDbLine
 10
-101.21955102
 20
-91.16359837
 30
0.0
 11
-101.21884673
 21
-91.14373855
 31
0.0
  0
LINE
  5
124
100
AcDbEntity
  8
LAYER0001
  6
CONTINUOUS
 62
       7
100
AcDbLine
 10
-101.21884673
 20
-91.14373855
 30
0.0
 11
-101.21825403
 21
-91.12381478
 31
0.0
  0
LINE
  5
125
100
AcDbEntity
  8
LAYER0001
  6
CONTINUOUS
 62
       7
100
AcDbLine
 10
-101.21825403
 20
-91.12381478
 30
0.0
 11
-101.21777866
 21
-91.10384335
 31
0.0
  0
LINE
  5
126
100
AcDbEntity
  8
LAYER0001
  6
CONTINUOUS
 62
       7
100
AcDbLine
 10
-101.21777866
 20
-91.10384335
 30
0.0
 11
-101.21742638
 21
-91.08384059
 31
0.0
  0
LINE
  5
127
100
AcDbEntity
  8
LAYER0001
  6
CONTINUOUS
 62
       7
100
AcDbLine
 10
-101.21742638
 20
-91.08384059
 30
0.0
 11
-101.21720293
 21
-91.06382279
 31
0.0
  0
LINE
  5
128
100
AcDbEntity
  8
LAYER0001
  6
CONTINUOUS
 62
       7
100
AcDbLine
 10
-101.21720293
 20
-91.06382279
 30
0.0
 11
-101.21711406
 21
-91.04380627
 31
0.0
  0
LINE
  5
129
100
AcDbEntity
  8
LAYER0001
  6
CONTINUOUS
 62
       7
100
AcDbLine
 10
-101.21711406
 20
-91.04380627
 30
0.0
 11
-101.21716551
 21
-91.02380733
 31
0.0
  0
LINE
  5
12A
100
AcDbEntity
  8
LAYER0001
  6
CONTINUOUS
 62
       7
100
AcDbLine
 10
-101.21716551
 20
-91.02380733
 30
0.0
 11
-101.21736304
 21
-91.00384229
 31
0.0
  0
LINE
  5
12B
100
AcDbEntity
  8
LAYER0001
  6
CONTINUOUS
 62
       7
100
AcDbLine
 10
-101.21736304
 20
-91.00384229
 30
0.0
 11
-101.21770271
 21
-90.98392254
 31
0.0
  0
LINE
  5
12C
100
AcDbEntity
  8
LAYER0001
  6
CONTINUOUS
 62
       7
100
AcDbLine
 10
-101.21770271
 20
-90.98392254
 30
0.0
 11
-101.21812378
 21
-90.96403067
 31
0.0
  0
ENDBLK
  5
12D
100
AcDbEntity
  8
0
100
AcDbBlockEnd
  0
BLOCK
  5
12E
100
AcDbEntity
  8
0
100
AcDbBlockBegin
  2
GROUP_4
 70
       0
 10
0.0
 20
0.0
 30
0.0
  3
GROUP_4
  1

  0
LINE
  5
12F
100
AcDbEntity
  8
LAYER0001
  6
CONTINUOUS
 62
       7
100
AcDbLine
 10
-103.56681082
 20
-91.01688416
 30
0.0
 11
-103.56645118
 21
-91.03947394
 31
0.0
  0
LINE
  5
130
100
AcDbEntity
  8
LAYER0001
  6
CONTINUOUS
 62
       7
100
AcDbLine
 10
-103.56645118
 20
-91.03947394
 30
0.0
 11
-103.56607965
 21
-91.06204518
 31
0.0
  0
LINE
  5
131
100
AcDbEntity
  8
LAYER0001
  6
CONTINUOUS
 62
       7
100
AcDbLine
 10
-103.56607965
 20
-91.06204518
 30
0.0
 11
-103.56568432
 21
-91.08457935
 31
0.0
  0
LINE
  5
132
100
AcDbEntity
  8
LAYER0001
  6
CONTINUOUS
 62
       7
100
AcDbLine
 10
-103.56568432
 20
-91.08457935
 30
0.0
 11
-103.5652533
 21
-91.1070579
 31
0.0
  0
LINE
  5
133
100
AcDbEntity
  8
LAYER0001
  6
CONTINUOUS
 62
       7
100
AcDbLine
 10
-103.5652533
 20
-91.1070579
 30
0.0
 11
-103.56477469
 21
-91.12946231
 31
0.0
  0
LINE
  5
134
100
AcDbEntity
  8
LAYER0001
  6
CONTINUOUS
 62
       7
100
AcDbLine
 10
-103.56477469
 20
-91.12946231
 30
0.0
 11
-103.56423658
 21
-91.15177404
 31
0.0
  0
LINE
  5
135
100
AcDbEntity
  8
LAYER0001
  6
CONTINUOUS
 62
       7
100
AcDbLine
 10
-103.56423658
 20
-91.15177404
 30
0.0
 11
-103.56362709
 21
-91.17397455
 31
0.0
  0
LINE
  5
136
100
AcDbEntity
  8
LAYER0001
  6
CONTINUOUS
 62
       7
100
AcDbLine
 10
-103.56362709
 20
-91.17397455
 30
0.0
 11
-103.56293432
 21
-91.19604531
 31
0.0
  0
LINE
  5
137
100
AcDbEntity
  8
LAYER0001
  6
CONTINUOUS
 62
       7
100
AcDbLine
 10
-103.56293432
 20
-91.19604531
 30
0.0
 11
-103.56214636
 21
-91.21796777
 31
0.0
  0
LINE
  5
138
100
AcDbEntity
  8
LAYER0001
  6
CONTINUOUS
 62
       7
100
AcDbLine
 10
-103.56214636
 20
-91.21796777
 30
0.0
 11
-103.56125131
 21
-91.2397234
 31
0.0
  0
LINE
  5
139
100
AcDbEntity
  8
LAYER0001
  6
CONTINUOUS
 62
       7
100
AcDbLine
 10
-103.56125131
 20
-91.2397234
 30
0.0
 11
-103.56023729
 21
-91.26129367
 31
0.0
  0
LINE
  5
13A
100
AcDbEntity
  8
LAYER0001
  6
CONTINUOUS
 62
       7
100
AcDbLine
 10
-103.56023729
 20
-91.26129367
 30
0.0
 11
-103.55909239
 21
-91.28266003
 31
0.0
  0
LINE
  5
13B
100
AcDbEntity
  8
LAYER0001
  6
CONTINUOUS
 62
       7
100
AcDbLine
 10
-103.55909239
 20
-91.28266003
 30
0.0
 11
-103.55780734
 21
-91.30380438
 31
0.0
  0
LINE
  5
13C
100
AcDbEntity
  8
LAYER0001
  6
CONTINUOUS
 62
       7
100
AcDbLine
 10
-103.55780734
 20
-91.30380438
 30
0.0
 11
-103.55638669
 21
-91.32471076
 31
0.0
  0
LINE
  5
13D
100
AcDbEntity
  8
LAYER0001
  6
CONTINUOUS
 62
       7
100
AcDbLine
 10
-103.55638669
 20
-91.32471076
 30
0.0
 11
-103.55483958
 21
-91.34536399
 31
0.0
  0
LINE
  5
13E
100
AcDbEntity
  8
LAYER0001
  6
CONTINUOUS
 62
       7
100
AcDbLine
 10
-103.55483958
 20
-91.34536399
 30
0.0
 11
-103.55317511
 21
-91.36574885
 31
0.0
  0
LINE
  5
13F
100
AcDbEntity
  8
LAYER0001
  6
CONTINUOUS
 62
       7
100
AcDbLine
 10
-103.55317511
 20
-91.36574885
 30
0.0
 11
-103.55140241
 21
-91.38585013
 31
0.0
  0
LINE
  5
140
100
AcDbEntity
  8
LAYER0001
  6
CONTINUOUS
 62
       7
100
AcDbLine
 10
-103.55140241
 20
-91.38585013
 30
0.0
 11
-103.54953061
 21
-91.40565263
 31
0.0
  0
LINE
  5
141
100
AcDbEntity
  8
LAYER0001
  6
CONTINUOUS
 62
       7
100
AcDbLine
 10
-103.54953061
 20
-91.40565263
 30
0.0
 11
-103.54756882
 21
-91.42514113
 31
0.0
  0
LINE
  5
142
100
AcDbEntity
  8
LAYER0001
  6
CONTINUOUS
 62
       7
100
AcDbLine
 10
-103.54756882
 20
-91.42514113
 30
0.0
 11
-103.54552617
 21
-91.44430044
 31
0.0
  0
LINE
  5
143
100
AcDbEntity
  8
LAYER0001
  6
CONTINUOUS
 62
       7
100
AcDbLine
 10
-103.54552617
 20
-91.44430044
 30
0.0
 11
-103.54341178
 21
-91.46311534
 31
0.0
  0
LINE
  5
144
100
AcDbEntity
  8
LAYER0001
  6
CONTINUOUS
 62
       7
100
AcDbLine
 10
-103.54341178
 20
-91.46311534
 30
0.0
 11
-103.54123477
 21
-91.48157062
 31
0.0
  0
LINE
  5
145
100
AcDbEntity
  8
LAYER0001
  6
CONTINUOUS
 62
       7
100
AcDbLine
 10
-103.54123477
 20
-91.48157062
 30
0.0
 11
-103.53900426
 21
-91.49965108
 31
0.0
  0
LINE
  5
146
100
AcDbEntity
  8
LAYER0001
  6
CONTINUOUS
 62
       7
100
AcDbLine
 10
-103.53900426
 20
-91.49965108
 30
0.0
 11
-103.53672938
 21
-91.51734151
 31
0.0
  0
LINE
  5
147
100
AcDbEntity
  8
LAYER0001
  6
CONTINUOUS
 62
       7
100
AcDbLine
 10
-103.53672938
 20
-91.51734151
 30
0.0
 11
-103.53441924
 21
-91.5346267
 31
0.0
  0
LINE
  5
148
100
AcDbEntity
  8
LAYER0001
  6
CONTINUOUS
 62
       7
100
AcDbLine
 10
-103.53441924
 20
-91.5346267
 30
0.0
 11
-103.53208268
 21
-91.55149186
 31
0.0
  0
LINE
  5
149
100
AcDbEntity
  8
LAYER0001
  6
CONTINUOUS
 62
       7
100
AcDbLine
 10
-103.53208268
 20
-91.55149186
 30
0.0
 11
-103.52972613
 21
-91.56792563
 31
0.0
  0
LINE
  5
14A
100
AcDbEntity
  8
LAYER0001
  6
CONTINUOUS
 62
       7
100
AcDbLine
 10
-103.52972613
 20
-91.56792563
 30
0.0
 11
-103.52735482
 21
-91.58391838
 31
0.0
  0
LINE
  5
14B
100
AcDbEntity
  8
LAYER0001
  6
CONTINUOUS
 62
       7
100
AcDbLine
 10
-103.52735482
 20
-91.58391838
 30
0.0
 11
-103.52497399
 21
-91.59946046
 31
0.0
  0
LINE
  5
14C
100
AcDbEntity
  8
LAYER0001
  6
CONTINUOUS
 62
       7
100
AcDbLine
 10
-103.52497399
 20
-91.59946046
 30
0.0
 11
-103.52258886
 21
-91.61454223
 31
0.0
  0
LINE
  5
14D
100
AcDbEntity
  8
LAYER0001
  6
CONTINUOUS
 62
       7
100
AcDbLine
 10
-103.52258886
 20
-91.61454223
 30
0.0
 11
-103.52020467
 21
-91.62915406
 31
0.0
  0
LINE
  5
14E
100
AcDbEntity
  8
LAYER0001
  6
CONTINUOUS
 62
       7
100
AcDbLine
 10
-103.52020467
 20
-91.62915406
 30
0.0
 11
-103.51782664
 21
-91.6432863
 31
0.0
  0
LINE
  5
14F
100
AcDbEntity
  8
LAYER0001
  6
CONTINUOUS
 62
       7
100
AcDbLine
 10
-103.51782664
 20
-91.6432863
 30
0.0
 11
-103.51546001
 21
-91.65692933
 31
0.0
  0
LINE
  5
150
100
AcDbEntity
  8
LAYER0001
  6
CONTINUOUS
 62
       7
100
AcDbLine
 10
-103.51546001
 20
-91.65692933
 30
0.0
 11
-103.51311002
 21
-91.67007349
 31
0.0
  0
LINE
  5
151
100
AcDbEntity
  8
LAYER0001
  6
CONTINUOUS
 62
       7
100
AcDbLine
 10
-103.51311002
 20
-91.67007349
 30
0.0
 11
-103.51078187
 21
-91.68270916
 31
0.0
  0
LINE
  5
152
100
AcDbEntity
  8
LAYER0001
  6
CONTINUOUS
 62
       7
100
AcDbLine
 10
-103.51078187
 20
-91.68270916
 30
0.0
 11
-103.50848082
 21
-91.6948267
 31
0.0
  0
LINE
  5
153
100
AcDbEntity
  8
LAYER0001
  6
CONTINUOUS
 62
       7
100
AcDbLine
 10
-103.50848082
 20
-91.6948267
 30
0.0
 11
-103.50621209
 21
-91.70641647
 31
0.0
  0
LINE
  5
154
100
AcDbEntity
  8
LAYER0001
  6
CONTINUOUS
 62
       7
100
AcDbLine
 10
-103.50621209
 20
-91.70641647
 30
0.0
 11
-103.50398091
 21
-91.71746883
 31
0.0
  0
LINE
  5
155
100
AcDbEntity
  8
LAYER0001
  6
CONTINUOUS
 62
       7
100
AcDbLine
 10
-103.50398091
 20
-91.71746883
 30
0.0
 11
-103.50178915
 21
-91.72798321
 31
0.0
  0
LINE
  5
156
100
AcDbEntity
  8
LAYER0001
  6
CONTINUOUS
 62
       7
100
AcDbLine
 10
-103.50178915
 20
-91.72798321
 30
0.0
 11
-103.49960054
 21
-91.7380619
 31
0.0
  0
LINE
  5
157
100
AcDbEntity
  8
LAYER0001
  6
CONTINUOUS
 62
       7
100
AcDbLine
 10
-103.49960054
 20
-91.7380619
 30
0.0
 11
-103.49735466
 21
-91.7478724
 31
0.0
  0
LINE
  5
158
100
AcDbEntity
  8
LAYER0001
  6
CONTINUOUS
 62
       7
100
AcDbLine
 10
-103.49735466
 20
-91.7478724
 30
0.0
 11
-103.49499071
 21
-91.75758321
 31
0.0
  0
LINE
  5
159
100
AcDbEntity
  8
LAYER0001
  6
CONTINUOUS
 62
       7
100
AcDbLine
 10
-103.49499071
 20
-91.75758321
 30
0.0
 11
-103.49244786
 21
-91.76736286
 31
0.0
  0
LINE
  5
15A
100
AcDbEntity
  8
LAYER0001
  6
CONTINUOUS
 62
       7
100
AcDbLine
 10
-103.49244786
 20
-91.76736286
 30
0.0
 11
-103.48966531
 21
-91.77737986
 31
0.0
  0
LINE
  5
15B
100
AcDbEntity
  8
LAYER0001
  6
CONTINUOUS
 62
       7
100
AcDbLine
 10
-103.48966531
 20
-91.77737986
 30
0.0
 11
-103.48658224
 21
-91.78780272
 31
0.0
  0
LINE
  5
15C
100
AcDbEntity
  8
LAYER0001
  6
CONTINUOUS
 62
       7
100
AcDbLine
 10
-103.48658224
 20
-91.78780272
 30
0.0
 11
-103.48313448
 21
-91.7988017
 31
0.0
  0
LINE
  5
15D
100
AcDbEntity
  8
LAYER0001
  6
CONTINUOUS
 62
       7
100
AcDbLine
 10
-103.48313448
 20
-91.7988017
 30
0.0
 11
-103.47911709
 21
-91.81061934
 31
0.0
  0
LINE
  5
15E
100
AcDbEntity
  8
LAYER0001
  6
CONTINUOUS
 62
       7
100
AcDbLine
 10
-103.47911709
 20
-91.81061934
 30
0.0
 11
-103.47413646
 21
-91.82359508
 31
0.0
  0
LINE
  5
15F
100
AcDbEntity
  8
LAYER0001
  6
CONTINUOUS
 62
       7
100
AcDbLine
 10
-103.47413646
 20
-91.82359508
 30
0.0
 11
-103.46778588
 21
-91.838075
 31
0.0
  0
LINE
  5
160
100
AcDbEntity
  8
LAYER0001
  6
CONTINUOUS
 62
       7
100
AcDbLine
 10
-103.46778588
 20
-91.838075
 30
0.0
 11
-103.45975771
 21
-91.85417122
 31
0.0
  0
LINE
  5
161
100
AcDbEntity
  8
LAYER0001
  6
CONTINUOUS
 62
       7
100
AcDbLine
 10
-103.45975771
 20
-91.85417122
 30
0.0
 11
-103.45004445
 21
-91.87128727
 31
0.0
  0
LINE
  5
162
100
AcDbEntity
  8
LAYER0001
  6
CONTINUOUS
 62
       7
100
AcDbLine
 10
-103.45004445
 20
-91.87128727
 30
0.0
 11
-103.43869525
 21
-91.88869313
 31
0.0
  0
LINE
  5
163
100
AcDbEntity
  8
LAYER0001
  6
CONTINUOUS
 62
       7
100
AcDbLine
 10
-103.43869525
 20
-91.88869313
 30
0.0
 11
-103.42577834
 21
-91.90575823
 31
0.0
  0
LINE
  5
164
100
AcDbEntity
  8
LAYER0001
  6
CONTINUOUS
 62
       7
100
AcDbLine
 10
-103.42577834
 20
-91.90575823
 30
0.0
 11
-103.41141764
 21
-91.92214245
 31
0.0
  0
LINE
  5
165
100
AcDbEntity
  8
LAYER0001
  6
CONTINUOUS
 62
       7
100
AcDbLine
 10
-103.41141764
 20
-91.92214245
 30
0.0
 11
-103.3957472
 21
-91.93755842
 31
0.0
  0
LINE
  5
166
100
AcDbEntity
  8
LAYER0001
  6
CONTINUOUS
 62
       7
100
AcDbLine
 10
-103.3957472
 20
-91.93755842
 30
0.0
 11
-103.37889969
 21
-91.95173186
 31
0.0
  0
LINE
  5
167
100
AcDbEntity
  8
LAYER0001
  6
CONTINUOUS
 62
       7
100
AcDbLine
 10
-103.37889969
 20
-91.95173186
 30
0.0
 11
-103.36098494
 21
-91.96460349
 31
0.0
  0
LINE
  5
168
100
AcDbEntity
  8
LAYER0001
  6
CONTINUOUS
 62
       7
100
AcDbLine
 10
-103.36098494
 20
-91.96460349
 30
0.0
 11
-103.34209413
 21
-91.9762898
 31
0.0
  0
LINE
  5
169
100
AcDbEntity
  8
LAYER0001
  6
CONTINUOUS
 62
       7
100
AcDbLine
 10
-103.34209413
 20
-91.9762898
 30
0.0
 11
-103.3223179
 21
-91.98691241
 31
0.0
  0
LINE
  5
16A
100
AcDbEntity
  8
LAYER0001
  6
CONTINUOUS
 62
       7
100
AcDbLine
 10
-103.3223179
 20
-91.98691241
 30
0.0
 11
-103.30174846
 21
-91.9965784
 31
0.0
  0
LINE
  5
16B
100
AcDbEntity
  8
LAYER0001
  6
CONTINUOUS
 62
       7
100
AcDbLine
 10
-103.30174846
 20
-91.9965784
 30
0.0
 11
-103.28051686
 21
-92.00503109
 31
0.0
  0
LINE
  5
16C
100
AcDbEntity
  8
LAYER0001
  6
CONTINUOUS
 62
       7
100
AcDbLine
 10
-103.28051686
 20
-92.00503109
 30
0.0
 11
-103.25879488
 21
-92.0116331
 31
0.0
  0
LINE
  5
16D
100
AcDbEntity
  8
LAYER0001
  6
CONTINUOUS
 62
       7
100
AcDbLine
 10
-103.25879488
 20
-92.0116331
 30
0.0
 11
-103.2367562
 21
-92.01572911
 31
0.0
  0
LINE
  5
16E
100
AcDbEntity
  8
LAYER0001
  6
CONTINUOUS
 62
       7
100
AcDbLine
 10
-103.2367562
 20
-92.01572911
 30
0.0
 11
-103.21457449
 21
-92.01666381
 31
0.0
  0
LINE
  5
16F
100
AcDbEntity
  8
LAYER0001
  6
CONTINUOUS
 62
       7
100
AcDbLine
 10
-103.21457449
 20
-92.01666381
 30
0.0
 11
-103.19240302
 21
-92.01422889
 31
0.0
  0
ENDBLK
  5
170
100
AcDbEntity
  8
0
100
AcDbBlockEnd
  0
BLOCK
  5
171
100
AcDbEntity
  8
0
100
AcDbBlockBegin
  2
GROUP_5
 70
       0
 10
0.0
 20
0.0
 30
0.0
  3
GROUP_5
  1

  0
LINE
  5
172
100
AcDbEntity
  8
LAYER0001
  6
CONTINUOUS
 62
       7
100
AcDbLine
 10
-114.00793409
 20
-102.91688211
 30
0.0
 11
-114.06364414
 21
-102.91635186
 31
0.0
  0
LINE
  5
173
100
AcDbEntity
  8
LAYER0001
  6
CONTINUOUS
 62
       7
100
AcDbLine
 10
-114.06364414
 20
-102.91635186
 30
0.0
 11
-114.11930338
 21
-102.91515643
 31
0.0
  0
LINE
  5
174
100
AcDbEntity
  8
LAYER0001
  6
CONTINUOUS
 62
       7
100
AcDbLine
 10
-114.11930338
 20
-102.91515643
 30
0.0
 11
-114.17487811
 21
-102.91285487
 31
0.0
  0
LINE
  5
175
100
AcDbEntity
  8
LAYER0001
  6
CONTINUOUS
 62
       7
100
AcDbLine
 10
-114.17487811
 20
-102.91285487
 30
0.0
 11
-114.23036827
 21
-102.90944631
 31
0.0
  0
LINE
  5
176
100
AcDbEntity
  8
LAYER0001
  6
CONTINUOUS
 62
       7
100
AcDbLine
 10
-114.23036827
 20
-102.90944631
 30
0.0
 11
-114.28577771
 21
-102.90498106
 31
0.0
  0
LINE
  5
177
100
AcDbEntity
  8
LAYER0001
  6
CONTINUOUS
 62
       7
100
AcDbLine
 10
-114.28577771
 20
-102.90498106
 30
0.0
 11
-114.34111027
 21
-102.89950944
 31
0.0
  0
LINE
  5
178
100
AcDbEntity
  8
LAYER0001
  6
CONTINUOUS
 62
       7
100
AcDbLine
 10
-114.34111027
 20
-102.89950944
 30
0.0
 11
-114.39636979
 21
-102.89308177
 31
0.0
  0
LINE
  5
179
100
AcDbEntity
  8
LAYER0001
  6
CONTINUOUS
 62
       7
100
AcDbLine
 10
-114.39636979
 20
-102.89308177
 30
0.0
 11
-114.45156012
 21
-102.88574837
 31
0.0
  0
LINE
  5
17A
100
AcDbEntity
  8
LAYER0001
  6
CONTINUOUS
 62
       7
100
AcDbLine
 10
-114.45156012
 20
-102.88574837
 30
0.0
 11
-114.5066851
 21
-102.87755955
 31
0.0
  0
LINE
  5
17B
100
AcDbEntity
  8
LAYER0001
  6
CONTINUOUS
 62
       7
100
AcDbLine
 10
-114.5066851
 20
-102.87755955
 30
0.0
 11
-114.56174857
 21
-102.86856564
 31
0.0
  0
LINE
  5
17C
100
AcDbEntity
  8
LAYER0001
  6
CONTINUOUS
 62
       7
100
AcDbLine
 10
-114.56174857
 20
-102.86856564
 30
0.0
 11
-114.61675439
 21
-102.85881695
 31
0.0
  0
LINE
  5
17D
100
AcDbEntity
  8
LAYER0001
  6
CONTINUOUS
 62
       7
100
AcDbLine
 10
-114.61675439
 20
-102.85881695
 30
0.0
 11
-114.67170638
 21
-102.8483638
 31
0.0
  0
LINE
  5
17E
100
AcDbEntity
  8
LAYER0001
  6
CONTINUOUS
 62
       7
100
AcDbLine
 10
-114.67170638
 20
-102.8483638
 30
0.0
 11
-114.72660841
 21
-102.83725652
 31
0.0
  0
LINE
  5
17F
100
AcDbEntity
  8
LAYER0001
  6
CONTINUOUS
 62
       7
100
AcDbLine
 10
-114.72660841
 20
-102.83725652
 30
0.0
 11
-114.78146431
 21
-102.82554541
 31
0.0
  0
LINE
  5
180
100
AcDbEntity
  8
LAYER0001
  6
CONTINUOUS
 62
       7
100
AcDbLine
 10
-114.78146431
 20
-102.82554541
 30
0.0
 11
-114.83627792
 21
-102.8132808
 31
0.0
  0
LINE
  5
181
100
AcDbEntity
  8
LAYER0001
  6
CONTINUOUS
 62
       7
100
AcDbLine
 10
-114.83627792
 20
-102.8132808
 30
0.0
 11
-114.89105309
 21
-102.800513
 31
0.0
  0
LINE
  5
182
100
AcDbEntity
  8
LAYER0001
  6
CONTINUOUS
 62
       7
100
AcDbLine
 10
-114.89105309
 20
-102.800513
 30
0.0
 11
-114.94579367
 21
-102.78729234
 31
0.0
  0
LINE
  5
183
100
AcDbEntity
  8
LAYER0001
  6
CONTINUOUS
 62
       7
100
AcDbLine
 10
-114.94579367
 20
-102.78729234
 30
0.0
 11
-115.00050349
 21
-102.77366913
 31
0.0
  0
LINE
  5
184
100
AcDbEntity
  8
LAYER0001
  6
CONTINUOUS
 62
       7
100
AcDbLine
 10
-115.00050349
 20
-102.77366913
 30
0.0
 11
-115.0551864
 21
-102.75969369
 31
0.0
  0
LINE
  5
185
100
AcDbEntity
  8
LAYER0001
  6
CONTINUOUS
 62
       7
100
AcDbLine
 10
-115.0551864
 20
-102.75969369
 30
0.0
 11
-115.10984625
 21
-102.74541634
 31
0.0
  0
LINE
  5
186
100
AcDbEntity
  8
LAYER0001
  6
CONTINUOUS
 62
       7
100
AcDbLine
 10
-115.10984625
 20
-102.74541634
 30
0.0
 11
-115.16448688
 21
-102.7308874
 31
0.0
  0
LINE
  5
187
100
AcDbEntity
  8
LAYER0001
  6
CONTINUOUS
 62
       7
100
AcDbLine
 10
-115.16448688
 20
-102.7308874
 30
0.0
 11
-115.21911214
 21
-102.71615718
 31
0.0
  0
LINE
  5
188
100
AcDbEntity
  8
LAYER0001
  6
CONTINUOUS
 62
       7
100
AcDbLine
 10
-115.21911214
 20
-102.71615718
 30
0.0
 11
-115.27372586
 21
-102.70127601
 31
0.0
  0
LINE
  5
189
100
AcDbEntity
  8
LAYER0001
  6
CONTINUOUS
 62
       7
100
AcDbLine
 10
-115.27372586
 20
-102.70127601
 30
0.0
 11
-115.3283319
 21
-102.6862942
 31
0.0
  0
LINE
  5
18A
100
AcDbEntity
  8
LAYER0001
  6
CONTINUOUS
 62
       7
100
AcDbLine
 10
-115.3283319
 20
-102.6862942
 30
0.0
 11
-115.38293409
 21
-102.67126208
 31
0.0
  0
ENDBLK
  5
18B
100
AcDbEntity
  8
0
100
AcDbBlockEnd
  0
BLOCK
  5
18C
100
AcDbEntity
  8
0
100
AcDbBlockBegin
  2
GROUP_6
 70
       0
 10
0.0
 20
0.0
 30
0.0
  3
GROUP_6
  1

  0
LINE
  5
18D
100
AcDbEntity
  8
LAYER0001
  6
CONTINUOUS
 62
       7
100
AcDbLine
 10
-116.75793408
 20
-102.91688211
 30
0.0
 11
-116.81364416
 21
-102.91635186
 31
0.0
  0
LINE
  5
18E
100
AcDbEntity
  8
LAYER0001
  6
CONTINUOUS
 62
       7
100
AcDbLine
 10
-116.81364416
 20
-102.91635186
 30
0.0
 11
-116.86930342
 21
-102.91515643
 31
0.0
  0
LINE
  5
18F
100
AcDbEntity
  8
LAYER0001
  6
CONTINUOUS
 62
       7
100
AcDbLine
 10
-116.86930342
 20
-102.91515643
 30
0.0
 11
-116.92487818
 21
-102.91285487
 31
0.0
  0
LINE
  5
190
100
AcDbEntity
  8
LAYER0001
  6
CONTINUOUS
 62
       7
100
AcDbLine
 10
-116.92487818
 20
-102.91285487
 30
0.0
 11
-116.98036837
 21
-102.90944631
 31
0.0
  0
LINE
  5
191
100
AcDbEntity
  8
LAYER0001
  6
CONTINUOUS
 62
       7
100
AcDbLine
 10
-116.98036837
 20
-102.90944631
 30
0.0
 11
-117.03577784
 21
-102.90498106
 31
0.0
  0
LINE
  5
192
100
AcDbEntity
  8
LAYER0001
  6
CONTINUOUS
 62
       7
100
AcDbLine
 10
-117.03577784
 20
-102.90498106
 30
0.0
 11
-117.09111043
 21
-102.89950944
 31
0.0
  0
LINE
  5
193
100
AcDbEntity
  8
LAYER0001
  6
CONTINUOUS
 62
       7
100
AcDbLine
 10
-117.09111043
 20
-102.89950944
 30
0.0
 11
-117.14636999
 21
-102.89308177
 31
0.0
  0
LINE
  5
194
100
AcDbEntity
  8
LAYER0001
  6
CONTINUOUS
 62
       7
100
AcDbLine
 10
-117.14636999
 20
-102.89308177
 30
0.0
 11
-117.20156035
 21
-102.88574836
 31
0.0
  0
LINE
  5
195
100
AcDbEntity
  8
LAYER0001
  6
CONTINUOUS
 62
       7
100
AcDbLine
 10
-117.20156035
 20
-102.88574836
 30
0.0
 11
-117.25668536
 21
-102.87755955
 31
0.0
  0
LINE
  5
196
100
AcDbEntity
  8
LAYER0001
  6
CONTINUOUS
 62
       7
100
AcDbLine
 10
-117.25668536
 20
-102.87755955
 30
0.0
 11
-117.31174888
 21
-102.86856563
 31
0.0
  0
LINE
  5
197
100
AcDbEntity
  8
LAYER0001
  6
CONTINUOUS
 62
       7
100
AcDbLine
 10
-117.31174888
 20
-102.86856563
 30
0.0
 11
-117.36675473
 21
-102.85881694
 31
0.0
  0
LINE
  5
198
100
AcDbEntity
  8
LAYER0001
  6
CONTINUOUS
 62
       7
100
AcDbLine
 10
-117.36675473
 20
-102.85881694
 30
0.0
 11
-117.42170676
 21
-102.8483638
 31
0.0
  0
LINE
  5
199
100
AcDbEntity
  8
LAYER0001
  6
CONTINUOUS
 62
       7
100
AcDbLine
 10
-117.42170676
 20
-102.8483638
 30
0.0
 11
-117.47660883
 21
-102.83725651
 31
0.0
  0
LINE
  5
19A
100
AcDbEntity
  8
LAYER0001
  6
CONTINUOUS
 62
       7
100
AcDbLine
 10
-117.47660883
 20
-102.83725651
 30
0.0
 11
-117.53146476
 21
-102.8255454
 31
0.0
  0
LINE
  5
19B
100
AcDbEntity
  8
LAYER0001
  6
CONTINUOUS
 62
       7
100
AcDbLine
 10
-117.53146476
 20
-102.8255454
 30
0.0
 11
-117.58627841
 21
-102.81328079
 31
0.0
  0
LINE
  5
19C
100
AcDbEntity
  8
LAYER0001
  6
CONTINUOUS
 62
       7
100
AcDbLine
 10
-117.58627841
 20
-102.81328079
 30
0.0
 11
-117.64105363
 21
-102.800513
 31
0.0
  0
LINE
  5
19D
100
AcDbEntity
  8
LAYER0001
  6
CONTINUOUS
 62
       7
100
AcDbLine
 10
-117.64105363
 20
-102.800513
 30
0.0
 11
-117.69579424
 21
-102.78729233
 31
0.0
  0
LINE
  5
19E
100
AcDbEntity
  8
LAYER0001
  6
CONTINUOUS
 62
       7
100
AcDbLine
 10
-117.69579424
 20
-102.78729233
 30
0.0
 11
-117.75050411
 21
-102.77366912
 31
0.0
  0
LINE
  5
19F
100
AcDbEntity
  8
LAYER0001
  6
CONTINUOUS
 62
       7
100
AcDbLine
 10
-117.75050411
 20
-102.77366912
 30
0.0
 11
-117.80518706
 21
-102.75969369
 31
0.0
  0
LINE
  5
1A0
100
AcDbEntity
  8
LAYER0001
  6
CONTINUOUS
 62
       7
100
AcDbLine
 10
-117.80518706
 20
-102.75969369
 30
0.0
 11
-117.85984696
 21
-102.74541634
 31
0.0
  0
LINE
  5
1A1
100
AcDbEntity
  8
LAYER0001
  6
CONTINUOUS
 62
       7
100
AcDbLine
 10
-117.85984696
 20
-102.74541634
 30
0.0
 11
-117.91448763
 21
-102.73088739
 31
0.0
  0
LINE
  5
1A2
100
AcDbEntity
  8
LAYER0001
  6
CONTINUOUS
 62
       7
100
AcDbLine
 10
-117.91448763
 20
-102.73088739
 30
0.0
 11
-117.96911293
 21
-102.71615718
 31
0.0
  0
LINE
  5
1A3
100
AcDbEntity
  8
LAYER0001
  6
CONTINUOUS
 62
       7
100
AcDbLine
 10
-117.96911293
 20
-102.71615718
 30
0.0
 11
-118.02372669
 21
-102.70127601
 31
0.0
  0
LINE
  5
1A4
100
AcDbEntity
  8
LAYER0001
  6
CONTINUOUS
 62
       7
100
AcDbLine
 10
-118.02372669
 20
-102.70127601
 30
0.0
 11
-118.07833277
 21
-102.6862942
 31
0.0
  0
LINE
  5
1A5
100
AcDbEntity
  8
LAYER0001
  6
CONTINUOUS
 62
       7
100
AcDbLine
 10
-118.07833277
 20
-102.6862942
 30
0.0
 11
-118.132935
 21
-102.67126208
 31
0.0
  0
ENDBLK
  5
1A6
100
AcDbEntity
  8
0
100
AcDbBlockEnd
  0
BLOCK
  5
1A7
100
AcDbEntity
  8
0
100
AcDbBlockBegin
  2
GROUP_7
 70
       0
 10
0.0
 20
0.0
 30
0.0
  3
GROUP_7
  1

  0
LINE
  5
1A8
100
AcDbEntity
  8
LAYER0001
  6
CONTINUOUS
 62
       7
100
AcDbLine
 10
-112.6329341
 20
-102.91688211
 30
0.0
 11
-112.6329341
 21
-102.91533495
 31
0.0
  0
LINE
  5
1A9
100
AcDbEntity
  8
LAYER0001
  6
CONTINUOUS
 62
       7
100
AcDbLine
 10
-112.6329341
 20
-102.91533495
 30
0.0
 11
-112.6329341
 21
-102.91360574
 31
0.0
  0
LINE
  5
1AA
100
AcDbEntity
  8
LAYER0001
  6
CONTINUOUS
 62
       7
100
AcDbLine
 10
-112.6329341
 20
-102.91360574
 30
0.0
 11
-112.6329341
 21
-102.91151243
 31
0.0
  0
LINE
  5
1AB
100
AcDbEntity
  8
LAYER0001
  6
CONTINUOUS
 62
       7
100
AcDbLine
 10
-112.6329341
 20
-102.91151243
 30
0.0
 11
-112.6329341
 21
-102.90887296
 31
0.0
  0
LINE
  5
1AC
100
AcDbEntity
  8
LAYER0001
  6
CONTINUOUS
 62
       7
100
AcDbLine
 10
-112.6329341
 20
-102.90887296
 30
0.0
 11
-112.6329341
 21
-102.90550528
 31
0.0
  0
LINE
  5
1AD
100
AcDbEntity
  8
LAYER0001
  6
CONTINUOUS
 62
       7
100
AcDbLine
 10
-112.6329341
 20
-102.90550528
 30
0.0
 11
-112.6329341
 21
-102.90122735
 31
0.0
  0
LINE
  5
1AE
100
AcDbEntity
  8
LAYER0001
  6
CONTINUOUS
 62
       7
100
AcDbLine
 10
-112.6329341
 20
-102.90122735
 30
0.0
 11
-112.6329341
 21
-102.8958735
 31
0.0
  0
LINE
  5
1AF
100
AcDbEntity
  8
LAYER0001
  6
CONTINUOUS
 62
       7
100
AcDbLine
 10
-112.6329341
 20
-102.8958735
 30
0.0
 11
-112.6329341
 21
-102.88942573
 31
0.0
  0
LINE
  5
1B0
100
AcDbEntity
  8
LAYER0001
  6
CONTINUOUS
 62
       7
100
AcDbLine
 10
-112.6329341
 20
-102.88942573
 30
0.0
 11
-112.6329341
 21
-102.88194413
 31
0.0
  0
LINE
  5
1B1
100
AcDbEntity
  8
LAYER0001
  6
CONTINUOUS
 62
       7
100
AcDbLine
 10
-112.6329341
 20
-102.88194413
 30
0.0
 11
-112.6329341
 21
-102.87348952
 31
0.0
  0
LINE
  5
1B2
100
AcDbEntity
  8
LAYER0001
  6
CONTINUOUS
 62
       7
100
AcDbLine
 10
-112.6329341
 20
-102.87348952
 30
0.0
 11
-112.6329341
 21
-102.86412272
 31
0.0
  0
LINE
  5
1B3
100
AcDbEntity
  8
LAYER0001
  6
CONTINUOUS
 62
       7
100
AcDbLine
 10
-112.6329341
 20
-102.86412272
 30
0.0
 11
-112.6329341
 21
-102.85390453
 31
0.0
  0
LINE
  5
1B4
100
AcDbEntity
  8
LAYER0001
  6
CONTINUOUS
 62
       7
100
AcDbLine
 10
-112.6329341
 20
-102.85390453
 30
0.0
 11
-112.6329341
 21
-102.84289577
 31
0.0
  0
LINE
  5
1B5
100
AcDbEntity
  8
LAYER0001
  6
CONTINUOUS
 62
       7
100
AcDbLine
 10
-112.6329341
 20
-102.84289577
 30
0.0
 11
-112.6329341
 21
-102.83115725
 31
0.0
  0
LINE
  5
1B6
100
AcDbEntity
  8
LAYER0001
  6
CONTINUOUS
 62
       7
100
AcDbLine
 10
-112.6329341
 20
-102.83115725
 30
0.0
 11
-112.6329341
 21
-102.81874978
 31
0.0
  0
LINE
  5
1B7
100
AcDbEntity
  8
LAYER0001
  6
CONTINUOUS
 62
       7
100
AcDbLine
 10
-112.6329341
 20
-102.81874978
 30
0.0
 11
-112.6329341
 21
-102.80573419
 31
0.0
  0
LINE
  5
1B8
100
AcDbEntity
  8
LAYER0001
  6
CONTINUOUS
 62
       7
100
AcDbLine
 10
-112.6329341
 20
-102.80573419
 30
0.0
 11
-112.6329341
 21
-102.79217128
 31
0.0
  0
LINE
  5
1B9
100
AcDbEntity
  8
LAYER0001
  6
CONTINUOUS
 62
       7
100
AcDbLine
 10
-112.6329341
 20
-102.79217128
 30
0.0
 11
-112.6329341
 21
-102.77812186
 31
0.0
  0
LINE
  5
1BA
100
AcDbEntity
  8
LAYER0001
  6
CONTINUOUS
 62
       7
100
AcDbLine
 10
-112.6329341
 20
-102.77812186
 30
0.0
 11
-112.6329341
 21
-102.76364674
 31
0.0
  0
LINE
  5
1BB
100
AcDbEntity
  8
LAYER0001
  6
CONTINUOUS
 62
       7
100
AcDbLine
 10
-112.6329341
 20
-102.76364674
 30
0.0
 11
-112.6329341
 21
-102.74880675
 31
0.0
  0
LINE
  5
1BC
100
AcDbEntity
  8
LAYER0001
  6
CONTINUOUS
 62
       7
100
AcDbLine
 10
-112.6329341
 20
-102.74880675
 30
0.0
 11
-112.6329341
 21
-102.7336627
 31
0.0
  0
LINE
  5
1BD
100
AcDbEntity
  8
LAYER0001
  6
CONTINUOUS
 62
       7
100
AcDbLine
 10
-112.6329341
 20
-102.7336627
 30
0.0
 11
-112.6329341
 21
-102.71827539
 31
0.0
  0
LINE
  5
1BE
100
AcDbEntity
  8
LAYER0001
  6
CONTINUOUS
 62
       7
100
AcDbLine
 10
-112.6329341
 20
-102.71827539
 30
0.0
 11
-112.6329341
 21
-102.70270564
 31
0.0
  0
LINE
  5
1BF
100
AcDbEntity
  8
LAYER0001
  6
CONTINUOUS
 62
       7
100
AcDbLine
 10
-112.6329341
 20
-102.70270564
 30
0.0
 11
-112.6329341
 21
-102.68701426
 31
0.0
  0
LINE
  5
1C0
100
AcDbEntity
  8
LAYER0001
  6
CONTINUOUS
 62
       7
100
AcDbLine
 10
-112.6329341
 20
-102.68701426
 30
0.0
 11
-112.6329341
 21
-102.67126208
 31
0.0
  0
ENDBLK
  5
1C1
100
AcDbEntity
  8
0
100
AcDbBlockEnd
  0
BLOCK
  5
1C2
100
AcDbEntity
  8
0
100
AcDbBlockBegin
  2
GROUP_8
 70
       0
 10
0.0
 20
0.0
 30
0.0
  3
GROUP_8
  1

  0
LINE
  5
1C3
100
AcDbEntity
  8
LAYER0001
  6
CONTINUOUS
 62
       7
100
AcDbLine
 10
-118.132935
 20
-102.67126208
 30
0.0
 11
-118.132935
 21
-102.68701426
 31
0.0
  0
LINE
  5
1C4
100
AcDbEntity
  8
LAYER0001
  6
CONTINUOUS
 62
       7
100
AcDbLine
 10
-118.132935
 20
-102.68701426
 30
0.0
 11
-118.132935
 21
-102.70270564
 31
0.0
  0
LINE
  5
1C5
100
AcDbEntity
  8
LAYER0001
  6
CONTINUOUS
 62
       7
100
AcDbLine
 10
-118.132935
 20
-102.70270564
 30
0.0
 11
-118.132935
 21
-102.71827539
 31
0.0
  0
LINE
  5
1C6
100
AcDbEntity
  8
LAYER0001
  6
CONTINUOUS
 62
       7
100
AcDbLine
 10
-118.132935
 20
-102.71827539
 30
0.0
 11
-118.132935
 21
-102.7336627
 31
0.0
  0
LINE
  5
1C7
100
AcDbEntity
  8
LAYER0001
  6
CONTINUOUS
 62
       7
100
AcDbLine
 10
-118.132935
 20
-102.7336627
 30
0.0
 11
-118.132935
 21
-102.74880675
 31
0.0
  0
LINE
  5
1C8
100
AcDbEntity
  8
LAYER0001
  6
CONTINUOUS
 62
       7
100
AcDbLine
 10
-118.132935
 20
-102.74880675
 30
0.0
 11
-118.132935
 21
-102.76364674
 31
0.0
  0
LINE
  5
1C9
100
AcDbEntity
  8
LAYER0001
  6
CONTINUOUS
 62
       7
100
AcDbLine
 10
-118.132935
 20
-102.76364674
 30
0.0
 11
-118.132935
 21
-102.77812186
 31
0.0
  0
LINE
  5
1CA
100
AcDbEntity
  8
LAYER0001
  6
CONTINUOUS
 62
       7
100
AcDbLine
 10
-118.132935
 20
-102.77812186
 30
0.0
 11
-118.132935
 21
-102.79217128
 31
0.0
  0
LINE
  5
1CB
100
AcDbEntity
  8
LAYER0001
  6
CONTINUOUS
 62
       7
100
AcDbLine
 10
-118.132935
 20
-102.79217128
 30
0.0
 11
-118.132935
 21
-102.80573419
 31
0.0
  0
LINE
  5
1CC
100
AcDbEntity
  8
LAYER0001
  6
CONTINUOUS
 62
       7
100
AcDbLine
 10
-118.132935
 20
-102.80573419
 30
0.0
 11
-118.132935
 21
-102.81874978
 31
0.0
  0
LINE
  5
1CD
100
AcDbEntity
  8
LAYER0001
  6
CONTINUOUS
 62
       7
100
AcDbLine
 10
-118.132935
 20
-102.81874978
 30
0.0
 11
-118.132935
 21
-102.83115725
 31
0.0
  0
LINE
  5
1CE
100
AcDbEntity
  8
LAYER0001
  6
CONTINUOUS
 62
       7
100
AcDbLine
 10
-118.132935
 20
-102.83115725
 30
0.0
 11
-118.132935
 21
-102.84289577
 31
0.0
  0
LINE
  5
1CF
100
AcDbEntity
  8
LAYER0001
  6
CONTINUOUS
 62
       7
100
AcDbLine
 10
-118.132935
 20
-102.84289577
 30
0.0
 11
-118.132935
 21
-102.85390453
 31
0.0
  0
LINE
  5
1D0
100
AcDbEntity
  8
LAYER0001
  6
CONTINUOUS
 62
       7
100
AcDbLine
 10
-118.132935
 20
-102.85390453
 30
0.0
 11
-118.132935
 21
-102.86412272
 31
0.0
  0
LINE
  5
1D1
100
AcDbEntity
  8
LAYER0001
  6
CONTINUOUS
 62
       7
100
AcDbLine
 10
-118.132935
 20
-102.86412272
 30
0.0
 11
-118.132935
 21
-102.87348952
 31
0.0
  0
LINE
  5
1D2
100
AcDbEntity
  8
LAYER0001
  6
CONTINUOUS
 62
       7
100
AcDbLine
 10
-118.132935
 20
-102.87348952
 30
0.0
 11
-118.132935
 21
-102.88194413
 31
0.0
  0
LINE
  5
1D3
100
AcDbEntity
  8
LAYER0001
  6
CONTINUOUS
 62
       7
100
AcDbLine
 10
-118.132935
 20
-102.88194413
 30
0.0
 11
-118.132935
 21
-102.88942573
 31
0.0
  0
LINE
  5
1D4
100
AcDbEntity
  8
LAYER0001
  6
CONTINUOUS
 62
       7
100
AcDbLine
 10
-118.132935
 20
-102.88942573
 30
0.0
 11
-118.132935
 21
-102.8958735
 31
0.0
  0
LINE
  5
1D5
100
AcDbEntity
  8
LAYER0001
  6
CONTINUOUS
 62
       7
100
AcDbLine
 10
-118.132935
 20
-102.8958735
 30
0.0
 11
-118.132935
 21
-102.90122735
 31
0.0
  0
LINE
  5
1D6
100
AcDbEntity
  8
LAYER0001
  6
CONTINUOUS
 62
       7
100
AcDbLine
 10
-118.132935
 20
-102.90122735
 30
0.0
 11
-118.132935
 21
-102.90550528
 31
0.0
  0
LINE
  5
1D7
100
AcDbEntity
  8
LAYER0001
  6
CONTINUOUS
 62
       7
100
AcDbLine
 10
-118.132935
 20
-102.90550528
 30
0.0
 11
-118.132935
 21
-102.90887296
 31
0.0
  0
LINE
  5
1D8
100
AcDbEntity
  8
LAYER0001
  6
CONTINUOUS
 62
       7
100
AcDbLine
 10
-118.132935
 20
-102.90887296
 30
0.0
 11
-118.132935
 21
-102.91151243
 31
0.0
  0
LINE
  5
1D9
100
AcDbEntity
  8
LAYER0001
  6
CONTINUOUS
 62
       7
100
AcDbLine
 10
-118.132935
 20
-102.91151243
 30
0.0
 11
-118.132935
 21
-102.91360574
 31
0.0
  0
LINE
  5
1DA
100
AcDbEntity
  8
LAYER0001
  6
CONTINUOUS
 62
       7
100
AcDbLine
 10
-118.132935
 20
-102.91360574
 30
0.0
 11
-118.132935
 21
-102.91533495
 31
0.0
  0
LINE
  5
1DB
100
AcDbEntity
  8
LAYER0001
  6
CONTINUOUS
 62
       7
100
AcDbLine
 10
-118.132935
 20
-102.91533495
 30
0.0
 11
-118.132935
 21
-102.91688211
 31
0.0
  0
ENDBLK
  5
1DC
100
AcDbEntity
  8
0
100
AcDbBlockEnd
  0
BLOCK
  5
1DD
100
AcDbEntity
  8
0
100
AcDbBlockBegin
  2
GROUP_9
 70
       0
 10
0.0
 20
0.0
 30
0.0
  3
GROUP_9
  1

  0
LINE
  5
1DE
100
AcDbEntity
  8
LAYER0001
  6
CONTINUOUS
 62
       7
100
AcDbLine
 10
-103.76755344
 20
-102.91688211
 30
0.0
 11
-103.82326341
 21
-102.91635186
 31
0.0
  0
LINE
  5
1DF
100
AcDbEntity
  8
LAYER0001
  6
CONTINUOUS
 62
       7
100
AcDbLine
 10
-103.82326341
 20
-102.91635186
 30
0.0
 11
-103.87892256
 21
-102.91515642
 31
0.0
  0
LINE
  5
1E0
100
AcDbEntity
  8
LAYER0001
  6
CONTINUOUS
 62
       7
100
AcDbLine
 10
-103.87892256
 20
-102.91515642
 30
0.0
 11
-103.93449722
 21
-102.91285485
 31
0.0
  0
LINE
  5
1E1
100
AcDbEntity
  8
LAYER0001
  6
CONTINUOUS
 62
       7
100
AcDbLine
 10
-103.93449722
 20
-102.91285485
 30
0.0
 11
-103.98998733
 21
-102.90944628
 31
0.0
  0
LINE
  5
1E2
100
AcDbEntity
  8
LAYER0001
  6
CONTINUOUS
 62
       7
100
AcDbLine
 10
-103.98998733
 20
-102.90944628
 30
0.0
 11
-104.04539672
 21
-102.90498103
 31
0.0
  0
LINE
  5
1E3
100
AcDbEntity
  8
LAYER0001
  6
CONTINUOUS
 62
       7
100
AcDbLine
 10
-104.04539672
 20
-102.90498103
 30
0.0
 11
-104.10072923
 21
-102.8995094
 31
0.0
  0
LINE
  5
1E4
100
AcDbEntity
  8
LAYER0001
  6
CONTINUOUS
 62
       7
100
AcDbLine
 10
-104.10072923
 20
-102.8995094
 30
0.0
 11
-104.15598872
 21
-102.89308173
 31
0.0
  0
LINE
  5
1E5
100
AcDbEntity
  8
LAYER0001
  6
CONTINUOUS
 62
       7
100
AcDbLine
 10
-104.15598872
 20
-102.89308173
 30
0.0
 11
-104.21117903
 21
-102.88574832
 31
0.0
  0
LINE
  5
1E6
100
AcDbEntity
  8
LAYER0001
  6
CONTINUOUS
 62
       7
100
AcDbLine
 10
-104.21117903
 20
-102.88574832
 30
0.0
 11
-104.26630399
 21
-102.8775595
 31
0.0
  0
LINE
  5
1E7
100
AcDbEntity
  8
LAYER0001
  6
CONTINUOUS
 62
       7
100
AcDbLine
 10
-104.26630399
 20
-102.8775595
 30
0.0
 11
-104.32136746
 21
-102.86856559
 31
0.0
  0
LINE
  5
1E8
100
AcDbEntity
  8
LAYER0001
  6
CONTINUOUS
 62
       7
100
AcDbLine
 10
-104.32136746
 20
-102.86856559
 30
0.0
 11
-104.37637327
 21
-102.8588169
 31
0.0
  0
LINE
  5
1E9
100
AcDbEntity
  8
LAYER0001
  6
CONTINUOUS
 62
       7
100
AcDbLine
 10
-104.37637327
 20
-102.8588169
 30
0.0
 11
-104.43132528
 21
-102.84836375
 31
0.0
  0
LINE
  5
1EA
100
AcDbEntity
  8
LAYER0001
  6
CONTINUOUS
 62
       7
100
AcDbLine
 10
-104.43132528
 20
-102.84836375
 30
0.0
 11
-104.48622731
 21
-102.83725647
 31
0.0
  0
LINE
  5
1EB
100
AcDbEntity
  8
LAYER0001
  6
CONTINUOUS
 62
       7
100
AcDbLine
 10
-104.48622731
 20
-102.83725647
 30
0.0
 11
-104.54108323
 21
-102.82554536
 31
0.0
  0
LINE
  5
1EC
100
AcDbEntity
  8
LAYER0001
  6
CONTINUOUS
 62
       7
100
AcDbLine
 10
-104.54108323
 20
-102.82554536
 30
0.0
 11
-104.59589686
 21
-102.81328075
 31
0.0
  0
LINE
  5
1ED
100
AcDbEntity
  8
LAYER0001
  6
CONTINUOUS
 62
       7
100
AcDbLine
 10
-104.59589686
 20
-102.81328075
 30
0.0
 11
-104.65067206
 21
-102.80051296
 31
0.0
  0
LINE
  5
1EE
100
AcDbEntity
  8
LAYER0001
  6
CONTINUOUS
 62
       7
100
AcDbLine
 10
-104.65067206
 20
-102.80051296
 30
0.0
 11
-104.70541267
 21
-102.7872923
 31
0.0
  0
LINE
  5
1EF
100
AcDbEntity
  8
LAYER0001
  6
CONTINUOUS
 62
       7
100
AcDbLine
 10
-104.70541267
 20
-102.7872923
 30
0.0
 11
-104.76012253
 21
-102.77366909
 31
0.0
  0
LINE
  5
1F0
100
AcDbEntity
  8
LAYER0001
  6
CONTINUOUS
 62
       7
100
AcDbLine
 10
-104.76012253
 20
-102.77366909
 30
0.0
 11
-104.81480548
 21
-102.75969366
 31
0.0
  0
LINE
  5
1F1
100
AcDbEntity
  8
LAYER0001
  6
CONTINUOUS
 62
       7
100
AcDbLine
 10
-104.81480548
 20
-102.75969366
 30
0.0
 11
-104.86946537
 21
-102.74541631
 31
0.0
  0
LINE
  5
1F2
100
AcDbEntity
  8
LAYER0001
  6
CONTINUOUS
 62
       7
100
AcDbLine
 10
-104.86946537
 20
-102.74541631
 30
0.0
 11
-104.92410604
 21
-102.73088738
 31
0.0
  0
LINE
  5
1F3
100
AcDbEntity
  8
LAYER0001
  6
CONTINUOUS
 62
       7
100
AcDbLine
 10
-104.92410604
 20
-102.73088738
 30
0.0
 11
-104.97873134
 21
-102.71615717
 31
0.0
  0
LINE
  5
1F4
100
AcDbEntity
  8
LAYER0001
  6
CONTINUOUS
 62
       7
100
AcDbLine
 10
-104.97873134
 20
-102.71615717
 30
0.0
 11
-105.03334511
 21
-102.701276
 31
0.0
  0
LINE
  5
1F5
100
AcDbEntity
  8
LAYER0001
  6
CONTINUOUS
 62
       7
100
AcDbLine
 10
-105.03334511
 20
-102.701276
 30
0.0
 11
-105.0879512
 21
-102.6862942
 31
0.0
  0
LINE
  5
1F6
100
AcDbEntity
  8
LAYER0001
  6
CONTINUOUS
 62
       7
100
AcDbLine
 10
-105.0879512
 20
-102.6862942
 30
0.0
 11
-105.14255343
 21
-102.67126208
 31
0.0
  0
ENDBLK
  5
1F7
100
AcDbEntity
  8
0
100
AcDbBlockEnd
  0
BLOCK
  5
1F8
100
AcDbEntity
  8
0
100
AcDbBlockBegin
  2
GROUP_10
 70
       0
 10
0.0
 20
0.0
 30
0.0
  3
GROUP_10
  1

  0
LINE
  5
1F9
100
AcDbEntity
  8
LAYER0001
  6
CONTINUOUS
 62
       7
100
AcDbLine
 10
-101.01755346
 20
-102.91688211
 30
0.0
 11
-101.07326366
 21
-102.91635185
 31
0.0
  0
LINE
  5
1FA
100
AcDbEntity
  8
LAYER0001
  6
CONTINUOUS
 62
       7
100
AcDbLine
 10
-101.07326366
 20
-102.91635185
 30
0.0
 11
-101.12892303
 21
-102.91515641
 31
0.0
  0
LINE
  5
1FB
100
AcDbEntity
  8
LAYER0001
  6
CONTINUOUS
 62
       7
100
AcDbLine
 10
-101.12892303
 20
-102.91515641
 30
0.0
 11
-101.18449788
 21
-102.91285483
 31
0.0
  0
LINE
  5
1FC
100
AcDbEntity
  8
LAYER0001
  6
CONTINUOUS
 62
       7
100
AcDbLine
 10
-101.18449788
 20
-102.91285483
 30
0.0
 11
-101.23998815
 21
-102.90944626
 31
0.0
  0
LINE
  5
1FD
100
AcDbEntity
  8
LAYER0001
  6
CONTINUOUS
 62
       7
100
AcDbLine
 10
-101.23998815
 20
-102.90944626
 30
0.0
 11
-101.29539767
 21
-102.90498099
 31
0.0
  0
LINE
  5
1FE
100
AcDbEntity
  8
LAYER0001
  6
CONTINUOUS
 62
       7
100
AcDbLine
 10
-101.29539767
 20
-102.90498099
 30
0.0
 11
-101.3507303
 21
-102.89950937
 31
0.0
  0
LINE
  5
1FF
100
AcDbEntity
  8
LAYER0001
  6
CONTINUOUS
 62
       7
100
AcDbLine
 10
-101.3507303
 20
-102.89950937
 30
0.0
 11
-101.40598987
 21
-102.89308169
 31
0.0
  0
LINE
  5
200
100
AcDbEntity
  8
LAYER0001
  6
CONTINUOUS
 62
       7
100
AcDbLine
 10
-101.40598987
 20
-102.89308169
 30
0.0
 11
-101.46118024
 21
-102.88574828
 31
0.0
  0
LINE
  5
201
100
AcDbEntity
  8
LAYER0001
  6
CONTINUOUS
 62
       7
100
AcDbLine
 10
-101.46118024
 20
-102.88574828
 30
0.0
 11
-101.51630525
 21
-102.87755946
 31
0.0
  0
LINE
  5
202
100
AcDbEntity
  8
LAYER0001
  6
CONTINUOUS
 62
       7
100
AcDbLine
 10
-101.51630525
 20
-102.87755946
 30
0.0
 11
-101.57136874
 21
-102.86856554
 31
0.0
  0
LINE
  5
203
100
AcDbEntity
  8
LAYER0001
  6
CONTINUOUS
 62
       7
100
AcDbLine
 10
-101.57136874
 20
-102.86856554
 30
0.0
 11
-101.62637455
 21
-102.85881686
 31
0.0
  0
LINE
  5
204
100
AcDbEntity
  8
LAYER0001
  6
CONTINUOUS
 62
       7
100
AcDbLine
 10
-101.62637455
 20
-102.85881686
 30
0.0
 11
-101.68132654
 21
-102.84836371
 31
0.0
  0
LINE
  5
205
100
AcDbEntity
  8
LAYER0001
  6
CONTINUOUS
 62
       7
100
AcDbLine
 10
-101.68132654
 20
-102.84836371
 30
0.0
 11
-101.73622854
 21
-102.83725642
 31
0.0
  0
LINE
  5
206
100
AcDbEntity
  8
LAYER0001
  6
CONTINUOUS
 62
       7
100
AcDbLine
 10
-101.73622854
 20
-102.83725642
 30
0.0
 11
-101.79108441
 21
-102.82554532
 31
0.0
  0
LINE
  5
207
100
AcDbEntity
  8
LAYER0001
  6
CONTINUOUS
 62
       7
100
AcDbLine
 10
-101.79108441
 20
-102.82554532
 30
0.0
 11
-101.84589798
 21
-102.81328071
 31
0.0
  0
LINE
  5
208
100
AcDbEntity
  8
LAYER0001
  6
CONTINUOUS
 62
       7
100
AcDbLine
 10
-101.84589798
 20
-102.81328071
 30
0.0
 11
-101.90067311
 21
-102.80051292
 31
0.0
  0
LINE
  5
209
100
AcDbEntity
  8
LAYER0001
  6
CONTINUOUS
 62
       7
100
AcDbLine
 10
-101.90067311
 20
-102.80051292
 30
0.0
 11
-101.95541363
 21
-102.78729227
 31
0.0
  0
LINE
  5
20A
100
AcDbEntity
  8
LAYER0001
  6
CONTINUOUS
 62
       7
100
AcDbLine
 10
-101.95541363
 20
-102.78729227
 30
0.0
 11
-102.01012339
 21
-102.77366906
 31
0.0
  0
LINE
  5
20B
100
AcDbEntity
  8
LAYER0001
  6
CONTINUOUS
 62
       7
100
AcDbLine
 10
-102.01012339
 20
-102.77366906
 30
0.0
 11
-102.06480624
 21
-102.75969363
 31
0.0
  0
LINE
  5
20C
100
AcDbEntity
  8
LAYER0001
  6
CONTINUOUS
 62
       7
100
AcDbLine
 10
-102.06480624
 20
-102.75969363
 30
0.0
 11
-102.11946602
 21
-102.74541629
 31
0.0
  0
LINE
  5
20D
100
AcDbEntity
  8
LAYER0001
  6
CONTINUOUS
 62
       7
100
AcDbLine
 10
-102.11946602
 20
-102.74541629
 30
0.0
 11
-102.17410657
 21
-102.73088736
 31
0.0
  0
LINE
  5
20E
100
AcDbEntity
  8
LAYER0001
  6
CONTINUOUS
 62
       7
100
AcDbLine
 10
-102.17410657
 20
-102.73088736
 30
0.0
 11
-102.22873175
 21
-102.71615715
 31
0.0
  0
LINE
  5
20F
100
AcDbEntity
  8
LAYER0001
  6
CONTINUOUS
 62
       7
100
AcDbLine
 10
-102.22873175
 20
-102.71615715
 30
0.0
 11
-102.28334539
 21
-102.70127599
 31
0.0
  0
LINE
  5
210
100
AcDbEntity
  8
LAYER0001
  6
CONTINUOUS
 62
       7
100
AcDbLine
 10
-102.28334539
 20
-102.70127599
 30
0.0
 11
-102.33795134
 21
-102.68629419
 31
0.0
  0
LINE
  5
211
100
AcDbEntity
  8
LAYER0001
  6
CONTINUOUS
 62
       7
100
AcDbLine
 10
-102.33795134
 20
-102.68629419
 30
0.0
 11
-102.39255345
 21
-102.67126208
 31
0.0
  0
ENDBLK
  5
212
100
AcDbEntity
  8
0
100
AcDbBlockEnd
  0
BLOCK
  5
213
100
AcDbEntity
  8
0
100
AcDbBlockBegin
  2
GROUP_11
 70
       0
 10
0.0
 20
0.0
 30
0.0
  3
GROUP_11
  1

  0
LINE
  5
214
100
AcDbEntity
  8
LAYER0001
  6
CONTINUOUS
 62
       7
100
AcDbLine
 10
-99.64255346
 20
-102.91688211
 30
0.0
 11
-99.64255346
 21
-102.91533495
 31
0.0
  0
LINE
  5
215
100
AcDbEntity
  8
LAYER0001
  6
CONTINUOUS
 62
       7
100
AcDbLine
 10
-99.64255346
 20
-102.91533495
 30
0.0
 11
-99.64255346
 21
-102.91360573
 31
0.0
  0
LINE
  5
216
100
AcDbEntity
  8
LAYER0001
  6
CONTINUOUS
 62
       7
100
AcDbLine
 10
-99.64255346
 20
-102.91360573
 30
0.0
 11
-99.64255346
 21
-102.91151242
 31
0.0
  0
LINE
  5
217
100
AcDbEntity
  8
LAYER0001
  6
CONTINUOUS
 62
       7
100
AcDbLine
 10
-99.64255346
 20
-102.91151242
 30
0.0
 11
-99.64255346
 21
-102.90887294
 31
0.0
  0
LINE
  5
218
100
AcDbEntity
  8
LAYER0001
  6
CONTINUOUS
 62
       7
100
AcDbLine
 10
-99.64255346
 20
-102.90887294
 30
0.0
 11
-99.64255346
 21
-102.90550526
 31
0.0
  0
LINE
  5
219
100
AcDbEntity
  8
LAYER0001
  6
CONTINUOUS
 62
       7
100
AcDbLine
 10
-99.64255346
 20
-102.90550526
 30
0.0
 11
-99.64255346
 21
-102.90122732
 31
0.0
  0
LINE
  5
21A
100
AcDbEntity
  8
LAYER0001
  6
CONTINUOUS
 62
       7
100
AcDbLine
 10
-99.64255346
 20
-102.90122732
 30
0.0
 11
-99.64255346
 21
-102.89587347
 31
0.0
  0
LINE
  5
21B
100
AcDbEntity
  8
LAYER0001
  6
CONTINUOUS
 62
       7
100
AcDbLine
 10
-99.64255346
 20
-102.89587347
 30
0.0
 11
-99.64255346
 21
-102.88942569
 31
0.0
  0
LINE
  5
21C
100
AcDbEntity
  8
LAYER0001
  6
CONTINUOUS
 62
       7
100
AcDbLine
 10
-99.64255346
 20
-102.88942569
 30
0.0
 11
-99.64255346
 21
-102.88194409
 31
0.0
  0
LINE
  5
21D
100
AcDbEntity
  8
LAYER0001
  6
CONTINUOUS
 62
       7
100
AcDbLine
 10
-99.64255346
 20
-102.88194409
 30
0.0
 11
-99.64255346
 21
-102.87348948
 31
0.0
  0
LINE
  5
21E
100
AcDbEntity
  8
LAYER0001
  6
CONTINUOUS
 62
       7
100
AcDbLine
 10
-99.64255346
 20
-102.87348948
 30
0.0
 11
-99.64255346
 21
-102.86412268
 31
0.0
  0
LINE
  5
21F
100
AcDbEntity
  8
LAYER0001
  6
CONTINUOUS
 62
       7
100
AcDbLine
 10
-99.64255346
 20
-102.86412268
 30
0.0
 11
-99.64255346
 21
-102.85390449
 31
0.0
  0
LINE
  5
220
100
AcDbEntity
  8
LAYER0001
  6
CONTINUOUS
 62
       7
100
AcDbLine
 10
-99.64255346
 20
-102.85390449
 30
0.0
 11
-99.64255346
 21
-102.84289573
 31
0.0
  0
LINE
  5
221
100
AcDbEntity
  8
LAYER0001
  6
CONTINUOUS
 62
       7
100
AcDbLine
 10
-99.64255346
 20
-102.84289573
 30
0.0
 11
-99.64255346
 21
-102.83115721
 31
0.0
  0
LINE
  5
222
100
AcDbEntity
  8
LAYER0001
  6
CONTINUOUS
 62
       7
100
AcDbLine
 10
-99.64255346
 20
-102.83115721
 30
0.0
 11
-99.64255346
 21
-102.81874975
 31
0.0
  0
LINE
  5
223
100
AcDbEntity
  8
LAYER0001
  6
CONTINUOUS
 62
       7
100
AcDbLine
 10
-99.64255346
 20
-102.81874975
 30
0.0
 11
-99.64255346
 21
-102.80573415
 31
0.0
  0
LINE
  5
224
100
AcDbEntity
  8
LAYER0001
  6
CONTINUOUS
 62
       7
100
AcDbLine
 10
-99.64255346
 20
-102.80573415
 30
0.0
 11
-99.64255346
 21
-102.79217124
 31
0.0
  0
LINE
  5
225
100
AcDbEntity
  8
LAYER0001
  6
CONTINUOUS
 62
       7
100
AcDbLine
 10
-99.64255346
 20
-102.79217124
 30
0.0
 11
-99.64255346
 21
-102.77812183
 31
0.0
  0
LINE
  5
226
100
AcDbEntity
  8
LAYER0001
  6
CONTINUOUS
 62
       7
100
AcDbLine
 10
-99.64255346
 20
-102.77812183
 30
0.0
 11
-99.64255346
 21
-102.76364672
 31
0.0
  0
LINE
  5
227
100
AcDbEntity
  8
LAYER0001
  6
CONTINUOUS
 62
       7
100
AcDbLine
 10
-99.64255346
 20
-102.76364672
 30
0.0
 11
-99.64255346
 21
-102.74880673
 31
0.0
  0
LINE
  5
228
100
AcDbEntity
  8
LAYER0001
  6
CONTINUOUS
 62
       7
100
AcDbLine
 10
-99.64255346
 20
-102.74880673
 30
0.0
 11
-99.64255346
 21
-102.73366268
 31
0.0
  0
LINE
  5
229
100
AcDbEntity
  8
LAYER0001
  6
CONTINUOUS
 62
       7
100
AcDbLine
 10
-99.64255346
 20
-102.73366268
 30
0.0
 11
-99.64255346
 21
-102.71827537
 31
0.0
  0
LINE
  5
22A
100
AcDbEntity
  8
LAYER0001
  6
CONTINUOUS
 62
       7
100
AcDbLine
 10
-99.64255346
 20
-102.71827537
 30
0.0
 11
-99.64255346
 21
-102.70270563
 31
0.0
  0
LINE
  5
22B
100
AcDbEntity
  8
LAYER0001
  6
CONTINUOUS
 62
       7
100
AcDbLine
 10
-99.64255346
 20
-102.70270563
 30
0.0
 11
-99.64255346
 21
-102.68701426
 31
0.0
  0
LINE
  5
22C
100
AcDbEntity
  8
LAYER0001
  6
CONTINUOUS
 62
       7
100
AcDbLine
 10
-99.64255346
 20
-102.68701426
 30
0.0
 11
-99.64255346
 21
-102.67126208
 31
0.0
  0
ENDBLK
  5
22D
100
AcDbEntity
  8
0
100
AcDbBlockEnd
  0
BLOCK
  5
22E
100
AcDbEntity
  8
0
100
AcDbBlockBegin
  2
GROUP_12
 70
       0
 10
0.0
 20
0.0
 30
0.0
  3
GROUP_12
  1

  0
LINE
  5
22F
100
AcDbEntity
  8
LAYER0001
  6
CONTINUOUS
 62
       7
100
AcDbLine
 10
-105.14255343
 20
-102.67126208
 30
0.0
 11
-105.14255343
 21
-102.68701426
 31
0.0
  0
LINE
  5
230
100
AcDbEntity
  8
LAYER0001
  6
CONTINUOUS
 62
       7
100
AcDbLine
 10
-105.14255343
 20
-102.68701426
 30
0.0
 11
-105.14255343
 21
-102.70270563
 31
0.0
  0
LINE
  5
231
100
AcDbEntity
  8
LAYER0001
  6
CONTINUOUS
 62
       7
100
AcDbLine
 10
-105.14255343
 20
-102.70270563
 30
0.0
 11
-105.14255343
 21
-102.71827537
 31
0.0
  0
LINE
  5
232
100
AcDbEntity
  8
LAYER0001
  6
CONTINUOUS
 62
       7
100
AcDbLine
 10
-105.14255343
 20
-102.71827537
 30
0.0
 11
-105.14255343
 21
-102.73366268
 31
0.0
  0
LINE
  5
233
100
AcDbEntity
  8
LAYER0001
  6
CONTINUOUS
 62
       7
100
AcDbLine
 10
-105.14255343
 20
-102.73366268
 30
0.0
 11
-105.14255343
 21
-102.74880673
 31
0.0
  0
LINE
  5
234
100
AcDbEntity
  8
LAYER0001
  6
CONTINUOUS
 62
       7
100
AcDbLine
 10
-105.14255343
 20
-102.74880673
 30
0.0
 11
-105.14255343
 21
-102.76364672
 31
0.0
  0
LINE
  5
235
100
AcDbEntity
  8
LAYER0001
  6
CONTINUOUS
 62
       7
100
AcDbLine
 10
-105.14255343
 20
-102.76364672
 30
0.0
 11
-105.14255343
 21
-102.77812183
 31
0.0
  0
LINE
  5
236
100
AcDbEntity
  8
LAYER0001
  6
CONTINUOUS
 62
       7
100
AcDbLine
 10
-105.14255343
 20
-102.77812183
 30
0.0
 11
-105.14255343
 21
-102.79217124
 31
0.0
  0
LINE
  5
237
100
AcDbEntity
  8
LAYER0001
  6
CONTINUOUS
 62
       7
100
AcDbLine
 10
-105.14255343
 20
-102.79217124
 30
0.0
 11
-105.14255343
 21
-102.80573415
 31
0.0
  0
LINE
  5
238
100
AcDbEntity
  8
LAYER0001
  6
CONTINUOUS
 62
       7
100
AcDbLine
 10
-105.14255343
 20
-102.80573415
 30
0.0
 11
-105.14255343
 21
-102.81874975
 31
0.0
  0
LINE
  5
239
100
AcDbEntity
  8
LAYER0001
  6
CONTINUOUS
 62
       7
100
AcDbLine
 10
-105.14255343
 20
-102.81874975
 30
0.0
 11
-105.14255343
 21
-102.83115721
 31
0.0
  0
LINE
  5
23A
100
AcDbEntity
  8
LAYER0001
  6
CONTINUOUS
 62
       7
100
AcDbLine
 10
-105.14255343
 20
-102.83115721
 30
0.0
 11
-105.14255343
 21
-102.84289573
 31
0.0
  0
LINE
  5
23B
100
AcDbEntity
  8
LAYER0001
  6
CONTINUOUS
 62
       7
100
AcDbLine
 10
-105.14255343
 20
-102.84289573
 30
0.0
 11
-105.14255343
 21
-102.85390449
 31
0.0
  0
LINE
  5
23C
100
AcDbEntity
  8
LAYER0001
  6
CONTINUOUS
 62
       7
100
AcDbLine
 10
-105.14255343
 20
-102.85390449
 30
0.0
 11
-105.14255343
 21
-102.86412268
 31
0.0
  0
LINE
  5
23D
100
AcDbEntity
  8
LAYER0001
  6
CONTINUOUS
 62
       7
100
AcDbLine
 10
-105.14255343
 20
-102.86412268
 30
0.0
 11
-105.14255343
 21
-102.87348948
 31
0.0
  0
LINE
  5
23E
100
AcDbEntity
  8
LAYER0001
  6
CONTINUOUS
 62
       7
100
AcDbLine
 10
-105.14255343
 20
-102.87348948
 30
0.0
 11
-105.14255343
 21
-102.88194409
 31
0.0
  0
LINE
  5
23F
100
AcDbEntity
  8
LAYER0001
  6
CONTINUOUS
 62
       7
100
AcDbLine
 10
-105.14255343
 20
-102.88194409
 30
0.0
 11
-105.14255343
 21
-102.88942569
 31
0.0
  0
LINE
  5
240
100
AcDbEntity
  8
LAYER0001
  6
CONTINUOUS
 62
       7
100
AcDbLine
 10
-105.14255343
 20
-102.88942569
 30
0.0
 11
-105.14255343
 21
-102.89587347
 31
0.0
  0
LINE
  5
241
100
AcDbEntity
  8
LAYER0001
  6
CONTINUOUS
 62
       7
100
AcDbLine
 10
-105.14255343
 20
-102.89587347
 30
0.0
 11
-105.14255343
 21
-102.90122732
 31
0.0
  0
LINE
  5
242
100
AcDbEntity
  8
LAYER0001
  6
CONTINUOUS
 62
       7
100
AcDbLine
 10
-105.14255343
 20
-102.90122732
 30
0.0
 11
-105.14255343
 21
-102.90550526
 31
0.0
  0
LINE
  5
243
100
AcDbEntity
  8
LAYER0001
  6
CONTINUOUS
 62
       7
100
AcDbLine
 10
-105.14255343
 20
-102.90550526
 30
0.0
 11
-105.14255343
 21
-102.90887294
 31
0.0
  0
LINE
  5
244
100
AcDbEntity
  8
LAYER0001
  6
CONTINUOUS
 62
       7
100
AcDbLine
 10
-105.14255343
 20
-102.90887294
 30
0.0
 11
-105.14255343
 21
-102.91151242
 31
0.0
  0
LINE
  5
245
100
AcDbEntity
  8
LAYER0001
  6
CONTINUOUS
 62
       7
100
AcDbLine
 10
-105.14255343
 20
-102.91151242
 30
0.0
 11
-105.14255343
 21
-102.91360573
 31
0.0
  0
LINE
  5
246
100
AcDbEntity
  8
LAYER0001
  6
CONTINUOUS
 62
       7
100
AcDbLine
 10
-105.14255343
 20
-102.91360573
 30
0.0
 11
-105.14255343
 21
-102.91533495
 31
0.0
  0
LINE
  5
247
100
AcDbEntity
  8
LAYER0001
  6
CONTINUOUS
 62
       7
100
AcDbLine
 10
-105.14255343
 20
-102.91533495
 30
0.0
 11
-105.14255343
 21
-102.91688211
 31
0.0
  0
ENDBLK
  5
248
100
AcDbEntity
  8
0
100
AcDbBlockEnd
  0
BLOCK
  5
249
100
AcDbEntity
  8
0
100
AcDbBlockBegin
  2
GROUP_13
 70
       0
 10
0.0
 20
0.0
 30
0.0
  3
GROUP_13
  1

  0
LINE
  5
24A
100
AcDbEntity
  8
LAYER0001
  6
CONTINUOUS
 62
       7
100
AcDbLine
 10
-88.02717282
 20
-102.91688211
 30
0.0
 11
-88.08288273
 21
-102.91635185
 31
0.0
  0
LINE
  5
24B
100
AcDbEntity
  8
LAYER0001
  6
CONTINUOUS
 62
       7
100
AcDbLine
 10
-88.08288273
 20
-102.91635185
 30
0.0
 11
-88.13854184
 21
-102.91515641
 31
0.0
  0
LINE
  5
24C
100
AcDbEntity
  8
LAYER0001
  6
CONTINUOUS
 62
       7
100
AcDbLine
 10
-88.13854184
 20
-102.91515641
 30
0.0
 11
-88.19411646
 21
-102.91285484
 31
0.0
  0
LINE
  5
24D
100
AcDbEntity
  8
LAYER0001
  6
CONTINUOUS
 62
       7
100
AcDbLine
 10
-88.19411646
 20
-102.91285484
 30
0.0
 11
-88.24960653
 21
-102.90944627
 31
0.0
  0
LINE
  5
24E
100
AcDbEntity
  8
LAYER0001
  6
CONTINUOUS
 62
       7
100
AcDbLine
 10
-88.24960653
 20
-102.90944627
 30
0.0
 11
-88.30501589
 21
-102.90498101
 31
0.0
  0
LINE
  5
24F
100
AcDbEntity
  8
LAYER0001
  6
CONTINUOUS
 62
       7
100
AcDbLine
 10
-88.30501589
 20
-102.90498101
 30
0.0
 11
-88.36034838
 21
-102.89950938
 31
0.0
  0
LINE
  5
250
100
AcDbEntity
  8
LAYER0001
  6
CONTINUOUS
 62
       7
100
AcDbLine
 10
-88.36034838
 20
-102.89950938
 30
0.0
 11
-88.41560785
 21
-102.8930817
 31
0.0
  0
LINE
  5
251
100
AcDbEntity
  8
LAYER0001
  6
CONTINUOUS
 62
       7
100
AcDbLine
 10
-88.41560785
 20
-102.8930817
 30
0.0
 11
-88.47079814
 21
-102.88574829
 31
0.0
  0
LINE
  5
252
100
AcDbEntity
  8
LAYER0001
  6
CONTINUOUS
 62
       7
100
AcDbLine
 10
-88.47079814
 20
-102.88574829
 30
0.0
 11
-88.5259231
 21
-102.87755947
 31
0.0
  0
LINE
  5
253
100
AcDbEntity
  8
LAYER0001
  6
CONTINUOUS
 62
       7
100
AcDbLine
 10
-88.5259231
 20
-102.87755947
 30
0.0
 11
-88.58098656
 21
-102.86856556
 31
0.0
  0
LINE
  5
254
100
AcDbEntity
  8
LAYER0001
  6
CONTINUOUS
 62
       7
100
AcDbLine
 10
-88.58098656
 20
-102.86856556
 30
0.0
 11
-88.63599237
 21
-102.85881687
 31
0.0
  0
LINE
  5
255
100
AcDbEntity
  8
LAYER0001
  6
CONTINUOUS
 62
       7
100
AcDbLine
 10
-88.63599237
 20
-102.85881687
 30
0.0
 11
-88.69094438
 21
-102.84836372
 31
0.0
  0
LINE
  5
256
100
AcDbEntity
  8
LAYER0001
  6
CONTINUOUS
 62
       7
100
AcDbLine
 10
-88.69094438
 20
-102.84836372
 30
0.0
 11
-88.74584642
 21
-102.83725644
 31
0.0
  0
LINE
  5
257
100
AcDbEntity
  8
LAYER0001
  6
CONTINUOUS
 62
       7
100
AcDbLine
 10
-88.74584642
 20
-102.83725644
 30
0.0
 11
-88.80070235
 21
-102.82554533
 31
0.0
  0
LINE
  5
258
100
AcDbEntity
  8
LAYER0001
  6
CONTINUOUS
 62
       7
100
AcDbLine
 10
-88.80070235
 20
-102.82554533
 30
0.0
 11
-88.855516
 21
-102.81328073
 31
0.0
  0
LINE
  5
259
100
AcDbEntity
  8
LAYER0001
  6
CONTINUOUS
 62
       7
100
AcDbLine
 10
-88.855516
 20
-102.81328073
 30
0.0
 11
-88.91029121
 21
-102.80051293
 31
0.0
  0
LINE
  5
25A
100
AcDbEntity
  8
LAYER0001
  6
CONTINUOUS
 62
       7
100
AcDbLine
 10
-88.91029121
 20
-102.80051293
 30
0.0
 11
-88.96503184
 21
-102.78729228
 31
0.0
  0
LINE
  5
25B
100
AcDbEntity
  8
LAYER0001
  6
CONTINUOUS
 62
       7
100
AcDbLine
 10
-88.96503184
 20
-102.78729228
 30
0.0
 11
-89.01974172
 21
-102.77366907
 31
0.0
  0
LINE
  5
25C
100
AcDbEntity
  8
LAYER0001
  6
CONTINUOUS
 62
       7
100
AcDbLine
 10
-89.01974172
 20
-102.77366907
 30
0.0
 11
-89.07442469
 21
-102.75969364
 31
0.0
  0
LINE
  5
25D
100
AcDbEntity
  8
LAYER0001
  6
CONTINUOUS
 62
       7
100
AcDbLine
 10
-89.07442469
 20
-102.75969364
 30
0.0
 11
-89.12908461
 21
-102.7454163
 31
0.0
  0
LINE
  5
25E
100
AcDbEntity
  8
LAYER0001
  6
CONTINUOUS
 62
       7
100
AcDbLine
 10
-89.12908461
 20
-102.7454163
 30
0.0
 11
-89.18372531
 21
-102.73088736
 31
0.0
  0
LINE
  5
25F
100
AcDbEntity
  8
LAYER0001
  6
CONTINUOUS
 62
       7
100
AcDbLine
 10
-89.18372531
 20
-102.73088736
 30
0.0
 11
-89.23835064
 21
-102.71615716
 31
0.0
  0
LINE
  5
260
100
AcDbEntity
  8
LAYER0001
  6
CONTINUOUS
 62
       7
100
AcDbLine
 10
-89.23835064
 20
-102.71615716
 30
0.0
 11
-89.29296443
 21
-102.70127599
 31
0.0
  0
LINE
  5
261
100
AcDbEntity
  8
LAYER0001
  6
CONTINUOUS
 62
       7
100
AcDbLine
 10
-89.29296443
 20
-102.70127599
 30
0.0
 11
-89.34757054
 21
-102.68629419
 31
0.0
  0
LINE
  5
262
100
AcDbEntity
  8
LAYER0001
  6
CONTINUOUS
 62
       7
100
AcDbLine
 10
-89.34757054
 20
-102.68629419
 30
0.0
 11
-89.40217281
 21
-102.67126208
 31
0.0
  0
ENDBLK
  5
263
100
AcDbEntity
  8
0
100
AcDbBlockEnd
  0
BLOCK
  5
264
100
AcDbEntity
  8
0
100
AcDbBlockBegin
  2
GROUP_14
 70
       0
 10
0.0
 20
0.0
 30
0.0
  3
GROUP_14
  1

  0
LINE
  5
265
100
AcDbEntity
  8
LAYER0001
  6
CONTINUOUS
 62
       7
100
AcDbLine
 10
-90.7771728
 20
-102.91688211
 30
0.0
 11
-90.83288272
 21
-102.91635185
 31
0.0
  0
LINE
  5
266
100
AcDbEntity
  8
LAYER0001
  6
CONTINUOUS
 62
       7
100
AcDbLine
 10
-90.83288272
 20
-102.91635185
 30
0.0
 11
-90.88854182
 21
-102.91515641
 31
0.0
  0
LINE
  5
267
100
AcDbEntity
  8
LAYER0001
  6
CONTINUOUS
 62
       7
100
AcDbLine
 10
-90.88854182
 20
-102.91515641
 30
0.0
 11
-90.94411644
 21
-102.91285484
 31
0.0
  0
LINE
  5
268
100
AcDbEntity
  8
LAYER0001
  6
CONTINUOUS
 62
       7
100
AcDbLine
 10
-90.94411644
 20
-102.91285484
 30
0.0
 11
-90.99960651
 21
-102.90944627
 31
0.0
  0
LINE
  5
269
100
AcDbEntity
  8
LAYER0001
  6
CONTINUOUS
 62
       7
100
AcDbLine
 10
-90.99960651
 20
-102.90944627
 30
0.0
 11
-91.05501587
 21
-102.90498101
 31
0.0
  0
LINE
  5
26A
100
AcDbEntity
  8
LAYER0001
  6
CONTINUOUS
 62
       7
100
AcDbLine
 10
-91.05501587
 20
-102.90498101
 30
0.0
 11
-91.11034836
 21
-102.89950938
 31
0.0
  0
LINE
  5
26B
100
AcDbEntity
  8
LAYER0001
  6
CONTINUOUS
 62
       7
100
AcDbLine
 10
-91.11034836
 20
-102.89950938
 30
0.0
 11
-91.16560784
 21
-102.8930817
 31
0.0
  0
LINE
  5
26C
100
AcDbEntity
  8
LAYER0001
  6
CONTINUOUS
 62
       7
100
AcDbLine
 10
-91.16560784
 20
-102.8930817
 30
0.0
 11
-91.22079813
 21
-102.88574829
 31
0.0
  0
LINE
  5
26D
100
AcDbEntity
  8
LAYER0001
  6
CONTINUOUS
 62
       7
100
AcDbLine
 10
-91.22079813
 20
-102.88574829
 30
0.0
 11
-91.27592308
 21
-102.87755947
 31
0.0
  0
LINE
  5
26E
100
AcDbEntity
  8
LAYER0001
  6
CONTINUOUS
 62
       7
100
AcDbLine
 10
-91.27592308
 20
-102.87755947
 30
0.0
 11
-91.33098654
 21
-102.86856556
 31
0.0
  0
LINE
  5
26F
100
AcDbEntity
  8
LAYER0001
  6
CONTINUOUS
 62
       7
100
AcDbLine
 10
-91.33098654
 20
-102.86856556
 30
0.0
 11
-91.38599236
 21
-102.85881687
 31
0.0
  0
LINE
  5
270
100
AcDbEntity
  8
LAYER0001
  6
CONTINUOUS
 62
       7
100
AcDbLine
 10
-91.38599236
 20
-102.85881687
 30
0.0
 11
-91.44094436
 21
-102.84836372
 31
0.0
  0
LINE
  5
271
100
AcDbEntity
  8
LAYER0001
  6
CONTINUOUS
 62
       7
100
AcDbLine
 10
-91.44094436
 20
-102.84836372
 30
0.0
 11
-91.49584641
 21
-102.83725644
 31
0.0
  0
LINE
  5
272
100
AcDbEntity
  8
LAYER0001
  6
CONTINUOUS
 62
       7
100
AcDbLine
 10
-91.49584641
 20
-102.83725644
 30
0.0
 11
-91.55070233
 21
-102.82554533
 31
0.0
  0
LINE
  5
273
100
AcDbEntity
  8
LAYER0001
  6
CONTINUOUS
 62
       7
100
AcDbLine
 10
-91.55070233
 20
-102.82554533
 30
0.0
 11
-91.60551598
 21
-102.81328073
 31
0.0
  0
LINE
  5
274
100
AcDbEntity
  8
LAYER0001
  6
CONTINUOUS
 62
       7
100
AcDbLine
 10
-91.60551598
 20
-102.81328073
 30
0.0
 11
-91.6602912
 21
-102.80051293
 31
0.0
  0
LINE
  5
275
100
AcDbEntity
  8
LAYER0001
  6
CONTINUOUS
 62
       7
100
AcDbLine
 10
-91.6602912
 20
-102.80051293
 30
0.0
 11
-91.71503182
 21
-102.78729228
 31
0.0
  0
LINE
  5
276
100
AcDbEntity
  8
LAYER0001
  6
CONTINUOUS
 62
       7
100
AcDbLine
 10
-91.71503182
 20
-102.78729228
 30
0.0
 11
-91.7697417
 21
-102.77366907
 31
0.0
  0
LINE
  5
277
100
AcDbEntity
  8
LAYER0001
  6
CONTINUOUS
 62
       7
100
AcDbLine
 10
-91.7697417
 20
-102.77366907
 30
0.0
 11
-91.82442468
 21
-102.75969364
 31
0.0
  0
LINE
  5
278
100
AcDbEntity
  8
LAYER0001
  6
CONTINUOUS
 62
       7
100
AcDbLine
 10
-91.82442468
 20
-102.75969364
 30
0.0
 11
-91.87908459
 21
-102.7454163
 31
0.0
  0
LINE
  5
279
100
AcDbEntity
  8
LAYER0001
  6
CONTINUOUS
 62
       7
100
AcDbLine
 10
-91.87908459
 20
-102.7454163
 30
0.0
 11
-91.93372529
 21
-102.73088736
 31
0.0
  0
LINE
  5
27A
100
AcDbEntity
  8
LAYER0001
  6
CONTINUOUS
 62
       7
100
AcDbLine
 10
-91.93372529
 20
-102.73088736
 30
0.0
 11
-91.98835062
 21
-102.71615716
 31
0.0
  0
LINE
  5
27B
100
AcDbEntity
  8
LAYER0001
  6
CONTINUOUS
 62
       7
100
AcDbLine
 10
-91.98835062
 20
-102.71615716
 30
0.0
 11
-92.04296442
 21
-102.70127599
 31
0.0
  0
LINE
  5
27C
100
AcDbEntity
  8
LAYER0001
  6
CONTINUOUS
 62
       7
100
AcDbLine
 10
-92.04296442
 20
-102.70127599
 30
0.0
 11
-92.09757053
 21
-102.68629419
 31
0.0
  0
LINE
  5
27D
100
AcDbEntity
  8
LAYER0001
  6
CONTINUOUS
 62
       7
100
AcDbLine
 10
-92.09757053
 20
-102.68629419
 30
0.0
 11
-92.1521728
 21
-102.67126208
 31
0.0
  0
ENDBLK
  5
27E
100
AcDbEntity
  8
0
100
AcDbBlockEnd
  0
BLOCK
  5
27F
100
AcDbEntity
  8
0
100
AcDbBlockBegin
  2
GROUP_15
 70
       0
 10
0.0
 20
0.0
 30
0.0
  3
GROUP_15
  1

  0
LINE
  5
280
100
AcDbEntity
  8
LAYER0001
  6
CONTINUOUS
 62
       7
100
AcDbLine
 10
-86.65217189
 20
-102.91688211
 30
0.0
 11
-86.65217189
 21
-102.91533495
 31
0.0
  0
LINE
  5
281
100
AcDbEntity
  8
LAYER0001
  6
CONTINUOUS
 62
       7
100
AcDbLine
 10
-86.65217189
 20
-102.91533495
 30
0.0
 11
-86.65217189
 21
-102.91360574
 31
0.0
  0
LINE
  5
282
100
AcDbEntity
  8
LAYER0001
  6
CONTINUOUS
 62
       7
100
AcDbLine
 10
-86.65217189
 20
-102.91360574
 30
0.0
 11
-86.65217189
 21
-102.91151243
 31
0.0
  0
LINE
  5
283
100
AcDbEntity
  8
LAYER0001
  6
CONTINUOUS
 62
       7
100
AcDbLine
 10
-86.65217189
 20
-102.91151243
 30
0.0
 11
-86.65217189
 21
-102.90887296
 31
0.0
  0
LINE
  5
284
100
AcDbEntity
  8
LAYER0001
  6
CONTINUOUS
 62
       7
100
AcDbLine
 10
-86.65217189
 20
-102.90887296
 30
0.0
 11
-86.65217189
 21
-102.90550528
 31
0.0
  0
LINE
  5
285
100
AcDbEntity
  8
LAYER0001
  6
CONTINUOUS
 62
       7
100
AcDbLine
 10
-86.65217189
 20
-102.90550528
 30
0.0
 11
-86.65217189
 21
-102.90122735
 31
0.0
  0
LINE
  5
286
100
AcDbEntity
  8
LAYER0001
  6
CONTINUOUS
 62
       7
100
AcDbLine
 10
-86.65217189
 20
-102.90122735
 30
0.0
 11
-86.65217189
 21
-102.8958735
 31
0.0
  0
LINE
  5
287
100
AcDbEntity
  8
LAYER0001
  6
CONTINUOUS
 62
       7
100
AcDbLine
 10
-86.65217189
 20
-102.8958735
 30
0.0
 11
-86.65217189
 21
-102.88942573
 31
0.0
  0
LINE
  5
288
100
AcDbEntity
  8
LAYER0001
  6
CONTINUOUS
 62
       7
100
AcDbLine
 10
-86.65217189
 20
-102.88942573
 30
0.0
 11
-86.65217189
 21
-102.88194413
 31
0.0
  0
LINE
  5
289
100
AcDbEntity
  8
LAYER0001
  6
CONTINUOUS
 62
       7
100
AcDbLine
 10
-86.65217189
 20
-102.88194413
 30
0.0
 11
-86.65217189
 21
-102.87348952
 31
0.0
  0
LINE
  5
28A
100
AcDbEntity
  8
LAYER0001
  6
CONTINUOUS
 62
       7
100
AcDbLine
 10
-86.65217189
 20
-102.87348952
 30
0.0
 11
-86.65217189
 21
-102.86412272
 31
0.0
  0
LINE
  5
28B
100
AcDbEntity
  8
LAYER0001
  6
CONTINUOUS
 62
       7
100
AcDbLine
 10
-86.65217189
 20
-102.86412272
 30
0.0
 11
-86.65217189
 21
-102.85390453
 31
0.0
  0
LINE
  5
28C
100
AcDbEntity
  8
LAYER0001
  6
CONTINUOUS
 62
       7
100
AcDbLine
 10
-86.65217189
 20
-102.85390453
 30
0.0
 11
-86.65217189
 21
-102.84289577
 31
0.0
  0
LINE
  5
28D
100
AcDbEntity
  8
LAYER0001
  6
CONTINUOUS
 62
       7
100
AcDbLine
 10
-86.65217189
 20
-102.84289577
 30
0.0
 11
-86.65217189
 21
-102.83115725
 31
0.0
  0
LINE
  5
28E
100
AcDbEntity
  8
LAYER0001
  6
CONTINUOUS
 62
       7
100
AcDbLine
 10
-86.65217189
 20
-102.83115725
 30
0.0
 11
-86.65217189
 21
-102.81874978
 31
0.0
  0
LINE
  5
28F
100
AcDbEntity
  8
LAYER0001
  6
CONTINUOUS
 62
       7
100
AcDbLine
 10
-86.65217189
 20
-102.81874978
 30
0.0
 11
-86.65217189
 21
-102.80573419
 31
0.0
  0
LINE
  5
290
100
AcDbEntity
  8
LAYER0001
  6
CONTINUOUS
 62
       7
100
AcDbLine
 10
-86.65217189
 20
-102.80573419
 30
0.0
 11
-86.65217189
 21
-102.79217128
 31
0.0
  0
LINE
  5
291
100
AcDbEntity
  8
LAYER0001
  6
CONTINUOUS
 62
       7
100
AcDbLine
 10
-86.65217189
 20
-102.79217128
 30
0.0
 11
-86.65217189
 21
-102.77812186
 31
0.0
  0
LINE
  5
292
100
AcDbEntity
  8
LAYER0001
  6
CONTINUOUS
 62
       7
100
AcDbLine
 10
-86.65217189
 20
-102.77812186
 30
0.0
 11
-86.65217189
 21
-102.76364674
 31
0.0
  0
LINE
  5
293
100
AcDbEntity
  8
LAYER0001
  6
CONTINUOUS
 62
       7
100
AcDbLine
 10
-86.65217189
 20
-102.76364674
 30
0.0
 11
-86.65217189
 21
-102.74880675
 31
0.0
  0
LINE
  5
294
100
AcDbEntity
  8
LAYER0001
  6
CONTINUOUS
 62
       7
100
AcDbLine
 10
-86.65217189
 20
-102.74880675
 30
0.0
 11
-86.65217189
 21
-102.7336627
 31
0.0
  0
LINE
  5
295
100
AcDbEntity
  8
LAYER0001
  6
CONTINUOUS
 62
       7
100
AcDbLine
 10
-86.65217189
 20
-102.7336627
 30
0.0
 11
-86.65217189
 21
-102.71827539
 31
0.0
  0
LINE
  5
296
100
AcDbEntity
  8
LAYER0001
  6
CONTINUOUS
 62
       7
100
AcDbLine
 10
-86.65217189
 20
-102.71827539
 30
0.0
 11
-86.65217189
 21
-102.70270564
 31
0.0
  0
LINE
  5
297
100
AcDbEntity
  8
LAYER0001
  6
CONTINUOUS
 62
       7
100
AcDbLine
 10
-86.65217189
 20
-102.70270564
 30
0.0
 11
-86.65217189
 21
-102.68701426
 31
0.0
  0
LINE
  5
298
100
AcDbEntity
  8
LAYER0001
  6
CONTINUOUS
 62
       7
100
AcDbLine
 10
-86.65217189
 20
-102.68701426
 30
0.0
 11
-86.65217189
 21
-102.67126208
 31
0.0
  0
ENDBLK
  5
299
100
AcDbEntity
  8
0
100
AcDbBlockEnd
  0
BLOCK
  5
29A
100
AcDbEntity
  8
0
100
AcDbBlockBegin
  2
GROUP_16
 70
       0
 10
0.0
 20
0.0
 30
0.0
  3
GROUP_16
  1

  0
LINE
  5
29B
100
AcDbEntity
  8
LAYER0001
  6
CONTINUOUS
 62
       7
100
AcDbLine
 10
-92.1521728
 20
-102.67126208
 30
0.0
 11
-92.1521728
 21
-102.68701426
 31
0.0
  0
LINE
  5
29C
100
AcDbEntity
  8
LAYER0001
  6
CONTINUOUS
 62
       7
100
AcDbLine
 10
-92.1521728
 20
-102.68701426
 30
0.0
 11
-92.1521728
 21
-102.70270564
 31
0.0
  0
LINE
  5
29D
100
AcDbEntity
  8
LAYER0001
  6
CONTINUOUS
 62
       7
100
AcDbLine
 10
-92.1521728
 20
-102.70270564
 30
0.0
 11
-92.1521728
 21
-102.71827539
 31
0.0
  0
LINE
  5
29E
100
AcDbEntity
  8
LAYER0001
  6
CONTINUOUS
 62
       7
100
AcDbLine
 10
-92.1521728
 20
-102.71827539
 30
0.0
 11
-92.1521728
 21
-102.7336627
 31
0.0
  0
LINE
  5
29F
100
AcDbEntity
  8
LAYER0001
  6
CONTINUOUS
 62
       7
100
AcDbLine
 10
-92.1521728
 20
-102.7336627
 30
0.0
 11
-92.1521728
 21
-102.74880675
 31
0.0
  0
LINE
  5
2A0
100
AcDbEntity
  8
LAYER0001
  6
CONTINUOUS
 62
       7
100
AcDbLine
 10
-92.1521728
 20
-102.74880675
 30
0.0
 11
-92.1521728
 21
-102.76364674
 31
0.0
  0
LINE
  5
2A1
100
AcDbEntity
  8
LAYER0001
  6
CONTINUOUS
 62
       7
100
AcDbLine
 10
-92.1521728
 20
-102.76364674
 30
0.0
 11
-92.1521728
 21
-102.77812186
 31
0.0
  0
LINE
  5
2A2
100
AcDbEntity
  8
LAYER0001
  6
CONTINUOUS
 62
       7
100
AcDbLine
 10
-92.1521728
 20
-102.77812186
 30
0.0
 11
-92.1521728
 21
-102.79217128
 31
0.0
  0
LINE
  5
2A3
100
AcDbEntity
  8
LAYER0001
  6
CONTINUOUS
 62
       7
100
AcDbLine
 10
-92.1521728
 20
-102.79217128
 30
0.0
 11
-92.1521728
 21
-102.80573419
 31
0.0
  0
LINE
  5
2A4
100
AcDbEntity
  8
LAYER0001
  6
CONTINUOUS
 62
       7
100
AcDbLine
 10
-92.1521728
 20
-102.80573419
 30
0.0
 11
-92.1521728
 21
-102.81874978
 31
0.0
  0
LINE
  5
2A5
100
AcDbEntity
  8
LAYER0001
  6
CONTINUOUS
 62
       7
100
AcDbLine
 10
-92.1521728
 20
-102.81874978
 30
0.0
 11
-92.1521728
 21
-102.83115725
 31
0.0
  0
LINE
  5
2A6
100
AcDbEntity
  8
LAYER0001
  6
CONTINUOUS
 62
       7
100
AcDbLine
 10
-92.1521728
 20
-102.83115725
 30
0.0
 11
-92.1521728
 21
-102.84289577
 31
0.0
  0
LINE
  5
2A7
100
AcDbEntity
  8
LAYER0001
  6
CONTINUOUS
 62
       7
100
AcDbLine
 10
-92.1521728
 20
-102.84289577
 30
0.0
 11
-92.1521728
 21
-102.85390453
 31
0.0
  0
LINE
  5
2A8
100
AcDbEntity
  8
LAYER0001
  6
CONTINUOUS
 62
       7
100
AcDbLine
 10
-92.1521728
 20
-102.85390453
 30
0.0
 11
-92.1521728
 21
-102.86412272
 31
0.0
  0
LINE
  5
2A9
100
AcDbEntity
  8
LAYER0001
  6
CONTINUOUS
 62
       7
100
AcDbLine
 10
-92.1521728
 20
-102.86412272
 30
0.0
 11
-92.1521728
 21
-102.87348952
 31
0.0
  0
LINE
  5
2AA
100
AcDbEntity
  8
LAYER0001
  6
CONTINUOUS
 62
       7
100
AcDbLine
 10
-92.1521728
 20
-102.87348952
 30
0.0
 11
-92.1521728
 21
-102.88194413
 31
0.0
  0
LINE
  5
2AB
100
AcDbEntity
  8
LAYER0001
  6
CONTINUOUS
 62
       7
100
AcDbLine
 10
-92.1521728
 20
-102.88194413
 30
0.0
 11
-92.1521728
 21
-102.88942573
 31
0.0
  0
LINE
  5
2AC
100
AcDbEntity
  8
LAYER0001
  6
CONTINUOUS
 62
       7
100
AcDbLine
 10
-92.1521728
 20
-102.88942573
 30
0.0
 11
-92.1521728
 21
-102.8958735
 31
0.0
  0
LINE
  5
2AD
100
AcDbEntity
  8
LAYER0001
  6
CONTINUOUS
 62
       7
100
AcDbLine
 10
-92.1521728
 20
-102.8958735
 30
0.0
 11
-92.1521728
 21
-102.90122735
 31
0.0
  0
LINE
  5
2AE
100
AcDbEntity
  8
LAYER0001
  6
CONTINUOUS
 62
       7
100
AcDbLine
 10
-92.1521728
 20
-102.90122735
 30
0.0
 11
-92.1521728
 21
-102.90550528
 31
0.0
  0
LINE
  5
2AF
100
AcDbEntity
  8
LAYER0001
  6
CONTINUOUS
 62
       7
100
AcDbLine
 10
-92.1521728
 20
-102.90550528
 30
0.0
 11
-92.1521728
 21
-102.90887296
 31
0.0
  0
LINE
  5
2B0
100
AcDbEntity
  8
LAYER0001
  6
CONTINUOUS
 62
       7
100
AcDbLine
 10
-92.1521728
 20
-102.90887296
 30
0.0
 11
-92.1521728
 21
-102.91151243
 31
0.0
  0
LINE
  5
2B1
100
AcDbEntity
  8
LAYER0001
  6
CONTINUOUS
 62
       7
100
AcDbLine
 10
-92.1521728
 20
-102.91151243
 30
0.0
 11
-92.1521728
 21
-102.91360574
 31
0.0
  0
LINE
  5
2B2
100
AcDbEntity
  8
LAYER0001
  6
CONTINUOUS
 62
       7
100
AcDbLine
 10
-92.1521728
 20
-102.91360574
 30
0.0
 11
-92.1521728
 21
-102.91533495
 31
0.0
  0
LINE
  5
2B3
100
AcDbEntity
  8
LAYER0001
  6
CONTINUOUS
 62
       7
100
AcDbLine
 10
-92.1521728
 20
-102.91533495
 30
0.0
 11
-92.1521728
 21
-102.91688211
 31
0.0
  0
ENDBLK
  5
2B4
100
AcDbEntity
  8
0
100
AcDbBlockEnd
  0
BLOCK
  5
2B5
100
AcDbEntity
  8
0
100
AcDbBlockBegin
  2
GROUP_17
 70
       0
 10
0.0
 20
0.0
 30
0.0
  3
GROUP_17
  1

  0
LINE
  5
2B6
100
AcDbEntity
  8
LAYER0001
  6
CONTINUOUS
 62
       7
100
AcDbLine
 10
-89.64469372
 20
-89.81688217
 30
0.0
 11
-89.61783883
 21
-89.81727605
 31
0.0
  0
LINE
  5
2B7
100
AcDbEntity
  8
LAYER0001
  6
CONTINUOUS
 62
       7
100
AcDbLine
 10
-89.61783883
 20
-89.81727605
 30
0.0
 11
-89.59113083
 21
-89.81846112
 31
0.0
  0
LINE
  5
2B8
100
AcDbEntity
  8
LAYER0001
  6
CONTINUOUS
 62
       7
100
AcDbLine
 10
-89.59113083
 20
-89.81846112
 30
0.0
 11
-89.56456993
 21
-89.82044251
 31
0.0
  0
LINE
  5
2B9
100
AcDbEntity
  8
LAYER0001
  6
CONTINUOUS
 62
       7
100
AcDbLine
 10
-89.56456993
 20
-89.82044251
 30
0.0
 11
-89.53815635
 21
-89.82322537
 31
0.0
  0
LINE
  5
2BA
100
AcDbEntity
  8
LAYER0001
  6
CONTINUOUS
 62
       7
100
AcDbLine
 10
-89.53815635
 20
-89.82322537
 30
0.0
 11
-89.5118903
 21
-89.82681485
 31
0.0
  0
LINE
  5
2BB
100
AcDbEntity
  8
LAYER0001
  6
CONTINUOUS
 62
       7
100
AcDbLine
 10
-89.5118903
 20
-89.82681485
 30
0.0
 11
-89.485772
 21
-89.83121609
 31
0.0
  0
LINE
  5
2BC
100
AcDbEntity
  8
LAYER0001
  6
CONTINUOUS
 62
       7
100
AcDbLine
 10
-89.485772
 20
-89.83121609
 30
0.0
 11
-89.45980166
 21
-89.83643422
 31
0.0
  0
LINE
  5
2BD
100
AcDbEntity
  8
LAYER0001
  6
CONTINUOUS
 62
       7
100
AcDbLine
 10
-89.45980166
 20
-89.83643422
 30
0.0
 11
-89.43397951
 21
-89.8424744
 31
0.0
  0
LINE
  5
2BE
100
AcDbEntity
  8
LAYER0001
  6
CONTINUOUS
 62
       7
100
AcDbLine
 10
-89.43397951
 20
-89.8424744
 30
0.0
 11
-89.40830575
 21
-89.84934176
 31
0.0
  0
LINE
  5
2BF
100
AcDbEntity
  8
LAYER0001
  6
CONTINUOUS
 62
       7
100
AcDbLine
 10
-89.40830575
 20
-89.84934176
 30
0.0
 11
-89.3827806
 21
-89.85704144
 31
0.0
  0
LINE
  5
2C0
100
AcDbEntity
  8
LAYER0001
  6
CONTINUOUS
 62
       7
100
AcDbLine
 10
-89.3827806
 20
-89.85704144
 30
0.0
 11
-89.35740429
 21
-89.86557859
 31
0.0
  0
LINE
  5
2C1
100
AcDbEntity
  8
LAYER0001
  6
CONTINUOUS
 62
       7
100
AcDbLine
 10
-89.35740429
 20
-89.86557859
 30
0.0
 11
-89.33217702
 21
-89.87495836
 31
0.0
  0
LINE
  5
2C2
100
AcDbEntity
  8
LAYER0001
  6
CONTINUOUS
 62
       7
100
AcDbLine
 10
-89.33217702
 20
-89.87495836
 30
0.0
 11
-89.3071099
 21
-89.88518486
 31
0.0
  0
LINE
  5
2C3
100
AcDbEntity
  8
LAYER0001
  6
CONTINUOUS
 62
       7
100
AcDbLine
 10
-89.3071099
 20
-89.88518486
 30
0.0
 11
-89.28227561
 21
-89.89625651
 31
0.0
  0
LINE
  5
2C4
100
AcDbEntity
  8
LAYER0001
  6
CONTINUOUS
 62
       7
100
AcDbLine
 10
-89.28227561
 20
-89.89625651
 30
0.0
 11
-89.25770331
 21
-89.90817574
 31
0.0
  0
LINE
  5
2C5
100
AcDbEntity
  8
LAYER0001
  6
CONTINUOUS
 62
       7
100
AcDbLine
 10
-89.25770331
 20
-89.90817574
 30
0.0
 11
-89.23341205
 21
-89.92094592
 31
0.0
  0
LINE
  5
2C6
100
AcDbEntity
  8
LAYER0001
  6
CONTINUOUS
 62
       7
100
AcDbLine
 10
-89.23341205
 20
-89.92094592
 30
0.0
 11
-89.2094209
 21
-89.93457044
 31
0.0
  0
LINE
  5
2C7
100
AcDbEntity
  8
LAYER0001
  6
CONTINUOUS
 62
       7
100
AcDbLine
 10
-89.2094209
 20
-89.93457044
 30
0.0
 11
-89.18574891
 21
-89.94905268
 31
0.0
  0
LINE
  5
2C8
100
AcDbEntity
  8
LAYER0001
  6
CONTINUOUS
 62
       7
100
AcDbLine
 10
-89.18574891
 20
-89.94905268
 30
0.0
 11
-89.16241513
 21
-89.96439601
 31
0.0
  0
LINE
  5
2C9
100
AcDbEntity
  8
LAYER0001
  6
CONTINUOUS
 62
       7
100
AcDbLine
 10
-89.16241513
 20
-89.96439601
 30
0.0
 11
-89.13943863
 21
-89.98060383
 31
0.0
  0
LINE
  5
2CA
100
AcDbEntity
  8
LAYER0001
  6
CONTINUOUS
 62
       7
100
AcDbLine
 10
-89.13943863
 20
-89.98060383
 30
0.0
 11
-89.11683846
 21
-89.9976795
 31
0.0
  0
LINE
  5
2CB
100
AcDbEntity
  8
LAYER0001
  6
CONTINUOUS
 62
       7
100
AcDbLine
 10
-89.11683846
 20
-89.9976795
 30
0.0
 11
-89.09463369
 21
-90.0156264
 31
0.0
  0
LINE
  5
2CC
100
AcDbEntity
  8
LAYER0001
  6
CONTINUOUS
 62
       7
100
AcDbLine
 10
-89.09463369
 20
-90.0156264
 30
0.0
 11
-89.07284335
 21
-90.03444792
 31
0.0
  0
LINE
  5
2CD
100
AcDbEntity
  8
LAYER0001
  6
CONTINUOUS
 62
       7
100
AcDbLine
 10
-89.07284335
 20
-90.03444792
 30
0.0
 11
-89.05148652
 21
-90.05414743
 31
0.0
  0
LINE
  5
2CE
100
AcDbEntity
  8
LAYER0001
  6
CONTINUOUS
 62
       7
100
AcDbLine
 10
-89.05148652
 20
-90.05414743
 30
0.0
 11
-89.03058225
 21
-90.07472831
 31
0.0
  0
LINE
  5
2CF
100
AcDbEntity
  8
LAYER0001
  6
CONTINUOUS
 62
       7
100
AcDbLine
 10
-89.03058225
 20
-90.07472831
 30
0.0
 11
-89.01017077
 21
-90.09618421
 31
0.0
  0
LINE
  5
2D0
100
AcDbEntity
  8
LAYER0001
  6
CONTINUOUS
 62
       7
100
AcDbLine
 10
-89.01017077
 20
-90.09618421
 30
0.0
 11
-88.99029748
 21
-90.11849516
 31
0.0
  0
LINE
  5
2D1
100
AcDbEntity
  8
LAYER0001
  6
CONTINUOUS
 62
       7
100
AcDbLine
 10
-88.99029748
 20
-90.11849516
 30
0.0
 11
-88.97098918
 21
-90.14164415
 31
0.0
  0
LINE
  5
2D2
100
AcDbEntity
  8
LAYER0001
  6
CONTINUOUS
 62
       7
100
AcDbLine
 10
-88.97098918
 20
-90.14164415
 30
0.0
 11
-88.95227268
 21
-90.16561418
 31
0.0
  0
LINE
  5
2D3
100
AcDbEntity
  8
LAYER0001
  6
CONTINUOUS
 62
       7
100
AcDbLine
 10
-88.95227268
 20
-90.16561418
 30
0.0
 11
-88.93417478
 21
-90.19038823
 31
0.0
  0
LINE
  5
2D4
100
AcDbEntity
  8
LAYER0001
  6
CONTINUOUS
 62
       7
100
AcDbLine
 10
-88.93417478
 20
-90.19038823
 30
0.0
 11
-88.91672228
 21
-90.21594929
 31
0.0
  0
LINE
  5
2D5
100
AcDbEntity
  8
LAYER0001
  6
CONTINUOUS
 62
       7
100
AcDbLine
 10
-88.91672228
 20
-90.21594929
 30
0.0
 11
-88.89994199
 21
-90.24228036
 31
0.0
  0
LINE
  5
2D6
100
AcDbEntity
  8
LAYER0001
  6
CONTINUOUS
 62
       7
100
AcDbLine
 10
-88.89994199
 20
-90.24228036
 30
0.0
 11
-88.88386071
 21
-90.26936443
 31
0.0
  0
LINE
  5
2D7
100
AcDbEntity
  8
LAYER0001
  6
CONTINUOUS
 62
       7
100
AcDbLine
 10
-88.88386071
 20
-90.26936443
 30
0.0
 11
-88.86850524
 21
-90.29718447
 31
0.0
  0
LINE
  5
2D8
100
AcDbEntity
  8
LAYER0001
  6
CONTINUOUS
 62
       7
100
AcDbLine
 10
-88.86850524
 20
-90.29718447
 30
0.0
 11
-88.85390239
 21
-90.3257235
 31
0.0
  0
LINE
  5
2D9
100
AcDbEntity
  8
LAYER0001
  6
CONTINUOUS
 62
       7
100
AcDbLine
 10
-88.85390239
 20
-90.3257235
 30
0.0
 11
-88.84007896
 21
-90.35496449
 31
0.0
  0
LINE
  5
2DA
100
AcDbEntity
  8
LAYER0001
  6
CONTINUOUS
 62
       7
100
AcDbLine
 10
-88.84007896
 20
-90.35496449
 30
0.0
 11
-88.82706176
 21
-90.38489043
 31
0.0
  0
LINE
  5
2DB
100
AcDbEntity
  8
LAYER0001
  6
CONTINUOUS
 62
       7
100
AcDbLine
 10
-88.82706176
 20
-90.38489043
 30
0.0
 11
-88.81488115
 21
-90.41547525
 31
0.0
  0
LINE
  5
2DC
100
AcDbEntity
  8
LAYER0001
  6
CONTINUOUS
 62
       7
100
AcDbLine
 10
-88.81488115
 20
-90.41547525
 30
0.0
 11
-88.80358111
 21
-90.44664035
 31
0.0
  0
LINE
  5
2DD
100
AcDbEntity
  8
LAYER0001
  6
CONTINUOUS
 62
       7
100
AcDbLine
 10
-88.80358111
 20
-90.44664035
 30
0.0
 11
-88.79318137
 21
-90.47834134
 31
0.0
  0
LINE
  5
2DE
100
AcDbEntity
  8
LAYER0001
  6
CONTINUOUS
 62
       7
100
AcDbLine
 10
-88.79318137
 20
-90.47834134
 30
0.0
 11
-88.78369761
 21
-90.51054213
 31
0.0
  0
LINE
  5
2DF
100
AcDbEntity
  8
LAYER0001
  6
CONTINUOUS
 62
       7
100
AcDbLine
 10
-88.78369761
 20
-90.51054213
 30
0.0
 11
-88.77514552
 21
-90.54320659
 31
0.0
  0
LINE
  5
2E0
100
AcDbEntity
  8
LAYER0001
  6
CONTINUOUS
 62
       7
100
AcDbLine
 10
-88.77514552
 20
-90.54320659
 30
0.0
 11
-88.76754079
 21
-90.57629864
 31
0.0
  0
LINE
  5
2E1
100
AcDbEntity
  8
LAYER0001
  6
CONTINUOUS
 62
       7
100
AcDbLine
 10
-88.76754079
 20
-90.57629864
 30
0.0
 11
-88.76089913
 21
-90.60978215
 31
0.0
  0
LINE
  5
2E2
100
AcDbEntity
  8
LAYER0001
  6
CONTINUOUS
 62
       7
100
AcDbLine
 10
-88.76089913
 20
-90.60978215
 30
0.0
 11
-88.7552362
 21
-90.64362103
 31
0.0
  0
LINE
  5
2E3
100
AcDbEntity
  8
LAYER0001
  6
CONTINUOUS
 62
       7
100
AcDbLine
 10
-88.7552362
 20
-90.64362103
 30
0.0
 11
-88.75056771
 21
-90.67777917
 31
0.0
  0
LINE
  5
2E4
100
AcDbEntity
  8
LAYER0001
  6
CONTINUOUS
 62
       7
100
AcDbLine
 10
-88.75056771
 20
-90.67777917
 30
0.0
 11
-88.74690936
 21
-90.71222046
 31
0.0
  0
LINE
  5
2E5
100
AcDbEntity
  8
LAYER0001
  6
CONTINUOUS
 62
       7
100
AcDbLine
 10
-88.74690936
 20
-90.71222046
 30
0.0
 11
-88.74427681
 21
-90.74690879
 31
0.0
  0
LINE
  5
2E6
100
AcDbEntity
  8
LAYER0001
  6
CONTINUOUS
 62
       7
100
AcDbLine
 10
-88.74427681
 20
-90.74690879
 30
0.0
 11
-88.74268578
 21
-90.78180807
 31
0.0
  0
LINE
  5
2E7
100
AcDbEntity
  8
LAYER0001
  6
CONTINUOUS
 62
       7
100
AcDbLine
 10
-88.74268578
 20
-90.78180807
 30
0.0
 11
-88.74215195
 21
-90.81688217
 31
0.0
  0
ENDBLK
  5
2E8
100
AcDbEntity
  8
0
100
AcDbBlockEnd
  0
BLOCK
  5
2E9
100
AcDbEntity
  8
0
100
AcDbBlockBegin
  2
GROUP_18
 70
       0
 10
0.0
 20
0.0
 30
0.0
  3
GROUP_18
  1

  0
LINE
  5
2EA
100
AcDbEntity
  8
LAYER0001
  6
CONTINUOUS
 62
       7
100
AcDbLine
 10
-116.04295474
 20
-90.81688232
 30
0.0
 11
-116.04259237
 21
-90.78773599
 31
0.0
  0
LINE
  5
2EB
100
AcDbEntity
  8
LAYER0001
  6
CONTINUOUS
 62
       7
100
AcDbLine
 10
-116.04259237
 20
-90.78773599
 30
0.0
 11
-116.04150885
 21
-90.75876413
 31
0.0
  0
LINE
  5
2EC
100
AcDbEntity
  8
LAYER0001
  6
CONTINUOUS
 62
       7
100
AcDbLine
 10
-116.04150885
 20
-90.75876413
 30
0.0
 11
-116.03970958
 21
-90.72996535
 31
0.0
  0
LINE
  5
2ED
100
AcDbEntity
  8
LAYER0001
  6
CONTINUOUS
 62
       7
100
AcDbLine
 10
-116.03970958
 20
-90.72996535
 30
0.0
 11
-116.03719995
 21
-90.70133825
 31
0.0
  0
LINE
  5
2EE
100
AcDbEntity
  8
LAYER0001
  6
CONTINUOUS
 62
       7
100
AcDbLine
 10
-116.03719995
 20
-90.70133825
 30
0.0
 11
-116.03398536
 21
-90.67288146
 31
0.0
  0
LINE
  5
2EF
100
AcDbEntity
  8
LAYER0001
  6
CONTINUOUS
 62
       7
100
AcDbLine
 10
-116.03398536
 20
-90.67288146
 30
0.0
 11
-116.03007121
 21
-90.64459357
 31
0.0
  0
LINE
  5
2F0
100
AcDbEntity
  8
LAYER0001
  6
CONTINUOUS
 62
       7
100
AcDbLine
 10
-116.03007121
 20
-90.64459357
 30
0.0
 11
-116.02546288
 21
-90.61647319
 31
0.0
  0
LINE
  5
2F1
100
AcDbEntity
  8
LAYER0001
  6
CONTINUOUS
 62
       7
100
AcDbLine
 10
-116.02546288
 20
-90.61647319
 30
0.0
 11
-116.02016228
 21
-90.58851829
 31
0.0
  0
LINE
  5
2F2
100
AcDbEntity
  8
LAYER0001
  6
CONTINUOUS
 62
       7
100
AcDbLine
 10
-116.02016228
 20
-90.58851829
 30
0.0
 11
-116.01415964
 21
-90.56074362
 31
0.0
  0
LINE
  5
2F3
100
AcDbEntity
  8
LAYER0001
  6
CONTINUOUS
 62
       7
100
AcDbLine
 10
-116.01415964
 20
-90.56074362
 30
0.0
 11
-116.00747176
 21
-90.53319811
 31
0.0
  0
LINE
  5
2F4
100
AcDbEntity
  8
LAYER0001
  6
CONTINUOUS
 62
       7
100
AcDbLine
 10
-116.00747176
 20
-90.53319811
 30
0.0
 11
-116.00011962
 21
-90.50593354
 31
0.0
  0
LINE
  5
2F5
100
AcDbEntity
  8
LAYER0001
  6
CONTINUOUS
 62
       7
100
AcDbLine
 10
-116.00011962
 20
-90.50593354
 30
0.0
 11
-115.99212419
 21
-90.47900172
 31
0.0
  0
LINE
  5
2F6
100
AcDbEntity
  8
LAYER0001
  6
CONTINUOUS
 62
       7
100
AcDbLine
 10
-115.99212419
 20
-90.47900172
 30
0.0
 11
-115.98350641
 21
-90.45245441
 31
0.0
  0
LINE
  5
2F7
100
AcDbEntity
  8
LAYER0001
  6
CONTINUOUS
 62
       7
100
AcDbLine
 10
-115.98350641
 20
-90.45245441
 30
0.0
 11
-115.97428727
 21
-90.42634343
 31
0.0
  0
LINE
  5
2F8
100
AcDbEntity
  8
LAYER0001
  6
CONTINUOUS
 62
       7
100
AcDbLine
 10
-115.97428727
 20
-90.42634343
 30
0.0
 11
-115.96448773
 21
-90.40072054
 31
0.0
  0
LINE
  5
2F9
100
AcDbEntity
  8
LAYER0001
  6
CONTINUOUS
 62
       7
100
AcDbLine
 10
-115.96448773
 20
-90.40072054
 30
0.0
 11
-115.95411084
 21
-90.37557718
 31
0.0
  0
LINE
  5
2FA
100
AcDbEntity
  8
LAYER0001
  6
CONTINUOUS
 62
       7
100
AcDbLine
 10
-115.95411084
 20
-90.37557718
 30
0.0
 11
-115.94315626
 21
-90.35087812
 31
0.0
  0
LINE
  5
2FB
100
AcDbEntity
  8
LAYER0001
  6
CONTINUOUS
 62
       7
100
AcDbLine
 10
-115.94315626
 20
-90.35087812
 30
0.0
 11
-115.93163985
 21
-90.32663521
 31
0.0
  0
LINE
  5
2FC
100
AcDbEntity
  8
LAYER0001
  6
CONTINUOUS
 62
       7
100
AcDbLine
 10
-115.93163985
 20
-90.32663521
 30
0.0
 11
-115.91957745
 21
-90.30286029
 31
0.0
  0
LINE
  5
2FD
100
AcDbEntity
  8
LAYER0001
  6
CONTINUOUS
 62
       7
100
AcDbLine
 10
-115.91957745
 20
-90.30286029
 30
0.0
 11
-115.90698492
 21
-90.2795652
 31
0.0
  0
LINE
  5
2FE
100
AcDbEntity
  8
LAYER0001
  6
CONTINUOUS
 62
       7
100
AcDbLine
 10
-115.90698492
 20
-90.2795652
 30
0.0
 11
-115.89387812
 21
-90.25676178
 31
0.0
  0
LINE
  5
2FF
100
AcDbEntity
  8
LAYER0001
  6
CONTINUOUS
 62
       7
100
AcDbLine
 10
-115.89387812
 20
-90.25676178
 30
0.0
 11
-115.88027289
 21
-90.23446187
 31
0.0
  0
LINE
  5
300
100
AcDbEntity
  8
LAYER0001
  6
CONTINUOUS
 62
       7
100
AcDbLine
 10
-115.88027289
 20
-90.23446187
 30
0.0
 11
-115.86618508
 21
-90.21267731
 31
0.0
  0
LINE
  5
301
100
AcDbEntity
  8
LAYER0001
  6
CONTINUOUS
 62
       7
100
AcDbLine
 10
-115.86618508
 20
-90.21267731
 30
0.0
 11
-115.85163056
 21
-90.19141994
 31
0.0
  0
LINE
  5
302
100
AcDbEntity
  8
LAYER0001
  6
CONTINUOUS
 62
       7
100
AcDbLine
 10
-115.85163056
 20
-90.19141994
 30
0.0
 11
-115.83662517
 21
-90.17070162
 31
0.0
  0
LINE
  5
303
100
AcDbEntity
  8
LAYER0001
  6
CONTINUOUS
 62
       7
100
AcDbLine
 10
-115.83662517
 20
-90.17070162
 30
0.0
 11
-115.82118476
 21
-90.15053416
 31
0.0
  0
LINE
  5
304
100
AcDbEntity
  8
LAYER0001
  6
CONTINUOUS
 62
       7
100
AcDbLine
 10
-115.82118476
 20
-90.15053416
 30
0.0
 11
-115.80532519
 21
-90.13092943
 31
0.0
  0
LINE
  5
305
100
AcDbEntity
  8
LAYER0001
  6
CONTINUOUS
 62
       7
100
AcDbLine
 10
-115.80532519
 20
-90.13092943
 30
0.0
 11
-115.78906231
 21
-90.11189926
 31
0.0
  0
LINE
  5
306
100
AcDbEntity
  8
LAYER0001
  6
CONTINUOUS
 62
       7
100
AcDbLine
 10
-115.78906231
 20
-90.11189926
 30
0.0
 11
-115.77241198
 21
-90.09345548
 31
0.0
  0
LINE
  5
307
100
AcDbEntity
  8
LAYER0001
  6
CONTINUOUS
 62
       7
100
AcDbLine
 10
-115.77241198
 20
-90.09345548
 30
0.0
 11
-115.75539003
 21
-90.07560995
 31
0.0
  0
LINE
  5
308
100
AcDbEntity
  8
LAYER0001
  6
CONTINUOUS
 62
       7
100
AcDbLine
 10
-115.75539003
 20
-90.07560995
 30
0.0
 11
-115.73802359
 21
-90.05837212
 31
0.0
  0
LINE
  5
309
100
AcDbEntity
  8
LAYER0001
  6
CONTINUOUS
 62
       7
100
AcDbLine
 10
-115.73802359
 20
-90.05837212
 30
0.0
 11
-115.72033623
 21
-90.04174248
 31
0.0
  0
LINE
  5
30A
100
AcDbEntity
  8
LAYER0001
  6
CONTINUOUS
 62
       7
100
AcDbLine
 10
-115.72033623
 20
-90.04174248
 30
0.0
 11
-115.70233854
 21
-90.02571945
 31
0.0
  0
LINE
  5
30B
100
AcDbEntity
  8
LAYER0001
  6
CONTINUOUS
 62
       7
100
AcDbLine
 10
-115.70233854
 20
-90.02571945
 30
0.0
 11
-115.68404112
 21
-90.01030145
 31
0.0
  0
LINE
  5
30C
100
AcDbEntity
  8
LAYER0001
  6
CONTINUOUS
 62
       7
100
AcDbLine
 10
-115.68404112
 20
-90.01030145
 30
0.0
 11
-115.66545455
 21
-89.99548689
 31
0.0
  0
LINE
  5
30D
100
AcDbEntity
  8
LAYER0001
  6
CONTINUOUS
 62
       7
100
AcDbLine
 10
-115.66545455
 20
-89.99548689
 30
0.0
 11
-115.64658942
 21
-89.98127419
 31
0.0
  0
LINE
  5
30E
100
AcDbEntity
  8
LAYER0001
  6
CONTINUOUS
 62
       7
100
AcDbLine
 10
-115.64658942
 20
-89.98127419
 30
0.0
 11
-115.62745633
 21
-89.96766175
 31
0.0
  0
LINE
  5
30F
100
AcDbEntity
  8
LAYER0001
  6
CONTINUOUS
 62
       7
100
AcDbLine
 10
-115.62745633
 20
-89.96766175
 30
0.0
 11
-115.60806586
 21
-89.95464799
 31
0.0
  0
LINE
  5
310
100
AcDbEntity
  8
LAYER0001
  6
CONTINUOUS
 62
       7
100
AcDbLine
 10
-115.60806586
 20
-89.95464799
 30
0.0
 11
-115.5884286
 21
-89.94223133
 31
0.0
  0
LINE
  5
311
100
AcDbEntity
  8
LAYER0001
  6
CONTINUOUS
 62
       7
100
AcDbLine
 10
-115.5884286
 20
-89.94223133
 30
0.0
 11
-115.56855514
 21
-89.93041018
 31
0.0
  0
LINE
  5
312
100
AcDbEntity
  8
LAYER0001
  6
CONTINUOUS
 62
       7
100
AcDbLine
 10
-115.56855514
 20
-89.93041018
 30
0.0
 11
-115.54845606
 21
-89.91918295
 31
0.0
  0
LINE
  5
313
100
AcDbEntity
  8
LAYER0001
  6
CONTINUOUS
 62
       7
100
AcDbLine
 10
-115.54845606
 20
-89.91918295
 30
0.0
 11
-115.52814197
 21
-89.90854806
 31
0.0
  0
LINE
  5
314
100
AcDbEntity
  8
LAYER0001
  6
CONTINUOUS
 62
       7
100
AcDbLine
 10
-115.52814197
 20
-89.90854806
 30
0.0
 11
-115.50762344
 21
-89.89850392
 31
0.0
  0
LINE
  5
315
100
AcDbEntity
  8
LAYER0001
  6
CONTINUOUS
 62
       7
100
AcDbLine
 10
-115.50762344
 20
-89.89850392
 30
0.0
 11
-115.48691107
 21
-89.88904895
 31
0.0
  0
LINE
  5
316
100
AcDbEntity
  8
LAYER0001
  6
CONTINUOUS
 62
       7
100
AcDbLine
 10
-115.48691107
 20
-89.88904895
 30
0.0
 11
-115.46601545
 21
-89.88018155
 31
0.0
  0
LINE
  5
317
100
AcDbEntity
  8
LAYER0001
  6
CONTINUOUS
 62
       7
100
AcDbLine
 10
-115.46601545
 20
-89.88018155
 30
0.0
 11
-115.44498309
 21
-89.87190605
 31
0.0
  0
LINE
  5
318
100
AcDbEntity
  8
LAYER0001
  6
CONTINUOUS
 62
       7
100
AcDbLine
 10
-115.44498309
 20
-89.87190605
 30
0.0
 11
-115.42385358
 21
-89.86422542
 31
0.0
  0
LINE
  5
319
100
AcDbEntity
  8
LAYER0001
  6
CONTINUOUS
 62
       7
100
AcDbLine
 10
-115.42385358
 20
-89.86422542
 30
0.0
 11
-115.40262709
 21
-89.85713609
 31
0.0
  0
LINE
  5
31A
100
AcDbEntity
  8
LAYER0001
  6
CONTINUOUS
 62
       7
100
AcDbLine
 10
-115.40262709
 20
-89.85713609
 30
0.0
 11
-115.38130382
 21
-89.85063448
 31
0.0
  0
LINE
  5
31B
100
AcDbEntity
  8
LAYER0001
  6
CONTINUOUS
 62
       7
100
AcDbLine
 10
-115.38130382
 20
-89.85063448
 30
0.0
 11
-115.35988394
 21
-89.844717
 31
0.0
  0
LINE
  5
31C
100
AcDbEntity
  8
LAYER0001
  6
CONTINUOUS
 62
       7
100
AcDbLine
 10
-115.35988394
 20
-89.844717
 30
0.0
 11
-115.33836766
 21
-89.83938009
 31
0.0
  0
LINE
  5
31D
100
AcDbEntity
  8
LAYER0001
  6
CONTINUOUS
 62
       7
100
AcDbLine
 10
-115.33836766
 20
-89.83938009
 30
0.0
 11
-115.31675514
 21
-89.83462015
 31
0.0
  0
LINE
  5
31E
100
AcDbEntity
  8
LAYER0001
  6
CONTINUOUS
 62
       7
100
AcDbLine
 10
-115.31675514
 20
-89.83462015
 30
0.0
 11
-115.29504658
 21
-89.83043361
 31
0.0
  0
LINE
  5
31F
100
AcDbEntity
  8
LAYER0001
  6
CONTINUOUS
 62
       7
100
AcDbLine
 10
-115.29504658
 20
-89.83043361
 30
0.0
 11
-115.27324215
 21
-89.82681689
 31
0.0
  0
LINE
  5
320
100
AcDbEntity
  8
LAYER0001
  6
CONTINUOUS
 62
       7
100
AcDbLine
 10
-115.27324215
 20
-89.82681689
 30
0.0
 11
-115.25134206
 21
-89.82376641
 31
0.0
  0
LINE
  5
321
100
AcDbEntity
  8
LAYER0001
  6
CONTINUOUS
 62
       7
100
AcDbLine
 10
-115.25134206
 20
-89.82376641
 30
0.0
 11
-115.22934648
 21
-89.82127859
 31
0.0
  0
LINE
  5
322
100
AcDbEntity
  8
LAYER0001
  6
CONTINUOUS
 62
       7
100
AcDbLine
 10
-115.22934648
 20
-89.82127859
 30
0.0
 11
-115.20725559
 21
-89.81934985
 31
0.0
  0
LINE
  5
323
100
AcDbEntity
  8
LAYER0001
  6
CONTINUOUS
 62
       7
100
AcDbLine
 10
-115.20725559
 20
-89.81934985
 30
0.0
 11
-115.18506959
 21
-89.81797661
 31
0.0
  0
LINE
  5
324
100
AcDbEntity
  8
LAYER0001
  6
CONTINUOUS
 62
       7
100
AcDbLine
 10
-115.18506959
 20
-89.81797661
 30
0.0
 11
-115.16278866
 21
-89.8171553
 31
0.0
  0
LINE
  5
325
100
AcDbEntity
  8
LAYER0001
  6
CONTINUOUS
 62
       7
100
AcDbLine
 10
-115.16278866
 20
-89.8171553
 30
0.0
 11
-115.14041298
 21
-89.81688232
 31
0.0
  0
ENDBLK
  5
326
100
AcDbEntity
  8
0
100
AcDbBlockEnd
  0
BLOCK
  5
327
100
AcDbEntity
  8
0
100
AcDbBlockBegin
  2
GROUP_19
 70
       0
 10
0.0
 20
0.0
 30
0.0
  3
GROUP_19
  1

  0
LINE
  5
328
100
AcDbEntity
  8
LAYER0001
  6
CONTINUOUS
 62
       7
100
AcDbLine
 10
27.8112639
 20
-45.19531631
 30
0.0
 11
27.81575444
 21
-45.14650792
 31
0.0
  0
LINE
  5
329
100
AcDbEntity
  8
LAYER0001
  6
CONTINUOUS
 62
       7
100
AcDbLine
 10
27.81575444
 20
-45.14650792
 30
0.0
 11
27.82082022
 21
-45.09794456
 31
0.0
  0
LINE
  5
32A
100
AcDbEntity
  8
LAYER0001
  6
CONTINUOUS
 62
       7
100
AcDbLine
 10
27.82082022
 20
-45.09794456
 30
0.0
 11
27.82703648
 21
-45.04987124
 31
0.0
  0
LINE
  5
32B
100
AcDbEntity
  8
LAYER0001
  6
CONTINUOUS
 62
       7
100
AcDbLine
 10
27.82703648
 20
-45.04987124
 30
0.0
 11
27.83497846
 21
-45.00253298
 31
0.0
  0
LINE
  5
32C
100
AcDbEntity
  8
LAYER0001
  6
CONTINUOUS
 62
       7
100
AcDbLine
 10
27.83497846
 20
-45.00253298
 30
0.0
 11
27.8452214
 21
-44.95617481
 31
0.0
  0
LINE
  5
32D
100
AcDbEntity
  8
LAYER0001
  6
CONTINUOUS
 62
       7
100
AcDbLine
 10
27.8452214
 20
-44.95617481
 30
0.0
 11
27.85828044
 21
-44.91102955
 31
0.0
  0
LINE
  5
32E
100
AcDbEntity
  8
LAYER0001
  6
CONTINUOUS
 62
       7
100
AcDbLine
 10
27.85828044
 20
-44.91102955
 30
0.0
 11
27.87411049
 21
-44.86721644
 31
0.0
  0
LINE
  5
32F
100
AcDbEntity
  8
LAYER0001
  6
CONTINUOUS
 62
       7
100
AcDbLine
 10
27.87411049
 20
-44.86721644
 30
0.0
 11
27.89236135
 21
-44.8247928
 31
0.0
  0
LINE
  5
330
100
AcDbEntity
  8
LAYER0001
  6
CONTINUOUS
 62
       7
100
AcDbLine
 10
27.89236135
 20
-44.8247928
 30
0.0
 11
27.91267975
 21
-44.78381538
 31
0.0
  0
LINE
  5
331
100
AcDbEntity
  8
LAYER0001
  6
CONTINUOUS
 62
       7
100
AcDbLine
 10
27.91267975
 20
-44.78381538
 30
0.0
 11
27.93471243
 21
-44.74434089
 31
0.0
  0
LINE
  5
332
100
AcDbEntity
  8
LAYER0001
  6
CONTINUOUS
 62
       7
100
AcDbLine
 10
27.93471243
 20
-44.74434089
 30
0.0
 11
27.95811167
 21
-44.70642417
 31
0.0
  0
LINE
  5
333
100
AcDbEntity
  8
LAYER0001
  6
CONTINUOUS
 62
       7
100
AcDbLine
 10
27.95811167
 20
-44.70642417
 30
0.0
 11
27.98266193
 21
-44.67007465
 31
0.0
  0
LINE
  5
334
100
AcDbEntity
  8
LAYER0001
  6
CONTINUOUS
 62
       7
100
AcDbLine
 10
27.98266193
 20
-44.67007465
 30
0.0
 11
28.00828276
 21
-44.6352554
 31
0.0
  0
LINE
  5
335
100
AcDbEntity
  8
LAYER0001
  6
CONTINUOUS
 62
       7
100
AcDbLine
 10
28.00828276
 20
-44.6352554
 30
0.0
 11
28.03489983
 21
-44.60192741
 31
0.0
  0
LINE
  5
336
100
AcDbEntity
  8
LAYER0001
  6
CONTINUOUS
 62
       7
100
AcDbLine
 10
28.03489983
 20
-44.60192741
 30
0.0
 11
28.06243879
 21
-44.57005163
 31
0.0
  0
LINE
  5
337
100
AcDbEntity
  8
LAYER0001
  6
CONTINUOUS
 62
       7
100
AcDbLine
 10
28.06243879
 20
-44.57005163
 30
0.0
 11
28.09082531
 21
-44.53958904
 31
0.0
  0
LINE
  5
338
100
AcDbEntity
  8
LAYER0001
  6
CONTINUOUS
 62
       7
100
AcDbLine
 10
28.09082531
 20
-44.53958904
 30
0.0
 11
28.11998503
 21
-44.51050061
 31
0.0
  0
LINE
  5
339
100
AcDbEntity
  8
LAYER0001
  6
CONTINUOUS
 62
       7
100
AcDbLine
 10
28.11998503
 20
-44.51050061
 30
0.0
 11
28.14984361
 21
-44.48274732
 31
0.0
  0
LINE
  5
33A
100
AcDbEntity
  8
LAYER0001
  6
CONTINUOUS
 62
       7
100
AcDbLine
 10
28.14984361
 20
-44.48274732
 30
0.0
 11
28.18032787
 21
-44.45629229
 31
0.0
  0
LINE
  5
33B
100
AcDbEntity
  8
LAYER0001
  6
CONTINUOUS
 62
       7
100
AcDbLine
 10
28.18032787
 20
-44.45629229
 30
0.0
 11
28.21138064
 21
-44.43112872
 31
0.0
  0
LINE
  5
33C
100
AcDbEntity
  8
LAYER0001
  6
CONTINUOUS
 62
       7
100
AcDbLine
 10
28.21138064
 20
-44.43112872
 30
0.0
 11
28.24295653
 21
-44.40727189
 31
0.0
  0
LINE
  5
33D
100
AcDbEntity
  8
LAYER0001
  6
CONTINUOUS
 62
       7
100
AcDbLine
 10
28.24295653
 20
-44.40727189
 30
0.0
 11
28.27501045
 21
-44.38473759
 31
0.0
  0
LINE
  5
33E
100
AcDbEntity
  8
LAYER0001
  6
CONTINUOUS
 62
       7
100
AcDbLine
 10
28.27501045
 20
-44.38473759
 30
0.0
 11
28.30749727
 21
-44.36354162
 31
0.0
  0
LINE
  5
33F
100
AcDbEntity
  8
LAYER0001
  6
CONTINUOUS
 62
       7
100
AcDbLine
 10
28.30749727
 20
-44.36354162
 30
0.0
 11
28.34037189
 21
-44.34369976
 31
0.0
  0
LINE
  5
340
100
AcDbEntity
  8
LAYER0001
  6
CONTINUOUS
 62
       7
100
AcDbLine
 10
28.34037189
 20
-44.34369976
 30
0.0
 11
28.37358919
 21
-44.32522781
 31
0.0
  0
LINE
  5
341
100
AcDbEntity
  8
LAYER0001
  6
CONTINUOUS
 62
       7
100
AcDbLine
 10
28.37358919
 20
-44.32522781
 30
0.0
 11
28.40710406
 21
-44.30814155
 31
0.0
  0
LINE
  5
342
100
AcDbEntity
  8
LAYER0001
  6
CONTINUOUS
 62
       7
100
AcDbLine
 10
28.40710406
 20
-44.30814155
 30
0.0
 11
28.44087139
 21
-44.29245677
 31
0.0
  0
LINE
  5
343
100
AcDbEntity
  8
LAYER0001
  6
CONTINUOUS
 62
       7
100
AcDbLine
 10
28.44087139
 20
-44.29245677
 30
0.0
 11
28.47484606
 21
-44.27818928
 31
0.0
  0
LINE
  5
344
100
AcDbEntity
  8
LAYER0001
  6
CONTINUOUS
 62
       7
100
AcDbLine
 10
28.47484606
 20
-44.27818928
 30
0.0
 11
28.50898297
 21
-44.26535485
 31
0.0
  0
LINE
  5
345
100
AcDbEntity
  8
LAYER0001
  6
CONTINUOUS
 62
       7
100
AcDbLine
 10
28.50898297
 20
-44.26535485
 30
0.0
 11
28.54323703
 21
-44.25396915
 31
0.0
  0
LINE
  5
346
100
AcDbEntity
  8
LAYER0001
  6
CONTINUOUS
 62
       7
100
AcDbLine
 10
28.54323703
 20
-44.25396915
 30
0.0
 11
28.57757296
 21
-44.24400594
 31
0.0
  0
LINE
  5
347
100
AcDbEntity
  8
LAYER0001
  6
CONTINUOUS
 62
       7
100
AcDbLine
 10
28.57757296
 20
-44.24400594
 30
0.0
 11
28.61197934
 21
-44.23533675
 31
0.0
  0
LINE
  5
348
100
AcDbEntity
  8
LAYER0001
  6
CONTINUOUS
 62
       7
100
AcDbLine
 10
28.61197934
 20
-44.23533675
 30
0.0
 11
28.64644834
 21
-44.2278178
 31
0.0
  0
LINE
  5
349
100
AcDbEntity
  8
LAYER0001
  6
CONTINUOUS
 62
       7
100
AcDbLine
 10
28.64644834
 20
-44.2278178
 30
0.0
 11
28.68097215
 21
-44.22130531
 31
0.0
  0
LINE
  5
34A
100
AcDbEntity
  8
LAYER0001
  6
CONTINUOUS
 62
       7
100
AcDbLine
 10
28.68097215
 20
-44.22130531
 30
0.0
 11
28.71554293
 21
-44.21565549
 31
0.0
  0
LINE
  5
34B
100
AcDbEntity
  8
LAYER0001
  6
CONTINUOUS
 62
       7
100
AcDbLine
 10
28.71554293
 20
-44.21565549
 30
0.0
 11
28.75015285
 21
-44.21072457
 31
0.0
  0
LINE
  5
34C
100
AcDbEntity
  8
LAYER0001
  6
CONTINUOUS
 62
       7
100
AcDbLine
 10
28.75015285
 20
-44.21072457
 30
0.0
 11
28.78479409
 21
-44.20636877
 31
0.0
  0
LINE
  5
34D
100
AcDbEntity
  8
LAYER0001
  6
CONTINUOUS
 62
       7
100
AcDbLine
 10
28.78479409
 20
-44.20636877
 30
0.0
 11
28.81945881
 21
-44.20244431
 31
0.0
  0
LINE
  5
34E
100
AcDbEntity
  8
LAYER0001
  6
CONTINUOUS
 62
       7
100
AcDbLine
 10
28.81945881
 20
-44.20244431
 30
0.0
 11
28.85413919
 21
-44.1988074
 31
0.0
  0
LINE
  5
34F
100
AcDbEntity
  8
LAYER0001
  6
CONTINUOUS
 62
       7
100
AcDbLine
 10
28.85413919
 20
-44.1988074
 30
0.0
 11
28.8888274
 21
-44.19531428
 31
0.0
  0
ENDBLK
  5
350
100
AcDbEntity
  8
0
100
AcDbBlockEnd
  0
BLOCK
  5
351
100
AcDbEntity
  8
0
100
AcDbBlockBegin
  2
GROUP_20
 70
       0
 10
0.0
 20
0.0
 30
0.0
  3
GROUP_20
  1

  0
LINE
  5
352
100
AcDbEntity
  8
LAYER0001
  6
CONTINUOUS
 62
       7
100
AcDbLine
 10
28.8888274
 20
-74.79531445
 30
0.0
 11
28.85393553
 21
-74.79075421
 31
0.0
  0
LINE
  5
353
100
AcDbEntity
  8
LAYER0001
  6
CONTINUOUS
 62
       7
100
AcDbLine
 10
28.85393553
 20
-74.79075421
 30
0.0
 11
28.81905724
 21
-74.78608155
 31
0.0
  0
LINE
  5
354
100
AcDbEntity
  8
LAYER0001
  6
CONTINUOUS
 62
       7
100
AcDbLine
 10
28.81905724
 20
-74.78608155
 30
0.0
 11
28.78420607
 21
-74.78118402
 31
0.0
  0
LINE
  5
355
100
AcDbEntity
  8
LAYER0001
  6
CONTINUOUS
 62
       7
100
AcDbLine
 10
28.78420607
 20
-74.78118402
 30
0.0
 11
28.74939561
 21
-74.7759492
 31
0.0
  0
LINE
  5
356
100
AcDbEntity
  8
LAYER0001
  6
CONTINUOUS
 62
       7
100
AcDbLine
 10
28.74939561
 20
-74.7759492
 30
0.0
 11
28.71463942
 21
-74.77026466
 31
0.0
  0
LINE
  5
357
100
AcDbEntity
  8
LAYER0001
  6
CONTINUOUS
 62
       7
100
AcDbLine
 10
28.71463942
 20
-74.77026466
 30
0.0
 11
28.67995107
 21
-74.76401798
 31
0.0
  0
LINE
  5
358
100
AcDbEntity
  8
LAYER0001
  6
CONTINUOUS
 62
       7
100
AcDbLine
 10
28.67995107
 20
-74.76401798
 30
0.0
 11
28.64534412
 21
-74.75709671
 31
0.0
  0
LINE
  5
359
100
AcDbEntity
  8
LAYER0001
  6
CONTINUOUS
 62
       7
100
AcDbLine
 10
28.64534412
 20
-74.75709671
 30
0.0
 11
28.61083214
 21
-74.74938843
 31
0.0
  0
LINE
  5
35A
100
AcDbEntity
  8
LAYER0001
  6
CONTINUOUS
 62
       7
100
AcDbLine
 10
28.61083214
 20
-74.74938843
 30
0.0
 11
28.5764287
 21
-74.74078072
 31
0.0
  0
LINE
  5
35B
100
AcDbEntity
  8
LAYER0001
  6
CONTINUOUS
 62
       7
100
AcDbLine
 10
28.5764287
 20
-74.74078072
 30
0.0
 11
28.54214737
 21
-74.73116113
 31
0.0
  0
LINE
  5
35C
100
AcDbEntity
  8
LAYER0001
  6
CONTINUOUS
 62
       7
100
AcDbLine
 10
28.54214737
 20
-74.73116113
 30
0.0
 11
28.50800171
 21
-74.72041724
 31
0.0
  0
LINE
  5
35D
100
AcDbEntity
  8
LAYER0001
  6
CONTINUOUS
 62
       7
100
AcDbLine
 10
28.50800171
 20
-74.72041724
 30
0.0
 11
28.4740053
 21
-74.70843663
 31
0.0
  0
LINE
  5
35E
100
AcDbEntity
  8
LAYER0001
  6
CONTINUOUS
 62
       7
100
AcDbLine
 10
28.4740053
 20
-74.70843663
 30
0.0
 11
28.44017169
 21
-74.69510685
 31
0.0
  0
LINE
  5
35F
100
AcDbEntity
  8
LAYER0001
  6
CONTINUOUS
 62
       7
100
AcDbLine
 10
28.44017169
 20
-74.69510685
 30
0.0
 11
28.40651449
 21
-74.68031558
 31
0.0
  0
LINE
  5
360
100
AcDbEntity
  8
LAYER0001
  6
CONTINUOUS
 62
       7
100
AcDbLine
 10
28.40651449
 20
-74.68031558
 30
0.0
 11
28.37305846
 21
-74.6639854
 31
0.0
  0
LINE
  5
361
100
AcDbEntity
  8
LAYER0001
  6
CONTINUOUS
 62
       7
100
AcDbLine
 10
28.37305846
 20
-74.6639854
 30
0.0
 11
28.33985611
 21
-74.64612577
 31
0.0
  0
LINE
  5
362
100
AcDbEntity
  8
LAYER0001
  6
CONTINUOUS
 62
       7
100
AcDbLine
 10
28.33985611
 20
-74.64612577
 30
0.0
 11
28.3069642
 21
-74.62675936
 31
0.0
  0
LINE
  5
363
100
AcDbEntity
  8
LAYER0001
  6
CONTINUOUS
 62
       7
100
AcDbLine
 10
28.3069642
 20
-74.62675936
 30
0.0
 11
28.27443948
 21
-74.60590891
 31
0.0
  0
LINE
  5
364
100
AcDbEntity
  8
LAYER0001
  6
CONTINUOUS
 62
       7
100
AcDbLine
 10
28.27443948
 20
-74.60590891
 30
0.0
 11
28.24233872
 21
-74.58359709
 31
0.0
  0
LINE
  5
365
100
AcDbEntity
  8
LAYER0001
  6
CONTINUOUS
 62
       7
100
AcDbLine
 10
28.24233872
 20
-74.58359709
 30
0.0
 11
28.21071866
 21
-74.55984663
 31
0.0
  0
LINE
  5
366
100
AcDbEntity
  8
LAYER0001
  6
CONTINUOUS
 62
       7
100
AcDbLine
 10
28.21071866
 20
-74.55984663
 30
0.0
 11
28.17963606
 21
-74.53468023
 31
0.0
  0
LINE
  5
367
100
AcDbEntity
  8
LAYER0001
  6
CONTINUOUS
 62
       7
100
AcDbLine
 10
28.17963606
 20
-74.53468023
 30
0.0
 11
28.14914768
 21
-74.50812059
 31
0.0
  0
LINE
  5
368
100
AcDbEntity
  8
LAYER0001
  6
CONTINUOUS
 62
       7
100
AcDbLine
 10
28.14914768
 20
-74.50812059
 30
0.0
 11
28.11931027
 21
-74.48019041
 31
0.0
  0
LINE
  5
369
100
AcDbEntity
  8
LAYER0001
  6
CONTINUOUS
 62
       7
100
AcDbLine
 10
28.11931027
 20
-74.48019041
 30
0.0
 11
28.0901806
 21
-74.45091239
 31
0.0
  0
LINE
  5
36A
100
AcDbEntity
  8
LAYER0001
  6
CONTINUOUS
 62
       7
100
AcDbLine
 10
28.0901806
 20
-74.45091239
 30
0.0
 11
28.06182389
 21
-74.42029424
 31
0.0
  0
LINE
  5
36B
100
AcDbEntity
  8
LAYER0001
  6
CONTINUOUS
 62
       7
100
AcDbLine
 10
28.06182389
 20
-74.42029424
 30
0.0
 11
28.0343287
 21
-74.3883023
 31
0.0
  0
LINE
  5
36C
100
AcDbEntity
  8
LAYER0001
  6
CONTINUOUS
 62
       7
100
AcDbLine
 10
28.0343287
 20
-74.3883023
 30
0.0
 11
28.00778764
 21
-74.35489581
 31
0.0
  0
LINE
  5
36D
100
AcDbEntity
  8
LAYER0001
  6
CONTINUOUS
 62
       7
100
AcDbLine
 10
28.00778764
 20
-74.35489581
 30
0.0
 11
27.98229327
 21
-74.320034
 31
0.0
  0
LINE
  5
36E
100
AcDbEntity
  8
LAYER0001
  6
CONTINUOUS
 62
       7
100
AcDbLine
 10
27.98229327
 20
-74.320034
 30
0.0
 11
27.95793819
 21
-74.28367613
 31
0.0
  0
LINE
  5
36F
100
AcDbEntity
  8
LAYER0001
  6
CONTINUOUS
 62
       7
100
AcDbLine
 10
27.95793819
 20
-74.28367613
 30
0.0
 11
27.93481498
 21
-74.24578142
 31
0.0
  0
LINE
  5
370
100
AcDbEntity
  8
LAYER0001
  6
CONTINUOUS
 62
       7
100
AcDbLine
 10
27.93481498
 20
-74.24578142
 30
0.0
 11
27.91301696
 21
-74.2063096
 31
0.0
  0
LINE
  5
371
100
AcDbEntity
  8
LAYER0001
  6
CONTINUOUS
 62
       7
100
AcDbLine
 10
27.91301696
 20
-74.2063096
 30
0.0
 11
27.89271429
 21
-74.16527075
 31
0.0
  0
LINE
  5
372
100
AcDbEntity
  8
LAYER0001
  6
CONTINUOUS
 62
       7
100
AcDbLine
 10
27.89271429
 20
-74.16527075
 30
0.0
 11
27.87421999
 21
-74.12276865
 31
0.0
  0
LINE
  5
373
100
AcDbEntity
  8
LAYER0001
  6
CONTINUOUS
 62
       7
100
AcDbLine
 10
27.87421999
 20
-74.12276865
 30
0.0
 11
27.85786267
 21
-74.07891726
 31
0.0
  0
LINE
  5
374
100
AcDbEntity
  8
LAYER0001
  6
CONTINUOUS
 62
       7
100
AcDbLine
 10
27.85786267
 20
-74.07891726
 30
0.0
 11
27.84397092
 21
-74.03383054
 31
0.0
  0
LINE
  5
375
100
AcDbEntity
  8
LAYER0001
  6
CONTINUOUS
 62
       7
100
AcDbLine
 10
27.84397092
 20
-74.03383054
 30
0.0
 11
27.83287336
 21
-73.98762246
 31
0.0
  0
LINE
  5
376
100
AcDbEntity
  8
LAYER0001
  6
CONTINUOUS
 62
       7
100
AcDbLine
 10
27.83287336
 20
-73.98762246
 30
0.0
 11
27.82472214
 21
-73.94042892
 31
0.0
  0
LINE
  5
377
100
AcDbEntity
  8
LAYER0001
  6
CONTINUOUS
 62
       7
100
AcDbLine
 10
27.82472214
 20
-73.94042892
 30
0.0
 11
27.81892708
 21
-73.89247809
 31
0.0
  0
LINE
  5
378
100
AcDbEntity
  8
LAYER0001
  6
CONTINUOUS
 62
       7
100
AcDbLine
 10
27.81892708
 20
-73.89247809
 30
0.0
 11
27.8147028
 21
-73.84402241
 31
0.0
  0
LINE
  5
379
100
AcDbEntity
  8
LAYER0001
  6
CONTINUOUS
 62
       7
100
AcDbLine
 10
27.8147028
 20
-73.84402241
 30
0.0
 11
27.8112639
 21
-73.79531429
 31
0.0
  0
ENDBLK
  5
37A
100
AcDbEntity
  8
0
100
AcDbBlockEnd
  0
BLOCK
  5
37B
100
AcDbEntity
  8
0
100
AcDbBlockBegin
  2
GROUP_21
 70
       0
 10
0.0
 20
0.0
 30
0.0
  3
GROUP_21
  1

  0
LINE
  5
37C
100
AcDbEntity
  8
LAYER0001
  6
CONTINUOUS
 62
       7
100
AcDbLine
 10
-7.22918732
 20
-92.39531459
 30
0.0
 11
-7.26836929
 21
-92.39259749
 31
0.0
  0
LINE
  5
37D
100
AcDbEntity
  8
LAYER0001
  6
CONTINUOUS
 62
       7
100
AcDbLine
 10
-7.26836929
 20
-92.39259749
 30
0.0
 11
-7.30749492
 21
-92.38956271
 31
0.0
  0
LINE
  5
37E
100
AcDbEntity
  8
LAYER0001
  6
CONTINUOUS
 62
       7
100
AcDbLine
 10
-7.30749492
 20
-92.38956271
 30
0.0
 11
-7.3465079
 21
-92.38589259
 31
0.0
  0
LINE
  5
37F
100
AcDbEntity
  8
LAYER0001
  6
CONTINUOUS
 62
       7
100
AcDbLine
 10
-7.3465079
 20
-92.38589259
 30
0.0
 11
-7.38535187
 21
-92.38126946
 31
0.0
  0
LINE
  5
380
100
AcDbEntity
  8
LAYER0001
  6
CONTINUOUS
 62
       7
100
AcDbLine
 10
-7.38535187
 20
-92.38126946
 30
0.0
 11
-7.42397052
 21
-92.37537563
 31
0.0
  0
LINE
  5
381
100
AcDbEntity
  8
LAYER0001
  6
CONTINUOUS
 62
       7
100
AcDbLine
 10
-7.42397052
 20
-92.37537563
 30
0.0
 11
-7.4623075
 21
-92.36789374
 31
0.0
  0
LINE
  5
382
100
AcDbEntity
  8
LAYER0001
  6
CONTINUOUS
 62
       7
100
AcDbLine
 10
-7.4623075
 20
-92.36789374
 30
0.0
 11
-7.50030464
 21
-92.35860793
 31
0.0
  0
LINE
  5
383
100
AcDbEntity
  8
LAYER0001
  6
CONTINUOUS
 62
       7
100
AcDbLine
 10
-7.50030464
 20
-92.35860793
 30
0.0
 11
-7.5378992
 21
-92.34755375
 31
0.0
  0
LINE
  5
384
100
AcDbEntity
  8
LAYER0001
  6
CONTINUOUS
 62
       7
100
AcDbLine
 10
-7.5378992
 20
-92.34755375
 30
0.0
 11
-7.57502776
 21
-92.33480492
 31
0.0
  0
LINE
  5
385
100
AcDbEntity
  8
LAYER0001
  6
CONTINUOUS
 62
       7
100
AcDbLine
 10
-7.57502776
 20
-92.33480492
 30
0.0
 11
-7.61162689
 21
-92.32043517
 31
0.0
  0
LINE
  5
386
100
AcDbEntity
  8
LAYER0001
  6
CONTINUOUS
 62
       7
100
AcDbLine
 10
-7.61162689
 20
-92.32043517
 30
0.0
 11
-7.64763318
 21
-92.30451824
 31
0.0
  0
LINE
  5
387
100
AcDbEntity
  8
LAYER0001
  6
CONTINUOUS
 62
       7
100
AcDbLine
 10
-7.64763318
 20
-92.30451824
 30
0.0
 11
-7.68298319
 21
-92.28712786
 31
0.0
  0
LINE
  5
388
100
AcDbEntity
  8
LAYER0001
  6
CONTINUOUS
 62
       7
100
AcDbLine
 10
-7.68298319
 20
-92.28712786
 30
0.0
 11
-7.7176135
 21
-92.26833776
 31
0.0
  0
LINE
  5
389
100
AcDbEntity
  8
LAYER0001
  6
CONTINUOUS
 62
       7
100
AcDbLine
 10
-7.7176135
 20
-92.26833776
 30
0.0
 11
-7.75146069
 21
-92.24822168
 31
0.0
  0
LINE
  5
38A
100
AcDbEntity
  8
LAYER0001
  6
CONTINUOUS
 62
       7
100
AcDbLine
 10
-7.75146069
 20
-92.24822168
 30
0.0
 11
-7.78446221
 21
-92.22685222
 31
0.0
  0
LINE
  5
38B
100
AcDbEntity
  8
LAYER0001
  6
CONTINUOUS
 62
       7
100
AcDbLine
 10
-7.78446221
 20
-92.22685222
 30
0.0
 11
-7.81657367
 21
-92.20427875
 31
0.0
  0
LINE
  5
38C
100
AcDbEntity
  8
LAYER0001
  6
CONTINUOUS
 62
       7
100
AcDbLine
 10
-7.81657367
 20
-92.20427875
 30
0.0
 11
-7.84776775
 21
-92.18052877
 31
0.0
  0
LINE
  5
38D
100
AcDbEntity
  8
LAYER0001
  6
CONTINUOUS
 62
       7
100
AcDbLine
 10
-7.84776775
 20
-92.18052877
 30
0.0
 11
-7.87801781
 21
-92.15562889
 31
0.0
  0
LINE
  5
38E
100
AcDbEntity
  8
LAYER0001
  6
CONTINUOUS
 62
       7
100
AcDbLine
 10
-7.87801781
 20
-92.15562889
 30
0.0
 11
-7.90729723
 21
-92.12960575
 31
0.0
  0
LINE
  5
38F
100
AcDbEntity
  8
LAYER0001
  6
CONTINUOUS
 62
       7
100
AcDbLine
 10
-7.90729723
 20
-92.12960575
 30
0.0
 11
-7.93557935
 21
-92.10248599
 31
0.0
  0
LINE
  5
390
100
AcDbEntity
  8
LAYER0001
  6
CONTINUOUS
 62
       7
100
AcDbLine
 10
-7.93557935
 20
-92.10248599
 30
0.0
 11
-7.96283753
 21
-92.07429623
 31
0.0
  0
LINE
  5
391
100
AcDbEntity
  8
LAYER0001
  6
CONTINUOUS
 62
       7
100
AcDbLine
 10
-7.96283753
 20
-92.07429623
 30
0.0
 11
-7.98904514
 21
-92.0450631
 31
0.0
  0
LINE
  5
392
100
AcDbEntity
  8
LAYER0001
  6
CONTINUOUS
 62
       7
100
AcDbLine
 10
-7.98904514
 20
-92.0450631
 30
0.0
 11
-8.01417554
 21
-92.01481324
 31
0.0
  0
LINE
  5
393
100
AcDbEntity
  8
LAYER0001
  6
CONTINUOUS
 62
       7
100
AcDbLine
 10
-8.01417554
 20
-92.01481324
 30
0.0
 11
-8.03819208
 21
-91.98357776
 31
0.0
  0
LINE
  5
394
100
AcDbEntity
  8
LAYER0001
  6
CONTINUOUS
 62
       7
100
AcDbLine
 10
-8.03819208
 20
-91.98357776
 30
0.0
 11
-8.06101416
 21
-91.95140746
 31
0.0
  0
LINE
  5
395
100
AcDbEntity
  8
LAYER0001
  6
CONTINUOUS
 62
       7
100
AcDbLine
 10
-8.06101416
 20
-91.95140746
 30
0.0
 11
-8.08254916
 21
-91.91835853
 31
0.0
  0
LINE
  5
396
100
AcDbEntity
  8
LAYER0001
  6
CONTINUOUS
 62
       7
100
AcDbLine
 10
-8.08254916
 20
-91.91835853
 30
0.0
 11
-8.10270444
 21
-91.88448716
 31
0.0
  0
LINE
  5
397
100
AcDbEntity
  8
LAYER0001
  6
CONTINUOUS
 62
       7
100
AcDbLine
 10
-8.10270444
 20
-91.88448716
 30
0.0
 11
-8.12138736
 21
-91.84984954
 31
0.0
  0
LINE
  5
398
100
AcDbEntity
  8
LAYER0001
  6
CONTINUOUS
 62
       7
100
AcDbLine
 10
-8.12138736
 20
-91.84984954
 30
0.0
 11
-8.13850529
 21
-91.81450187
 31
0.0
  0
LINE
  5
399
100
AcDbEntity
  8
LAYER0001
  6
CONTINUOUS
 62
       7
100
AcDbLine
 10
-8.13850529
 20
-91.81450187
 30
0.0
 11
-8.15396558
 21
-91.77850034
 31
0.0
  0
LINE
  5
39A
100
AcDbEntity
  8
LAYER0001
  6
CONTINUOUS
 62
       7
100
AcDbLine
 10
-8.15396558
 20
-91.77850034
 30
0.0
 11
-8.16767562
 21
-91.74190115
 31
0.0
  0
LINE
  5
39B
100
AcDbEntity
  8
LAYER0001
  6
CONTINUOUS
 62
       7
100
AcDbLine
 10
-8.16767562
 20
-91.74190115
 30
0.0
 11
-8.17954899
 21
-91.70476056
 31
0.0
  0
LINE
  5
39C
100
AcDbEntity
  8
LAYER0001
  6
CONTINUOUS
 62
       7
100
AcDbLine
 10
-8.17954899
 20
-91.70476056
 30
0.0
 11
-8.18964873
 21
-91.66713685
 31
0.0
  0
LINE
  5
39D
100
AcDbEntity
  8
LAYER0001
  6
CONTINUOUS
 62
       7
100
AcDbLine
 10
-8.18964873
 20
-91.66713685
 30
0.0
 11
-8.1981905
 21
-91.62909033
 31
0.0
  0
LINE
  5
39E
100
AcDbEntity
  8
LAYER0001
  6
CONTINUOUS
 62
       7
100
AcDbLine
 10
-8.1981905
 20
-91.62909033
 30
0.0
 11
-8.20539686
 21
-91.5906814
 31
0.0
  0
LINE
  5
39F
100
AcDbEntity
  8
LAYER0001
  6
CONTINUOUS
 62
       7
100
AcDbLine
 10
-8.20539686
 20
-91.5906814
 30
0.0
 11
-8.21149039
 21
-91.55197046
 31
0.0
  0
LINE
  5
3A0
100
AcDbEntity
  8
LAYER0001
  6
CONTINUOUS
 62
       7
100
AcDbLine
 10
-8.21149039
 20
-91.55197046
 30
0.0
 11
-8.21669365
 21
-91.51301791
 31
0.0
  0
LINE
  5
3A1
100
AcDbEntity
  8
LAYER0001
  6
CONTINUOUS
 62
       7
100
AcDbLine
 10
-8.21669365
 20
-91.51301791
 30
0.0
 11
-8.2212292
 21
-91.47388416
 31
0.0
  0
LINE
  5
3A2
100
AcDbEntity
  8
LAYER0001
  6
CONTINUOUS
 62
       7
100
AcDbLine
 10
-8.2212292
 20
-91.47388416
 30
0.0
 11
-8.22531962
 21
-91.43462961
 31
0.0
  0
LINE
  5
3A3
100
AcDbEntity
  8
LAYER0001
  6
CONTINUOUS
 62
       7
100
AcDbLine
 10
-8.22531962
 20
-91.43462961
 30
0.0
 11
-8.22918748
 21
-91.39531466
 31
0.0
  0
ENDBLK
  5
3A4
100
AcDbEntity
  8
0
100
AcDbBlockEnd
  0
BLOCK
  5
3A5
100
AcDbEntity
  8
0
100
AcDbBlockBegin
  2
GROUP_22
 70
       0
 10
0.0
 20
0.0
 30
0.0
  3
GROUP_22
  1

  0
LINE
  5
3A6
100
AcDbEntity
  8
LAYER0001
  6
CONTINUOUS
 62
       7
100
AcDbLine
 10
-8.22918748
 20
-87.09531498
 30
0.0
 11
-8.22654438
 21
-87.05612097
 31
0.0
  0
LINE
  5
3A7
100
AcDbEntity
  8
LAYER0001
  6
CONTINUOUS
 62
       7
100
AcDbLine
 10
-8.22654438
 20
-87.05612097
 30
0.0
 11
-8.22357381
 21
-87.01698266
 31
0.0
  0
LINE
  5
3A8
100
AcDbEntity
  8
LAYER0001
  6
CONTINUOUS
 62
       7
100
AcDbLine
 10
-8.22357381
 20
-87.01698266
 30
0.0
 11
-8.21994831
 21
-86.97795575
 31
0.0
  0
LINE
  5
3A9
100
AcDbEntity
  8
LAYER0001
  6
CONTINUOUS
 62
       7
100
AcDbLine
 10
-8.21994831
 20
-86.97795575
 30
0.0
 11
-8.21534042
 21
-86.93909595
 31
0.0
  0
LINE
  5
3AA
100
AcDbEntity
  8
LAYER0001
  6
CONTINUOUS
 62
       7
100
AcDbLine
 10
-8.21534042
 20
-86.93909595
 30
0.0
 11
-8.20942267
 21
-86.90045896
 31
0.0
  0
LINE
  5
3AB
100
AcDbEntity
  8
LAYER0001
  6
CONTINUOUS
 62
       7
100
AcDbLine
 10
-8.20942267
 20
-86.90045896
 30
0.0
 11
-8.20187022
 21
-86.86210053
 31
0.0
  0
LINE
  5
3AC
100
AcDbEntity
  8
LAYER0001
  6
CONTINUOUS
 62
       7
100
AcDbLine
 10
-8.20187022
 20
-86.86210053
 30
0.0
 11
-8.19250843
 21
-86.82407972
 31
0.0
  0
LINE
  5
3AD
100
AcDbEntity
  8
LAYER0001
  6
CONTINUOUS
 62
       7
100
AcDbLine
 10
-8.19250843
 20
-86.82407972
 30
0.0
 11
-8.18139093
 21
-86.78646059
 31
0.0
  0
LINE
  5
3AE
100
AcDbEntity
  8
LAYER0001
  6
CONTINUOUS
 62
       7
100
AcDbLine
 10
-8.18139093
 20
-86.78646059
 30
0.0
 11
-8.16859047
 21
-86.74930762
 31
0.0
  0
LINE
  5
3AF
100
AcDbEntity
  8
LAYER0001
  6
CONTINUOUS
 62
       7
100
AcDbLine
 10
-8.16859047
 20
-86.74930762
 30
0.0
 11
-8.15417981
 21
-86.71268527
 31
0.0
  0
LINE
  5
3B0
100
AcDbEntity
  8
LAYER0001
  6
CONTINUOUS
 62
       7
100
AcDbLine
 10
-8.15417981
 20
-86.71268527
 30
0.0
 11
-8.13823169
 21
-86.67665804
 31
0.0
  0
LINE
  5
3B1
100
AcDbEntity
  8
LAYER0001
  6
CONTINUOUS
 62
       7
100
AcDbLine
 10
-8.13823169
 20
-86.67665804
 30
0.0
 11
-8.12081887
 21
-86.6412904
 31
0.0
  0
LINE
  5
3B2
100
AcDbEntity
  8
LAYER0001
  6
CONTINUOUS
 62
       7
100
AcDbLine
 10
-8.12081887
 20
-86.6412904
 30
0.0
 11
-8.1020141
 21
-86.60664682
 31
0.0
  0
LINE
  5
3B3
100
AcDbEntity
  8
LAYER0001
  6
CONTINUOUS
 62
       7
100
AcDbLine
 10
-8.1020141
 20
-86.60664682
 30
0.0
 11
-8.08189014
 21
-86.57279179
 31
0.0
  0
LINE
  5
3B4
100
AcDbEntity
  8
LAYER0001
  6
CONTINUOUS
 62
       7
100
AcDbLine
 10
-8.08189014
 20
-86.57279179
 30
0.0
 11
-8.0605171
 21
-86.5397876
 31
0.0
  0
LINE
  5
3B5
100
AcDbEntity
  8
LAYER0001
  6
CONTINUOUS
 62
       7
100
AcDbLine
 10
-8.0605171
 20
-86.5397876
 30
0.0
 11
-8.03793818
 21
-86.50767419
 31
0.0
  0
LINE
  5
3B6
100
AcDbEntity
  8
LAYER0001
  6
CONTINUOUS
 62
       7
100
AcDbLine
 10
-8.03793818
 20
-86.50767419
 30
0.0
 11
-8.01418078
 21
-86.47647844
 31
0.0
  0
LINE
  5
3B7
100
AcDbEntity
  8
LAYER0001
  6
CONTINUOUS
 62
       7
100
AcDbLine
 10
-8.01418078
 20
-86.47647844
 30
0.0
 11
-7.98927215
 21
-86.44622705
 31
0.0
  0
LINE
  5
3B8
100
AcDbEntity
  8
LAYER0001
  6
CONTINUOUS
 62
       7
100
AcDbLine
 10
-7.98927215
 20
-86.44622705
 30
0.0
 11
-7.9632395
 21
-86.41694675
 31
0.0
  0
LINE
  5
3B9
100
AcDbEntity
  8
LAYER0001
  6
CONTINUOUS
 62
       7
100
AcDbLine
 10
-7.9632395
 20
-86.41694675
 30
0.0
 11
-7.93611006
 21
-86.38866422
 31
0.0
  0
LINE
  5
3BA
100
AcDbEntity
  8
LAYER0001
  6
CONTINUOUS
 62
       7
100
AcDbLine
 10
-7.93611006
 20
-86.38866422
 30
0.0
 11
-7.90791106
 21
-86.36140618
 31
0.0
  0
LINE
  5
3BB
100
AcDbEntity
  8
LAYER0001
  6
CONTINUOUS
 62
       7
100
AcDbLine
 10
-7.90791106
 20
-86.36140618
 30
0.0
 11
-7.87866972
 21
-86.33519935
 31
0.0
  0
LINE
  5
3BC
100
AcDbEntity
  8
LAYER0001
  6
CONTINUOUS
 62
       7
100
AcDbLine
 10
-7.87866972
 20
-86.33519935
 30
0.0
 11
-7.84841326
 21
-86.31007043
 31
0.0
  0
LINE
  5
3BD
100
AcDbEntity
  8
LAYER0001
  6
CONTINUOUS
 62
       7
100
AcDbLine
 10
-7.84841326
 20
-86.31007043
 30
0.0
 11
-7.81717509
 21
-86.28606033
 31
0.0
  0
LINE
  5
3BE
100
AcDbEntity
  8
LAYER0001
  6
CONTINUOUS
 62
       7
100
AcDbLine
 10
-7.81717509
 20
-86.28606033
 30
0.0
 11
-7.78500722
 21
-86.26325283
 31
0.0
  0
LINE
  5
3BF
100
AcDbEntity
  8
LAYER0001
  6
CONTINUOUS
 62
       7
100
AcDbLine
 10
-7.78500722
 20
-86.26325283
 30
0.0
 11
-7.75196519
 21
-86.24173978
 31
0.0
  0
LINE
  5
3C0
100
AcDbEntity
  8
LAYER0001
  6
CONTINUOUS
 62
       7
100
AcDbLine
 10
-7.75196519
 20
-86.24173978
 30
0.0
 11
-7.71810453
 21
-86.22161299
 31
0.0
  0
LINE
  5
3C1
100
AcDbEntity
  8
LAYER0001
  6
CONTINUOUS
 62
       7
100
AcDbLine
 10
-7.71810453
 20
-86.22161299
 30
0.0
 11
-7.68348074
 21
-86.20296432
 31
0.0
  0
LINE
  5
3C2
100
AcDbEntity
  8
LAYER0001
  6
CONTINUOUS
 62
       7
100
AcDbLine
 10
-7.68348074
 20
-86.20296432
 30
0.0
 11
-7.64814937
 21
-86.18588558
 31
0.0
  0
LINE
  5
3C3
100
AcDbEntity
  8
LAYER0001
  6
CONTINUOUS
 62
       7
100
AcDbLine
 10
-7.64814937
 20
-86.18588558
 30
0.0
 11
-7.61216594
 21
-86.17046862
 31
0.0
  0
LINE
  5
3C4
100
AcDbEntity
  8
LAYER0001
  6
CONTINUOUS
 62
       7
100
AcDbLine
 10
-7.61216594
 20
-86.17046862
 30
0.0
 11
-7.57558597
 21
-86.15680528
 31
0.0
  0
LINE
  5
3C5
100
AcDbEntity
  8
LAYER0001
  6
CONTINUOUS
 62
       7
100
AcDbLine
 10
-7.57558597
 20
-86.15680528
 30
0.0
 11
-7.53846513
 21
-86.14497853
 31
0.0
  0
LINE
  5
3C6
100
AcDbEntity
  8
LAYER0001
  6
CONTINUOUS
 62
       7
100
AcDbLine
 10
-7.53846513
 20
-86.14497853
 30
0.0
 11
-7.50086155
 21
-86.13491137
 31
0.0
  0
LINE
  5
3C7
100
AcDbEntity
  8
LAYER0001
  6
CONTINUOUS
 62
       7
100
AcDbLine
 10
-7.50086155
 20
-86.13491137
 30
0.0
 11
-7.46283552
 21
-86.12638788
 31
0.0
  0
LINE
  5
3C8
100
AcDbEntity
  8
LAYER0001
  6
CONTINUOUS
 62
       7
100
AcDbLine
 10
-7.46283552
 20
-86.12638788
 30
0.0
 11
-7.42444737
 21
-86.11918755
 31
0.0
  0
LINE
  5
3C9
100
AcDbEntity
  8
LAYER0001
  6
CONTINUOUS
 62
       7
100
AcDbLine
 10
-7.42444737
 20
-86.11918755
 30
0.0
 11
-7.38575747
 21
-86.11308985
 31
0.0
  0
LINE
  5
3CA
100
AcDbEntity
  8
LAYER0001
  6
CONTINUOUS
 62
       7
100
AcDbLine
 10
-7.38575747
 20
-86.11308985
 30
0.0
 11
-7.34682616
 21
-86.10787425
 31
0.0
  0
LINE
  5
3CB
100
AcDbEntity
  8
LAYER0001
  6
CONTINUOUS
 62
       7
100
AcDbLine
 10
-7.34682616
 20
-86.10787425
 30
0.0
 11
-7.3077138
 21
-86.10332023
 31
0.0
  0
LINE
  5
3CC
100
AcDbEntity
  8
LAYER0001
  6
CONTINUOUS
 62
       7
100
AcDbLine
 10
-7.3077138
 20
-86.10332023
 30
0.0
 11
-7.26848073
 21
-86.09920726
 31
0.0
  0
LINE
  5
3CD
100
AcDbEntity
  8
LAYER0001
  6
CONTINUOUS
 62
       7
100
AcDbLine
 10
-7.26848073
 20
-86.09920726
 30
0.0
 11
-7.22918732
 21
-86.09531481
 31
0.0
  0
ENDBLK
  5
3CE
100
AcDbEntity
  8
0
100
AcDbBlockEnd
  0
BLOCK
  5
3CF
100
AcDbEntity
  8
0
100
AcDbBlockBegin
  2
GROUP_23
 70
       0
 10
0.0
 20
0.0
 30
0.0
  3
GROUP_23
  1

  0
LINE
  5
3D0
100
AcDbEntity
  8
LAYER0001
  6
CONTINUOUS
 62
       7
100
AcDbLine
 10
-0.65621677
 20
-90.19531453
 30
0.0
 11
-0.63396281
 21
-90.19570841
 31
0.0
  0
LINE
  5
3D1
100
AcDbEntity
  8
LAYER0001
  6
CONTINUOUS
 62
       7
100
AcDbLine
 10
-0.63396281
 20
-90.19570841
 30
0.0
 11
-0.61175204
 21
-90.19689348
 31
0.0
  0
LINE
  5
3D2
100
AcDbEntity
  8
LAYER0001
  6
CONTINUOUS
 62
       7
100
AcDbLine
 10
-0.61175204
 20
-90.19689348
 30
0.0
 11
-0.58958559
 21
-90.19887487
 31
0.0
  0
LINE
  5
3D3
100
AcDbEntity
  8
LAYER0001
  6
CONTINUOUS
 62
       7
100
AcDbLine
 10
-0.58958559
 20
-90.19887487
 30
0.0
 11
-0.56746464
 21
-90.20165773
 31
0.0
  0
LINE
  5
3D4
100
AcDbEntity
  8
LAYER0001
  6
CONTINUOUS
 62
       7
100
AcDbLine
 10
-0.56746464
 20
-90.20165773
 30
0.0
 11
-0.54539031
 21
-90.20524721
 31
0.0
  0
LINE
  5
3D5
100
AcDbEntity
  8
LAYER0001
  6
CONTINUOUS
 62
       7
100
AcDbLine
 10
-0.54539031
 20
-90.20524721
 30
0.0
 11
-0.52336378
 21
-90.20964845
 31
0.0
  0
LINE
  5
3D6
100
AcDbEntity
  8
LAYER0001
  6
CONTINUOUS
 62
       7
100
AcDbLine
 10
-0.52336378
 20
-90.20964845
 30
0.0
 11
-0.50138618
 21
-90.21486658
 31
0.0
  0
LINE
  5
3D7
100
AcDbEntity
  8
LAYER0001
  6
CONTINUOUS
 62
       7
100
AcDbLine
 10
-0.50138618
 20
-90.21486658
 30
0.0
 11
-0.47945867
 21
-90.22090676
 31
0.0
  0
LINE
  5
3D8
100
AcDbEntity
  8
LAYER0001
  6
CONTINUOUS
 62
       7
100
AcDbLine
 10
-0.47945867
 20
-90.22090676
 30
0.0
 11
-0.4575824
 21
-90.22777412
 31
0.0
  0
LINE
  5
3D9
100
AcDbEntity
  8
LAYER0001
  6
CONTINUOUS
 62
       7
100
AcDbLine
 10
-0.4575824
 20
-90.22777412
 30
0.0
 11
-0.43575853
 21
-90.2354738
 31
0.0
  0
LINE
  5
3DA
100
AcDbEntity
  8
LAYER0001
  6
CONTINUOUS
 62
       7
100
AcDbLine
 10
-0.43575853
 20
-90.2354738
 30
0.0
 11
-0.41398819
 21
-90.24401095
 31
0.0
  0
LINE
  5
3DB
100
AcDbEntity
  8
LAYER0001
  6
CONTINUOUS
 62
       7
100
AcDbLine
 10
-0.41398819
 20
-90.24401095
 30
0.0
 11
-0.39227255
 21
-90.25339072
 31
0.0
  0
LINE
  5
3DC
100
AcDbEntity
  8
LAYER0001
  6
CONTINUOUS
 62
       7
100
AcDbLine
 10
-0.39227255
 20
-90.25339072
 30
0.0
 11
-0.3706219
 21
-90.26361723
 31
0.0
  0
LINE
  5
3DD
100
AcDbEntity
  8
LAYER0001
  6
CONTINUOUS
 62
       7
100
AcDbLine
 10
-0.3706219
 20
-90.26361723
 30
0.0
 11
-0.34909911
 21
-90.27468887
 31
0.0
  0
LINE
  5
3DE
100
AcDbEntity
  8
LAYER0001
  6
CONTINUOUS
 62
       7
100
AcDbLine
 10
-0.34909911
 20
-90.27468887
 30
0.0
 11
-0.32773199
 21
-90.2866081
 31
0.0
  0
LINE
  5
3DF
100
AcDbEntity
  8
LAYER0001
  6
CONTINUOUS
 62
       7
100
AcDbLine
 10
-0.32773199
 20
-90.2866081
 30
0.0
 11
-0.30653994
 21
-90.29937828
 31
0.0
  0
LINE
  5
3E0
100
AcDbEntity
  8
LAYER0001
  6
CONTINUOUS
 62
       7
100
AcDbLine
 10
-0.30653994
 20
-90.29937828
 30
0.0
 11
-0.2855424
 21
-90.3130028
 31
0.0
  0
LINE
  5
3E1
100
AcDbEntity
  8
LAYER0001
  6
CONTINUOUS
 62
       7
100
AcDbLine
 10
-0.2855424
 20
-90.3130028
 30
0.0
 11
-0.26475879
 21
-90.32748504
 31
0.0
  0
LINE
  5
3E2
100
AcDbEntity
  8
LAYER0001
  6
CONTINUOUS
 62
       7
100
AcDbLine
 10
-0.26475879
 20
-90.32748504
 30
0.0
 11
-0.24420852
 21
-90.34282837
 31
0.0
  0
LINE
  5
3E3
100
AcDbEntity
  8
LAYER0001
  6
CONTINUOUS
 62
       7
100
AcDbLine
 10
-0.24420852
 20
-90.34282837
 30
0.0
 11
-0.22391102
 21
-90.35903619
 31
0.0
  0
LINE
  5
3E4
100
AcDbEntity
  8
LAYER0001
  6
CONTINUOUS
 62
       7
100
AcDbLine
 10
-0.22391102
 20
-90.35903619
 30
0.0
 11
-0.2038857
 21
-90.37611186
 31
0.0
  0
LINE
  5
3E5
100
AcDbEntity
  8
LAYER0001
  6
CONTINUOUS
 62
       7
100
AcDbLine
 10
-0.2038857
 20
-90.37611186
 30
0.0
 11
-0.184152
 21
-90.39405876
 31
0.0
  0
LINE
  5
3E6
100
AcDbEntity
  8
LAYER0001
  6
CONTINUOUS
 62
       7
100
AcDbLine
 10
-0.184152
 20
-90.39405876
 30
0.0
 11
-0.16472933
 21
-90.41288028
 31
0.0
  0
LINE
  5
3E7
100
AcDbEntity
  8
LAYER0001
  6
CONTINUOUS
 62
       7
100
AcDbLine
 10
-0.16472933
 20
-90.41288028
 30
0.0
 11
-0.1456371
 21
-90.43257979
 31
0.0
  0
LINE
  5
3E8
100
AcDbEntity
  8
LAYER0001
  6
CONTINUOUS
 62
       7
100
AcDbLine
 10
-0.1456371
 20
-90.43257979
 30
0.0
 11
-0.12689475
 21
-90.45316067
 31
0.0
  0
LINE
  5
3E9
100
AcDbEntity
  8
LAYER0001
  6
CONTINUOUS
 62
       7
100
AcDbLine
 10
-0.12689475
 20
-90.45316067
 30
0.0
 11
-0.10854154
 21
-90.47461657
 31
0.0
  0
LINE
  5
3EA
100
AcDbEntity
  8
LAYER0001
  6
CONTINUOUS
 62
       7
100
AcDbLine
 10
-0.10854154
 20
-90.47461657
 30
0.0
 11
-0.09062281
 21
-90.49692752
 31
0.0
  0
LINE
  5
3EB
100
AcDbEntity
  8
LAYER0001
  6
CONTINUOUS
 62
       7
100
AcDbLine
 10
-0.09062281
 20
-90.49692752
 30
0.0
 11
-0.0731671
 21
-90.52007651
 31
0.0
  0
LINE
  5
3EC
100
AcDbEntity
  8
LAYER0001
  6
CONTINUOUS
 62
       7
100
AcDbLine
 10
-0.0731671
 20
-90.52007651
 30
0.0
 11
-0.05620293
 21
-90.54404654
 31
0.0
  0
LINE
  5
3ED
100
AcDbEntity
  8
LAYER0001
  6
CONTINUOUS
 62
       7
100
AcDbLine
 10
-0.05620293
 20
-90.54404654
 30
0.0
 11
-0.03975886
 21
-90.56882059
 31
0.0
  0
LINE
  5
3EE
100
AcDbEntity
  8
LAYER0001
  6
CONTINUOUS
 62
       7
100
AcDbLine
 10
-0.03975886
 20
-90.56882059
 30
0.0
 11
-0.0238634
 21
-90.59438165
 31
0.0
  0
LINE
  5
3EF
100
AcDbEntity
  8
LAYER0001
  6
CONTINUOUS
 62
       7
100
AcDbLine
 10
-0.0238634
 20
-90.59438165
 30
0.0
 11
-0.00854511
 21
-90.62071272
 31
0.0
  0
LINE
  5
3F0
100
AcDbEntity
  8
LAYER0001
  6
CONTINUOUS
 62
       7
100
AcDbLine
 10
-0.00854511
 20
-90.62071272
 30
0.0
 11
0.0061675
 21
-90.64779679
 31
0.0
  0
LINE
  5
3F1
100
AcDbEntity
  8
LAYER0001
  6
CONTINUOUS
 62
       7
100
AcDbLine
 10
0.0061675
 20
-90.64779679
 30
0.0
 11
0.02024588
 21
-90.67561683
 31
0.0
  0
LINE
  5
3F2
100
AcDbEntity
  8
LAYER0001
  6
CONTINUOUS
 62
       7
100
AcDbLine
 10
0.02024588
 20
-90.67561683
 30
0.0
 11
0.0336615
 21
-90.70415586
 31
0.0
  0
LINE
  5
3F3
100
AcDbEntity
  8
LAYER0001
  6
CONTINUOUS
 62
       7
100
AcDbLine
 10
0.0336615
 20
-90.70415586
 30
0.0
 11
0.04638582
 21
-90.73339685
 31
0.0
  0
LINE
  5
3F4
100
AcDbEntity
  8
LAYER0001
  6
CONTINUOUS
 62
       7
100
AcDbLine
 10
0.04638582
 20
-90.73339685
 30
0.0
 11
0.05839031
 21
-90.76332279
 31
0.0
  0
LINE
  5
3F5
100
AcDbEntity
  8
LAYER0001
  6
CONTINUOUS
 62
       7
100
AcDbLine
 10
0.05839031
 20
-90.76332279
 30
0.0
 11
0.06964264
 21
-90.79390761
 31
0.0
  0
LINE
  5
3F6
100
AcDbEntity
  8
LAYER0001
  6
CONTINUOUS
 62
       7
100
AcDbLine
 10
0.06964264
 20
-90.79390761
 30
0.0
 11
0.08009589
 21
-90.82507271
 31
0.0
  0
LINE
  5
3F7
100
AcDbEntity
  8
LAYER0001
  6
CONTINUOUS
 62
       7
100
AcDbLine
 10
0.08009589
 20
-90.82507271
 30
0.0
 11
0.08972888
 21
-90.8567737
 31
0.0
  0
LINE
  5
3F8
100
AcDbEntity
  8
LAYER0001
  6
CONTINUOUS
 62
       7
100
AcDbLine
 10
0.08972888
 20
-90.8567737
 30
0.0
 11
0.09852469
 21
-90.88897449
 31
0.0
  0
LINE
  5
3F9
100
AcDbEntity
  8
LAYER0001
  6
CONTINUOUS
 62
       7
100
AcDbLine
 10
0.09852469
 20
-90.88897449
 30
0.0
 11
0.10646642
 21
-90.92163895
 31
0.0
  0
LINE
  5
3FA
100
AcDbEntity
  8
LAYER0001
  6
CONTINUOUS
 62
       7
100
AcDbLine
 10
0.10646642
 20
-90.92163895
 30
0.0
 11
0.11353715
 21
-90.954731
 31
0.0
  0
LINE
  5
3FB
100
AcDbEntity
  8
LAYER0001
  6
CONTINUOUS
 62
       7
100
AcDbLine
 10
0.11353715
 20
-90.954731
 30
0.0
 11
0.11971998
 21
-90.98821451
 31
0.0
  0
LINE
  5
3FC
100
AcDbEntity
  8
LAYER0001
  6
CONTINUOUS
 62
       7
100
AcDbLine
 10
0.11971998
 20
-90.98821451
 30
0.0
 11
0.124998
 21
-91.02205339
 31
0.0
  0
LINE
  5
3FD
100
AcDbEntity
  8
LAYER0001
  6
CONTINUOUS
 62
       7
100
AcDbLine
 10
0.124998
 20
-91.02205339
 30
0.0
 11
0.12935429
 21
-91.05621153
 31
0.0
  0
LINE
  5
3FE
100
AcDbEntity
  8
LAYER0001
  6
CONTINUOUS
 62
       7
100
AcDbLine
 10
0.12935429
 20
-91.05621153
 30
0.0
 11
0.13277196
 21
-91.09065282
 31
0.0
  0
LINE
  5
3FF
100
AcDbEntity
  8
LAYER0001
  6
CONTINUOUS
 62
       7
100
AcDbLine
 10
0.13277196
 20
-91.09065282
 30
0.0
 11
0.13523408
 21
-91.12534115
 31
0.0
  0
LINE
  5
400
100
AcDbEntity
  8
LAYER0001
  6
CONTINUOUS
 62
       7
100
AcDbLine
 10
0.13523408
 20
-91.12534115
 30
0.0
 11
0.13672376
 21
-91.16024043
 31
0.0
  0
LINE
  5
401
100
AcDbEntity
  8
LAYER0001
  6
CONTINUOUS
 62
       7
100
AcDbLine
 10
0.13672376
 20
-91.16024043
 30
0.0
 11
0.13722407
 21
-91.19531453
 31
0.0
  0
ENDBLK
  5
402
100
AcDbEntity
  8
0
100
AcDbBlockEnd
  0
ENDSEC
  0
SECTION
  2
ENTITIES
  0
LINE
  5
403
100
AcDbEntity
  8
LAYER0001
  6
CONTINUOUS
 62
       7
100
AcDbLine
 10
-77.39255352
 20
66.3831246
 30
0.0
 11
-77.39255384
 21
97.08312397
 31
0.0
  0
LINE
  5
404
100
AcDbEntity
  8
LAYER0001
  6
CONTINUOUS
 62
       7
100
AcDbLine
 10
-127.3925549
 20
161.08310466
 30
0.0
 11
-77.39255402
 21
161.083097
 31
0.0
  0
LINE
  5
405
100
AcDbEntity
  8
LAYER0001
  6
CONTINUOUS
 62
       7
100
AcDbLine
 10
-77.3925539
 20
-1.26506264
 30
0.0
 11
-77.39255352
 21
1.08311445
 31
0.0
  0
LINE
  5
406
100
AcDbEntity
  8
LAYER0001
  6
CONTINUOUS
 62
       7
100
AcDbLine
 10
-127.39255396
 20
129.08311431
 30
0.0
 11
-127.39255427
 21
98.38311494
 31
0.0
  0
LINE
  5
407
100
AcDbEntity
  8
LAYER0001
  6
CONTINUOUS
 62
       7
100
AcDbLine
 10
-127.39255427
 20
66.3831246
 30
0.0
 11
-77.39255352
 21
66.3831246
 31
0.0
  0
LINE
  5
408
100
AcDbEntity
  8
LAYER0001
  6
CONTINUOUS
 62
       7
100
AcDbLine
 10
-77.39255393
 20
162.38311054
 30
0.0
 11
-102.39255438
 21
162.38311208
 31
0.0
  0
LINE
  5
409
100
AcDbEntity
  8
LAYER0001
  6
CONTINUOUS
 62
       7
100
AcDbLine
 10
-77.39255352
 20
1.08311445
 30
0.0
 11
-127.39255427
 21
1.08311445
 31
0.0
  0
LINE
  5
40A
100
AcDbEntity
  8
LAYER0001
  6
CONTINUOUS
 62
       7
100
AcDbLine
 10
-77.39255352
 20
34.38311935
 30
0.0
 11
-77.39255384
 21
65.08311872
 31
0.0
  0
LINE
  5
40B
100
AcDbEntity
  8
LAYER0001
  6
CONTINUOUS
 62
       7
100
AcDbLine
 10
-127.39255396
 20
33.08311348
 30
0.0
 11
-77.39255384
 21
33.08311348
 31
0.0
  0
LINE
  5
40C
100
AcDbEntity
  8
LAYER0001
  6
CONTINUOUS
 62
       7
100
AcDbLine
 10
-77.39255393
 20
162.38311054
 30
0.0
 11
-77.39255393
 21
169.93752938
 31
0.0
  0
LINE
  5
40D
100
AcDbEntity
  8
LAYER0001
  6
CONTINUOUS
 62
       7
100
AcDbLine
 10
-77.39255352
 20
2.38311411
 30
0.0
 11
-77.39255384
 21
33.08311348
 31
0.0
  0
LINE
  5
40E
100
AcDbEntity
  8
LAYER0001
  6
CONTINUOUS
 62
       7
100
AcDbLine
 10
-127.39255396
 20
97.08312397
 30
0.0
 11
-127.39255427
 21
66.3831246
 31
0.0
  0
LINE
  5
40F
100
AcDbEntity
  8
LAYER0001
  6
CONTINUOUS
 62
       7
100
AcDbLine
 10
-118.88293466
 20
-99.61688212
 30
0.0
 11
-118.88293466
 21
-100.31688233
 31
0.0
  0
LINE
  5
410
100
AcDbEntity
  8
LAYER0001
  6
CONTINUOUS
 62
       7
100
AcDbLine
 10
-111.88293444
 20
-100.31688233
 30
0.0
 11
-111.88293444
 21
-99.61688212
 31
0.0
  0
LINE
  5
411
100
AcDbEntity
  8
LAYER0001
  6
CONTINUOUS
 62
       7
100
AcDbLine
 10
-105.89255356
 20
-99.61688212
 30
0.0
 11
-105.89255356
 21
-100.31688233
 31
0.0
  0
LINE
  5
412
100
AcDbEntity
  8
LAYER0001
  6
CONTINUOUS
 62
       7
100
AcDbLine
 10
-98.89255334
 20
-100.31688233
 30
0.0
 11
-98.89255334
 21
-99.61688212
 31
0.0
  0
LINE
  5
413
100
AcDbEntity
  8
LAYER0001
  6
CONTINUOUS
 62
       7
100
AcDbLine
 10
-92.90217245
 20
-99.61688212
 30
0.0
 11
-92.90217245
 21
-100.31688233
 31
0.0
  0
LINE
  5
414
100
AcDbEntity
  8
LAYER0001
  6
CONTINUOUS
 62
       7
100
AcDbLine
 10
-85.90217224
 20
-100.31688233
 30
0.0
 11
-85.90217224
 21
-99.61688212
 31
0.0
  0
LINE
  5
415
100
AcDbEntity
  8
LAYER0001
  6
CONTINUOUS
 62
       7
100
AcDbLine
 10
-101.21736813
 20
-91.0168823
 30
0.0
 11
-101.21736813
 21
-86.71688262
 31
0.0
  0
LINE
  5
416
100
AcDbEntity
  8
LAYER0001
  6
CONTINUOUS
 62
       7
100
AcDbLine
 10
-103.56773876
 20
-86.71688262
 30
0.0
 11
-103.56773876
 21
-91.0168823
 31
0.0
  0
LINE
  5
417
100
AcDbEntity
  8
LAYER0001
  6
CONTINUOUS
 62
       7
100
AcDbLine
 10
-101.55066834
 20
-92.0134517
 30
0.0
 11
-101.5959085
 21
-92.01688223
 31
0.0
  0
LINE
  5
418
100
AcDbEntity
  8
LAYER0001
  6
CONTINUOUS
 62
       7
100
AcDbLine
 10
-103.23443856
 20
-85.72031345
 30
0.0
 11
-103.1891984
 21
-85.71688245
 31
0.0
  0
LINE
  5
419
100
AcDbEntity
  8
LAYER0001
  6
CONTINUOUS
 62
       7
100
AcDbLine
 10
-103.62144993
 20
-87.61688249
 30
0.0
 11
-103.62144993
 21
-88.01688227
 31
0.0
  0
LINE
  5
41A
100
AcDbEntity
  8
LAYER0001
  6
CONTINUOUS
 62
       7
100
AcDbLine
 10
-101.16365694
 20
-88.01688227
 30
0.0
 11
-101.16365694
 21
-87.61688249
 31
0.0
  0
LINE
  5
41B
100
AcDbEntity
  8
LAYER0001
  6
CONTINUOUS
 62
       7
100
AcDbLine
 10
-107.39255332
 20
-89.81688232
 30
0.0
 11
-107.39255345
 21
-91.51688232
 31
0.0
  0
LINE
  5
41C
100
AcDbEntity
  8
LAYER0001
  6
CONTINUOUS
 62
       7
100
AcDbLine
 10
-97.39255345
 20
-91.51688232
 30
0.0
 11
-97.39255358
 21
-89.8168823
 31
0.0
  0
LINE
  5
41D
100
AcDbEntity
  8
LAYER0001
  6
CONTINUOUS
 62
       7
100
AcDbLine
 10
-90.90217213
 20
-95.11688232
 30
0.0
 11
-90.90217213
 21
-99.61688212
 31
0.0
  0
LINE
  5
41E
100
AcDbEntity
  8
LAYER0001
  6
CONTINUOUS
 62
       7
100
AcDbLine
 10
-90.90217213
 20
-102.91688211
 30
0.0
 11
-90.90217213
 21
-103.91688227
 31
0.0
  0
LINE
  5
41F
100
AcDbEntity
  8
LAYER0001
  6
CONTINUOUS
 62
       7
100
AcDbLine
 10
-87.90217257
 20
-103.91688227
 30
0.0
 11
-87.90217257
 21
-102.91688211
 31
0.0
  0
LINE
  5
420
100
AcDbEntity
  8
LAYER0001
  6
CONTINUOUS
 62
       7
100
AcDbLine
 10
-87.90217257
 20
-99.61688212
 30
0.0
 11
-87.90217257
 21
-95.11688232
 31
0.0
  0
LINE
  5
421
100
AcDbEntity
  8
LAYER0001
  6
CONTINUOUS
 62
       7
100
AcDbLine
 10
-116.88293433
 20
-95.11688232
 30
0.0
 11
-116.88293433
 21
-99.61688212
 31
0.0
  0
LINE
  5
422
100
AcDbEntity
  8
LAYER0001
  6
CONTINUOUS
 62
       7
100
AcDbLine
 10
-116.88293433
 20
-102.91688211
 30
0.0
 11
-116.88293433
 21
-103.91688227
 31
0.0
  0
LINE
  5
423
100
AcDbEntity
  8
LAYER0001
  6
CONTINUOUS
 62
       7
100
AcDbLine
 10
-113.88293477
 20
-103.91688227
 30
0.0
 11
-113.88293477
 21
-102.91688211
 31
0.0
  0
LINE
  5
424
100
AcDbEntity
  8
LAYER0001
  6
CONTINUOUS
 62
       7
100
AcDbLine
 10
-113.88293477
 20
-99.61688212
 30
0.0
 11
-113.88293477
 21
-95.11688232
 31
0.0
  0
LINE
  5
425
100
AcDbEntity
  8
LAYER0001
  6
CONTINUOUS
 62
       7
100
AcDbLine
 10
-103.89255346
 20
-95.11688232
 30
0.0
 11
-103.89255346
 21
-99.61688212
 31
0.0
  0
LINE
  5
426
100
AcDbEntity
  8
LAYER0001
  6
CONTINUOUS
 62
       7
100
AcDbLine
 10
-103.89255346
 20
-102.91688211
 30
0.0
 11
-103.89255346
 21
-103.91688227
 31
0.0
  0
LINE
  5
427
100
AcDbEntity
  8
LAYER0001
  6
CONTINUOUS
 62
       7
100
AcDbLine
 10
-100.89255344
 20
-103.91688227
 30
0.0
 11
-100.89255344
 21
-102.91688211
 31
0.0
  0
LINE
  5
428
100
AcDbEntity
  8
LAYER0001
  6
CONTINUOUS
 62
       7
100
AcDbLine
 10
-100.89255344
 20
-99.61688212
 30
0.0
 11
-100.89255344
 21
-95.11688232
 31
0.0
  0
LINE
  5
429
100
AcDbEntity
  8
LAYER0001
  6
CONTINUOUS
 62
       7
100
AcDbLine
 10
-82.3925539
 20
-95.11688232
 30
0.0
 11
-82.3925539
 21
-13.09722221
 31
0.0
  0
LINE
  5
42A
100
AcDbEntity
  8
LAYER0001
  6
CONTINUOUS
 62
       7
100
AcDbLine
 10
-122.3925539
 20
-13.09722221
 30
0.0
 11
-122.392553
 21
-95.11688232
 31
0.0
  0
LINE
  5
42B
100
AcDbEntity
  8
LAYER0001
  6
CONTINUOUS
 62
       7
100
AcDbLine
 10
-99.26935298
 20
-87.61688234
 30
0.0
 11
-99.26935298
 21
-89.81688233
 31
0.0
  0
LINE
  5
42C
100
AcDbEntity
  8
LAYER0001
  6
CONTINUOUS
 62
       7
100
AcDbLine
 10
-105.51575366
 20
-89.81688232
 30
0.0
 11
-105.51575366
 21
-87.61688233
 31
0.0
  0
LINE
  5
42D
100
AcDbEntity
  8
LAYER0001
  6
CONTINUOUS
 62
       7
100
AcDbLine
 10
-127.39255427
 20
98.38311494
 30
0.0
 11
-77.39255352
 21
98.38311494
 31
0.0
  0
LINE
  5
42E
100
AcDbEntity
  8
LAYER0001
  6
CONTINUOUS
 62
       7
100
AcDbLine
 10
-127.39255427
 20
1.08311445
 30
0.0
 11
-127.3925539
 21
-1.26506264
 31
0.0
  0
LINE
  5
42F
100
AcDbEntity
  8
LAYER0001
  6
CONTINUOUS
 62
       7
100
AcDbLine
 10
-127.39255427
 20
34.38311935
 30
0.0
 11
-77.39255352
 21
34.38311935
 31
0.0
  0
LINE
  5
430
100
AcDbEntity
  8
LAYER0001
  6
CONTINUOUS
 62
       7
100
AcDbLine
 10
-127.39255396
 20
97.08312397
 30
0.0
 11
-77.39255384
 21
97.08312397
 31
0.0
  0
LINE
  5
431
100
AcDbEntity
  8
LAYER0001
  6
CONTINUOUS
 62
       7
100
AcDbLine
 10
-77.39255433
 20
130.38312019
 30
0.0
 11
-77.39255402
 21
161.083097
 31
0.0
  0
LINE
  5
432
100
AcDbEntity
  8
LAYER0001
  6
CONTINUOUS
 62
       7
100
AcDbLine
 10
-127.39255396
 20
65.08311872
 30
0.0
 11
-127.39255427
 21
34.38311935
 31
0.0
  0
LINE
  5
433
100
AcDbEntity
  8
LAYER0001
  6
CONTINUOUS
 62
       7
100
AcDbLine
 10
-102.3925539
 20
172.66816021
 30
0.0
 11
-110.42002289
 21
172.6681628
 31
0.0
  0
LINE
  5
434
100
AcDbEntity
  8
LAYER0001
  6
CONTINUOUS
 62
       7
100
AcDbLine
 10
-127.39255396
 20
33.08311348
 30
0.0
 11
-127.39255427
 21
2.38311411
 31
0.0
  0
LINE
  5
435
100
AcDbEntity
  8
LAYER0001
  6
CONTINUOUS
 62
       7
100
AcDbLine
 10
-127.39255848
 20
130.38312019
 30
0.0
 11
-77.39255433
 21
130.38312019
 31
0.0
  0
LINE
  5
436
100
AcDbEntity
  8
LAYER0001
  6
CONTINUOUS
 62
       7
100
AcDbLine
 10
-127.3925549
 20
161.08310466
 30
0.0
 11
-127.39255848
 21
130.38312019
 31
0.0
  0
LINE
  5
437
100
AcDbEntity
  8
LAYER0001
  6
CONTINUOUS
 62
       7
100
AcDbLine
 10
-127.39255396
 20
129.08311431
 30
0.0
 11
-77.39255384
 21
129.08311431
 31
0.0
  0
LINE
  5
438
100
AcDbEntity
  8
LAYER0001
  6
CONTINUOUS
 62
       7
100
AcDbLine
 10
-77.39255352
 20
98.38311494
 30
0.0
 11
-77.39255384
 21
129.08311431
 31
0.0
  0
LINE
  5
439
100
AcDbEntity
  8
LAYER0001
  6
CONTINUOUS
 62
       7
100
AcDbLine
 10
-127.39255396
 20
65.08311872
 30
0.0
 11
-77.39255384
 21
65.08311872
 31
0.0
  0
LINE
  5
43A
100
AcDbEntity
  8
LAYER0001
  6
CONTINUOUS
 62
       7
100
AcDbLine
 10
-102.39255438
 20
162.38311208
 30
0.0
 11
-127.39255475
 21
162.38311362
 31
0.0
  0
LINE
  5
43B
100
AcDbEntity
  8
LAYER0001
  6
CONTINUOUS
 62
       7
100
AcDbLine
 10
-127.39255387
 20
169.9375295
 30
0.0
 11
-127.39255475
 21
162.38311362
 31
0.0
  0
LINE
  5
43C
100
AcDbEntity
  8
LAYER0001
  6
CONTINUOUS
 62
       7
100
AcDbLine
 10
-115.38293409
 20
-99.61688212
 30
0.0
 11
-118.88293466
 21
-99.61688212
 31
0.0
  0
LINE
  5
43D
100
AcDbEntity
  8
LAYER0001
  6
CONTINUOUS
 62
       7
100
AcDbLine
 10
-111.88293444
 20
-99.61688212
 30
0.0
 11
-115.38293409
 21
-99.61688212
 31
0.0
  0
LINE
  5
43E
100
AcDbEntity
  8
LAYER0001
  6
CONTINUOUS
 62
       7
100
AcDbLine
 10
-115.38293409
 20
-100.31688233
 30
0.0
 11
-118.88293466
 21
-100.31688233
 31
0.0
  0
LINE
  5
43F
100
AcDbEntity
  8
LAYER0001
  6
CONTINUOUS
 62
       7
100
AcDbLine
 10
-111.88293444
 20
-100.31688233
 30
0.0
 11
-115.38293409
 21
-100.31688233
 31
0.0
  0
LINE
  5
440
100
AcDbEntity
  8
LAYER0001
  6
CONTINUOUS
 62
       7
100
AcDbLine
 10
-115.38293409
 20
-102.67126208
 30
0.0
 11
-115.38293409
 21
-100.31688233
 31
0.0
  0
LINE
  5
441
100
AcDbEntity
  8
LAYER0001
  6
CONTINUOUS
 62
       7
100
AcDbLine
 10
-112.6329341
 20
-102.67126208
 30
0.0
 11
-112.6329341
 21
-100.31688233
 31
0.0
  0
LINE
  5
442
100
AcDbEntity
  8
LAYER0001
  6
CONTINUOUS
 62
       7
100
AcDbLine
 10
-112.6329341
 20
-102.67126208
 30
0.0
 11
-114.00793409
 21
-102.91688211
 31
0.0
  0
LINE
  5
443
100
AcDbEntity
  8
LAYER0001
  6
CONTINUOUS
 62
       7
100
AcDbLine
 10
-118.132935
 20
-102.67126208
 30
0.0
 11
-118.132935
 21
-100.31688233
 31
0.0
  0
LINE
  5
444
100
AcDbEntity
  8
LAYER0001
  6
CONTINUOUS
 62
       7
100
AcDbLine
 10
-115.38293409
 20
-102.67126208
 30
0.0
 11
-116.75793408
 21
-102.91688211
 31
0.0
  0
LINE
  5
445
100
AcDbEntity
  8
LAYER0001
  6
CONTINUOUS
 62
       7
100
AcDbLine
 10
-114.00793409
 20
-102.91688211
 30
0.0
 11
-116.75793408
 21
-102.91688211
 31
0.0
  0
LINE
  5
446
100
AcDbEntity
  8
LAYER0001
  6
CONTINUOUS
 62
       7
100
AcDbLine
 10
-112.6329341
 20
-102.91688211
 30
0.0
 11
-114.00793409
 21
-102.91688211
 31
0.0
  0
LINE
  5
447
100
AcDbEntity
  8
LAYER0001
  6
CONTINUOUS
 62
       7
100
AcDbLine
 10
-116.75793408
 20
-102.91688211
 30
0.0
 11
-118.132935
 21
-102.91688211
 31
0.0
  0
LINE
  5
448
100
AcDbEntity
  8
LAYER0001
  6
CONTINUOUS
 62
       7
100
AcDbLine
 10
-102.39255345
 20
-99.61688212
 30
0.0
 11
-105.89255356
 21
-99.61688212
 31
0.0
  0
LINE
  5
449
100
AcDbEntity
  8
LAYER0001
  6
CONTINUOUS
 62
       7
100
AcDbLine
 10
-98.89255334
 20
-99.61688212
 30
0.0
 11
-102.39255345
 21
-99.61688212
 31
0.0
  0
LINE
  5
44A
100
AcDbEntity
  8
LAYER0001
  6
CONTINUOUS
 62
       7
100
AcDbLine
 10
-102.39255345
 20
-100.31688233
 30
0.0
 11
-105.89255356
 21
-100.31688233
 31
0.0
  0
LINE
  5
44B
100
AcDbEntity
  8
LAYER0001
  6
CONTINUOUS
 62
       7
100
AcDbLine
 10
-98.89255334
 20
-100.31688233
 30
0.0
 11
-102.39255345
 21
-100.31688233
 31
0.0
  0
LINE
  5
44C
100
AcDbEntity
  8
LAYER0001
  6
CONTINUOUS
 62
       7
100
AcDbLine
 10
-105.14255343
 20
-102.67126208
 30
0.0
 11
-105.14255343
 21
-100.31688233
 31
0.0
  0
LINE
  5
44D
100
AcDbEntity
  8
LAYER0001
  6
CONTINUOUS
 62
       7
100
AcDbLine
 10
-102.39255345
 20
-102.67126208
 30
0.0
 11
-102.39255345
 21
-100.31688233
 31
0.0
  0
LINE
  5
44E
100
AcDbEntity
  8
LAYER0001
  6
CONTINUOUS
 62
       7
100
AcDbLine
 10
-102.39255345
 20
-102.67126208
 30
0.0
 11
-103.76755344
 21
-102.91688211
 31
0.0
  0
LINE
  5
44F
100
AcDbEntity
  8
LAYER0001
  6
CONTINUOUS
 62
       7
100
AcDbLine
 10
-99.64255346
 20
-102.67126208
 30
0.0
 11
-99.64255346
 21
-100.31688233
 31
0.0
  0
LINE
  5
450
100
AcDbEntity
  8
LAYER0001
  6
CONTINUOUS
 62
       7
100
AcDbLine
 10
-99.64255346
 20
-102.67126208
 30
0.0
 11
-101.01755346
 21
-102.91688211
 31
0.0
  0
LINE
  5
451
100
AcDbEntity
  8
LAYER0001
  6
CONTINUOUS
 62
       7
100
AcDbLine
 10
-101.01755346
 20
-102.91688211
 30
0.0
 11
-103.76755344
 21
-102.91688211
 31
0.0
  0
LINE
  5
452
100
AcDbEntity
  8
LAYER0001
  6
CONTINUOUS
 62
       7
100
AcDbLine
 10
-99.64255346
 20
-102.91688211
 30
0.0
 11
-101.01755346
 21
-102.91688211
 31
0.0
  0
LINE
  5
453
100
AcDbEntity
  8
LAYER0001
  6
CONTINUOUS
 62
       7
100
AcDbLine
 10
-103.76755344
 20
-102.91688211
 30
0.0
 11
-105.14255343
 21
-102.91688211
 31
0.0
  0
LINE
  5
454
100
AcDbEntity
  8
LAYER0001
  6
CONTINUOUS
 62
       7
100
AcDbLine
 10
-89.40217281
 20
-100.31688233
 30
0.0
 11
-92.90217245
 21
-100.31688233
 31
0.0
  0
LINE
  5
455
100
AcDbEntity
  8
LAYER0001
  6
CONTINUOUS
 62
       7
100
AcDbLine
 10
-85.90217224
 20
-100.31688233
 30
0.0
 11
-89.40217281
 21
-100.31688233
 31
0.0
  0
LINE
  5
456
100
AcDbEntity
  8
LAYER0001
  6
CONTINUOUS
 62
       7
100
AcDbLine
 10
-89.40217281
 20
-99.61688212
 30
0.0
 11
-92.90217245
 21
-99.61688212
 31
0.0
  0
LINE
  5
457
100
AcDbEntity
  8
LAYER0001
  6
CONTINUOUS
 62
       7
100
AcDbLine
 10
-85.90217224
 20
-99.61688212
 30
0.0
 11
-89.40217281
 21
-99.61688212
 31
0.0
  0
LINE
  5
458
100
AcDbEntity
  8
LAYER0001
  6
CONTINUOUS
 62
       7
100
AcDbLine
 10
-89.40217281
 20
-102.67126208
 30
0.0
 11
-89.40217281
 21
-100.31688233
 31
0.0
  0
LINE
  5
459
100
AcDbEntity
  8
LAYER0001
  6
CONTINUOUS
 62
       7
100
AcDbLine
 10
-86.65217189
 20
-102.67126208
 30
0.0
 11
-86.65217189
 21
-100.31688233
 31
0.0
  0
LINE
  5
45A
100
AcDbEntity
  8
LAYER0001
  6
CONTINUOUS
 62
       7
100
AcDbLine
 10
-86.65217189
 20
-102.67126208
 30
0.0
 11
-88.02717282
 21
-102.91688211
 31
0.0
  0
LINE
  5
45B
100
AcDbEntity
  8
LAYER0001
  6
CONTINUOUS
 62
       7
100
AcDbLine
 10
-92.1521728
 20
-102.67126208
 30
0.0
 11
-92.1521728
 21
-100.31688233
 31
0.0
  0
LINE
  5
45C
100
AcDbEntity
  8
LAYER0001
  6
CONTINUOUS
 62
       7
100
AcDbLine
 10
-89.40217281
 20
-102.67126208
 30
0.0
 11
-90.7771728
 21
-102.91688211
 31
0.0
  0
LINE
  5
45D
100
AcDbEntity
  8
LAYER0001
  6
CONTINUOUS
 62
       7
100
AcDbLine
 10
-88.02717282
 20
-102.91688211
 30
0.0
 11
-90.7771728
 21
-102.91688211
 31
0.0
  0
LINE
  5
45E
100
AcDbEntity
  8
LAYER0001
  6
CONTINUOUS
 62
       7
100
AcDbLine
 10
-86.65217189
 20
-102.91688211
 30
0.0
 11
-88.02717282
 21
-102.91688211
 31
0.0
  0
LINE
  5
45F
100
AcDbEntity
  8
LAYER0001
  6
CONTINUOUS
 62
       7
100
AcDbLine
 10
-90.7771728
 20
-102.91688211
 30
0.0
 11
-92.1521728
 21
-102.91688211
 31
0.0
  0
LINE
  5
460
100
AcDbEntity
  8
LAYER0001
  6
CONTINUOUS
 62
       7
100
AcDbLine
 10
-103.19202709
 20
-85.71688248
 30
0.0
 11
-101.59307976
 21
-85.71688248
 31
0.0
  0
LINE
  5
461
100
AcDbEntity
  8
LAYER0001
  6
CONTINUOUS
 62
       7
100
AcDbLine
 10
-101.59307978
 20
-92.01688232
 30
0.0
 11
-103.19202711
 21
-92.01688232
 31
0.0
  0
LINE
  5
462
100
AcDbEntity
  8
LAYER0001
  6
CONTINUOUS
 62
       7
100
AcDbLine
 10
-103.19202711
 20
-92.01688232
 30
0.0
 11
-104.14482779
 21
-92.01688232
 31
0.0
  0
LINE
  5
463
100
AcDbEntity
  8
LAYER0001
  6
CONTINUOUS
 62
       7
100
AcDbLine
 10
-100.6402791
 20
-92.01688232
 30
0.0
 11
-101.59307978
 21
-92.01688232
 31
0.0
  0
LINE
  5
464
100
AcDbEntity
  8
LAYER0001
  6
CONTINUOUS
 62
       7
100
AcDbLine
 10
-101.16365694
 20
-88.01688227
 30
0.0
 11
-100.34594322
 21
-88.01688227
 31
0.0
  0
LINE
  5
465
100
AcDbEntity
  8
LAYER0001
  6
CONTINUOUS
 62
       7
100
AcDbLine
 10
-104.43916366
 20
-88.01688227
 30
0.0
 11
-103.62144993
 21
-88.01688227
 31
0.0
  0
LINE
  5
466
100
AcDbEntity
  8
LAYER0001
  6
CONTINUOUS
 62
       7
100
AcDbLine
 10
-104.14482779
 20
-92.01688232
 30
0.0
 11
-106.89255345
 21
-92.01688232
 31
0.0
  0
LINE
  5
467
100
AcDbEntity
  8
LAYER0001
  6
CONTINUOUS
 62
       7
100
AcDbLine
 10
-97.89255345
 20
-92.01688232
 30
0.0
 11
-100.6402791
 21
-92.01688232
 31
0.0
  0
LINE
  5
468
100
AcDbEntity
  8
LAYER0001
  6
CONTINUOUS
 62
       7
100
AcDbLine
 10
-100.34594322
 20
-88.01688227
 30
0.0
 11
-99.26935318
 21
-88.01688227
 31
0.0
  0
LINE
  5
469
100
AcDbEntity
  8
LAYER0001
  6
CONTINUOUS
 62
       7
100
AcDbLine
 10
-105.5157537
 20
-88.01688227
 30
0.0
 11
-104.43916366
 21
-88.01688227
 31
0.0
  0
LINE
  5
46A
100
AcDbEntity
  8
LAYER0001
  6
CONTINUOUS
 62
       7
100
AcDbLine
 10
-90.90217213
 20
-103.91688227
 30
0.0
 11
-87.90217257
 21
-103.91688227
 31
0.0
  0
LINE
  5
46B
100
AcDbEntity
  8
LAYER0001
  6
CONTINUOUS
 62
       7
100
AcDbLine
 10
-116.88293433
 20
-103.91688227
 30
0.0
 11
-113.88293477
 21
-103.91688227
 31
0.0
  0
LINE
  5
46C
100
AcDbEntity
  8
LAYER0001
  6
CONTINUOUS
 62
       7
100
AcDbLine
 10
-103.89255346
 20
-103.91688227
 30
0.0
 11
-100.89255344
 21
-103.91688227
 31
0.0
  0
LINE
  5
46D
100
AcDbEntity
  8
LAYER0001
  6
CONTINUOUS
 62
       7
100
AcDbLine
 10
-122.392553
 20
-95.11688232
 30
0.0
 11
-82.3925539
 21
-95.11688232
 31
0.0
  0
LINE
  5
46E
100
AcDbEntity
  8
LAYER0001
  6
CONTINUOUS
 62
       7
100
AcDbLine
 10
-88.74215195
 20
-90.81688217
 30
0.0
 11
-88.74215195
 21
-95.11688232
 31
0.0
  0
LINE
  5
46F
100
AcDbEntity
  8
LAYER0001
  6
CONTINUOUS
 62
       7
100
AcDbLine
 10
-98.7974509
 20
-89.81688233
 30
0.0
 11
-89.64469372
 21
-89.81688217
 31
0.0
  0
LINE
  5
470
100
AcDbEntity
  8
LAYER0001
  6
CONTINUOUS
 62
       7
100
AcDbLine
 10
-99.26935298
 20
-87.61688234
 30
0.0
 11
-101.16365694
 21
-87.61688249
 31
0.0
  0
LINE
  5
471
100
AcDbEntity
  8
LAYER0001
  6
CONTINUOUS
 62
       7
100
AcDbLine
 10
-103.62144993
 20
-87.61688249
 30
0.0
 11
-105.51575366
 21
-87.61688233
 31
0.0
  0
LINE
  5
472
100
AcDbEntity
  8
LAYER0001
  6
CONTINUOUS
 62
       7
100
AcDbLine
 10
-115.14041298
 20
-89.81688232
 30
0.0
 11
-105.98765574
 21
-89.81688232
 31
0.0
  0
LINE
  5
473
100
AcDbEntity
  8
LAYER0001
  6
CONTINUOUS
 62
       7
100
AcDbLine
 10
-116.04295474
 20
-90.81688232
 30
0.0
 11
-116.04295494
 21
-95.11688232
 31
0.0
  0
LINE
  5
474
100
AcDbEntity
  8
LAYER0001
  6
CONTINUOUS
 62
       7
100
AcDbLine
 10
-98.7974509
 20
-89.81688233
 30
0.0
 11
-99.26935298
 21
-89.81688233
 31
0.0
  0
LINE
  5
475
100
AcDbEntity
  8
LAYER0001
  6
CONTINUOUS
 62
       7
100
AcDbLine
 10
-105.51575366
 20
-89.81688232
 30
0.0
 11
-105.98765574
 21
-89.81688232
 31
0.0
  0
LINE
  5
476
100
AcDbEntity
  8
LAYER0001
  6
CONTINUOUS
 62
       7
100
AcDbLine
 10
34.55456088
 20
-74.79531445
 30
0.0
 11
34.55456088
 21
-44.19531428
 31
0.0
  0
LINE
  5
477
100
AcDbEntity
  8
LAYER0001
  6
CONTINUOUS
 62
       7
100
AcDbLine
 10
-5.24543946
 20
-13.47565457
 30
0.0
 11
-5.24543857
 21
-90.1953147
 31
0.0
  0
LINE
  5
478
100
AcDbEntity
  8
LAYER0001
  6
CONTINUOUS
 62
       7
100
AcDbLine
 10
34.75456054
 20
-44.19531428
 30
0.0
 11
34.75456054
 21
-13.47565457
 31
0.0
  0
LINE
  5
479
100
AcDbEntity
  8
LAYER0001
  6
CONTINUOUS
 62
       7
100
AcDbLine
 10
34.75456054
 20
-95.49531468
 30
0.0
 11
34.75456054
 21
-74.79531445
 31
0.0
  0
LINE
  5
47A
100
AcDbEntity
  8
LAYER0001
  6
CONTINUOUS
 62
       7
100
AcDbLine
 10
5.75456137
 20
-95.49531468
 30
0.0
 11
5.75456137
 21
-104.29531463
 31
0.0
  0
LINE
  5
47B
100
AcDbEntity
  8
LAYER0001
  6
CONTINUOUS
 62
       7
100
AcDbLine
 10
8.75456093
 20
-104.29531463
 30
0.0
 11
8.75456093
 21
-95.49531468
 31
0.0
  0
LINE
  5
47C
100
AcDbEntity
  8
LAYER0001
  6
CONTINUOUS
 62
       7
100
AcDbLine
 10
28.25456134
 20
-95.49531468
 30
0.0
 11
28.25456134
 21
-104.29531463
 31
0.0
  0
LINE
  5
47D
100
AcDbEntity
  8
LAYER0001
  6
CONTINUOUS
 62
       7
100
AcDbLine
 10
31.2545609
 20
-104.29531463
 30
0.0
 11
31.2545609
 21
-95.49531468
 31
0.0
  0
LINE
  5
47E
100
AcDbEntity
  8
LAYER0001
  6
CONTINUOUS
 62
       7
100
AcDbLine
 10
-0.8656306
 20
-90.19531483
 30
0.0
 11
-0.8656306
 21
-95.49531468
 31
0.0
  0
LINE
  5
47F
100
AcDbEntity
  8
LAYER0001
  6
CONTINUOUS
 62
       7
100
AcDbLine
 10
-10.24543952
 20
64.70468636
 30
0.0
 11
-10.24543983
 21
34.00468699
 31
0.0
  0
LINE
  5
480
100
AcDbEntity
  8
LAYER0001
  6
CONTINUOUS
 62
       7
100
AcDbLine
 10
28.8888274
 20
-44.19531428
 30
0.0
 11
34.75456054
 21
-44.19531428
 31
0.0
  0
LINE
  5
481
100
AcDbEntity
  8
LAYER0001
  6
CONTINUOUS
 62
       7
100
AcDbLine
 10
27.8112639
 20
-73.79531429
 30
0.0
 11
27.8112639
 21
-45.19531631
 31
0.0
  0
LINE
  5
482
100
AcDbEntity
  8
LAYER0001
  6
CONTINUOUS
 62
       7
100
AcDbLine
 10
28.8888274
 20
-74.79531445
 30
0.0
 11
34.75456054
 21
-74.79531445
 31
0.0
  0
LINE
  5
483
100
AcDbEntity
  8
LAYER0001
  6
CONTINUOUS
 62
       7
100
AcDbLine
 10
-0.8656306
 20
-92.39531459
 30
0.0
 11
-4.1902594
 21
-92.39531459
 31
0.0
  0
LINE
  5
484
100
AcDbEntity
  8
LAYER0001
  6
CONTINUOUS
 62
       7
100
AcDbLine
 10
-4.1902594
 20
-92.39531459
 30
0.0
 11
-7.22918732
 21
-92.39531459
 31
0.0
  0
LINE
  5
485
100
AcDbEntity
  8
LAYER0001
  6
CONTINUOUS
 62
       7
100
AcDbLine
 10
-7.22918732
 20
-86.09531481
 30
0.0
 11
-5.24543857
 21
-86.0953146
 31
0.0
  0
LINE
  5
486
100
AcDbEntity
  8
LAYER0001
  6
CONTINUOUS
 62
       7
100
AcDbLine
 10
-8.22918748
 20
-91.39531466
 30
0.0
 11
-8.22918748
 21
-87.09531498
 31
0.0
  0
LINE
  5
487
100
AcDbEntity
  8
LAYER0001
  6
CONTINUOUS
 62
       7
100
AcDbLine
 10
7.25456115
 20
-104.29531463
 30
0.0
 11
8.75456093
 21
-104.29531463
 31
0.0
  0
LINE
  5
488
100
AcDbEntity
  8
LAYER0001
  6
CONTINUOUS
 62
       7
100
AcDbLine
 10
5.75456137
 20
-104.29531463
 30
0.0
 11
7.25456115
 21
-104.29531463
 31
0.0
  0
LINE
  5
489
100
AcDbEntity
  8
LAYER0001
  6
CONTINUOUS
 62
       7
100
AcDbLine
 10
28.25456134
 20
-104.29531463
 30
0.0
 11
31.2545609
 21
-104.29531463
 31
0.0
  0
LINE
  5
48A
100
AcDbEntity
  8
LAYER0001
  6
CONTINUOUS
 62
       7
100
AcDbLine
 10
0.13722407
 20
-95.49531468
 30
0.0
 11
34.75456054
 21
-95.49531468
 31
0.0
  0
LINE
  5
48B
100
AcDbEntity
  8
LAYER0001
  6
CONTINUOUS
 62
       7
100
AcDbLine
 10
0.13722407
 20
-91.19531453
 30
0.0
 11
0.13722407
 21
-95.49531468
 31
0.0
  0
LINE
  5
48C
100
AcDbEntity
  8
LAYER0001
  6
CONTINUOUS
 62
       7
100
AcDbLine
 10
-5.24543857
 20
-90.1953147
 30
0.0
 11
-0.65621677
 21
-90.19531453
 31
0.0
  0
LINE
  5
48D
100
AcDbEntity
  8
LAYER0001
  6
CONTINUOUS
 62
       7
100
AcDbLine
 10
-0.67786386
 20
-95.49531468
 30
0.0
 11
0.13722407
 21
-95.49531468
 31
0.0
  0
LINE
  5
48E
100
AcDbEntity
  8
LAYER0001
  6
CONTINUOUS
 62
       7
100
AcDbLine
 10
-0.8656306
 20
-95.49531468
 30
0.0
 11
-0.67786386
 21
-95.49531468
 31
0.0
  0
LINE
  5
48F
100
AcDbEntity
  8
LAYER0001
  6
CONTINUOUS
 62
       7
100
AcDbLine
 10
-4.91966731
 20
-90.19531469
 30
0.0
 11
-4.92618284
 21
-90.19531469
 31
0.0
  0
LINE
  5
490
100
AcDbEntity
  8
LAYER0001
  6
CONTINUOUS
 62
       7
100
AcDbLine
 10
-103.79255322
 20
-151.05432995
 30
0.0
 11
-100.99255327
 21
-151.05432995
 31
0.0
  0
LINE
  5
491
100
AcDbEntity
  8
LAYER0001
  6
CONTINUOUS
 62
       7
100
AcDbLine
 10
-106.39255368
 20
-153.85433011
 30
0.0
 11
-98.3925533
 21
-153.85433011
 31
0.0
  0
LINE
  5
492
100
AcDbEntity
  8
LAYER0001
  6
CONTINUOUS
 62
       7
100
AcDbLine
 10
-108.3925535
 20
-160.0002283
 30
0.0
 11
-108.3925535
 21
-155.85433012
 31
0.0
  0
LINE
  5
493
100
AcDbEntity
  8
LAYER0001
  6
CONTINUOUS
 62
       7
100
AcDbLine
 10
-98.36749055
 20
-164.35432995
 30
0.0
 11
-106.41761638
 21
-164.35433017
 31
0.0
  0
LINE
  5
494
100
AcDbEntity
  8
LAYER0001
  6
CONTINUOUS
 62
       7
100
AcDbLine
 10
-96.39255345
 20
-155.85433016
 30
0.0
 11
-96.39255345
 21
-160.00022818
 31
0.0
  0
LINE
  5
495
100
AcDbEntity
  8
LAYER0001
  6
CONTINUOUS
 62
       7
100
AcDbLine
 10
-103.56283168
 20
-131.72463181
 30
0.0
 11
-103.56283168
 21
-134.69321508
 31
0.0
  0
LINE
  5
496
100
AcDbEntity
  8
LAYER0001
  6
CONTINUOUS
 62
       7
100
AcDbLine
 10
-101.22227866
 20
-131.72463181
 30
0.0
 11
-101.22227866
 21
-134.69321506
 31
0.0
  0
LINE
  5
497
100
AcDbEntity
  8
LAYER0001
  6
CONTINUOUS
 62
       7
100
AcDbLine
 10
-103.26774047
 20
-131.37058392
 30
0.0
 11
-101.51736987
 21
-131.37058392
 31
0.0
  0
LINE
  5
498
100
AcDbEntity
  8
LAYER0001
  6
CONTINUOUS
 62
       7
100
AcDbLine
 10
-93.02323705
 20
-142.35433003
 30
0.0
 11
-90.39255343
 21
-142.35433015
 31
0.0
  0
LINE
  5
499
100
AcDbEntity
  8
LAYER0001
  6
CONTINUOUS
 62
       7
100
AcDbLine
 10
-114.39255343
 20
-142.35433015
 30
0.0
 11
-111.76186931
 21
-142.35433003
 31
0.0
  0
LINE
  5
49A
100
AcDbEntity
  8
LAYER0001
  6
CONTINUOUS
 62
       7
100
AcDbLine
 10
-10.24544405
 20
130.00468783
 30
0.0
 11
39.75456011
 21
130.00468783
 31
0.0
  0
LINE
  5
49B
100
AcDbEntity
  8
LAYER0001
  6
CONTINUOUS
 62
       7
100
AcDbLine
 10
-10.24543952
 20
32.70468112
 30
0.0
 11
-10.24543983
 21
2.00468175
 31
0.0
  0
LINE
  5
49C
100
AcDbEntity
  8
LAYER0001
  6
CONTINUOUS
 62
       7
100
AcDbLine
 10
39.75456091
 20
98.00468258
 30
0.0
 11
39.7545606
 21
128.70468195
 31
0.0
  0
LINE
  5
49D
100
AcDbEntity
  8
LAYER0001
  6
CONTINUOUS
 62
       7
100
AcDbLine
 10
-10.24543952
 20
128.70468195
 30
0.0
 11
39.7545606
 21
128.70468195
 31
0.0
  0
LINE
  5
49E
100
AcDbEntity
  8
LAYER0001
  6
CONTINUOUS
 62
       7
100
AcDbLine
 10
14.75456006
 20
162.00467972
 30
0.0
 11
-10.24544031
 21
162.00468126
 31
0.0
  0
LINE
  5
49F
100
AcDbEntity
  8
LAYER0001
  6
CONTINUOUS
 62
       7
100
AcDbLine
 10
-10.24543952
 20
64.70468636
 30
0.0
 11
39.7545606
 21
64.70468636
 31
0.0
  0
LINE
  5
4A0
100
AcDbEntity
  8
LAYER0001
  6
CONTINUOUS
 62
       7
100
AcDbLine
 10
39.75456091
 20
34.00468699
 30
0.0
 11
39.7545606
 21
64.70468636
 31
0.0
  0
LINE
  5
4A1
100
AcDbEntity
  8
LAYER0001
  6
CONTINUOUS
 62
       7
100
AcDbLine
 10
-10.24543983
 20
2.00468175
 30
0.0
 11
39.75456091
 21
2.00468175
 31
0.0
  0
LINE
  5
4A2
100
AcDbEntity
  8
LAYER0001
  6
CONTINUOUS
 62
       7
100
AcDbLine
 10
-10.24543943
 20
169.55909714
 30
0.0
 11
-10.24544031
 21
162.00468126
 31
0.0
  0
LINE
  5
4A3
100
AcDbEntity
  8
LAYER0001
  6
CONTINUOUS
 62
       7
100
AcDbLine
 10
39.75456091
 20
66.00469224
 30
0.0
 11
39.7545606
 21
96.70469161
 31
0.0
  0
LINE
  5
4A4
100
AcDbEntity
  8
LAYER0001
  6
CONTINUOUS
 62
       7
100
AcDbLine
 10
22.78202953
 20
172.28973044
 30
0.0
 11
14.75456054
 21
172.28972785
 31
0.0
  0
LINE
  5
4A5
100
AcDbEntity
  8
LAYER0001
  6
CONTINUOUS
 62
       7
100
AcDbLine
 10
39.75456054
 20
-1.643495
 30
0.0
 11
39.75456091
 21
0.70468209
 31
0.0
  0
LINE
  5
4A6
100
AcDbEntity
  8
LAYER0001
  6
CONTINUOUS
 62
       7
100
AcDbLine
 10
-10.24544046
 20
160.7046723
 30
0.0
 11
39.75456042
 21
160.70466464
 31
0.0
  0
LINE
  5
4A7
100
AcDbEntity
  8
LAYER0001
  6
CONTINUOUS
 62
       7
100
AcDbLine
 10
-10.24543983
 20
66.00469224
 30
0.0
 11
39.75456091
 21
66.00469224
 31
0.0
  0
LINE
  5
4A8
100
AcDbEntity
  8
LAYER0001
  6
CONTINUOUS
 62
       7
100
AcDbLine
 10
-10.24543952
 20
128.70468195
 30
0.0
 11
-10.24543983
 21
98.00468258
 31
0.0
  0
LINE
  5
4A9
100
AcDbEntity
  8
LAYER0001
  6
CONTINUOUS
 62
       7
100
AcDbLine
 10
39.75456091
 20
0.70468209
 30
0.0
 11
-10.24543983
 21
0.70468209
 31
0.0
  0
LINE
  5
4AA
100
AcDbEntity
  8
LAYER0001
  6
CONTINUOUS
 62
       7
100
AcDbLine
 10
-10.24544046
 20
160.7046723
 30
0.0
 11
-10.24544405
 21
130.00468783
 31
0.0
  0
LINE
  5
4AB
100
AcDbEntity
  8
LAYER0001
  6
CONTINUOUS
 62
       7
100
AcDbLine
 10
39.75456051
 20
162.00467818
 30
0.0
 11
14.75456006
 21
162.00467972
 31
0.0
  0
LINE
  5
4AC
100
AcDbEntity
  8
LAYER0001
  6
CONTINUOUS
 62
       7
100
AcDbLine
 10
39.75456091
 20
2.00468175
 30
0.0
 11
39.7545606
 21
32.70468112
 31
0.0
  0
LINE
  5
4AD
100
AcDbEntity
  8
LAYER0001
  6
CONTINUOUS
 62
       7
100
AcDbLine
 10
-10.24543952
 20
32.70468112
 30
0.0
 11
39.7545606
 21
32.70468112
 31
0.0
  0
LINE
  5
4AE
100
AcDbEntity
  8
LAYER0001
  6
CONTINUOUS
 62
       7
100
AcDbLine
 10
-10.24543983
 20
98.00468258
 30
0.0
 11
39.75456091
 21
98.00468258
 31
0.0
  0
LINE
  5
4AF
100
AcDbEntity
  8
LAYER0001
  6
CONTINUOUS
 62
       7
100
AcDbLine
 10
-10.24543952
 20
96.70469161
 30
0.0
 11
-10.24543983
 21
66.00469224
 31
0.0
  0
LINE
  5
4B0
100
AcDbEntity
  8
LAYER0001
  6
CONTINUOUS
 62
       7
100
AcDbLine
 10
-10.24543983
 20
34.00468699
 30
0.0
 11
39.75456091
 21
34.00468699
 31
0.0
  0
LINE
  5
4B1
100
AcDbEntity
  8
LAYER0001
  6
CONTINUOUS
 62
       7
100
AcDbLine
 10
-10.24543983
 20
0.70468209
 30
0.0
 11
-10.24543946
 21
-1.643495
 31
0.0
  0
LINE
  5
4B2
100
AcDbEntity
  8
LAYER0001
  6
CONTINUOUS
 62
       7
100
AcDbLine
 10
39.75456011
 20
130.00468783
 30
0.0
 11
39.75456042
 21
160.70466464
 31
0.0
  0
LINE
  5
4B3
100
AcDbEntity
  8
LAYER0001
  6
CONTINUOUS
 62
       7
100
AcDbLine
 10
-10.24543952
 20
96.70469161
 30
0.0
 11
39.7545606
 21
96.70469161
 31
0.0
  0
LINE
  5
4B4
100
AcDbEntity
  8
LAYER0001
  6
CONTINUOUS
 62
       7
100
AcDbLine
 10
-127.39255427
 20
2.38311411
 30
0.0
 11
-77.39255352
 21
2.38311411
 31
0.0
  0
LINE
  5
4B5
100
AcDbEntity
  8
LAYER0001
  6
CONTINUOUS
 62
       7
100
AcDbLine
 10
-94.3650849
 20
172.6681628
 30
0.0
 11
-102.3925539
 21
172.66816021
 31
0.0
  0
LINE
  5
4B6
100
AcDbEntity
  8
LAYER0001
  6
CONTINUOUS
 62
       7
100
AcDbLine
 10
39.75456051
 20
162.00467818
 30
0.0
 11
39.75456051
 21
169.55909702
 31
0.0
  0
LINE
  5
4B7
100
AcDbEntity
  8
LAYER0001
  6
CONTINUOUS
 62
       7
100
AcDbLine
 10
14.75456054
 20
172.28972785
 30
0.0
 11
6.72709155
 21
172.28973044
 31
0.0
  0
ARC
  5
4B8
100
AcDbEntity
  8
LAYER0001
  6
CONTINUOUS
 62
       7
100
AcDbCircle
 10
-79.1425539
 20
129.73311852
 30
0.0
 40
0.75
100
AcDbArc
 50
299.92643487
 51
420.07356513
  0
ARC
  5
4B9
100
AcDbEntity
  8
LAYER0001
  6
CONTINUOUS
 62
       7
100
AcDbCircle
 10
-79.1425539
 20
161.73312376
 30
0.0
 40
0.75
100
AcDbArc
 50
299.92643487
 51
420.07356513
  0
ARC
  5
4BA
100
AcDbEntity
  8
LAYER0001
  6
CONTINUOUS
 62
       7
100
AcDbCircle
 10
-102.3925539
 20
22.88311768
 30
0.0
 40
150.0
100
AcDbArc
 50
87.4731145
 51
92.5268855
  0
ARC
  5
4BB
100
AcDbEntity
  8
LAYER0001
  6
CONTINUOUS
 62
       7
100
AcDbCircle
 10
-125.6425539
 20
65.73312293
 30
0.0
 40
0.75
100
AcDbArc
 50
119.92643487
 51
240.07356513
  0
ARC
  5
4BC
100
AcDbEntity
  8
LAYER0001
  6
CONTINUOUS
 62
       7
100
AcDbCircle
 10
-78.8925539
 20
-1.26506264
 30
0.0
 40
1.5
100
AcDbArc
 50
314.18438515
 51
360.0
  0
ARC
  5
4BD
100
AcDbEntity
  8
LAYER0001
  6
CONTINUOUS
 62
       7
100
AcDbCircle
 10
-79.1425539
 20
1.73311768
 30
0.0
 40
0.75
100
AcDbArc
 50
299.92643487
 51
420.07356513
  0
ARC
  5
4BE
100
AcDbEntity
  8
LAYER0001
  6
CONTINUOUS
 62
       7
100
AcDbCircle
 10
-79.1425539
 20
97.73312817
 30
0.0
 40
0.75
100
AcDbArc
 50
299.92643487
 51
420.07356513
  0
ARC
  5
4BF
100
AcDbEntity
  8
LAYER0001
  6
CONTINUOUS
 62
       7
100
AcDbCircle
 10
-95.7925539
 20
172.43755593
 30
0.0
 40
0.3
100
AcDbArc
 50
50.2363587
 51
87.47311452
  0
ARC
  5
4C0
100
AcDbEntity
  8
LAYER0001
  6
CONTINUOUS
 62
       7
100
AcDbCircle
 10
-102.3925539
 20
22.88311768
 30
0.0
 40
150.0
100
AcDbArc
 50
80.73076963
 51
86.93226718
  0
ARC
  5
4C1
100
AcDbEntity
  8
LAYER0001
  6
CONTINUOUS
 62
       7
100
AcDbCircle
 10
-125.6425539
 20
33.73311768
 30
0.0
 40
0.75
100
AcDbArc
 50
119.92643487
 51
240.07356513
  0
ARC
  5
4C2
100
AcDbEntity
  8
LAYER0001
  6
CONTINUOUS
 62
       7
100
AcDbCircle
 10
-125.6425539
 20
161.73312376
 30
0.0
 40
0.75
100
AcDbArc
 50
119.92643487
 51
240.07356513
  0
ARC
  5
4C3
100
AcDbEntity
  8
LAYER0001
  6
CONTINUOUS
 62
       7
100
AcDbCircle
 10
-79.1425539
 20
65.73312293
 30
0.0
 40
0.75
100
AcDbArc
 50
299.92643487
 51
420.07356513
  0
ARC
  5
4C4
100
AcDbEntity
  8
LAYER0001
  6
CONTINUOUS
 62
       7
100
AcDbCircle
 10
-67.3925539
 20
-13.09722221
 30
0.0
 40
15.0
100
AcDbArc
 50
134.18438515
 51
180.0
  0
ARC
  5
4C5
100
AcDbEntity
  8
LAYER0001
  6
CONTINUOUS
 62
       7
100
AcDbCircle
 10
-78.39255393
 20
169.93752939
 30
0.0
 40
1.0
100
AcDbArc
 50
359.99999942
 51
440.73076963
  0
ARC
  5
4C6
100
AcDbEntity
  8
LAYER0001
  6
CONTINUOUS
 62
       7
100
AcDbCircle
 10
-125.6425539
 20
1.73311768
 30
0.0
 40
0.75
100
AcDbArc
 50
119.92643487
 51
240.07356513
  0
ARC
  5
4C7
100
AcDbEntity
  8
LAYER0001
  6
CONTINUOUS
 62
       7
100
AcDbCircle
 10
-97.89255345
 20
-91.51688232
 30
0.0
 40
0.5
100
AcDbArc
 50
270.0
 51
360.0
  0
ARC
  5
4C8
100
AcDbEntity
  8
LAYER0001
  6
CONTINUOUS
 62
       7
100
AcDbCircle
 10
-106.89255345
 20
-91.51688232
 30
0.0
 40
0.5
100
AcDbArc
 50
180.0
 51
270.0
  0
ARC
  5
4C9
100
AcDbEntity
  8
LAYER0001
  6
CONTINUOUS
 62
       7
100
AcDbCircle
 10
-125.6425539
 20
129.73311852
 30
0.0
 40
0.75
100
AcDbArc
 50
119.92643487
 51
240.07356513
  0
ARC
  5
4CA
100
AcDbEntity
  8
LAYER0001
  6
CONTINUOUS
 62
       7
100
AcDbCircle
 10
-108.9925539
 20
172.43755593
 30
0.0
 40
0.3
100
AcDbArc
 50
92.52688548
 51
129.7636413
  0
ARC
  5
4CB
100
AcDbEntity
  8
LAYER0001
  6
CONTINUOUS
 62
       7
100
AcDbCircle
 10
-102.3925539
 20
22.88311768
 30
0.0
 40
150.0
100
AcDbArc
 50
93.06773282
 51
99.26923037
  0
ARC
  5
4CC
100
AcDbEntity
  8
LAYER0001
  6
CONTINUOUS
 62
       7
100
AcDbCircle
 10
-125.8925539
 20
-1.26506264
 30
0.0
 40
1.5
100
AcDbArc
 50
180.0
 51
225.81561485
  0
ARC
  5
4CD
100
AcDbEntity
  8
LAYER0001
  6
CONTINUOUS
 62
       7
100
AcDbCircle
 10
-106.39255349
 20
-155.85433012
 30
0.0
 40
2.00000001
100
AcDbArc
 50
90.00000544
 51
180.0
  0
ARC
  5
4CE
100
AcDbEntity
  8
LAYER0001
  6
CONTINUOUS
 62
       7
100
AcDbCircle
 10
-111.39255349
 20
-163.35433018
 30
0.0
 40
4.49999993
100
AcDbArc
 50
354.26082952
 51
408.18968444
  0
ARC
  5
4CF
100
AcDbEntity
  8
LAYER0001
  6
CONTINUOUS
 62
       7
100
AcDbCircle
 10
-106.41761638
 20
-163.85433017
 30
0.0
 40
0.5
100
AcDbArc
 50
174.26082953
 51
270.0
  0
ARC
  5
4D0
100
AcDbEntity
  8
LAYER0001
  6
CONTINUOUS
 62
       7
100
AcDbCircle
 10
-98.36749075
 20
-163.85433006
 30
0.0
 40
0.49999989
100
AcDbArc
 50
270.00002261
 51
365.73917048
  0
ARC
  5
4D1
100
AcDbEntity
  8
LAYER0001
  6
CONTINUOUS
 62
       7
100
AcDbCircle
 10
-93.39255365
 20
-163.35433033
 30
0.0
 40
4.5
100
AcDbArc
 50
131.81031154
 51
185.73916717
  0
ARC
  5
4D2
100
AcDbEntity
  8
LAYER0001
  6
CONTINUOUS
 62
       7
100
AcDbCircle
 10
-98.39255349
 20
-155.85433015
 30
0.0
 40
2.00000004
100
AcDbArc
 50
359.99999962
 51
449.99999456
  0
ARC
  5
4D3
100
AcDbEntity
  8
LAYER0001
  6
CONTINUOUS
 62
       7
100
AcDbCircle
 10
-103.79255322
 20
-143.05433001
 30
0.0
 40
7.99999993
100
AcDbArc
 50
174.98019998
 51
270.0
  0
ARC
  5
4D4
100
AcDbEntity
  8
LAYER0001
  6
CONTINUOUS
 62
       7
100
AcDbCircle
 10
-100.99255322
 20
-143.05432994
 30
0.0
 40
8.00000001
100
AcDbArc
 50
269.99999964
 51
365.01979942
  0
ARC
  5
4D5
100
AcDbEntity
  8
LAYER0001
  6
CONTINUOUS
 62
       7
100
AcDbCircle
 10
-102.39255514
 20
-139.55433149
 30
0.0
 40
5.0
100
AcDbArc
 50
103.53594299
 51
436.46405774
  0
ARC
  5
4D6
100
AcDbEntity
  8
LAYER0001
  6
CONTINUOUS
 62
       7
100
AcDbCircle
 10
-101.51736988
 20
-131.67058392
 30
0.0
 40
0.3
100
AcDbArc
 50
349.62094182
 51
449.99999794
  0
ARC
  5
4D7
100
AcDbEntity
  8
LAYER0001
  6
CONTINUOUS
 62
       7
100
AcDbCircle
 10
-103.26774046
 20
-131.67058392
 30
0.0
 40
0.3
100
AcDbArc
 50
90.00000206
 51
190.37905817
  0
CIRCLE
  5
4D8
100
AcDbEntity
  8
LAYER0001
  6
CONTINUOUS
 62
       7
100
AcDbCircle
 10
-89.40217239
 20
-146.85433012
 30
0.0
 40
1.5
  0
CIRCLE
  5
4D9
100
AcDbEntity
  8
LAYER0001
  6
CONTINUOUS
 62
       7
100
AcDbCircle
 10
-115.38293451
 20
-146.85433012
 30
0.0
 40
1.5
  0
CIRCLE
  5
4DA
100
AcDbEntity
  8
LAYER0001
  6
CONTINUOUS
 62
       7
100
AcDbCircle
 10
-102.39255345
 20
-169.35433012
 30
0.0
 40
1.5
  0
ARC
  5
4DB
100
AcDbEntity
  8
LAYER0001
  6
CONTINUOUS
 62
       7
100
AcDbCircle
 10
-114.39255343
 20
-145.35433015
 30
0.0
 40
3.0
100
AcDbArc
 50
90.0
 51
143.13010235
  0
ARC
  5
4DC
100
AcDbEntity
  8
LAYER0001
  6
CONTINUOUS
 62
       7
100
AcDbCircle
 10
-102.39255343
 20
-154.35433015
 30
0.0
 40
18.0
100
AcDbArc
 50
143.13010235
 51
396.86989765
  0
ARC
  5
4DD
100
AcDbEntity
  8
LAYER0001
  6
CONTINUOUS
 62
       7
100
AcDbCircle
 10
-90.39255343
 20
-145.35433015
 30
0.0
 40
3.0
100
AcDbArc
 50
36.86989765
 51
90.0
  0
ARC
  5
4DE
100
AcDbEntity
  8
LAYER0001
  6
CONTINUOUS
 62
       7
100
AcDbCircle
 10
-102.39255343
 20
-154.35433015
 30
0.0
 40
20.00000002
100
AcDbArc
 50
93.35451634
 51
446.64549367
  0
ARC
  5
4DF
100
AcDbEntity
  8
LAYER0001
  6
CONTINUOUS
 62
       7
100
AcDbCircle
 10
-8.49543946
 20
129.35468616
 30
0.0
 40
0.75
100
AcDbArc
 50
119.92643487
 51
240.07356513
  0
ARC
  5
4E0
100
AcDbEntity
  8
LAYER0001
  6
CONTINUOUS
 62
       7
100
AcDbCircle
 10
-8.49543946
 20
161.3546914
 30
0.0
 40
0.75
100
AcDbArc
 50
119.92643487
 51
240.07356513
  0
ARC
  5
4E1
100
AcDbEntity
  8
LAYER0001
  6
CONTINUOUS
 62
       7
100
AcDbCircle
 10
8.15456054
 20
172.05912357
 30
0.0
 40
0.3
100
AcDbArc
 50
92.5268855
 51
129.7636413
  0
ARC
  5
4E2
100
AcDbEntity
  8
LAYER0001
  6
CONTINUOUS
 62
       7
100
AcDbCircle
 10
14.75456054
 20
22.50468532
 30
0.0
 40
150.0
100
AcDbArc
 50
93.06773282
 51
99.26923037
  0
ARC
  5
4E3
100
AcDbEntity
  8
LAYER0001
  6
CONTINUOUS
 62
       7
100
AcDbCircle
 10
-8.74543946
 20
-1.643495
 30
0.0
 40
1.5
100
AcDbArc
 50
180.0
 51
225.81561485
  0
ARC
  5
4E4
100
AcDbEntity
  8
LAYER0001
  6
CONTINUOUS
 62
       7
100
AcDbCircle
 10
38.00456054
 20
161.3546914
 30
0.0
 40
0.75
100
AcDbArc
 50
299.92643487
 51
420.07356513
  0
ARC
  5
4E5
100
AcDbEntity
  8
LAYER0001
  6
CONTINUOUS
 62
       7
100
AcDbCircle
 10
-8.49543946
 20
97.35469581
 30
0.0
 40
0.75
100
AcDbArc
 50
119.92643487
 51
240.07356513
  0
ARC
  5
4E6
100
AcDbEntity
  8
LAYER0001
  6
CONTINUOUS
 62
       7
100
AcDbCircle
 10
-20.24543946
 20
-13.47565457
 30
0.0
 40
15.0
100
AcDbArc
 50
0.0
 51
45.81561485
  0
ARC
  5
4E7
100
AcDbEntity
  8
LAYER0001
  6
CONTINUOUS
 62
       7
100
AcDbCircle
 10
-9.24543943
 20
169.55909703
 30
0.0
 40
1.0
100
AcDbArc
 50
99.26923036
 51
179.99999331
  0
ARC
  5
4E8
100
AcDbEntity
  8
LAYER0001
  6
CONTINUOUS
 62
       7
100
AcDbCircle
 10
38.00456054
 20
33.35468532
 30
0.0
 40
0.75
100
AcDbArc
 50
299.92643487
 51
420.07356513
  0
ARC
  5
4E9
100
AcDbEntity
  8
LAYER0001
  6
CONTINUOUS
 62
       7
100
AcDbCircle
 10
38.00456054
 20
129.35468616
 30
0.0
 40
0.75
100
AcDbArc
 50
299.92643487
 51
420.07356513
  0
ARC
  5
4EA
100
AcDbEntity
  8
LAYER0001
  6
CONTINUOUS
 62
       7
100
AcDbCircle
 10
-8.49543946
 20
65.35469057
 30
0.0
 40
0.75
100
AcDbArc
 50
119.92643487
 51
240.07356513
  0
ARC
  5
4EB
100
AcDbEntity
  8
LAYER0001
  6
CONTINUOUS
 62
       7
100
AcDbCircle
 10
38.25456054
 20
-1.643495
 30
0.0
 40
1.5
100
AcDbArc
 50
314.18438515
 51
360.0
  0
ARC
  5
4EC
100
AcDbEntity
  8
LAYER0001
  6
CONTINUOUS
 62
       7
100
AcDbCircle
 10
38.00456054
 20
1.35468532
 30
0.0
 40
0.75
100
AcDbArc
 50
299.92643487
 51
420.07356513
  0
ARC
  5
4ED
100
AcDbEntity
  8
LAYER0001
  6
CONTINUOUS
 62
       7
100
AcDbCircle
 10
38.00456054
 20
97.35469581
 30
0.0
 40
0.75
100
AcDbArc
 50
299.92643487
 51
420.07356513
  0
ARC
  5
4EE
100
AcDbEntity
  8
LAYER0001
  6
CONTINUOUS
 62
       7
100
AcDbCircle
 10
21.35456054
 20
172.05912357
 30
0.0
 40
0.3
100
AcDbArc
 50
50.2363587
 51
87.4731145
  0
ARC
  5
4EF
100
AcDbEntity
  8
LAYER0001
  6
CONTINUOUS
 62
       7
100
AcDbCircle
 10
14.75456054
 20
22.50468532
 30
0.0
 40
150.0
100
AcDbArc
 50
80.73076963
 51
86.93226718
  0
ARC
  5
4F0
100
AcDbEntity
  8
LAYER0001
  6
CONTINUOUS
 62
       7
100
AcDbCircle
 10
-8.49543946
 20
33.35468532
 30
0.0
 40
0.75
100
AcDbArc
 50
119.92643487
 51
240.07356513
  0
ARC
  5
4F1
100
AcDbEntity
  8
LAYER0001
  6
CONTINUOUS
 62
       7
100
AcDbCircle
 10
14.75456054
 20
22.50468532
 30
0.0
 40
150.0
100
AcDbArc
 50
87.4731145
 51
92.5268855
  0
ARC
  5
4F2
100
AcDbEntity
  8
LAYER0001
  6
CONTINUOUS
 62
       7
100
AcDbCircle
 10
-125.6425539
 20
97.73312817
 30
0.0
 40
0.75
100
AcDbArc
 50
119.92643487
 51
240.07356513
  0
ARC
  5
4F3
100
AcDbEntity
  8
LAYER0001
  6
CONTINUOUS
 62
       7
100
AcDbCircle
 10
-137.3925539
 20
-13.09722221
 30
0.0
 40
15.0
100
AcDbArc
 50
0.0
 51
45.81561485
  0
ARC
  5
4F4
100
AcDbEntity
  8
LAYER0001
  6
CONTINUOUS
 62
       7
100
AcDbCircle
 10
-126.39255387
 20
169.93752939
 30
0.0
 40
1.0
100
AcDbArc
 50
99.26923036
 51
179.99999331
  0
ARC
  5
4F5
100
AcDbEntity
  8
LAYER0001
  6
CONTINUOUS
 62
       7
100
AcDbCircle
 10
-79.1425539
 20
33.73311768
 30
0.0
 40
0.75
100
AcDbArc
 50
299.92643487
 51
420.07356513
  0
ARC
  5
4F6
100
AcDbEntity
  8
LAYER0001
  6
CONTINUOUS
 62
       7
100
AcDbCircle
 10
38.00456054
 20
65.35469057
 30
0.0
 40
0.75
100
AcDbArc
 50
299.92643487
 51
420.07356513
  0
ARC
  5
4F7
100
AcDbEntity
  8
LAYER0001
  6
CONTINUOUS
 62
       7
100
AcDbCircle
 10
49.75456054
 20
-13.47565457
 30
0.0
 40
15.0
100
AcDbArc
 50
134.18438515
 51
180.0
  0
ARC
  5
4F8
100
AcDbEntity
  8
LAYER0001
  6
CONTINUOUS
 62
       7
100
AcDbCircle
 10
38.75456051
 20
169.55909703
 30
0.0
 40
1.0
100
AcDbArc
 50
359.99999942
 51
440.73076963
  0
ARC
  5
4F9
100
AcDbEntity
  8
LAYER0001
  6
CONTINUOUS
 62
       7
100
AcDbCircle
 10
-8.49543946
 20
1.35468532
 30
0.0
 40
0.75
100
AcDbArc
 50
119.92643487
 51
240.07356513
  0
CIRCLE
  5
4FA
100
AcDbEntity
  8
LAYER0001
  6
CONTINUOUS
 62
       7
100
AcDbCircle
 10
-102.39255343
 20
-154.35433015
 30
0.0
 40
25.0
  0
LINE
  5
4FB
100
AcDbEntity
  8
LAYER0001
  6
CENTER
 62
       7
100
AcDbLine
 10
-125.87675559
 20
-154.35433015
 30
0.0
 11
-77.94837022
 21
-154.35433015
 31
0.0
  0
LINE
  5
4FC
100
AcDbEntity
  8
LAYER0001
  6
CENTER
 62
       7
100
AcDbLine
 10
-102.39255343
 20
-177.48962434
 30
0.0
 11
-102.39255343
 21
-126.13133568
 31
0.0
  0
LINE
  5
4FD
100
AcDbEntity
  8
LAYER0001
  6
CENTER
 62
       7
100
AcDbLine
 10
-102.39255345
 20
-112.81688232
 30
0.0
 11
-102.39255345
 21
178.97589779
 31
0.0
  0
LINE
  5
4FE
100
AcDbEntity
  8
LAYER0001
  6
CENTER
 62
       7
100
AcDbLine
 10
-89.40217239
 20
-112.81688232
 30
0.0
 11
-89.40217239
 21
-93.21646553
 31
0.0
  0
LINE
  5
4FF
100
AcDbEntity
  8
LAYER0001
  6
CENTER
 62
       7
100
AcDbLine
 10
-115.38293451
 20
-112.81688232
 30
0.0
 11
-115.38293451
 21
-92.74643333
 31
0.0
  0
LINE
  5
500
100
AcDbEntity
  8
LAYER0001
  6
CENTER
 62
       7
100
AcDbLine
 10
14.75456099
 20
-100.59537215
 30
0.0
 11
14.75456099
 21
179.35433015
 31
0.0
  0
LINE
  5
501
100
AcDbEntity
  8
LAYER0001
  6
CENTER
 62
       7
100
AcDbLine
 10
29.75456099
 20
-113.19531468
 30
0.0
 11
29.75456099
 21
-92.6548335
 31
0.0
  0
LINE
  5
502
100
AcDbEntity
  8
LAYER0001
  6
CENTER
 62
       7
100
AcDbLine
 10
7.25456099
 20
-113.19531468
 30
0.0
 11
7.25456099
 21
-92.9681883
 31
0.0
  0
CIRCLE
  5
503
100
AcDbEntity
  8
LAYER0001
  6
CENTER
 62
       7
100
AcDbCircle
 10
-102.39255343
 20
-154.35433015
 30
0.0
 40
15.0
  0
INSERT
  5
504
100
AcDbEntity
  8
LAYER0001
  6
CONTINUOUS
100
AcDbBlockReference
  2
GROUP_1
 10
0.0
 20
0.0
 30
0.0
  0
INSERT
  5
505
100
AcDbEntity
  8
LAYER0001
  6
CONTINUOUS
100
AcDbBlockReference
  2
GROUP_2
 10
0.0
 20
0.0
 30
0.0
  0
INSERT
  5
506
100
AcDbEntity
  8
LAYER0001
  6
CONTINUOUS
100
AcDbBlockReference
  2
GROUP_3
 10
0.0
 20
0.0
 30
0.0
  0
INSERT
  5
507
100
AcDbEntity
  8
LAYER0001
  6
CONTINUOUS
100
AcDbBlockReference
  2
GROUP_4
 10
0.0
 20
0.0
 30
0.0
  0
INSERT
  5
508
100
AcDbEntity
  8
LAYER0001
  6
CONTINUOUS
100
AcDbBlockReference
  2
GROUP_5
 10
0.0
 20
0.0
 30
0.0
  0
INSERT
  5
509
100
AcDbEntity
  8
LAYER0001
  6
CONTINUOUS
100
AcDbBlockReference
  2
GROUP_6
 10
0.0
 20
0.0
 30
0.0
  0
INSERT
  5
50A
100
AcDbEntity
  8
LAYER0001
  6
CONTINUOUS
100
AcDbBlockReference
  2
GROUP_7
 10
0.0
 20
0.0
 30
0.0
  0
INSERT
  5
50B
100
AcDbEntity
  8
LAYER0001
  6
CONTINUOUS
100
AcDbBlockReference
  2
GROUP_8
 10
0.0
 20
0.0
 30
0.0
  0
INSERT
  5
50C
100
AcDbEntity
  8
LAYER0001
  6
CONTINUOUS
100
AcDbBlockReference
  2
GROUP_9
 10
0.0
 20
0.0
 30
0.0
  0
INSERT
  5
50D
100
AcDbEntity
  8
LAYER0001
  6
CONTINUOUS
100
AcDbBlockReference
  2
GROUP_10
 10
0.0
 20
0.0
 30
0.0
  0
INSERT
  5
50E
100
AcDbEntity
  8
LAYER0001
  6
CONTINUOUS
100
AcDbBlockReference
  2
GROUP_11
 10
0.0
 20
0.0
 30
0.0
  0
INSERT
  5
50F
100
AcDbEntity
  8
LAYER0001
  6
CONTINUOUS
100
AcDbBlockReference
  2
GROUP_12
 10
0.0
 20
0.0
 30
0.0
  0
INSERT
  5
510
100
AcDbEntity
  8
LAYER0001
  6
CONTINUOUS
100
AcDbBlockReference
  2
GROUP_13
 10
0.0
 20
0.0
 30
0.0
  0
INSERT
  5
511
100
AcDbEntity
  8
LAYER0001
  6
CONTINUOUS
100
AcDbBlockReference
  2
GROUP_14
 10
0.0
 20
0.0
 30
0.0
  0
INSERT
  5
512
100
AcDbEntity
  8
LAYER0001
  6
CONTINUOUS
100
AcDbBlockReference
  2
GROUP_15
 10
0.0
 20
0.0
 30
0.0
  0
INSERT
  5
513
100
AcDbEntity
  8
LAYER0001
  6
CONTINUOUS
100
AcDbBlockReference
  2
GROUP_16
 10
0.0
 20
0.0
 30
0.0
  0
INSERT
  5
514
100
AcDbEntity
  8
LAYER0001
  6
CONTINUOUS
100
AcDbBlockReference
  2
GROUP_17
 10
0.0
 20
0.0
 30
0.0
  0
INSERT
  5
515
100
AcDbEntity
  8
LAYER0001
  6
CONTINUOUS
100
AcDbBlockReference
  2
GROUP_18
 10
0.0
 20
0.0
 30
0.0
  0
INSERT
  5
516
100
AcDbEntity
  8
LAYER0001
  6
CONTINUOUS
100
AcDbBlockReference
  2
GROUP_19
 10
0.0
 20
0.0
 30
0.0
  0
INSERT
  5
517
100
AcDbEntity
  8
LAYER0001
  6
CONTINUOUS
100
AcDbBlockReference
  2
GROUP_20
 10
0.0
 20
0.0
 30
0.0
  0
INSERT
  5
518
100
AcDbEntity
  8
LAYER0001
  6
CONTINUOUS
100
AcDbBlockReference
  2
GROUP_21
 10
0.0
 20
0.0
 30
0.0
  0
INSERT
  5
519
100
AcDbEntity
  8
LAYER0001
  6
CONTINUOUS
100
AcDbBlockReference
  2
GROUP_22
 10
0.0
 20
0.0
 30
0.0
  0
INSERT
  5
51A
100
AcDbEntity
  8
LAYER0001
  6
CONTINUOUS
100
AcDbBlockReference
  2
GROUP_23
 10
0.0
 20
0.0
 30
0.0
  0
TEXT
  5
51B
100
AcDbEntity
  8
LAYER0001
 62
       7
100
AcDbText
 10
79.59065061
 20
-146.42604291
 30
0.0
 40
9.525
  1
000
 72
       5
 11
108.16565061
 21
-146.42604291
 31
0.0
100
AcDbText
  0
TEXT
  5
51C
100
AcDbEntity
  8
LAYER0001
 62
       7
100
AcDbText
 10
66.81355845
 20
-96.05003688
 30
0.0
 40
6.35
  1
Lamp 5 Layers shown
 72
       5
 11
187.46355845
 21
-96.05003688
 31
0.0
100
AcDbText
  0
ENDSEC
  0
SECTION
  2
OBJECTS
  0
DICTIONARY
  5
19
100
AcDbDictionary
  3
ACAD_GROUP
350
1A
  3
ACAD_MLINESTYLE
350
1B
  0
DICTIONARY
  5
1A
102
{ACAD_REACTORS
330
19
102
}
100
AcDbDictionary
  0
DICTIONARY
  5
1B
102
{ACAD_REACTORS
330
19
102
}
100
AcDbDictionary
  3
STANDARD
350
1C
  0
MLINESTYLE
  5
1C
102
{ACAD_REACTORS
330
1B
102
}
100
AcDbMlineStyle
  2
STANDARD
 70
       0
  3

 62
       0
 51
90.0
 52
90.0
 71
       2
 49
0.5
 62
     256
  6
BYLAYER
 49
-0.5
 62
     256
  6
BYLAYER
  0
ENDSEC
  0
EOF

