  0
SECTION
  2
HEADER
  9
$ACADVER
  1
AC1014
  9
$ACADMAINTVER
 70
       0
  9
$DWGCODEPAGE
  3
ANSI_932
  9
$INSBASE
 10
0.0
 20
0.0
 30
0.0
  9
$EXTMIN
 10
-198.6272899
 20
-266.58249896
 30
0.0
  9
$EXTMAX
 10
180.12989415
 20
266.58249896
 30
0.0
  9
$LIMMIN
 10
-210.4634519
 20
-283.24390514
  9
$LIMMAX
 10
191.96605615
 20
283.24390514
  9
$ORTHOMODE
 70
       0
  9
$REGENMODE
 70
       1
  9
$FILLMODE
 70
       1
  9
$QTEXTMODE
 70
       0
  9
$MIRRTEXT
 70
       1
  9
$DRAGMODE
 70
       2
  9
$LTSCALE
 40
1.0
  9
$OSMODE
 70
       0
  9
$ATTMODE
 70
       1
  9
$TEXTSIZE
 40
0.2
  9
$TRACEWID
 40
0.05
  9
$TEXTSTYLE
  7
STANDARD
  9
$CLAYER
  8
0
  9
$CELTYPE
  6
CONTINUOUS
  9
$CECOLOR
 62
     256
  9
$CELTSCALE
 40
1.0
  9
$DELOBJ
 70
       1
  9
$DISPSILH
 70
       0
  9
$DIMSCALE
 40
1.0
  9
$DIMASZ
 40
0.18
  9
$DIMEXO
 40
0.0625
  9
$DIMDLI
 40
0.38
  9
$DIMRND
 40
0.0
  9
$DIMDLE
 40
0.0
  9
$DIMEXE
 40
0.18
  9
$DIMTP
 40
0.0
  9
$DIMTM
 40
0.0
  9
$DIMTXT
 40
0.18
  9
$DIMCEN
 40
0.09
  9
$DIMTSZ
 40
0.0
  9
$DIMTOL
 70
       0
  9
$DIMLIM
 70
       0
  9
$DIMTIH
 70
       1
  9
$DIMTOH
 70
       1
  9
$DIMSE1
 70
       0
  9
$DIMSE2
 70
       0
  9
$DIMTAD
 70
       0
  9
$DIMZIN
 70
       0
  9
$DIMBLK
  1

  9
$DIMASO
 70
       1
  9
$DIMSHO
 70
       1
  9
$DIMPOST
  1

  9
$DIMAPOST
  1

  9
$DIMALT
 70
       0
  9
$DIMALTD
 70
       2
  9
$DIMALTF
 40
25.4
  9
$DIMLFAC
 40
1.0
  9
$DIMTOFL
 70
       0
  9
$DIMTVP
 40
0.0
  9
$DIMTIX
 70
       0
  9
$DIMSOXD
 70
       0
  9
$DIMSAH
 70
       0
  9
$DIMBLK1
  1

  9
$DIMBLK2
  1

  9
$DIMSTYLE
  2
STANDARD
  9
$DIMCLRD
 70
       0
  9
$DIMCLRE
 70
       0
  9
$DIMCLRT
 70
       0
  9
$DIMTFAC
 40
1.0
  9
$DIMGAP
 40
0.09
  9
$DIMJUST
 70
       0
  9
$DIMSD1
 70
       0
  9
$DIMSD2
 70
       0
  9
$DIMTOLJ
 70
       1
  9
$DIMTZIN
 70
       0
  9
$DIMALTZ
 70
       0
  9
$DIMALTTZ
 70
       0
  9
$DIMFIT
 70
       3
  9
$DIMUPT
 70
       0
  9
$DIMUNIT
 70
       2
  9
$DIMDEC
 70
       4
  9
$DIMTDEC
 70
       4
  9
$DIMALTU
 70
       2
  9
$DIMALTTD
 70
       2
  9
$DIMTXSTY
  7
STANDARD
  9
$DIMAUNIT
 70
       0
  9
$LUNITS
 70
       2
  9
$LUPREC
 70
       4
  9
$SKETCHINC
 40
0.1
  9
$FILLETRAD
 40
0.0
  9
$AUNITS
 70
       0
  9
$AUPREC
 70
       0
  9
$MENU
  1
acad
  9
$ELEVATION
 40
0.0
  9
$PELEVATION
 40
0.0
  9
$THICKNESS
 40
0.0
  9
$LIMCHECK
 70
       0
  9
$BLIPMODE
 70
       1
  9
$CHAMFERA
 40
0.0
  9
$CHAMFERB
 40
0.0
  9
$CHAMFERC
 40
0.0
  9
$CHAMFERD
 40
0.0
  9
$SKPOLY
 70
       0
  9
$TDCREATE
 40
0.000000000
  9
$TDUPDATE
 40
0.000000000
  9
$TDINDWG
 40
0.0000000000
  9
$TDUSRTIMER
 40
0.0000000000
  9
$USRTIMER
 70
       1
  9
$ANGBASE
 50
0.0
  9
$ANGDIR
 70
       0
  9
$PDMODE
 70
       0
  9
$PDSIZE
 40
1.0
  9
$PLINEWID
 40
0.0
  9
$COORDS
 70
       1
  9
$SPLFRAME
 70
       0
  9
$SPLINETYPE
 70
       6
  9
$SPLINESEGS
 70
       8
  9
$ATTDIA
 70
       0
  9
$ATTREQ
 70
       1
  9
$HANDLING
 70
       1
  9
$HANDSEED
  5
545
  9
$SURFTAB1
 70
       6
  9
$SURFTAB2
 70
       6
  9
$SURFTYPE
 70
       6
  9
$SURFU
 70
       6
  9
$SURFV
 70
       6
  9
$UCSNAME
  2

  9
$UCSORG
 10
0.0
 20
0.0
 30
0.0
  9
$UCSXDIR
 10
1.0
 20
0.0
 30
0.0
  9
$UCSYDIR
 10
0.0
 20
1.0
 30
0.0
  9
$PUCSNAME
  2

  9
$PUCSORG
 10
0.0
 20
0.0
 30
0.0
  9
$PUCSXDIR
 10
1.0
 20
0.0
 30
0.0
  9
$PUCSYDIR
 10
0.0
 20
1.0
 30
0.0
  9
$USERI1
 70
       0
  9
$USERI2
 70
       0
  9
$USERI3
 70
       0
  9
$USERI4
 70
       0
  9
$USERI5
 70
       0
  9
$USERR1
 40
0.0
  9
$USERR2
 40
0.0
  9
$USERR3
 40
0.0
  9
$USERR4
 40
0.0
  9
$USERR5
 40
0.0
  9
$WORLDVIEW
 70
       1
  9
$SHADEDGE
 70
       3
  9
$SHADEDIF
 70
      70
  9
$TILEMODE
 70
       1
  9
$MAXACTVP
 70
      16
  9
$PINSBASE
 10
0.0
 20
0.0
 30
0.0
  9
$PLIMCHECK
 70
       0
  9
$PEXTMIN
 10
1.00000000E+20
 20
1.00000000E+20
 30
1.00000000E+20
  9
$PEXTMAX
 10
-1.00000000E+20
 20
-1.00000000E+20
 30
-1.00000000E+20
  9
$PLIMMIN
 10
0.0
 20
0.0
  9
$PLIMMAX
 10
12.0
 20
9.0
  9
$UNITMODE
 70
       0
  9
$VISRETAIN
 70
       0
  9
$PLINEGEN
 70
       1
  9
$PSLTSCALE
 70
       0
  9
$TREEDEPTH
 70
    3020
  9
$PICKSTYLE
 70
       1
  9
$CMLSTYLE
  2
STANDARD
  9
$CMLJUST
 70
       0
  9
$CMLSCALE
 40
1.0
  9
$PROXYGRAPHICS
 70
       0
  9
$MEASUREMENT
 70
       0
  0
ENDSEC
  0
SECTION
  2
CLASSES
  0
CLASS
  1
LWPOLYLINE
  2
AcDbPolyline
  3
"AutoCAD"
 90
        0
280
       0
281
       1
  0
CLASS
  1
IMAGE
  2
AcDbRasterImage
  3
ISM
 90
      127
280
       0
281
       1
  0
CLASS
  1
OLE2FRAME
  2
AcDbOle2Frame
  3
""
 90
        0
280
       0
281
       1
  0
CLASS
  1
HATCH
  2
AcDbHatch
  3
"ACAD_SEDONA"
 90
        0
280
       0
281
       1
  0
CLASS
  1
DICTIONARYVAR
  2
AcDbDictionaryVar
  3
"AutoCAD"
 90
        0
280
       0
281
       0
  0
CLASS
  1
RASTERVARIABLES
  2
AcDbRasterVariables
  3
ISM
 90
        0
280
       0
281
       0
  0
CLASS
  1
IMAGEDEF
  2
AcDbRasterImageDef
  3
ISM
 90
        0
280
       0
281
       0
  0
CLASS
  1
IMAGEDEF_REACTOR
  2
AcDbRasterImageDefReactor
  3
ISM
 90
        1
280
       0
281
       0
  0
CLASS
  1
IDBUFFER
  2
AcDbIdBuffer
  3
"Acad"
 90
        0
280
       0
281
       0
  0
CLASS
  1
SPATIAL_FILTER
  2
AcDbSpatialFilter
  3
"Acad"
 90
        0
280
       0
281
       0
  0
CLASS
  1
XRECORD
  2
AcDbXrecord
  3
"<Built In>"
 90
        0
280
       0
281
       0
  0
CLASS
  1
SORTENTSTABLE
  2
AcDbSortentsTable
  3
"AutoCAD"
 90
        0
280
       0
281
       0
  0
CLASS
  1
LAYER_INDEX
  2
AcDbLayerIndex
  3
"Acad"
 90
        0
280
       0
281
       0
  0
CLASS
  1
SPATIAL_INDEX
  2
AcDbSpatialIndex
  3
"Acad"
 90
        0
280
       0
281
       0
  0
CLASS
  1
OBJECT_PTR
  2
CAseDLPNTableRecord
  3
"ASE-LPNTableRecord"
 90
        1
280
       0
281
       0
  0
CLASS
  1
LAYOUT
  2
AcDbLayout
  3
"AutoCAD 2000"
 90
        1
280
       0
281
       0
  0
CLASS
  1
PLOTSETTINGS
  2
AcDbPlotSettings
  3
"AutoCAD 2000"
 90
        1
280
       0
281
       0
  0
CLASS
  1
ACDBDICTIONARYWDFLT
  2
AcDbDictionaryWithDefault
  3
"AutoCAD 2000"
 90
        1
280
       0
281
       0
  0
CLASS
  1
ACDBPLACEHOLDER
  2
AcDbPlaceHolder
  3
"AutoCAD 2000"
 90
        1
280
       0
281
       0
  0
CLASS
  1
VBA_PROJECT
  2
AcDbVbaProject
  3
"acadvba"
 90
        1
280
       0
281
       0
  0
CLASS
  1
WIPEOUT
  2
AcDbWipeout
  3
WipeOut|AutoCAD Express Tool|expresstools@autodesk.com
 90
      127
280
       0
281
       1
  0
CLASS
  1
WIPEOUTVARIABLES
  2
AcDbWipeoutVariables
  3
WipeOut|AutoCAD Express Tool|expresstools@autodesk.com
 90
        0
280
       0
281
       0
  0
CLASS
  1
RTEXT
  2
RText
  3
RText|AutoCAD Express Tool|expresstools@autodesk.com
 90
        0
280
       0
281
       1
  0
CLASS
  1
ARCALIGNEDTEXT
  2
AcDbArcAlignedText
  3
ATEXT|AutoCAD Express Tool|expresstools@autodesk.com
 90
        0
280
       0
281
       1
  0
ENDSEC
  0
SECTION
  2
TABLES
  0
TABLE
  2
VPORT
  5
7
100
AcDbSymbolTable
 70
       1
  0
VPORT
  5
15
100
AcDbSymbolTableRecord
100
AcDbViewportTableRecord
  2
*ACTIVE
 70
       0
 10
0.0
 20
0.0
 11
1.0
 21
1.0
 12
-9.24869788
 22
0.0
 13
0.0
 23
0.0
 14
1.0
 24
1.0
 15
0.0
 25
0.0
 16
0.0
 26
0.0
 36
1.0
 17
0.0
 27
0.0
 37
0.0
 40
566.48781028
 41
0.71039394
 42
50.0
 43
0.0
 44
0.0
 50
0.0
 51
0.0
 71
       0
 72
     100
 73
       1
 74
       1
 75
       0
 76
       0
 77
       0
 78
       0
  0
ENDTAB
  0
TABLE
  2
LTYPE
  5
4
100
AcDbSymbolTable
 70
      30
  0
LTYPE
  5
11
100
AcDbSymbolTableRecord
100
AcDbLinetypeTableRecord
  2
BYBLOCK
 70
      64
  3

 72
      65
 73
       0
 40
0.0
  0
LTYPE
  5
12
100
AcDbSymbolTableRecord
100
AcDbLinetypeTableRecord
  2
BYLAYER
 70
      64
  3

 72
      65
 73
       0
 40
0.0
  0
LTYPE
  5
13
100
AcDbSymbolTableRecord
100
AcDbLinetypeTableRecord
  2
CONTINUOUS
 70
      64
  3
Solid line
 72
      65
 73
       0
 40
0.0
  0
LTYPE
  5
1D
100
AcDbSymbolTableRecord
100
AcDbLinetypeTableRecord
  2
HIDDENX2
 70
      64
  3
CADPAC LINETYPE
 72
      65
 73
       2
 40
30.15139988
 49
22.61354991
 74
       0
 49
-7.53784997
 74
       0
  0
LTYPE
  5
1E
100
AcDbSymbolTableRecord
100
AcDbLinetypeTableRecord
  2
HIDDEN
 70
      64
  3
CADPAC LINETYPE
 72
      65
 73
       2
 40
22.61354991
 49
15.07569994
 74
       0
 49
-7.53784997
 74
       0
  0
LTYPE
  5
1F
100
AcDbSymbolTableRecord
100
AcDbLinetypeTableRecord
  2
HIDDEN2
 70
      64
  3
CADPAC LINETYPE
 72
      65
 73
       2
 40
18.84462493
 49
11.30677496
 74
       0
 49
-7.53784997
 74
       0
  0
LTYPE
  5
20
100
AcDbSymbolTableRecord
100
AcDbLinetypeTableRecord
  2
DASHED
 70
      64
  3
CADPAC LINETYPE
 72
      65
 73
       2
 40
22.61354991
 49
15.07569994
 74
       0
 49
-7.53784997
 74
       0
  0
LTYPE
  5
21
100
AcDbSymbolTableRecord
100
AcDbLinetypeTableRecord
  2
DASHED2
 70
      64
  3
CADPAC LINETYPE
 72
      65
 73
       2
 40
16.96016243
 49
11.30677496
 74
       0
 49
-5.65338748
 74
       0
  0
LTYPE
  5
22
100
AcDbSymbolTableRecord
100
AcDbLinetypeTableRecord
  2
DASHEDX2
 70
      64
  3
CADPAC LINETYPE
 72
      65
 73
       2
 40
33.92032487
 49
22.61354991
 74
       0
 49
-11.30677496
 74
       0
  0
LTYPE
  5
23
100
AcDbSymbolTableRecord
100
AcDbLinetypeTableRecord
  2
DOTX2
 70
      64
  3
CADPAC LINETYPE
 72
      65
 73
       2
 40
9.42231246
 49
0.0
 74
       0
 49
-9.42231246
 74
       0
  0
LTYPE
  5
24
100
AcDbSymbolTableRecord
100
AcDbLinetypeTableRecord
  2
DOT
 70
      64
  3
CADPAC LINETYPE
 72
      65
 73
       2
 40
7.53784997
 49
0.0
 74
       0
 49
-7.53784997
 74
       0
  0
LTYPE
  5
25
100
AcDbSymbolTableRecord
100
AcDbLinetypeTableRecord
  2
DOT2
 70
      64
  3
CADPAC LINETYPE
 72
      65
 73
       2
 40
5.65338748
 49
0.0
 74
       0
 49
-5.65338748
 74
       0
  0
LTYPE
  5
26
100
AcDbSymbolTableRecord
100
AcDbLinetypeTableRecord
  2
CENTERX2
 70
      64
  3
CADPAC LINETYPE
 72
      65
 73
       4
 40
45.22709982
 49
18.84462493
 74
       0
 49
-9.42231246
 74
       0
 49
7.53784997
 74
       0
 49
-9.42231246
 74
       0
  0
LTYPE
  5
27
100
AcDbSymbolTableRecord
100
AcDbLinetypeTableRecord
  2
CENTER
 70
      64
  3
CADPAC LINETYPE
 72
      65
 73
       4
 40
34.67410986
 49
15.07569994
 74
       0
 49
-7.53784997
 74
       0
 49
4.52270998
 74
       0
 49
-7.53784997
 74
       0
  0
LTYPE
  5
28
100
AcDbSymbolTableRecord
100
AcDbLinetypeTableRecord
  2
CENTER2
 70
      64
  3
CADPAC LINETYPE
 72
      65
 73
       4
 40
24.12111991
 49
11.30677496
 74
       0
 49
-5.65338748
 74
       0
 49
1.50756999
 74
       0
 49
-5.65338748
 74
       0
  0
LTYPE
  5
29
100
AcDbSymbolTableRecord
100
AcDbLinetypeTableRecord
  2
DASHDOTX2
 70
      64
  3
CADPAC LINETYPE
 72
      65
 73
       4
 40
37.68924985
 49
18.84462493
 74
       0
 49
-9.42231246
 74
       0
 49
0.0
 74
       0
 49
-9.42231246
 74
       0
  0
LTYPE
  5
2A
100
AcDbSymbolTableRecord
100
AcDbLinetypeTableRecord
  2
DASHDOT
 70
      64
  3
CADPAC LINETYPE
 72
      65
 73
       4
 40
30.15139988
 49
15.07569994
 74
       0
 49
-7.53784997
 74
       0
 49
0.0
 74
       0
 49
-7.53784997
 74
       0
  0
LTYPE
  5
2B
100
AcDbSymbolTableRecord
100
AcDbLinetypeTableRecord
  2
DASHDOT2
 70
      64
  3
CADPAC LINETYPE
 72
      65
 73
       4
 40
22.61354991
 49
11.30677496
 74
       0
 49
-5.65338748
 74
       0
 49
0.0
 74
       0
 49
-5.65338748
 74
       0
  0
LTYPE
  5
2C
100
AcDbSymbolTableRecord
100
AcDbLinetypeTableRecord
  2
DIVIDEX2
 70
      64
  3
CADPAC LINETYPE
 72
      65
 73
       6
 40
47.11156232
 49
18.84462493
 74
       0
 49
-9.42231246
 74
       0
 49
0.0
 74
       0
 49
-9.42231246
 74
       0
 49
0.0
 74
       0
 49
-9.42231246
 74
       0
  0
LTYPE
  5
2D
100
AcDbSymbolTableRecord
100
AcDbLinetypeTableRecord
  2
DIVIDE
 70
      64
  3
CADPAC LINETYPE
 72
      65
 73
       6
 40
37.68924985
 49
15.07569994
 74
       0
 49
-7.53784997
 74
       0
 49
0.0
 74
       0
 49
-7.53784997
 74
       0
 49
0.0
 74
       0
 49
-7.53784997
 74
       0
  0
LTYPE
  5
2E
100
AcDbSymbolTableRecord
100
AcDbLinetypeTableRecord
  2
DIVIDE2
 70
      64
  3
CADPAC LINETYPE
 72
      65
 73
       6
 40
28.26693739
 49
11.30677496
 74
       0
 49
-5.65338748
 74
       0
 49
0.0
 74
       0
 49
-5.65338748
 74
       0
 49
0.0
 74
       0
 49
-5.65338748
 74
       0
  0
LTYPE
  5
2F
100
AcDbSymbolTableRecord
100
AcDbLinetypeTableRecord
  2
BORDERX2
 70
      64
  3
CADPAC LINETYPE
 72
      65
 73
       6
 40
65.95618724
 49
18.84462493
 74
       0
 49
-9.42231246
 74
       0
 49
18.84462493
 74
       0
 49
-9.42231246
 74
       0
 49
0.0
 74
       0
 49
-9.42231246
 74
       0
  0
LTYPE
  5
30
100
AcDbSymbolTableRecord
100
AcDbLinetypeTableRecord
  2
BORDER
 70
      64
  3
CADPAC LINETYPE
 72
      65
 73
       6
 40
52.76494979
 49
15.07569994
 74
       0
 49
-7.53784997
 74
       0
 49
15.07569994
 74
       0
 49
-7.53784997
 74
       0
 49
0.0
 74
       0
 49
-7.53784997
 74
       0
  0
LTYPE
  5
31
100
AcDbSymbolTableRecord
100
AcDbLinetypeTableRecord
  2
BORDER2
 70
      64
  3
CADPAC LINETYPE
 72
      65
 73
       6
 40
39.57371235
 49
11.30677496
 74
       0
 49
-5.65338748
 74
       0
 49
11.30677496
 74
       0
 49
-5.65338748
 74
       0
 49
0.0
 74
       0
 49
-5.65338748
 74
       0
  0
LTYPE
  5
32
100
AcDbSymbolTableRecord
100
AcDbLinetypeTableRecord
  2
PHANTOMX2
 70
      64
  3
CADPAC LINETYPE
 72
      65
 73
       6
 40
56.53387478
 49
18.84462493
 74
       0
 49
-7.53784997
 74
       0
 49
7.53784997
 74
       0
 49
-7.53784997
 74
       0
 49
7.53784997
 74
       0
 49
-7.53784997
 74
       0
  0
LTYPE
  5
33
100
AcDbSymbolTableRecord
100
AcDbLinetypeTableRecord
  2
PHANTOM
 70
      64
  3
CADPAC LINETYPE
 72
      65
 73
       6
 40
46.73466982
 49
15.07569994
 74
       0
 49
-7.53784997
 74
       0
 49
4.52270998
 74
       0
 49
-7.53784997
 74
       0
 49
4.52270998
 74
       0
 49
-7.53784997
 74
       0
  0
LTYPE
  5
34
100
AcDbSymbolTableRecord
100
AcDbLinetypeTableRecord
  2
PHANTOM2
 70
      64
  3
CADPAC LINETYPE
 72
      65
 73
       6
 40
39.95060484
 49
11.30677496
 74
       0
 49
-7.53784997
 74
       0
 49
3.01513999
 74
       0
 49
-7.53784997
 74
       0
 49
3.01513999
 74
       0
 49
-7.53784997
 74
       0
  0
LTYPE
  5
35
100
AcDbSymbolTableRecord
100
AcDbLinetypeTableRecord
  2
ACAD_ISO06W100
 70
      64
  3
CADPAC LINETYPE
 72
      65
 73
       8
 40
50.8804873
 49
18.84462493
 74
       0
 49
-9.42231246
 74
       0
 49
0.0
 74
       0
 49
-7.53784997
 74
       0
 49
0.0
 74
       0
 49
-7.53784997
 74
       0
 49
0.0
 74
       0
 49
-7.53784997
 74
       0
  0
LTYPE
  5
36
100
AcDbSymbolTableRecord
100
AcDbLinetypeTableRecord
  2
ACAD_ISO13W100
 70
      64
  3
CADPAC LINETYPE
 72
      65
 73
       8
 40
60.30279976
 49
15.07569994
 74
       0
 49
-7.53784997
 74
       0
 49
15.07569994
 74
       0
 49
-7.53784997
 74
       0
 49
0.0
 74
       0
 49
-7.53784997
 74
       0
 49
0.0
 74
       0
 49
-7.53784997
 74
       0
  0
LTYPE
  5
37
100
AcDbSymbolTableRecord
100
AcDbLinetypeTableRecord
  2
ACAD_ISO14W100
 70
      64
  3
CADPAC LINETYPE
 72
      65
 73
       8
 40
45.22709982
 49
15.07569994
 74
       0
 49
-7.53784997
 74
       0
 49
0.0
 74
       0
 49
-7.53784997
 74
       0
 49
0.0
 74
       0
 49
-7.53784997
 74
       0
 49
0.0
 74
       0
 49
-7.53784997
 74
       0
  0
ENDTAB
  0
TABLE
  2
LAYER
  5
2
100
AcDbSymbolTable
 70
       4
  0
LAYER
  5
14
100
AcDbSymbolTableRecord
100
AcDbLayerTableRecord
  2
0
 70
       0
 62
       7
  6
CONTINUOUS
  0
LAYER
  5
38
100
AcDbSymbolTableRecord
100
AcDbLayerTableRecord
  2
LAYER0002
 70
       0
 62
       7
  6
CONTINUOUS
  0
LAYER
  5
39
100
AcDbSymbolTableRecord
100
AcDbLayerTableRecord
  2
LAYER0003
 70
       0
 62
       7
  6
CONTINUOUS
  0
LAYER
  5
3A
100
AcDbSymbolTableRecord
100
AcDbLayerTableRecord
  2
LAYER0004
 70
       0
 62
       7
  6
CONTINUOUS
  0
ENDTAB
  0
TABLE
  2
STYLE
  5
3
100
AcDbSymbolTable
 70
       1
  0
STYLE
  5
17
100
AcDbSymbolTableRecord
100
AcDbTextStyleTableRecord
  2
STANDARD
 70
       0
 40
0.0
 41
1.0
 50
0.0
 71
       0
 42
17.19791667
  3
txt.shx
  4
bigfont.shx
  0
ENDTAB
  0
TABLE
  2
VIEW
  5
5
100
AcDbSymbolTable
 70
       1
  0
VIEW
  5
3B
100
AcDbSymbolTableRecord
100
AcDbViewTableRecord
  2
QQQQ
 70
       0
 40
566.48781028
 10
-9.24869788
 20
0.0
 41
402.42950804
 11
0.0
 21
0.0
 31
1.0
 12
100.0
 22
100.0
 32
0.0
 42
50.0
 43
0.0
 44
0.0
 50
0.0
 71
       0
  0
ENDTAB
  0
TABLE
  2
UCS
  5
6
100
AcDbSymbolTable
 70
       0
  0
ENDTAB
  0
TABLE
  2
APPID
  5
8
100
AcDbSymbolTable
 70
       1
  0
APPID
  5
16
100
AcDbSymbolTableRecord
100
AcDbRegAppTableRecord
  2
ACAD
 70
       0
  0
ENDTAB
  0
TABLE
  2
DIMSTYLE
  5
9
100
AcDbSymbolTable
 70
       1
  0
DIMSTYLE
105
18
100
AcDbSymbolTableRecord
100
AcDbDimStyleTableRecord
  2
STANDARD
 70
       0
  3

  4

  5

  6

  7

 40
1.0
 41
0.18
 42
0.0625
 43
0.38
 44
0.18
 45
0.0
 46
0.0
 47
0.0
 48
0.0
 71
       0
 72
       0
 73
       1
 74
       1
 75
       0
 76
       0
 77
       0
 78
       0
140
0.18
141
0.09
142
0.0
143
25.4
144
1.0
145
0.0
146
1.0
147
0.09
170
       0
171
       2
172
       0
173
       0
174
       0
175
       0
176
       0
177
       0
178
       0
270
       2
271
       4
272
       4
273
       2
274
       2
275
       0
280
       0
281
       0
282
       0
283
       1
284
       0
285
       0
286
       0
287
       0
288
       0
340
17
  0
ENDTAB
  0
TABLE
  2
BLOCK_RECORD
  5
1
100
AcDbSymbolTable
 70
       4
  0
BLOCK_RECORD
  5
A
100
AcDbSymbolTableRecord
100
AcDbBlockTableRecord
  2
*MODEL_SPACE
  0
BLOCK_RECORD
  5
B
100
AcDbSymbolTableRecord
100
AcDbBlockTableRecord
  2
*PAPER_SPACE
  0
BLOCK_RECORD
  5
3C
100
AcDbSymbolTableRecord
100
AcDbBlockTableRecord
  2
GROUP_1
  0
BLOCK_RECORD
  5
3D
100
AcDbSymbolTableRecord
100
AcDbBlockTableRecord
  2
GROUP_2
  0
BLOCK_RECORD
  5
3E
100
AcDbSymbolTableRecord
100
AcDbBlockTableRecord
  2
GROUP_3
  0
BLOCK_RECORD
  5
3F
100
AcDbSymbolTableRecord
100
AcDbBlockTableRecord
  2
GROUP_4
  0
ENDTAB
  0
ENDSEC
  0
SECTION
  2
BLOCKS
  0
BLOCK
  5
D
100
AcDbEntity
  8
0
100
AcDbBlockBegin
  2
*MODEL_SPACE
 70
       0
 10
0.0
 20
0.0
 30
0.0
  3
*MODEL_SPACE
  1

  0
ENDBLK
  5
E
100
AcDbEntity
  8
0
100
AcDbBlockEnd
  0
BLOCK
  5
F
100
AcDbEntity
 67
       1
  8
0
100
AcDbBlockBegin
  2
*PAPER_SPACE
 70
       0
 10
0.0
 20
0.0
 30
0.0
  3
*PAPER_SPACE
  1

  0
ENDBLK
  5
10
100
AcDbEntity
 67
       1
  8
0
100
AcDbBlockEnd
  0
BLOCK
  5
40
100
AcDbEntity
  8
0
100
AcDbBlockBegin
  2
GROUP_1
 70
       0
 10
0.0
 20
0.0
 30
0.0
  3
GROUP_1
  1

  0
LINE
  5
41
100
AcDbEntity
  8
LAYER0004
  6
CONTINUOUS
 62
       7
100
AcDbLine
 10
-118.82907036
 20
-223.15025238
 30
0.0
 11
-118.83184911
 21
-223.26747783
 31
0.0
  0
LINE
  5
42
100
AcDbEntity
  8
LAYER0004
  6
CONTINUOUS
 62
       7
100
AcDbLine
 10
-118.83184911
 20
-223.26747783
 30
0.0
 11
-118.83496327
 21
-223.38466424
 31
0.0
  0
LINE
  5
43
100
AcDbEntity
  8
LAYER0004
  6
CONTINUOUS
 62
       7
100
AcDbLine
 10
-118.83496327
 20
-223.38466424
 30
0.0
 11
-118.83874824
 21
-223.50177259
 31
0.0
  0
LINE
  5
44
100
AcDbEntity
  8
LAYER0004
  6
CONTINUOUS
 62
       7
100
AcDbLine
 10
-118.83874824
 20
-223.50177259
 30
0.0
 11
-118.84353944
 21
-223.61876384
 31
0.0
  0
LINE
  5
45
100
AcDbEntity
  8
LAYER0004
  6
CONTINUOUS
 62
       7
100
AcDbLine
 10
-118.84353944
 20
-223.61876384
 30
0.0
 11
-118.84967227
 21
-223.73559897
 31
0.0
  0
LINE
  5
46
100
AcDbEntity
  8
LAYER0004
  6
CONTINUOUS
 62
       7
100
AcDbLine
 10
-118.84967227
 20
-223.73559897
 30
0.0
 11
-118.85748215
 21
-223.85223894
 31
0.0
  0
LINE
  5
47
100
AcDbEntity
  8
LAYER0004
  6
CONTINUOUS
 62
       7
100
AcDbLine
 10
-118.85748215
 20
-223.85223894
 30
0.0
 11
-118.86726366
 21
-223.96864947
 31
0.0
  0
LINE
  5
48
100
AcDbEntity
  8
LAYER0004
  6
CONTINUOUS
 62
       7
100
AcDbLine
 10
-118.86726366
 20
-223.96864947
 30
0.0
 11
-118.87902761
 21
-224.08482931
 31
0.0
  0
LINE
  5
49
100
AcDbEntity
  8
LAYER0004
  6
CONTINUOUS
 62
       7
100
AcDbLine
 10
-118.87902761
 20
-224.08482931
 30
0.0
 11
-118.89266428
 21
-224.20079121
 31
0.0
  0
LINE
  5
4A
100
AcDbEntity
  8
LAYER0004
  6
CONTINUOUS
 62
       7
100
AcDbLine
 10
-118.89266428
 20
-224.20079121
 30
0.0
 11
-118.90806352
 21
-224.316548
 31
0.0
  0
LINE
  5
4B
100
AcDbEntity
  8
LAYER0004
  6
CONTINUOUS
 62
       7
100
AcDbLine
 10
-118.90806352
 20
-224.316548
 30
0.0
 11
-118.92511516
 21
-224.4321125
 31
0.0
  0
LINE
  5
4C
100
AcDbEntity
  8
LAYER0004
  6
CONTINUOUS
 62
       7
100
AcDbLine
 10
-118.92511516
 20
-224.4321125
 30
0.0
 11
-118.94370905
 21
-224.54749753
 31
0.0
  0
LINE
  5
4D
100
AcDbEntity
  8
LAYER0004
  6
CONTINUOUS
 62
       7
100
AcDbLine
 10
-118.94370905
 20
-224.54749753
 30
0.0
 11
-118.96373501
 21
-224.66271591
 31
0.0
  0
LINE
  5
4E
100
AcDbEntity
  8
LAYER0004
  6
CONTINUOUS
 62
       7
100
AcDbLine
 10
-118.96373501
 20
-224.66271591
 30
0.0
 11
-118.9850829
 21
-224.77778045
 31
0.0
  0
LINE
  5
4F
100
AcDbEntity
  8
LAYER0004
  6
CONTINUOUS
 62
       7
100
AcDbLine
 10
-118.9850829
 20
-224.77778045
 30
0.0
 11
-119.00764255
 21
-224.89270398
 31
0.0
  0
LINE
  5
50
100
AcDbEntity
  8
LAYER0004
  6
CONTINUOUS
 62
       7
100
AcDbLine
 10
-119.00764255
 20
-224.89270398
 30
0.0
 11
-119.0313038
 21
-225.00749932
 31
0.0
  0
LINE
  5
51
100
AcDbEntity
  8
LAYER0004
  6
CONTINUOUS
 62
       7
100
AcDbLine
 10
-119.0313038
 20
-225.00749932
 30
0.0
 11
-119.0559565
 21
-225.12217928
 31
0.0
  0
LINE
  5
52
100
AcDbEntity
  8
LAYER0004
  6
CONTINUOUS
 62
       7
100
AcDbLine
 10
-119.0559565
 20
-225.12217928
 30
0.0
 11
-119.08149047
 21
-225.23675668
 31
0.0
  0
LINE
  5
53
100
AcDbEntity
  8
LAYER0004
  6
CONTINUOUS
 62
       7
100
AcDbLine
 10
-119.08149047
 20
-225.23675668
 30
0.0
 11
-119.10779557
 21
-225.35124436
 31
0.0
  0
LINE
  5
54
100
AcDbEntity
  8
LAYER0004
  6
CONTINUOUS
 62
       7
100
AcDbLine
 10
-119.10779557
 20
-225.35124436
 30
0.0
 11
-119.13476162
 21
-225.46565511
 31
0.0
  0
LINE
  5
55
100
AcDbEntity
  8
LAYER0004
  6
CONTINUOUS
 62
       7
100
AcDbLine
 10
-119.13476162
 20
-225.46565511
 30
0.0
 11
-119.16227848
 21
-225.58000177
 31
0.0
  0
LINE
  5
56
100
AcDbEntity
  8
LAYER0004
  6
CONTINUOUS
 62
       7
100
AcDbLine
 10
-119.16227848
 20
-225.58000177
 30
0.0
 11
-119.19023598
 21
-225.69429715
 31
0.0
  0
LINE
  5
57
100
AcDbEntity
  8
LAYER0004
  6
CONTINUOUS
 62
       7
100
AcDbLine
 10
-119.19023598
 20
-225.69429715
 30
0.0
 11
-119.21852396
 21
-225.80855407
 31
0.0
  0
LINE
  5
58
100
AcDbEntity
  8
LAYER0004
  6
CONTINUOUS
 62
       7
100
AcDbLine
 10
-119.21852396
 20
-225.80855407
 30
0.0
 11
-119.24703226
 21
-225.92278535
 31
0.0
  0
LINE
  5
59
100
AcDbEntity
  8
LAYER0004
  6
CONTINUOUS
 62
       7
100
AcDbLine
 10
-119.24703226
 20
-225.92278535
 30
0.0
 11
-119.27565071
 21
-226.03700381
 31
0.0
  0
ENDBLK
  5
5A
100
AcDbEntity
  8
0
100
AcDbBlockEnd
  0
BLOCK
  5
5B
100
AcDbEntity
  8
0
100
AcDbBlockBegin
  2
GROUP_2
 70
       0
 10
0.0
 20
0.0
 30
0.0
  3
GROUP_2
  1

  0
LINE
  5
5C
100
AcDbEntity
  8
LAYER0004
  6
CONTINUOUS
 62
       7
100
AcDbLine
 10
-118.82907036
 20
-227.48037941
 30
0.0
 11
-118.83003421
 21
-227.53885974
 31
0.0
  0
LINE
  5
5D
100
AcDbEntity
  8
LAYER0004
  6
CONTINUOUS
 62
       7
100
AcDbLine
 10
-118.83003421
 20
-227.53885974
 30
0.0
 11
-118.83220671
 21
-227.59728676
 31
0.0
  0
LINE
  5
5E
100
AcDbEntity
  8
LAYER0004
  6
CONTINUOUS
 62
       7
100
AcDbLine
 10
-118.83220671
 20
-227.59728676
 30
0.0
 11
-118.83639011
 21
-227.65562509
 31
0.0
  0
LINE
  5
5F
100
AcDbEntity
  8
LAYER0004
  6
CONTINUOUS
 62
       7
100
AcDbLine
 10
-118.83639011
 20
-227.65562509
 30
0.0
 11
-118.84258641
 21
-227.71387465
 31
0.0
  0
LINE
  5
60
100
AcDbEntity
  8
LAYER0004
  6
CONTINUOUS
 62
       7
100
AcDbLine
 10
-118.84258641
 20
-227.71387465
 30
0.0
 11
-118.85070413
 21
-227.77203948
 31
0.0
  0
LINE
  5
61
100
AcDbEntity
  8
LAYER0004
  6
CONTINUOUS
 62
       7
100
AcDbLine
 10
-118.85070413
 20
-227.77203948
 30
0.0
 11
-118.86065175
 21
-227.8301236
 31
0.0
  0
LINE
  5
62
100
AcDbEntity
  8
LAYER0004
  6
CONTINUOUS
 62
       7
100
AcDbLine
 10
-118.86065175
 20
-227.8301236
 30
0.0
 11
-118.87233779
 21
-227.88813106
 31
0.0
  0
LINE
  5
63
100
AcDbEntity
  8
LAYER0004
  6
CONTINUOUS
 62
       7
100
AcDbLine
 10
-118.87233779
 20
-227.88813106
 30
0.0
 11
-118.88567075
 21
-227.94606588
 31
0.0
  0
LINE
  5
64
100
AcDbEntity
  8
LAYER0004
  6
CONTINUOUS
 62
       7
100
AcDbLine
 10
-118.88567075
 20
-227.94606588
 30
0.0
 11
-118.90055914
 21
-228.00393211
 31
0.0
  0
LINE
  5
65
100
AcDbEntity
  8
LAYER0004
  6
CONTINUOUS
 62
       7
100
AcDbLine
 10
-118.90055914
 20
-228.00393211
 30
0.0
 11
-118.91691146
 21
-228.06173378
 31
0.0
  0
LINE
  5
66
100
AcDbEntity
  8
LAYER0004
  6
CONTINUOUS
 62
       7
100
AcDbLine
 10
-118.91691146
 20
-228.06173378
 30
0.0
 11
-118.93463621
 21
-228.11947492
 31
0.0
  0
LINE
  5
67
100
AcDbEntity
  8
LAYER0004
  6
CONTINUOUS
 62
       7
100
AcDbLine
 10
-118.93463621
 20
-228.11947492
 30
0.0
 11
-118.95364189
 21
-228.17715957
 31
0.0
  0
LINE
  5
68
100
AcDbEntity
  8
LAYER0004
  6
CONTINUOUS
 62
       7
100
AcDbLine
 10
-118.95364189
 20
-228.17715957
 30
0.0
 11
-118.97383702
 21
-228.23479176
 31
0.0
  0
LINE
  5
69
100
AcDbEntity
  8
LAYER0004
  6
CONTINUOUS
 62
       7
100
AcDbLine
 10
-118.97383702
 20
-228.23479176
 30
0.0
 11
-118.9951301
 21
-228.29237553
 31
0.0
  0
LINE
  5
6A
100
AcDbEntity
  8
LAYER0004
  6
CONTINUOUS
 62
       7
100
AcDbLine
 10
-118.9951301
 20
-228.29237553
 30
0.0
 11
-119.01742963
 21
-228.34991491
 31
0.0
  0
LINE
  5
6B
100
AcDbEntity
  8
LAYER0004
  6
CONTINUOUS
 62
       7
100
AcDbLine
 10
-119.01742963
 20
-228.34991491
 30
0.0
 11
-119.04064411
 21
-228.40741395
 31
0.0
  0
LINE
  5
6C
100
AcDbEntity
  8
LAYER0004
  6
CONTINUOUS
 62
       7
100
AcDbLine
 10
-119.04064411
 20
-228.40741395
 30
0.0
 11
-119.06468206
 21
-228.46487667
 31
0.0
  0
LINE
  5
6D
100
AcDbEntity
  8
LAYER0004
  6
CONTINUOUS
 62
       7
100
AcDbLine
 10
-119.06468206
 20
-228.46487667
 30
0.0
 11
-119.08945197
 21
-228.5223071
 31
0.0
  0
LINE
  5
6E
100
AcDbEntity
  8
LAYER0004
  6
CONTINUOUS
 62
       7
100
AcDbLine
 10
-119.08945197
 20
-228.5223071
 30
0.0
 11
-119.11486235
 21
-228.57970929
 31
0.0
  0
LINE
  5
6F
100
AcDbEntity
  8
LAYER0004
  6
CONTINUOUS
 62
       7
100
AcDbLine
 10
-119.11486235
 20
-228.57970929
 30
0.0
 11
-119.1408217
 21
-228.63708727
 31
0.0
  0
LINE
  5
70
100
AcDbEntity
  8
LAYER0004
  6
CONTINUOUS
 62
       7
100
AcDbLine
 10
-119.1408217
 20
-228.63708727
 30
0.0
 11
-119.16723853
 21
-228.69444508
 31
0.0
  0
LINE
  5
71
100
AcDbEntity
  8
LAYER0004
  6
CONTINUOUS
 62
       7
100
AcDbLine
 10
-119.16723853
 20
-228.69444508
 30
0.0
 11
-119.19402134
 21
-228.75178674
 31
0.0
  0
LINE
  5
72
100
AcDbEntity
  8
LAYER0004
  6
CONTINUOUS
 62
       7
100
AcDbLine
 10
-119.19402134
 20
-228.75178674
 30
0.0
 11
-119.22107864
 21
-228.8091163
 31
0.0
  0
LINE
  5
73
100
AcDbEntity
  8
LAYER0004
  6
CONTINUOUS
 62
       7
100
AcDbLine
 10
-119.22107864
 20
-228.8091163
 30
0.0
 11
-119.24831893
 21
-228.86643779
 31
0.0
  0
LINE
  5
74
100
AcDbEntity
  8
LAYER0004
  6
CONTINUOUS
 62
       7
100
AcDbLine
 10
-119.24831893
 20
-228.86643779
 30
0.0
 11
-119.27565071
 21
-228.92375525
 31
0.0
  0
ENDBLK
  5
75
100
AcDbEntity
  8
0
100
AcDbBlockEnd
  0
BLOCK
  5
76
100
AcDbEntity
  8
0
100
AcDbBlockBegin
  2
GROUP_3
 70
       0
 10
0.0
 20
0.0
 30
0.0
  3
GROUP_3
  1

  0
LINE
  5
77
100
AcDbEntity
  8
LAYER0004
  6
CONTINUOUS
 62
       7
100
AcDbLine
 10
-118.82907036
 20
-218.82012535
 30
0.0
 11
-118.83003421
 21
-218.76164502
 31
0.0
  0
LINE
  5
78
100
AcDbEntity
  8
LAYER0004
  6
CONTINUOUS
 62
       7
100
AcDbLine
 10
-118.83003421
 20
-218.76164502
 30
0.0
 11
-118.83220671
 21
-218.703218
 31
0.0
  0
LINE
  5
79
100
AcDbEntity
  8
LAYER0004
  6
CONTINUOUS
 62
       7
100
AcDbLine
 10
-118.83220671
 20
-218.703218
 30
0.0
 11
-118.83639011
 21
-218.64487967
 31
0.0
  0
LINE
  5
7A
100
AcDbEntity
  8
LAYER0004
  6
CONTINUOUS
 62
       7
100
AcDbLine
 10
-118.83639011
 20
-218.64487967
 30
0.0
 11
-118.84258641
 21
-218.58663011
 31
0.0
  0
LINE
  5
7B
100
AcDbEntity
  8
LAYER0004
  6
CONTINUOUS
 62
       7
100
AcDbLine
 10
-118.84258641
 20
-218.58663011
 30
0.0
 11
-118.85070413
 21
-218.52846528
 31
0.0
  0
LINE
  5
7C
100
AcDbEntity
  8
LAYER0004
  6
CONTINUOUS
 62
       7
100
AcDbLine
 10
-118.85070413
 20
-218.52846528
 30
0.0
 11
-118.86065175
 21
-218.47038116
 31
0.0
  0
LINE
  5
7D
100
AcDbEntity
  8
LAYER0004
  6
CONTINUOUS
 62
       7
100
AcDbLine
 10
-118.86065175
 20
-218.47038116
 30
0.0
 11
-118.87233779
 21
-218.4123737
 31
0.0
  0
LINE
  5
7E
100
AcDbEntity
  8
LAYER0004
  6
CONTINUOUS
 62
       7
100
AcDbLine
 10
-118.87233779
 20
-218.4123737
 30
0.0
 11
-118.88567075
 21
-218.35443888
 31
0.0
  0
LINE
  5
7F
100
AcDbEntity
  8
LAYER0004
  6
CONTINUOUS
 62
       7
100
AcDbLine
 10
-118.88567075
 20
-218.35443888
 30
0.0
 11
-118.90055914
 21
-218.29657265
 31
0.0
  0
LINE
  5
80
100
AcDbEntity
  8
LAYER0004
  6
CONTINUOUS
 62
       7
100
AcDbLine
 10
-118.90055914
 20
-218.29657265
 30
0.0
 11
-118.91691146
 21
-218.23877098
 31
0.0
  0
LINE
  5
81
100
AcDbEntity
  8
LAYER0004
  6
CONTINUOUS
 62
       7
100
AcDbLine
 10
-118.91691146
 20
-218.23877098
 30
0.0
 11
-118.93463621
 21
-218.18102984
 31
0.0
  0
LINE
  5
82
100
AcDbEntity
  8
LAYER0004
  6
CONTINUOUS
 62
       7
100
AcDbLine
 10
-118.93463621
 20
-218.18102984
 30
0.0
 11
-118.95364189
 21
-218.12334519
 31
0.0
  0
LINE
  5
83
100
AcDbEntity
  8
LAYER0004
  6
CONTINUOUS
 62
       7
100
AcDbLine
 10
-118.95364189
 20
-218.12334519
 30
0.0
 11
-118.97383702
 21
-218.065713
 31
0.0
  0
LINE
  5
84
100
AcDbEntity
  8
LAYER0004
  6
CONTINUOUS
 62
       7
100
AcDbLine
 10
-118.97383702
 20
-218.065713
 30
0.0
 11
-118.9951301
 21
-218.00812923
 31
0.0
  0
LINE
  5
85
100
AcDbEntity
  8
LAYER0004
  6
CONTINUOUS
 62
       7
100
AcDbLine
 10
-118.9951301
 20
-218.00812923
 30
0.0
 11
-119.01742963
 21
-217.95058985
 31
0.0
  0
LINE
  5
86
100
AcDbEntity
  8
LAYER0004
  6
CONTINUOUS
 62
       7
100
AcDbLine
 10
-119.01742963
 20
-217.95058985
 30
0.0
 11
-119.04064411
 21
-217.89309081
 31
0.0
  0
LINE
  5
87
100
AcDbEntity
  8
LAYER0004
  6
CONTINUOUS
 62
       7
100
AcDbLine
 10
-119.04064411
 20
-217.89309081
 30
0.0
 11
-119.06468206
 21
-217.83562809
 31
0.0
  0
LINE
  5
88
100
AcDbEntity
  8
LAYER0004
  6
CONTINUOUS
 62
       7
100
AcDbLine
 10
-119.06468206
 20
-217.83562809
 30
0.0
 11
-119.08945197
 21
-217.77819766
 31
0.0
  0
LINE
  5
89
100
AcDbEntity
  8
LAYER0004
  6
CONTINUOUS
 62
       7
100
AcDbLine
 10
-119.08945197
 20
-217.77819766
 30
0.0
 11
-119.11486235
 21
-217.72079547
 31
0.0
  0
LINE
  5
8A
100
AcDbEntity
  8
LAYER0004
  6
CONTINUOUS
 62
       7
100
AcDbLine
 10
-119.11486235
 20
-217.72079547
 30
0.0
 11
-119.1408217
 21
-217.66341749
 31
0.0
  0
LINE
  5
8B
100
AcDbEntity
  8
LAYER0004
  6
CONTINUOUS
 62
       7
100
AcDbLine
 10
-119.1408217
 20
-217.66341749
 30
0.0
 11
-119.16723853
 21
-217.60605968
 31
0.0
  0
LINE
  5
8C
100
AcDbEntity
  8
LAYER0004
  6
CONTINUOUS
 62
       7
100
AcDbLine
 10
-119.16723853
 20
-217.60605968
 30
0.0
 11
-119.19402134
 21
-217.54871802
 31
0.0
  0
LINE
  5
8D
100
AcDbEntity
  8
LAYER0004
  6
CONTINUOUS
 62
       7
100
AcDbLine
 10
-119.19402134
 20
-217.54871802
 30
0.0
 11
-119.22107864
 21
-217.49138846
 31
0.0
  0
LINE
  5
8E
100
AcDbEntity
  8
LAYER0004
  6
CONTINUOUS
 62
       7
100
AcDbLine
 10
-119.22107864
 20
-217.49138846
 30
0.0
 11
-119.24831893
 21
-217.43406697
 31
0.0
  0
LINE
  5
8F
100
AcDbEntity
  8
LAYER0004
  6
CONTINUOUS
 62
       7
100
AcDbLine
 10
-119.24831893
 20
-217.43406697
 30
0.0
 11
-119.27565071
 21
-217.37674951
 31
0.0
  0
ENDBLK
  5
90
100
AcDbEntity
  8
0
100
AcDbBlockEnd
  0
BLOCK
  5
91
100
AcDbEntity
  8
0
100
AcDbBlockBegin
  2
GROUP_4
 70
       0
 10
0.0
 20
0.0
 30
0.0
  3
GROUP_4
  1

  0
LINE
  5
92
100
AcDbEntity
  8
LAYER0004
  6
CONTINUOUS
 62
       7
100
AcDbLine
 10
-118.82907036
 20
-223.15025238
 30
0.0
 11
-118.83184911
 21
-223.03302693
 31
0.0
  0
LINE
  5
93
100
AcDbEntity
  8
LAYER0004
  6
CONTINUOUS
 62
       7
100
AcDbLine
 10
-118.83184911
 20
-223.03302693
 30
0.0
 11
-118.83496327
 21
-222.91584052
 31
0.0
  0
LINE
  5
94
100
AcDbEntity
  8
LAYER0004
  6
CONTINUOUS
 62
       7
100
AcDbLine
 10
-118.83496327
 20
-222.91584052
 30
0.0
 11
-118.83874824
 21
-222.79873217
 31
0.0
  0
LINE
  5
95
100
AcDbEntity
  8
LAYER0004
  6
CONTINUOUS
 62
       7
100
AcDbLine
 10
-118.83874824
 20
-222.79873217
 30
0.0
 11
-118.84353944
 21
-222.68174092
 31
0.0
  0
LINE
  5
96
100
AcDbEntity
  8
LAYER0004
  6
CONTINUOUS
 62
       7
100
AcDbLine
 10
-118.84353944
 20
-222.68174092
 30
0.0
 11
-118.84967227
 21
-222.56490579
 31
0.0
  0
LINE
  5
97
100
AcDbEntity
  8
LAYER0004
  6
CONTINUOUS
 62
       7
100
AcDbLine
 10
-118.84967227
 20
-222.56490579
 30
0.0
 11
-118.85748215
 21
-222.44826582
 31
0.0
  0
LINE
  5
98
100
AcDbEntity
  8
LAYER0004
  6
CONTINUOUS
 62
       7
100
AcDbLine
 10
-118.85748215
 20
-222.44826582
 30
0.0
 11
-118.86726366
 21
-222.33185529
 31
0.0
  0
LINE
  5
99
100
AcDbEntity
  8
LAYER0004
  6
CONTINUOUS
 62
       7
100
AcDbLine
 10
-118.86726366
 20
-222.33185529
 30
0.0
 11
-118.87902761
 21
-222.21567545
 31
0.0
  0
LINE
  5
9A
100
AcDbEntity
  8
LAYER0004
  6
CONTINUOUS
 62
       7
100
AcDbLine
 10
-118.87902761
 20
-222.21567545
 30
0.0
 11
-118.89266428
 21
-222.09971355
 31
0.0
  0
LINE
  5
9B
100
AcDbEntity
  8
LAYER0004
  6
CONTINUOUS
 62
       7
100
AcDbLine
 10
-118.89266428
 20
-222.09971355
 30
0.0
 11
-118.90806352
 21
-221.98395676
 31
0.0
  0
LINE
  5
9C
100
AcDbEntity
  8
LAYER0004
  6
CONTINUOUS
 62
       7
100
AcDbLine
 10
-118.90806352
 20
-221.98395676
 30
0.0
 11
-118.92511516
 21
-221.86839226
 31
0.0
  0
LINE
  5
9D
100
AcDbEntity
  8
LAYER0004
  6
CONTINUOUS
 62
       7
100
AcDbLine
 10
-118.92511516
 20
-221.86839226
 30
0.0
 11
-118.94370905
 21
-221.75300723
 31
0.0
  0
LINE
  5
9E
100
AcDbEntity
  8
LAYER0004
  6
CONTINUOUS
 62
       7
100
AcDbLine
 10
-118.94370905
 20
-221.75300723
 30
0.0
 11
-118.96373501
 21
-221.63778885
 31
0.0
  0
LINE
  5
9F
100
AcDbEntity
  8
LAYER0004
  6
CONTINUOUS
 62
       7
100
AcDbLine
 10
-118.96373501
 20
-221.63778885
 30
0.0
 11
-118.9850829
 21
-221.52272431
 31
0.0
  0
LINE
  5
A0
100
AcDbEntity
  8
LAYER0004
  6
CONTINUOUS
 62
       7
100
AcDbLine
 10
-118.9850829
 20
-221.52272431
 30
0.0
 11
-119.00764255
 21
-221.40780078
 31
0.0
  0
LINE
  5
A1
100
AcDbEntity
  8
LAYER0004
  6
CONTINUOUS
 62
       7
100
AcDbLine
 10
-119.00764255
 20
-221.40780078
 30
0.0
 11
-119.0313038
 21
-221.29300544
 31
0.0
  0
LINE
  5
A2
100
AcDbEntity
  8
LAYER0004
  6
CONTINUOUS
 62
       7
100
AcDbLine
 10
-119.0313038
 20
-221.29300544
 30
0.0
 11
-119.0559565
 21
-221.17832548
 31
0.0
  0
LINE
  5
A3
100
AcDbEntity
  8
LAYER0004
  6
CONTINUOUS
 62
       7
100
AcDbLine
 10
-119.0559565
 20
-221.17832548
 30
0.0
 11
-119.08149047
 21
-221.06374808
 31
0.0
  0
LINE
  5
A4
100
AcDbEntity
  8
LAYER0004
  6
CONTINUOUS
 62
       7
100
AcDbLine
 10
-119.08149047
 20
-221.06374808
 30
0.0
 11
-119.10779557
 21
-220.9492604
 31
0.0
  0
LINE
  5
A5
100
AcDbEntity
  8
LAYER0004
  6
CONTINUOUS
 62
       7
100
AcDbLine
 10
-119.10779557
 20
-220.9492604
 30
0.0
 11
-119.13476162
 21
-220.83484965
 31
0.0
  0
LINE
  5
A6
100
AcDbEntity
  8
LAYER0004
  6
CONTINUOUS
 62
       7
100
AcDbLine
 10
-119.13476162
 20
-220.83484965
 30
0.0
 11
-119.16227848
 21
-220.72050299
 31
0.0
  0
LINE
  5
A7
100
AcDbEntity
  8
LAYER0004
  6
CONTINUOUS
 62
       7
100
AcDbLine
 10
-119.16227848
 20
-220.72050299
 30
0.0
 11
-119.19023598
 21
-220.60620761
 31
0.0
  0
LINE
  5
A8
100
AcDbEntity
  8
LAYER0004
  6
CONTINUOUS
 62
       7
100
AcDbLine
 10
-119.19023598
 20
-220.60620761
 30
0.0
 11
-119.21852396
 21
-220.49195069
 31
0.0
  0
LINE
  5
A9
100
AcDbEntity
  8
LAYER0004
  6
CONTINUOUS
 62
       7
100
AcDbLine
 10
-119.21852396
 20
-220.49195069
 30
0.0
 11
-119.24703226
 21
-220.37771941
 31
0.0
  0
LINE
  5
AA
100
AcDbEntity
  8
LAYER0004
  6
CONTINUOUS
 62
       7
100
AcDbLine
 10
-119.24703226
 20
-220.37771941
 30
0.0
 11
-119.27565071
 21
-220.26350095
 31
0.0
  0
ENDBLK
  5
AB
100
AcDbEntity
  8
0
100
AcDbBlockEnd
  0
ENDSEC
  0
SECTION
  2
ENTITIES
  0
LINE
  5
AC
100
AcDbEntity
  8
LAYER0003
  6
CONTINUOUS
 62
       7
100
AcDbLine
 10
-153.87906957
 20
-111.45406193
 30
0.0
 11
-153.87906957
 21
-110.75406196
 31
0.0
  0
LINE
  5
AD
100
AcDbEntity
  8
LAYER0003
  6
CONTINUOUS
 62
       7
100
AcDbLine
 10
-160.87907072
 20
-115.25406188
 30
0.0
 11
-160.87907072
 21
-120.25406177
 31
0.0
  0
LINE
  5
AE
100
AcDbEntity
  8
LAYER0003
  6
CONTINUOUS
 62
       7
100
AcDbLine
 10
-153.87906957
 20
-110.75406196
 30
0.0
 11
-163.87906935
 21
-110.75406196
 31
0.0
  0
LINE
  5
AF
100
AcDbEntity
  8
LAYER0003
  6
CONTINUOUS
 62
       7
100
AcDbLine
 10
-158.87907039
 20
-114.94145461
 30
0.0
 11
-158.87907039
 21
-111.45406193
 31
0.0
  0
LINE
  5
B0
100
AcDbEntity
  8
LAYER0003
  6
CONTINUOUS
 62
       7
100
AcDbLine
 10
-162.37907003
 20
-115.25406188
 30
0.0
 11
-162.37907003
 21
-111.45406193
 31
0.0
  0
LINE
  5
B1
100
AcDbEntity
  8
LAYER0003
  6
CONTINUOUS
 62
       7
100
AcDbLine
 10
-160.87907072
 20
-120.25406177
 30
0.0
 11
-156.87907006
 21
-120.25406177
 31
0.0
  0
LINE
  5
B2
100
AcDbEntity
  8
LAYER0003
  6
CONTINUOUS
 62
       7
100
AcDbLine
 10
-163.87906935
 20
-110.75406196
 30
0.0
 11
-163.87906935
 21
-111.45406193
 31
0.0
  0
LINE
  5
B3
100
AcDbEntity
  8
LAYER0003
  6
CONTINUOUS
 62
       7
100
AcDbLine
 10
-156.87907006
 20
-120.25406177
 30
0.0
 11
-156.87907006
 21
-115.25406188
 31
0.0
  0
LINE
  5
B4
100
AcDbEntity
  8
LAYER0003
  6
CONTINUOUS
 62
       7
100
AcDbLine
 10
-153.87906957
 20
-111.45406193
 30
0.0
 11
-163.87906935
 21
-111.45406193
 31
0.0
  0
LINE
  5
B5
100
AcDbEntity
  8
LAYER0003
  6
CONTINUOUS
 62
       7
100
AcDbLine
 10
-155.37906981
 20
-115.25406188
 30
0.0
 11
-155.37906981
 21
-111.45406193
 31
0.0
  0
LINE
  5
B6
100
AcDbEntity
  8
LAYER0003
  6
CONTINUOUS
 62
       7
100
AcDbLine
 10
-155.37906981
 20
-115.25406188
 30
0.0
 11
-162.37907003
 21
-115.25406188
 31
0.0
  0
LINE
  5
B7
100
AcDbEntity
  8
LAYER0003
  6
CONTINUOUS
 62
       7
100
AcDbLine
 10
-135.25952267
 20
-111.45406193
 30
0.0
 11
-135.25952267
 21
-110.75406196
 31
0.0
  0
LINE
  5
B8
100
AcDbEntity
  8
LAYER0003
  6
CONTINUOUS
 62
       7
100
AcDbLine
 10
-142.25952382
 20
-115.25406188
 30
0.0
 11
-142.25952382
 21
-120.25406177
 31
0.0
  0
LINE
  5
B9
100
AcDbEntity
  8
LAYER0003
  6
CONTINUOUS
 62
       7
100
AcDbLine
 10
-135.25952267
 20
-110.75406196
 30
0.0
 11
-145.25952245
 21
-110.75406196
 31
0.0
  0
LINE
  5
BA
100
AcDbEntity
  8
LAYER0003
  6
CONTINUOUS
 62
       7
100
AcDbLine
 10
-140.25952349
 20
-114.94145461
 30
0.0
 11
-140.25952349
 21
-111.45406193
 31
0.0
  0
LINE
  5
BB
100
AcDbEntity
  8
LAYER0003
  6
CONTINUOUS
 62
       7
100
AcDbLine
 10
-143.75952313
 20
-115.25406188
 30
0.0
 11
-143.75952313
 21
-111.45406193
 31
0.0
  0
LINE
  5
BC
100
AcDbEntity
  8
LAYER0003
  6
CONTINUOUS
 62
       7
100
AcDbLine
 10
-142.25952382
 20
-120.25406177
 30
0.0
 11
-138.25952316
 21
-120.25406177
 31
0.0
  0
LINE
  5
BD
100
AcDbEntity
  8
LAYER0003
  6
CONTINUOUS
 62
       7
100
AcDbLine
 10
-145.25952245
 20
-110.75406196
 30
0.0
 11
-145.25952245
 21
-111.45406193
 31
0.0
  0
LINE
  5
BE
100
AcDbEntity
  8
LAYER0003
  6
CONTINUOUS
 62
       7
100
AcDbLine
 10
-138.25952316
 20
-120.25406177
 30
0.0
 11
-138.25952316
 21
-115.25406188
 31
0.0
  0
LINE
  5
BF
100
AcDbEntity
  8
LAYER0003
  6
CONTINUOUS
 62
       7
100
AcDbLine
 10
-135.25952267
 20
-111.45406193
 30
0.0
 11
-145.25952245
 21
-111.45406193
 31
0.0
  0
LINE
  5
C0
100
AcDbEntity
  8
LAYER0003
  6
CONTINUOUS
 62
       7
100
AcDbLine
 10
-136.75952291
 20
-115.25406188
 30
0.0
 11
-136.75952291
 21
-111.45406193
 31
0.0
  0
LINE
  5
C1
100
AcDbEntity
  8
LAYER0003
  6
CONTINUOUS
 62
       7
100
AcDbLine
 10
-136.75952291
 20
-115.25406188
 30
0.0
 11
-143.75952313
 21
-115.25406188
 31
0.0
  0
LINE
  5
C2
100
AcDbEntity
  8
LAYER0004
  6
CONTINUOUS
 62
       7
100
AcDbLine
 10
-129.07907048
 20
-28.75406167
 30
0.0
 11
-129.07907048
 21
-28.21816376
 31
0.0
  0
LINE
  5
C3
100
AcDbEntity
  8
LAYER0004
  6
CONTINUOUS
 62
       7
100
AcDbLine
 10
-129.43633514
 20
-29.37286219
 30
0.0
 11
-129.07907048
 21
-28.21816376
 31
0.0
  0
LINE
  5
C4
100
AcDbEntity
  8
LAYER0004
  6
CONTINUOUS
 62
       7
100
AcDbLine
 10
-129.43633514
 20
-27.06346533
 30
0.0
 11
-129.88829294
 21
-27.06345788
 31
0.0
  0
LINE
  5
C5
100
AcDbEntity
  8
LAYER0004
  6
CONTINUOUS
 62
       7
100
AcDbLine
 10
-129.07907048
 20
-28.75406167
 30
0.0
 11
-129.43633514
 21
-29.37286219
 31
0.0
  0
LINE
  5
C6
100
AcDbEntity
  8
LAYER0004
  6
CONTINUOUS
 62
       7
100
AcDbLine
 10
-117.17906835
 20
-19.25406477
 30
0.0
 11
-117.52907055
 21
-19.25406477
 31
0.0
  0
LINE
  5
C7
100
AcDbEntity
  8
LAYER0004
  6
CONTINUOUS
 62
       7
100
AcDbLine
 10
-117.52907055
 20
-30.25406471
 30
0.0
 11
-117.17906835
 21
-30.25406471
 31
0.0
  0
LINE
  5
C8
100
AcDbEntity
  8
LAYER0004
  6
CONTINUOUS
 62
       7
100
AcDbLine
 10
-118.8290702
 20
-27.92905888
 30
0.0
 11
-117.52907055
 21
-27.92905888
 31
0.0
  0
LINE
  5
C9
100
AcDbEntity
  8
LAYER0004
  6
CONTINUOUS
 62
       7
100
AcDbLine
 10
-117.52907055
 20
-21.57906315
 30
0.0
 11
-118.8290702
 21
-21.57906315
 31
0.0
  0
LINE
  5
CA
100
AcDbEntity
  8
LAYER0004
  6
CONTINUOUS
 62
       7
100
AcDbLine
 10
-103.07907229
 20
-24.75406052
 30
0.0
 11
-103.07907229
 21
-18.65406206
 31
0.0
  0
LINE
  5
CB
100
AcDbEntity
  8
LAYER0004
  6
CONTINUOUS
 62
       7
100
AcDbLine
 10
-117.17906835
 20
-31.25405928
 30
0.0
 11
-109.57907008
 21
-31.25405928
 31
0.0
  0
LINE
  5
CC
100
AcDbEntity
  8
LAYER0004
  6
CONTINUOUS
 62
       7
100
AcDbLine
 10
-103.5790691
 20
-18.65406206
 30
0.0
 11
-103.57907015
 21
-8.3986273
 31
0.0
  0
LINE
  5
CD
100
AcDbEntity
  8
LAYER0004
  6
CONTINUOUS
 62
       7
100
AcDbLine
 10
-115.57907015
 20
-8.3986273
 30
0.0
 11
-115.57907106
 21
-18.65406206
 31
0.0
  0
LINE
  5
CE
100
AcDbEntity
  8
LAYER0004
  6
CONTINUOUS
 62
       7
100
AcDbLine
 10
-103.80405254
 20
1.08516626
 30
0.0
 11
-104.05379401
 21
6.34593645
 31
0.0
  0
LINE
  5
CF
100
AcDbEntity
  8
LAYER0004
  6
CONTINUOUS
 62
       7
100
AcDbLine
 10
-115.10434614
 20
6.34593645
 30
0.0
 11
-115.35408775
 21
1.08516626
 31
0.0
  0
LINE
  5
D0
100
AcDbEntity
  8
LAYER0004
  6
CONTINUOUS
 62
       7
100
AcDbLine
 10
-104.10126539
 20
7.34593847
 30
0.0
 11
-104.17247431
 21
8.84594151
 31
0.0
  0
LINE
  5
D1
100
AcDbEntity
  8
LAYER0004
  6
CONTINUOUS
 62
       7
100
AcDbLine
 10
-114.98566585
 20
8.84594151
 30
0.0
 11
-115.05687477
 21
7.34593847
 31
0.0
  0
LINE
  5
D2
100
AcDbEntity
  8
LAYER0004
  6
CONTINUOUS
 62
       7
100
AcDbLine
 10
-104.21994569
 20
9.84593609
 30
0.0
 11
-104.29115461
 21
11.34593913
 31
0.0
  0
LINE
  5
D3
100
AcDbEntity
  8
LAYER0004
  6
CONTINUOUS
 62
       7
100
AcDbLine
 10
-114.86698555
 20
11.34593913
 30
0.0
 11
-114.93819447
 21
9.84593609
 31
0.0
  0
LINE
  5
D4
100
AcDbEntity
  8
LAYER0004
  6
CONTINUOUS
 62
       7
100
AcDbLine
 10
-104.33862971
 20
12.34594116
 30
0.0
 11
-106.07907044
 21
49.00815466
 31
0.0
  0
LINE
  5
D5
100
AcDbEntity
  8
LAYER0004
  6
CONTINUOUS
 62
       7
100
AcDbLine
 10
-113.07906972
 20
49.00815466
 30
0.0
 11
-114.81951045
 21
12.34594116
 31
0.0
  0
LINE
  5
D6
100
AcDbEntity
  8
LAYER0004
  6
CONTINUOUS
 62
       7
100
AcDbLine
 10
-104.55435755
 20
6.34593645
 30
0.0
 11
-104.60182892
 21
7.34593847
 31
0.0
  0
LINE
  5
D7
100
AcDbEntity
  8
LAYER0004
  6
CONTINUOUS
 62
       7
100
AcDbLine
 10
-114.55631124
 20
7.34593847
 30
0.0
 11
-114.60378261
 21
6.34593645
 31
0.0
  0
LINE
  5
D8
100
AcDbEntity
  8
LAYER0004
  6
CONTINUOUS
 62
       7
100
AcDbLine
 10
-104.67303785
 20
8.84594151
 30
0.0
 11
-104.72050922
 21
9.84593609
 31
0.0
  0
LINE
  5
D9
100
AcDbEntity
  8
LAYER0004
  6
CONTINUOUS
 62
       7
100
AcDbLine
 10
-114.43763094
 20
9.84593609
 30
0.0
 11
-114.48510231
 21
8.84594151
 31
0.0
  0
LINE
  5
DA
100
AcDbEntity
  8
LAYER0004
  6
CONTINUOUS
 62
       7
100
AcDbLine
 10
-104.79171814
 20
11.34593913
 30
0.0
 11
-104.83918952
 21
12.34594116
 31
0.0
  0
LINE
  5
DB
100
AcDbEntity
  8
LAYER0004
  6
CONTINUOUS
 62
       7
100
AcDbLine
 10
-114.31895064
 20
12.34594116
 30
0.0
 11
-114.36642202
 21
11.34593913
 31
0.0
  0
LINE
  5
DC
100
AcDbEntity
  8
LAYER0004
  6
CONTINUOUS
 62
       7
100
AcDbLine
 10
-182.49861578
 20
-110.75406196
 30
0.0
 11
-182.49861578
 21
-111.45406193
 31
0.0
  0
LINE
  5
DD
100
AcDbEntity
  8
LAYER0004
  6
CONTINUOUS
 62
       7
100
AcDbLine
 10
-172.498616
 20
-111.45406193
 30
0.0
 11
-172.498616
 21
-110.75406196
 31
0.0
  0
LINE
  5
DE
100
AcDbEntity
  8
LAYER0004
  6
CONTINUOUS
 62
       7
100
AcDbLine
 10
-129.07907048
 20
-20.75406036
 30
0.0
 11
-129.43633514
 21
-20.13525984
 31
0.0
  0
LINE
  5
DF
100
AcDbEntity
  8
LAYER0004
  6
CONTINUOUS
 62
       7
100
AcDbLine
 10
-128.87907081
 20
-16.80695883
 30
0.0
 11
-128.87907081
 21
40.24594404
 31
0.0
  0
LINE
  5
E0
100
AcDbEntity
  8
LAYER0004
  6
CONTINUOUS
 62
       7
100
AcDbLine
 10
-128.87907082
 20
-85.25406256
 30
0.0
 11
-128.87907082
 21
-32.64591716
 31
0.0
  0
LINE
  5
E1
100
AcDbEntity
  8
LAYER0004
  6
CONTINUOUS
 62
       7
100
AcDbLine
 10
-188.87906948
 20
40.24594404
 30
0.0
 11
-188.87906948
 21
-85.25406256
 31
0.0
  0
LINE
  5
E2
100
AcDbEntity
  8
LAYER0004
  6
CONTINUOUS
 62
       7
100
AcDbLine
 10
-179.49861715
 20
-109.75406191
 30
0.0
 11
-179.49861715
 21
-110.75406196
 31
0.0
  0
LINE
  5
E3
100
AcDbEntity
  8
LAYER0004
  6
CONTINUOUS
 62
       7
100
AcDbLine
 10
-179.49861715
 20
-115.25406188
 30
0.0
 11
-179.49861715
 21
-120.25406177
 31
0.0
  0
LINE
  5
E4
100
AcDbEntity
  8
LAYER0004
  6
CONTINUOUS
 62
       7
100
AcDbLine
 10
-175.49861649
 20
-120.25406177
 30
0.0
 11
-175.49861649
 21
-115.25406188
 31
0.0
  0
LINE
  5
E5
100
AcDbEntity
  8
LAYER0004
  6
CONTINUOUS
 62
       7
100
AcDbLine
 10
-175.49861649
 20
-110.75406196
 30
0.0
 11
-175.49861649
 21
-109.75406191
 31
0.0
  0
LINE
  5
E6
100
AcDbEntity
  8
LAYER0004
  6
CONTINUOUS
 62
       7
100
AcDbLine
 10
-142.25952381
 20
-109.75406191
 30
0.0
 11
-142.25952381
 21
-110.75406196
 31
0.0
  0
LINE
  5
E7
100
AcDbEntity
  8
LAYER0004
  6
CONTINUOUS
 62
       7
100
AcDbLine
 10
-138.25952316
 20
-110.75406196
 30
0.0
 11
-138.25952316
 21
-109.75406191
 31
0.0
  0
LINE
  5
E8
100
AcDbEntity
  8
LAYER0004
  6
CONTINUOUS
 62
       7
100
AcDbLine
 10
-160.87907025
 20
-109.75406191
 30
0.0
 11
-160.87907025
 21
-110.75406196
 31
0.0
  0
LINE
  5
E9
100
AcDbEntity
  8
LAYER0004
  6
CONTINUOUS
 62
       7
100
AcDbLine
 10
-156.87907006
 20
-110.75406196
 30
0.0
 11
-156.87907006
 21
-109.75406191
 31
0.0
  0
LINE
  5
EA
100
AcDbEntity
  8
LAYER0004
  6
CONTINUOUS
 62
       7
100
AcDbLine
 10
-128.87907082
 20
-109.75406192
 30
0.0
 11
-128.87907082
 21
-85.25406256
 31
0.0
  0
LINE
  5
EB
100
AcDbEntity
  8
LAYER0004
  6
CONTINUOUS
 62
       7
100
AcDbLine
 10
-188.87906948
 20
-85.25406256
 30
0.0
 11
-188.87906948
 21
-109.75406192
 31
0.0
  0
LINE
  5
EC
100
AcDbEntity
  8
LAYER0004
  6
CONTINUOUS
 62
       7
100
AcDbLine
 10
-133.87908236
 20
239.30035176
 30
0.0
 11
-133.87906989
 21
70.24593809
 31
0.0
  0
LINE
  5
ED
100
AcDbEntity
  8
LAYER0004
  6
CONTINUOUS
 62
       7
100
AcDbLine
 10
-175.38505847
 20
57.99593905
 30
0.0
 11
-142.37308184
 21
57.99593905
 31
0.0
  0
LINE
  5
EE
100
AcDbEntity
  8
LAYER0004
  6
CONTINUOUS
 62
       7
100
AcDbLine
 10
-176.8182596
 20
45.84593454
 30
0.0
 11
-176.8182596
 21
56.24593177
 31
0.0
  0
LINE
  5
EF
100
AcDbEntity
  8
LAYER0004
  6
CONTINUOUS
 62
       7
100
AcDbLine
 10
-175.38505847
 20
44.09594217
 30
0.0
 11
-142.37308184
 21
44.09594217
 31
0.0
  0
LINE
  5
F0
100
AcDbEntity
  8
LAYER0004
  6
CONTINUOUS
 62
       7
100
AcDbLine
 10
-140.9398807
 20
45.84593454
 30
0.0
 11
-140.9398807
 21
56.24593177
 31
0.0
  0
LINE
  5
F1
100
AcDbEntity
  8
LAYER0004
  6
CONTINUOUS
 62
       7
100
AcDbLine
 10
-128.87907081
 20
40.24594404
 30
0.0
 11
-188.87906948
 21
40.24594404
 31
0.0
  0
LINE
  5
F2
100
AcDbEntity
  8
LAYER0004
  6
CONTINUOUS
 62
       7
100
AcDbLine
 10
-127.17906998
 20
-24.75406101
 30
0.0
 11
-127.17906998
 21
-29.7540637
 31
0.0
  0
LINE
  5
F3
100
AcDbEntity
  8
LAYER0004
  6
CONTINUOUS
 62
       7
100
AcDbLine
 10
-119.27565055
 20
-29.7540637
 30
0.0
 11
-127.17906998
 21
-29.7540637
 31
0.0
  0
LINE
  5
F4
100
AcDbEntity
  8
LAYER0004
  6
CONTINUOUS
 62
       7
100
AcDbLine
 10
-118.8290702
 20
-22.2540634
 30
0.0
 11
-118.8290702
 21
-27.25405863
 31
0.0
  0
LINE
  5
F5
100
AcDbEntity
  8
LAYER0004
  6
CONTINUOUS
 62
       7
100
AcDbLine
 10
-119.27565055
 20
-19.75405833
 30
0.0
 11
-127.17906998
 21
-19.75405833
 31
0.0
  0
LINE
  5
F6
100
AcDbEntity
  8
LAYER0004
  6
CONTINUOUS
 62
       7
100
AcDbLine
 10
-127.17906998
 20
-19.75405833
 30
0.0
 11
-127.17906998
 21
-24.75406101
 31
0.0
  0
LINE
  5
F7
100
AcDbEntity
  8
LAYER0004
  6
CONTINUOUS
 62
       7
100
AcDbLine
 10
-117.52907055
 20
-19.25406477
 30
0.0
 11
-117.52907055
 21
-30.25406471
 31
0.0
  0
LINE
  5
F8
100
AcDbEntity
  8
LAYER0004
  6
CONTINUOUS
 62
       7
100
AcDbLine
 10
-118.8290702
 20
-27.25405863
 30
0.0
 11
-118.8290702
 21
-29.7540637
 31
0.0
  0
LINE
  5
F9
100
AcDbEntity
  8
LAYER0004
  6
CONTINUOUS
 62
       7
100
AcDbLine
 10
-118.8290702
 20
-19.75405833
 30
0.0
 11
-118.8290702
 21
-22.2540634
 31
0.0
  0
LINE
  5
FA
100
AcDbEntity
  8
LAYER0004
  6
CONTINUOUS
 62
       7
100
AcDbLine
 10
-109.57907008
 20
-18.65406206
 30
0.0
 11
-103.07907229
 21
-18.65406206
 31
0.0
  0
LINE
  5
FB
100
AcDbEntity
  8
LAYER0004
  6
CONTINUOUS
 62
       7
100
AcDbLine
 10
-117.17906835
 20
-18.65406206
 30
0.0
 11
-109.57907008
 21
-18.65406206
 31
0.0
  0
LINE
  5
FC
100
AcDbEntity
  8
LAYER0004
  6
CONTINUOUS
 62
       7
100
AcDbLine
 10
-117.17906835
 20
-18.65406206
 30
0.0
 11
-117.17906835
 21
-24.75406101
 31
0.0
  0
LINE
  5
FD
100
AcDbEntity
  8
LAYER0004
  6
CONTINUOUS
 62
       7
100
AcDbLine
 10
-117.17906835
 20
-24.75406101
 30
0.0
 11
-117.17906835
 21
-31.25405928
 31
0.0
  0
LINE
  5
FE
100
AcDbEntity
  8
LAYER0004
  6
CONTINUOUS
 62
       7
100
AcDbLine
 10
-104.05379401
 20
6.34593645
 30
0.0
 11
-115.10434614
 21
6.34593645
 31
0.0
  0
LINE
  5
FF
100
AcDbEntity
  8
LAYER0004
  6
CONTINUOUS
 62
       7
100
AcDbLine
 10
-104.10126539
 20
7.34593847
 30
0.0
 11
-115.05687477
 21
7.34593847
 31
0.0
  0
LINE
  5
100
100
AcDbEntity
  8
LAYER0004
  6
CONTINUOUS
 62
       7
100
AcDbLine
 10
-104.17247431
 20
8.84594151
 30
0.0
 11
-114.98566585
 21
8.84594151
 31
0.0
  0
LINE
  5
101
100
AcDbEntity
  8
LAYER0004
  6
CONTINUOUS
 62
       7
100
AcDbLine
 10
-104.29115461
 20
11.34593913
 30
0.0
 11
-114.86698555
 21
11.34593913
 31
0.0
  0
LINE
  5
102
100
AcDbEntity
  8
LAYER0004
  6
CONTINUOUS
 62
       7
100
AcDbLine
 10
-104.21994569
 20
9.84593609
 30
0.0
 11
-114.93819447
 21
9.84593609
 31
0.0
  0
LINE
  5
103
100
AcDbEntity
  8
LAYER0004
  6
CONTINUOUS
 62
       7
100
AcDbLine
 10
-104.33862971
 20
12.34594116
 30
0.0
 11
-114.81951045
 21
12.34594116
 31
0.0
  0
LINE
  5
104
100
AcDbEntity
  8
LAYER0004
  6
CONTINUOUS
 62
       7
100
AcDbLine
 10
-172.498616
 20
-110.75406196
 30
0.0
 11
-182.49861578
 21
-110.75406196
 31
0.0
  0
LINE
  5
105
100
AcDbEntity
  8
LAYER0004
  6
CONTINUOUS
 62
       7
100
AcDbLine
 10
-172.498616
 20
-111.45406193
 30
0.0
 11
-182.49861578
 21
-111.45406193
 31
0.0
  0
LINE
  5
106
100
AcDbEntity
  8
LAYER0004
  6
CONTINUOUS
 62
       7
100
AcDbLine
 10
-177.49861682
 20
-114.94145461
 30
0.0
 11
-177.49861682
 21
-111.45406193
 31
0.0
  0
LINE
  5
107
100
AcDbEntity
  8
LAYER0004
  6
CONTINUOUS
 62
       7
100
AcDbLine
 10
-173.99861624
 20
-115.25406188
 30
0.0
 11
-173.99861624
 21
-111.45406193
 31
0.0
  0
LINE
  5
108
100
AcDbEntity
  8
LAYER0004
  6
CONTINUOUS
 62
       7
100
AcDbLine
 10
-180.99861646
 20
-115.25406188
 30
0.0
 11
-180.99861646
 21
-111.45406193
 31
0.0
  0
LINE
  5
109
100
AcDbEntity
  8
LAYER0004
  6
CONTINUOUS
 62
       7
100
AcDbLine
 10
-173.99861624
 20
-115.25406188
 30
0.0
 11
-180.99861646
 21
-115.25406188
 31
0.0
  0
LINE
  5
10A
100
AcDbEntity
  8
LAYER0004
  6
CONTINUOUS
 62
       7
100
AcDbLine
 10
-188.87906948
 20
-107.75406181
 30
0.0
 11
-128.87907082
 21
-107.75406181
 31
0.0
  0
LINE
  5
10B
100
AcDbEntity
  8
LAYER0004
  6
CONTINUOUS
 62
       7
100
AcDbLine
 10
-188.87906948
 20
-109.75406192
 30
0.0
 11
-128.87907082
 21
-109.75406192
 31
0.0
  0
LINE
  5
10C
100
AcDbEntity
  8
LAYER0004
  6
CONTINUOUS
 62
       7
100
AcDbLine
 10
-171.62906991
 20
-32.75406232
 30
0.0
 11
-171.62906991
 21
15.24593809
 31
0.0
  0
LINE
  5
10D
100
AcDbEntity
  8
LAYER0004
  6
CONTINUOUS
 62
       7
100
AcDbLine
 10
-146.12907039
 20
15.24593809
 30
0.0
 11
-146.12907039
 21
-32.75406232
 31
0.0
  0
LINE
  5
10E
100
AcDbEntity
  8
LAYER0004
  6
CONTINUOUS
 62
       7
100
AcDbLine
 10
-129.07907048
 20
-24.75406101
 30
0.0
 11
-129.07907048
 21
-28.21816376
 31
0.0
  0
LINE
  5
10F
100
AcDbEntity
  8
LAYER0004
  6
CONTINUOUS
 62
       7
100
AcDbLine
 10
-129.07907048
 20
-24.75406101
 30
0.0
 11
-129.07907048
 21
-21.28995827
 31
0.0
  0
LINE
  5
110
100
AcDbEntity
  8
LAYER0004
  6
CONTINUOUS
 62
       7
100
AcDbLine
 10
-129.43633514
 20
-22.44466415
 30
0.0
 11
-129.88829294
 21
-22.44466415
 31
0.0
  0
LINE
  5
111
100
AcDbEntity
  8
LAYER0004
  6
CONTINUOUS
 62
       7
100
AcDbLine
 10
-129.43633514
 20
-20.13525984
 30
0.0
 11
-129.07907048
 21
-21.28995827
 31
0.0
  0
LINE
  5
112
100
AcDbEntity
  8
LAYER0004
  6
CONTINUOUS
 62
       7
100
AcDbLine
 10
-129.07907048
 20
-20.75406036
 30
0.0
 11
-129.07907048
 21
-21.28995827
 31
0.0
  0
LINE
  5
113
100
AcDbEntity
  8
LAYER0004
  6
CONTINUOUS
 62
       7
100
AcDbLine
 10
-179.49861715
 20
-120.25406177
 30
0.0
 11
-175.49861649
 21
-120.25406177
 31
0.0
  0
LINE
  5
114
100
AcDbEntity
  8
LAYER0004
  6
CONTINUOUS
 62
       7
100
AcDbLine
 10
-188.87906948
 20
-85.25406256
 30
0.0
 11
-128.87907082
 21
-85.25406256
 31
0.0
  0
LINE
  5
115
100
AcDbEntity
  8
LAYER0004
  6
CONTINUOUS
 62
       7
100
AcDbLine
 10
-171.47349155
 20
-91.75406268
 30
0.0
 11
-146.28464876
 21
-91.75406268
 31
0.0
  0
LINE
  5
116
100
AcDbEntity
  8
LAYER0004
  6
CONTINUOUS
 62
       7
100
AcDbLine
 10
-172.83293473
 20
-92.75406098
 30
0.0
 11
-172.83293473
 21
-99.25406205
 31
0.0
  0
LINE
  5
117
100
AcDbEntity
  8
LAYER0004
  6
CONTINUOUS
 62
       7
100
AcDbLine
 10
-146.28464876
 20
-100.25406221
 30
0.0
 11
-171.47349155
 21
-100.25406221
 31
0.0
  0
LINE
  5
118
100
AcDbEntity
  8
LAYER0004
  6
CONTINUOUS
 62
       7
100
AcDbLine
 10
-144.92520558
 20
-92.75406098
 30
0.0
 11
-144.92520558
 21
-99.25406205
 31
0.0
  0
LINE
  5
119
100
AcDbEntity
  8
LAYER0004
  6
CONTINUOUS
 62
       7
100
AcDbLine
 10
-172.11379724
 20
-95.30406224
 30
0.0
 11
-172.11379724
 21
-96.70406172
 31
0.0
  0
LINE
  5
11A
100
AcDbEntity
  8
LAYER0004
  6
CONTINUOUS
 62
       7
100
AcDbLine
 10
-145.64434307
 20
-95.30406224
 30
0.0
 11
-145.64434307
 21
-96.70406172
 31
0.0
  0
LINE
  5
11B
100
AcDbEntity
  8
LAYER0004
  6
CONTINUOUS
 62
       7
100
AcDbLine
 10
-172.11379724
 20
-96.70406172
 30
0.0
 11
-145.64434307
 21
-96.70406172
 31
0.0
  0
LINE
  5
11C
100
AcDbEntity
  8
LAYER0004
  6
CONTINUOUS
 62
       7
100
AcDbLine
 10
-172.11379724
 20
-95.30406224
 30
0.0
 11
-145.64434307
 21
-95.30406224
 31
0.0
  0
LINE
  5
11D
100
AcDbEntity
  8
LAYER0004
  6
CONTINUOUS
 62
       7
100
AcDbLine
 10
-150.37906969
 20
-100.25406221
 30
0.0
 11
-150.37906969
 21
-96.70406172
 31
0.0
  0
LINE
  5
11E
100
AcDbEntity
  8
LAYER0004
  6
CONTINUOUS
 62
       7
100
AcDbLine
 10
-150.37906969
 20
-95.30406224
 30
0.0
 11
-150.37906969
 21
-91.75406268
 31
0.0
  0
LINE
  5
11F
100
AcDbEntity
  8
LAYER0004
  6
CONTINUOUS
 62
       7
100
AcDbLine
 10
-167.37907061
 20
-91.75406268
 30
0.0
 11
-167.37907061
 21
-95.30406224
 31
0.0
  0
LINE
  5
120
100
AcDbEntity
  8
LAYER0004
  6
CONTINUOUS
 62
       7
100
AcDbLine
 10
-167.37907061
 20
-96.70406172
 30
0.0
 11
-167.37907061
 21
-100.25406221
 31
0.0
  0
LINE
  5
121
100
AcDbEntity
  8
LAYER0004
  6
CONTINUOUS
 62
       7
100
AcDbLine
 10
68.3137872
 20
40.24594407
 30
0.0
 11
68.31378759
 21
68.49455252
 31
0.0
  0
LINE
  5
122
100
AcDbEntity
  8
LAYER0004
  6
CONTINUOUS
 62
       7
100
AcDbLine
 10
8.31378813
 20
68.49455252
 30
0.0
 11
8.31378853
 21
40.24594407
 31
0.0
  0
LINE
  5
123
100
AcDbEntity
  8
LAYER0004
  6
CONTINUOUS
 62
       7
100
AcDbLine
 10
44.31378786
 20
-18.65406206
 30
0.0
 11
44.31378786
 21
-8.3986273
 31
0.0
  0
LINE
  5
124
100
AcDbEntity
  8
LAYER0004
  6
CONTINUOUS
 62
       7
100
AcDbLine
 10
32.31378786
 20
-8.3986273
 30
0.0
 11
32.31378786
 21
-18.65406206
 31
0.0
  0
LINE
  5
125
100
AcDbEntity
  8
LAYER0004
  6
CONTINUOUS
 62
       7
100
AcDbLine
 10
44.08880547
 20
1.08516626
 30
0.0
 11
43.83906439
 21
6.34593645
 31
0.0
  0
LINE
  5
126
100
AcDbEntity
  8
LAYER0004
  6
CONTINUOUS
 62
       7
100
AcDbLine
 10
32.78851133
 20
6.34593645
 30
0.0
 11
32.53877026
 21
1.08516626
 31
0.0
  0
LINE
  5
127
100
AcDbEntity
  8
LAYER0004
  6
CONTINUOUS
 62
       7
100
AcDbLine
 10
43.79159162
 20
7.34593847
 30
0.0
 11
43.72038316
 21
8.84594151
 31
0.0
  0
LINE
  5
128
100
AcDbEntity
  8
LAYER0004
  6
CONTINUOUS
 62
       7
100
AcDbLine
 10
32.90719256
 20
8.84594151
 30
0.0
 11
32.8359841
 21
7.34593847
 31
0.0
  0
LINE
  5
129
100
AcDbEntity
  8
LAYER0004
  6
CONTINUOUS
 62
       7
100
AcDbLine
 10
43.67291086
 20
9.84593609
 30
0.0
 11
43.6017024
 21
11.34593913
 31
0.0
  0
LINE
  5
12A
100
AcDbEntity
  8
LAYER0004
  6
CONTINUOUS
 62
       7
100
AcDbLine
 10
33.02587333
 20
11.34593913
 30
0.0
 11
32.95466487
 21
9.84593609
 31
0.0
  0
LINE
  5
12B
100
AcDbEntity
  8
LAYER0004
  6
CONTINUOUS
 62
       7
100
AcDbLine
 10
43.55423009
 20
12.34594116
 30
0.0
 11
41.81378797
 21
49.00815466
 31
0.0
  0
LINE
  5
12C
100
AcDbEntity
  8
LAYER0004
  6
CONTINUOUS
 62
       7
100
AcDbLine
 10
34.81378775
 20
49.00815466
 30
0.0
 11
33.07334563
 21
12.34594116
 31
0.0
  0
LINE
  5
12D
100
AcDbEntity
  8
LAYER0004
  6
CONTINUOUS
 62
       7
100
AcDbLine
 10
43.33850086
 20
6.34593645
 30
0.0
 11
43.29102856
 21
7.34593847
 31
0.0
  0
LINE
  5
12E
100
AcDbEntity
  8
LAYER0004
  6
CONTINUOUS
 62
       7
100
AcDbLine
 10
33.33654717
 20
7.34593847
 30
0.0
 11
33.28907486
 21
6.34593645
 31
0.0
  0
LINE
  5
12F
100
AcDbEntity
  8
LAYER0004
  6
CONTINUOUS
 62
       7
100
AcDbLine
 10
43.2198201
 20
8.84594151
 30
0.0
 11
43.17234779
 21
9.84593609
 31
0.0
  0
LINE
  5
130
100
AcDbEntity
  8
LAYER0004
  6
CONTINUOUS
 62
       7
100
AcDbLine
 10
33.45522793
 20
9.84593609
 30
0.0
 11
33.40775563
 21
8.84594151
 31
0.0
  0
LINE
  5
131
100
AcDbEntity
  8
LAYER0004
  6
CONTINUOUS
 62
       7
100
AcDbLine
 10
43.10113933
 20
11.34593913
 30
0.0
 11
43.05366703
 21
12.34594116
 31
0.0
  0
LINE
  5
132
100
AcDbEntity
  8
LAYER0004
  6
CONTINUOUS
 62
       7
100
AcDbLine
 10
33.5739087
 20
12.34594116
 30
0.0
 11
33.52643639
 21
11.34593913
 31
0.0
  0
LINE
  5
133
100
AcDbEntity
  8
LAYER0004
  6
CONTINUOUS
 62
       7
100
AcDbLine
 10
8.69561629
 20
27.99593804
 30
0.0
 11
8.56378708
 21
27.99593804
 31
0.0
  0
LINE
  5
134
100
AcDbEntity
  8
LAYER0004
  6
CONTINUOUS
 62
       7
100
AcDbLine
 10
8.56378725
 20
-45.50406194
 30
0.0
 11
8.69561667
 21
-45.50406194
 31
0.0
  0
LINE
  5
135
100
AcDbEntity
  8
LAYER0004
  6
CONTINUOUS
 62
       7
100
AcDbLine
 10
6.91378905
 20
-43.63739362
 30
0.0
 11
8.16378786
 21
-45.30406191
 31
0.0
  0
LINE
  5
136
100
AcDbEntity
  8
LAYER0004
  6
CONTINUOUS
 62
       7
100
AcDbLine
 10
8.16378786
 20
27.79593809
 30
0.0
 11
6.91378905
 21
26.12926939
 31
0.0
  0
LINE
  5
137
100
AcDbEntity
  8
LAYER0004
  6
CONTINUOUS
 62
       7
100
AcDbLine
 10
68.3137872
 20
-85.25406253
 30
0.0
 11
68.3137872
 21
40.24594407
 31
0.0
  0
LINE
  5
138
100
AcDbEntity
  8
LAYER0004
  6
CONTINUOUS
 62
       7
100
AcDbLine
 10
8.31378853
 20
-46.79238666
 30
0.0
 11
8.31378853
 21
-85.25406253
 31
0.0
  0
LINE
  5
139
100
AcDbEntity
  8
LAYER0004
  6
CONTINUOUS
 62
       7
100
AcDbLine
 10
8.31378853
 20
40.24594407
 30
0.0
 11
8.31378853
 21
29.28426247
 31
0.0
  0
LINE
  5
13A
100
AcDbEntity
  8
LAYER0004
  6
CONTINUOUS
 62
       7
100
AcDbLine
 10
57.81378826
 20
-109.75406191
 30
0.0
 11
57.81378826
 21
-120.25406177
 31
0.0
  0
LINE
  5
13B
100
AcDbEntity
  8
LAYER0004
  6
CONTINUOUS
 62
       7
100
AcDbLine
 10
61.81378706
 20
-120.25406177
 30
0.0
 11
61.81378706
 21
-109.75406191
 31
0.0
  0
LINE
  5
13C
100
AcDbEntity
  8
LAYER0004
  6
CONTINUOUS
 62
       7
100
AcDbLine
 10
25.5637881
 20
-109.75406191
 30
0.0
 11
25.5637881
 21
-120.25406177
 31
0.0
  0
LINE
  5
13D
100
AcDbEntity
  8
LAYER0004
  6
CONTINUOUS
 62
       7
100
AcDbLine
 10
29.56378783
 20
-120.25406177
 30
0.0
 11
29.56378783
 21
-109.75406191
 31
0.0
  0
LINE
  5
13E
100
AcDbEntity
  8
LAYER0004
  6
CONTINUOUS
 62
       7
100
AcDbLine
 10
68.3137872
 20
-109.75406189
 30
0.0
 11
68.3137872
 21
-85.25406253
 31
0.0
  0
LINE
  5
13F
100
AcDbEntity
  8
LAYER0004
  6
CONTINUOUS
 62
       7
100
AcDbLine
 10
8.31378853
 20
-100.25406219
 30
0.0
 11
8.31378853
 21
-109.75406189
 31
0.0
  0
LINE
  5
140
100
AcDbEntity
  8
LAYER0004
  6
CONTINUOUS
 62
       7
100
AcDbLine
 10
8.31378853
 20
-85.25406253
 30
0.0
 11
8.31378853
 21
-91.75406266
 31
0.0
  0
LINE
  5
141
100
AcDbEntity
  8
LAYER0004
  6
CONTINUOUS
 62
       7
100
AcDbLine
 10
8.81378768
 20
-95.30406224
 30
0.0
 11
8.81378768
 21
-96.70406172
 31
0.0
  0
LINE
  5
142
100
AcDbEntity
  8
LAYER0004
  6
CONTINUOUS
 62
       7
100
AcDbLine
 10
11.19641072
 20
-91.75406268
 30
0.0
 11
11.19641072
 21
-95.30406224
 31
0.0
  0
LINE
  5
143
100
AcDbEntity
  8
LAYER0004
  6
CONTINUOUS
 62
       7
100
AcDbLine
 10
11.19641072
 20
-96.70406172
 30
0.0
 11
11.19641072
 21
-100.25406221
 31
0.0
  0
LINE
  5
144
100
AcDbEntity
  8
LAYER0004
  6
CONTINUOUS
 62
       7
100
AcDbLine
 10
8.31378853
 20
57.99593905
 30
0.0
 11
13.26279199
 21
57.99593905
 31
0.0
  0
LINE
  5
145
100
AcDbEntity
  8
LAYER0004
  6
CONTINUOUS
 62
       7
100
AcDbLine
 10
8.31378853
 20
44.09594217
 30
0.0
 11
13.26279199
 21
44.09594217
 31
0.0
  0
LINE
  5
146
100
AcDbEntity
  8
LAYER0004
  6
CONTINUOUS
 62
       7
100
AcDbLine
 10
14.2683
 20
45.84593454
 30
0.0
 11
14.2683
 21
56.24593177
 31
0.0
  0
LINE
  5
147
100
AcDbEntity
  8
LAYER0004
  6
CONTINUOUS
 62
       7
100
AcDbLine
 10
68.3137872
 20
40.24594407
 30
0.0
 11
42.22975064
 21
40.24594407
 31
0.0
  0
LINE
  5
148
100
AcDbEntity
  8
LAYER0004
  6
CONTINUOUS
 62
       7
100
AcDbLine
 10
34.3978251
 20
40.24594407
 30
0.0
 11
8.31378853
 21
40.24594407
 31
0.0
  0
LINE
  5
149
100
AcDbEntity
  8
LAYER0004
  6
CONTINUOUS
 62
       7
100
AcDbLine
 10
44.813788
 20
-24.75406101
 30
0.0
 11
44.813788
 21
-18.65406206
 31
0.0
  0
LINE
  5
14A
100
AcDbEntity
  8
LAYER0004
  6
CONTINUOUS
 62
       7
100
AcDbLine
 10
31.81378773
 20
-18.65406206
 30
0.0
 11
31.81378773
 21
-24.75406101
 31
0.0
  0
LINE
  5
14B
100
AcDbEntity
  8
LAYER0004
  6
CONTINUOUS
 62
       7
100
AcDbLine
 10
31.81378773
 20
-18.65406206
 30
0.0
 11
44.813788
 21
-18.65406206
 31
0.0
  0
LINE
  5
14C
100
AcDbEntity
  8
LAYER0004
  6
CONTINUOUS
 62
       7
100
AcDbLine
 10
43.83906439
 20
6.34593645
 30
0.0
 11
32.78851133
 21
6.34593645
 31
0.0
  0
LINE
  5
14D
100
AcDbEntity
  8
LAYER0004
  6
CONTINUOUS
 62
       7
100
AcDbLine
 10
43.79159162
 20
7.34593847
 30
0.0
 11
32.8359841
 21
7.34593847
 31
0.0
  0
LINE
  5
14E
100
AcDbEntity
  8
LAYER0004
  6
CONTINUOUS
 62
       7
100
AcDbLine
 10
43.72038316
 20
8.84594151
 30
0.0
 11
32.90719256
 21
8.84594151
 31
0.0
  0
LINE
  5
14F
100
AcDbEntity
  8
LAYER0004
  6
CONTINUOUS
 62
       7
100
AcDbLine
 10
43.6017024
 20
11.34593913
 30
0.0
 11
33.02587333
 21
11.34593913
 31
0.0
  0
LINE
  5
150
100
AcDbEntity
  8
LAYER0004
  6
CONTINUOUS
 62
       7
100
AcDbLine
 10
43.67291086
 20
9.84593609
 30
0.0
 11
32.95466487
 21
9.84593609
 31
0.0
  0
LINE
  5
151
100
AcDbEntity
  8
LAYER0004
  6
CONTINUOUS
 62
       7
100
AcDbLine
 10
43.55423009
 20
12.34594116
 30
0.0
 11
33.07334563
 21
12.34594116
 31
0.0
  0
LINE
  5
152
100
AcDbEntity
  8
LAYER0004
  6
CONTINUOUS
 62
       7
100
AcDbLine
 10
8.31378853
 20
-109.75406189
 30
0.0
 11
68.3137872
 21
-109.75406189
 31
0.0
  0
LINE
  5
153
100
AcDbEntity
  8
LAYER0004
  6
CONTINUOUS
 62
       7
100
AcDbLine
 10
8.31378853
 20
-107.75406181
 30
0.0
 11
68.31378719
 21
-107.75406181
 31
0.0
  0
LINE
  5
154
100
AcDbEntity
  8
LAYER0004
  6
CONTINUOUS
 62
       7
100
AcDbLine
 10
6.81378736
 20
-43.50405778
 30
0.0
 11
6.81378736
 21
25.99593351
 31
0.0
  0
LINE
  5
155
100
AcDbEntity
  8
LAYER0004
  6
CONTINUOUS
 62
       7
100
AcDbLine
 10
11.2767764
 20
19.28684991
 30
0.0
 11
11.2767764
 21
-36.79498155
 31
0.0
  0
LINE
  5
156
100
AcDbEntity
  8
LAYER0004
  6
CONTINUOUS
 62
       7
100
AcDbLine
 10
57.81378826
 20
-120.25406177
 30
0.0
 11
61.81378706
 21
-120.25406177
 31
0.0
  0
LINE
  5
157
100
AcDbEntity
  8
LAYER0004
  6
CONTINUOUS
 62
       7
100
AcDbLine
 10
25.5637881
 20
-120.25406177
 30
0.0
 11
29.56378783
 21
-120.25406177
 31
0.0
  0
LINE
  5
158
100
AcDbEntity
  8
LAYER0004
  6
CONTINUOUS
 62
       7
100
AcDbLine
 10
8.31378853
 20
-91.75406266
 30
0.0
 11
11.08548275
 21
-91.75406266
 31
0.0
  0
LINE
  5
159
100
AcDbEntity
  8
LAYER0004
  6
CONTINUOUS
 62
       7
100
AcDbLine
 10
11.08548275
 20
-100.25406219
 30
0.0
 11
8.31378853
 21
-100.25406219
 31
0.0
  0
LINE
  5
15A
100
AcDbEntity
  8
LAYER0004
  6
CONTINUOUS
 62
       7
100
AcDbLine
 10
11.75649694
 20
-92.75406096
 30
0.0
 11
11.75649694
 21
-99.25406203
 31
0.0
  0
LINE
  5
15B
100
AcDbEntity
  8
LAYER0004
  6
CONTINUOUS
 62
       7
100
AcDbLine
 10
8.31378853
 20
-85.25406253
 30
0.0
 11
68.3137872
 21
-85.25406253
 31
0.0
  0
LINE
  5
15C
100
AcDbEntity
  8
LAYER0004
  6
CONTINUOUS
 62
       7
100
AcDbLine
 10
8.81378768
 20
-96.70406172
 30
0.0
 11
11.75649694
 21
-96.70406172
 31
0.0
  0
LINE
  5
15D
100
AcDbEntity
  8
LAYER0004
  6
CONTINUOUS
 62
       7
100
AcDbLine
 10
8.81378768
 20
-95.30406224
 30
0.0
 11
11.75649694
 21
-95.30406224
 31
0.0
  0
LINE
  5
15E
100
AcDbEntity
  8
LAYER0004
  6
CONTINUOUS
 62
       7
100
AcDbLine
 10
-171.62906991
 20
-193.4002517
 30
0.0
 11
-171.62906991
 21
-195.99445259
 31
0.0
  0
LINE
  5
15F
100
AcDbEntity
  8
LAYER0004
  6
CONTINUOUS
 62
       7
100
AcDbLine
 10
-146.12906906
 20
-193.40025171
 30
0.0
 11
-146.12906906
 21
-195.9944526
 31
0.0
  0
LINE
  5
160
100
AcDbEntity
  8
LAYER0004
  6
CONTINUOUS
 62
       7
100
AcDbLine
 10
-146.32906901
 20
-193.00025248
 30
0.0
 11
-147.99573585
 21
-191.75025367
 31
0.0
  0
LINE
  5
161
100
AcDbEntity
  8
LAYER0004
  6
CONTINUOUS
 62
       7
100
AcDbLine
 10
-169.76240311
 20
-191.75025366
 30
0.0
 11
-171.42906995
 21
-193.00025247
 31
0.0
  0
LINE
  5
162
100
AcDbEntity
  8
LAYER0004
  6
CONTINUOUS
 62
       7
100
AcDbLine
 10
-169.46240315
 20
-191.65025338
 30
0.0
 11
-148.29573581
 21
-191.65025338
 31
0.0
  0
LINE
  5
163
100
AcDbEntity
  8
LAYER0004
  6
CONTINUOUS
 62
       7
100
AcDbLine
 10
-160.37907016
 20
51.7959384
 30
0.0
 11
-157.37907014
 21
51.7959384
 31
0.0
  0
LINE
  5
164
100
AcDbEntity
  8
LAYER0004
  6
CONTINUOUS
 62
       7
100
AcDbLine
 10
-160.37907016
 20
50.29594281
 30
0.0
 11
-157.37907014
 21
50.29594281
 31
0.0
  0
LINE
  5
165
100
AcDbEntity
  8
LAYER0004
  6
CONTINUOUS
 62
       7
100
AcDbLine
 10
-160.37907016
 20
50.29594281
 30
0.0
 11
-160.37907016
 21
51.7959384
 31
0.0
  0
LINE
  5
166
100
AcDbEntity
  8
LAYER0004
  6
CONTINUOUS
 62
       7
100
AcDbLine
 10
-157.37907014
 20
50.29594281
 30
0.0
 11
-157.37907014
 21
51.7959384
 31
0.0
  0
LINE
  5
167
100
AcDbEntity
  8
LAYER0004
  6
CONTINUOUS
 62
       7
100
AcDbLine
 10
-153.41377219
 20
50.29594281
 30
0.0
 11
-156.38707143
 21
50.29594281
 31
0.0
  0
LINE
  5
168
100
AcDbEntity
  8
LAYER0004
  6
CONTINUOUS
 62
       7
100
AcDbLine
 10
-156.39373598
 20
50.29594281
 30
0.0
 11
-153.42043674
 21
50.29594281
 31
0.0
  0
LINE
  5
169
100
AcDbEntity
  8
LAYER0004
  6
CONTINUOUS
 62
       7
100
AcDbLine
 10
-161.36440433
 20
51.7959384
 30
0.0
 11
-164.33770357
 21
51.7959384
 31
0.0
  0
LINE
  5
16A
100
AcDbEntity
  8
LAYER0004
  6
CONTINUOUS
 62
       7
100
AcDbLine
 10
-156.39373598
 20
50.29594281
 30
0.0
 11
-156.39373598
 21
51.7959384
 31
0.0
  0
LINE
  5
16B
100
AcDbEntity
  8
LAYER0004
  6
CONTINUOUS
 62
       7
100
AcDbLine
 10
-164.34436811
 20
51.7959384
 30
0.0
 11
-161.37106887
 21
51.7959384
 31
0.0
  0
LINE
  5
16C
100
AcDbEntity
  8
LAYER0004
  6
CONTINUOUS
 62
       7
100
AcDbLine
 10
-153.41377219
 20
51.7959384
 30
0.0
 11
-156.38707143
 21
51.7959384
 31
0.0
  0
LINE
  5
16D
100
AcDbEntity
  8
LAYER0004
  6
CONTINUOUS
 62
       7
100
AcDbLine
 10
-156.39373598
 20
51.7959384
 30
0.0
 11
-153.42043674
 21
51.7959384
 31
0.0
  0
LINE
  5
16E
100
AcDbEntity
  8
LAYER0004
  6
CONTINUOUS
 62
       7
100
AcDbLine
 10
-164.34436811
 20
50.29594281
 30
0.0
 11
-161.37106887
 21
50.29594281
 31
0.0
  0
LINE
  5
16F
100
AcDbEntity
  8
LAYER0004
  6
CONTINUOUS
 62
       7
100
AcDbLine
 10
-161.36440433
 20
50.29594281
 30
0.0
 11
-164.33770357
 21
50.29594281
 31
0.0
  0
LINE
  5
170
100
AcDbEntity
  8
LAYER0004
  6
CONTINUOUS
 62
       7
100
AcDbLine
 10
-161.36440433
 20
50.29594281
 30
0.0
 11
-161.36440433
 21
51.7959384
 31
0.0
  0
LINE
  5
171
100
AcDbEntity
  8
LAYER0004
  6
CONTINUOUS
 62
       7
100
AcDbLine
 10
-153.42043674
 20
50.29594281
 30
0.0
 11
-153.42043674
 21
51.7959384
 31
0.0
  0
LINE
  5
172
100
AcDbEntity
  8
LAYER0004
  6
CONTINUOUS
 62
       7
100
AcDbLine
 10
-164.34436811
 20
50.29594281
 30
0.0
 11
-164.34436811
 21
51.7959384
 31
0.0
  0
LINE
  5
173
100
AcDbEntity
  8
LAYER0004
  6
CONTINUOUS
 62
       7
100
AcDbLine
 10
-165.3054986
 20
50.29594281
 30
0.0
 11
-168.19917092
 21
50.29594281
 31
0.0
  0
LINE
  5
174
100
AcDbEntity
  8
LAYER0004
  6
CONTINUOUS
 62
       7
100
AcDbLine
 10
-168.2123808
 20
50.29594281
 30
0.0
 11
-165.31870894
 21
50.29594281
 31
0.0
  0
LINE
  5
175
100
AcDbEntity
  8
LAYER0004
  6
CONTINUOUS
 62
       7
100
AcDbLine
 10
-165.3054986
 20
50.29594281
 30
0.0
 11
-165.3054986
 21
51.7959384
 31
0.0
  0
LINE
  5
176
100
AcDbEntity
  8
LAYER0004
  6
CONTINUOUS
 62
       7
100
AcDbLine
 10
-168.2123808
 20
51.7959384
 30
0.0
 11
-165.31870894
 21
51.7959384
 31
0.0
  0
LINE
  5
177
100
AcDbEntity
  8
LAYER0004
  6
CONTINUOUS
 62
       7
100
AcDbLine
 10
-165.3054986
 20
51.7959384
 30
0.0
 11
-168.19917092
 21
51.7959384
 31
0.0
  0
LINE
  5
178
100
AcDbEntity
  8
LAYER0004
  6
CONTINUOUS
 62
       7
100
AcDbLine
 10
-152.45264171
 20
51.7959384
 30
0.0
 11
-149.55896938
 21
51.7959384
 31
0.0
  0
LINE
  5
179
100
AcDbEntity
  8
LAYER0004
  6
CONTINUOUS
 62
       7
100
AcDbLine
 10
-152.45264171
 20
50.29594281
 30
0.0
 11
-149.55896938
 21
50.29594281
 31
0.0
  0
LINE
  5
17A
100
AcDbEntity
  8
LAYER0004
  6
CONTINUOUS
 62
       7
100
AcDbLine
 10
-149.5457595
 20
50.29594281
 30
0.0
 11
-152.43943136
 21
50.29594281
 31
0.0
  0
LINE
  5
17B
100
AcDbEntity
  8
LAYER0004
  6
CONTINUOUS
 62
       7
100
AcDbLine
 10
-149.5457595
 20
51.7959384
 30
0.0
 11
-152.43943136
 21
51.7959384
 31
0.0
  0
LINE
  5
17C
100
AcDbEntity
  8
LAYER0004
  6
CONTINUOUS
 62
       7
100
AcDbLine
 10
-152.45264171
 20
50.29594281
 30
0.0
 11
-152.45264171
 21
51.7959384
 31
0.0
  0
LINE
  5
17D
100
AcDbEntity
  8
LAYER0004
  6
CONTINUOUS
 62
       7
100
AcDbLine
 10
-168.2123808
 20
50.29594281
 30
0.0
 11
-168.2123808
 21
51.7959384
 31
0.0
  0
LINE
  5
17E
100
AcDbEntity
  8
LAYER0004
  6
CONTINUOUS
 62
       7
100
AcDbLine
 10
-149.5457595
 20
50.29594281
 30
0.0
 11
-149.5457595
 21
51.7959384
 31
0.0
  0
LINE
  5
17F
100
AcDbEntity
  8
LAYER0004
  6
CONTINUOUS
 62
       7
100
AcDbLine
 10
-148.62594156
 20
51.7959384
 30
0.0
 11
-145.86340504
 21
51.7959384
 31
0.0
  0
LINE
  5
180
100
AcDbEntity
  8
LAYER0004
  6
CONTINUOUS
 62
       7
100
AcDbLine
 10
-169.13219875
 20
50.29594281
 30
0.0
 11
-171.89473527
 21
50.29594281
 31
0.0
  0
LINE
  5
181
100
AcDbEntity
  8
LAYER0004
  6
CONTINUOUS
 62
       7
100
AcDbLine
 10
-148.62594156
 20
50.29594281
 30
0.0
 11
-145.86340504
 21
50.29594281
 31
0.0
  0
LINE
  5
182
100
AcDbEntity
  8
LAYER0004
  6
CONTINUOUS
 62
       7
100
AcDbLine
 10
-169.13219875
 20
51.7959384
 30
0.0
 11
-171.89473527
 21
51.7959384
 31
0.0
  0
LINE
  5
183
100
AcDbEntity
  8
LAYER0004
  6
CONTINUOUS
 62
       7
100
AcDbLine
 10
-169.13219875
 20
50.29594281
 30
0.0
 11
-169.13219875
 21
51.7959384
 31
0.0
  0
LINE
  5
184
100
AcDbEntity
  8
LAYER0004
  6
CONTINUOUS
 62
       7
100
AcDbLine
 10
-145.84388359
 20
50.29594281
 30
0.0
 11
-148.6064201
 21
50.29594281
 31
0.0
  0
LINE
  5
185
100
AcDbEntity
  8
LAYER0004
  6
CONTINUOUS
 62
       7
100
AcDbLine
 10
-145.84388359
 20
51.7959384
 30
0.0
 11
-148.6064201
 21
51.7959384
 31
0.0
  0
LINE
  5
186
100
AcDbEntity
  8
LAYER0004
  6
CONTINUOUS
 62
       7
100
AcDbLine
 10
-171.91425672
 20
51.7959384
 30
0.0
 11
-169.1517202
 21
51.7959384
 31
0.0
  0
LINE
  5
187
100
AcDbEntity
  8
LAYER0004
  6
CONTINUOUS
 62
       7
100
AcDbLine
 10
-171.91425672
 20
50.29594281
 30
0.0
 11
-169.1517202
 21
50.29594281
 31
0.0
  0
LINE
  5
188
100
AcDbEntity
  8
LAYER0004
  6
CONTINUOUS
 62
       7
100
AcDbLine
 10
-148.62594156
 20
50.29594281
 30
0.0
 11
-148.62594156
 21
51.7959384
 31
0.0
  0
LINE
  5
189
100
AcDbEntity
  8
LAYER0004
  6
CONTINUOUS
 62
       7
100
AcDbLine
 10
-171.91425672
 20
50.29594281
 30
0.0
 11
-171.91425672
 21
51.7959384
 31
0.0
  0
LINE
  5
18A
100
AcDbEntity
  8
LAYER0004
  6
CONTINUOUS
 62
       7
100
AcDbLine
 10
-145.84388359
 20
50.29594281
 30
0.0
 11
-145.84388359
 21
51.7959384
 31
0.0
  0
LINE
  5
18B
100
AcDbEntity
  8
LAYER0004
  6
CONTINUOUS
 62
       7
100
AcDbLine
 10
-188.87906988
 20
68.49455249
 30
0.0
 11
-188.87906948
 21
40.24594404
 31
0.0
  0
LINE
  5
18C
100
AcDbEntity
  8
LAYER0004
  6
CONTINUOUS
 62
       7
100
AcDbLine
 10
-128.87907041
 20
68.49455253
 30
0.0
 11
-128.87907081
 21
40.24594404
 31
0.0
  0
LINE
  5
18D
100
AcDbEntity
  8
LAYER0004
  6
CONTINUOUS
 62
       7
100
AcDbLine
 10
-129.07907048
 20
-21.57906315
 30
0.0
 11
-127.17906998
 21
-21.57906315
 31
0.0
  0
LINE
  5
18E
100
AcDbEntity
  8
LAYER0004
  6
CONTINUOUS
 62
       7
100
AcDbLine
 10
-129.07907048
 20
-27.92905888
 30
0.0
 11
-127.17906998
 21
-27.92905888
 31
0.0
  0
LINE
  5
18F
100
AcDbEntity
  8
LAYER0004
  6
CONTINUOUS
 62
       7
100
AcDbLine
 10
-129.43633514
 20
-20.13525984
 30
0.0
 11
-129.60460831
 21
-20.13525984
 31
0.0
  0
LINE
  5
190
100
AcDbEntity
  8
LAYER0004
  6
CONTINUOUS
 62
       7
100
AcDbLine
 10
-129.43633514
 20
-29.37286219
 30
0.0
 11
-129.60473112
 21
-29.37286219
 31
0.0
  0
LINE
  5
191
100
AcDbEntity
  8
LAYER0004
  6
CONTINUOUS
 62
       7
100
AcDbLine
 10
-127.17906998
 20
-24.75406101
 30
0.0
 11
-118.8290702
 21
-24.75406101
 31
0.0
  0
LINE
  5
192
100
AcDbEntity
  8
LAYER0004
  6
CONTINUOUS
 62
       7
100
AcDbLine
 10
-129.98008596
 20
-25.00619611
 30
0.0
 11
-129.98286909
 21
-24.92252767
 31
0.0
  0
LINE
  5
193
100
AcDbEntity
  8
LAYER0004
  6
CONTINUOUS
 62
       7
100
AcDbLine
 10
-129.98286909
 20
-24.92252767
 30
0.0
 11
-129.98524338
 21
-24.83874399
 31
0.0
  0
LINE
  5
194
100
AcDbEntity
  8
LAYER0004
  6
CONTINUOUS
 62
       7
100
AcDbLine
 10
-129.98524338
 20
-24.83874399
 30
0.0
 11
-129.98700485
 21
-24.75479623
 31
0.0
  0
LINE
  5
195
100
AcDbEntity
  8
LAYER0004
  6
CONTINUOUS
 62
       7
100
AcDbLine
 10
-129.98700485
 20
-24.75479623
 30
0.0
 11
-129.98816944
 21
-24.67070682
 31
0.0
  0
LINE
  5
196
100
AcDbEntity
  8
LAYER0004
  6
CONTINUOUS
 62
       7
100
AcDbLine
 10
-129.98816944
 20
-24.67070682
 30
0.0
 11
-129.98876393
 21
-24.5865017
 31
0.0
  0
LINE
  5
197
100
AcDbEntity
  8
LAYER0004
  6
CONTINUOUS
 62
       7
100
AcDbLine
 10
-129.98876393
 20
-24.5865017
 30
0.0
 11
-129.98881508
 21
-24.50220682
 31
0.0
  0
LINE
  5
198
100
AcDbEntity
  8
LAYER0004
  6
CONTINUOUS
 62
       7
100
AcDbLine
 10
-129.98881508
 20
-24.50220682
 30
0.0
 11
-129.98834965
 21
-24.41784813
 31
0.0
  0
LINE
  5
199
100
AcDbEntity
  8
LAYER0004
  6
CONTINUOUS
 62
       7
100
AcDbLine
 10
-129.98834965
 20
-24.41784813
 30
0.0
 11
-129.98739442
 21
-24.33345158
 31
0.0
  0
LINE
  5
19A
100
AcDbEntity
  8
LAYER0004
  6
CONTINUOUS
 62
       7
100
AcDbLine
 10
-129.98739442
 20
-24.33345158
 30
0.0
 11
-129.98597615
 21
-24.24904309
 31
0.0
  0
LINE
  5
19B
100
AcDbEntity
  8
LAYER0004
  6
CONTINUOUS
 62
       7
100
AcDbLine
 10
-129.98597615
 20
-24.24904309
 30
0.0
 11
-129.9841216
 21
-24.16464863
 31
0.0
  0
LINE
  5
19C
100
AcDbEntity
  8
LAYER0004
  6
CONTINUOUS
 62
       7
100
AcDbLine
 10
-129.9841216
 20
-24.16464863
 30
0.0
 11
-129.98185755
 21
-24.08029414
 31
0.0
  0
LINE
  5
19D
100
AcDbEntity
  8
LAYER0004
  6
CONTINUOUS
 62
       7
100
AcDbLine
 10
-129.98185755
 20
-24.08029414
 30
0.0
 11
-129.97921077
 21
-23.99600556
 31
0.0
  0
LINE
  5
19E
100
AcDbEntity
  8
LAYER0004
  6
CONTINUOUS
 62
       7
100
AcDbLine
 10
-129.97921077
 20
-23.99600556
 30
0.0
 11
-129.97620801
 21
-23.91180883
 31
0.0
  0
LINE
  5
19F
100
AcDbEntity
  8
LAYER0004
  6
CONTINUOUS
 62
       7
100
AcDbLine
 10
-129.97620801
 20
-23.91180883
 30
0.0
 11
-129.97287605
 21
-23.8277299
 31
0.0
  0
LINE
  5
1A0
100
AcDbEntity
  8
LAYER0004
  6
CONTINUOUS
 62
       7
100
AcDbLine
 10
-129.97287605
 20
-23.8277299
 30
0.0
 11
-129.96924165
 21
-23.74379472
 31
0.0
  0
LINE
  5
1A1
100
AcDbEntity
  8
LAYER0004
  6
CONTINUOUS
 62
       7
100
AcDbLine
 10
-129.96924165
 20
-23.74379472
 30
0.0
 11
-129.96533158
 21
-23.66002924
 31
0.0
  0
LINE
  5
1A2
100
AcDbEntity
  8
LAYER0004
  6
CONTINUOUS
 62
       7
100
AcDbLine
 10
-129.96533158
 20
-23.66002924
 30
0.0
 11
-129.96117261
 21
-23.57645939
 31
0.0
  0
LINE
  5
1A3
100
AcDbEntity
  8
LAYER0004
  6
CONTINUOUS
 62
       7
100
AcDbLine
 10
-129.96117261
 20
-23.57645939
 30
0.0
 11
-129.95679151
 21
-23.49311112
 31
0.0
  0
LINE
  5
1A4
100
AcDbEntity
  8
LAYER0004
  6
CONTINUOUS
 62
       7
100
AcDbLine
 10
-129.95679151
 20
-23.49311112
 30
0.0
 11
-129.95221503
 21
-23.41001037
 31
0.0
  0
LINE
  5
1A5
100
AcDbEntity
  8
LAYER0004
  6
CONTINUOUS
 62
       7
100
AcDbLine
 10
-129.95221503
 20
-23.41001037
 30
0.0
 11
-129.94746987
 21
-23.32718271
 31
0.0
  0
LINE
  5
1A6
100
AcDbEntity
  8
LAYER0004
  6
CONTINUOUS
 62
       7
100
AcDbLine
 10
-129.94746987
 20
-23.32718271
 30
0.0
 11
-129.94257805
 21
-23.24463302
 31
0.0
  0
LINE
  5
1A7
100
AcDbEntity
  8
LAYER0004
  6
CONTINUOUS
 62
       7
100
AcDbLine
 10
-129.94257805
 20
-23.24463302
 30
0.0
 11
-129.93755473
 21
-23.16233571
 31
0.0
  0
LINE
  5
1A8
100
AcDbEntity
  8
LAYER0004
  6
CONTINUOUS
 62
       7
100
AcDbLine
 10
-129.93755473
 20
-23.16233571
 30
0.0
 11
-129.93241452
 21
-23.08026274
 31
0.0
  0
LINE
  5
1A9
100
AcDbEntity
  8
LAYER0004
  6
CONTINUOUS
 62
       7
100
AcDbLine
 10
-129.93241452
 20
-23.08026274
 30
0.0
 11
-129.92717203
 21
-22.99838607
 31
0.0
  0
LINE
  5
1AA
100
AcDbEntity
  8
LAYER0004
  6
CONTINUOUS
 62
       7
100
AcDbLine
 10
-129.92717203
 20
-22.99838607
 30
0.0
 11
-129.92184188
 21
-22.91667766
 31
0.0
  0
LINE
  5
1AB
100
AcDbEntity
  8
LAYER0004
  6
CONTINUOUS
 62
       7
100
AcDbLine
 10
-129.92184188
 20
-22.91667766
 30
0.0
 11
-129.91643867
 21
-22.83510946
 31
0.0
  0
LINE
  5
1AC
100
AcDbEntity
  8
LAYER0004
  6
CONTINUOUS
 62
       7
100
AcDbLine
 10
-129.91643867
 20
-22.83510946
 30
0.0
 11
-129.91097702
 21
-22.75365342
 31
0.0
  0
LINE
  5
1AD
100
AcDbEntity
  8
LAYER0004
  6
CONTINUOUS
 62
       7
100
AcDbLine
 10
-129.91097702
 20
-22.75365342
 30
0.0
 11
-129.90547154
 21
-22.67228152
 31
0.0
  0
LINE
  5
1AE
100
AcDbEntity
  8
LAYER0004
  6
CONTINUOUS
 62
       7
100
AcDbLine
 10
-129.90547154
 20
-22.67228152
 30
0.0
 11
-129.89993683
 21
-22.5909657
 31
0.0
  0
LINE
  5
1AF
100
AcDbEntity
  8
LAYER0004
  6
CONTINUOUS
 62
       7
100
AcDbLine
 10
-129.89993683
 20
-22.5909657
 30
0.0
 11
-129.89438752
 21
-22.50967792
 31
0.0
  0
LINE
  5
1B0
100
AcDbEntity
  8
LAYER0004
  6
CONTINUOUS
 62
       7
100
AcDbLine
 10
-128.90432113
 20
-32.59482736
 30
0.0
 11
-128.90993518
 21
-32.57385988
 31
0.0
  0
LINE
  5
1B1
100
AcDbEntity
  8
LAYER0004
  6
CONTINUOUS
 62
       7
100
AcDbLine
 10
-128.90993518
 20
-32.57385988
 30
0.0
 11
-128.91714567
 21
-32.5469011
 31
0.0
  0
LINE
  5
1B2
100
AcDbEntity
  8
LAYER0004
  6
CONTINUOUS
 62
       7
100
AcDbLine
 10
-128.91714567
 20
-32.5469011
 30
0.0
 11
-128.92584239
 21
-32.51435548
 31
0.0
  0
LINE
  5
1B3
100
AcDbEntity
  8
LAYER0004
  6
CONTINUOUS
 62
       7
100
AcDbLine
 10
-128.92584239
 20
-32.51435548
 30
0.0
 11
-128.93592146
 21
-32.47659486
 31
0.0
  0
LINE
  5
1B4
100
AcDbEntity
  8
LAYER0004
  6
CONTINUOUS
 62
       7
100
AcDbLine
 10
-128.93592146
 20
-32.47659486
 30
0.0
 11
-128.94732749
 21
-32.43374
 31
0.0
  0
LINE
  5
1B5
100
AcDbEntity
  8
LAYER0004
  6
CONTINUOUS
 62
       7
100
AcDbLine
 10
-128.94732749
 20
-32.43374
 30
0.0
 11
-128.96002764
 21
-32.38579518
 31
0.0
  0
LINE
  5
1B6
100
AcDbEntity
  8
LAYER0004
  6
CONTINUOUS
 62
       7
100
AcDbLine
 10
-128.96002764
 20
-32.38579518
 30
0.0
 11
-128.97398917
 21
-32.33276403
 31
0.0
  0
LINE
  5
1B7
100
AcDbEntity
  8
LAYER0004
  6
CONTINUOUS
 62
       7
100
AcDbLine
 10
-128.97398917
 20
-32.33276403
 30
0.0
 11
-128.98917935
 21
-32.2746502
 31
0.0
  0
LINE
  5
1B8
100
AcDbEntity
  8
LAYER0004
  6
CONTINUOUS
 62
       7
100
AcDbLine
 10
-128.98917935
 20
-32.2746502
 30
0.0
 11
-129.00556545
 21
-32.21145731
 31
0.0
  0
LINE
  5
1B9
100
AcDbEntity
  8
LAYER0004
  6
CONTINUOUS
 62
       7
100
AcDbLine
 10
-129.00556545
 20
-32.21145731
 30
0.0
 11
-129.02311474
 21
-32.14318901
 31
0.0
  0
LINE
  5
1BA
100
AcDbEntity
  8
LAYER0004
  6
CONTINUOUS
 62
       7
100
AcDbLine
 10
-129.02311474
 20
-32.14318901
 30
0.0
 11
-129.04179411
 21
-32.06984981
 31
0.0
  0
LINE
  5
1BB
100
AcDbEntity
  8
LAYER0004
  6
CONTINUOUS
 62
       7
100
AcDbLine
 10
-129.04179411
 20
-32.06984981
 30
0.0
 11
-129.06155949
 21
-31.99147004
 31
0.0
  0
LINE
  5
1BC
100
AcDbEntity
  8
LAYER0004
  6
CONTINUOUS
 62
       7
100
AcDbLine
 10
-129.06155949
 20
-31.99147004
 30
0.0
 11
-129.08235429
 21
-31.90810949
 31
0.0
  0
LINE
  5
1BD
100
AcDbEntity
  8
LAYER0004
  6
CONTINUOUS
 62
       7
100
AcDbLine
 10
-129.08235429
 20
-31.90810949
 30
0.0
 11
-129.10412124
 21
-31.81982952
 31
0.0
  0
LINE
  5
1BE
100
AcDbEntity
  8
LAYER0004
  6
CONTINUOUS
 62
       7
100
AcDbLine
 10
-129.10412124
 20
-31.81982952
 30
0.0
 11
-129.12680307
 21
-31.7266915
 31
0.0
  0
LINE
  5
1BF
100
AcDbEntity
  8
LAYER0004
  6
CONTINUOUS
 62
       7
100
AcDbLine
 10
-129.12680307
 20
-31.7266915
 30
0.0
 11
-129.15034251
 21
-31.62875681
 31
0.0
  0
LINE
  5
1C0
100
AcDbEntity
  8
LAYER0004
  6
CONTINUOUS
 62
       7
100
AcDbLine
 10
-129.15034251
 20
-31.62875681
 30
0.0
 11
-129.1746823
 21
-31.52608682
 31
0.0
  0
LINE
  5
1C1
100
AcDbEntity
  8
LAYER0004
  6
CONTINUOUS
 62
       7
100
AcDbLine
 10
-129.1746823
 20
-31.52608682
 30
0.0
 11
-129.19976517
 21
-31.4187429
 31
0.0
  0
LINE
  5
1C2
100
AcDbEntity
  8
LAYER0004
  6
CONTINUOUS
 62
       7
100
AcDbLine
 10
-129.19976517
 20
-31.4187429
 30
0.0
 11
-129.22553148
 21
-31.30678976
 31
0.0
  0
LINE
  5
1C3
100
AcDbEntity
  8
LAYER0004
  6
CONTINUOUS
 62
       7
100
AcDbLine
 10
-129.22553148
 20
-31.30678976
 30
0.0
 11
-129.25190977
 21
-31.19030879
 31
0.0
  0
LINE
  5
1C4
100
AcDbEntity
  8
LAYER0004
  6
CONTINUOUS
 62
       7
100
AcDbLine
 10
-129.25190977
 20
-31.19030879
 30
0.0
 11
-129.27882486
 21
-31.06938663
 31
0.0
  0
LINE
  5
1C5
100
AcDbEntity
  8
LAYER0004
  6
CONTINUOUS
 62
       7
100
AcDbLine
 10
-129.27882486
 20
-31.06938663
 30
0.0
 11
-129.30620155
 21
-30.9441099
 31
0.0
  0
LINE
  5
1C6
100
AcDbEntity
  8
LAYER0004
  6
CONTINUOUS
 62
       7
100
AcDbLine
 10
-129.30620155
 20
-30.9441099
 30
0.0
 11
-129.33396468
 21
-30.81456523
 31
0.0
  0
LINE
  5
1C7
100
AcDbEntity
  8
LAYER0004
  6
CONTINUOUS
 62
       7
100
AcDbLine
 10
-129.33396468
 20
-30.81456523
 30
0.0
 11
-129.36203905
 21
-30.68083926
 31
0.0
  0
LINE
  5
1C8
100
AcDbEntity
  8
LAYER0004
  6
CONTINUOUS
 62
       7
100
AcDbLine
 10
-129.36203905
 20
-30.68083926
 30
0.0
 11
-129.39034948
 21
-30.54301861
 31
0.0
  0
LINE
  5
1C9
100
AcDbEntity
  8
LAYER0004
  6
CONTINUOUS
 62
       7
100
AcDbLine
 10
-129.39034948
 20
-30.54301861
 30
0.0
 11
-129.41882075
 21
-30.40118994
 31
0.0
  0
LINE
  5
1CA
100
AcDbEntity
  8
LAYER0004
  6
CONTINUOUS
 62
       7
100
AcDbLine
 10
-129.41882075
 20
-30.40118994
 30
0.0
 11
-129.44737536
 21
-30.2554409
 31
0.0
  0
LINE
  5
1CB
100
AcDbEntity
  8
LAYER0004
  6
CONTINUOUS
 62
       7
100
AcDbLine
 10
-129.44737536
 20
-30.2554409
 30
0.0
 11
-129.47593268
 21
-30.10586058
 31
0.0
  0
LINE
  5
1CC
100
AcDbEntity
  8
LAYER0004
  6
CONTINUOUS
 62
       7
100
AcDbLine
 10
-129.47593268
 20
-30.10586058
 30
0.0
 11
-129.50441181
 21
-29.95253814
 31
0.0
  0
LINE
  5
1CD
100
AcDbEntity
  8
LAYER0004
  6
CONTINUOUS
 62
       7
100
AcDbLine
 10
-129.50441181
 20
-29.95253814
 30
0.0
 11
-129.53273188
 21
-29.79556276
 31
0.0
  0
LINE
  5
1CE
100
AcDbEntity
  8
LAYER0004
  6
CONTINUOUS
 62
       7
100
AcDbLine
 10
-129.53273188
 20
-29.79556276
 30
0.0
 11
-129.56081199
 21
-29.63502364
 31
0.0
  0
LINE
  5
1CF
100
AcDbEntity
  8
LAYER0004
  6
CONTINUOUS
 62
       7
100
AcDbLine
 10
-129.56081199
 20
-29.63502364
 30
0.0
 11
-129.58857126
 21
-29.47100993
 31
0.0
  0
LINE
  5
1D0
100
AcDbEntity
  8
LAYER0004
  6
CONTINUOUS
 62
       7
100
AcDbLine
 10
-129.58857126
 20
-29.47100993
 30
0.0
 11
-129.6159288
 21
-29.30361084
 31
0.0
  0
LINE
  5
1D1
100
AcDbEntity
  8
LAYER0004
  6
CONTINUOUS
 62
       7
100
AcDbLine
 10
-129.6159288
 20
-29.30361084
 30
0.0
 11
-129.64280581
 21
-29.13291791
 31
0.0
  0
LINE
  5
1D2
100
AcDbEntity
  8
LAYER0004
  6
CONTINUOUS
 62
       7
100
AcDbLine
 10
-129.64280581
 20
-29.13291791
 30
0.0
 11
-129.66913985
 21
-28.95904141
 31
0.0
  0
LINE
  5
1D3
100
AcDbEntity
  8
LAYER0004
  6
CONTINUOUS
 62
       7
100
AcDbLine
 10
-129.66913985
 20
-28.95904141
 30
0.0
 11
-129.69487619
 21
-28.78210041
 31
0.0
  0
LINE
  5
1D4
100
AcDbEntity
  8
LAYER0004
  6
CONTINUOUS
 62
       7
100
AcDbLine
 10
-129.69487619
 20
-28.78210041
 30
0.0
 11
-129.71996012
 21
-28.60221403
 31
0.0
  0
LINE
  5
1D5
100
AcDbEntity
  8
LAYER0004
  6
CONTINUOUS
 62
       7
100
AcDbLine
 10
-129.71996012
 20
-28.60221403
 30
0.0
 11
-129.74433696
 21
-28.4195014
 31
0.0
  0
LINE
  5
1D6
100
AcDbEntity
  8
LAYER0004
  6
CONTINUOUS
 62
       7
100
AcDbLine
 10
-129.74433696
 20
-28.4195014
 30
0.0
 11
-129.76795201
 21
-28.23408164
 31
0.0
  0
LINE
  5
1D7
100
AcDbEntity
  8
LAYER0004
  6
CONTINUOUS
 62
       7
100
AcDbLine
 10
-129.76795201
 20
-28.23408164
 30
0.0
 11
-129.79075058
 21
-28.04607387
 31
0.0
  0
LINE
  5
1D8
100
AcDbEntity
  8
LAYER0004
  6
CONTINUOUS
 62
       7
100
AcDbLine
 10
-129.79075058
 20
-28.04607387
 30
0.0
 11
-129.8126778
 21
-27.85559723
 31
0.0
  0
LINE
  5
1D9
100
AcDbEntity
  8
LAYER0004
  6
CONTINUOUS
 62
       7
100
AcDbLine
 10
-129.8126778
 20
-27.85559723
 30
0.0
 11
-129.83365422
 21
-27.66277463
 31
0.0
  0
LINE
  5
1DA
100
AcDbEntity
  8
LAYER0004
  6
CONTINUOUS
 62
       7
100
AcDbLine
 10
-129.83365422
 20
-27.66277463
 30
0.0
 11
-129.85354988
 21
-27.46773665
 31
0.0
  0
LINE
  5
1DB
100
AcDbEntity
  8
LAYER0004
  6
CONTINUOUS
 62
       7
100
AcDbLine
 10
-129.85354988
 20
-27.46773665
 30
0.0
 11
-129.87222866
 21
-27.27061482
 31
0.0
  0
LINE
  5
1DC
100
AcDbEntity
  8
LAYER0004
  6
CONTINUOUS
 62
       7
100
AcDbLine
 10
-129.87222866
 20
-27.27061482
 30
0.0
 11
-129.88955442
 21
-27.07154068
 31
0.0
  0
LINE
  5
1DD
100
AcDbEntity
  8
LAYER0004
  6
CONTINUOUS
 62
       7
100
AcDbLine
 10
-129.88955442
 20
-27.07154068
 30
0.0
 11
-129.90539103
 21
-26.87064575
 31
0.0
  0
LINE
  5
1DE
100
AcDbEntity
  8
LAYER0004
  6
CONTINUOUS
 62
       7
100
AcDbLine
 10
-129.90539103
 20
-26.87064575
 30
0.0
 11
-129.91960235
 21
-26.66806157
 31
0.0
  0
LINE
  5
1DF
100
AcDbEntity
  8
LAYER0004
  6
CONTINUOUS
 62
       7
100
AcDbLine
 10
-129.91960235
 20
-26.66806157
 30
0.0
 11
-129.93205226
 21
-26.46391968
 31
0.0
  0
LINE
  5
1E0
100
AcDbEntity
  8
LAYER0004
  6
CONTINUOUS
 62
       7
100
AcDbLine
 10
-129.93205226
 20
-26.46391968
 30
0.0
 11
-129.9426342
 21
-26.25835684
 31
0.0
  0
LINE
  5
1E1
100
AcDbEntity
  8
LAYER0004
  6
CONTINUOUS
 62
       7
100
AcDbLine
 10
-129.9426342
 20
-26.25835684
 30
0.0
 11
-129.9514999
 21
-26.05155563
 31
0.0
  0
LINE
  5
1E2
100
AcDbEntity
  8
LAYER0004
  6
CONTINUOUS
 62
       7
100
AcDbLine
 10
-129.9514999
 20
-26.05155563
 30
0.0
 11
-129.95893446
 21
-25.84372229
 31
0.0
  0
LINE
  5
1E3
100
AcDbEntity
  8
LAYER0004
  6
CONTINUOUS
 62
       7
100
AcDbLine
 10
-129.95893446
 20
-25.84372229
 30
0.0
 11
-129.96522413
 21
-25.63506324
 31
0.0
  0
LINE
  5
1E4
100
AcDbEntity
  8
LAYER0004
  6
CONTINUOUS
 62
       7
100
AcDbLine
 10
-129.96522413
 20
-25.63506324
 30
0.0
 11
-129.97065511
 21
-25.42578491
 31
0.0
  0
LINE
  5
1E5
100
AcDbEntity
  8
LAYER0004
  6
CONTINUOUS
 62
       7
100
AcDbLine
 10
-129.97065511
 20
-25.42578491
 30
0.0
 11
-129.97551365
 21
-25.21609372
 31
0.0
  0
LINE
  5
1E6
100
AcDbEntity
  8
LAYER0004
  6
CONTINUOUS
 62
       7
100
AcDbLine
 10
-129.97551365
 20
-25.21609372
 30
0.0
 11
-129.98008596
 21
-25.00619611
 31
0.0
  0
LINE
  5
1E7
100
AcDbEntity
  8
LAYER0004
  6
CONTINUOUS
 62
       7
100
AcDbLine
 10
-129.89438752
 20
-22.50967792
 30
0.0
 11
-129.88030179
 21
-22.35147655
 31
0.0
  0
LINE
  5
1E8
100
AcDbEntity
  8
LAYER0004
  6
CONTINUOUS
 62
       7
100
AcDbLine
 10
-129.88030179
 20
-22.35147655
 30
0.0
 11
-129.866042
 21
-22.19360824
 31
0.0
  0
LINE
  5
1E9
100
AcDbEntity
  8
LAYER0004
  6
CONTINUOUS
 62
       7
100
AcDbLine
 10
-129.866042
 20
-22.19360824
 30
0.0
 11
-129.85143409
 21
-22.03640603
 31
0.0
  0
LINE
  5
1EA
100
AcDbEntity
  8
LAYER0004
  6
CONTINUOUS
 62
       7
100
AcDbLine
 10
-129.85143409
 20
-22.03640603
 30
0.0
 11
-129.83630401
 21
-21.88020297
 31
0.0
  0
LINE
  5
1EB
100
AcDbEntity
  8
LAYER0004
  6
CONTINUOUS
 62
       7
100
AcDbLine
 10
-129.83630401
 20
-21.88020297
 30
0.0
 11
-129.82047814
 21
-21.72533155
 31
0.0
  0
LINE
  5
1EC
100
AcDbEntity
  8
LAYER0004
  6
CONTINUOUS
 62
       7
100
AcDbLine
 10
-129.82047814
 20
-21.72533155
 30
0.0
 11
-129.80385198
 21
-21.57203747
 31
0.0
  0
LINE
  5
1ED
100
AcDbEntity
  8
LAYER0004
  6
CONTINUOUS
 62
       7
100
AcDbLine
 10
-129.80385198
 20
-21.57203747
 30
0.0
 11
-129.78646371
 21
-21.4203872
 31
0.0
  0
LINE
  5
1EE
100
AcDbEntity
  8
LAYER0004
  6
CONTINUOUS
 62
       7
100
AcDbLine
 10
-129.78646371
 20
-21.4203872
 30
0.0
 11
-129.7683692
 21
-21.27042503
 31
0.0
  0
LINE
  5
1EF
100
AcDbEntity
  8
LAYER0004
  6
CONTINUOUS
 62
       7
100
AcDbLine
 10
-129.7683692
 20
-21.27042503
 30
0.0
 11
-129.74962429
 21
-21.12219526
 31
0.0
  0
LINE
  5
1F0
100
AcDbEntity
  8
LAYER0004
  6
CONTINUOUS
 62
       7
100
AcDbLine
 10
-129.74962429
 20
-21.12219526
 30
0.0
 11
-129.73028484
 21
-20.97574219
 31
0.0
  0
LINE
  5
1F1
100
AcDbEntity
  8
LAYER0004
  6
CONTINUOUS
 62
       7
100
AcDbLine
 10
-129.73028484
 20
-20.97574219
 30
0.0
 11
-129.71040669
 21
-20.83111011
 31
0.0
  0
LINE
  5
1F2
100
AcDbEntity
  8
LAYER0004
  6
CONTINUOUS
 62
       7
100
AcDbLine
 10
-129.71040669
 20
-20.83111011
 30
0.0
 11
-129.6900457
 21
-20.68834331
 31
0.0
  0
LINE
  5
1F3
100
AcDbEntity
  8
LAYER0004
  6
CONTINUOUS
 62
       7
100
AcDbLine
 10
-129.6900457
 20
-20.68834331
 30
0.0
 11
-129.66925772
 21
-20.54748609
 31
0.0
  0
LINE
  5
1F4
100
AcDbEntity
  8
LAYER0004
  6
CONTINUOUS
 62
       7
100
AcDbLine
 10
-129.66925772
 20
-20.54748609
 30
0.0
 11
-129.64809861
 21
-20.40858274
 31
0.0
  0
LINE
  5
1F5
100
AcDbEntity
  8
LAYER0004
  6
CONTINUOUS
 62
       7
100
AcDbLine
 10
-129.64809861
 20
-20.40858274
 30
0.0
 11
-129.62662109
 21
-20.2716782
 31
0.0
  0
LINE
  5
1F6
100
AcDbEntity
  8
LAYER0004
  6
CONTINUOUS
 62
       7
100
AcDbLine
 10
-129.62662109
 20
-20.2716782
 30
0.0
 11
-129.60486358
 21
-20.13682039
 31
0.0
  0
LINE
  5
1F7
100
AcDbEntity
  8
LAYER0004
  6
CONTINUOUS
 62
       7
100
AcDbLine
 10
-129.60486358
 20
-20.13682039
 30
0.0
 11
-129.58286035
 21
-20.00405807
 31
0.0
  0
LINE
  5
1F8
100
AcDbEntity
  8
LAYER0004
  6
CONTINUOUS
 62
       7
100
AcDbLine
 10
-129.58286035
 20
-20.00405807
 30
0.0
 11
-129.56064569
 21
-19.87344002
 31
0.0
  0
LINE
  5
1F9
100
AcDbEntity
  8
LAYER0004
  6
CONTINUOUS
 62
       7
100
AcDbLine
 10
-129.56064569
 20
-19.87344002
 30
0.0
 11
-129.53825387
 21
-19.74501499
 31
0.0
  0
LINE
  5
1FA
100
AcDbEntity
  8
LAYER0004
  6
CONTINUOUS
 62
       7
100
AcDbLine
 10
-129.53825387
 20
-19.74501499
 30
0.0
 11
-129.51571919
 21
-19.61883175
 31
0.0
  0
LINE
  5
1FB
100
AcDbEntity
  8
LAYER0004
  6
CONTINUOUS
 62
       7
100
AcDbLine
 10
-129.51571919
 20
-19.61883175
 30
0.0
 11
-129.49307592
 21
-19.49493907
 31
0.0
  0
LINE
  5
1FC
100
AcDbEntity
  8
LAYER0004
  6
CONTINUOUS
 62
       7
100
AcDbLine
 10
-129.49307592
 20
-19.49493907
 30
0.0
 11
-129.47035833
 21
-19.37338572
 31
0.0
  0
LINE
  5
1FD
100
AcDbEntity
  8
LAYER0004
  6
CONTINUOUS
 62
       7
100
AcDbLine
 10
-129.47035833
 20
-19.37338572
 30
0.0
 11
-129.44760073
 21
-19.25422046
 31
0.0
  0
LINE
  5
1FE
100
AcDbEntity
  8
LAYER0004
  6
CONTINUOUS
 62
       7
100
AcDbLine
 10
-129.44760073
 20
-19.25422046
 30
0.0
 11
-129.42483752
 21
-19.13749203
 31
0.0
  0
LINE
  5
1FF
100
AcDbEntity
  8
LAYER0004
  6
CONTINUOUS
 62
       7
100
AcDbLine
 10
-129.42483752
 20
-19.13749203
 30
0.0
 11
-129.40210613
 21
-19.02324829
 31
0.0
  0
LINE
  5
200
100
AcDbEntity
  8
LAYER0004
  6
CONTINUOUS
 62
       7
100
AcDbLine
 10
-129.40210613
 20
-19.02324829
 30
0.0
 11
-129.37944692
 21
-18.91153631
 31
0.0
  0
LINE
  5
201
100
AcDbEntity
  8
LAYER0004
  6
CONTINUOUS
 62
       7
100
AcDbLine
 10
-129.37944692
 20
-18.91153631
 30
0.0
 11
-129.35690037
 21
-18.80240309
 31
0.0
  0
LINE
  5
202
100
AcDbEntity
  8
LAYER0004
  6
CONTINUOUS
 62
       7
100
AcDbLine
 10
-129.35690037
 20
-18.80240309
 30
0.0
 11
-129.33450695
 21
-18.69589567
 31
0.0
  0
LINE
  5
203
100
AcDbEntity
  8
LAYER0004
  6
CONTINUOUS
 62
       7
100
AcDbLine
 10
-129.33450695
 20
-18.69589567
 30
0.0
 11
-129.31230714
 21
-18.59206106
 31
0.0
  0
LINE
  5
204
100
AcDbEntity
  8
LAYER0004
  6
CONTINUOUS
 62
       7
100
AcDbLine
 10
-129.31230714
 20
-18.59206106
 30
0.0
 11
-129.29034142
 21
-18.49094627
 31
0.0
  0
LINE
  5
205
100
AcDbEntity
  8
LAYER0004
  6
CONTINUOUS
 62
       7
100
AcDbLine
 10
-129.29034142
 20
-18.49094627
 30
0.0
 11
-129.26865026
 21
-18.39259832
 31
0.0
  0
LINE
  5
206
100
AcDbEntity
  8
LAYER0004
  6
CONTINUOUS
 62
       7
100
AcDbLine
 10
-129.26865026
 20
-18.39259832
 30
0.0
 11
-129.24727414
 21
-18.29706424
 31
0.0
  0
LINE
  5
207
100
AcDbEntity
  8
LAYER0004
  6
CONTINUOUS
 62
       7
100
AcDbLine
 10
-129.24727414
 20
-18.29706424
 30
0.0
 11
-129.22625354
 21
-18.20439104
 31
0.0
  0
LINE
  5
208
100
AcDbEntity
  8
LAYER0004
  6
CONTINUOUS
 62
       7
100
AcDbLine
 10
-129.22625354
 20
-18.20439104
 30
0.0
 11
-129.20562683
 21
-18.11462158
 31
0.0
  0
LINE
  5
209
100
AcDbEntity
  8
LAYER0004
  6
CONTINUOUS
 62
       7
100
AcDbLine
 10
-129.20562683
 20
-18.11462158
 30
0.0
 11
-129.18542454
 21
-18.02778324
 31
0.0
  0
LINE
  5
20A
100
AcDbEntity
  8
LAYER0004
  6
CONTINUOUS
 62
       7
100
AcDbLine
 10
-129.18542454
 20
-18.02778324
 30
0.0
 11
-129.16567537
 21
-17.94389974
 31
0.0
  0
LINE
  5
20B
100
AcDbEntity
  8
LAYER0004
  6
CONTINUOUS
 62
       7
100
AcDbLine
 10
-129.16567537
 20
-17.94389974
 30
0.0
 11
-129.14640802
 21
-17.86299483
 31
0.0
  0
LINE
  5
20C
100
AcDbEntity
  8
LAYER0004
  6
CONTINUOUS
 62
       7
100
AcDbLine
 10
-129.14640802
 20
-17.86299483
 30
0.0
 11
-129.12765118
 21
-17.78509223
 31
0.0
  0
LINE
  5
20D
100
AcDbEntity
  8
LAYER0004
  6
CONTINUOUS
 62
       7
100
AcDbLine
 10
-129.12765118
 20
-17.78509223
 30
0.0
 11
-129.10943355
 21
-17.7102157
 31
0.0
  0
LINE
  5
20E
100
AcDbEntity
  8
LAYER0004
  6
CONTINUOUS
 62
       7
100
AcDbLine
 10
-129.10943355
 20
-17.7102157
 30
0.0
 11
-129.09178383
 21
-17.63838895
 31
0.0
  0
LINE
  5
20F
100
AcDbEntity
  8
LAYER0004
  6
CONTINUOUS
 62
       7
100
AcDbLine
 10
-129.09178383
 20
-17.63838895
 30
0.0
 11
-129.07473072
 21
-17.56963575
 31
0.0
  0
LINE
  5
210
100
AcDbEntity
  8
LAYER0004
  6
CONTINUOUS
 62
       7
100
AcDbLine
 10
-129.07473072
 20
-17.56963575
 30
0.0
 11
-129.05830291
 21
-17.50397981
 31
0.0
  0
LINE
  5
211
100
AcDbEntity
  8
LAYER0004
  6
CONTINUOUS
 62
       7
100
AcDbLine
 10
-129.05830291
 20
-17.50397981
 30
0.0
 11
-129.04252908
 21
-17.4414452
 31
0.0
  0
LINE
  5
212
100
AcDbEntity
  8
LAYER0004
  6
CONTINUOUS
 62
       7
100
AcDbLine
 10
-129.04252908
 20
-17.4414452
 30
0.0
 11
-129.02743713
 21
-17.38206495
 31
0.0
  0
LINE
  5
213
100
AcDbEntity
  8
LAYER0004
  6
CONTINUOUS
 62
       7
100
AcDbLine
 10
-129.02743713
 20
-17.38206495
 30
0.0
 11
-129.01305414
 21
-17.32588203
 31
0.0
  0
LINE
  5
214
100
AcDbEntity
  8
LAYER0004
  6
CONTINUOUS
 62
       7
100
AcDbLine
 10
-129.01305414
 20
-17.32588203
 30
0.0
 11
-128.99940713
 21
-17.27293992
 31
0.0
  0
LINE
  5
215
100
AcDbEntity
  8
LAYER0004
  6
CONTINUOUS
 62
       7
100
AcDbLine
 10
-128.99940713
 20
-17.27293992
 30
0.0
 11
-128.98652315
 21
-17.22328212
 31
0.0
  0
LINE
  5
216
100
AcDbEntity
  8
LAYER0004
  6
CONTINUOUS
 62
       7
100
AcDbLine
 10
-128.98652315
 20
-17.22328212
 30
0.0
 11
-128.97442921
 21
-17.17695212
 31
0.0
  0
LINE
  5
217
100
AcDbEntity
  8
LAYER0004
  6
CONTINUOUS
 62
       7
100
AcDbLine
 10
-128.97442921
 20
-17.17695212
 30
0.0
 11
-128.96315235
 21
-17.13399339
 31
0.0
  0
LINE
  5
218
100
AcDbEntity
  8
LAYER0004
  6
CONTINUOUS
 62
       7
100
AcDbLine
 10
-128.96315235
 20
-17.13399339
 30
0.0
 11
-128.9527196
 21
-17.09444944
 31
0.0
  0
LINE
  5
219
100
AcDbEntity
  8
LAYER0004
  6
CONTINUOUS
 62
       7
100
AcDbLine
 10
-128.9527196
 20
-17.09444944
 30
0.0
 11
-128.94315798
 21
-17.05836374
 31
0.0
  0
LINE
  5
21A
100
AcDbEntity
  8
LAYER0004
  6
CONTINUOUS
 62
       7
100
AcDbLine
 10
-128.94315798
 20
-17.05836374
 30
0.0
 11
-128.93449453
 21
-17.02577979
 31
0.0
  0
LINE
  5
21B
100
AcDbEntity
  8
LAYER0004
  6
CONTINUOUS
 62
       7
100
AcDbLine
 10
-128.93449453
 20
-17.02577979
 30
0.0
 11
-128.92674927
 21
-16.9967223
 31
0.0
  0
LINE
  5
21C
100
AcDbEntity
  8
LAYER0004
  6
CONTINUOUS
 62
       7
100
AcDbLine
 10
-128.92674927
 20
-16.9967223
 30
0.0
 11
-128.91990886
 21
-16.97112645
 31
0.0
  0
LINE
  5
21D
100
AcDbEntity
  8
LAYER0004
  6
CONTINUOUS
 62
       7
100
AcDbLine
 10
-128.91990886
 20
-16.97112645
 30
0.0
 11
-128.91395001
 21
-16.94890072
 31
0.0
  0
LINE
  5
21E
100
AcDbEntity
  8
LAYER0004
  6
CONTINUOUS
 62
       7
100
AcDbLine
 10
-128.91395001
 20
-16.94890072
 30
0.0
 11
-128.90884941
 21
-16.92995362
 31
0.0
  0
LINE
  5
21F
100
AcDbEntity
  8
LAYER0004
  6
CONTINUOUS
 62
       7
100
AcDbLine
 10
-128.90884941
 20
-16.92995362
 30
0.0
 11
-128.90458457
 21
-16.91419646
 31
0.0
  0
LINE
  5
220
100
AcDbEntity
  8
LAYER0004
  6
CONTINUOUS
 62
       7
100
AcDbLine
 10
-128.90458457
 20
-16.91419646
 30
0.0
 11
-128.90125051
 21
-16.90195582
 31
0.0
  0
LINE
  5
221
100
AcDbEntity
  8
LAYER0004
  6
CONTINUOUS
 62
       7
100
AcDbLine
 10
-128.90125051
 20
-16.90195582
 30
0.0
 11
-128.89918243
 21
-16.89440701
 31
0.0
  0
LINE
  5
222
100
AcDbEntity
  8
LAYER0004
  6
CONTINUOUS
 62
       7
100
AcDbLine
 10
-128.89918243
 20
-16.89440701
 30
0.0
 11
-128.89847772
 21
-16.89185819
 31
0.0
  0
LINE
  5
223
100
AcDbEntity
  8
LAYER0004
  6
CONTINUOUS
 62
       7
100
AcDbLine
 10
-142.37308184
 20
57.99593905
 30
0.0
 11
-142.31590934
 21
57.9891383
 31
0.0
  0
LINE
  5
224
100
AcDbEntity
  8
LAYER0004
  6
CONTINUOUS
 62
       7
100
AcDbLine
 10
-142.31590934
 20
57.9891383
 30
0.0
 11
-142.25883472
 21
57.98195267
 31
0.0
  0
LINE
  5
225
100
AcDbEntity
  8
LAYER0004
  6
CONTINUOUS
 62
       7
100
AcDbLine
 10
-142.25883472
 20
57.98195267
 30
0.0
 11
-142.20195586
 21
57.97399729
 31
0.0
  0
LINE
  5
226
100
AcDbEntity
  8
LAYER0004
  6
CONTINUOUS
 62
       7
100
AcDbLine
 10
-142.20195586
 20
57.97399729
 30
0.0
 11
-142.14537063
 21
57.96488727
 31
0.0
  0
LINE
  5
227
100
AcDbEntity
  8
LAYER0004
  6
CONTINUOUS
 62
       7
100
AcDbLine
 10
-142.14537063
 20
57.96488727
 30
0.0
 11
-142.08917692
 21
57.95423774
 31
0.0
  0
LINE
  5
228
100
AcDbEntity
  8
LAYER0004
  6
CONTINUOUS
 62
       7
100
AcDbLine
 10
-142.08917692
 20
57.95423774
 30
0.0
 11
-142.0334726
 21
57.94166381
 31
0.0
  0
LINE
  5
229
100
AcDbEntity
  8
LAYER0004
  6
CONTINUOUS
 62
       7
100
AcDbLine
 10
-142.0334726
 20
57.94166381
 30
0.0
 11
-141.97835556
 21
57.92678061
 31
0.0
  0
LINE
  5
22A
100
AcDbEntity
  8
LAYER0004
  6
CONTINUOUS
 62
       7
100
AcDbLine
 10
-141.97835556
 20
57.92678061
 30
0.0
 11
-141.92392367
 21
57.90920326
 31
0.0
  0
LINE
  5
22B
100
AcDbEntity
  8
LAYER0004
  6
CONTINUOUS
 62
       7
100
AcDbLine
 10
-141.92392367
 20
57.90920326
 30
0.0
 11
-141.87027452
 21
57.88855343
 31
0.0
  0
LINE
  5
22C
100
AcDbEntity
  8
LAYER0004
  6
CONTINUOUS
 62
       7
100
AcDbLine
 10
-141.87027452
 20
57.88855343
 30
0.0
 11
-141.81749535
 21
57.86468442
 31
0.0
  0
LINE
  5
22D
100
AcDbEntity
  8
LAYER0004
  6
CONTINUOUS
 62
       7
100
AcDbLine
 10
-141.81749535
 20
57.86468442
 30
0.0
 11
-141.76566054
 21
57.83773774
 31
0.0
  0
LINE
  5
22E
100
AcDbEntity
  8
LAYER0004
  6
CONTINUOUS
 62
       7
100
AcDbLine
 10
-141.76566054
 20
57.83773774
 30
0.0
 11
-141.71484368
 21
57.80787293
 31
0.0
  0
LINE
  5
22F
100
AcDbEntity
  8
LAYER0004
  6
CONTINUOUS
 62
       7
100
AcDbLine
 10
-141.71484368
 20
57.80787293
 30
0.0
 11
-141.66511832
 21
57.77524953
 31
0.0
  0
LINE
  5
230
100
AcDbEntity
  8
LAYER0004
  6
CONTINUOUS
 62
       7
100
AcDbLine
 10
-141.66511832
 20
57.77524953
 30
0.0
 11
-141.61655806
 21
57.74002709
 31
0.0
  0
LINE
  5
231
100
AcDbEntity
  8
LAYER0004
  6
CONTINUOUS
 62
       7
100
AcDbLine
 10
-141.61655806
 20
57.74002709
 30
0.0
 11
-141.56923646
 21
57.70236517
 31
0.0
  0
LINE
  5
232
100
AcDbEntity
  8
LAYER0004
  6
CONTINUOUS
 62
       7
100
AcDbLine
 10
-141.56923646
 20
57.70236517
 30
0.0
 11
-141.5232271
 21
57.66242329
 31
0.0
  0
LINE
  5
233
100
AcDbEntity
  8
LAYER0004
  6
CONTINUOUS
 62
       7
100
AcDbLine
 10
-141.5232271
 20
57.66242329
 30
0.0
 11
-141.47860355
 21
57.62036101
 31
0.0
  0
LINE
  5
234
100
AcDbEntity
  8
LAYER0004
  6
CONTINUOUS
 62
       7
100
AcDbLine
 10
-141.47860355
 20
57.62036101
 30
0.0
 11
-141.43543563
 21
57.57632726
 31
0.0
  0
LINE
  5
235
100
AcDbEntity
  8
LAYER0004
  6
CONTINUOUS
 62
       7
100
AcDbLine
 10
-141.43543563
 20
57.57632726
 30
0.0
 11
-141.39376813
 21
57.53040021
 31
0.0
  0
LINE
  5
236
100
AcDbEntity
  8
LAYER0004
  6
CONTINUOUS
 62
       7
100
AcDbLine
 10
-141.39376813
 20
57.53040021
 30
0.0
 11
-141.35363557
 21
57.48262908
 31
0.0
  0
LINE
  5
237
100
AcDbEntity
  8
LAYER0004
  6
CONTINUOUS
 62
       7
100
AcDbLine
 10
-141.35363557
 20
57.48262908
 30
0.0
 11
-141.31507246
 21
57.43306302
 31
0.0
  0
LINE
  5
238
100
AcDbEntity
  8
LAYER0004
  6
CONTINUOUS
 62
       7
100
AcDbLine
 10
-141.31507246
 20
57.43306302
 30
0.0
 11
-141.27811332
 21
57.38175114
 31
0.0
  0
LINE
  5
239
100
AcDbEntity
  8
LAYER0004
  6
CONTINUOUS
 62
       7
100
AcDbLine
 10
-141.27811332
 20
57.38175114
 30
0.0
 11
-141.24279264
 21
57.32874261
 31
0.0
  0
LINE
  5
23A
100
AcDbEntity
  8
LAYER0004
  6
CONTINUOUS
 62
       7
100
AcDbLine
 10
-141.24279264
 20
57.32874261
 30
0.0
 11
-141.20914493
 21
57.27408653
 31
0.0
  0
LINE
  5
23B
100
AcDbEntity
  8
LAYER0004
  6
CONTINUOUS
 62
       7
100
AcDbLine
 10
-141.20914493
 20
57.27408653
 30
0.0
 11
-141.1772047
 21
57.21783207
 31
0.0
  0
LINE
  5
23C
100
AcDbEntity
  8
LAYER0004
  6
CONTINUOUS
 62
       7
100
AcDbLine
 10
-141.1772047
 20
57.21783207
 30
0.0
 11
-141.14700662
 21
57.16002852
 31
0.0
  0
LINE
  5
23D
100
AcDbEntity
  8
LAYER0004
  6
CONTINUOUS
 62
       7
100
AcDbLine
 10
-141.14700662
 20
57.16002852
 30
0.0
 11
-141.11860544
 21
57.10074557
 31
0.0
  0
LINE
  5
23E
100
AcDbEntity
  8
LAYER0004
  6
CONTINUOUS
 62
       7
100
AcDbLine
 10
-141.11860544
 20
57.10074557
 30
0.0
 11
-141.09209423
 21
57.04009184
 31
0.0
  0
LINE
  5
23F
100
AcDbEntity
  8
LAYER0004
  6
CONTINUOUS
 62
       7
100
AcDbLine
 10
-141.09209423
 20
57.04009184
 30
0.0
 11
-141.06757036
 21
56.97818033
 31
0.0
  0
LINE
  5
240
100
AcDbEntity
  8
LAYER0004
  6
CONTINUOUS
 62
       7
100
AcDbLine
 10
-141.06757036
 20
56.97818033
 30
0.0
 11
-141.04513125
 21
56.91512405
 31
0.0
  0
LINE
  5
241
100
AcDbEntity
  8
LAYER0004
  6
CONTINUOUS
 62
       7
100
AcDbLine
 10
-141.04513125
 20
56.91512405
 30
0.0
 11
-141.02487428
 21
56.85103599
 31
0.0
  0
LINE
  5
242
100
AcDbEntity
  8
LAYER0004
  6
CONTINUOUS
 62
       7
100
AcDbLine
 10
-141.02487428
 20
56.85103599
 30
0.0
 11
-141.00689683
 21
56.78602917
 31
0.0
  0
LINE
  5
243
100
AcDbEntity
  8
LAYER0004
  6
CONTINUOUS
 62
       7
100
AcDbLine
 10
-141.00689683
 20
56.78602917
 30
0.0
 11
-140.99129631
 21
56.72021658
 31
0.0
  0
LINE
  5
244
100
AcDbEntity
  8
LAYER0004
  6
CONTINUOUS
 62
       7
100
AcDbLine
 10
-140.99129631
 20
56.72021658
 30
0.0
 11
-140.9781701
 21
56.65371124
 31
0.0
  0
LINE
  5
245
100
AcDbEntity
  8
LAYER0004
  6
CONTINUOUS
 62
       7
100
AcDbLine
 10
-140.9781701
 20
56.65371124
 30
0.0
 11
-140.96758696
 21
56.58662525
 31
0.0
  0
LINE
  5
246
100
AcDbEntity
  8
LAYER0004
  6
CONTINUOUS
 62
       7
100
AcDbLine
 10
-140.96758696
 20
56.58662525
 30
0.0
 11
-140.95929386
 21
56.5190607
 31
0.0
  0
LINE
  5
247
100
AcDbEntity
  8
LAYER0004
  6
CONTINUOUS
 62
       7
100
AcDbLine
 10
-140.95929386
 20
56.5190607
 30
0.0
 11
-140.95283533
 21
56.45111339
 31
0.0
  0
LINE
  5
248
100
AcDbEntity
  8
LAYER0004
  6
CONTINUOUS
 62
       7
100
AcDbLine
 10
-140.95283533
 20
56.45111339
 30
0.0
 11
-140.94775272
 21
56.382879
 31
0.0
  0
LINE
  5
249
100
AcDbEntity
  8
LAYER0004
  6
CONTINUOUS
 62
       7
100
AcDbLine
 10
-140.94775272
 20
56.382879
 30
0.0
 11
-140.94358739
 21
56.31445323
 31
0.0
  0
LINE
  5
24A
100
AcDbEntity
  8
LAYER0004
  6
CONTINUOUS
 62
       7
100
AcDbLine
 10
-140.94358739
 20
56.31445323
 30
0.0
 11
-140.9398807
 21
56.24593177
 31
0.0
  0
LINE
  5
24B
100
AcDbEntity
  8
LAYER0004
  6
CONTINUOUS
 62
       7
100
AcDbLine
 10
-176.8182596
 20
56.24593177
 30
0.0
 11
-176.812796
 21
56.31466677
 31
0.0
  0
LINE
  5
24C
100
AcDbEntity
  8
LAYER0004
  6
CONTINUOUS
 62
       7
100
AcDbLine
 10
-176.812796
 20
56.31466677
 30
0.0
 11
-176.80702225
 21
56.38329777
 31
0.0
  0
LINE
  5
24D
100
AcDbEntity
  8
LAYER0004
  6
CONTINUOUS
 62
       7
100
AcDbLine
 10
-176.80702225
 20
56.38329777
 30
0.0
 11
-176.80062822
 21
56.45172079
 31
0.0
  0
LINE
  5
24E
100
AcDbEntity
  8
LAYER0004
  6
CONTINUOUS
 62
       7
100
AcDbLine
 10
-176.80062822
 20
56.45172079
 30
0.0
 11
-176.79330377
 21
56.51983183
 31
0.0
  0
LINE
  5
24F
100
AcDbEntity
  8
LAYER0004
  6
CONTINUOUS
 62
       7
100
AcDbLine
 10
-176.79330377
 20
56.51983183
 30
0.0
 11
-176.78473875
 21
56.58752691
 31
0.0
  0
LINE
  5
250
100
AcDbEntity
  8
LAYER0004
  6
CONTINUOUS
 62
       7
100
AcDbLine
 10
-176.78473875
 20
56.58752691
 30
0.0
 11
-176.77462302
 21
56.65470203
 31
0.0
  0
LINE
  5
251
100
AcDbEntity
  8
LAYER0004
  6
CONTINUOUS
 62
       7
100
AcDbLine
 10
-176.77462302
 20
56.65470203
 30
0.0
 11
-176.76264645
 21
56.72125319
 31
0.0
  0
LINE
  5
252
100
AcDbEntity
  8
LAYER0004
  6
CONTINUOUS
 62
       7
100
AcDbLine
 10
-176.76264645
 20
56.72125319
 30
0.0
 11
-176.74849888
 21
56.78707641
 31
0.0
  0
LINE
  5
253
100
AcDbEntity
  8
LAYER0004
  6
CONTINUOUS
 62
       7
100
AcDbLine
 10
-176.74849888
 20
56.78707641
 30
0.0
 11
-176.73187536
 21
56.85206775
 31
0.0
  0
LINE
  5
254
100
AcDbEntity
  8
LAYER0004
  6
CONTINUOUS
 62
       7
100
AcDbLine
 10
-176.73187536
 20
56.85206775
 30
0.0
 11
-176.71265512
 21
56.91612522
 31
0.0
  0
LINE
  5
255
100
AcDbEntity
  8
LAYER0004
  6
CONTINUOUS
 62
       7
100
AcDbLine
 10
-176.71265512
 20
56.91612522
 30
0.0
 11
-176.69094724
 21
56.9791493
 31
0.0
  0
LINE
  5
256
100
AcDbEntity
  8
LAYER0004
  6
CONTINUOUS
 62
       7
100
AcDbLine
 10
-176.69094724
 20
56.9791493
 30
0.0
 11
-176.66687524
 21
57.04104059
 31
0.0
  0
LINE
  5
257
100
AcDbEntity
  8
LAYER0004
  6
CONTINUOUS
 62
       7
100
AcDbLine
 10
-176.66687524
 20
57.04104059
 30
0.0
 11
-176.64056266
 21
57.1016997
 31
0.0
  0
LINE
  5
258
100
AcDbEntity
  8
LAYER0004
  6
CONTINUOUS
 62
       7
100
AcDbLine
 10
-176.64056266
 20
57.1016997
 30
0.0
 11
-176.61213302
 21
57.16102725
 31
0.0
  0
LINE
  5
259
100
AcDbEntity
  8
LAYER0004
  6
CONTINUOUS
 62
       7
100
AcDbLine
 10
-176.61213302
 20
57.16102725
 30
0.0
 11
-176.58170986
 21
57.21892386
 31
0.0
  0
LINE
  5
25A
100
AcDbEntity
  8
LAYER0004
  6
CONTINUOUS
 62
       7
100
AcDbLine
 10
-176.58170986
 20
57.21892386
 30
0.0
 11
-176.54941669
 21
57.27529014
 31
0.0
  0
LINE
  5
25B
100
AcDbEntity
  8
LAYER0004
  6
CONTINUOUS
 62
       7
100
AcDbLine
 10
-176.54941669
 20
57.27529014
 30
0.0
 11
-176.51537706
 21
57.33002669
 31
0.0
  0
LINE
  5
25C
100
AcDbEntity
  8
LAYER0004
  6
CONTINUOUS
 62
       7
100
AcDbLine
 10
-176.51537706
 20
57.33002669
 30
0.0
 11
-176.47970608
 21
57.38303903
 31
0.0
  0
LINE
  5
25D
100
AcDbEntity
  8
LAYER0004
  6
CONTINUOUS
 62
       7
100
AcDbLine
 10
-176.47970608
 20
57.38303903
 30
0.0
 11
-176.44246251
 21
57.43426542
 31
0.0
  0
LINE
  5
25E
100
AcDbEntity
  8
LAYER0004
  6
CONTINUOUS
 62
       7
100
AcDbLine
 10
-176.44246251
 20
57.43426542
 30
0.0
 11
-176.40368193
 21
57.48365759
 31
0.0
  0
LINE
  5
25F
100
AcDbEntity
  8
LAYER0004
  6
CONTINUOUS
 62
       7
100
AcDbLine
 10
-176.40368193
 20
57.48365759
 30
0.0
 11
-176.36339988
 21
57.53116732
 31
0.0
  0
LINE
  5
260
100
AcDbEntity
  8
LAYER0004
  6
CONTINUOUS
 62
       7
100
AcDbLine
 10
-176.36339988
 20
57.53116732
 30
0.0
 11
-176.32165187
 21
57.57674638
 31
0.0
  0
LINE
  5
261
100
AcDbEntity
  8
LAYER0004
  6
CONTINUOUS
 62
       7
100
AcDbLine
 10
-176.32165187
 20
57.57674638
 30
0.0
 11
-176.27847341
 21
57.62034655
 31
0.0
  0
LINE
  5
262
100
AcDbEntity
  8
LAYER0004
  6
CONTINUOUS
 62
       7
100
AcDbLine
 10
-176.27847341
 20
57.62034655
 30
0.0
 11
-176.23390004
 21
57.66191961
 31
0.0
  0
LINE
  5
263
100
AcDbEntity
  8
LAYER0004
  6
CONTINUOUS
 62
       7
100
AcDbLine
 10
-176.23390004
 20
57.66191961
 30
0.0
 11
-176.18796727
 21
57.70141731
 31
0.0
  0
LINE
  5
264
100
AcDbEntity
  8
LAYER0004
  6
CONTINUOUS
 62
       7
100
AcDbLine
 10
-176.18796727
 20
57.70141731
 30
0.0
 11
-176.14071075
 21
57.73879126
 31
0.0
  0
LINE
  5
265
100
AcDbEntity
  8
LAYER0004
  6
CONTINUOUS
 62
       7
100
AcDbLine
 10
-176.14071075
 20
57.73879126
 30
0.0
 11
-176.09218221
 21
57.7739688
 31
0.0
  0
LINE
  5
266
100
AcDbEntity
  8
LAYER0004
  6
CONTINUOUS
 62
       7
100
AcDbLine
 10
-176.09218221
 20
57.7739688
 30
0.0
 11
-176.04246484
 21
57.80682989
 31
0.0
  0
LINE
  5
267
100
AcDbEntity
  8
LAYER0004
  6
CONTINUOUS
 62
       7
100
AcDbLine
 10
-176.04246484
 20
57.80682989
 30
0.0
 11
-175.9916455
 21
57.83724901
 31
0.0
  0
LINE
  5
268
100
AcDbEntity
  8
LAYER0004
  6
CONTINUOUS
 62
       7
100
AcDbLine
 10
-175.9916455
 20
57.83724901
 30
0.0
 11
-175.939811
 21
57.86510063
 31
0.0
  0
LINE
  5
269
100
AcDbEntity
  8
LAYER0004
  6
CONTINUOUS
 62
       7
100
AcDbLine
 10
-175.939811
 20
57.86510063
 30
0.0
 11
-175.8870482
 21
57.89025923
 31
0.0
  0
LINE
  5
26A
100
AcDbEntity
  8
LAYER0004
  6
CONTINUOUS
 62
       7
100
AcDbLine
 10
-175.8870482
 20
57.89025923
 30
0.0
 11
-175.83344392
 21
57.91259927
 31
0.0
  0
LINE
  5
26B
100
AcDbEntity
  8
LAYER0004
  6
CONTINUOUS
 62
       7
100
AcDbLine
 10
-175.83344392
 20
57.91259927
 30
0.0
 11
-175.77908502
 21
57.93199524
 31
0.0
  0
LINE
  5
26C
100
AcDbEntity
  8
LAYER0004
  6
CONTINUOUS
 62
       7
100
AcDbLine
 10
-175.77908502
 20
57.93199524
 30
0.0
 11
-175.72405832
 21
57.94832161
 31
0.0
  0
LINE
  5
26D
100
AcDbEntity
  8
LAYER0004
  6
CONTINUOUS
 62
       7
100
AcDbLine
 10
-175.72405832
 20
57.94832161
 30
0.0
 11
-175.6684512
 21
57.96148765
 31
0.0
  0
LINE
  5
26E
100
AcDbEntity
  8
LAYER0004
  6
CONTINUOUS
 62
       7
100
AcDbLine
 10
-175.6684512
 20
57.96148765
 30
0.0
 11
-175.6123571
 21
57.97180336
 31
0.0
  0
LINE
  5
26F
100
AcDbEntity
  8
LAYER0004
  6
CONTINUOUS
 62
       7
100
AcDbLine
 10
-175.6123571
 20
57.97180336
 30
0.0
 11
-175.55587337
 21
57.97983545
 31
0.0
  0
LINE
  5
270
100
AcDbEntity
  8
LAYER0004
  6
CONTINUOUS
 62
       7
100
AcDbLine
 10
-175.55587337
 20
57.97983545
 30
0.0
 11
-175.49909742
 21
57.98615482
 31
0.0
  0
LINE
  5
271
100
AcDbEntity
  8
LAYER0004
  6
CONTINUOUS
 62
       7
100
AcDbLine
 10
-175.49909742
 20
57.98615482
 30
0.0
 11
-175.44212665
 21
57.99133239
 31
0.0
  0
LINE
  5
272
100
AcDbEntity
  8
LAYER0004
  6
CONTINUOUS
 62
       7
100
AcDbLine
 10
-175.44212665
 20
57.99133239
 30
0.0
 11
-175.38505847
 21
57.99593905
 31
0.0
  0
LINE
  5
273
100
AcDbEntity
  8
LAYER0004
  6
CONTINUOUS
 62
       7
100
AcDbLine
 10
-175.38505847
 20
44.09594217
 30
0.0
 11
-175.44223078
 21
44.10274282
 31
0.0
  0
LINE
  5
274
100
AcDbEntity
  8
LAYER0004
  6
CONTINUOUS
 62
       7
100
AcDbLine
 10
-175.44223078
 20
44.10274282
 30
0.0
 11
-175.49930521
 21
44.10992835
 31
0.0
  0
LINE
  5
275
100
AcDbEntity
  8
LAYER0004
  6
CONTINUOUS
 62
       7
100
AcDbLine
 10
-175.49930521
 20
44.10992835
 30
0.0
 11
-175.55618387
 21
44.11788363
 31
0.0
  0
LINE
  5
276
100
AcDbEntity
  8
LAYER0004
  6
CONTINUOUS
 62
       7
100
AcDbLine
 10
-175.55618387
 20
44.11788363
 30
0.0
 11
-175.61276888
 21
44.12699356
 31
0.0
  0
LINE
  5
277
100
AcDbEntity
  8
LAYER0004
  6
CONTINUOUS
 62
       7
100
AcDbLine
 10
-175.61276888
 20
44.12699356
 30
0.0
 11
-175.66896236
 21
44.137643
 31
0.0
  0
LINE
  5
278
100
AcDbEntity
  8
LAYER0004
  6
CONTINUOUS
 62
       7
100
AcDbLine
 10
-175.66896236
 20
44.137643
 30
0.0
 11
-175.72466643
 21
44.15021683
 31
0.0
  0
LINE
  5
279
100
AcDbEntity
  8
LAYER0004
  6
CONTINUOUS
 62
       7
100
AcDbLine
 10
-175.72466643
 20
44.15021683
 30
0.0
 11
-175.7797832
 21
44.16509994
 31
0.0
  0
LINE
  5
27A
100
AcDbEntity
  8
LAYER0004
  6
CONTINUOUS
 62
       7
100
AcDbLine
 10
-175.7797832
 20
44.16509994
 30
0.0
 11
-175.83421479
 21
44.18267721
 31
0.0
  0
LINE
  5
27B
100
AcDbEntity
  8
LAYER0004
  6
CONTINUOUS
 62
       7
100
AcDbLine
 10
-175.83421479
 20
44.18267721
 30
0.0
 11
-175.8878636
 21
44.20332695
 31
0.0
  0
LINE
  5
27C
100
AcDbEntity
  8
LAYER0004
  6
CONTINUOUS
 62
       7
100
AcDbLine
 10
-175.8878636
 20
44.20332695
 30
0.0
 11
-175.94064241
 21
44.22719589
 31
0.0
  0
LINE
  5
27D
100
AcDbEntity
  8
LAYER0004
  6
CONTINUOUS
 62
       7
100
AcDbLine
 10
-175.94064241
 20
44.22719589
 30
0.0
 11
-175.99247686
 21
44.25414248
 31
0.0
  0
LINE
  5
27E
100
AcDbEntity
  8
LAYER0004
  6
CONTINUOUS
 62
       7
100
AcDbLine
 10
-175.99247686
 20
44.25414248
 30
0.0
 11
-176.0432934
 21
44.28400717
 31
0.0
  0
LINE
  5
27F
100
AcDbEntity
  8
LAYER0004
  6
CONTINUOUS
 62
       7
100
AcDbLine
 10
-176.0432934
 20
44.28400717
 30
0.0
 11
-176.09301848
 21
44.31663038
 31
0.0
  0
LINE
  5
280
100
AcDbEntity
  8
LAYER0004
  6
CONTINUOUS
 62
       7
100
AcDbLine
 10
-176.09301848
 20
44.31663038
 30
0.0
 11
-176.14157857
 21
44.35185254
 31
0.0
  0
LINE
  5
281
100
AcDbEntity
  8
LAYER0004
  6
CONTINUOUS
 62
       7
100
AcDbLine
 10
-176.14157857
 20
44.35185254
 30
0.0
 11
-176.18890011
 21
44.38951409
 31
0.0
  0
LINE
  5
282
100
AcDbEntity
  8
LAYER0004
  6
CONTINUOUS
 62
       7
100
AcDbLine
 10
-176.18890011
 20
44.38951409
 30
0.0
 11
-176.23490956
 21
44.42945544
 31
0.0
  0
LINE
  5
283
100
AcDbEntity
  8
LAYER0004
  6
CONTINUOUS
 62
       7
100
AcDbLine
 10
-176.23490956
 20
44.42945544
 30
0.0
 11
-176.27953336
 21
44.47151703
 31
0.0
  0
LINE
  5
284
100
AcDbEntity
  8
LAYER0004
  6
CONTINUOUS
 62
       7
100
AcDbLine
 10
-176.27953336
 20
44.47151703
 30
0.0
 11
-176.32270173
 21
44.51554991
 31
0.0
  0
LINE
  5
285
100
AcDbEntity
  8
LAYER0004
  6
CONTINUOUS
 62
       7
100
AcDbLine
 10
-176.32270173
 20
44.51554991
 30
0.0
 11
-176.36436985
 21
44.56147593
 31
0.0
  0
LINE
  5
286
100
AcDbEntity
  8
LAYER0004
  6
CONTINUOUS
 62
       7
100
AcDbLine
 10
-176.36436985
 20
44.56147593
 30
0.0
 11
-176.40450311
 21
44.60924593
 31
0.0
  0
LINE
  5
287
100
AcDbEntity
  8
LAYER0004
  6
CONTINUOUS
 62
       7
100
AcDbLine
 10
-176.40450311
 20
44.60924593
 30
0.0
 11
-176.44306696
 21
44.65881081
 31
0.0
  0
LINE
  5
288
100
AcDbEntity
  8
LAYER0004
  6
CONTINUOUS
 62
       7
100
AcDbLine
 10
-176.44306696
 20
44.65881081
 30
0.0
 11
-176.48002683
 21
44.7101215
 31
0.0
  0
LINE
  5
289
100
AcDbEntity
  8
LAYER0004
  6
CONTINUOUS
 62
       7
100
AcDbLine
 10
-176.48002683
 20
44.7101215
 30
0.0
 11
-176.51534817
 21
44.76312891
 31
0.0
  0
LINE
  5
28A
100
AcDbEntity
  8
LAYER0004
  6
CONTINUOUS
 62
       7
100
AcDbLine
 10
-176.51534817
 20
44.76312891
 30
0.0
 11
-176.54899639
 21
44.81778396
 31
0.0
  0
LINE
  5
28B
100
AcDbEntity
  8
LAYER0004
  6
CONTINUOUS
 62
       7
100
AcDbLine
 10
-176.54899639
 20
44.81778396
 30
0.0
 11
-176.58093695
 21
44.87403756
 31
0.0
  0
LINE
  5
28C
100
AcDbEntity
  8
LAYER0004
  6
CONTINUOUS
 62
       7
100
AcDbLine
 10
-176.58093695
 20
44.87403756
 30
0.0
 11
-176.61113511
 21
44.93184046
 31
0.0
  0
LINE
  5
28D
100
AcDbEntity
  8
LAYER0004
  6
CONTINUOUS
 62
       7
100
AcDbLine
 10
-176.61113511
 20
44.93184046
 30
0.0
 11
-176.6395361
 21
44.99112298
 31
0.0
  0
LINE
  5
28E
100
AcDbEntity
  8
LAYER0004
  6
CONTINUOUS
 62
       7
100
AcDbLine
 10
-176.6395361
 20
44.99112298
 30
0.0
 11
-176.66604691
 21
45.05177647
 31
0.0
  0
LINE
  5
28F
100
AcDbEntity
  8
LAYER0004
  6
CONTINUOUS
 62
       7
100
AcDbLine
 10
-176.66604691
 20
45.05177647
 30
0.0
 11
-176.69057023
 21
45.11368789
 31
0.0
  0
LINE
  5
290
100
AcDbEntity
  8
LAYER0004
  6
CONTINUOUS
 62
       7
100
AcDbLine
 10
-176.69057023
 20
45.11368789
 30
0.0
 11
-176.71300874
 21
45.17674419
 31
0.0
  0
LINE
  5
291
100
AcDbEntity
  8
LAYER0004
  6
CONTINUOUS
 62
       7
100
AcDbLine
 10
-176.71300874
 20
45.17674419
 30
0.0
 11
-176.7332651
 21
45.24083232
 31
0.0
  0
LINE
  5
292
100
AcDbEntity
  8
LAYER0004
  6
CONTINUOUS
 62
       7
100
AcDbLine
 10
-176.7332651
 20
45.24083232
 30
0.0
 11
-176.75124199
 21
45.30583923
 31
0.0
  0
LINE
  5
293
100
AcDbEntity
  8
LAYER0004
  6
CONTINUOUS
 62
       7
100
AcDbLine
 10
-176.75124199
 20
45.30583923
 30
0.0
 11
-176.76684211
 21
45.37165187
 31
0.0
  0
LINE
  5
294
100
AcDbEntity
  8
LAYER0004
  6
CONTINUOUS
 62
       7
100
AcDbLine
 10
-176.76684211
 20
45.37165187
 30
0.0
 11
-176.77996811
 21
45.4381572
 31
0.0
  0
LINE
  5
295
100
AcDbEntity
  8
LAYER0004
  6
CONTINUOUS
 62
       7
100
AcDbLine
 10
-176.77996811
 20
45.4381572
 30
0.0
 11
-176.79055129
 21
45.50524306
 31
0.0
  0
LINE
  5
296
100
AcDbEntity
  8
LAYER0004
  6
CONTINUOUS
 62
       7
100
AcDbLine
 10
-176.79055129
 20
45.50524306
 30
0.0
 11
-176.79884459
 21
45.57280735
 31
0.0
  0
LINE
  5
297
100
AcDbEntity
  8
LAYER0004
  6
CONTINUOUS
 62
       7
100
AcDbLine
 10
-176.79884459
 20
45.57280735
 30
0.0
 11
-176.80530347
 21
45.64075431
 31
0.0
  0
LINE
  5
298
100
AcDbEntity
  8
LAYER0004
  6
CONTINUOUS
 62
       7
100
AcDbLine
 10
-176.80530347
 20
45.64075431
 30
0.0
 11
-176.81038652
 21
45.70898828
 31
0.0
  0
LINE
  5
299
100
AcDbEntity
  8
LAYER0004
  6
CONTINUOUS
 62
       7
100
AcDbLine
 10
-176.81038652
 20
45.70898828
 30
0.0
 11
-176.81455237
 21
45.77741357
 31
0.0
  0
LINE
  5
29A
100
AcDbEntity
  8
LAYER0004
  6
CONTINUOUS
 62
       7
100
AcDbLine
 10
-176.81455237
 20
45.77741357
 30
0.0
 11
-176.8182596
 21
45.84593454
 31
0.0
  0
LINE
  5
29B
100
AcDbEntity
  8
LAYER0004
  6
CONTINUOUS
 62
       7
100
AcDbLine
 10
-140.9398807
 20
45.84593454
 30
0.0
 11
-140.94534464
 21
45.77719994
 31
0.0
  0
LINE
  5
29C
100
AcDbEntity
  8
LAYER0004
  6
CONTINUOUS
 62
       7
100
AcDbLine
 10
-140.94534464
 20
45.77719994
 30
0.0
 11
-140.95111872
 21
45.70856934
 31
0.0
  0
LINE
  5
29D
100
AcDbEntity
  8
LAYER0004
  6
CONTINUOUS
 62
       7
100
AcDbLine
 10
-140.95111872
 20
45.70856934
 30
0.0
 11
-140.95751308
 21
45.64014671
 31
0.0
  0
LINE
  5
29E
100
AcDbEntity
  8
LAYER0004
  6
CONTINUOUS
 62
       7
100
AcDbLine
 10
-140.95751308
 20
45.64014671
 30
0.0
 11
-140.96483788
 21
45.57203605
 31
0.0
  0
LINE
  5
29F
100
AcDbEntity
  8
LAYER0004
  6
CONTINUOUS
 62
       7
100
AcDbLine
 10
-140.96483788
 20
45.57203605
 30
0.0
 11
-140.97340325
 21
45.50434134
 31
0.0
  0
LINE
  5
2A0
100
AcDbEntity
  8
LAYER0004
  6
CONTINUOUS
 62
       7
100
AcDbLine
 10
-140.97340325
 20
45.50434134
 30
0.0
 11
-140.98351934
 21
45.43716659
 31
0.0
  0
LINE
  5
2A1
100
AcDbEntity
  8
LAYER0004
  6
CONTINUOUS
 62
       7
100
AcDbLine
 10
-140.98351934
 20
45.43716659
 30
0.0
 11
-140.99549629
 21
45.37061576
 31
0.0
  0
LINE
  5
2A2
100
AcDbEntity
  8
LAYER0004
  6
CONTINUOUS
 62
       7
100
AcDbLine
 10
-140.99549629
 20
45.37061576
 30
0.0
 11
-141.00964424
 21
45.30479287
 31
0.0
  0
LINE
  5
2A3
100
AcDbEntity
  8
LAYER0004
  6
CONTINUOUS
 62
       7
100
AcDbLine
 10
-141.00964424
 20
45.30479287
 30
0.0
 11
-141.02626816
 21
45.23980183
 31
0.0
  0
LINE
  5
2A4
100
AcDbEntity
  8
LAYER0004
  6
CONTINUOUS
 62
       7
100
AcDbLine
 10
-141.02626816
 20
45.23980183
 30
0.0
 11
-141.04548875
 21
45.17574464
 31
0.0
  0
LINE
  5
2A5
100
AcDbEntity
  8
LAYER0004
  6
CONTINUOUS
 62
       7
100
AcDbLine
 10
-141.04548875
 20
45.17574464
 30
0.0
 11
-141.06719694
 21
45.11272086
 31
0.0
  0
LINE
  5
2A6
100
AcDbEntity
  8
LAYER0004
  6
CONTINUOUS
 62
       7
100
AcDbLine
 10
-141.06719694
 20
45.11272086
 30
0.0
 11
-141.0912692
 21
45.05082989
 31
0.0
  0
LINE
  5
2A7
100
AcDbEntity
  8
LAYER0004
  6
CONTINUOUS
 62
       7
100
AcDbLine
 10
-141.0912692
 20
45.05082989
 30
0.0
 11
-141.11758202
 21
44.99017114
 31
0.0
  0
LINE
  5
2A8
100
AcDbEntity
  8
LAYER0004
  6
CONTINUOUS
 62
       7
100
AcDbLine
 10
-141.11758202
 20
44.99017114
 30
0.0
 11
-141.14601186
 21
44.93084401
 31
0.0
  0
LINE
  5
2A9
100
AcDbEntity
  8
LAYER0004
  6
CONTINUOUS
 62
       7
100
AcDbLine
 10
-141.14601186
 20
44.93084401
 30
0.0
 11
-141.17643522
 21
44.87294792
 31
0.0
  0
LINE
  5
2AA
100
AcDbEntity
  8
LAYER0004
  6
CONTINUOUS
 62
       7
100
AcDbLine
 10
-141.17643522
 20
44.87294792
 30
0.0
 11
-141.20872858
 21
44.81658227
 31
0.0
  0
LINE
  5
2AB
100
AcDbEntity
  8
LAYER0004
  6
CONTINUOUS
 62
       7
100
AcDbLine
 10
-141.20872858
 20
44.81658227
 30
0.0
 11
-141.2427684
 21
44.76184647
 31
0.0
  0
LINE
  5
2AC
100
AcDbEntity
  8
LAYER0004
  6
CONTINUOUS
 62
       7
100
AcDbLine
 10
-141.2427684
 20
44.76184647
 30
0.0
 11
-141.27843959
 21
44.70883501
 31
0.0
  0
LINE
  5
2AD
100
AcDbEntity
  8
LAYER0004
  6
CONTINUOUS
 62
       7
100
AcDbLine
 10
-141.27843959
 20
44.70883501
 30
0.0
 11
-141.31568337
 21
44.65760959
 31
0.0
  0
LINE
  5
2AE
100
AcDbEntity
  8
LAYER0004
  6
CONTINUOUS
 62
       7
100
AcDbLine
 10
-141.31568337
 20
44.65760959
 30
0.0
 11
-141.35446414
 21
44.60821837
 31
0.0
  0
LINE
  5
2AF
100
AcDbEntity
  8
LAYER0004
  6
CONTINUOUS
 62
       7
100
AcDbLine
 10
-141.35446414
 20
44.60821837
 30
0.0
 11
-141.39474635
 21
44.5607095
 31
0.0
  0
LINE
  5
2B0
100
AcDbEntity
  8
LAYER0004
  6
CONTINUOUS
 62
       7
100
AcDbLine
 10
-141.39474635
 20
44.5607095
 30
0.0
 11
-141.43649446
 21
44.51513111
 31
0.0
  0
LINE
  5
2B1
100
AcDbEntity
  8
LAYER0004
  6
CONTINUOUS
 62
       7
100
AcDbLine
 10
-141.43649446
 20
44.51513111
 30
0.0
 11
-141.47967292
 21
44.47153136
 31
0.0
  0
LINE
  5
2B2
100
AcDbEntity
  8
LAYER0004
  6
CONTINUOUS
 62
       7
100
AcDbLine
 10
-141.47967292
 20
44.47153136
 30
0.0
 11
-141.5242462
 21
44.42995838
 31
0.0
  0
LINE
  5
2B3
100
AcDbEntity
  8
LAYER0004
  6
CONTINUOUS
 62
       7
100
AcDbLine
 10
-141.5242462
 20
44.42995838
 30
0.0
 11
-141.57017874
 21
44.3904603
 31
0.0
  0
LINE
  5
2B4
100
AcDbEntity
  8
LAYER0004
  6
CONTINUOUS
 62
       7
100
AcDbLine
 10
-141.57017874
 20
44.3904603
 30
0.0
 11
-141.61743488
 21
44.35308548
 31
0.0
  0
LINE
  5
2B5
100
AcDbEntity
  8
LAYER0004
  6
CONTINUOUS
 62
       7
100
AcDbLine
 10
-141.61743488
 20
44.35308548
 30
0.0
 11
-141.66596289
 21
44.31790655
 31
0.0
  0
LINE
  5
2B6
100
AcDbEntity
  8
LAYER0004
  6
CONTINUOUS
 62
       7
100
AcDbLine
 10
-141.66596289
 20
44.31790655
 30
0.0
 11
-141.71567959
 21
44.28504373
 31
0.0
  0
LINE
  5
2B7
100
AcDbEntity
  8
LAYER0004
  6
CONTINUOUS
 62
       7
100
AcDbLine
 10
-141.71567959
 20
44.28504373
 30
0.0
 11
-141.7664982
 21
44.25462271
 31
0.0
  0
LINE
  5
2B8
100
AcDbEntity
  8
LAYER0004
  6
CONTINUOUS
 62
       7
100
AcDbLine
 10
-141.7664982
 20
44.25462271
 30
0.0
 11
-141.81833192
 21
44.22676921
 31
0.0
  0
LINE
  5
2B9
100
AcDbEntity
  8
LAYER0004
  6
CONTINUOUS
 62
       7
100
AcDbLine
 10
-141.81833192
 20
44.22676921
 30
0.0
 11
-141.87109395
 21
44.20160894
 31
0.0
  0
LINE
  5
2BA
100
AcDbEntity
  8
LAYER0004
  6
CONTINUOUS
 62
       7
100
AcDbLine
 10
-141.87109395
 20
44.20160894
 30
0.0
 11
-141.92469751
 21
44.1792676
 31
0.0
  0
LINE
  5
2BB
100
AcDbEntity
  8
LAYER0004
  6
CONTINUOUS
 62
       7
100
AcDbLine
 10
-141.92469751
 20
44.1792676
 30
0.0
 11
-141.97905579
 21
44.15987089
 31
0.0
  0
LINE
  5
2BC
100
AcDbEntity
  8
LAYER0004
  6
CONTINUOUS
 62
       7
100
AcDbLine
 10
-141.97905579
 20
44.15987089
 30
0.0
 11
-142.03408199
 21
44.14354453
 31
0.0
  0
LINE
  5
2BD
100
AcDbEntity
  8
LAYER0004
  6
CONTINUOUS
 62
       7
100
AcDbLine
 10
-142.03408199
 20
44.14354453
 30
0.0
 11
-142.0896888
 21
44.13037941
 31
0.0
  0
LINE
  5
2BE
100
AcDbEntity
  8
LAYER0004
  6
CONTINUOUS
 62
       7
100
AcDbLine
 10
-142.0896888
 20
44.13037941
 30
0.0
 11
-142.14578275
 21
44.12006549
 31
0.0
  0
LINE
  5
2BF
100
AcDbEntity
  8
LAYER0004
  6
CONTINUOUS
 62
       7
100
AcDbLine
 10
-142.14578275
 20
44.12006549
 30
0.0
 11
-142.20226648
 21
44.11203588
 31
0.0
  0
LINE
  5
2C0
100
AcDbEntity
  8
LAYER0004
  6
CONTINUOUS
 62
       7
100
AcDbLine
 10
-142.20226648
 20
44.11203588
 30
0.0
 11
-142.25904253
 21
44.10571951
 31
0.0
  0
LINE
  5
2C1
100
AcDbEntity
  8
LAYER0004
  6
CONTINUOUS
 62
       7
100
AcDbLine
 10
-142.25904253
 20
44.10571951
 30
0.0
 11
-142.31601346
 21
44.1005453
 31
0.0
  0
LINE
  5
2C2
100
AcDbEntity
  8
LAYER0004
  6
CONTINUOUS
 62
       7
100
AcDbLine
 10
-142.31601346
 20
44.1005453
 30
0.0
 11
-142.37308184
 21
44.09594217
 31
0.0
  0
LINE
  5
2C3
100
AcDbEntity
  8
LAYER0004
  6
CONTINUOUS
 62
       7
100
AcDbLine
 10
-129.07907048
 20
-28.21816376
 30
0.0
 11
-129.07984172
 21
-28.17137718
 31
0.0
  0
LINE
  5
2C4
100
AcDbEntity
  8
LAYER0004
  6
CONTINUOUS
 62
       7
100
AcDbLine
 10
-129.07984172
 20
-28.17137718
 30
0.0
 11
-129.08158005
 21
-28.1246334
 31
0.0
  0
LINE
  5
2C5
100
AcDbEntity
  8
LAYER0004
  6
CONTINUOUS
 62
       7
100
AcDbLine
 10
-129.08158005
 20
-28.1246334
 30
0.0
 11
-129.08492715
 21
-28.07796083
 31
0.0
  0
LINE
  5
2C6
100
AcDbEntity
  8
LAYER0004
  6
CONTINUOUS
 62
       7
100
AcDbLine
 10
-129.08492715
 20
-28.07796083
 30
0.0
 11
-129.08988452
 21
-28.03135952
 31
0.0
  0
LINE
  5
2C7
100
AcDbEntity
  8
LAYER0004
  6
CONTINUOUS
 62
       7
100
AcDbLine
 10
-129.08988452
 20
-28.03135952
 30
0.0
 11
-129.09637896
 21
-27.98482624
 31
0.0
  0
LINE
  5
2C8
100
AcDbEntity
  8
LAYER0004
  6
CONTINUOUS
 62
       7
100
AcDbLine
 10
-129.09637896
 20
-27.98482624
 30
0.0
 11
-129.10433729
 21
-27.93835775
 31
0.0
  0
LINE
  5
2C9
100
AcDbEntity
  8
LAYER0004
  6
CONTINUOUS
 62
       7
100
AcDbLine
 10
-129.10433729
 20
-27.93835775
 30
0.0
 11
-129.11368631
 21
-27.89195081
 31
0.0
  0
LINE
  5
2CA
100
AcDbEntity
  8
LAYER0004
  6
CONTINUOUS
 62
       7
100
AcDbLine
 10
-129.11368631
 20
-27.89195081
 30
0.0
 11
-129.12435282
 21
-27.84560218
 31
0.0
  0
LINE
  5
2CB
100
AcDbEntity
  8
LAYER0004
  6
CONTINUOUS
 62
       7
100
AcDbLine
 10
-129.12435282
 20
-27.84560218
 30
0.0
 11
-129.13626364
 21
-27.79930862
 31
0.0
  0
LINE
  5
2CC
100
AcDbEntity
  8
LAYER0004
  6
CONTINUOUS
 62
       7
100
AcDbLine
 10
-129.13626364
 20
-27.79930862
 30
0.0
 11
-129.14934556
 21
-27.75306689
 31
0.0
  0
LINE
  5
2CD
100
AcDbEntity
  8
LAYER0004
  6
CONTINUOUS
 62
       7
100
AcDbLine
 10
-129.14934556
 20
-27.75306689
 30
0.0
 11
-129.16352539
 21
-27.70687376
 31
0.0
  0
LINE
  5
2CE
100
AcDbEntity
  8
LAYER0004
  6
CONTINUOUS
 62
       7
100
AcDbLine
 10
-129.16352539
 20
-27.70687376
 30
0.0
 11
-129.17872995
 21
-27.66072597
 31
0.0
  0
LINE
  5
2CF
100
AcDbEntity
  8
LAYER0004
  6
CONTINUOUS
 62
       7
100
AcDbLine
 10
-129.17872995
 20
-27.66072597
 30
0.0
 11
-129.19488602
 21
-27.6146203
 31
0.0
  0
LINE
  5
2D0
100
AcDbEntity
  8
LAYER0004
  6
CONTINUOUS
 62
       7
100
AcDbLine
 10
-129.19488602
 20
-27.6146203
 30
0.0
 11
-129.21192043
 21
-27.5685535
 31
0.0
  0
LINE
  5
2D1
100
AcDbEntity
  8
LAYER0004
  6
CONTINUOUS
 62
       7
100
AcDbLine
 10
-129.21192043
 20
-27.5685535
 30
0.0
 11
-129.22975997
 21
-27.52252234
 31
0.0
  0
LINE
  5
2D2
100
AcDbEntity
  8
LAYER0004
  6
CONTINUOUS
 62
       7
100
AcDbLine
 10
-129.22975997
 20
-27.52252234
 30
0.0
 11
-129.24833145
 21
-27.47652357
 31
0.0
  0
LINE
  5
2D3
100
AcDbEntity
  8
LAYER0004
  6
CONTINUOUS
 62
       7
100
AcDbLine
 10
-129.24833145
 20
-27.47652357
 30
0.0
 11
-129.26756168
 21
-27.43055395
 31
0.0
  0
LINE
  5
2D4
100
AcDbEntity
  8
LAYER0004
  6
CONTINUOUS
 62
       7
100
AcDbLine
 10
-129.26756168
 20
-27.43055395
 30
0.0
 11
-129.28737747
 21
-27.38461025
 31
0.0
  0
LINE
  5
2D5
100
AcDbEntity
  8
LAYER0004
  6
CONTINUOUS
 62
       7
100
AcDbLine
 10
-129.28737747
 20
-27.38461025
 30
0.0
 11
-129.30770561
 21
-27.33868923
 31
0.0
  0
LINE
  5
2D6
100
AcDbEntity
  8
LAYER0004
  6
CONTINUOUS
 62
       7
100
AcDbLine
 10
-129.30770561
 20
-27.33868923
 30
0.0
 11
-129.32847292
 21
-27.29278764
 31
0.0
  0
LINE
  5
2D7
100
AcDbEntity
  8
LAYER0004
  6
CONTINUOUS
 62
       7
100
AcDbLine
 10
-129.32847292
 20
-27.29278764
 30
0.0
 11
-129.3496062
 21
-27.24690225
 31
0.0
  0
LINE
  5
2D8
100
AcDbEntity
  8
LAYER0004
  6
CONTINUOUS
 62
       7
100
AcDbLine
 10
-129.3496062
 20
-27.24690225
 30
0.0
 11
-129.37103225
 21
-27.20102982
 31
0.0
  0
LINE
  5
2D9
100
AcDbEntity
  8
LAYER0004
  6
CONTINUOUS
 62
       7
100
AcDbLine
 10
-129.37103225
 20
-27.20102982
 30
0.0
 11
-129.39267789
 21
-27.15516711
 31
0.0
  0
LINE
  5
2DA
100
AcDbEntity
  8
LAYER0004
  6
CONTINUOUS
 62
       7
100
AcDbLine
 10
-129.39267789
 20
-27.15516711
 30
0.0
 11
-129.41446992
 21
-27.10931087
 31
0.0
  0
LINE
  5
2DB
100
AcDbEntity
  8
LAYER0004
  6
CONTINUOUS
 62
       7
100
AcDbLine
 10
-129.41446992
 20
-27.10931087
 30
0.0
 11
-129.43633514
 21
-27.06346533
 31
0.0
  0
LINE
  5
2DC
100
AcDbEntity
  8
LAYER0004
  6
CONTINUOUS
 62
       7
100
AcDbLine
 10
-118.8290702
 20
-29.7540637
 30
0.0
 11
-118.83184895
 21
-29.7540637
 31
0.0
  0
LINE
  5
2DD
100
AcDbEntity
  8
LAYER0004
  6
CONTINUOUS
 62
       7
100
AcDbLine
 10
-118.83184895
 20
-29.7540637
 30
0.0
 11
-118.83496311
 21
-29.7540637
 31
0.0
  0
LINE
  5
2DE
100
AcDbEntity
  8
LAYER0004
  6
CONTINUOUS
 62
       7
100
AcDbLine
 10
-118.83496311
 20
-29.7540637
 30
0.0
 11
-118.83874808
 21
-29.7540637
 31
0.0
  0
LINE
  5
2DF
100
AcDbEntity
  8
LAYER0004
  6
CONTINUOUS
 62
       7
100
AcDbLine
 10
-118.83874808
 20
-29.7540637
 30
0.0
 11
-118.84353928
 21
-29.7540637
 31
0.0
  0
LINE
  5
2E0
100
AcDbEntity
  8
LAYER0004
  6
CONTINUOUS
 62
       7
100
AcDbLine
 10
-118.84353928
 20
-29.7540637
 30
0.0
 11
-118.84967211
 21
-29.7540637
 31
0.0
  0
LINE
  5
2E1
100
AcDbEntity
  8
LAYER0004
  6
CONTINUOUS
 62
       7
100
AcDbLine
 10
-118.84967211
 20
-29.7540637
 30
0.0
 11
-118.85748198
 21
-29.7540637
 31
0.0
  0
LINE
  5
2E2
100
AcDbEntity
  8
LAYER0004
  6
CONTINUOUS
 62
       7
100
AcDbLine
 10
-118.85748198
 20
-29.7540637
 30
0.0
 11
-118.86726349
 21
-29.7540637
 31
0.0
  0
LINE
  5
2E3
100
AcDbEntity
  8
LAYER0004
  6
CONTINUOUS
 62
       7
100
AcDbLine
 10
-118.86726349
 20
-29.7540637
 30
0.0
 11
-118.87902744
 21
-29.7540637
 31
0.0
  0
LINE
  5
2E4
100
AcDbEntity
  8
LAYER0004
  6
CONTINUOUS
 62
       7
100
AcDbLine
 10
-118.87902744
 20
-29.7540637
 30
0.0
 11
-118.89266412
 21
-29.7540637
 31
0.0
  0
LINE
  5
2E5
100
AcDbEntity
  8
LAYER0004
  6
CONTINUOUS
 62
       7
100
AcDbLine
 10
-118.89266412
 20
-29.7540637
 30
0.0
 11
-118.90806336
 21
-29.7540637
 31
0.0
  0
LINE
  5
2E6
100
AcDbEntity
  8
LAYER0004
  6
CONTINUOUS
 62
       7
100
AcDbLine
 10
-118.90806336
 20
-29.7540637
 30
0.0
 11
-118.925115
 21
-29.7540637
 31
0.0
  0
LINE
  5
2E7
100
AcDbEntity
  8
LAYER0004
  6
CONTINUOUS
 62
       7
100
AcDbLine
 10
-118.925115
 20
-29.7540637
 30
0.0
 11
-118.94370888
 21
-29.7540637
 31
0.0
  0
LINE
  5
2E8
100
AcDbEntity
  8
LAYER0004
  6
CONTINUOUS
 62
       7
100
AcDbLine
 10
-118.94370888
 20
-29.7540637
 30
0.0
 11
-118.96373485
 21
-29.7540637
 31
0.0
  0
LINE
  5
2E9
100
AcDbEntity
  8
LAYER0004
  6
CONTINUOUS
 62
       7
100
AcDbLine
 10
-118.96373485
 20
-29.7540637
 30
0.0
 11
-118.98508274
 21
-29.7540637
 31
0.0
  0
LINE
  5
2EA
100
AcDbEntity
  8
LAYER0004
  6
CONTINUOUS
 62
       7
100
AcDbLine
 10
-118.98508274
 20
-29.7540637
 30
0.0
 11
-119.00764239
 21
-29.7540637
 31
0.0
  0
LINE
  5
2EB
100
AcDbEntity
  8
LAYER0004
  6
CONTINUOUS
 62
       7
100
AcDbLine
 10
-119.00764239
 20
-29.7540637
 30
0.0
 11
-119.03130364
 21
-29.7540637
 31
0.0
  0
LINE
  5
2EC
100
AcDbEntity
  8
LAYER0004
  6
CONTINUOUS
 62
       7
100
AcDbLine
 10
-119.03130364
 20
-29.7540637
 30
0.0
 11
-119.05595633
 21
-29.7540637
 31
0.0
  0
LINE
  5
2ED
100
AcDbEntity
  8
LAYER0004
  6
CONTINUOUS
 62
       7
100
AcDbLine
 10
-119.05595633
 20
-29.7540637
 30
0.0
 11
-119.0814903
 21
-29.7540637
 31
0.0
  0
LINE
  5
2EE
100
AcDbEntity
  8
LAYER0004
  6
CONTINUOUS
 62
       7
100
AcDbLine
 10
-119.0814903
 20
-29.7540637
 30
0.0
 11
-119.1077954
 21
-29.7540637
 31
0.0
  0
LINE
  5
2EF
100
AcDbEntity
  8
LAYER0004
  6
CONTINUOUS
 62
       7
100
AcDbLine
 10
-119.1077954
 20
-29.7540637
 30
0.0
 11
-119.13476146
 21
-29.7540637
 31
0.0
  0
LINE
  5
2F0
100
AcDbEntity
  8
LAYER0004
  6
CONTINUOUS
 62
       7
100
AcDbLine
 10
-119.13476146
 20
-29.7540637
 30
0.0
 11
-119.16227831
 21
-29.7540637
 31
0.0
  0
LINE
  5
2F1
100
AcDbEntity
  8
LAYER0004
  6
CONTINUOUS
 62
       7
100
AcDbLine
 10
-119.16227831
 20
-29.7540637
 30
0.0
 11
-119.19023581
 21
-29.7540637
 31
0.0
  0
LINE
  5
2F2
100
AcDbEntity
  8
LAYER0004
  6
CONTINUOUS
 62
       7
100
AcDbLine
 10
-119.19023581
 20
-29.7540637
 30
0.0
 11
-119.21852379
 21
-29.7540637
 31
0.0
  0
LINE
  5
2F3
100
AcDbEntity
  8
LAYER0004
  6
CONTINUOUS
 62
       7
100
AcDbLine
 10
-119.21852379
 20
-29.7540637
 30
0.0
 11
-119.24703209
 21
-29.7540637
 31
0.0
  0
LINE
  5
2F4
100
AcDbEntity
  8
LAYER0004
  6
CONTINUOUS
 62
       7
100
AcDbLine
 10
-119.24703209
 20
-29.7540637
 30
0.0
 11
-119.27565055
 21
-29.7540637
 31
0.0
  0
LINE
  5
2F5
100
AcDbEntity
  8
LAYER0004
  6
CONTINUOUS
 62
       7
100
AcDbLine
 10
-119.27565055
 20
-19.75405833
 30
0.0
 11
-119.24703209
 21
-19.75405833
 31
0.0
  0
LINE
  5
2F6
100
AcDbEntity
  8
LAYER0004
  6
CONTINUOUS
 62
       7
100
AcDbLine
 10
-119.24703209
 20
-19.75405833
 30
0.0
 11
-119.21852379
 21
-19.75405833
 31
0.0
  0
LINE
  5
2F7
100
AcDbEntity
  8
LAYER0004
  6
CONTINUOUS
 62
       7
100
AcDbLine
 10
-119.21852379
 20
-19.75405833
 30
0.0
 11
-119.19023581
 21
-19.75405833
 31
0.0
  0
LINE
  5
2F8
100
AcDbEntity
  8
LAYER0004
  6
CONTINUOUS
 62
       7
100
AcDbLine
 10
-119.19023581
 20
-19.75405833
 30
0.0
 11
-119.16227831
 21
-19.75405833
 31
0.0
  0
LINE
  5
2F9
100
AcDbEntity
  8
LAYER0004
  6
CONTINUOUS
 62
       7
100
AcDbLine
 10
-119.16227831
 20
-19.75405833
 30
0.0
 11
-119.13476146
 21
-19.75405833
 31
0.0
  0
LINE
  5
2FA
100
AcDbEntity
  8
LAYER0004
  6
CONTINUOUS
 62
       7
100
AcDbLine
 10
-119.13476146
 20
-19.75405833
 30
0.0
 11
-119.1077954
 21
-19.75405833
 31
0.0
  0
LINE
  5
2FB
100
AcDbEntity
  8
LAYER0004
  6
CONTINUOUS
 62
       7
100
AcDbLine
 10
-119.1077954
 20
-19.75405833
 30
0.0
 11
-119.0814903
 21
-19.75405833
 31
0.0
  0
LINE
  5
2FC
100
AcDbEntity
  8
LAYER0004
  6
CONTINUOUS
 62
       7
100
AcDbLine
 10
-119.0814903
 20
-19.75405833
 30
0.0
 11
-119.05595633
 21
-19.75405833
 31
0.0
  0
LINE
  5
2FD
100
AcDbEntity
  8
LAYER0004
  6
CONTINUOUS
 62
       7
100
AcDbLine
 10
-119.05595633
 20
-19.75405833
 30
0.0
 11
-119.03130364
 21
-19.75405833
 31
0.0
  0
LINE
  5
2FE
100
AcDbEntity
  8
LAYER0004
  6
CONTINUOUS
 62
       7
100
AcDbLine
 10
-119.03130364
 20
-19.75405833
 30
0.0
 11
-119.00764239
 21
-19.75405833
 31
0.0
  0
LINE
  5
2FF
100
AcDbEntity
  8
LAYER0004
  6
CONTINUOUS
 62
       7
100
AcDbLine
 10
-119.00764239
 20
-19.75405833
 30
0.0
 11
-118.98508274
 21
-19.75405833
 31
0.0
  0
LINE
  5
300
100
AcDbEntity
  8
LAYER0004
  6
CONTINUOUS
 62
       7
100
AcDbLine
 10
-118.98508274
 20
-19.75405833
 30
0.0
 11
-118.96373485
 21
-19.75405833
 31
0.0
  0
LINE
  5
301
100
AcDbEntity
  8
LAYER0004
  6
CONTINUOUS
 62
       7
100
AcDbLine
 10
-118.96373485
 20
-19.75405833
 30
0.0
 11
-118.94370888
 21
-19.75405833
 31
0.0
  0
LINE
  5
302
100
AcDbEntity
  8
LAYER0004
  6
CONTINUOUS
 62
       7
100
AcDbLine
 10
-118.94370888
 20
-19.75405833
 30
0.0
 11
-118.925115
 21
-19.75405833
 31
0.0
  0
LINE
  5
303
100
AcDbEntity
  8
LAYER0004
  6
CONTINUOUS
 62
       7
100
AcDbLine
 10
-118.925115
 20
-19.75405833
 30
0.0
 11
-118.90806336
 21
-19.75405833
 31
0.0
  0
LINE
  5
304
100
AcDbEntity
  8
LAYER0004
  6
CONTINUOUS
 62
       7
100
AcDbLine
 10
-118.90806336
 20
-19.75405833
 30
0.0
 11
-118.89266412
 21
-19.75405833
 31
0.0
  0
LINE
  5
305
100
AcDbEntity
  8
LAYER0004
  6
CONTINUOUS
 62
       7
100
AcDbLine
 10
-118.89266412
 20
-19.75405833
 30
0.0
 11
-118.87902744
 21
-19.75405833
 31
0.0
  0
LINE
  5
306
100
AcDbEntity
  8
LAYER0004
  6
CONTINUOUS
 62
       7
100
AcDbLine
 10
-118.87902744
 20
-19.75405833
 30
0.0
 11
-118.86726349
 21
-19.75405833
 31
0.0
  0
LINE
  5
307
100
AcDbEntity
  8
LAYER0004
  6
CONTINUOUS
 62
       7
100
AcDbLine
 10
-118.86726349
 20
-19.75405833
 30
0.0
 11
-118.85748198
 21
-19.75405833
 31
0.0
  0
LINE
  5
308
100
AcDbEntity
  8
LAYER0004
  6
CONTINUOUS
 62
       7
100
AcDbLine
 10
-118.85748198
 20
-19.75405833
 30
0.0
 11
-118.84967211
 21
-19.75405833
 31
0.0
  0
LINE
  5
309
100
AcDbEntity
  8
LAYER0004
  6
CONTINUOUS
 62
       7
100
AcDbLine
 10
-118.84967211
 20
-19.75405833
 30
0.0
 11
-118.84353928
 21
-19.75405833
 31
0.0
  0
LINE
  5
30A
100
AcDbEntity
  8
LAYER0004
  6
CONTINUOUS
 62
       7
100
AcDbLine
 10
-118.84353928
 20
-19.75405833
 30
0.0
 11
-118.83874808
 21
-19.75405833
 31
0.0
  0
LINE
  5
30B
100
AcDbEntity
  8
LAYER0004
  6
CONTINUOUS
 62
       7
100
AcDbLine
 10
-118.83874808
 20
-19.75405833
 30
0.0
 11
-118.83496311
 21
-19.75405833
 31
0.0
  0
LINE
  5
30C
100
AcDbEntity
  8
LAYER0004
  6
CONTINUOUS
 62
       7
100
AcDbLine
 10
-118.83496311
 20
-19.75405833
 30
0.0
 11
-118.83184895
 21
-19.75405833
 31
0.0
  0
LINE
  5
30D
100
AcDbEntity
  8
LAYER0004
  6
CONTINUOUS
 62
       7
100
AcDbLine
 10
-118.83184895
 20
-19.75405833
 30
0.0
 11
-118.8290702
 21
-19.75405833
 31
0.0
  0
LINE
  5
30E
100
AcDbEntity
  8
LAYER0004
  6
CONTINUOUS
 62
       7
100
AcDbLine
 10
-129.07907048
 20
-24.75406101
 30
0.0
 11
-129.08574965
 21
-24.84789637
 31
0.0
  0
LINE
  5
30F
100
AcDbEntity
  8
LAYER0004
  6
CONTINUOUS
 62
       7
100
AcDbLine
 10
-129.08574965
 20
-24.84789637
 30
0.0
 11
-129.09250622
 21
-24.94171688
 31
0.0
  0
LINE
  5
310
100
AcDbEntity
  8
LAYER0004
  6
CONTINUOUS
 62
       7
100
AcDbLine
 10
-129.09250622
 20
-24.94171688
 30
0.0
 11
-129.0994176
 21
-25.03550771
 31
0.0
  0
LINE
  5
311
100
AcDbEntity
  8
LAYER0004
  6
CONTINUOUS
 62
       7
100
AcDbLine
 10
-129.0994176
 20
-25.03550771
 30
0.0
 11
-129.1065612
 21
-25.12925403
 31
0.0
  0
LINE
  5
312
100
AcDbEntity
  8
LAYER0004
  6
CONTINUOUS
 62
       7
100
AcDbLine
 10
-129.1065612
 20
-25.12925403
 30
0.0
 11
-129.11401443
 21
-25.22294099
 31
0.0
  0
LINE
  5
313
100
AcDbEntity
  8
LAYER0004
  6
CONTINUOUS
 62
       7
100
AcDbLine
 10
-129.11401443
 20
-25.22294099
 30
0.0
 11
-129.12185469
 21
-25.31655375
 31
0.0
  0
LINE
  5
314
100
AcDbEntity
  8
LAYER0004
  6
CONTINUOUS
 62
       7
100
AcDbLine
 10
-129.12185469
 20
-25.31655375
 30
0.0
 11
-129.13015939
 21
-25.41007747
 31
0.0
  0
LINE
  5
315
100
AcDbEntity
  8
LAYER0004
  6
CONTINUOUS
 62
       7
100
AcDbLine
 10
-129.13015939
 20
-25.41007747
 30
0.0
 11
-129.13900593
 21
-25.50349732
 31
0.0
  0
LINE
  5
316
100
AcDbEntity
  8
LAYER0004
  6
CONTINUOUS
 62
       7
100
AcDbLine
 10
-129.13900593
 20
-25.50349732
 30
0.0
 11
-129.14847173
 21
-25.59679845
 31
0.0
  0
LINE
  5
317
100
AcDbEntity
  8
LAYER0004
  6
CONTINUOUS
 62
       7
100
AcDbLine
 10
-129.14847173
 20
-25.59679845
 30
0.0
 11
-129.15863418
 21
-25.68996602
 31
0.0
  0
LINE
  5
318
100
AcDbEntity
  8
LAYER0004
  6
CONTINUOUS
 62
       7
100
AcDbLine
 10
-129.15863418
 20
-25.68996602
 30
0.0
 11
-129.1695707
 21
-25.7829852
 31
0.0
  0
LINE
  5
319
100
AcDbEntity
  8
LAYER0004
  6
CONTINUOUS
 62
       7
100
AcDbLine
 10
-129.1695707
 20
-25.7829852
 30
0.0
 11
-129.18135869
 21
-25.87584114
 31
0.0
  0
LINE
  5
31A
100
AcDbEntity
  8
LAYER0004
  6
CONTINUOUS
 62
       7
100
AcDbLine
 10
-129.18135869
 20
-25.87584114
 30
0.0
 11
-129.19407556
 21
-25.96851901
 31
0.0
  0
LINE
  5
31B
100
AcDbEntity
  8
LAYER0004
  6
CONTINUOUS
 62
       7
100
AcDbLine
 10
-129.19407556
 20
-25.96851901
 30
0.0
 11
-129.20779871
 21
-26.06100397
 31
0.0
  0
LINE
  5
31C
100
AcDbEntity
  8
LAYER0004
  6
CONTINUOUS
 62
       7
100
AcDbLine
 10
-129.20779871
 20
-26.06100397
 30
0.0
 11
-129.22260555
 21
-26.15328117
 31
0.0
  0
LINE
  5
31D
100
AcDbEntity
  8
LAYER0004
  6
CONTINUOUS
 62
       7
100
AcDbLine
 10
-129.22260555
 20
-26.15328117
 30
0.0
 11
-129.23857348
 21
-26.24533578
 31
0.0
  0
LINE
  5
31E
100
AcDbEntity
  8
LAYER0004
  6
CONTINUOUS
 62
       7
100
AcDbLine
 10
-129.23857348
 20
-26.24533578
 30
0.0
 11
-129.25577993
 21
-26.33715295
 31
0.0
  0
LINE
  5
31F
100
AcDbEntity
  8
LAYER0004
  6
CONTINUOUS
 62
       7
100
AcDbLine
 10
-129.25577993
 20
-26.33715295
 30
0.0
 11
-129.27430228
 21
-26.42871786
 31
0.0
  0
LINE
  5
320
100
AcDbEntity
  8
LAYER0004
  6
CONTINUOUS
 62
       7
100
AcDbLine
 10
-129.27430228
 20
-26.42871786
 30
0.0
 11
-129.29421794
 21
-26.52001565
 31
0.0
  0
LINE
  5
321
100
AcDbEntity
  8
LAYER0004
  6
CONTINUOUS
 62
       7
100
AcDbLine
 10
-129.29421794
 20
-26.52001565
 30
0.0
 11
-129.31557244
 21
-26.6110376
 31
0.0
  0
LINE
  5
322
100
AcDbEntity
  8
LAYER0004
  6
CONTINUOUS
 62
       7
100
AcDbLine
 10
-129.31557244
 20
-26.6110376
 30
0.0
 11
-129.33819864
 21
-26.70181576
 31
0.0
  0
LINE
  5
323
100
AcDbEntity
  8
LAYER0004
  6
CONTINUOUS
 62
       7
100
AcDbLine
 10
-129.33819864
 20
-26.70181576
 30
0.0
 11
-129.36184239
 21
-26.79239885
 31
0.0
  0
LINE
  5
324
100
AcDbEntity
  8
LAYER0004
  6
CONTINUOUS
 62
       7
100
AcDbLine
 10
-129.36184239
 20
-26.79239885
 30
0.0
 11
-129.38624932
 21
-26.88283562
 31
0.0
  0
LINE
  5
325
100
AcDbEntity
  8
LAYER0004
  6
CONTINUOUS
 62
       7
100
AcDbLine
 10
-129.38624932
 20
-26.88283562
 30
0.0
 11
-129.41116503
 21
-26.97317486
 31
0.0
  0
LINE
  5
326
100
AcDbEntity
  8
LAYER0004
  6
CONTINUOUS
 62
       7
100
AcDbLine
 10
-129.41116503
 20
-26.97317486
 30
0.0
 11
-129.43633514
 21
-27.06346533
 31
0.0
  0
LINE
  5
327
100
AcDbEntity
  8
LAYER0004
  6
CONTINUOUS
 62
       7
100
AcDbLine
 10
-129.43633514
 20
-22.44466415
 30
0.0
 11
-129.41342846
 21
-22.53603443
 31
0.0
  0
LINE
  5
328
100
AcDbEntity
  8
LAYER0004
  6
CONTINUOUS
 62
       7
100
AcDbLine
 10
-129.41342846
 20
-22.53603443
 30
0.0
 11
-129.39061014
 21
-22.62741502
 31
0.0
  0
LINE
  5
329
100
AcDbEntity
  8
LAYER0004
  6
CONTINUOUS
 62
       7
100
AcDbLine
 10
-129.39061014
 20
-22.62741502
 30
0.0
 11
-129.36796852
 21
-22.71881624
 31
0.0
  0
LINE
  5
32A
100
AcDbEntity
  8
LAYER0004
  6
CONTINUOUS
 62
       7
100
AcDbLine
 10
-129.36796852
 20
-22.71881624
 30
0.0
 11
-129.34559196
 21
-22.81024839
 31
0.0
  0
LINE
  5
32B
100
AcDbEntity
  8
LAYER0004
  6
CONTINUOUS
 62
       7
100
AcDbLine
 10
-129.34559196
 20
-22.81024839
 30
0.0
 11
-129.3235688
 21
-22.90172179
 31
0.0
  0
LINE
  5
32C
100
AcDbEntity
  8
LAYER0004
  6
CONTINUOUS
 62
       7
100
AcDbLine
 10
-129.3235688
 20
-22.90172179
 30
0.0
 11
-129.30198741
 21
-22.99324674
 31
0.0
  0
LINE
  5
32D
100
AcDbEntity
  8
LAYER0004
  6
CONTINUOUS
 62
       7
100
AcDbLine
 10
-129.30198741
 20
-22.99324674
 30
0.0
 11
-129.28093612
 21
-23.08483357
 31
0.0
  0
LINE
  5
32E
100
AcDbEntity
  8
LAYER0004
  6
CONTINUOUS
 62
       7
100
AcDbLine
 10
-129.28093612
 20
-23.08483357
 30
0.0
 11
-129.26050329
 21
-23.17649258
 31
0.0
  0
LINE
  5
32F
100
AcDbEntity
  8
LAYER0004
  6
CONTINUOUS
 62
       7
100
AcDbLine
 10
-129.26050329
 20
-23.17649258
 30
0.0
 11
-129.24077728
 21
-23.26823408
 31
0.0
  0
LINE
  5
330
100
AcDbEntity
  8
LAYER0004
  6
CONTINUOUS
 62
       7
100
AcDbLine
 10
-129.24077728
 20
-23.26823408
 30
0.0
 11
-129.22184643
 21
-23.36006838
 31
0.0
  0
LINE
  5
331
100
AcDbEntity
  8
LAYER0004
  6
CONTINUOUS
 62
       7
100
AcDbLine
 10
-129.22184643
 20
-23.36006838
 30
0.0
 11
-129.2037991
 21
-23.4520058
 31
0.0
  0
LINE
  5
332
100
AcDbEntity
  8
LAYER0004
  6
CONTINUOUS
 62
       7
100
AcDbLine
 10
-129.2037991
 20
-23.4520058
 30
0.0
 11
-129.18672364
 21
-23.54405665
 31
0.0
  0
LINE
  5
333
100
AcDbEntity
  8
LAYER0004
  6
CONTINUOUS
 62
       7
100
AcDbLine
 10
-129.18672364
 20
-23.54405665
 30
0.0
 11
-129.1707084
 21
-23.63623124
 31
0.0
  0
LINE
  5
334
100
AcDbEntity
  8
LAYER0004
  6
CONTINUOUS
 62
       7
100
AcDbLine
 10
-129.1707084
 20
-23.63623124
 30
0.0
 11
-129.15584173
 21
-23.72853988
 31
0.0
  0
LINE
  5
335
100
AcDbEntity
  8
LAYER0004
  6
CONTINUOUS
 62
       7
100
AcDbLine
 10
-129.15584173
 20
-23.72853988
 30
0.0
 11
-129.14221198
 21
-23.82099288
 31
0.0
  0
LINE
  5
336
100
AcDbEntity
  8
LAYER0004
  6
CONTINUOUS
 62
       7
100
AcDbLine
 10
-129.14221198
 20
-23.82099288
 30
0.0
 11
-129.12990751
 21
-23.91360055
 31
0.0
  0
LINE
  5
337
100
AcDbEntity
  8
LAYER0004
  6
CONTINUOUS
 62
       7
100
AcDbLine
 10
-129.12990751
 20
-23.91360055
 30
0.0
 11
-129.11901666
 21
-24.00637322
 31
0.0
  0
LINE
  5
338
100
AcDbEntity
  8
LAYER0004
  6
CONTINUOUS
 62
       7
100
AcDbLine
 10
-129.11901666
 20
-24.00637322
 30
0.0
 11
-129.10962779
 21
-24.09932118
 31
0.0
  0
LINE
  5
339
100
AcDbEntity
  8
LAYER0004
  6
CONTINUOUS
 62
       7
100
AcDbLine
 10
-129.10962779
 20
-24.09932118
 30
0.0
 11
-129.10182849
 21
-24.19245466
 31
0.0
  0
LINE
  5
33A
100
AcDbEntity
  8
LAYER0004
  6
CONTINUOUS
 62
       7
100
AcDbLine
 10
-129.10182849
 20
-24.19245466
 30
0.0
 11
-129.09559813
 21
-24.28577125
 31
0.0
  0
LINE
  5
33B
100
AcDbEntity
  8
LAYER0004
  6
CONTINUOUS
 62
       7
100
AcDbLine
 10
-129.09559813
 20
-24.28577125
 30
0.0
 11
-129.09069724
 21
-24.37924301
 31
0.0
  0
LINE
  5
33C
100
AcDbEntity
  8
LAYER0004
  6
CONTINUOUS
 62
       7
100
AcDbLine
 10
-129.09069724
 20
-24.37924301
 30
0.0
 11
-129.08685993
 21
-24.47283889
 31
0.0
  0
LINE
  5
33D
100
AcDbEntity
  8
LAYER0004
  6
CONTINUOUS
 62
       7
100
AcDbLine
 10
-129.08685993
 20
-24.47283889
 30
0.0
 11
-129.08382029
 21
-24.56652788
 31
0.0
  0
LINE
  5
33E
100
AcDbEntity
  8
LAYER0004
  6
CONTINUOUS
 62
       7
100
AcDbLine
 10
-129.08382029
 20
-24.56652788
 30
0.0
 11
-129.08131244
 21
-24.66027893
 31
0.0
  0
LINE
  5
33F
100
AcDbEntity
  8
LAYER0004
  6
CONTINUOUS
 62
       7
100
AcDbLine
 10
-129.08131244
 20
-24.66027893
 30
0.0
 11
-129.07907048
 21
-24.75406101
 31
0.0
  0
LINE
  5
340
100
AcDbEntity
  8
LAYER0004
  6
CONTINUOUS
 62
       7
100
AcDbLine
 10
-129.07907048
 20
-21.28995827
 30
0.0
 11
-129.07984172
 21
-21.33674485
 31
0.0
  0
LINE
  5
341
100
AcDbEntity
  8
LAYER0004
  6
CONTINUOUS
 62
       7
100
AcDbLine
 10
-129.07984172
 20
-21.33674485
 30
0.0
 11
-129.08158005
 21
-21.38348862
 31
0.0
  0
LINE
  5
342
100
AcDbEntity
  8
LAYER0004
  6
CONTINUOUS
 62
       7
100
AcDbLine
 10
-129.08158005
 20
-21.38348862
 30
0.0
 11
-129.08492715
 21
-21.4301612
 31
0.0
  0
LINE
  5
343
100
AcDbEntity
  8
LAYER0004
  6
CONTINUOUS
 62
       7
100
AcDbLine
 10
-129.08492715
 20
-21.4301612
 30
0.0
 11
-129.08988452
 21
-21.47676251
 31
0.0
  0
LINE
  5
344
100
AcDbEntity
  8
LAYER0004
  6
CONTINUOUS
 62
       7
100
AcDbLine
 10
-129.08988452
 20
-21.47676251
 30
0.0
 11
-129.09637896
 21
-21.52329578
 31
0.0
  0
LINE
  5
345
100
AcDbEntity
  8
LAYER0004
  6
CONTINUOUS
 62
       7
100
AcDbLine
 10
-129.09637896
 20
-21.52329578
 30
0.0
 11
-129.10433729
 21
-21.56976427
 31
0.0
  0
LINE
  5
346
100
AcDbEntity
  8
LAYER0004
  6
CONTINUOUS
 62
       7
100
AcDbLine
 10
-129.10433729
 20
-21.56976427
 30
0.0
 11
-129.11368631
 21
-21.61617122
 31
0.0
  0
LINE
  5
347
100
AcDbEntity
  8
LAYER0004
  6
CONTINUOUS
 62
       7
100
AcDbLine
 10
-129.11368631
 20
-21.61617122
 30
0.0
 11
-129.12435282
 21
-21.66251985
 31
0.0
  0
LINE
  5
348
100
AcDbEntity
  8
LAYER0004
  6
CONTINUOUS
 62
       7
100
AcDbLine
 10
-129.12435282
 20
-21.66251985
 30
0.0
 11
-129.13626364
 21
-21.70881341
 31
0.0
  0
LINE
  5
349
100
AcDbEntity
  8
LAYER0004
  6
CONTINUOUS
 62
       7
100
AcDbLine
 10
-129.13626364
 20
-21.70881341
 30
0.0
 11
-129.14934556
 21
-21.75505513
 31
0.0
  0
LINE
  5
34A
100
AcDbEntity
  8
LAYER0004
  6
CONTINUOUS
 62
       7
100
AcDbLine
 10
-129.14934556
 20
-21.75505513
 30
0.0
 11
-129.16352539
 21
-21.80124827
 31
0.0
  0
LINE
  5
34B
100
AcDbEntity
  8
LAYER0004
  6
CONTINUOUS
 62
       7
100
AcDbLine
 10
-129.16352539
 20
-21.80124827
 30
0.0
 11
-129.17872995
 21
-21.84739606
 31
0.0
  0
LINE
  5
34C
100
AcDbEntity
  8
LAYER0004
  6
CONTINUOUS
 62
       7
100
AcDbLine
 10
-129.17872995
 20
-21.84739606
 30
0.0
 11
-129.19488602
 21
-21.89350173
 31
0.0
  0
LINE
  5
34D
100
AcDbEntity
  8
LAYER0004
  6
CONTINUOUS
 62
       7
100
AcDbLine
 10
-129.19488602
 20
-21.89350173
 30
0.0
 11
-129.21192043
 21
-21.93956853
 31
0.0
  0
LINE
  5
34E
100
AcDbEntity
  8
LAYER0004
  6
CONTINUOUS
 62
       7
100
AcDbLine
 10
-129.21192043
 20
-21.93956853
 30
0.0
 11
-129.22975997
 21
-21.98559969
 31
0.0
  0
LINE
  5
34F
100
AcDbEntity
  8
LAYER0004
  6
CONTINUOUS
 62
       7
100
AcDbLine
 10
-129.22975997
 20
-21.98559969
 30
0.0
 11
-129.24833145
 21
-22.03159846
 31
0.0
  0
LINE
  5
350
100
AcDbEntity
  8
LAYER0004
  6
CONTINUOUS
 62
       7
100
AcDbLine
 10
-129.24833145
 20
-22.03159846
 30
0.0
 11
-129.26756168
 21
-22.07756808
 31
0.0
  0
LINE
  5
351
100
AcDbEntity
  8
LAYER0004
  6
CONTINUOUS
 62
       7
100
AcDbLine
 10
-129.26756168
 20
-22.07756808
 30
0.0
 11
-129.28737747
 21
-22.12351178
 31
0.0
  0
LINE
  5
352
100
AcDbEntity
  8
LAYER0004
  6
CONTINUOUS
 62
       7
100
AcDbLine
 10
-129.28737747
 20
-22.12351178
 30
0.0
 11
-129.30770561
 21
-22.1694328
 31
0.0
  0
LINE
  5
353
100
AcDbEntity
  8
LAYER0004
  6
CONTINUOUS
 62
       7
100
AcDbLine
 10
-129.30770561
 20
-22.1694328
 30
0.0
 11
-129.32847292
 21
-22.21533439
 31
0.0
  0
LINE
  5
354
100
AcDbEntity
  8
LAYER0004
  6
CONTINUOUS
 62
       7
100
AcDbLine
 10
-129.32847292
 20
-22.21533439
 30
0.0
 11
-129.3496062
 21
-22.26121978
 31
0.0
  0
LINE
  5
355
100
AcDbEntity
  8
LAYER0004
  6
CONTINUOUS
 62
       7
100
AcDbLine
 10
-129.3496062
 20
-22.26121978
 30
0.0
 11
-129.37103225
 21
-22.30709221
 31
0.0
  0
LINE
  5
356
100
AcDbEntity
  8
LAYER0004
  6
CONTINUOUS
 62
       7
100
AcDbLine
 10
-129.37103225
 20
-22.30709221
 30
0.0
 11
-129.39267789
 21
-22.35295492
 31
0.0
  0
LINE
  5
357
100
AcDbEntity
  8
LAYER0004
  6
CONTINUOUS
 62
       7
100
AcDbLine
 10
-129.39267789
 20
-22.35295492
 30
0.0
 11
-129.41446992
 21
-22.39881116
 31
0.0
  0
LINE
  5
358
100
AcDbEntity
  8
LAYER0004
  6
CONTINUOUS
 62
       7
100
AcDbLine
 10
-129.41446992
 20
-22.39881116
 30
0.0
 11
-129.43633514
 21
-22.44466415
 31
0.0
  0
LINE
  5
359
100
AcDbEntity
  8
LAYER0004
  6
CONTINUOUS
 62
       7
100
AcDbLine
 10
-146.28464876
 20
-91.75406268
 30
0.0
 11
-146.23924354
 21
-91.75834653
 31
0.0
  0
LINE
  5
35A
100
AcDbEntity
  8
LAYER0004
  6
CONTINUOUS
 62
       7
100
AcDbLine
 10
-146.23924354
 20
-91.75834653
 30
0.0
 11
-146.19386653
 21
-91.76273458
 31
0.0
  0
LINE
  5
35B
100
AcDbEntity
  8
LAYER0004
  6
CONTINUOUS
 62
       7
100
AcDbLine
 10
-146.19386653
 20
-91.76273458
 30
0.0
 11
-146.14854595
 21
-91.76733101
 31
0.0
  0
LINE
  5
35C
100
AcDbEntity
  8
LAYER0004
  6
CONTINUOUS
 62
       7
100
AcDbLine
 10
-146.14854595
 20
-91.76733101
 30
0.0
 11
-146.10331
 21
-91.77224002
 31
0.0
  0
LINE
  5
35D
100
AcDbEntity
  8
LAYER0004
  6
CONTINUOUS
 62
       7
100
AcDbLine
 10
-146.10331
 20
-91.77224002
 30
0.0
 11
-146.0581869
 21
-91.77756581
 31
0.0
  0
LINE
  5
35E
100
AcDbEntity
  8
LAYER0004
  6
CONTINUOUS
 62
       7
100
AcDbLine
 10
-146.0581869
 20
-91.77756581
 30
0.0
 11
-146.01320485
 21
-91.78341257
 31
0.0
  0
LINE
  5
35F
100
AcDbEntity
  8
LAYER0004
  6
CONTINUOUS
 62
       7
100
AcDbLine
 10
-146.01320485
 20
-91.78341257
 30
0.0
 11
-145.96839208
 21
-91.78988449
 31
0.0
  0
LINE
  5
360
100
AcDbEntity
  8
LAYER0004
  6
CONTINUOUS
 62
       7
100
AcDbLine
 10
-145.96839208
 20
-91.78988449
 30
0.0
 11
-145.9237768
 21
-91.79708577
 31
0.0
  0
LINE
  5
361
100
AcDbEntity
  8
LAYER0004
  6
CONTINUOUS
 62
       7
100
AcDbLine
 10
-145.9237768
 20
-91.79708577
 30
0.0
 11
-145.87938721
 21
-91.8051206
 31
0.0
  0
LINE
  5
362
100
AcDbEntity
  8
LAYER0004
  6
CONTINUOUS
 62
       7
100
AcDbLine
 10
-145.87938721
 20
-91.8051206
 30
0.0
 11
-145.83525152
 21
-91.81409318
 31
0.0
  0
LINE
  5
363
100
AcDbEntity
  8
LAYER0004
  6
CONTINUOUS
 62
       7
100
AcDbLine
 10
-145.83525152
 20
-91.81409318
 30
0.0
 11
-145.79139796
 21
-91.8241077
 31
0.0
  0
LINE
  5
364
100
AcDbEntity
  8
LAYER0004
  6
CONTINUOUS
 62
       7
100
AcDbLine
 10
-145.79139796
 20
-91.8241077
 30
0.0
 11
-145.74785472
 21
-91.83526835
 31
0.0
  0
LINE
  5
365
100
AcDbEntity
  8
LAYER0004
  6
CONTINUOUS
 62
       7
100
AcDbLine
 10
-145.74785472
 20
-91.83526835
 30
0.0
 11
-145.70465003
 21
-91.84767932
 31
0.0
  0
LINE
  5
366
100
AcDbEntity
  8
LAYER0004
  6
CONTINUOUS
 62
       7
100
AcDbLine
 10
-145.70465003
 20
-91.84767932
 30
0.0
 11
-145.6618121
 21
-91.86144482
 31
0.0
  0
LINE
  5
367
100
AcDbEntity
  8
LAYER0004
  6
CONTINUOUS
 62
       7
100
AcDbLine
 10
-145.6618121
 20
-91.86144482
 30
0.0
 11
-145.61936913
 21
-91.87666903
 31
0.0
  0
LINE
  5
368
100
AcDbEntity
  8
LAYER0004
  6
CONTINUOUS
 62
       7
100
AcDbLine
 10
-145.61936913
 20
-91.87666903
 30
0.0
 11
-145.57735067
 21
-91.89345264
 31
0.0
  0
LINE
  5
369
100
AcDbEntity
  8
LAYER0004
  6
CONTINUOUS
 62
       7
100
AcDbLine
 10
-145.57735067
 20
-91.89345264
 30
0.0
 11
-145.53580922
 21
-91.91183603
 31
0.0
  0
LINE
  5
36A
100
AcDbEntity
  8
LAYER0004
  6
CONTINUOUS
 62
       7
100
AcDbLine
 10
-145.53580922
 20
-91.91183603
 30
0.0
 11
-145.49481652
 21
-91.93180893
 31
0.0
  0
LINE
  5
36B
100
AcDbEntity
  8
LAYER0004
  6
CONTINUOUS
 62
       7
100
AcDbLine
 10
-145.49481652
 20
-91.93180893
 30
0.0
 11
-145.45444494
 21
-91.95335946
 31
0.0
  0
LINE
  5
36C
100
AcDbEntity
  8
LAYER0004
  6
CONTINUOUS
 62
       7
100
AcDbLine
 10
-145.45444494
 20
-91.95335946
 30
0.0
 11
-145.41476684
 21
-91.97647576
 31
0.0
  0
LINE
  5
36D
100
AcDbEntity
  8
LAYER0004
  6
CONTINUOUS
 62
       7
100
AcDbLine
 10
-145.41476684
 20
-91.97647576
 30
0.0
 11
-145.37585459
 21
-92.00114597
 31
0.0
  0
LINE
  5
36E
100
AcDbEntity
  8
LAYER0004
  6
CONTINUOUS
 62
       7
100
AcDbLine
 10
-145.37585459
 20
-92.00114597
 30
0.0
 11
-145.33778053
 21
-92.02735822
 31
0.0
  0
LINE
  5
36F
100
AcDbEntity
  8
LAYER0004
  6
CONTINUOUS
 62
       7
100
AcDbLine
 10
-145.33778053
 20
-92.02735822
 30
0.0
 11
-145.30061704
 21
-92.05510065
 31
0.0
  0
LINE
  5
370
100
AcDbEntity
  8
LAYER0004
  6
CONTINUOUS
 62
       7
100
AcDbLine
 10
-145.30061704
 20
-92.05510065
 30
0.0
 11
-145.26443647
 21
-92.0843614
 31
0.0
  0
LINE
  5
371
100
AcDbEntity
  8
LAYER0004
  6
CONTINUOUS
 62
       7
100
AcDbLine
 10
-145.26443647
 20
-92.0843614
 30
0.0
 11
-145.22931501
 21
-92.11513212
 31
0.0
  0
LINE
  5
372
100
AcDbEntity
  8
LAYER0004
  6
CONTINUOUS
 62
       7
100
AcDbLine
 10
-145.22931501
 20
-92.11513212
 30
0.0
 11
-145.19535642
 21
-92.14742979
 31
0.0
  0
LINE
  5
373
100
AcDbEntity
  8
LAYER0004
  6
CONTINUOUS
 62
       7
100
AcDbLine
 10
-145.19535642
 20
-92.14742979
 30
0.0
 11
-145.16267656
 21
-92.18128253
 31
0.0
  0
LINE
  5
374
100
AcDbEntity
  8
LAYER0004
  6
CONTINUOUS
 62
       7
100
AcDbLine
 10
-145.16267656
 20
-92.18128253
 30
0.0
 11
-145.13139133
 21
-92.21671849
 31
0.0
  0
LINE
  5
375
100
AcDbEntity
  8
LAYER0004
  6
CONTINUOUS
 62
       7
100
AcDbLine
 10
-145.13139133
 20
-92.21671849
 30
0.0
 11
-145.10161663
 21
-92.25376581
 31
0.0
  0
LINE
  5
376
100
AcDbEntity
  8
LAYER0004
  6
CONTINUOUS
 62
       7
100
AcDbLine
 10
-145.10161663
 20
-92.25376581
 30
0.0
 11
-145.07346838
 21
-92.29245266
 31
0.0
  0
LINE
  5
377
100
AcDbEntity
  8
LAYER0004
  6
CONTINUOUS
 62
       7
100
AcDbLine
 10
-145.07346838
 20
-92.29245266
 30
0.0
 11
-145.0470625
 21
-92.33280718
 31
0.0
  0
LINE
  5
378
100
AcDbEntity
  8
LAYER0004
  6
CONTINUOUS
 62
       7
100
AcDbLine
 10
-145.0470625
 20
-92.33280718
 30
0.0
 11
-145.0225658
 21
-92.37482402
 31
0.0
  0
LINE
  5
379
100
AcDbEntity
  8
LAYER0004
  6
CONTINUOUS
 62
       7
100
AcDbLine
 10
-145.0225658
 20
-92.37482402
 30
0.0
 11
-145.00031114
 21
-92.41838867
 31
0.0
  0
LINE
  5
37A
100
AcDbEntity
  8
LAYER0004
  6
CONTINUOUS
 62
       7
100
AcDbLine
 10
-145.00031114
 20
-92.41838867
 30
0.0
 11
-144.98066519
 21
-92.46336435
 31
0.0
  0
LINE
  5
37B
100
AcDbEntity
  8
LAYER0004
  6
CONTINUOUS
 62
       7
100
AcDbLine
 10
-144.98066519
 20
-92.46336435
 30
0.0
 11
-144.96399459
 21
-92.50961432
 31
0.0
  0
LINE
  5
37C
100
AcDbEntity
  8
LAYER0004
  6
CONTINUOUS
 62
       7
100
AcDbLine
 10
-144.96399459
 20
-92.50961432
 30
0.0
 11
-144.95066602
 21
-92.55700182
 31
0.0
  0
LINE
  5
37D
100
AcDbEntity
  8
LAYER0004
  6
CONTINUOUS
 62
       7
100
AcDbLine
 10
-144.95066602
 20
-92.55700182
 30
0.0
 11
-144.94090067
 21
-92.60537734
 31
0.0
  0
LINE
  5
37E
100
AcDbEntity
  8
LAYER0004
  6
CONTINUOUS
 62
       7
100
AcDbLine
 10
-144.94090067
 20
-92.60537734
 30
0.0
 11
-144.93404962
 21
-92.65451507
 31
0.0
  0
LINE
  5
37F
100
AcDbEntity
  8
LAYER0004
  6
CONTINUOUS
 62
       7
100
AcDbLine
 10
-144.93404962
 20
-92.65451507
 30
0.0
 11
-144.9291418
 21
-92.70416098
 31
0.0
  0
LINE
  5
380
100
AcDbEntity
  8
LAYER0004
  6
CONTINUOUS
 62
       7
100
AcDbLine
 10
-144.9291418
 20
-92.70416098
 30
0.0
 11
-144.92520558
 21
-92.75406098
 31
0.0
  0
LINE
  5
381
100
AcDbEntity
  8
LAYER0004
  6
CONTINUOUS
 62
       7
100
AcDbLine
 10
-172.83293473
 20
-92.75406098
 30
0.0
 11
-172.82773337
 21
-92.70403595
 31
0.0
  0
LINE
  5
382
100
AcDbEntity
  8
LAYER0004
  6
CONTINUOUS
 62
       7
100
AcDbLine
 10
-172.82773337
 20
-92.70403595
 30
0.0
 11
-172.82182445
 21
-92.65426063
 31
0.0
  0
LINE
  5
383
100
AcDbEntity
  8
LAYER0004
  6
CONTINUOUS
 62
       7
100
AcDbLine
 10
-172.82182445
 20
-92.65426063
 30
0.0
 11
-172.81450041
 21
-92.60498475
 31
0.0
  0
LINE
  5
384
100
AcDbEntity
  8
LAYER0004
  6
CONTINUOUS
 62
       7
100
AcDbLine
 10
-172.81450041
 20
-92.60498475
 30
0.0
 11
-172.8050537
 21
-92.55645802
 31
0.0
  0
LINE
  5
385
100
AcDbEntity
  8
LAYER0004
  6
CONTINUOUS
 62
       7
100
AcDbLine
 10
-172.8050537
 20
-92.55645802
 30
0.0
 11
-172.79277674
 21
-92.50893018
 31
0.0
  0
LINE
  5
386
100
AcDbEntity
  8
LAYER0004
  6
CONTINUOUS
 62
       7
100
AcDbLine
 10
-172.79277674
 20
-92.50893018
 30
0.0
 11
-172.77705825
 21
-92.46263614
 31
0.0
  0
LINE
  5
387
100
AcDbEntity
  8
LAYER0004
  6
CONTINUOUS
 62
       7
100
AcDbLine
 10
-172.77705825
 20
-92.46263614
 30
0.0
 11
-172.75798893
 21
-92.417703
 31
0.0
  0
LINE
  5
388
100
AcDbEntity
  8
LAYER0004
  6
CONTINUOUS
 62
       7
100
AcDbLine
 10
-172.75798893
 20
-92.417703
 30
0.0
 11
-172.73597036
 21
-92.3742101
 31
0.0
  0
LINE
  5
389
100
AcDbEntity
  8
LAYER0004
  6
CONTINUOUS
 62
       7
100
AcDbLine
 10
-172.73597036
 20
-92.3742101
 30
0.0
 11
-172.71140556
 21
-92.33223654
 31
0.0
  0
LINE
  5
38A
100
AcDbEntity
  8
LAYER0004
  6
CONTINUOUS
 62
       7
100
AcDbLine
 10
-172.71140556
 20
-92.33223654
 30
0.0
 11
-172.68469751
 21
-92.29186145
 31
0.0
  0
LINE
  5
38B
100
AcDbEntity
  8
LAYER0004
  6
CONTINUOUS
 62
       7
100
AcDbLine
 10
-172.68469751
 20
-92.29186145
 30
0.0
 11
-172.65623612
 21
-92.25315905
 31
0.0
  0
LINE
  5
38C
100
AcDbEntity
  8
LAYER0004
  6
CONTINUOUS
 62
       7
100
AcDbLine
 10
-172.65623612
 20
-92.25315905
 30
0.0
 11
-172.62623997
 21
-92.21613962
 31
0.0
  0
LINE
  5
38D
100
AcDbEntity
  8
LAYER0004
  6
CONTINUOUS
 62
       7
100
AcDbLine
 10
-172.62623997
 20
-92.21613962
 30
0.0
 11
-172.59480729
 21
-92.18076847
 31
0.0
  0
LINE
  5
38E
100
AcDbEntity
  8
LAYER0004
  6
CONTINUOUS
 62
       7
100
AcDbLine
 10
-172.59480729
 20
-92.18076847
 30
0.0
 11
-172.56203379
 21
-92.14701
 31
0.0
  0
LINE
  5
38F
100
AcDbEntity
  8
LAYER0004
  6
CONTINUOUS
 62
       7
100
AcDbLine
 10
-172.56203379
 20
-92.14701
 30
0.0
 11
-172.52801523
 21
-92.11482861
 31
0.0
  0
LINE
  5
390
100
AcDbEntity
  8
LAYER0004
  6
CONTINUOUS
 62
       7
100
AcDbLine
 10
-172.52801523
 20
-92.11482861
 30
0.0
 11
-172.49284731
 21
-92.0841887
 31
0.0
  0
LINE
  5
391
100
AcDbEntity
  8
LAYER0004
  6
CONTINUOUS
 62
       7
100
AcDbLine
 10
-172.49284731
 20
-92.0841887
 30
0.0
 11
-172.45662578
 21
-92.05505465
 31
0.0
  0
LINE
  5
392
100
AcDbEntity
  8
LAYER0004
  6
CONTINUOUS
 62
       7
100
AcDbLine
 10
-172.45662578
 20
-92.05505465
 30
0.0
 11
-172.41944631
 21
-92.02739094
 31
0.0
  0
LINE
  5
393
100
AcDbEntity
  8
LAYER0004
  6
CONTINUOUS
 62
       7
100
AcDbLine
 10
-172.41944631
 20
-92.02739094
 30
0.0
 11
-172.38139323
 21
-92.00117262
 31
0.0
  0
LINE
  5
394
100
AcDbEntity
  8
LAYER0004
  6
CONTINUOUS
 62
       7
100
AcDbLine
 10
-172.38139323
 20
-92.00117262
 30
0.0
 11
-172.34252643
 21
-91.97639774
 31
0.0
  0
LINE
  5
395
100
AcDbEntity
  8
LAYER0004
  6
CONTINUOUS
 62
       7
100
AcDbLine
 10
-172.34252643
 20
-91.97639774
 30
0.0
 11
-172.30290258
 21
-91.95306731
 31
0.0
  0
LINE
  5
396
100
AcDbEntity
  8
LAYER0004
  6
CONTINUOUS
 62
       7
100
AcDbLine
 10
-172.30290258
 20
-91.95306731
 30
0.0
 11
-172.26257838
 21
-91.93118237
 31
0.0
  0
LINE
  5
397
100
AcDbEntity
  8
LAYER0004
  6
CONTINUOUS
 62
       7
100
AcDbLine
 10
-172.26257838
 20
-91.93118237
 30
0.0
 11
-172.22161049
 21
-91.91074393
 31
0.0
  0
LINE
  5
398
100
AcDbEntity
  8
LAYER0004
  6
CONTINUOUS
 62
       7
100
AcDbLine
 10
-172.22161049
 20
-91.91074393
 30
0.0
 11
-172.18005562
 21
-91.89175303
 31
0.0
  0
LINE
  5
399
100
AcDbEntity
  8
LAYER0004
  6
CONTINUOUS
 62
       7
100
AcDbLine
 10
-172.18005562
 20
-91.89175303
 30
0.0
 11
-172.13797043
 21
-91.87421069
 31
0.0
  0
LINE
  5
39A
100
AcDbEntity
  8
LAYER0004
  6
CONTINUOUS
 62
       7
100
AcDbLine
 10
-172.13797043
 20
-91.87421069
 30
0.0
 11
-172.0954116
 21
-91.85811794
 31
0.0
  0
LINE
  5
39B
100
AcDbEntity
  8
LAYER0004
  6
CONTINUOUS
 62
       7
100
AcDbLine
 10
-172.0954116
 20
-91.85811794
 30
0.0
 11
-172.05243584
 21
-91.84347581
 31
0.0
  0
LINE
  5
39C
100
AcDbEntity
  8
LAYER0004
  6
CONTINUOUS
 62
       7
100
AcDbLine
 10
-172.05243584
 20
-91.84347581
 30
0.0
 11
-172.0090998
 21
-91.83028531
 31
0.0
  0
LINE
  5
39D
100
AcDbEntity
  8
LAYER0004
  6
CONTINUOUS
 62
       7
100
AcDbLine
 10
-172.0090998
 20
-91.83028531
 30
0.0
 11
-171.96545992
 21
-91.81854643
 31
0.0
  0
LINE
  5
39E
100
AcDbEntity
  8
LAYER0004
  6
CONTINUOUS
 62
       7
100
AcDbLine
 10
-171.96545992
 20
-91.81854643
 30
0.0
 11
-171.92155962
 21
-91.80820868
 31
0.0
  0
LINE
  5
39F
100
AcDbEntity
  8
LAYER0004
  6
CONTINUOUS
 62
       7
100
AcDbLine
 10
-171.92155962
 20
-91.80820868
 30
0.0
 11
-171.87742386
 21
-91.79914966
 31
0.0
  0
LINE
  5
3A0
100
AcDbEntity
  8
LAYER0004
  6
CONTINUOUS
 62
       7
100
AcDbLine
 10
-171.87742386
 20
-91.79914966
 30
0.0
 11
-171.83307619
 21
-91.79124151
 31
0.0
  0
LINE
  5
3A1
100
AcDbEntity
  8
LAYER0004
  6
CONTINUOUS
 62
       7
100
AcDbLine
 10
-171.83307619
 20
-91.79124151
 30
0.0
 11
-171.78854016
 21
-91.78435636
 31
0.0
  0
LINE
  5
3A2
100
AcDbEntity
  8
LAYER0004
  6
CONTINUOUS
 62
       7
100
AcDbLine
 10
-171.78854016
 20
-91.78435636
 30
0.0
 11
-171.74383931
 21
-91.77836633
 31
0.0
  0
LINE
  5
3A3
100
AcDbEntity
  8
LAYER0004
  6
CONTINUOUS
 62
       7
100
AcDbLine
 10
-171.74383931
 20
-91.77836633
 30
0.0
 11
-171.69899718
 21
-91.77314354
 31
0.0
  0
LINE
  5
3A4
100
AcDbEntity
  8
LAYER0004
  6
CONTINUOUS
 62
       7
100
AcDbLine
 10
-171.69899718
 20
-91.77314354
 30
0.0
 11
-171.65403733
 21
-91.76856012
 31
0.0
  0
LINE
  5
3A5
100
AcDbEntity
  8
LAYER0004
  6
CONTINUOUS
 62
       7
100
AcDbLine
 10
-171.65403733
 20
-91.76856012
 30
0.0
 11
-171.60898329
 21
-91.7644882
 31
0.0
  0
LINE
  5
3A6
100
AcDbEntity
  8
LAYER0004
  6
CONTINUOUS
 62
       7
100
AcDbLine
 10
-171.60898329
 20
-91.7644882
 30
0.0
 11
-171.56385862
 21
-91.76079991
 31
0.0
  0
LINE
  5
3A7
100
AcDbEntity
  8
LAYER0004
  6
CONTINUOUS
 62
       7
100
AcDbLine
 10
-171.56385862
 20
-91.76079991
 30
0.0
 11
-171.51868686
 21
-91.75736736
 31
0.0
  0
LINE
  5
3A8
100
AcDbEntity
  8
LAYER0004
  6
CONTINUOUS
 62
       7
100
AcDbLine
 10
-171.51868686
 20
-91.75736736
 30
0.0
 11
-171.47349155
 21
-91.75406268
 31
0.0
  0
LINE
  5
3A9
100
AcDbEntity
  8
LAYER0004
  6
CONTINUOUS
 62
       7
100
AcDbLine
 10
-171.47349155
 20
-100.25406221
 30
0.0
 11
-171.51889676
 21
-100.24977822
 31
0.0
  0
LINE
  5
3AA
100
AcDbEntity
  8
LAYER0004
  6
CONTINUOUS
 62
       7
100
AcDbLine
 10
-171.51889676
 20
-100.24977822
 30
0.0
 11
-171.56427377
 21
-100.24539002
 31
0.0
  0
LINE
  5
3AB
100
AcDbEntity
  8
LAYER0004
  6
CONTINUOUS
 62
       7
100
AcDbLine
 10
-171.56427377
 20
-100.24539002
 30
0.0
 11
-171.60959435
 21
-100.24079345
 31
0.0
  0
LINE
  5
3AC
100
AcDbEntity
  8
LAYER0004
  6
CONTINUOUS
 62
       7
100
AcDbLine
 10
-171.60959435
 20
-100.24079345
 30
0.0
 11
-171.65483029
 21
-100.23588429
 31
0.0
  0
LINE
  5
3AD
100
AcDbEntity
  8
LAYER0004
  6
CONTINUOUS
 62
       7
100
AcDbLine
 10
-171.65483029
 20
-100.23588429
 30
0.0
 11
-171.69995339
 21
-100.23055836
 31
0.0
  0
LINE
  5
3AE
100
AcDbEntity
  8
LAYER0004
  6
CONTINUOUS
 62
       7
100
AcDbLine
 10
-171.69995339
 20
-100.23055836
 30
0.0
 11
-171.74493543
 21
-100.22471146
 31
0.0
  0
LINE
  5
3AF
100
AcDbEntity
  8
LAYER0004
  6
CONTINUOUS
 62
       7
100
AcDbLine
 10
-171.74493543
 20
-100.22471146
 30
0.0
 11
-171.78974819
 21
-100.21823941
 31
0.0
  0
LINE
  5
3B0
100
AcDbEntity
  8
LAYER0004
  6
CONTINUOUS
 62
       7
100
AcDbLine
 10
-171.78974819
 20
-100.21823941
 30
0.0
 11
-171.83436347
 21
-100.211038
 31
0.0
  0
LINE
  5
3B1
100
AcDbEntity
  8
LAYER0004
  6
CONTINUOUS
 62
       7
100
AcDbLine
 10
-171.83436347
 20
-100.211038
 30
0.0
 11
-171.87875306
 21
-100.20300305
 31
0.0
  0
LINE
  5
3B2
100
AcDbEntity
  8
LAYER0004
  6
CONTINUOUS
 62
       7
100
AcDbLine
 10
-171.87875306
 20
-100.20300305
 30
0.0
 11
-171.92288873
 21
-100.19403036
 31
0.0
  0
LINE
  5
3B3
100
AcDbEntity
  8
LAYER0004
  6
CONTINUOUS
 62
       7
100
AcDbLine
 10
-171.92288873
 20
-100.19403036
 30
0.0
 11
-171.96674229
 21
-100.18401574
 31
0.0
  0
LINE
  5
3B4
100
AcDbEntity
  8
LAYER0004
  6
CONTINUOUS
 62
       7
100
AcDbLine
 10
-171.96674229
 20
-100.18401574
 30
0.0
 11
-172.01028551
 21
-100.17285499
 31
0.0
  0
LINE
  5
3B5
100
AcDbEntity
  8
LAYER0004
  6
CONTINUOUS
 62
       7
100
AcDbLine
 10
-172.01028551
 20
-100.17285499
 30
0.0
 11
-172.0534902
 21
-100.16044393
 31
0.0
  0
LINE
  5
3B6
100
AcDbEntity
  8
LAYER0004
  6
CONTINUOUS
 62
       7
100
AcDbLine
 10
-172.0534902
 20
-100.16044393
 30
0.0
 11
-172.09632812
 21
-100.14667835
 31
0.0
  0
LINE
  5
3B7
100
AcDbEntity
  8
LAYER0004
  6
CONTINUOUS
 62
       7
100
AcDbLine
 10
-172.09632812
 20
-100.14667835
 30
0.0
 11
-172.13877108
 21
-100.13145407
 31
0.0
  0
LINE
  5
3B8
100
AcDbEntity
  8
LAYER0004
  6
CONTINUOUS
 62
       7
100
AcDbLine
 10
-172.13877108
 20
-100.13145407
 30
0.0
 11
-172.18078952
 21
-100.1146704
 31
0.0
  0
LINE
  5
3B9
100
AcDbEntity
  8
LAYER0004
  6
CONTINUOUS
 62
       7
100
AcDbLine
 10
-172.18078952
 20
-100.1146704
 30
0.0
 11
-172.22233096
 21
-100.09628696
 31
0.0
  0
LINE
  5
3BA
100
AcDbEntity
  8
LAYER0004
  6
CONTINUOUS
 62
       7
100
AcDbLine
 10
-172.22233096
 20
-100.09628696
 30
0.0
 11
-172.26332364
 21
-100.07631404
 31
0.0
  0
LINE
  5
3BB
100
AcDbEntity
  8
LAYER0004
  6
CONTINUOUS
 62
       7
100
AcDbLine
 10
-172.26332364
 20
-100.07631404
 30
0.0
 11
-172.30369522
 21
-100.05476349
 31
0.0
  0
LINE
  5
3BC
100
AcDbEntity
  8
LAYER0004
  6
CONTINUOUS
 62
       7
100
AcDbLine
 10
-172.30369522
 20
-100.05476349
 30
0.0
 11
-172.34337331
 21
-100.03164718
 31
0.0
  0
LINE
  5
3BD
100
AcDbEntity
  8
LAYER0004
  6
CONTINUOUS
 62
       7
100
AcDbLine
 10
-172.34337331
 20
-100.03164718
 30
0.0
 11
-172.38228558
 21
-100.00697697
 31
0.0
  0
LINE
  5
3BE
100
AcDbEntity
  8
LAYER0004
  6
CONTINUOUS
 62
       7
100
AcDbLine
 10
-172.38228558
 20
-100.00697697
 30
0.0
 11
-172.42035966
 21
-99.98076474
 31
0.0
  0
LINE
  5
3BF
100
AcDbEntity
  8
LAYER0004
  6
CONTINUOUS
 62
       7
100
AcDbLine
 10
-172.42035966
 20
-99.98076474
 30
0.0
 11
-172.45752319
 21
-99.95302234
 31
0.0
  0
LINE
  5
3C0
100
AcDbEntity
  8
LAYER0004
  6
CONTINUOUS
 62
       7
100
AcDbLine
 10
-172.45752319
 20
-99.95302234
 30
0.0
 11
-172.49370381
 21
-99.92376163
 31
0.0
  0
LINE
  5
3C1
100
AcDbEntity
  8
LAYER0004
  6
CONTINUOUS
 62
       7
100
AcDbLine
 10
-172.49370381
 20
-99.92376163
 30
0.0
 11
-172.52882534
 21
-99.89299098
 31
0.0
  0
LINE
  5
3C2
100
AcDbEntity
  8
LAYER0004
  6
CONTINUOUS
 62
       7
100
AcDbLine
 10
-172.52882534
 20
-99.89299098
 30
0.0
 11
-172.56278401
 21
-99.86069337
 31
0.0
  0
LINE
  5
3C3
100
AcDbEntity
  8
LAYER0004
  6
CONTINUOUS
 62
       7
100
AcDbLine
 10
-172.56278401
 20
-99.86069337
 30
0.0
 11
-172.59546396
 21
-99.8268407
 31
0.0
  0
LINE
  5
3C4
100
AcDbEntity
  8
LAYER0004
  6
CONTINUOUS
 62
       7
100
AcDbLine
 10
-172.59546396
 20
-99.8268407
 30
0.0
 11
-172.62674926
 21
-99.7914048
 31
0.0
  0
LINE
  5
3C5
100
AcDbEntity
  8
LAYER0004
  6
CONTINUOUS
 62
       7
100
AcDbLine
 10
-172.62674926
 20
-99.7914048
 30
0.0
 11
-172.65652402
 21
-99.75435752
 31
0.0
  0
LINE
  5
3C6
100
AcDbEntity
  8
LAYER0004
  6
CONTINUOUS
 62
       7
100
AcDbLine
 10
-172.65652402
 20
-99.75435752
 30
0.0
 11
-172.6846723
 21
-99.7156707
 31
0.0
  0
LINE
  5
3C7
100
AcDbEntity
  8
LAYER0004
  6
CONTINUOUS
 62
       7
100
AcDbLine
 10
-172.6846723
 20
-99.7156707
 30
0.0
 11
-172.71107818
 21
-99.67531619
 31
0.0
  0
LINE
  5
3C8
100
AcDbEntity
  8
LAYER0004
  6
CONTINUOUS
 62
       7
100
AcDbLine
 10
-172.71107818
 20
-99.67531619
 30
0.0
 11
-172.73557483
 21
-99.63329931
 31
0.0
  0
LINE
  5
3C9
100
AcDbEntity
  8
LAYER0004
  6
CONTINUOUS
 62
       7
100
AcDbLine
 10
-172.73557483
 20
-99.63329931
 30
0.0
 11
-172.75782941
 21
-99.58973461
 31
0.0
  0
LINE
  5
3CA
100
AcDbEntity
  8
LAYER0004
  6
CONTINUOUS
 62
       7
100
AcDbLine
 10
-172.75782941
 20
-99.58973461
 30
0.0
 11
-172.77747527
 21
-99.54475885
 31
0.0
  0
LINE
  5
3CB
100
AcDbEntity
  8
LAYER0004
  6
CONTINUOUS
 62
       7
100
AcDbLine
 10
-172.77747527
 20
-99.54475885
 30
0.0
 11
-172.79414577
 21
-99.49850881
 31
0.0
  0
LINE
  5
3CC
100
AcDbEntity
  8
LAYER0004
  6
CONTINUOUS
 62
       7
100
AcDbLine
 10
-172.79414577
 20
-99.49850881
 30
0.0
 11
-172.80747428
 21
-99.45112126
 31
0.0
  0
LINE
  5
3CD
100
AcDbEntity
  8
LAYER0004
  6
CONTINUOUS
 62
       7
100
AcDbLine
 10
-172.80747428
 20
-99.45112126
 30
0.0
 11
-172.8172396
 21
-99.40274571
 31
0.0
  0
LINE
  5
3CE
100
AcDbEntity
  8
LAYER0004
  6
CONTINUOUS
 62
       7
100
AcDbLine
 10
-172.8172396
 20
-99.40274571
 30
0.0
 11
-172.82409064
 21
-99.35360796
 31
0.0
  0
LINE
  5
3CF
100
AcDbEntity
  8
LAYER0004
  6
CONTINUOUS
 62
       7
100
AcDbLine
 10
-172.82409064
 20
-99.35360796
 30
0.0
 11
-172.82899848
 21
-99.30396205
 31
0.0
  0
LINE
  5
3D0
100
AcDbEntity
  8
LAYER0004
  6
CONTINUOUS
 62
       7
100
AcDbLine
 10
-172.82899848
 20
-99.30396205
 30
0.0
 11
-172.83293473
 21
-99.25406205
 31
0.0
  0
LINE
  5
3D1
100
AcDbEntity
  8
LAYER0004
  6
CONTINUOUS
 62
       7
100
AcDbLine
 10
-144.92520558
 20
-99.25406205
 30
0.0
 11
-144.9304069
 21
-99.30408711
 31
0.0
  0
LINE
  5
3D2
100
AcDbEntity
  8
LAYER0004
  6
CONTINUOUS
 62
       7
100
AcDbLine
 10
-144.9304069
 20
-99.30408711
 30
0.0
 11
-144.93631578
 21
-99.35386244
 31
0.0
  0
LINE
  5
3D3
100
AcDbEntity
  8
LAYER0004
  6
CONTINUOUS
 62
       7
100
AcDbLine
 10
-144.93631578
 20
-99.35386244
 30
0.0
 11
-144.94363977
 21
-99.40313835
 31
0.0
  0
LINE
  5
3D4
100
AcDbEntity
  8
LAYER0004
  6
CONTINUOUS
 62
       7
100
AcDbLine
 10
-144.94363977
 20
-99.40313835
 30
0.0
 11
-144.95308643
 21
-99.4516651
 31
0.0
  0
LINE
  5
3D5
100
AcDbEntity
  8
LAYER0004
  6
CONTINUOUS
 62
       7
100
AcDbLine
 10
-144.95308643
 20
-99.4516651
 30
0.0
 11
-144.96536333
 21
-99.49919298
 31
0.0
  0
LINE
  5
3D6
100
AcDbEntity
  8
LAYER0004
  6
CONTINUOUS
 62
       7
100
AcDbLine
 10
-144.96536333
 20
-99.49919298
 30
0.0
 11
-144.98108175
 21
-99.54548707
 31
0.0
  0
LINE
  5
3D7
100
AcDbEntity
  8
LAYER0004
  6
CONTINUOUS
 62
       7
100
AcDbLine
 10
-144.98108175
 20
-99.54548707
 30
0.0
 11
-145.00015101
 21
-99.59042025
 31
0.0
  0
LINE
  5
3D8
100
AcDbEntity
  8
LAYER0004
  6
CONTINUOUS
 62
       7
100
AcDbLine
 10
-145.00015101
 20
-99.59042025
 30
0.0
 11
-145.02216953
 21
-99.6339132
 31
0.0
  0
LINE
  5
3D9
100
AcDbEntity
  8
LAYER0004
  6
CONTINUOUS
 62
       7
100
AcDbLine
 10
-145.02216953
 20
-99.6339132
 30
0.0
 11
-145.04673431
 21
-99.6758868
 31
0.0
  0
LINE
  5
3DA
100
AcDbEntity
  8
LAYER0004
  6
CONTINUOUS
 62
       7
100
AcDbLine
 10
-145.04673431
 20
-99.6758868
 30
0.0
 11
-145.07344235
 21
-99.71626191
 31
0.0
  0
LINE
  5
3DB
100
AcDbEntity
  8
LAYER0004
  6
CONTINUOUS
 62
       7
100
AcDbLine
 10
-145.07344235
 20
-99.71626191
 30
0.0
 11
-145.10190375
 21
-99.7549643
 31
0.0
  0
LINE
  5
3DC
100
AcDbEntity
  8
LAYER0004
  6
CONTINUOUS
 62
       7
100
AcDbLine
 10
-145.10190375
 20
-99.7549643
 30
0.0
 11
-145.13189994
 21
-99.79198371
 31
0.0
  0
LINE
  5
3DD
100
AcDbEntity
  8
LAYER0004
  6
CONTINUOUS
 62
       7
100
AcDbLine
 10
-145.13189994
 20
-99.79198371
 30
0.0
 11
-145.16333267
 21
-99.82735483
 31
0.0
  0
LINE
  5
3DE
100
AcDbEntity
  8
LAYER0004
  6
CONTINUOUS
 62
       7
100
AcDbLine
 10
-145.16333267
 20
-99.82735483
 30
0.0
 11
-145.19610622
 21
-99.86111324
 31
0.0
  0
LINE
  5
3DF
100
AcDbEntity
  8
LAYER0004
  6
CONTINUOUS
 62
       7
100
AcDbLine
 10
-145.19610622
 20
-99.86111324
 30
0.0
 11
-145.23012486
 21
-99.89329457
 31
0.0
  0
LINE
  5
3E0
100
AcDbEntity
  8
LAYER0004
  6
CONTINUOUS
 62
       7
100
AcDbLine
 10
-145.23012486
 20
-99.89329457
 30
0.0
 11
-145.26529284
 21
-99.92393441
 31
0.0
  0
LINE
  5
3E1
100
AcDbEntity
  8
LAYER0004
  6
CONTINUOUS
 62
       7
100
AcDbLine
 10
-145.26529284
 20
-99.92393441
 30
0.0
 11
-145.30151443
 21
-99.95306839
 31
0.0
  0
LINE
  5
3E2
100
AcDbEntity
  8
LAYER0004
  6
CONTINUOUS
 62
       7
100
AcDbLine
 10
-145.30151443
 20
-99.95306839
 30
0.0
 11
-145.33869396
 21
-99.98073205
 31
0.0
  0
LINE
  5
3E3
100
AcDbEntity
  8
LAYER0004
  6
CONTINUOUS
 62
       7
100
AcDbLine
 10
-145.33869396
 20
-99.98073205
 30
0.0
 11
-145.37674708
 21
-100.00695031
 31
0.0
  0
LINE
  5
3E4
100
AcDbEntity
  8
LAYER0004
  6
CONTINUOUS
 62
       7
100
AcDbLine
 10
-145.37674708
 20
-100.00695031
 30
0.0
 11
-145.41561391
 21
-100.03172515
 31
0.0
  0
LINE
  5
3E5
100
AcDbEntity
  8
LAYER0004
  6
CONTINUOUS
 62
       7
100
AcDbLine
 10
-145.41561391
 20
-100.03172515
 30
0.0
 11
-145.45523778
 21
-100.05505555
 31
0.0
  0
LINE
  5
3E6
100
AcDbEntity
  8
LAYER0004
  6
CONTINUOUS
 62
       7
100
AcDbLine
 10
-145.45523778
 20
-100.05505555
 30
0.0
 11
-145.49556201
 21
-100.07694047
 31
0.0
  0
LINE
  5
3E7
100
AcDbEntity
  8
LAYER0004
  6
CONTINUOUS
 62
       7
100
AcDbLine
 10
-145.49556201
 20
-100.07694047
 30
0.0
 11
-145.5365299
 21
-100.09737889
 31
0.0
  0
LINE
  5
3E8
100
AcDbEntity
  8
LAYER0004
  6
CONTINUOUS
 62
       7
100
AcDbLine
 10
-145.5365299
 20
-100.09737889
 30
0.0
 11
-145.57808478
 21
-100.1163698
 31
0.0
  0
LINE
  5
3E9
100
AcDbEntity
  8
LAYER0004
  6
CONTINUOUS
 62
       7
100
AcDbLine
 10
-145.57808478
 20
-100.1163698
 30
0.0
 11
-145.62016997
 21
-100.13391215
 31
0.0
  0
LINE
  5
3EA
100
AcDbEntity
  8
LAYER0004
  6
CONTINUOUS
 62
       7
100
AcDbLine
 10
-145.62016997
 20
-100.13391215
 30
0.0
 11
-145.66272879
 21
-100.15000494
 31
0.0
  0
LINE
  5
3EB
100
AcDbEntity
  8
LAYER0004
  6
CONTINUOUS
 62
       7
100
AcDbLine
 10
-145.66272879
 20
-100.15000494
 30
0.0
 11
-145.70570455
 21
-100.16464712
 31
0.0
  0
LINE
  5
3EC
100
AcDbEntity
  8
LAYER0004
  6
CONTINUOUS
 62
       7
100
AcDbLine
 10
-145.70570455
 20
-100.16464712
 30
0.0
 11
-145.74904057
 21
-100.17783769
 31
0.0
  0
LINE
  5
3ED
100
AcDbEntity
  8
LAYER0004
  6
CONTINUOUS
 62
       7
100
AcDbLine
 10
-145.74904057
 20
-100.17783769
 30
0.0
 11
-145.79268045
 21
-100.18957665
 31
0.0
  0
LINE
  5
3EE
100
AcDbEntity
  8
LAYER0004
  6
CONTINUOUS
 62
       7
100
AcDbLine
 10
-145.79268045
 20
-100.18957665
 30
0.0
 11
-145.83658074
 21
-100.19991451
 31
0.0
  0
LINE
  5
3EF
100
AcDbEntity
  8
LAYER0004
  6
CONTINUOUS
 62
       7
100
AcDbLine
 10
-145.83658074
 20
-100.19991451
 30
0.0
 11
-145.88071649
 21
-100.20897365
 31
0.0
  0
LINE
  5
3F0
100
AcDbEntity
  8
LAYER0004
  6
CONTINUOUS
 62
       7
100
AcDbLine
 10
-145.88071649
 20
-100.20897365
 30
0.0
 11
-145.92506415
 21
-100.21688193
 31
0.0
  0
LINE
  5
3F1
100
AcDbEntity
  8
LAYER0004
  6
CONTINUOUS
 62
       7
100
AcDbLine
 10
-145.92506415
 20
-100.21688193
 30
0.0
 11
-145.96960018
 21
-100.22376724
 31
0.0
  0
LINE
  5
3F2
100
AcDbEntity
  8
LAYER0004
  6
CONTINUOUS
 62
       7
100
AcDbLine
 10
-145.96960018
 20
-100.22376724
 30
0.0
 11
-146.01430103
 21
-100.22975743
 31
0.0
  0
LINE
  5
3F3
100
AcDbEntity
  8
LAYER0004
  6
CONTINUOUS
 62
       7
100
AcDbLine
 10
-146.01430103
 20
-100.22975743
 30
0.0
 11
-146.05914315
 21
-100.2349804
 31
0.0
  0
LINE
  5
3F4
100
AcDbEntity
  8
LAYER0004
  6
CONTINUOUS
 62
       7
100
AcDbLine
 10
-146.05914315
 20
-100.2349804
 30
0.0
 11
-146.10410299
 21
-100.23956399
 31
0.0
  0
LINE
  5
3F5
100
AcDbEntity
  8
LAYER0004
  6
CONTINUOUS
 62
       7
100
AcDbLine
 10
-146.10410299
 20
-100.23956399
 30
0.0
 11
-146.14915703
 21
-100.2436361
 31
0.0
  0
LINE
  5
3F6
100
AcDbEntity
  8
LAYER0004
  6
CONTINUOUS
 62
       7
100
AcDbLine
 10
-146.14915703
 20
-100.2436361
 30
0.0
 11
-146.19428169
 21
-100.24732459
 31
0.0
  0
LINE
  5
3F7
100
AcDbEntity
  8
LAYER0004
  6
CONTINUOUS
 62
       7
100
AcDbLine
 10
-146.19428169
 20
-100.24732459
 30
0.0
 11
-146.23945345
 21
-100.25075734
 31
0.0
  0
LINE
  5
3F8
100
AcDbEntity
  8
LAYER0004
  6
CONTINUOUS
 62
       7
100
AcDbLine
 10
-146.23945345
 20
-100.25075734
 30
0.0
 11
-146.28464876
 21
-100.25406221
 31
0.0
  0
LINE
  5
3F9
100
AcDbEntity
  8
LAYER0004
  6
CONTINUOUS
 62
       7
100
AcDbLine
 10
13.26279199
 20
57.99593905
 30
0.0
 11
13.30095155
 21
57.9891383
 31
0.0
  0
LINE
  5
3FA
100
AcDbEntity
  8
LAYER0004
  6
CONTINUOUS
 62
       7
100
AcDbLine
 10
13.30095155
 20
57.9891383
 30
0.0
 11
13.33907067
 21
57.98195267
 31
0.0
  0
LINE
  5
3FB
100
AcDbEntity
  8
LAYER0004
  6
CONTINUOUS
 62
       7
100
AcDbLine
 10
13.33907067
 20
57.98195267
 30
0.0
 11
13.37710891
 21
57.97399729
 31
0.0
  0
LINE
  5
3FC
100
AcDbEntity
  8
LAYER0004
  6
CONTINUOUS
 62
       7
100
AcDbLine
 10
13.37710891
 20
57.97399729
 30
0.0
 11
13.41502583
 21
57.96488727
 31
0.0
  0
LINE
  5
3FD
100
AcDbEntity
  8
LAYER0004
  6
CONTINUOUS
 62
       7
100
AcDbLine
 10
13.41502583
 20
57.96488727
 30
0.0
 11
13.45278097
 21
57.95423774
 31
0.0
  0
LINE
  5
3FE
100
AcDbEntity
  8
LAYER0004
  6
CONTINUOUS
 62
       7
100
AcDbLine
 10
13.45278097
 20
57.95423774
 30
0.0
 11
13.49033391
 21
57.94166381
 31
0.0
  0
LINE
  5
3FF
100
AcDbEntity
  8
LAYER0004
  6
CONTINUOUS
 62
       7
100
AcDbLine
 10
13.49033391
 20
57.94166381
 30
0.0
 11
13.52764421
 21
57.92678061
 31
0.0
  0
LINE
  5
400
100
AcDbEntity
  8
LAYER0004
  6
CONTINUOUS
 62
       7
100
AcDbLine
 10
13.52764421
 20
57.92678061
 30
0.0
 11
13.56467141
 21
57.90920326
 31
0.0
  0
LINE
  5
401
100
AcDbEntity
  8
LAYER0004
  6
CONTINUOUS
 62
       7
100
AcDbLine
 10
13.56467141
 20
57.90920326
 30
0.0
 11
13.60137473
 21
57.88855343
 31
0.0
  0
LINE
  5
402
100
AcDbEntity
  8
LAYER0004
  6
CONTINUOUS
 62
       7
100
AcDbLine
 10
13.60137473
 20
57.88855343
 30
0.0
 11
13.63770103
 21
57.86468442
 31
0.0
  0
LINE
  5
403
100
AcDbEntity
  8
LAYER0004
  6
CONTINUOUS
 62
       7
100
AcDbLine
 10
13.63770103
 20
57.86468442
 30
0.0
 11
13.6735818
 21
57.83773774
 31
0.0
  0
LINE
  5
404
100
AcDbEntity
  8
LAYER0004
  6
CONTINUOUS
 62
       7
100
AcDbLine
 10
13.6735818
 20
57.83773774
 30
0.0
 11
13.70894757
 21
57.80787293
 31
0.0
  0
LINE
  5
405
100
AcDbEntity
  8
LAYER0004
  6
CONTINUOUS
 62
       7
100
AcDbLine
 10
13.70894757
 20
57.80787293
 30
0.0
 11
13.74372887
 21
57.77524953
 31
0.0
  0
LINE
  5
406
100
AcDbEntity
  8
LAYER0004
  6
CONTINUOUS
 62
       7
100
AcDbLine
 10
13.74372887
 20
57.77524953
 30
0.0
 11
13.77785622
 21
57.74002709
 31
0.0
  0
LINE
  5
407
100
AcDbEntity
  8
LAYER0004
  6
CONTINUOUS
 62
       7
100
AcDbLine
 10
13.77785622
 20
57.74002709
 30
0.0
 11
13.81126016
 21
57.70236517
 31
0.0
  0
LINE
  5
408
100
AcDbEntity
  8
LAYER0004
  6
CONTINUOUS
 62
       7
100
AcDbLine
 10
13.81126016
 20
57.70236517
 30
0.0
 11
13.84387121
 21
57.66242329
 31
0.0
  0
LINE
  5
409
100
AcDbEntity
  8
LAYER0004
  6
CONTINUOUS
 62
       7
100
AcDbLine
 10
13.84387121
 20
57.66242329
 30
0.0
 11
13.87561991
 21
57.62036101
 31
0.0
  0
LINE
  5
40A
100
AcDbEntity
  8
LAYER0004
  6
CONTINUOUS
 62
       7
100
AcDbLine
 10
13.87561991
 20
57.62036101
 30
0.0
 11
13.90644018
 21
57.57632726
 31
0.0
  0
LINE
  5
40B
100
AcDbEntity
  8
LAYER0004
  6
CONTINUOUS
 62
       7
100
AcDbLine
 10
13.90644018
 20
57.57632726
 30
0.0
 11
13.93628862
 21
57.53040021
 31
0.0
  0
LINE
  5
40C
100
AcDbEntity
  8
LAYER0004
  6
CONTINUOUS
 62
       7
100
AcDbLine
 10
13.93628862
 20
57.53040021
 30
0.0
 11
13.9651311
 21
57.48262908
 31
0.0
  0
LINE
  5
40D
100
AcDbEntity
  8
LAYER0004
  6
CONTINUOUS
 62
       7
100
AcDbLine
 10
13.9651311
 20
57.48262908
 30
0.0
 11
13.99293353
 21
57.43306302
 31
0.0
  0
LINE
  5
40E
100
AcDbEntity
  8
LAYER0004
  6
CONTINUOUS
 62
       7
100
AcDbLine
 10
13.99293353
 20
57.43306302
 30
0.0
 11
14.0196618
 21
57.38175114
 31
0.0
  0
LINE
  5
40F
100
AcDbEntity
  8
LAYER0004
  6
CONTINUOUS
 62
       7
100
AcDbLine
 10
14.0196618
 20
57.38175114
 30
0.0
 11
14.04528182
 21
57.32874261
 31
0.0
  0
LINE
  5
410
100
AcDbEntity
  8
LAYER0004
  6
CONTINUOUS
 62
       7
100
AcDbLine
 10
14.04528182
 20
57.32874261
 30
0.0
 11
14.06975947
 21
57.27408653
 31
0.0
  0
LINE
  5
411
100
AcDbEntity
  8
LAYER0004
  6
CONTINUOUS
 62
       7
100
AcDbLine
 10
14.06975947
 20
57.27408653
 30
0.0
 11
14.09306067
 21
57.21783207
 31
0.0
  0
LINE
  5
412
100
AcDbEntity
  8
LAYER0004
  6
CONTINUOUS
 62
       7
100
AcDbLine
 10
14.09306067
 20
57.21783207
 30
0.0
 11
14.11515118
 21
57.16002852
 31
0.0
  0
LINE
  5
413
100
AcDbEntity
  8
LAYER0004
  6
CONTINUOUS
 62
       7
100
AcDbLine
 10
14.11515118
 20
57.16002852
 30
0.0
 11
14.13598173
 21
57.10074557
 31
0.0
  0
LINE
  5
414
100
AcDbEntity
  8
LAYER0004
  6
CONTINUOUS
 62
       7
100
AcDbLine
 10
14.13598173
 20
57.10074557
 30
0.0
 11
14.1554743
 21
57.04009184
 31
0.0
  0
LINE
  5
415
100
AcDbEntity
  8
LAYER0004
  6
CONTINUOUS
 62
       7
100
AcDbLine
 10
14.1554743
 20
57.04009184
 30
0.0
 11
14.17354762
 21
56.97818033
 31
0.0
  0
LINE
  5
416
100
AcDbEntity
  8
LAYER0004
  6
CONTINUOUS
 62
       7
100
AcDbLine
 10
14.17354762
 20
56.97818033
 30
0.0
 11
14.19012044
 21
56.91512405
 31
0.0
  0
LINE
  5
417
100
AcDbEntity
  8
LAYER0004
  6
CONTINUOUS
 62
       7
100
AcDbLine
 10
14.19012044
 20
56.91512405
 30
0.0
 11
14.20511149
 21
56.85103599
 31
0.0
  0
LINE
  5
418
100
AcDbEntity
  8
LAYER0004
  6
CONTINUOUS
 62
       7
100
AcDbLine
 10
14.20511149
 20
56.85103599
 30
0.0
 11
14.21843951
 21
56.78602917
 31
0.0
  0
LINE
  5
419
100
AcDbEntity
  8
LAYER0004
  6
CONTINUOUS
 62
       7
100
AcDbLine
 10
14.21843951
 20
56.78602917
 30
0.0
 11
14.23002324
 21
56.72021658
 31
0.0
  0
LINE
  5
41A
100
AcDbEntity
  8
LAYER0004
  6
CONTINUOUS
 62
       7
100
AcDbLine
 10
14.23002324
 20
56.72021658
 30
0.0
 11
14.23978142
 21
56.65371124
 31
0.0
  0
LINE
  5
41B
100
AcDbEntity
  8
LAYER0004
  6
CONTINUOUS
 62
       7
100
AcDbLine
 10
14.23978142
 20
56.65371124
 30
0.0
 11
14.2476545
 21
56.58662525
 31
0.0
  0
LINE
  5
41C
100
AcDbEntity
  8
LAYER0004
  6
CONTINUOUS
 62
       7
100
AcDbLine
 10
14.2476545
 20
56.58662525
 30
0.0
 11
14.25382708
 21
56.5190607
 31
0.0
  0
LINE
  5
41D
100
AcDbEntity
  8
LAYER0004
  6
CONTINUOUS
 62
       7
100
AcDbLine
 10
14.25382708
 20
56.5190607
 30
0.0
 11
14.25863734
 21
56.45111339
 31
0.0
  0
LINE
  5
41E
100
AcDbEntity
  8
LAYER0004
  6
CONTINUOUS
 62
       7
100
AcDbLine
 10
14.25863734
 20
56.45111339
 30
0.0
 11
14.26242586
 21
56.382879
 31
0.0
  0
LINE
  5
41F
100
AcDbEntity
  8
LAYER0004
  6
CONTINUOUS
 62
       7
100
AcDbLine
 10
14.26242586
 20
56.382879
 30
0.0
 11
14.26553322
 21
56.31445323
 31
0.0
  0
LINE
  5
420
100
AcDbEntity
  8
LAYER0004
  6
CONTINUOUS
 62
       7
100
AcDbLine
 10
14.26553322
 20
56.31445323
 30
0.0
 11
14.2683
 21
56.24593177
 31
0.0
  0
LINE
  5
421
100
AcDbEntity
  8
LAYER0004
  6
CONTINUOUS
 62
       7
100
AcDbLine
 10
14.2683
 20
45.84593454
 30
0.0
 11
14.26421115
 21
45.77719994
 31
0.0
  0
LINE
  5
422
100
AcDbEntity
  8
LAYER0004
  6
CONTINUOUS
 62
       7
100
AcDbLine
 10
14.26421115
 20
45.77719994
 30
0.0
 11
14.2598939
 21
45.70856934
 31
0.0
  0
LINE
  5
423
100
AcDbEntity
  8
LAYER0004
  6
CONTINUOUS
 62
       7
100
AcDbLine
 10
14.2598939
 20
45.70856934
 30
0.0
 11
14.25511985
 21
45.64014671
 31
0.0
  0
LINE
  5
424
100
AcDbEntity
  8
LAYER0004
  6
CONTINUOUS
 62
       7
100
AcDbLine
 10
14.25511985
 20
45.64014671
 30
0.0
 11
14.24966061
 21
45.57203605
 31
0.0
  0
LINE
  5
425
100
AcDbEntity
  8
LAYER0004
  6
CONTINUOUS
 62
       7
100
AcDbLine
 10
14.24966061
 20
45.57203605
 30
0.0
 11
14.24328778
 21
45.50434134
 31
0.0
  0
LINE
  5
426
100
AcDbEntity
  8
LAYER0004
  6
CONTINUOUS
 62
       7
100
AcDbLine
 10
14.24328778
 20
45.50434134
 30
0.0
 11
14.23577296
 21
45.43716659
 31
0.0
  0
LINE
  5
427
100
AcDbEntity
  8
LAYER0004
  6
CONTINUOUS
 62
       7
100
AcDbLine
 10
14.23577296
 20
45.43716659
 30
0.0
 11
14.22688775
 21
45.37061576
 31
0.0
  0
LINE
  5
428
100
AcDbEntity
  8
LAYER0004
  6
CONTINUOUS
 62
       7
100
AcDbLine
 10
14.22688775
 20
45.37061576
 30
0.0
 11
14.21640376
 21
45.30479287
 31
0.0
  0
LINE
  5
429
100
AcDbEntity
  8
LAYER0004
  6
CONTINUOUS
 62
       7
100
AcDbLine
 10
14.21640376
 20
45.30479287
 30
0.0
 11
14.20409653
 21
45.23980183
 31
0.0
  0
LINE
  5
42A
100
AcDbEntity
  8
LAYER0004
  6
CONTINUOUS
 62
       7
100
AcDbLine
 10
14.20409653
 20
45.23980183
 30
0.0
 11
14.18988216
 21
45.17574464
 31
0.0
  0
LINE
  5
42B
100
AcDbEntity
  8
LAYER0004
  6
CONTINUOUS
 62
       7
100
AcDbLine
 10
14.18988216
 20
45.17574464
 30
0.0
 11
14.173852
 21
45.11272086
 31
0.0
  0
LINE
  5
42C
100
AcDbEntity
  8
LAYER0004
  6
CONTINUOUS
 62
       7
100
AcDbLine
 10
14.173852
 20
45.11272086
 30
0.0
 11
14.15610843
 21
45.05082989
 31
0.0
  0
LINE
  5
42D
100
AcDbEntity
  8
LAYER0004
  6
CONTINUOUS
 62
       7
100
AcDbLine
 10
14.15610843
 20
45.05082989
 30
0.0
 11
14.13675381
 21
44.99017114
 31
0.0
  0
LINE
  5
42E
100
AcDbEntity
  8
LAYER0004
  6
CONTINUOUS
 62
       7
100
AcDbLine
 10
14.13675381
 20
44.99017114
 30
0.0
 11
14.11589051
 21
44.93084401
 31
0.0
  0
LINE
  5
42F
100
AcDbEntity
  8
LAYER0004
  6
CONTINUOUS
 62
       7
100
AcDbLine
 10
14.11589051
 20
44.93084401
 30
0.0
 11
14.09362091
 21
44.87294792
 31
0.0
  0
LINE
  5
430
100
AcDbEntity
  8
LAYER0004
  6
CONTINUOUS
 62
       7
100
AcDbLine
 10
14.09362091
 20
44.87294792
 30
0.0
 11
14.07004736
 21
44.81658227
 31
0.0
  0
LINE
  5
431
100
AcDbEntity
  8
LAYER0004
  6
CONTINUOUS
 62
       7
100
AcDbLine
 10
14.07004736
 20
44.81658227
 30
0.0
 11
14.04527224
 21
44.76184647
 31
0.0
  0
LINE
  5
432
100
AcDbEntity
  8
LAYER0004
  6
CONTINUOUS
 62
       7
100
AcDbLine
 10
14.04527224
 20
44.76184647
 30
0.0
 11
14.01939147
 21
44.70883501
 31
0.0
  0
LINE
  5
433
100
AcDbEntity
  8
LAYER0004
  6
CONTINUOUS
 62
       7
100
AcDbLine
 10
14.01939147
 20
44.70883501
 30
0.0
 11
13.99245767
 21
44.65760959
 31
0.0
  0
LINE
  5
434
100
AcDbEntity
  8
LAYER0004
  6
CONTINUOUS
 62
       7
100
AcDbLine
 10
13.99245767
 20
44.65760959
 30
0.0
 11
13.96450569
 21
44.60821837
 31
0.0
  0
LINE
  5
435
100
AcDbEntity
  8
LAYER0004
  6
CONTINUOUS
 62
       7
100
AcDbLine
 10
13.96450569
 20
44.60821837
 30
0.0
 11
13.93557035
 21
44.5607095
 31
0.0
  0
LINE
  5
436
100
AcDbEntity
  8
LAYER0004
  6
CONTINUOUS
 62
       7
100
AcDbLine
 10
13.93557035
 20
44.5607095
 30
0.0
 11
13.90568644
 21
44.51513111
 31
0.0
  0
LINE
  5
437
100
AcDbEntity
  8
LAYER0004
  6
CONTINUOUS
 62
       7
100
AcDbLine
 10
13.90568644
 20
44.51513111
 30
0.0
 11
13.87488876
 21
44.47153136
 31
0.0
  0
LINE
  5
438
100
AcDbEntity
  8
LAYER0004
  6
CONTINUOUS
 62
       7
100
AcDbLine
 10
13.87488876
 20
44.47153136
 30
0.0
 11
13.8432121
 21
44.42995838
 31
0.0
  0
LINE
  5
439
100
AcDbEntity
  8
LAYER0004
  6
CONTINUOUS
 62
       7
100
AcDbLine
 10
13.8432121
 20
44.42995838
 30
0.0
 11
13.81069128
 21
44.3904603
 31
0.0
  0
LINE
  5
43A
100
AcDbEntity
  8
LAYER0004
  6
CONTINUOUS
 62
       7
100
AcDbLine
 10
13.81069128
 20
44.3904603
 30
0.0
 11
13.77736119
 21
44.35308548
 31
0.0
  0
LINE
  5
43B
100
AcDbEntity
  8
LAYER0004
  6
CONTINUOUS
 62
       7
100
AcDbLine
 10
13.77736119
 20
44.35308548
 30
0.0
 11
13.7432691
 21
44.31790655
 31
0.0
  0
LINE
  5
43C
100
AcDbEntity
  8
LAYER0004
  6
CONTINUOUS
 62
       7
100
AcDbLine
 10
13.7432691
 20
44.31790655
 30
0.0
 11
13.70848646
 21
44.28504373
 31
0.0
  0
LINE
  5
43D
100
AcDbEntity
  8
LAYER0004
  6
CONTINUOUS
 62
       7
100
AcDbLine
 10
13.70848646
 20
44.28504373
 30
0.0
 11
13.67308756
 21
44.25462271
 31
0.0
  0
LINE
  5
43E
100
AcDbEntity
  8
LAYER0004
  6
CONTINUOUS
 62
       7
100
AcDbLine
 10
13.67308756
 20
44.25462271
 30
0.0
 11
13.63714663
 21
44.22676921
 31
0.0
  0
LINE
  5
43F
100
AcDbEntity
  8
LAYER0004
  6
CONTINUOUS
 62
       7
100
AcDbLine
 10
13.63714663
 20
44.22676921
 30
0.0
 11
13.60073796
 21
44.20160894
 31
0.0
  0
LINE
  5
440
100
AcDbEntity
  8
LAYER0004
  6
CONTINUOUS
 62
       7
100
AcDbLine
 10
13.60073796
 20
44.20160894
 30
0.0
 11
13.5639358
 21
44.1792676
 31
0.0
  0
LINE
  5
441
100
AcDbEntity
  8
LAYER0004
  6
CONTINUOUS
 62
       7
100
AcDbLine
 10
13.5639358
 20
44.1792676
 30
0.0
 11
13.52681442
 21
44.15987089
 31
0.0
  0
LINE
  5
442
100
AcDbEntity
  8
LAYER0004
  6
CONTINUOUS
 62
       7
100
AcDbLine
 10
13.52681442
 20
44.15987089
 30
0.0
 11
13.48944807
 21
44.14354453
 31
0.0
  0
LINE
  5
443
100
AcDbEntity
  8
LAYER0004
  6
CONTINUOUS
 62
       7
100
AcDbLine
 10
13.48944807
 20
44.14354453
 30
0.0
 11
13.45190859
 21
44.13037941
 31
0.0
  0
LINE
  5
444
100
AcDbEntity
  8
LAYER0004
  6
CONTINUOUS
 62
       7
100
AcDbLine
 10
13.45190859
 20
44.13037941
 30
0.0
 11
13.41423994
 21
44.12006549
 31
0.0
  0
LINE
  5
445
100
AcDbEntity
  8
LAYER0004
  6
CONTINUOUS
 62
       7
100
AcDbLine
 10
13.41423994
 20
44.12006549
 30
0.0
 11
13.37646817
 21
44.11203588
 31
0.0
  0
LINE
  5
446
100
AcDbEntity
  8
LAYER0004
  6
CONTINUOUS
 62
       7
100
AcDbLine
 10
13.37646817
 20
44.11203588
 30
0.0
 11
13.33861908
 21
44.10571951
 31
0.0
  0
LINE
  5
447
100
AcDbEntity
  8
LAYER0004
  6
CONTINUOUS
 62
       7
100
AcDbLine
 10
13.33861908
 20
44.10571951
 30
0.0
 11
13.30071842
 21
44.1005453
 31
0.0
  0
LINE
  5
448
100
AcDbEntity
  8
LAYER0004
  6
CONTINUOUS
 62
       7
100
AcDbLine
 10
13.30071842
 20
44.1005453
 30
0.0
 11
13.26279199
 21
44.09594217
 31
0.0
  0
LINE
  5
449
100
AcDbEntity
  8
LAYER0004
  6
CONTINUOUS
 62
       7
100
AcDbLine
 10
11.08548275
 20
-91.75406266
 30
0.0
 11
11.10689935
 21
-91.75834651
 31
0.0
  0
LINE
  5
44A
100
AcDbEntity
  8
LAYER0004
  6
CONTINUOUS
 62
       7
100
AcDbLine
 10
11.10689935
 20
-91.75834651
 30
0.0
 11
11.1283097
 21
-91.76273456
 31
0.0
  0
LINE
  5
44B
100
AcDbEntity
  8
LAYER0004
  6
CONTINUOUS
 62
       7
100
AcDbLine
 10
11.1283097
 20
-91.76273456
 30
0.0
 11
11.14970754
 21
-91.76733099
 31
0.0
  0
LINE
  5
44C
100
AcDbEntity
  8
LAYER0004
  6
CONTINUOUS
 62
       7
100
AcDbLine
 10
11.14970754
 20
-91.76733099
 30
0.0
 11
11.1710866
 21
-91.77224
 31
0.0
  0
LINE
  5
44D
100
AcDbEntity
  8
LAYER0004
  6
CONTINUOUS
 62
       7
100
AcDbLine
 10
11.1710866
 20
-91.77224
 30
0.0
 11
11.19244064
 21
-91.77756579
 31
0.0
  0
LINE
  5
44E
100
AcDbEntity
  8
LAYER0004
  6
CONTINUOUS
 62
       7
100
AcDbLine
 10
11.19244064
 20
-91.77756579
 30
0.0
 11
11.2137634
 21
-91.78341255
 31
0.0
  0
LINE
  5
44F
100
AcDbEntity
  8
LAYER0004
  6
CONTINUOUS
 62
       7
100
AcDbLine
 10
11.2137634
 20
-91.78341255
 30
0.0
 11
11.23504861
 21
-91.78988447
 31
0.0
  0
LINE
  5
450
100
AcDbEntity
  8
LAYER0004
  6
CONTINUOUS
 62
       7
100
AcDbLine
 10
11.23504861
 20
-91.78988447
 30
0.0
 11
11.25629003
 21
-91.79708575
 31
0.0
  0
LINE
  5
451
100
AcDbEntity
  8
LAYER0004
  6
CONTINUOUS
 62
       7
100
AcDbLine
 10
11.25629003
 20
-91.79708575
 30
0.0
 11
11.2774814
 21
-91.80512058
 31
0.0
  0
LINE
  5
452
100
AcDbEntity
  8
LAYER0004
  6
CONTINUOUS
 62
       7
100
AcDbLine
 10
11.2774814
 20
-91.80512058
 30
0.0
 11
11.29861646
 21
-91.81409316
 31
0.0
  0
LINE
  5
453
100
AcDbEntity
  8
LAYER0004
  6
CONTINUOUS
 62
       7
100
AcDbLine
 10
11.29861646
 20
-91.81409316
 30
0.0
 11
11.31968895
 21
-91.82410768
 31
0.0
  0
LINE
  5
454
100
AcDbEntity
  8
LAYER0004
  6
CONTINUOUS
 62
       7
100
AcDbLine
 10
11.31968895
 20
-91.82410768
 30
0.0
 11
11.34069261
 21
-91.83526833
 31
0.0
  0
LINE
  5
455
100
AcDbEntity
  8
LAYER0004
  6
CONTINUOUS
 62
       7
100
AcDbLine
 10
11.34069261
 20
-91.83526833
 30
0.0
 11
11.3616212
 21
-91.8476793
 31
0.0
  0
LINE
  5
456
100
AcDbEntity
  8
LAYER0004
  6
CONTINUOUS
 62
       7
100
AcDbLine
 10
11.3616212
 20
-91.8476793
 30
0.0
 11
11.38246845
 21
-91.8614448
 31
0.0
  0
LINE
  5
457
100
AcDbEntity
  8
LAYER0004
  6
CONTINUOUS
 62
       7
100
AcDbLine
 10
11.38246845
 20
-91.8614448
 30
0.0
 11
11.40322811
 21
-91.87666901
 31
0.0
  0
LINE
  5
458
100
AcDbEntity
  8
LAYER0004
  6
CONTINUOUS
 62
       7
100
AcDbLine
 10
11.40322811
 20
-91.87666901
 30
0.0
 11
11.42389274
 21
-91.89345262
 31
0.0
  0
LINE
  5
459
100
AcDbEntity
  8
LAYER0004
  6
CONTINUOUS
 62
       7
100
AcDbLine
 10
11.42389274
 20
-91.89345262
 30
0.0
 11
11.4444346
 21
-91.91183601
 31
0.0
  0
LINE
  5
45A
100
AcDbEntity
  8
LAYER0004
  6
CONTINUOUS
 62
       7
100
AcDbLine
 10
11.4444346
 20
-91.91183601
 30
0.0
 11
11.46480894
 21
-91.93180891
 31
0.0
  0
LINE
  5
45B
100
AcDbEntity
  8
LAYER0004
  6
CONTINUOUS
 62
       7
100
AcDbLine
 10
11.46480894
 20
-91.93180891
 30
0.0
 11
11.48497044
 21
-91.95335944
 31
0.0
  0
LINE
  5
45C
100
AcDbEntity
  8
LAYER0004
  6
CONTINUOUS
 62
       7
100
AcDbLine
 10
11.48497044
 20
-91.95335944
 30
0.0
 11
11.50487379
 21
-91.97647574
 31
0.0
  0
LINE
  5
45D
100
AcDbEntity
  8
LAYER0004
  6
CONTINUOUS
 62
       7
100
AcDbLine
 10
11.50487379
 20
-91.97647574
 30
0.0
 11
11.52447368
 21
-92.00114595
 31
0.0
  0
LINE
  5
45E
100
AcDbEntity
  8
LAYER0004
  6
CONTINUOUS
 62
       7
100
AcDbLine
 10
11.52447368
 20
-92.00114595
 30
0.0
 11
11.54372482
 21
-92.0273582
 31
0.0
  0
LINE
  5
45F
100
AcDbEntity
  8
LAYER0004
  6
CONTINUOUS
 62
       7
100
AcDbLine
 10
11.54372482
 20
-92.0273582
 30
0.0
 11
11.56258188
 21
-92.05510063
 31
0.0
  0
LINE
  5
460
100
AcDbEntity
  8
LAYER0004
  6
CONTINUOUS
 62
       7
100
AcDbLine
 10
11.56258188
 20
-92.05510063
 30
0.0
 11
11.58099958
 21
-92.08436138
 31
0.0
  0
LINE
  5
461
100
AcDbEntity
  8
LAYER0004
  6
CONTINUOUS
 62
       7
100
AcDbLine
 10
11.58099958
 20
-92.08436138
 30
0.0
 11
11.59893093
 21
-92.1151321
 31
0.0
  0
LINE
  5
462
100
AcDbEntity
  8
LAYER0004
  6
CONTINUOUS
 62
       7
100
AcDbLine
 10
11.59893093
 20
-92.1151321
 30
0.0
 11
11.61631709
 21
-92.14742977
 31
0.0
  0
LINE
  5
463
100
AcDbEntity
  8
LAYER0004
  6
CONTINUOUS
 62
       7
100
AcDbLine
 10
11.61631709
 20
-92.14742977
 30
0.0
 11
11.63309395
 21
-92.18128251
 31
0.0
  0
LINE
  5
464
100
AcDbEntity
  8
LAYER0004
  6
CONTINUOUS
 62
       7
100
AcDbLine
 10
11.63309395
 20
-92.18128251
 30
0.0
 11
11.64919739
 21
-92.21671847
 31
0.0
  0
LINE
  5
465
100
AcDbEntity
  8
LAYER0004
  6
CONTINUOUS
 62
       7
100
AcDbLine
 10
11.64919739
 20
-92.21671847
 30
0.0
 11
11.66456331
 21
-92.25376579
 31
0.0
  0
LINE
  5
466
100
AcDbEntity
  8
LAYER0004
  6
CONTINUOUS
 62
       7
100
AcDbLine
 10
11.66456331
 20
-92.25376579
 30
0.0
 11
11.67912759
 21
-92.29245264
 31
0.0
  0
LINE
  5
467
100
AcDbEntity
  8
LAYER0004
  6
CONTINUOUS
 62
       7
100
AcDbLine
 10
11.67912759
 20
-92.29245264
 30
0.0
 11
11.69282611
 21
-92.33280716
 31
0.0
  0
LINE
  5
468
100
AcDbEntity
  8
LAYER0004
  6
CONTINUOUS
 62
       7
100
AcDbLine
 10
11.69282611
 20
-92.33280716
 30
0.0
 11
11.70556712
 21
-92.374824
 31
0.0
  0
LINE
  5
469
100
AcDbEntity
  8
LAYER0004
  6
CONTINUOUS
 62
       7
100
AcDbLine
 10
11.70556712
 20
-92.374824
 30
0.0
 11
11.71716881
 21
-92.41838865
 31
0.0
  0
LINE
  5
46A
100
AcDbEntity
  8
LAYER0004
  6
CONTINUOUS
 62
       7
100
AcDbLine
 10
11.71716881
 20
-92.41838865
 30
0.0
 11
11.72743101
 21
-92.46336433
 31
0.0
  0
LINE
  5
46B
100
AcDbEntity
  8
LAYER0004
  6
CONTINUOUS
 62
       7
100
AcDbLine
 10
11.72743101
 20
-92.46336433
 30
0.0
 11
11.73615357
 21
-92.5096143
 31
0.0
  0
LINE
  5
46C
100
AcDbEntity
  8
LAYER0004
  6
CONTINUOUS
 62
       7
100
AcDbLine
 10
11.73615357
 20
-92.5096143
 30
0.0
 11
11.74313631
 21
-92.5570018
 31
0.0
  0
LINE
  5
46D
100
AcDbEntity
  8
LAYER0004
  6
CONTINUOUS
 62
       7
100
AcDbLine
 10
11.74313631
 20
-92.5570018
 30
0.0
 11
11.7482561
 21
-92.60537732
 31
0.0
  0
LINE
  5
46E
100
AcDbEntity
  8
LAYER0004
  6
CONTINUOUS
 62
       7
100
AcDbLine
 10
11.7482561
 20
-92.60537732
 30
0.0
 11
11.75185059
 21
-92.65451505
 31
0.0
  0
LINE
  5
46F
100
AcDbEntity
  8
LAYER0004
  6
CONTINUOUS
 62
       7
100
AcDbLine
 10
11.75185059
 20
-92.65451505
 30
0.0
 11
11.75442803
 21
-92.70416096
 31
0.0
  0
LINE
  5
470
100
AcDbEntity
  8
LAYER0004
  6
CONTINUOUS
 62
       7
100
AcDbLine
 10
11.75442803
 20
-92.70416096
 30
0.0
 11
11.75649694
 21
-92.75406096
 31
0.0
  0
LINE
  5
471
100
AcDbEntity
  8
LAYER0004
  6
CONTINUOUS
 62
       7
100
AcDbLine
 10
11.75649694
 20
-99.25406203
 30
0.0
 11
11.75376039
 21
-99.30408709
 31
0.0
  0
LINE
  5
472
100
AcDbEntity
  8
LAYER0004
  6
CONTINUOUS
 62
       7
100
AcDbLine
 10
11.75376039
 20
-99.30408709
 30
0.0
 11
11.75065496
 21
-99.35386242
 31
0.0
  0
LINE
  5
473
100
AcDbEntity
  8
LAYER0004
  6
CONTINUOUS
 62
       7
100
AcDbLine
 10
11.75065496
 20
-99.35386242
 30
0.0
 11
11.74681173
 21
-99.40313833
 31
0.0
  0
LINE
  5
474
100
AcDbEntity
  8
LAYER0004
  6
CONTINUOUS
 62
       7
100
AcDbLine
 10
11.74681173
 20
-99.40313833
 30
0.0
 11
11.74186181
 21
-99.45166508
 31
0.0
  0
LINE
  5
475
100
AcDbEntity
  8
LAYER0004
  6
CONTINUOUS
 62
       7
100
AcDbLine
 10
11.74186181
 20
-99.45166508
 30
0.0
 11
11.7354363
 21
-99.49919296
 31
0.0
  0
LINE
  5
476
100
AcDbEntity
  8
LAYER0004
  6
CONTINUOUS
 62
       7
100
AcDbLine
 10
11.7354363
 20
-99.49919296
 30
0.0
 11
11.72721731
 21
-99.54548705
 31
0.0
  0
LINE
  5
477
100
AcDbEntity
  8
LAYER0004
  6
CONTINUOUS
 62
       7
100
AcDbLine
 10
11.72721731
 20
-99.54548705
 30
0.0
 11
11.71725885
 21
-99.59042023
 31
0.0
  0
LINE
  5
478
100
AcDbEntity
  8
LAYER0004
  6
CONTINUOUS
 62
       7
100
AcDbLine
 10
11.71725885
 20
-99.59042023
 30
0.0
 11
11.70577965
 21
-99.63391318
 31
0.0
  0
LINE
  5
479
100
AcDbEntity
  8
LAYER0004
  6
CONTINUOUS
 62
       7
100
AcDbLine
 10
11.70577965
 20
-99.63391318
 30
0.0
 11
11.69299917
 21
-99.67588678
 31
0.0
  0
LINE
  5
47A
100
AcDbEntity
  8
LAYER0004
  6
CONTINUOUS
 62
       7
100
AcDbLine
 10
11.69299917
 20
-99.67588678
 30
0.0
 11
11.6791369
 21
-99.71626189
 31
0.0
  0
LINE
  5
47B
100
AcDbEntity
  8
LAYER0004
  6
CONTINUOUS
 62
       7
100
AcDbLine
 10
11.6791369
 20
-99.71626189
 30
0.0
 11
11.66440523
 21
-99.75496428
 31
0.0
  0
LINE
  5
47C
100
AcDbEntity
  8
LAYER0004
  6
CONTINUOUS
 62
       7
100
AcDbLine
 10
11.66440523
 20
-99.75496428
 30
0.0
 11
11.64892395
 21
-99.79198369
 31
0.0
  0
LINE
  5
47D
100
AcDbEntity
  8
LAYER0004
  6
CONTINUOUS
 62
       7
100
AcDbLine
 10
11.64892395
 20
-99.79198369
 30
0.0
 11
11.63274779
 21
-99.82735481
 31
0.0
  0
LINE
  5
47E
100
AcDbEntity
  8
LAYER0004
  6
CONTINUOUS
 62
       7
100
AcDbLine
 10
11.63274779
 20
-99.82735481
 30
0.0
 11
11.61593015
 21
-99.86111322
 31
0.0
  0
LINE
  5
47F
100
AcDbEntity
  8
LAYER0004
  6
CONTINUOUS
 62
       7
100
AcDbLine
 10
11.61593015
 20
-99.86111322
 30
0.0
 11
11.59852442
 21
-99.89329455
 31
0.0
  0
LINE
  5
480
100
AcDbEntity
  8
LAYER0004
  6
CONTINUOUS
 62
       7
100
AcDbLine
 10
11.59852442
 20
-99.89329455
 30
0.0
 11
11.58058399
 21
-99.92393439
 31
0.0
  0
LINE
  5
481
100
AcDbEntity
  8
LAYER0004
  6
CONTINUOUS
 62
       7
100
AcDbLine
 10
11.58058399
 20
-99.92393439
 30
0.0
 11
11.56216224
 21
-99.95306837
 31
0.0
  0
LINE
  5
482
100
AcDbEntity
  8
LAYER0004
  6
CONTINUOUS
 62
       7
100
AcDbLine
 10
11.56216224
 20
-99.95306837
 30
0.0
 11
11.54331253
 21
-99.98073203
 31
0.0
  0
LINE
  5
483
100
AcDbEntity
  8
LAYER0004
  6
CONTINUOUS
 62
       7
100
AcDbLine
 10
11.54331253
 20
-99.98073203
 30
0.0
 11
11.52408269
 21
-100.00695029
 31
0.0
  0
LINE
  5
484
100
AcDbEntity
  8
LAYER0004
  6
CONTINUOUS
 62
       7
100
AcDbLine
 10
11.52408269
 20
-100.00695029
 30
0.0
 11
11.50450861
 21
-100.03172513
 31
0.0
  0
LINE
  5
485
100
AcDbEntity
  8
LAYER0004
  6
CONTINUOUS
 62
       7
100
AcDbLine
 10
11.50450861
 20
-100.03172513
 30
0.0
 11
11.4846246
 21
-100.05505553
 31
0.0
  0
LINE
  5
486
100
AcDbEntity
  8
LAYER0004
  6
CONTINUOUS
 62
       7
100
AcDbLine
 10
11.4846246
 20
-100.05505553
 30
0.0
 11
11.46446498
 21
-100.07694045
 31
0.0
  0
LINE
  5
487
100
AcDbEntity
  8
LAYER0004
  6
CONTINUOUS
 62
       7
100
AcDbLine
 10
11.46446498
 20
-100.07694045
 30
0.0
 11
11.44406407
 21
-100.09737887
 31
0.0
  0
LINE
  5
488
100
AcDbEntity
  8
LAYER0004
  6
CONTINUOUS
 62
       7
100
AcDbLine
 10
11.44406407
 20
-100.09737887
 30
0.0
 11
11.42345619
 21
-100.11636978
 31
0.0
  0
LINE
  5
489
100
AcDbEntity
  8
LAYER0004
  6
CONTINUOUS
 62
       7
100
AcDbLine
 10
11.42345619
 20
-100.11636978
 30
0.0
 11
11.40267567
 21
-100.13391213
 31
0.0
  0
LINE
  5
48A
100
AcDbEntity
  8
LAYER0004
  6
CONTINUOUS
 62
       7
100
AcDbLine
 10
11.40267567
 20
-100.13391213
 30
0.0
 11
11.38175681
 21
-100.15000492
 31
0.0
  0
LINE
  5
48B
100
AcDbEntity
  8
LAYER0004
  6
CONTINUOUS
 62
       7
100
AcDbLine
 10
11.38175681
 20
-100.15000492
 30
0.0
 11
11.36073394
 21
-100.1646471
 31
0.0
  0
LINE
  5
48C
100
AcDbEntity
  8
LAYER0004
  6
CONTINUOUS
 62
       7
100
AcDbLine
 10
11.36073394
 20
-100.1646471
 30
0.0
 11
11.33964139
 21
-100.17783767
 31
0.0
  0
LINE
  5
48D
100
AcDbEntity
  8
LAYER0004
  6
CONTINUOUS
 62
       7
100
AcDbLine
 10
11.33964139
 20
-100.17783767
 30
0.0
 11
11.31851319
 21
-100.18957663
 31
0.0
  0
LINE
  5
48E
100
AcDbEntity
  8
LAYER0004
  6
CONTINUOUS
 62
       7
100
AcDbLine
 10
11.31851319
 20
-100.18957663
 30
0.0
 11
11.29737044
 21
-100.19991449
 31
0.0
  0
LINE
  5
48F
100
AcDbEntity
  8
LAYER0004
  6
CONTINUOUS
 62
       7
100
AcDbLine
 10
11.29737044
 20
-100.19991449
 30
0.0
 11
11.27621573
 21
-100.20897363
 31
0.0
  0
LINE
  5
490
100
AcDbEntity
  8
LAYER0004
  6
CONTINUOUS
 62
       7
100
AcDbLine
 10
11.27621573
 20
-100.20897363
 30
0.0
 11
11.25505027
 21
-100.21688191
 31
0.0
  0
LINE
  5
491
100
AcDbEntity
  8
LAYER0004
  6
CONTINUOUS
 62
       7
100
AcDbLine
 10
11.25505027
 20
-100.21688191
 30
0.0
 11
11.23387525
 21
-100.22376722
 31
0.0
  0
LINE
  5
492
100
AcDbEntity
  8
LAYER0004
  6
CONTINUOUS
 62
       7
100
AcDbLine
 10
11.23387525
 20
-100.22376722
 30
0.0
 11
11.21269186
 21
-100.22975741
 31
0.0
  0
LINE
  5
493
100
AcDbEntity
  8
LAYER0004
  6
CONTINUOUS
 62
       7
100
AcDbLine
 10
11.21269186
 20
-100.22975741
 30
0.0
 11
11.19150129
 21
-100.23498038
 31
0.0
  0
LINE
  5
494
100
AcDbEntity
  8
LAYER0004
  6
CONTINUOUS
 62
       7
100
AcDbLine
 10
11.19150129
 20
-100.23498038
 30
0.0
 11
11.17030476
 21
-100.23956397
 31
0.0
  0
LINE
  5
495
100
AcDbEntity
  8
LAYER0004
  6
CONTINUOUS
 62
       7
100
AcDbLine
 10
11.17030476
 20
-100.23956397
 30
0.0
 11
11.14910344
 21
-100.24363608
 31
0.0
  0
LINE
  5
496
100
AcDbEntity
  8
LAYER0004
  6
CONTINUOUS
 62
       7
100
AcDbLine
 10
11.14910344
 20
-100.24363608
 30
0.0
 11
11.12789853
 21
-100.24732457
 31
0.0
  0
LINE
  5
497
100
AcDbEntity
  8
LAYER0004
  6
CONTINUOUS
 62
       7
100
AcDbLine
 10
11.12789853
 20
-100.24732457
 30
0.0
 11
11.10669124
 21
-100.25075732
 31
0.0
  0
LINE
  5
498
100
AcDbEntity
  8
LAYER0004
  6
CONTINUOUS
 62
       7
100
AcDbLine
 10
11.10669124
 20
-100.25075732
 30
0.0
 11
11.08548275
 21
-100.25406219
 31
0.0
  0
LINE
  5
499
100
AcDbEntity
  8
LAYER0004
  6
CONTINUOUS
 62
       7
100
AcDbLine
 10
-176.45229267
 20
-198.83602021
 30
0.0
 11
-176.44676757
 21
-198.83201459
 31
0.0
  0
LINE
  5
49A
100
AcDbEntity
  8
LAYER0004
  6
CONTINUOUS
 62
       7
100
AcDbLine
 10
-176.44676757
 20
-198.83201459
 30
0.0
 11
-176.4409289
 21
-198.82778529
 31
0.0
  0
LINE
  5
49B
100
AcDbEntity
  8
LAYER0004
  6
CONTINUOUS
 62
       7
100
AcDbLine
 10
-176.4409289
 20
-198.82778529
 30
0.0
 11
-176.4344631
 21
-198.82310862
 31
0.0
  0
LINE
  5
49C
100
AcDbEntity
  8
LAYER0004
  6
CONTINUOUS
 62
       7
100
AcDbLine
 10
-176.4344631
 20
-198.82310862
 30
0.0
 11
-176.42705659
 21
-198.81776091
 31
0.0
  0
LINE
  5
49D
100
AcDbEntity
  8
LAYER0004
  6
CONTINUOUS
 62
       7
100
AcDbLine
 10
-176.42705659
 20
-198.81776091
 30
0.0
 11
-176.41839582
 21
-198.81151848
 31
0.0
  0
LINE
  5
49E
100
AcDbEntity
  8
LAYER0004
  6
CONTINUOUS
 62
       7
100
AcDbLine
 10
-176.41839582
 20
-198.81151848
 30
0.0
 11
-176.40816721
 21
-198.80415763
 31
0.0
  0
LINE
  5
49F
100
AcDbEntity
  8
LAYER0004
  6
CONTINUOUS
 62
       7
100
AcDbLine
 10
-176.40816721
 20
-198.80415763
 30
0.0
 11
-176.3960572
 21
-198.7954547
 31
0.0
  0
LINE
  5
4A0
100
AcDbEntity
  8
LAYER0004
  6
CONTINUOUS
 62
       7
100
AcDbLine
 10
-176.3960572
 20
-198.7954547
 30
0.0
 11
-176.38175222
 21
-198.785186
 31
0.0
  0
LINE
  5
4A1
100
AcDbEntity
  8
LAYER0004
  6
CONTINUOUS
 62
       7
100
AcDbLine
 10
-176.38175222
 20
-198.785186
 30
0.0
 11
-176.36494395
 21
-198.77313172
 31
0.0
  0
LINE
  5
4A2
100
AcDbEntity
  8
LAYER0004
  6
CONTINUOUS
 62
       7
100
AcDbLine
 10
-176.36494395
 20
-198.77313172
 30
0.0
 11
-176.34551042
 21
-198.75920979
 31
0.0
  0
LINE
  5
4A3
100
AcDbEntity
  8
LAYER0004
  6
CONTINUOUS
 62
       7
100
AcDbLine
 10
-176.34551042
 20
-198.75920979
 30
0.0
 11
-176.32356207
 21
-198.74350991
 31
0.0
  0
LINE
  5
4A4
100
AcDbEntity
  8
LAYER0004
  6
CONTINUOUS
 62
       7
100
AcDbLine
 10
-176.32356207
 20
-198.74350991
 30
0.0
 11
-176.29922398
 21
-198.72613258
 31
0.0
  0
LINE
  5
4A5
100
AcDbEntity
  8
LAYER0004
  6
CONTINUOUS
 62
       7
100
AcDbLine
 10
-176.29922398
 20
-198.72613258
 30
0.0
 11
-176.27262119
 21
-198.7071783
 31
0.0
  0
LINE
  5
4A6
100
AcDbEntity
  8
LAYER0004
  6
CONTINUOUS
 62
       7
100
AcDbLine
 10
-176.27262119
 20
-198.7071783
 30
0.0
 11
-176.24387877
 21
-198.68674756
 31
0.0
  0
LINE
  5
4A7
100
AcDbEntity
  8
LAYER0004
  6
CONTINUOUS
 62
       7
100
AcDbLine
 10
-176.24387877
 20
-198.68674756
 30
0.0
 11
-176.21312176
 21
-198.66494087
 31
0.0
  0
LINE
  5
4A8
100
AcDbEntity
  8
LAYER0004
  6
CONTINUOUS
 62
       7
100
AcDbLine
 10
-176.21312176
 20
-198.66494087
 30
0.0
 11
-176.18047522
 21
-198.64185871
 31
0.0
  0
LINE
  5
4A9
100
AcDbEntity
  8
LAYER0004
  6
CONTINUOUS
 62
       7
100
AcDbLine
 10
-176.18047522
 20
-198.64185871
 30
0.0
 11
-176.14606422
 21
-198.61760158
 31
0.0
  0
LINE
  5
4AA
100
AcDbEntity
  8
LAYER0004
  6
CONTINUOUS
 62
       7
100
AcDbLine
 10
-176.14606422
 20
-198.61760158
 30
0.0
 11
-176.11000529
 21
-198.59226365
 31
0.0
  0
LINE
  5
4AB
100
AcDbEntity
  8
LAYER0004
  6
CONTINUOUS
 62
       7
100
AcDbLine
 10
-176.11000529
 20
-198.59226365
 30
0.0
 11
-176.07235799
 21
-198.56589665
 31
0.0
  0
LINE
  5
4AC
100
AcDbEntity
  8
LAYER0004
  6
CONTINUOUS
 62
       7
100
AcDbLine
 10
-176.07235799
 20
-198.56589665
 30
0.0
 11
-176.03315847
 21
-198.53853488
 31
0.0
  0
LINE
  5
4AD
100
AcDbEntity
  8
LAYER0004
  6
CONTINUOUS
 62
       7
100
AcDbLine
 10
-176.03315847
 20
-198.53853488
 30
0.0
 11
-175.9924428
 21
-198.51021258
 31
0.0
  0
LINE
  5
4AE
100
AcDbEntity
  8
LAYER0004
  6
CONTINUOUS
 62
       7
100
AcDbLine
 10
-175.9924428
 20
-198.51021258
 30
0.0
 11
-175.95024704
 21
-198.48096401
 31
0.0
  0
LINE
  5
4AF
100
AcDbEntity
  8
LAYER0004
  6
CONTINUOUS
 62
       7
100
AcDbLine
 10
-175.95024704
 20
-198.48096401
 30
0.0
 11
-175.90660727
 21
-198.45082341
 31
0.0
  0
LINE
  5
4B0
100
AcDbEntity
  8
LAYER0004
  6
CONTINUOUS
 62
       7
100
AcDbLine
 10
-175.90660727
 20
-198.45082341
 30
0.0
 11
-175.86155955
 21
-198.41982502
 31
0.0
  0
LINE
  5
4B1
100
AcDbEntity
  8
LAYER0004
  6
CONTINUOUS
 62
       7
100
AcDbLine
 10
-175.86155955
 20
-198.41982502
 30
0.0
 11
-175.81513996
 21
-198.3880031
 31
0.0
  0
LINE
  5
4B2
100
AcDbEntity
  8
LAYER0004
  6
CONTINUOUS
 62
       7
100
AcDbLine
 10
-175.81513996
 20
-198.3880031
 30
0.0
 11
-175.76738469
 21
-198.35539199
 31
0.0
  0
LINE
  5
4B3
100
AcDbEntity
  8
LAYER0004
  6
CONTINUOUS
 62
       7
100
AcDbLine
 10
-175.76738469
 20
-198.35539199
 30
0.0
 11
-175.7183462
 21
-198.32203816
 31
0.0
  0
LINE
  5
4B4
100
AcDbEntity
  8
LAYER0004
  6
CONTINUOUS
 62
       7
100
AcDbLine
 10
-175.7183462
 20
-198.32203816
 30
0.0
 11
-175.66810871
 21
-198.28801183
 31
0.0
  0
LINE
  5
4B5
100
AcDbEntity
  8
LAYER0004
  6
CONTINUOUS
 62
       7
100
AcDbLine
 10
-175.66810871
 20
-198.28801183
 30
0.0
 11
-175.61676014
 21
-198.25338595
 31
0.0
  0
LINE
  5
4B6
100
AcDbEntity
  8
LAYER0004
  6
CONTINUOUS
 62
       7
100
AcDbLine
 10
-175.61676014
 20
-198.25338595
 30
0.0
 11
-175.5643884
 21
-198.21823348
 31
0.0
  0
LINE
  5
4B7
100
AcDbEntity
  8
LAYER0004
  6
CONTINUOUS
 62
       7
100
AcDbLine
 10
-175.5643884
 20
-198.21823348
 30
0.0
 11
-175.5110814
 21
-198.18262736
 31
0.0
  0
LINE
  5
4B8
100
AcDbEntity
  8
LAYER0004
  6
CONTINUOUS
 62
       7
100
AcDbLine
 10
-175.5110814
 20
-198.18262736
 30
0.0
 11
-175.45692705
 21
-198.14664057
 31
0.0
  0
LINE
  5
4B9
100
AcDbEntity
  8
LAYER0004
  6
CONTINUOUS
 62
       7
100
AcDbLine
 10
-175.45692705
 20
-198.14664057
 30
0.0
 11
-175.40201325
 21
-198.11034604
 31
0.0
  0
LINE
  5
4BA
100
AcDbEntity
  8
LAYER0004
  6
CONTINUOUS
 62
       7
100
AcDbLine
 10
-175.40201325
 20
-198.11034604
 30
0.0
 11
-175.34642793
 21
-198.07381674
 31
0.0
  0
LINE
  5
4BB
100
AcDbEntity
  8
LAYER0004
  6
CONTINUOUS
 62
       7
100
AcDbLine
 10
-175.34642793
 20
-198.07381674
 30
0.0
 11
-175.29025948
 21
-198.0371232
 31
0.0
  0
LINE
  5
4BC
100
AcDbEntity
  8
LAYER0004
  6
CONTINUOUS
 62
       7
100
AcDbLine
 10
-175.29025948
 20
-198.0371232
 30
0.0
 11
-175.233602
 21
-198.00030792
 31
0.0
  0
LINE
  5
4BD
100
AcDbEntity
  8
LAYER0004
  6
CONTINUOUS
 62
       7
100
AcDbLine
 10
-175.233602
 20
-198.00030792
 30
0.0
 11
-175.17655327
 21
-197.9633955
 31
0.0
  0
LINE
  5
4BE
100
AcDbEntity
  8
LAYER0004
  6
CONTINUOUS
 62
       7
100
AcDbLine
 10
-175.17655327
 20
-197.9633955
 30
0.0
 11
-175.11921108
 21
-197.92641021
 31
0.0
  0
LINE
  5
4BF
100
AcDbEntity
  8
LAYER0004
  6
CONTINUOUS
 62
       7
100
AcDbLine
 10
-175.11921108
 20
-197.92641021
 30
0.0
 11
-175.06167327
 21
-197.88937634
 31
0.0
  0
LINE
  5
4C0
100
AcDbEntity
  8
LAYER0004
  6
CONTINUOUS
 62
       7
100
AcDbLine
 10
-175.06167327
 20
-197.88937634
 30
0.0
 11
-175.00403764
 21
-197.85231819
 31
0.0
  0
LINE
  5
4C1
100
AcDbEntity
  8
LAYER0004
  6
CONTINUOUS
 62
       7
100
AcDbLine
 10
8.31378853
 20
-46.79238666
 30
0.0
 11
11.2767764
 21
-36.79498155
 31
0.0
  0
LINE
  5
4C2
100
AcDbEntity
  8
LAYER0004
  6
CONTINUOUS
 62
       7
100
AcDbLine
 10
8.31378853
 20
29.28426247
 30
0.0
 11
11.2767764
 21
19.28684991
 31
0.0
  0
LINE
  5
4C3
100
AcDbEntity
  8
LAYER0004
  6
CONTINUOUS
 62
       7
100
AcDbLine
 10
-118.82907036
 20
-228.15025227
 30
0.0
 11
-119.27565071
 21
-228.92375525
 31
0.0
  0
LINE
  5
4C4
100
AcDbEntity
  8
LAYER0004
  6
CONTINUOUS
 62
       7
100
AcDbLine
 10
-119.27565071
 20
-226.03700381
 30
0.0
 11
-118.82907036
 21
-227.48037941
 31
0.0
  0
LINE
  5
4C5
100
AcDbEntity
  8
LAYER0004
  6
CONTINUOUS
 62
       7
100
AcDbLine
 10
-119.27565071
 20
-228.92375525
 30
0.0
 11
-127.17907015
 21
-228.92375525
 31
0.0
  0
LINE
  5
4C6
100
AcDbEntity
  8
LAYER0004
  6
CONTINUOUS
 62
       7
100
AcDbLine
 10
-119.27565071
 20
-226.03700381
 30
0.0
 11
-127.17907015
 21
-226.03700381
 31
0.0
  0
LINE
  5
4C7
100
AcDbEntity
  8
LAYER0004
  6
CONTINUOUS
 62
       7
100
AcDbLine
 10
-129.04755384
 20
-226.32525234
 30
0.0
 11
-127.17907015
 21
-226.32525234
 31
0.0
  0
LINE
  5
4C8
100
AcDbEntity
  8
LAYER0004
  6
CONTINUOUS
 62
       7
100
AcDbLine
 10
-117.17906851
 20
-217.65025241
 30
0.0
 11
-117.52907071
 21
-217.65025241
 31
0.0
  0
LINE
  5
4C9
100
AcDbEntity
  8
LAYER0004
  6
CONTINUOUS
 62
       7
100
AcDbLine
 10
-117.52907071
 20
-228.65025235
 30
0.0
 11
-117.17906851
 21
-228.65025235
 31
0.0
  0
LINE
  5
4CA
100
AcDbEntity
  8
LAYER0004
  6
CONTINUOUS
 62
       7
100
AcDbLine
 10
-118.82907036
 20
-226.32525234
 30
0.0
 11
-117.52907071
 21
-226.32525234
 31
0.0
  0
LINE
  5
4CB
100
AcDbEntity
  8
LAYER0004
  6
CONTINUOUS
 62
       7
100
AcDbLine
 10
-117.52907071
 20
-219.97525242
 30
0.0
 11
-118.82907036
 21
-219.97525242
 31
0.0
  0
LINE
  5
4CC
100
AcDbEntity
  8
LAYER0004
  6
CONTINUOUS
 62
       7
100
AcDbLine
 10
-118.82907036
 20
-218.15025249
 30
0.0
 11
-119.27565071
 21
-217.37674951
 31
0.0
  0
LINE
  5
4CD
100
AcDbEntity
  8
LAYER0004
  6
CONTINUOUS
 62
       7
100
AcDbLine
 10
-117.52907071
 20
-217.65025241
 30
0.0
 11
-117.52907071
 21
-228.65025235
 31
0.0
  0
LINE
  5
4CE
100
AcDbEntity
  8
LAYER0004
  6
CONTINUOUS
 62
       7
100
AcDbLine
 10
-119.27565071
 20
-220.26350095
 30
0.0
 11
-127.17907015
 21
-220.26350095
 31
0.0
  0
LINE
  5
4CF
100
AcDbEntity
  8
LAYER0004
  6
CONTINUOUS
 62
       7
100
AcDbLine
 10
-119.27565071
 20
-220.26350095
 30
0.0
 11
-118.82907036
 21
-218.82012535
 31
0.0
  0
LINE
  5
4D0
100
AcDbEntity
  8
LAYER0004
  6
CONTINUOUS
 62
       7
100
AcDbLine
 10
-118.82907036
 20
-218.82012535
 30
0.0
 11
-118.82907036
 21
-228.15025227
 31
0.0
  0
LINE
  5
4D1
100
AcDbEntity
  8
LAYER0004
  6
CONTINUOUS
 62
       7
100
AcDbLine
 10
-119.27565071
 20
-217.37674951
 30
0.0
 11
-127.17907015
 21
-217.37674951
 31
0.0
  0
LINE
  5
4D2
100
AcDbEntity
  8
LAYER0004
  6
CONTINUOUS
 62
       7
100
AcDbLine
 10
-127.17907015
 20
-217.37674951
 30
0.0
 11
-127.17907015
 21
-228.92375525
 31
0.0
  0
LINE
  5
4D3
100
AcDbEntity
  8
LAYER0004
  6
CONTINUOUS
 62
       7
100
AcDbLine
 10
-118.82907036
 20
-218.15025249
 30
0.0
 11
-118.82907036
 21
-218.82012535
 31
0.0
  0
LINE
  5
4D4
100
AcDbEntity
  8
LAYER0004
  6
CONTINUOUS
 62
       7
100
AcDbLine
 10
-117.17906851
 20
-229.65025251
 30
0.0
 11
-109.57907025
 21
-229.65025251
 31
0.0
  0
LINE
  5
4D5
100
AcDbEntity
  8
LAYER0004
  6
CONTINUOUS
 62
       7
100
AcDbLine
 10
-117.17906851
 20
-216.65025225
 30
0.0
 11
-117.17906851
 21
-229.65025251
 31
0.0
  0
LINE
  5
4D6
100
AcDbEntity
  8
LAYER0004
  6
CONTINUOUS
 62
       7
100
AcDbLine
 10
-117.17906851
 20
-216.65025225
 30
0.0
 11
-109.57907025
 21
-216.65025225
 31
0.0
  0
LINE
  5
4D7
100
AcDbEntity
  8
LAYER0004
  6
CONTINUOUS
 62
       7
100
AcDbLine
 10
-129.04755384
 20
-219.97525242
 30
0.0
 11
-127.17907015
 21
-219.97525242
 31
0.0
  0
ARC
  5
4D8
100
AcDbEntity
  8
LAYER0004
  6
CONTINUOUS
 62
       7
100
AcDbCircle
 10
-109.57907015
 20
-24.75406142
 30
0.0
 40
6.49999786
100
AcDbArc
 50
270.00000062
 51
360.00000793
  0
ARC
  5
4D9
100
AcDbEntity
  8
LAYER0004
  6
CONTINUOUS
 62
       7
100
AcDbCircle
 10
84.42092986
 20
-8.3986273
 30
0.0
 40
200.0
100
AcDbArc
 50
177.28207406
 51
180.0
  0
ARC
  5
4DA
100
AcDbEntity
  8
LAYER0004
  6
CONTINUOUS
 62
       7
100
AcDbCircle
 10
-303.57907015
 20
-8.3986273
 30
0.0
 40
200.0
100
AcDbArc
 50
0.0
 51
2.71792594
  0
ARC
  5
4DB
100
AcDbEntity
  8
LAYER0004
  6
CONTINUOUS
 62
       7
100
AcDbCircle
 10
-109.57907008
 20
48.84199647
 30
0.0
 40
3.5039415
100
AcDbArc
 50
2.71800617
 51
177.28199383
  0
ARC
  5
4DC
100
AcDbEntity
  8
LAYER0004
  6
CONTINUOUS
 62
       7
100
AcDbCircle
 10
-158.87907015
 20
15.24593809
 30
0.0
 40
12.74999976
100
AcDbArc
 50
0.0
 51
180.0
  0
ARC
  5
4DD
100
AcDbEntity
  8
LAYER0004
  6
CONTINUOUS
 62
       7
100
AcDbCircle
 10
-158.87907015
 20
-32.75406191
 30
0.0
 40
12.74999976
100
AcDbArc
 50
180.00000184
 51
359.99999816
  0
ARC
  5
4DE
100
AcDbEntity
  8
LAYER0004
  6
CONTINUOUS
 62
       7
100
AcDbCircle
 10
232.31378787
 20
-8.3986273
 30
0.0
 40
200.0
100
AcDbArc
 50
177.28207406
 51
180.0
  0
ARC
  5
4DF
100
AcDbEntity
  8
LAYER0004
  6
CONTINUOUS
 62
       7
100
AcDbCircle
 10
-155.68621214
 20
-8.3986273
 30
0.0
 40
200.0
100
AcDbArc
 50
0.0
 51
2.71792594
  0
ARC
  5
4E0
100
AcDbEntity
  8
LAYER0004
  6
CONTINUOUS
 62
       7
100
AcDbCircle
 10
38.31378786
 20
48.84199647
 30
0.0
 40
3.50394197
100
AcDbArc
 50
2.71800581
 51
177.28199419
  0
ARC
  5
4E1
100
AcDbEntity
  8
LAYER0004
  6
CONTINUOUS
 62
       7
100
AcDbCircle
 10
8.56378776
 20
27.49593816
 30
0.0
 40
0.49999988
100
AcDbArc
 50
90.00007792
 51
143.1301019
  0
ARC
  5
4E2
100
AcDbEntity
  8
LAYER0004
  6
CONTINUOUS
 62
       7
100
AcDbCircle
 10
8.56378793
 20
-45.00406185
 30
0.0
 40
0.50000009
100
AcDbArc
 50
216.86989833
 51
269.99992208
  0
ARC
  5
4E3
100
AcDbEntity
  8
LAYER0004
  6
CONTINUOUS
 62
       7
100
AcDbCircle
 10
7.31378863
 20
-43.33739466
 30
0.0
 40
0.49999904
100
AcDbArc
 50
180.0
 51
216.86983118
  0
ARC
  5
4E4
100
AcDbEntity
  8
LAYER0004
  6
CONTINUOUS
 62
       7
100
AcDbCircle
 10
7.31378873
 20
25.82927078
 30
0.0
 40
0.49999891
100
AcDbArc
 50
143.13020778
 51
180.0
  0
ARC
  5
4E5
100
AcDbEntity
  8
LAYER0004
  6
CONTINUOUS
 62
       7
100
AcDbCircle
 10
38.31378787
 20
-24.75406191
 30
0.0
 40
6.50000014
100
AcDbArc
 50
179.99999207
 51
360.00000793
  0
CIRCLE
  5
4E6
100
AcDbEntity
  8
LAYER0004
  6
CONTINUOUS
 62
       7
100
AcDbCircle
 10
-158.87907015
 20
-223.15025238
 30
0.0
 40
15.5
  0
CIRCLE
  5
4E7
100
AcDbEntity
  8
LAYER0004
  6
CONTINUOUS
 62
       7
100
AcDbCircle
 10
-158.87907015
 20
-223.15025238
 30
0.0
 40
30.0
  0
ARC
  5
4E8
100
AcDbEntity
  8
LAYER0004
  6
CONTINUOUS
 62
       7
100
AcDbCircle
 10
-171.12907002
 20
-193.40025238
 30
0.0
 40
0.49999988
100
AcDbArc
 50
126.86989742
 51
179.99992208
  0
ARC
  5
4E9
100
AcDbEntity
  8
LAYER0004
  6
CONTINUOUS
 62
       7
100
AcDbCircle
 10
-146.62906895
 20
-193.40025239
 30
0.0
 40
0.49999989
100
AcDbArc
 50
0.00007792
 51
53.13010258
  0
ARC
  5
4EA
100
AcDbEntity
  8
LAYER0004
  6
CONTINUOUS
 62
       7
100
AcDbCircle
 10
-148.29573615
 20
-192.1502531
 30
0.0
 40
0.49999972
100
AcDbArc
 50
53.13003566
 51
89.99996104
  0
ARC
  5
4EB
100
AcDbEntity
  8
LAYER0004
  6
CONTINUOUS
 62
       7
100
AcDbCircle
 10
-169.46240282
 20
-192.1502531
 30
0.0
 40
0.49999972
100
AcDbArc
 50
90.00003782
 51
126.86996273
  0
CIRCLE
  5
4EC
100
AcDbEntity
  8
LAYER0004
  6
CONTINUOUS
 62
       7
100
AcDbCircle
 10
-140.25952397
 20
-212.40025238
 30
0.0
 40
2.0
  0
CIRCLE
  5
4ED
100
AcDbEntity
  8
LAYER0004
  6
CONTINUOUS
 62
       7
100
AcDbCircle
 10
-177.49861633
 20
-212.40025238
 30
0.0
 40
2.0
  0
CIRCLE
  5
4EE
100
AcDbEntity
  8
LAYER0004
  6
CONTINUOUS
 62
       7
100
AcDbCircle
 10
-158.87907015
 20
-244.65025238
 30
0.0
 40
2.0
  0
ARC
  5
4EF
100
AcDbEntity
  8
LAYER0004
  6
CONTINUOUS
 62
       7
100
AcDbCircle
 10
-182.87905768
 20
239.30035169
 30
0.0
 40
1.0
100
AcDbArc
 50
99.26922557
 51
179.99999577
  0
ARC
  5
4F0
100
AcDbEntity
  8
LAYER0004
  6
CONTINUOUS
 62
       7
100
AcDbCircle
 10
-134.87908236
 20
239.30035169
 30
0.0
 40
1.0
100
AcDbArc
 50
0.00000401
 51
80.73077443
  0
ARC
  5
4F1
100
AcDbEntity
  8
LAYER0004
  6
CONTINUOUS
 62
       7
100
AcDbCircle
 10
-109.57907032
 20
-223.15025238
 30
0.0
 40
6.50000013
100
AcDbArc
 50
270.00000062
 51
449.99999938
  0
LINE
  5
4F2
100
AcDbEntity
  8
LAYER0004
  6
CENTERX2
 62
       7
100
AcDbLine
 10
-158.87907002
 20
-126.16368136
 30
0.0
 11
-158.87907002
 21
256.32932592
 31
0.0
  0
LINE
  5
4F3
100
AcDbEntity
  8
LAYER0004
  6
CENTERX2
 62
       7
100
AcDbLine
 10
-177.49861633
 20
-125.25406191
 30
0.0
 11
-177.49861633
 21
-105.45334385
 31
0.0
  0
LINE
  5
4F4
100
AcDbEntity
  8
LAYER0004
  6
CENTERX2
 62
       7
100
AcDbLine
 10
-140.25952397
 20
-125.25406191
 30
0.0
 11
-140.25952397
 21
-104.76997916
 31
0.0
  0
LINE
  5
4F5
100
AcDbEntity
  8
LAYER0004
  6
CENTERX2
 62
       7
100
AcDbLine
 10
27.56378786
 20
-125.25406191
 30
0.0
 11
27.56378786
 21
-105.16858884
 31
0.0
  0
LINE
  5
4F6
100
AcDbEntity
  8
LAYER0004
  6
CENTERX2
 62
       7
100
AcDbLine
 10
59.81378786
 20
-125.25406191
 30
0.0
 11
59.81378786
 21
-104.61104177
 31
0.0
  0
LINE
  5
4F7
100
AcDbEntity
  8
LAYER0004
  6
CENTERX2
 62
       7
100
AcDbLine
 10
-158.87907015
 20
-223.15025238
 30
0.0
 11
-140.25952397
 21
-212.40025238
 31
0.0
  0
LINE
  5
4F8
100
AcDbEntity
  8
LAYER0004
  6
CENTERX2
 62
       7
100
AcDbLine
 10
-158.87907015
 20
-223.15025238
 30
0.0
 11
-177.49861633
 21
-212.40025238
 31
0.0
  0
LINE
  5
4F9
100
AcDbEntity
  8
LAYER0004
  6
CENTERX2
 62
       7
100
AcDbLine
 10
-191.3434979
 20
-223.15025238
 30
0.0
 11
-125.02167031
 21
-223.15025238
 31
0.0
  0
LINE
  5
4FA
100
AcDbEntity
  8
LAYER0004
  6
CENTERX2
 62
       7
100
AcDbLine
 10
-158.87907015
 20
-189.4625355
 30
0.0
 11
-158.87907015
 21
-256.32932592
 31
0.0
  0
LINE
  5
4FB
100
AcDbEntity
  8
LAYER0004
  6
CENTERX2
 62
       7
100
AcDbLine
 10
-140.25952397
 20
-216.29332309
 30
0.0
 11
-140.25952397
 21
-208.30569654
 31
0.0
  0
LINE
  5
4FC
100
AcDbEntity
  8
LAYER0004
  6
CENTERX2
 62
       7
100
AcDbLine
 10
-144.08158443
 20
-212.40025238
 30
0.0
 11
-136.25371041
 21
-212.40025238
 31
0.0
  0
LINE
  5
4FD
100
AcDbEntity
  8
LAYER0004
  6
CENTERX2
 62
       7
100
AcDbLine
 10
-177.49861633
 20
-216.61282815
 30
0.0
 11
-177.49861633
 21
-208.62520161
 31
0.0
  0
LINE
  5
4FE
100
AcDbEntity
  8
LAYER0004
  6
CENTERX2
 62
       7
100
AcDbLine
 10
-173.47605011
 20
-212.40025238
 30
0.0
 11
-181.86305798
 21
-212.40025238
 31
0.0
  0
LINE
  5
4FF
100
AcDbEntity
  8
LAYER0004
  6
CENTERX2
 62
       7
100
AcDbLine
 10
-164.13052705
 20
-244.65025238
 30
0.0
 11
-155.02463279
 21
-244.65025238
 31
0.0
  0
LINE
  5
500
100
AcDbEntity
  8
LAYER0004
  6
CENTERX2
 62
       7
100
AcDbLine
 10
-50.3005299
 20
-24.75406101
 30
0.0
 11
120.91348558
 21
-24.75406101
 31
0.0
  0
LINE
  5
501
100
AcDbEntity
  8
LAYER0004
  6
CENTERX2
 62
       7
100
AcDbLine
 10
38.31378786
 20
256.32932592
 30
0.0
 11
38.31378786
 21
-118.97037035
 31
0.0
  0
CIRCLE
  5
502
100
AcDbEntity
  8
LAYER0004
  6
CENTERX2
 62
       7
100
AcDbCircle
 10
-158.87907015
 20
-223.15025238
 30
0.0
 40
21.5
  0
CIRCLE
  5
503
100
AcDbEntity
  8
LAYER0004
  6
PHANTOM
 62
       7
100
AcDbCircle
 10
38.31378787
 20
-24.75406191
 30
0.0
 40
77.1
  0
LINE
  5
504
100
AcDbEntity
  8
LAYER0002
  6
CONTINUOUS
 62
       7
100
AcDbLine
 10
-183.87907052
 20
71.54593745
 30
0.0
 11
-158.87907015
 21
71.54593745
 31
0.0
  0
LINE
  5
505
100
AcDbEntity
  8
LAYER0002
  6
CONTINUOUS
 62
       7
100
AcDbLine
 10
-183.87907115
 20
134.24594248
 30
0.0
 11
-158.87907077
 21
134.24594248
 31
0.0
  0
LINE
  5
506
100
AcDbEntity
  8
LAYER0002
  6
CONTINUOUS
 62
       7
100
AcDbLine
 10
-183.87907052
 20
103.5459427
 30
0.0
 11
-158.87907015
 21
103.5459427
 31
0.0
  0
LINE
  5
507
100
AcDbEntity
  8
LAYER0002
  6
CONTINUOUS
 62
       7
100
AcDbLine
 10
-183.87907052
 20
135.54593304
 30
0.0
 11
-158.87907015
 21
135.54593304
 31
0.0
  0
LINE
  5
508
100
AcDbEntity
  8
LAYER0002
  6
CONTINUOUS
 62
       7
100
AcDbLine
 10
-183.87907052
 20
166.24593118
 30
0.0
 11
-158.87907015
 21
166.24593118
 31
0.0
  0
LINE
  5
509
100
AcDbEntity
  8
LAYER0002
  6
CONTINUOUS
 62
       7
100
AcDbLine
 10
-183.87907052
 20
198.24593643
 30
0.0
 11
-158.87907015
 21
198.24593643
 31
0.0
  0
LINE
  5
50A
100
AcDbEntity
  8
LAYER0002
  6
CONTINUOUS
 62
       7
100
AcDbLine
 10
-183.87907052
 20
167.54593829
 30
0.0
 11
-158.87907015
 21
167.54593829
 31
0.0
  0
LINE
  5
50B
100
AcDbEntity
  8
LAYER0002
  6
CONTINUOUS
 62
       7
100
AcDbLine
 10
-183.87907052
 20
199.54594353
 30
0.0
 11
-158.87907015
 21
199.54594353
 31
0.0
  0
LINE
  5
50C
100
AcDbEntity
  8
LAYER0002
  6
CONTINUOUS
 62
       7
100
AcDbLine
 10
-183.87907052
 20
230.24594167
 30
0.0
 11
-158.87907015
 21
230.24594167
 31
0.0
  0
LINE
  5
50D
100
AcDbEntity
  8
LAYER0002
  6
CONTINUOUS
 62
       7
100
AcDbLine
 10
13.31378673
 20
134.24594248
 30
0.0
 11
38.3137871
 21
134.24594248
 31
0.0
  0
LINE
  5
50E
100
AcDbEntity
  8
LAYER0002
  6
CONTINUOUS
 62
       7
100
AcDbLine
 10
13.31378736
 20
135.54593304
 30
0.0
 11
38.31378773
 21
135.54593304
 31
0.0
  0
LINE
  5
50F
100
AcDbEntity
  8
LAYER0002
  6
CONTINUOUS
 62
       7
100
AcDbLine
 10
13.31378736
 20
198.24593643
 30
0.0
 11
38.31378773
 21
198.24593643
 31
0.0
  0
LINE
  5
510
100
AcDbEntity
  8
LAYER0002
  6
CONTINUOUS
 62
       7
100
AcDbLine
 10
13.31378736
 20
199.54594353
 30
0.0
 11
38.31378773
 21
199.54594353
 31
0.0
  0
LINE
  5
511
100
AcDbEntity
  8
LAYER0002
  6
CONTINUOUS
 62
       7
100
AcDbLine
 10
63.31377553
 20
239.30035176
 30
0.0
 11
63.313788
 21
70.24593809
 31
0.0
  0
LINE
  5
512
100
AcDbEntity
  8
LAYER0002
  6
CONTINUOUS
 62
       7
100
AcDbLine
 10
-183.87905768
 20
239.30035176
 30
0.0
 11
-183.87907015
 21
70.24593809
 31
0.0
  0
LINE
  5
513
100
AcDbEntity
  8
LAYER0002
  6
CONTINUOUS
 62
       7
100
AcDbLine
 10
13.31378767
 20
102.2459371
 30
0.0
 11
38.31378804
 21
102.2459371
 31
0.0
  0
LINE
  5
514
100
AcDbEntity
  8
LAYER0002
  6
CONTINUOUS
 62
       7
100
AcDbLine
 10
38.3137871
 20
134.24594248
 30
0.0
 11
63.31378873
 21
134.24594248
 31
0.0
  0
LINE
  5
515
100
AcDbEntity
  8
LAYER0002
  6
CONTINUOUS
 62
       7
100
AcDbLine
 10
38.31378773
 20
135.54593304
 30
0.0
 11
63.3137881
 21
135.54593304
 31
0.0
  0
LINE
  5
516
100
AcDbEntity
  8
LAYER0002
  6
CONTINUOUS
 62
       7
100
AcDbLine
 10
38.31378773
 20
198.24593643
 30
0.0
 11
63.3137881
 21
198.24593643
 31
0.0
  0
LINE
  5
517
100
AcDbEntity
  8
LAYER0002
  6
CONTINUOUS
 62
       7
100
AcDbLine
 10
38.31378773
 20
199.54594353
 30
0.0
 11
63.3137881
 21
199.54594353
 31
0.0
  0
LINE
  5
518
100
AcDbEntity
  8
LAYER0002
  6
CONTINUOUS
 62
       7
100
AcDbLine
 10
63.313788
 20
70.24593809
 30
0.0
 11
13.31378773
 21
70.24593809
 31
0.0
  0
LINE
  5
519
100
AcDbEntity
  8
LAYER0002
  6
CONTINUOUS
 62
       7
100
AcDbLine
 10
38.31378804
 20
102.2459371
 30
0.0
 11
63.31378779
 21
102.2459371
 31
0.0
  0
LINE
  5
51A
100
AcDbEntity
  8
LAYER0002
  6
CONTINUOUS
 62
       7
100
AcDbLine
 10
13.31378736
 20
71.54593745
 30
0.0
 11
38.31378773
 21
71.54593745
 31
0.0
  0
LINE
  5
51B
100
AcDbEntity
  8
LAYER0002
  6
CONTINUOUS
 62
       7
100
AcDbLine
 10
13.31378736
 20
103.5459427
 30
0.0
 11
38.31378773
 21
103.5459427
 31
0.0
  0
LINE
  5
51C
100
AcDbEntity
  8
LAYER0002
  6
CONTINUOUS
 62
       7
100
AcDbLine
 10
13.31378736
 20
166.24593118
 30
0.0
 11
38.31378773
 21
166.24593118
 31
0.0
  0
LINE
  5
51D
100
AcDbEntity
  8
LAYER0002
  6
CONTINUOUS
 62
       7
100
AcDbLine
 10
13.31378736
 20
167.54593829
 30
0.0
 11
38.31378773
 21
167.54593829
 31
0.0
  0
LINE
  5
51E
100
AcDbEntity
  8
LAYER0002
  6
CONTINUOUS
 62
       7
100
AcDbLine
 10
13.31378736
 20
230.24594167
 30
0.0
 11
38.31378773
 21
230.24594167
 31
0.0
  0
LINE
  5
51F
100
AcDbEntity
  8
LAYER0002
  6
CONTINUOUS
 62
       7
100
AcDbLine
 10
13.3138002
 20
239.30035176
 30
0.0
 11
13.31378773
 21
70.24593809
 31
0.0
  0
LINE
  5
520
100
AcDbEntity
  8
LAYER0002
  6
CONTINUOUS
 62
       7
100
AcDbLine
 10
38.31378773
 20
71.54593745
 30
0.0
 11
63.3137881
 21
71.54593745
 31
0.0
  0
LINE
  5
521
100
AcDbEntity
  8
LAYER0002
  6
CONTINUOUS
 62
       7
100
AcDbLine
 10
38.31378773
 20
103.5459427
 30
0.0
 11
63.3137881
 21
103.5459427
 31
0.0
  0
LINE
  5
522
100
AcDbEntity
  8
LAYER0002
  6
CONTINUOUS
 62
       7
100
AcDbLine
 10
38.31378773
 20
166.24593118
 30
0.0
 11
63.3137881
 21
166.24593118
 31
0.0
  0
LINE
  5
523
100
AcDbEntity
  8
LAYER0002
  6
CONTINUOUS
 62
       7
100
AcDbLine
 10
38.31378773
 20
167.54593829
 30
0.0
 11
63.3137881
 21
167.54593829
 31
0.0
  0
LINE
  5
524
100
AcDbEntity
  8
LAYER0002
  6
CONTINUOUS
 62
       7
100
AcDbLine
 10
38.31378773
 20
230.24594167
 30
0.0
 11
63.3137881
 21
230.24594167
 31
0.0
  0
LINE
  5
525
100
AcDbEntity
  8
LAYER0002
  6
CONTINUOUS
 62
       7
100
AcDbLine
 10
63.3137881
 20
231.54594878
 30
0.0
 11
13.31378736
 21
231.54594878
 31
0.0
  0
LINE
  5
526
100
AcDbEntity
  8
LAYER0002
  6
CONTINUOUS
 62
       7
100
AcDbLine
 10
-183.87907021
 20
102.2459371
 30
0.0
 11
-158.87906984
 21
102.2459371
 31
0.0
  0
LINE
  5
527
100
AcDbEntity
  8
LAYER0002
  6
CONTINUOUS
 62
       7
100
AcDbLine
 10
-158.87907015
 20
71.54593745
 30
0.0
 11
-133.87906978
 21
71.54593745
 31
0.0
  0
LINE
  5
528
100
AcDbEntity
  8
LAYER0002
  6
CONTINUOUS
 62
       7
100
AcDbLine
 10
-158.87907077
 20
134.24594248
 30
0.0
 11
-133.87906915
 21
134.24594248
 31
0.0
  0
LINE
  5
529
100
AcDbEntity
  8
LAYER0002
  6
CONTINUOUS
 62
       7
100
AcDbLine
 10
-158.87907015
 20
103.5459427
 30
0.0
 11
-133.87906978
 21
103.5459427
 31
0.0
  0
LINE
  5
52A
100
AcDbEntity
  8
LAYER0002
  6
CONTINUOUS
 62
       7
100
AcDbLine
 10
-158.87907015
 20
135.54593304
 30
0.0
 11
-133.87906978
 21
135.54593304
 31
0.0
  0
LINE
  5
52B
100
AcDbEntity
  8
LAYER0002
  6
CONTINUOUS
 62
       7
100
AcDbLine
 10
-158.87907015
 20
166.24593118
 30
0.0
 11
-133.87906978
 21
166.24593118
 31
0.0
  0
LINE
  5
52C
100
AcDbEntity
  8
LAYER0002
  6
CONTINUOUS
 62
       7
100
AcDbLine
 10
-158.87907015
 20
198.24593643
 30
0.0
 11
-133.87906978
 21
198.24593643
 31
0.0
  0
LINE
  5
52D
100
AcDbEntity
  8
LAYER0002
  6
CONTINUOUS
 62
       7
100
AcDbLine
 10
-158.87907015
 20
167.54593829
 30
0.0
 11
-133.87906978
 21
167.54593829
 31
0.0
  0
LINE
  5
52E
100
AcDbEntity
  8
LAYER0002
  6
CONTINUOUS
 62
       7
100
AcDbLine
 10
-158.87907015
 20
199.54594353
 30
0.0
 11
-133.87906978
 21
199.54594353
 31
0.0
  0
LINE
  5
52F
100
AcDbEntity
  8
LAYER0002
  6
CONTINUOUS
 62
       7
100
AcDbLine
 10
-158.87907015
 20
230.24594167
 30
0.0
 11
-133.87906978
 21
230.24594167
 31
0.0
  0
LINE
  5
530
100
AcDbEntity
  8
LAYER0002
  6
CONTINUOUS
 62
       7
100
AcDbLine
 10
-133.87906989
 20
70.24593809
 30
0.0
 11
-183.87907015
 21
70.24593809
 31
0.0
  0
LINE
  5
531
100
AcDbEntity
  8
LAYER0002
  6
CONTINUOUS
 62
       7
100
AcDbLine
 10
-133.87906978
 20
231.54594878
 30
0.0
 11
-183.87907052
 21
231.54594878
 31
0.0
  0
LINE
  5
532
100
AcDbEntity
  8
LAYER0002
  6
CONTINUOUS
 62
       7
100
AcDbLine
 10
-158.87906984
 20
102.2459371
 30
0.0
 11
-133.87907009
 21
102.2459371
 31
0.0
  0
ARC
  5
533
100
AcDbEntity
  8
LAYER0002
  6
CONTINUOUS
 62
       7
100
AcDbCircle
 10
38.31378787
 20
92.245938
 30
0.0
 40
149.99999998
100
AcDbArc
 50
80.73077443
 51
99.26922557
  0
ARC
  5
534
100
AcDbEntity
  8
LAYER0002
  6
CONTINUOUS
 62
       7
100
AcDbCircle
 10
-129.87907008
 20
68.49455113
 30
0.0
 40
0.99999967
100
AcDbArc
 50
0.00008021
 51
78.776839
  0
ARC
  5
535
100
AcDbEntity
  8
LAYER0002
  6
CONTINUOUS
 62
       7
100
AcDbCircle
 10
-158.87907015
 20
-77.65605648
 30
0.0
 40
150.0
100
AcDbArc
 50
99.59406823
 51
101.223161
  0
ARC
  5
536
100
AcDbEntity
  8
LAYER0002
  6
CONTINUOUS
 62
       7
100
AcDbCircle
 10
-158.87907002
 20
92.245938
 30
0.0
 40
149.99999998
100
AcDbArc
 50
80.73077443
 51
99.26922557
  0
ARC
  5
537
100
AcDbEntity
  8
LAYER0002
  6
CONTINUOUS
 62
       7
100
AcDbCircle
 10
-187.87907022
 20
68.49455109
 30
0.0
 40
0.99999967
100
AcDbArc
 50
101.22316025
 51
179.99991979
  0
ARC
  5
538
100
AcDbEntity
  8
LAYER0002
  6
CONTINUOUS
 62
       7
100
AcDbCircle
 10
-158.87907015
 20
-77.65605648
 30
0.0
 40
150.00000004
100
AcDbArc
 50
78.776839
 51
80.40593168
  0
ARC
  5
539
100
AcDbEntity
  8
LAYER0002
  6
CONTINUOUS
 62
       7
100
AcDbCircle
 10
67.31378793
 20
68.49455112
 30
0.0
 40
0.99999966
100
AcDbArc
 50
0.00008021
 51
78.776839
  0
ARC
  5
53A
100
AcDbEntity
  8
LAYER0002
  6
CONTINUOUS
 62
       7
100
AcDbCircle
 10
38.31378786
 20
-77.65605647
 30
0.0
 40
150.00000001
100
AcDbArc
 50
99.59406828
 51
101.223161
  0
ARC
  5
53B
100
AcDbEntity
  8
LAYER0002
  6
CONTINUOUS
 62
       7
100
AcDbCircle
 10
9.31378779
 20
68.49455112
 30
0.0
 40
0.99999966
100
AcDbArc
 50
101.22316048
 51
179.99991979
  0
ARC
  5
53C
100
AcDbEntity
  8
LAYER0002
  6
CONTINUOUS
 62
       7
100
AcDbCircle
 10
38.31378786
 20
-77.65605647
 30
0.0
 40
150.00000001
100
AcDbArc
 50
78.776839
 51
80.40593172
  0
ARC
  5
53D
100
AcDbEntity
  8
LAYER0002
  6
CONTINUOUS
 62
       7
100
AcDbCircle
 10
62.31377553
 20
239.30035169
 30
0.0
 40
1.0
100
AcDbArc
 50
0.00000401
 51
80.73077465
  0
ARC
  5
53E
100
AcDbEntity
  8
LAYER0002
  6
CONTINUOUS
 62
       7
100
AcDbCircle
 10
14.31380021
 20
239.30035169
 30
0.0
 40
1.0
100
AcDbArc
 50
99.26922535
 51
179.99999599
  0
INSERT
  5
53F
100
AcDbEntity
  8
0
  6
CONTINUOUS
100
AcDbBlockReference
  2
GROUP_1
 10
0.0
 20
0.0
 30
0.0
  0
INSERT
  5
540
100
AcDbEntity
  8
0
  6
CONTINUOUS
100
AcDbBlockReference
  2
GROUP_2
 10
0.0
 20
0.0
 30
0.0
  0
INSERT
  5
541
100
AcDbEntity
  8
0
  6
CONTINUOUS
100
AcDbBlockReference
  2
GROUP_3
 10
0.0
 20
0.0
 30
0.0
  0
INSERT
  5
542
100
AcDbEntity
  8
0
  6
CONTINUOUS
100
AcDbBlockReference
  2
GROUP_4
 10
0.0
 20
0.0
 30
0.0
  0
TEXT
  5
543
100
AcDbEntity
  8
LAYER0004
 62
       7
100
AcDbText
 10
169.84610214
 20
-230.42352941
 30
0.0
 40
17.19791667
  1
000
 72
       5
 11
221.43985215
 21
-230.42352941
 31
0.0
100
AcDbText
  0
TEXT
  5
544
100
AcDbEntity
  8
LAYER0004
 62
       7
100
AcDbText
 10
103.11087928
 20
-102.08284289
 30
0.0
 40
7.9375
  1
Lamp 5 Layers shown
 72
       5
 11
253.92337928
 21
-102.08284289
 31
0.0
100
AcDbText
  0
ENDSEC
  0
SECTION
  2
OBJECTS
  0
DICTIONARY
  5
19
100
AcDbDictionary
  3
ACAD_GROUP
350
1A
  3
ACAD_MLINESTYLE
350
1B
  0
DICTIONARY
  5
1A
102
{ACAD_REACTORS
330
19
102
}
100
AcDbDictionary
  0
DICTIONARY
  5
1B
102
{ACAD_REACTORS
330
19
102
}
100
AcDbDictionary
  3
STANDARD
350
1C
  0
MLINESTYLE
  5
1C
102
{ACAD_REACTORS
330
1B
102
}
100
AcDbMlineStyle
  2
STANDARD
 70
       0
  3

 62
       0
 51
90.0
 52
90.0
 71
       2
 49
0.5
 62
     256
  6
BYLAYER
 49
-0.5
 62
     256
  6
BYLAYER
  0
ENDSEC
  0
EOF
