  0
SECTION
  2
HEADER
  9
$ACADVER
  1
AC1014
  9
$ACADMAINTVER
 70
       0
  9
$DWGCODEPAGE
  3
ANSI_932
  9
$INSBASE
 10
0.0
 20
0.0
 30
0.0
  9
$EXTMIN
 10
-200.35695553
 20
-266.17843882
 30
0.0
  9
$EXTMAX
 10
181.60177374
 20
266.17843882
 30
0.0
  9
$LIMMIN
 10
-212.29316582
 20
-282.81459125
  9
$LIMMAX
 10
193.53798403
 20
282.81459125
  9
$ORTHOMODE
 70
       0
  9
$REGENMODE
 70
       1
  9
$FILLMODE
 70
       1
  9
$QTEXTMODE
 70
       0
  9
$MIRRTEXT
 70
       1
  9
$DRAGMODE
 70
       2
  9
$LTSCALE
 40
1.0
  9
$OSMODE
 70
       0
  9
$ATTMODE
 70
       1
  9
$TEXTSIZE
 40
0.2
  9
$TRACEWID
 40
0.05
  9
$TEXTSTYLE
  7
STANDARD
  9
$CLAYER
  8
0
  9
$CELTYPE
  6
CONTINUOUS
  9
$CECOLOR
 62
     256
  9
$CELTSCALE
 40
1.0
  9
$DELOBJ
 70
       1
  9
$DISPSILH
 70
       0
  9
$DIMSCALE
 40
1.0
  9
$DIMASZ
 40
0.18
  9
$DIMEXO
 40
0.0625
  9
$DIMDLI
 40
0.38
  9
$DIMRND
 40
0.0
  9
$DIMDLE
 40
0.0
  9
$DIMEXE
 40
0.18
  9
$DIMTP
 40
0.0
  9
$DIMTM
 40
0.0
  9
$DIMTXT
 40
0.18
  9
$DIMCEN
 40
0.09
  9
$DIMTSZ
 40
0.0
  9
$DIMTOL
 70
       0
  9
$DIMLIM
 70
       0
  9
$DIMTIH
 70
       1
  9
$DIMTOH
 70
       1
  9
$DIMSE1
 70
       0
  9
$DIMSE2
 70
       0
  9
$DIMTAD
 70
       0
  9
$DIMZIN
 70
       0
  9
$DIMBLK
  1

  9
$DIMASO
 70
       1
  9
$DIMSHO
 70
       1
  9
$DIMPOST
  1

  9
$DIMAPOST
  1

  9
$DIMALT
 70
       0
  9
$DIMALTD
 70
       2
  9
$DIMALTF
 40
25.4
  9
$DIMLFAC
 40
1.0
  9
$DIMTOFL
 70
       0
  9
$DIMTVP
 40
0.0
  9
$DIMTIX
 70
       0
  9
$DIMSOXD
 70
       0
  9
$DIMSAH
 70
       0
  9
$DIMBLK1
  1

  9
$DIMBLK2
  1

  9
$DIMSTYLE
  2
STANDARD
  9
$DIMCLRD
 70
       0
  9
$DIMCLRE
 70
       0
  9
$DIMCLRT
 70
       0
  9
$DIMTFAC
 40
1.0
  9
$DIMGAP
 40
0.09
  9
$DIMJUST
 70
       0
  9
$DIMSD1
 70
       0
  9
$DIMSD2
 70
       0
  9
$DIMTOLJ
 70
       1
  9
$DIMTZIN
 70
       0
  9
$DIMALTZ
 70
       0
  9
$DIMALTTZ
 70
       0
  9
$DIMFIT
 70
       3
  9
$DIMUPT
 70
       0
  9
$DIMUNIT
 70
       2
  9
$DIMDEC
 70
       4
  9
$DIMTDEC
 70
       4
  9
$DIMALTU
 70
       2
  9
$DIMALTTD
 70
       2
  9
$DIMTXSTY
  7
STANDARD
  9
$DIMAUNIT
 70
       0
  9
$LUNITS
 70
       2
  9
$LUPREC
 70
       4
  9
$SKETCHINC
 40
0.1
  9
$FILLETRAD
 40
0.0
  9
$AUNITS
 70
       0
  9
$AUPREC
 70
       0
  9
$MENU
  1
acad
  9
$ELEVATION
 40
0.0
  9
$PELEVATION
 40
0.0
  9
$THICKNESS
 40
0.0
  9
$LIMCHECK
 70
       0
  9
$BLIPMODE
 70
       1
  9
$CHAMFERA
 40
0.0
  9
$CHAMFERB
 40
0.0
  9
$CHAMFERC
 40
0.0
  9
$CHAMFERD
 40
0.0
  9
$SKPOLY
 70
       0
  9
$TDCREATE
 40
0.000000000
  9
$TDUPDATE
 40
0.000000000
  9
$TDINDWG
 40
0.0000000000
  9
$TDUSRTIMER
 40
0.0000000000
  9
$USRTIMER
 70
       1
  9
$ANGBASE
 50
0.0
  9
$ANGDIR
 70
       0
  9
$PDMODE
 70
       0
  9
$PDSIZE
 40
1.0
  9
$PLINEWID
 40
0.0
  9
$COORDS
 70
       1
  9
$SPLFRAME
 70
       0
  9
$SPLINETYPE
 70
       6
  9
$SPLINESEGS
 70
       8
  9
$ATTDIA
 70
       0
  9
$ATTREQ
 70
       1
  9
$HANDLING
 70
       1
  9
$HANDSEED
  5
320
  9
$SURFTAB1
 70
       6
  9
$SURFTAB2
 70
       6
  9
$SURFTYPE
 70
       6
  9
$SURFU
 70
       6
  9
$SURFV
 70
       6
  9
$UCSNAME
  2

  9
$UCSORG
 10
0.0
 20
0.0
 30
0.0
  9
$UCSXDIR
 10
1.0
 20
0.0
 30
0.0
  9
$UCSYDIR
 10
0.0
 20
1.0
 30
0.0
  9
$PUCSNAME
  2

  9
$PUCSORG
 10
0.0
 20
0.0
 30
0.0
  9
$PUCSXDIR
 10
1.0
 20
0.0
 30
0.0
  9
$PUCSYDIR
 10
0.0
 20
1.0
 30
0.0
  9
$USERI1
 70
       0
  9
$USERI2
 70
       0
  9
$USERI3
 70
       0
  9
$USERI4
 70
       0
  9
$USERI5
 70
       0
  9
$USERR1
 40
0.0
  9
$USERR2
 40
0.0
  9
$USERR3
 40
0.0
  9
$USERR4
 40
0.0
  9
$USERR5
 40
0.0
  9
$WORLDVIEW
 70
       1
  9
$SHADEDGE
 70
       3
  9
$SHADEDIF
 70
      70
  9
$TILEMODE
 70
       1
  9
$MAXACTVP
 70
      16
  9
$PINSBASE
 10
0.0
 20
0.0
 30
0.0
  9
$PLIMCHECK
 70
       0
  9
$PEXTMIN
 10
1.00000000E+20
 20
1.00000000E+20
 30
1.00000000E+20
  9
$PEXTMAX
 10
-1.00000000E+20
 20
-1.00000000E+20
 30
-1.00000000E+20
  9
$PLIMMIN
 10
0.0
 20
0.0
  9
$PLIMMAX
 10
12.0
 20
9.0
  9
$UNITMODE
 70
       0
  9
$VISRETAIN
 70
       0
  9
$PLINEGEN
 70
       1
  9
$PSLTSCALE
 70
       0
  9
$TREEDEPTH
 70
    3020
  9
$PICKSTYLE
 70
       1
  9
$CMLSTYLE
  2
STANDARD
  9
$CMLJUST
 70
       0
  9
$CMLSCALE
 40
1.0
  9
$PROXYGRAPHICS
 70
       0
  9
$MEASUREMENT
 70
       0
  0
ENDSEC
  0
SECTION
  2
CLASSES
  0
CLASS
  1
LWPOLYLINE
  2
AcDbPolyline
  3
"AutoCAD"
 90
        0
280
       0
281
       1
  0
CLASS
  1
IMAGE
  2
AcDbRasterImage
  3
ISM
 90
      127
280
       0
281
       1
  0
CLASS
  1
OLE2FRAME
  2
AcDbOle2Frame
  3
""
 90
        0
280
       0
281
       1
  0
CLASS
  1
HATCH
  2
AcDbHatch
  3
"ACAD_SEDONA"
 90
        0
280
       0
281
       1
  0
CLASS
  1
DICTIONARYVAR
  2
AcDbDictionaryVar
  3
"AutoCAD"
 90
        0
280
       0
281
       0
  0
CLASS
  1
RASTERVARIABLES
  2
AcDbRasterVariables
  3
ISM
 90
        0
280
       0
281
       0
  0
CLASS
  1
IMAGEDEF
  2
AcDbRasterImageDef
  3
ISM
 90
        0
280
       0
281
       0
  0
CLASS
  1
IMAGEDEF_REACTOR
  2
AcDbRasterImageDefReactor
  3
ISM
 90
        1
280
       0
281
       0
  0
CLASS
  1
IDBUFFER
  2
AcDbIdBuffer
  3
"Acad"
 90
        0
280
       0
281
       0
  0
CLASS
  1
SPATIAL_FILTER
  2
AcDbSpatialFilter
  3
"Acad"
 90
        0
280
       0
281
       0
  0
CLASS
  1
XRECORD
  2
AcDbXrecord
  3
"<Built In>"
 90
        0
280
       0
281
       0
  0
CLASS
  1
SORTENTSTABLE
  2
AcDbSortentsTable
  3
"AutoCAD"
 90
        0
280
       0
281
       0
  0
CLASS
  1
LAYER_INDEX
  2
AcDbLayerIndex
  3
"Acad"
 90
        0
280
       0
281
       0
  0
CLASS
  1
SPATIAL_INDEX
  2
AcDbSpatialIndex
  3
"Acad"
 90
        0
280
       0
281
       0
  0
CLASS
  1
OBJECT_PTR
  2
CAseDLPNTableRecord
  3
"ASE-LPNTableRecord"
 90
        1
280
       0
281
       0
  0
CLASS
  1
LAYOUT
  2
AcDbLayout
  3
"AutoCAD 2000"
 90
        1
280
       0
281
       0
  0
CLASS
  1
PLOTSETTINGS
  2
AcDbPlotSettings
  3
"AutoCAD 2000"
 90
        1
280
       0
281
       0
  0
CLASS
  1
ACDBDICTIONARYWDFLT
  2
AcDbDictionaryWithDefault
  3
"AutoCAD 2000"
 90
        1
280
       0
281
       0
  0
CLASS
  1
ACDBPLACEHOLDER
  2
AcDbPlaceHolder
  3
"AutoCAD 2000"
 90
        1
280
       0
281
       0
  0
CLASS
  1
VBA_PROJECT
  2
AcDbVbaProject
  3
"acadvba"
 90
        1
280
       0
281
       0
  0
CLASS
  1
WIPEOUT
  2
AcDbWipeout
  3
WipeOut|AutoCAD Express Tool|expresstools@autodesk.com
 90
      127
280
       0
281
       1
  0
CLASS
  1
WIPEOUTVARIABLES
  2
AcDbWipeoutVariables
  3
WipeOut|AutoCAD Express Tool|expresstools@autodesk.com
 90
        0
280
       0
281
       0
  0
CLASS
  1
RTEXT
  2
RText
  3
RText|AutoCAD Express Tool|expresstools@autodesk.com
 90
        0
280
       0
281
       1
  0
CLASS
  1
ARCALIGNEDTEXT
  2
AcDbArcAlignedText
  3
ATEXT|AutoCAD Express Tool|expresstools@autodesk.com
 90
        0
280
       0
281
       1
  0
ENDSEC
  0
SECTION
  2
TABLES
  0
TABLE
  2
VPORT
  5
7
100
AcDbSymbolTable
 70
       1
  0
VPORT
  5
15
100
AcDbSymbolTableRecord
100
AcDbViewportTableRecord
  2
*ACTIVE
 70
       0
 10
0.0
 20
0.0
 11
1.0
 21
1.0
 12
-9.37759089
 22
0.0
 13
0.0
 23
0.0
 14
1.0
 24
1.0
 15
0.0
 25
0.0
 16
0.0
 26
0.0
 36
1.0
 17
0.0
 27
0.0
 37
0.0
 40
565.6291825
 41
0.71748623
 42
50.0
 43
0.0
 44
0.0
 50
0.0
 51
0.0
 71
       0
 72
     100
 73
       1
 74
       1
 75
       0
 76
       0
 77
       0
 78
       0
  0
ENDTAB
  0
TABLE
  2
LTYPE
  5
4
100
AcDbSymbolTable
 70
      30
  0
LTYPE
  5
11
100
AcDbSymbolTableRecord
100
AcDbLinetypeTableRecord
  2
BYBLOCK
 70
      64
  3

 72
      65
 73
       0
 40
0.0
  0
LTYPE
  5
12
100
AcDbSymbolTableRecord
100
AcDbLinetypeTableRecord
  2
BYLAYER
 70
      64
  3

 72
      65
 73
       0
 40
0.0
  0
LTYPE
  5
13
100
AcDbSymbolTableRecord
100
AcDbLinetypeTableRecord
  2
CONTINUOUS
 70
      64
  3
Solid line
 72
      65
 73
       0
 40
0.0
  0
LTYPE
  5
1D
100
AcDbSymbolTableRecord
100
AcDbLinetypeTableRecord
  2
HIDDENX2
 70
      64
  3
CADPAC LINETYPE
 72
      65
 73
       2
 40
30.10569929
 49
22.57927447
 74
       0
 49
-7.52642482
 74
       0
  0
LTYPE
  5
1E
100
AcDbSymbolTableRecord
100
AcDbLinetypeTableRecord
  2
HIDDEN
 70
      64
  3
CADPAC LINETYPE
 72
      65
 73
       2
 40
22.57927447
 49
15.05284964
 74
       0
 49
-7.52642482
 74
       0
  0
LTYPE
  5
1F
100
AcDbSymbolTableRecord
100
AcDbLinetypeTableRecord
  2
HIDDEN2
 70
      64
  3
CADPAC LINETYPE
 72
      65
 73
       2
 40
18.81606205
 49
11.28963723
 74
       0
 49
-7.52642482
 74
       0
  0
LTYPE
  5
20
100
AcDbSymbolTableRecord
100
AcDbLinetypeTableRecord
  2
DASHED
 70
      64
  3
CADPAC LINETYPE
 72
      65
 73
       2
 40
22.57927447
 49
15.05284964
 74
       0
 49
-7.52642482
 74
       0
  0
LTYPE
  5
21
100
AcDbSymbolTableRecord
100
AcDbLinetypeTableRecord
  2
DASHED2
 70
      64
  3
CADPAC LINETYPE
 72
      65
 73
       2
 40
16.93445585
 49
11.28963723
 74
       0
 49
-5.64481862
 74
       0
  0
LTYPE
  5
22
100
AcDbSymbolTableRecord
100
AcDbLinetypeTableRecord
  2
DASHEDX2
 70
      64
  3
CADPAC LINETYPE
 72
      65
 73
       2
 40
33.8689117
 49
22.57927447
 74
       0
 49
-11.28963723
 74
       0
  0
LTYPE
  5
23
100
AcDbSymbolTableRecord
100
AcDbLinetypeTableRecord
  2
DOTX2
 70
      64
  3
CADPAC LINETYPE
 72
      65
 73
       2
 40
9.40803103
 49
0.0
 74
       0
 49
-9.40803103
 74
       0
  0
LTYPE
  5
24
100
AcDbSymbolTableRecord
100
AcDbLinetypeTableRecord
  2
DOT
 70
      64
  3
CADPAC LINETYPE
 72
      65
 73
       2
 40
7.52642482
 49
0.0
 74
       0
 49
-7.52642482
 74
       0
  0
LTYPE
  5
25
100
AcDbSymbolTableRecord
100
AcDbLinetypeTableRecord
  2
DOT2
 70
      64
  3
CADPAC LINETYPE
 72
      65
 73
       2
 40
5.64481862
 49
0.0
 74
       0
 49
-5.64481862
 74
       0
  0
LTYPE
  5
26
100
AcDbSymbolTableRecord
100
AcDbLinetypeTableRecord
  2
CENTERX2
 70
      64
  3
CADPAC LINETYPE
 72
      65
 73
       4
 40
45.15854893
 49
18.81606205
 74
       0
 49
-9.40803103
 74
       0
 49
7.52642482
 74
       0
 49
-9.40803103
 74
       0
  0
LTYPE
  5
27
100
AcDbSymbolTableRecord
100
AcDbLinetypeTableRecord
  2
CENTER
 70
      64
  3
CADPAC LINETYPE
 72
      65
 73
       4
 40
34.62155418
 49
15.05284964
 74
       0
 49
-7.52642482
 74
       0
 49
4.51585489
 74
       0
 49
-7.52642482
 74
       0
  0
LTYPE
  5
28
100
AcDbSymbolTableRecord
100
AcDbLinetypeTableRecord
  2
CENTER2
 70
      64
  3
CADPAC LINETYPE
 72
      65
 73
       4
 40
24.08455943
 49
11.28963723
 74
       0
 49
-5.64481862
 74
       0
 49
1.50528496
 74
       0
 49
-5.64481862
 74
       0
  0
LTYPE
  5
29
100
AcDbSymbolTableRecord
100
AcDbLinetypeTableRecord
  2
DASHDOTX2
 70
      64
  3
CADPAC LINETYPE
 72
      65
 73
       4
 40
37.63212411
 49
18.81606205
 74
       0
 49
-9.40803103
 74
       0
 49
0.0
 74
       0
 49
-9.40803103
 74
       0
  0
LTYPE
  5
2A
100
AcDbSymbolTableRecord
100
AcDbLinetypeTableRecord
  2
DASHDOT
 70
      64
  3
CADPAC LINETYPE
 72
      65
 73
       4
 40
30.10569929
 49
15.05284964
 74
       0
 49
-7.52642482
 74
       0
 49
0.0
 74
       0
 49
-7.52642482
 74
       0
  0
LTYPE
  5
2B
100
AcDbSymbolTableRecord
100
AcDbLinetypeTableRecord
  2
DASHDOT2
 70
      64
  3
CADPAC LINETYPE
 72
      65
 73
       4
 40
22.57927447
 49
11.28963723
 74
       0
 49
-5.64481862
 74
       0
 49
0.0
 74
       0
 49
-5.64481862
 74
       0
  0
LTYPE
  5
2C
100
AcDbSymbolTableRecord
100
AcDbLinetypeTableRecord
  2
DIVIDEX2
 70
      64
  3
CADPAC LINETYPE
 72
      65
 73
       6
 40
47.04015514
 49
18.81606205
 74
       0
 49
-9.40803103
 74
       0
 49
0.0
 74
       0
 49
-9.40803103
 74
       0
 49
0.0
 74
       0
 49
-9.40803103
 74
       0
  0
LTYPE
  5
2D
100
AcDbSymbolTableRecord
100
AcDbLinetypeTableRecord
  2
DIVIDE
 70
      64
  3
CADPAC LINETYPE
 72
      65
 73
       6
 40
37.63212411
 49
15.05284964
 74
       0
 49
-7.52642482
 74
       0
 49
0.0
 74
       0
 49
-7.52642482
 74
       0
 49
0.0
 74
       0
 49
-7.52642482
 74
       0
  0
LTYPE
  5
2E
100
AcDbSymbolTableRecord
100
AcDbLinetypeTableRecord
  2
DIVIDE2
 70
      64
  3
CADPAC LINETYPE
 72
      65
 73
       6
 40
28.22409308
 49
11.28963723
 74
       0
 49
-5.64481862
 74
       0
 49
0.0
 74
       0
 49
-5.64481862
 74
       0
 49
0.0
 74
       0
 49
-5.64481862
 74
       0
  0
LTYPE
  5
2F
100
AcDbSymbolTableRecord
100
AcDbLinetypeTableRecord
  2
BORDERX2
 70
      64
  3
CADPAC LINETYPE
 72
      65
 73
       6
 40
65.85621719
 49
18.81606205
 74
       0
 49
-9.40803103
 74
       0
 49
18.81606205
 74
       0
 49
-9.40803103
 74
       0
 49
0.0
 74
       0
 49
-9.40803103
 74
       0
  0
LTYPE
  5
30
100
AcDbSymbolTableRecord
100
AcDbLinetypeTableRecord
  2
BORDER
 70
      64
  3
CADPAC LINETYPE
 72
      65
 73
       6
 40
52.68497375
 49
15.05284964
 74
       0
 49
-7.52642482
 74
       0
 49
15.05284964
 74
       0
 49
-7.52642482
 74
       0
 49
0.0
 74
       0
 49
-7.52642482
 74
       0
  0
LTYPE
  5
31
100
AcDbSymbolTableRecord
100
AcDbLinetypeTableRecord
  2
BORDER2
 70
      64
  3
CADPAC LINETYPE
 72
      65
 73
       6
 40
39.51373031
 49
11.28963723
 74
       0
 49
-5.64481862
 74
       0
 49
11.28963723
 74
       0
 49
-5.64481862
 74
       0
 49
0.0
 74
       0
 49
-5.64481862
 74
       0
  0
LTYPE
  5
32
100
AcDbSymbolTableRecord
100
AcDbLinetypeTableRecord
  2
PHANTOMX2
 70
      64
  3
CADPAC LINETYPE
 72
      65
 73
       6
 40
56.44818616
 49
18.81606205
 74
       0
 49
-7.52642482
 74
       0
 49
7.52642482
 74
       0
 49
-7.52642482
 74
       0
 49
7.52642482
 74
       0
 49
-7.52642482
 74
       0
  0
LTYPE
  5
33
100
AcDbSymbolTableRecord
100
AcDbLinetypeTableRecord
  2
PHANTOM
 70
      64
  3
CADPAC LINETYPE
 72
      65
 73
       6
 40
46.6638339
 49
15.05284964
 74
       0
 49
-7.52642482
 74
       0
 49
4.51585489
 74
       0
 49
-7.52642482
 74
       0
 49
4.51585489
 74
       0
 49
-7.52642482
 74
       0
  0
LTYPE
  5
34
100
AcDbSymbolTableRecord
100
AcDbLinetypeTableRecord
  2
PHANTOM2
 70
      64
  3
CADPAC LINETYPE
 72
      65
 73
       6
 40
39.89005156
 49
11.28963723
 74
       0
 49
-7.52642482
 74
       0
 49
3.01056993
 74
       0
 49
-7.52642482
 74
       0
 49
3.01056993
 74
       0
 49
-7.52642482
 74
       0
  0
LTYPE
  5
35
100
AcDbSymbolTableRecord
100
AcDbLinetypeTableRecord
  2
ACAD_ISO06W100
 70
      64
  3
CADPAC LINETYPE
 72
      65
 73
       8
 40
50.80336755
 49
18.81606205
 74
       0
 49
-9.40803103
 74
       0
 49
0.0
 74
       0
 49
-7.52642482
 74
       0
 49
0.0
 74
       0
 49
-7.52642482
 74
       0
 49
0.0
 74
       0
 49
-7.52642482
 74
       0
  0
LTYPE
  5
36
100
AcDbSymbolTableRecord
100
AcDbLinetypeTableRecord
  2
ACAD_ISO13W100
 70
      64
  3
CADPAC LINETYPE
 72
      65
 73
       8
 40
60.21139857
 49
15.05284964
 74
       0
 49
-7.52642482
 74
       0
 49
15.05284964
 74
       0
 49
-7.52642482
 74
       0
 49
0.0
 74
       0
 49
-7.52642482
 74
       0
 49
0.0
 74
       0
 49
-7.52642482
 74
       0
  0
LTYPE
  5
37
100
AcDbSymbolTableRecord
100
AcDbLinetypeTableRecord
  2
ACAD_ISO14W100
 70
      64
  3
CADPAC LINETYPE
 72
      65
 73
       8
 40
45.15854893
 49
15.05284964
 74
       0
 49
-7.52642482
 74
       0
 49
0.0
 74
       0
 49
-7.52642482
 74
       0
 49
0.0
 74
       0
 49
-7.52642482
 74
       0
 49
0.0
 74
       0
 49
-7.52642482
 74
       0
  0
ENDTAB
  0
TABLE
  2
LAYER
  5
2
100
AcDbSymbolTable
 70
       3
  0
LAYER
  5
14
100
AcDbSymbolTableRecord
100
AcDbLayerTableRecord
  2
0
 70
       0
 62
       7
  6
CONTINUOUS
  0
LAYER
  5
38
100
AcDbSymbolTableRecord
100
AcDbLayerTableRecord
  2
LAYER0001
 70
       0
 62
       7
  6
CONTINUOUS
  0
LAYER
  5
39
100
AcDbSymbolTableRecord
100
AcDbLayerTableRecord
  2
LAYER0002
 70
       0
 62
       7
  6
CONTINUOUS
  0
ENDTAB
  0
TABLE
  2
STYLE
  5
3
100
AcDbSymbolTable
 70
       1
  0
STYLE
  5
17
100
AcDbSymbolTableRecord
100
AcDbTextStyleTableRecord
  2
STANDARD
 70
       0
 40
0.0
 41
1.0
 50
0.0
 71
       0
 42
17.19791667
  3
txt.shx
  4
bigfont.shx
  0
ENDTAB
  0
TABLE
  2
VIEW
  5
5
100
AcDbSymbolTable
 70
       1
  0
VIEW
  5
3A
100
AcDbSymbolTableRecord
100
AcDbViewTableRecord
  2
QQQQ
 70
       0
 40
565.6291825
 10
-9.37759089
 20
0.0
 41
405.83114986
 11
0.0
 21
0.0
 31
1.0
 12
100.0
 22
100.0
 32
0.0
 42
50.0
 43
0.0
 44
0.0
 50
0.0
 71
       0
  0
ENDTAB
  0
TABLE
  2
UCS
  5
6
100
AcDbSymbolTable
 70
       0
  0
ENDTAB
  0
TABLE
  2
APPID
  5
8
100
AcDbSymbolTable
 70
       1
  0
APPID
  5
16
100
AcDbSymbolTableRecord
100
AcDbRegAppTableRecord
  2
ACAD
 70
       0
  0
ENDTAB
  0
TABLE
  2
DIMSTYLE
  5
9
100
AcDbSymbolTable
 70
       1
  0
DIMSTYLE
105
18
100
AcDbSymbolTableRecord
100
AcDbDimStyleTableRecord
  2
STANDARD
 70
       0
  3

  4

  5

  6

  7

 40
1.0
 41
0.18
 42
0.0625
 43
0.38
 44
0.18
 45
0.0
 46
0.0
 47
0.0
 48
0.0
 71
       0
 72
       0
 73
       1
 74
       1
 75
       0
 76
       0
 77
       0
 78
       0
140
0.18
141
0.09
142
0.0
143
25.4
144
1.0
145
0.0
146
1.0
147
0.09
170
       0
171
       2
172
       0
173
       0
174
       0
175
       0
176
       0
177
       0
178
       0
270
       2
271
       4
272
       4
273
       2
274
       2
275
       0
280
       0
281
       0
282
       0
283
       1
284
       0
285
       0
286
       0
287
       0
288
       0
340
17
  0
ENDTAB
  0
TABLE
  2
BLOCK_RECORD
  5
1
100
AcDbSymbolTable
 70
       0
  0
BLOCK_RECORD
  5
A
100
AcDbSymbolTableRecord
100
AcDbBlockTableRecord
  2
*MODEL_SPACE
  0
BLOCK_RECORD
  5
B
100
AcDbSymbolTableRecord
100
AcDbBlockTableRecord
  2
*PAPER_SPACE
  0
ENDTAB
  0
ENDSEC
  0
SECTION
  2
BLOCKS
  0
BLOCK
  5
D
100
AcDbEntity
  8
0
100
AcDbBlockBegin
  2
*MODEL_SPACE
 70
       0
 10
0.0
 20
0.0
 30
0.0
  3
*MODEL_SPACE
  1

  0
ENDBLK
  5
E
100
AcDbEntity
  8
0
100
AcDbBlockEnd
  0
BLOCK
  5
F
100
AcDbEntity
 67
       1
  8
0
100
AcDbBlockBegin
  2
*PAPER_SPACE
 70
       0
 10
0.0
 20
0.0
 30
0.0
  3
*PAPER_SPACE
  1

  0
ENDBLK
  5
10
100
AcDbEntity
 67
       1
  8
0
100
AcDbBlockEnd
  0
ENDSEC
  0
SECTION
  2
ENTITIES
  0
LINE
  5
3B
100
AcDbEntity
  8
LAYER0001
  6
CONTINUOUS
 62
       7
100
AcDbLine
 10
-155.12295003
 20
-111.06554257
 30
0.0
 11
-155.12295003
 21
-110.3655426
 31
0.0
  0
LINE
  5
3C
100
AcDbEntity
  8
LAYER0001
  6
CONTINUOUS
 62
       7
100
AcDbLine
 10
-162.12295118
 20
-114.86554252
 30
0.0
 11
-162.12295118
 21
-119.86554241
 31
0.0
  0
LINE
  5
3D
100
AcDbEntity
  8
LAYER0001
  6
CONTINUOUS
 62
       7
100
AcDbLine
 10
-155.12295003
 20
-110.3655426
 30
0.0
 11
-165.12294981
 21
-110.3655426
 31
0.0
  0
LINE
  5
3E
100
AcDbEntity
  8
LAYER0001
  6
CONTINUOUS
 62
       7
100
AcDbLine
 10
-160.12295085
 20
-114.55293525
 30
0.0
 11
-160.12295085
 21
-111.06554257
 31
0.0
  0
LINE
  5
3F
100
AcDbEntity
  8
LAYER0001
  6
CONTINUOUS
 62
       7
100
AcDbLine
 10
-163.62295049
 20
-114.86554252
 30
0.0
 11
-163.62295049
 21
-111.06554257
 31
0.0
  0
LINE
  5
40
100
AcDbEntity
  8
LAYER0001
  6
CONTINUOUS
 62
       7
100
AcDbLine
 10
-162.12295118
 20
-119.86554241
 30
0.0
 11
-158.12295052
 21
-119.86554241
 31
0.0
  0
LINE
  5
41
100
AcDbEntity
  8
LAYER0001
  6
CONTINUOUS
 62
       7
100
AcDbLine
 10
-165.12294981
 20
-110.3655426
 30
0.0
 11
-165.12294981
 21
-111.06554257
 31
0.0
  0
LINE
  5
42
100
AcDbEntity
  8
LAYER0001
  6
CONTINUOUS
 62
       7
100
AcDbLine
 10
-158.12295052
 20
-119.86554241
 30
0.0
 11
-158.12295052
 21
-114.86554252
 31
0.0
  0
LINE
  5
43
100
AcDbEntity
  8
LAYER0001
  6
CONTINUOUS
 62
       7
100
AcDbLine
 10
-155.12295003
 20
-111.06554257
 30
0.0
 11
-165.12294981
 21
-111.06554257
 31
0.0
  0
LINE
  5
44
100
AcDbEntity
  8
LAYER0001
  6
CONTINUOUS
 62
       7
100
AcDbLine
 10
-156.62295027
 20
-114.86554252
 30
0.0
 11
-156.62295027
 21
-111.06554257
 31
0.0
  0
LINE
  5
45
100
AcDbEntity
  8
LAYER0001
  6
CONTINUOUS
 62
       7
100
AcDbLine
 10
-156.62295027
 20
-114.86554252
 30
0.0
 11
-163.62295049
 21
-114.86554252
 31
0.0
  0
LINE
  5
46
100
AcDbEntity
  8
LAYER0001
  6
CONTINUOUS
 62
       7
100
AcDbLine
 10
-136.50340313
 20
-111.06554257
 30
0.0
 11
-136.50340313
 21
-110.3655426
 31
0.0
  0
LINE
  5
47
100
AcDbEntity
  8
LAYER0001
  6
CONTINUOUS
 62
       7
100
AcDbLine
 10
-143.50340428
 20
-114.86554252
 30
0.0
 11
-143.50340428
 21
-119.86554241
 31
0.0
  0
LINE
  5
48
100
AcDbEntity
  8
LAYER0001
  6
CONTINUOUS
 62
       7
100
AcDbLine
 10
-136.50340313
 20
-110.3655426
 30
0.0
 11
-146.50340291
 21
-110.3655426
 31
0.0
  0
LINE
  5
49
100
AcDbEntity
  8
LAYER0001
  6
CONTINUOUS
 62
       7
100
AcDbLine
 10
-141.50340395
 20
-114.55293525
 30
0.0
 11
-141.50340395
 21
-111.06554257
 31
0.0
  0
LINE
  5
4A
100
AcDbEntity
  8
LAYER0001
  6
CONTINUOUS
 62
       7
100
AcDbLine
 10
-145.00340359
 20
-114.86554252
 30
0.0
 11
-145.00340359
 21
-111.06554257
 31
0.0
  0
LINE
  5
4B
100
AcDbEntity
  8
LAYER0001
  6
CONTINUOUS
 62
       7
100
AcDbLine
 10
-143.50340428
 20
-119.86554241
 30
0.0
 11
-139.50340362
 21
-119.86554241
 31
0.0
  0
LINE
  5
4C
100
AcDbEntity
  8
LAYER0001
  6
CONTINUOUS
 62
       7
100
AcDbLine
 10
-146.50340291
 20
-110.3655426
 30
0.0
 11
-146.50340291
 21
-111.06554257
 31
0.0
  0
LINE
  5
4D
100
AcDbEntity
  8
LAYER0001
  6
CONTINUOUS
 62
       7
100
AcDbLine
 10
-139.50340362
 20
-119.86554241
 30
0.0
 11
-139.50340362
 21
-114.86554252
 31
0.0
  0
LINE
  5
4E
100
AcDbEntity
  8
LAYER0001
  6
CONTINUOUS
 62
       7
100
AcDbLine
 10
-136.50340313
 20
-111.06554257
 30
0.0
 11
-146.50340291
 21
-111.06554257
 31
0.0
  0
LINE
  5
4F
100
AcDbEntity
  8
LAYER0001
  6
CONTINUOUS
 62
       7
100
AcDbLine
 10
-138.00340337
 20
-114.86554252
 30
0.0
 11
-138.00340337
 21
-111.06554257
 31
0.0
  0
LINE
  5
50
100
AcDbEntity
  8
LAYER0001
  6
CONTINUOUS
 62
       7
100
AcDbLine
 10
-138.00340337
 20
-114.86554252
 30
0.0
 11
-145.00340359
 21
-114.86554252
 31
0.0
  0
LINE
  5
51
100
AcDbEntity
  8
LAYER0002
  6
CONTINUOUS
 62
       7
100
AcDbLine
 10
-183.74249624
 20
-110.3655426
 30
0.0
 11
-183.74249624
 21
-111.06554257
 31
0.0
  0
LINE
  5
52
100
AcDbEntity
  8
LAYER0002
  6
CONTINUOUS
 62
       7
100
AcDbLine
 10
-173.74249646
 20
-111.06554257
 30
0.0
 11
-173.74249646
 21
-110.3655426
 31
0.0
  0
LINE
  5
53
100
AcDbEntity
  8
LAYER0002
  6
CONTINUOUS
 62
       7
100
AcDbLine
 10
-130.12295127
 20
-84.86554319
 30
0.0
 11
-130.12295127
 21
40.63446341
 31
0.0
  0
LINE
  5
54
100
AcDbEntity
  8
LAYER0002
  6
CONTINUOUS
 62
       7
100
AcDbLine
 10
-190.12294994
 20
40.63446341
 30
0.0
 11
-190.12294994
 21
-84.86554319
 31
0.0
  0
LINE
  5
55
100
AcDbEntity
  8
LAYER0002
  6
CONTINUOUS
 62
       7
100
AcDbLine
 10
-180.74249761
 20
-109.36554255
 30
0.0
 11
-180.74249761
 21
-110.3655426
 31
0.0
  0
LINE
  5
56
100
AcDbEntity
  8
LAYER0002
  6
CONTINUOUS
 62
       7
100
AcDbLine
 10
-180.74249761
 20
-114.86554252
 30
0.0
 11
-180.74249761
 21
-119.86554241
 31
0.0
  0
LINE
  5
57
100
AcDbEntity
  8
LAYER0002
  6
CONTINUOUS
 62
       7
100
AcDbLine
 10
-176.74249695
 20
-119.86554241
 30
0.0
 11
-176.74249695
 21
-114.86554252
 31
0.0
  0
LINE
  5
58
100
AcDbEntity
  8
LAYER0002
  6
CONTINUOUS
 62
       7
100
AcDbLine
 10
-176.74249695
 20
-110.3655426
 30
0.0
 11
-176.74249695
 21
-109.36554255
 31
0.0
  0
LINE
  5
59
100
AcDbEntity
  8
LAYER0002
  6
CONTINUOUS
 62
       7
100
AcDbLine
 10
-143.50340427
 20
-109.36554255
 30
0.0
 11
-143.50340427
 21
-110.3655426
 31
0.0
  0
LINE
  5
5A
100
AcDbEntity
  8
LAYER0002
  6
CONTINUOUS
 62
       7
100
AcDbLine
 10
-139.50340362
 20
-110.3655426
 30
0.0
 11
-139.50340362
 21
-109.36554255
 31
0.0
  0
LINE
  5
5B
100
AcDbEntity
  8
LAYER0002
  6
CONTINUOUS
 62
       7
100
AcDbLine
 10
-162.12295071
 20
-109.36554255
 30
0.0
 11
-162.12295071
 21
-110.3655426
 31
0.0
  0
LINE
  5
5C
100
AcDbEntity
  8
LAYER0002
  6
CONTINUOUS
 62
       7
100
AcDbLine
 10
-158.12295052
 20
-110.3655426
 30
0.0
 11
-158.12295052
 21
-109.36554255
 31
0.0
  0
LINE
  5
5D
100
AcDbEntity
  8
LAYER0002
  6
CONTINUOUS
 62
       7
100
AcDbLine
 10
-130.12295127
 20
-109.36554255
 30
0.0
 11
-130.12295127
 21
-84.86554319
 31
0.0
  0
LINE
  5
5E
100
AcDbEntity
  8
LAYER0002
  6
CONTINUOUS
 62
       7
100
AcDbLine
 10
-190.12294994
 20
-84.86554319
 30
0.0
 11
-190.12294994
 21
-109.36554255
 31
0.0
  0
LINE
  5
5F
100
AcDbEntity
  8
LAYER0002
  6
CONTINUOUS
 62
       7
100
AcDbLine
 10
-130.12295128
 20
231.93446813
 30
0.0
 11
-190.12294994
 21
231.93446813
 31
0.0
  0
LINE
  5
60
100
AcDbEntity
  8
LAYER0002
  6
CONTINUOUS
 62
       7
100
AcDbLine
 10
-160.12295061
 20
135.9344524
 30
0.0
 11
-130.12295128
 21
135.9344524
 31
0.0
  0
LINE
  5
61
100
AcDbEntity
  8
LAYER0002
  6
CONTINUOUS
 62
       7
100
AcDbLine
 10
-190.12294994
 20
135.9344524
 30
0.0
 11
-160.12295061
 21
135.9344524
 31
0.0
  0
LINE
  5
62
100
AcDbEntity
  8
LAYER0002
  6
CONTINUOUS
 62
       7
100
AcDbLine
 10
-160.12295061
 20
166.63445054
 30
0.0
 11
-130.12295128
 21
166.63445054
 31
0.0
  0
LINE
  5
63
100
AcDbEntity
  8
LAYER0002
  6
CONTINUOUS
 62
       7
100
AcDbLine
 10
-190.12294994
 20
166.63445054
 30
0.0
 11
-160.12295061
 21
166.63445054
 31
0.0
  0
LINE
  5
64
100
AcDbEntity
  8
LAYER0002
  6
CONTINUOUS
 62
       7
100
AcDbLine
 10
-160.12295061
 20
199.93446289
 30
0.0
 11
-130.12295128
 21
199.93446289
 31
0.0
  0
LINE
  5
65
100
AcDbEntity
  8
LAYER0002
  6
CONTINUOUS
 62
       7
100
AcDbLine
 10
-190.12294994
 20
199.93446289
 30
0.0
 11
-160.12295061
 21
199.93446289
 31
0.0
  0
LINE
  5
66
100
AcDbEntity
  8
LAYER0002
  6
CONTINUOUS
 62
       7
100
AcDbLine
 10
-160.12295061
 20
230.63446103
 30
0.0
 11
-130.12295128
 21
230.63446103
 31
0.0
  0
LINE
  5
67
100
AcDbEntity
  8
LAYER0002
  6
CONTINUOUS
 62
       7
100
AcDbLine
 10
-190.12294994
 20
230.63446103
 30
0.0
 11
-160.12295061
 21
230.63446103
 31
0.0
  0
LINE
  5
68
100
AcDbEntity
  8
LAYER0002
  6
CONTINUOUS
 62
       7
100
AcDbLine
 10
-160.12295061
 20
102.63445495
 30
0.0
 11
-130.12295128
 21
102.63445495
 31
0.0
  0
LINE
  5
69
100
AcDbEntity
  8
LAYER0002
  6
CONTINUOUS
 62
       7
100
AcDbLine
 10
-190.12294994
 20
102.63445495
 30
0.0
 11
-160.12295061
 21
102.63445495
 31
0.0
  0
LINE
  5
6A
100
AcDbEntity
  8
LAYER0002
  6
CONTINUOUS
 62
       7
100
AcDbLine
 10
-160.12295061
 20
71.93445681
 30
0.0
 11
-130.12295128
 21
71.93445681
 31
0.0
  0
LINE
  5
6B
100
AcDbEntity
  8
LAYER0002
  6
CONTINUOUS
 62
       7
100
AcDbLine
 10
-190.12294994
 20
71.93445681
 30
0.0
 11
-160.12295061
 21
71.93445681
 31
0.0
  0
LINE
  5
6C
100
AcDbEntity
  8
LAYER0002
  6
CONTINUOUS
 62
       7
100
AcDbLine
 10
-160.12295061
 20
198.63445578
 30
0.0
 11
-130.12295128
 21
198.63445578
 31
0.0
  0
LINE
  5
6D
100
AcDbEntity
  8
LAYER0002
  6
CONTINUOUS
 62
       7
100
AcDbLine
 10
-190.12294994
 20
198.63445578
 30
0.0
 11
-160.12295061
 21
198.63445578
 31
0.0
  0
LINE
  5
6E
100
AcDbEntity
  8
LAYER0002
  6
CONTINUOUS
 62
       7
100
AcDbLine
 10
-160.12295061
 20
167.93445764
 30
0.0
 11
-130.12295128
 21
167.93445764
 31
0.0
  0
LINE
  5
6F
100
AcDbEntity
  8
LAYER0002
  6
CONTINUOUS
 62
       7
100
AcDbLine
 10
-190.12294994
 20
167.93445764
 30
0.0
 11
-160.12295061
 21
167.93445764
 31
0.0
  0
LINE
  5
70
100
AcDbEntity
  8
LAYER0002
  6
CONTINUOUS
 62
       7
100
AcDbLine
 10
-160.12295061
 20
134.63446019
 30
0.0
 11
-130.12295128
 21
134.63446019
 31
0.0
  0
LINE
  5
71
100
AcDbEntity
  8
LAYER0002
  6
CONTINUOUS
 62
       7
100
AcDbLine
 10
-190.12294994
 20
134.63446019
 30
0.0
 11
-160.12295061
 21
134.63446019
 31
0.0
  0
LINE
  5
72
100
AcDbEntity
  8
LAYER0002
  6
CONTINUOUS
 62
       7
100
AcDbLine
 10
-160.12295061
 20
103.93446205
 30
0.0
 11
-130.12295128
 21
103.93446205
 31
0.0
  0
LINE
  5
73
100
AcDbEntity
  8
LAYER0002
  6
CONTINUOUS
 62
       7
100
AcDbLine
 10
-190.12294994
 20
103.93446205
 30
0.0
 11
-160.12295061
 21
103.93446205
 31
0.0
  0
LINE
  5
74
100
AcDbEntity
  8
LAYER0002
  6
CONTINUOUS
 62
       7
100
AcDbLine
 10
-176.62893893
 20
58.38445841
 30
0.0
 11
-143.6169623
 21
58.38445841
 31
0.0
  0
LINE
  5
75
100
AcDbEntity
  8
LAYER0002
  6
CONTINUOUS
 62
       7
100
AcDbLine
 10
-178.06214006
 20
46.2344539
 30
0.0
 11
-178.06214006
 21
56.63445113
 31
0.0
  0
LINE
  5
76
100
AcDbEntity
  8
LAYER0002
  6
CONTINUOUS
 62
       7
100
AcDbLine
 10
-176.62893893
 20
44.48446153
 30
0.0
 11
-143.6169623
 21
44.48446153
 31
0.0
  0
LINE
  5
77
100
AcDbEntity
  8
LAYER0002
  6
CONTINUOUS
 62
       7
100
AcDbLine
 10
-142.18376116
 20
46.2344539
 30
0.0
 11
-142.18376116
 21
56.63445113
 31
0.0
  0
LINE
  5
78
100
AcDbEntity
  8
LAYER0002
  6
CONTINUOUS
 62
       7
100
AcDbLine
 10
-130.12295127
 20
40.63446341
 30
0.0
 11
-190.12294994
 21
40.63446341
 31
0.0
  0
LINE
  5
79
100
AcDbEntity
  8
LAYER0002
  6
CONTINUOUS
 62
       7
100
AcDbLine
 10
-130.12295128
 20
70.63446461
 30
0.0
 11
-190.12294994
 21
70.63446461
 31
0.0
  0
LINE
  5
7A
100
AcDbEntity
  8
LAYER0002
  6
CONTINUOUS
 62
       7
100
AcDbLine
 10
-173.74249646
 20
-110.3655426
 30
0.0
 11
-183.74249624
 21
-110.3655426
 31
0.0
  0
LINE
  5
7B
100
AcDbEntity
  8
LAYER0002
  6
CONTINUOUS
 62
       7
100
AcDbLine
 10
-173.74249646
 20
-111.06554257
 30
0.0
 11
-183.74249624
 21
-111.06554257
 31
0.0
  0
LINE
  5
7C
100
AcDbEntity
  8
LAYER0002
  6
CONTINUOUS
 62
       7
100
AcDbLine
 10
-178.74249728
 20
-114.55293525
 30
0.0
 11
-178.74249728
 21
-111.06554257
 31
0.0
  0
LINE
  5
7D
100
AcDbEntity
  8
LAYER0002
  6
CONTINUOUS
 62
       7
100
AcDbLine
 10
-175.2424967
 20
-114.86554252
 30
0.0
 11
-175.2424967
 21
-111.06554257
 31
0.0
  0
LINE
  5
7E
100
AcDbEntity
  8
LAYER0002
  6
CONTINUOUS
 62
       7
100
AcDbLine
 10
-182.24249692
 20
-114.86554252
 30
0.0
 11
-182.24249692
 21
-111.06554257
 31
0.0
  0
LINE
  5
7F
100
AcDbEntity
  8
LAYER0002
  6
CONTINUOUS
 62
       7
100
AcDbLine
 10
-175.2424967
 20
-114.86554252
 30
0.0
 11
-182.24249692
 21
-114.86554252
 31
0.0
  0
LINE
  5
80
100
AcDbEntity
  8
LAYER0002
  6
CONTINUOUS
 62
       7
100
AcDbLine
 10
-190.12294994
 20
-107.36554245
 30
0.0
 11
-130.12295128
 21
-107.36554245
 31
0.0
  0
LINE
  5
81
100
AcDbEntity
  8
LAYER0002
  6
CONTINUOUS
 62
       7
100
AcDbLine
 10
-190.12294994
 20
-109.36554255
 30
0.0
 11
-130.12295127
 21
-109.36554255
 31
0.0
  0
LINE
  5
82
100
AcDbEntity
  8
LAYER0002
  6
CONTINUOUS
 62
       7
100
AcDbLine
 10
-172.87295037
 20
-32.36554296
 30
0.0
 11
-172.87295037
 21
15.63445745
 31
0.0
  0
LINE
  5
83
100
AcDbEntity
  8
LAYER0002
  6
CONTINUOUS
 62
       7
100
AcDbLine
 10
-147.37295085
 20
15.63445745
 30
0.0
 11
-147.37295085
 21
-32.36554296
 31
0.0
  0
LINE
  5
84
100
AcDbEntity
  8
LAYER0002
  6
CONTINUOUS
 62
       7
100
AcDbLine
 10
-180.74249761
 20
-119.86554241
 30
0.0
 11
-176.74249695
 21
-119.86554241
 31
0.0
  0
LINE
  5
85
100
AcDbEntity
  8
LAYER0002
  6
CONTINUOUS
 62
       7
100
AcDbLine
 10
-190.12294994
 20
-84.86554319
 30
0.0
 11
-130.12295127
 21
-84.86554319
 31
0.0
  0
LINE
  5
86
100
AcDbEntity
  8
LAYER0002
  6
CONTINUOUS
 62
       7
100
AcDbLine
 10
-172.71737201
 20
-91.36554332
 30
0.0
 11
-147.52852922
 21
-91.36554332
 31
0.0
  0
LINE
  5
87
100
AcDbEntity
  8
LAYER0002
  6
CONTINUOUS
 62
       7
100
AcDbLine
 10
-174.07681519
 20
-92.36554162
 30
0.0
 11
-174.07681519
 21
-98.86554269
 31
0.0
  0
LINE
  5
88
100
AcDbEntity
  8
LAYER0002
  6
CONTINUOUS
 62
       7
100
AcDbLine
 10
-147.52852922
 20
-99.86554285
 30
0.0
 11
-172.71737201
 21
-99.86554285
 31
0.0
  0
LINE
  5
89
100
AcDbEntity
  8
LAYER0002
  6
CONTINUOUS
 62
       7
100
AcDbLine
 10
-146.16908604
 20
-92.36554162
 30
0.0
 11
-146.16908604
 21
-98.86554269
 31
0.0
  0
LINE
  5
8A
100
AcDbEntity
  8
LAYER0002
  6
CONTINUOUS
 62
       7
100
AcDbLine
 10
-173.3576777
 20
-94.91554288
 30
0.0
 11
-173.3576777
 21
-96.31554236
 31
0.0
  0
LINE
  5
8B
100
AcDbEntity
  8
LAYER0002
  6
CONTINUOUS
 62
       7
100
AcDbLine
 10
-146.88822353
 20
-94.91554288
 30
0.0
 11
-146.88822353
 21
-96.31554236
 31
0.0
  0
LINE
  5
8C
100
AcDbEntity
  8
LAYER0002
  6
CONTINUOUS
 62
       7
100
AcDbLine
 10
-173.3576777
 20
-96.31554236
 30
0.0
 11
-146.88822353
 21
-96.31554236
 31
0.0
  0
LINE
  5
8D
100
AcDbEntity
  8
LAYER0002
  6
CONTINUOUS
 62
       7
100
AcDbLine
 10
-173.3576777
 20
-94.91554288
 30
0.0
 11
-146.88822353
 21
-94.91554288
 31
0.0
  0
LINE
  5
8E
100
AcDbEntity
  8
LAYER0002
  6
CONTINUOUS
 62
       7
100
AcDbLine
 10
-151.62295015
 20
-99.86554285
 30
0.0
 11
-151.62295015
 21
-96.31554236
 31
0.0
  0
LINE
  5
8F
100
AcDbEntity
  8
LAYER0002
  6
CONTINUOUS
 62
       7
100
AcDbLine
 10
-151.62295015
 20
-94.91554288
 30
0.0
 11
-151.62295015
 21
-91.36554332
 31
0.0
  0
LINE
  5
90
100
AcDbEntity
  8
LAYER0002
  6
CONTINUOUS
 62
       7
100
AcDbLine
 10
-168.62295107
 20
-91.36554332
 30
0.0
 11
-168.62295107
 21
-94.91554288
 31
0.0
  0
LINE
  5
91
100
AcDbEntity
  8
LAYER0002
  6
CONTINUOUS
 62
       7
100
AcDbLine
 10
-168.62295107
 20
-96.31554236
 30
0.0
 11
-168.62295107
 21
-99.86554285
 31
0.0
  0
LINE
  5
92
100
AcDbEntity
  8
LAYER0002
  6
CONTINUOUS
 62
       7
100
AcDbLine
 10
67.06990674
 20
40.63446341
 30
0.0
 11
67.06990674
 21
238.78506484
 31
0.0
  0
LINE
  5
93
100
AcDbEntity
  8
LAYER0002
  6
CONTINUOUS
 62
       7
100
AcDbLine
 10
7.06990807
 20
238.78506484
 30
0.0
 11
7.06990807
 21
40.63446341
 31
0.0
  0
LINE
  5
94
100
AcDbEntity
  8
LAYER0002
  6
CONTINUOUS
 62
       7
100
AcDbLine
 10
7.45173584
 20
28.3844574
 30
0.0
 11
7.31990663
 21
28.3844574
 31
0.0
  0
LINE
  5
95
100
AcDbEntity
  8
LAYER0002
  6
CONTINUOUS
 62
       7
100
AcDbLine
 10
7.3199068
 20
-45.11554259
 30
0.0
 11
7.45173622
 21
-45.11554259
 31
0.0
  0
LINE
  5
96
100
AcDbEntity
  8
LAYER0002
  6
CONTINUOUS
 62
       7
100
AcDbLine
 10
5.66990859
 20
-43.24887426
 30
0.0
 11
6.9199074
 21
-44.91554255
 31
0.0
  0
LINE
  5
97
100
AcDbEntity
  8
LAYER0002
  6
CONTINUOUS
 62
       7
100
AcDbLine
 10
6.9199074
 20
28.18445745
 30
0.0
 11
5.66990859
 21
26.51778875
 31
0.0
  0
LINE
  5
98
100
AcDbEntity
  8
LAYER0002
  6
CONTINUOUS
 62
       7
100
AcDbLine
 10
67.06990674
 20
-84.86554319
 30
0.0
 11
67.06990674
 21
40.63446341
 31
0.0
  0
LINE
  5
99
100
AcDbEntity
  8
LAYER0002
  6
CONTINUOUS
 62
       7
100
AcDbLine
 10
7.06990807
 20
-46.40386732
 30
0.0
 11
7.06990807
 21
-84.86554319
 31
0.0
  0
LINE
  5
9A
100
AcDbEntity
  8
LAYER0002
  6
CONTINUOUS
 62
       7
100
AcDbLine
 10
7.06990807
 20
40.63446341
 30
0.0
 11
7.06990807
 21
29.67278181
 31
0.0
  0
LINE
  5
9B
100
AcDbEntity
  8
LAYER0002
  6
CONTINUOUS
 62
       7
100
AcDbLine
 10
56.5699078
 20
-109.36554255
 30
0.0
 11
56.5699078
 21
-119.86554241
 31
0.0
  0
LINE
  5
9C
100
AcDbEntity
  8
LAYER0002
  6
CONTINUOUS
 62
       7
100
AcDbLine
 10
60.5699066
 20
-119.86554241
 30
0.0
 11
60.5699066
 21
-109.36554255
 31
0.0
  0
LINE
  5
9D
100
AcDbEntity
  8
LAYER0002
  6
CONTINUOUS
 62
       7
100
AcDbLine
 10
24.31990764
 20
-109.36554255
 30
0.0
 11
24.31990764
 21
-119.86554241
 31
0.0
  0
LINE
  5
9E
100
AcDbEntity
  8
LAYER0002
  6
CONTINUOUS
 62
       7
100
AcDbLine
 10
28.31990737
 20
-119.86554241
 30
0.0
 11
28.31990737
 21
-109.36554255
 31
0.0
  0
LINE
  5
9F
100
AcDbEntity
  8
LAYER0002
  6
CONTINUOUS
 62
       7
100
AcDbLine
 10
67.06990674
 20
-109.36554255
 30
0.0
 11
67.06990674
 21
-84.86554319
 31
0.0
  0
LINE
  5
A0
100
AcDbEntity
  8
LAYER0002
  6
CONTINUOUS
 62
       7
100
AcDbLine
 10
7.06990807
 20
-99.86554285
 30
0.0
 11
7.06990807
 21
-109.36554255
 31
0.0
  0
LINE
  5
A1
100
AcDbEntity
  8
LAYER0002
  6
CONTINUOUS
 62
       7
100
AcDbLine
 10
7.06990807
 20
-84.86554319
 30
0.0
 11
7.06990807
 21
-91.36554332
 31
0.0
  0
LINE
  5
A2
100
AcDbEntity
  8
LAYER0002
  6
CONTINUOUS
 62
       7
100
AcDbLine
 10
7.56990722
 20
-94.91554288
 30
0.0
 11
7.56990722
 21
-96.31554236
 31
0.0
  0
LINE
  5
A3
100
AcDbEntity
  8
LAYER0002
  6
CONTINUOUS
 62
       7
100
AcDbLine
 10
9.95253026
 20
-91.36554332
 30
0.0
 11
9.95253026
 21
-94.91554288
 31
0.0
  0
LINE
  5
A4
100
AcDbEntity
  8
LAYER0002
  6
CONTINUOUS
 62
       7
100
AcDbLine
 10
9.95253026
 20
-96.31554236
 30
0.0
 11
9.95253026
 21
-99.86554285
 31
0.0
  0
LINE
  5
A5
100
AcDbEntity
  8
LAYER0002
  6
CONTINUOUS
 62
       7
100
AcDbLine
 10
67.06990673
 20
231.93446813
 30
0.0
 11
7.06990807
 21
231.93446813
 31
0.0
  0
LINE
  5
A6
100
AcDbEntity
  8
LAYER0002
  6
CONTINUOUS
 62
       7
100
AcDbLine
 10
7.06990807
 20
103.93446205
 30
0.0
 11
67.06990673
 21
103.93446205
 31
0.0
  0
LINE
  5
A7
100
AcDbEntity
  8
LAYER0002
  6
CONTINUOUS
 62
       7
100
AcDbLine
 10
7.06990807
 20
134.63446019
 30
0.0
 11
67.06990673
 21
134.63446019
 31
0.0
  0
LINE
  5
A8
100
AcDbEntity
  8
LAYER0002
  6
CONTINUOUS
 62
       7
100
AcDbLine
 10
7.06990807
 20
71.93445681
 30
0.0
 11
67.06990673
 21
71.93445681
 31
0.0
  0
LINE
  5
A9
100
AcDbEntity
  8
LAYER0002
  6
CONTINUOUS
 62
       7
100
AcDbLine
 10
7.06990807
 20
102.63445495
 30
0.0
 11
67.06990673
 21
102.63445495
 31
0.0
  0
LINE
  5
AA
100
AcDbEntity
  8
LAYER0002
  6
CONTINUOUS
 62
       7
100
AcDbLine
 10
7.06990807
 20
135.9344524
 30
0.0
 11
67.06990673
 21
135.9344524
 31
0.0
  0
LINE
  5
AB
100
AcDbEntity
  8
LAYER0002
  6
CONTINUOUS
 62
       7
100
AcDbLine
 10
7.06990807
 20
166.63445054
 30
0.0
 11
67.06990673
 21
166.63445054
 31
0.0
  0
LINE
  5
AC
100
AcDbEntity
  8
LAYER0002
  6
CONTINUOUS
 62
       7
100
AcDbLine
 10
7.06990807
 20
198.63445578
 30
0.0
 11
67.06990673
 21
198.63445578
 31
0.0
  0
LINE
  5
AD
100
AcDbEntity
  8
LAYER0002
  6
CONTINUOUS
 62
       7
100
AcDbLine
 10
7.06990807
 20
167.93445764
 30
0.0
 11
67.06990673
 21
167.93445764
 31
0.0
  0
LINE
  5
AE
100
AcDbEntity
  8
LAYER0002
  6
CONTINUOUS
 62
       7
100
AcDbLine
 10
7.06990807
 20
199.93446289
 30
0.0
 11
67.06990673
 21
199.93446289
 31
0.0
  0
LINE
  5
AF
100
AcDbEntity
  8
LAYER0002
  6
CONTINUOUS
 62
       7
100
AcDbLine
 10
7.06990807
 20
230.63446103
 30
0.0
 11
67.06990673
 21
230.63446103
 31
0.0
  0
LINE
  5
B0
100
AcDbEntity
  8
LAYER0002
  6
CONTINUOUS
 62
       7
100
AcDbLine
 10
7.06990807
 20
58.38445841
 30
0.0
 11
12.01891153
 21
58.38445841
 31
0.0
  0
LINE
  5
B1
100
AcDbEntity
  8
LAYER0002
  6
CONTINUOUS
 62
       7
100
AcDbLine
 10
7.06990807
 20
44.48446153
 30
0.0
 11
12.01891153
 21
44.48446153
 31
0.0
  0
LINE
  5
B2
100
AcDbEntity
  8
LAYER0002
  6
CONTINUOUS
 62
       7
100
AcDbLine
 10
13.02441954
 20
46.2344539
 30
0.0
 11
13.02441954
 21
56.63445113
 31
0.0
  0
LINE
  5
B3
100
AcDbEntity
  8
LAYER0002
  6
CONTINUOUS
 62
       7
100
AcDbLine
 10
67.06990674
 20
40.63446341
 30
0.0
 11
7.06990807
 21
40.63446341
 31
0.0
  0
LINE
  5
B4
100
AcDbEntity
  8
LAYER0002
  6
CONTINUOUS
 62
       7
100
AcDbLine
 10
67.06990673
 20
70.63446461
 30
0.0
 11
7.06990807
 21
70.63446461
 31
0.0
  0
LINE
  5
B5
100
AcDbEntity
  8
LAYER0002
  6
CONTINUOUS
 62
       7
100
AcDbLine
 10
7.06990807
 20
-109.36554255
 30
0.0
 11
67.06990674
 21
-109.36554255
 31
0.0
  0
LINE
  5
B6
100
AcDbEntity
  8
LAYER0002
  6
CONTINUOUS
 62
       7
100
AcDbLine
 10
7.06990807
 20
-107.36554245
 30
0.0
 11
67.06990673
 21
-107.36554245
 31
0.0
  0
LINE
  5
B7
100
AcDbEntity
  8
LAYER0002
  6
CONTINUOUS
 62
       7
100
AcDbLine
 10
5.5699069
 20
-43.11553842
 30
0.0
 11
5.5699069
 21
26.38445287
 31
0.0
  0
LINE
  5
B8
100
AcDbEntity
  8
LAYER0002
  6
CONTINUOUS
 62
       7
100
AcDbLine
 10
10.03289594
 20
19.67536925
 30
0.0
 11
10.03289594
 21
-36.40646221
 31
0.0
  0
LINE
  5
B9
100
AcDbEntity
  8
LAYER0002
  6
CONTINUOUS
 62
       7
100
AcDbLine
 10
56.5699078
 20
-119.86554241
 30
0.0
 11
60.5699066
 21
-119.86554241
 31
0.0
  0
LINE
  5
BA
100
AcDbEntity
  8
LAYER0002
  6
CONTINUOUS
 62
       7
100
AcDbLine
 10
24.31990764
 20
-119.86554241
 30
0.0
 11
28.31990737
 21
-119.86554241
 31
0.0
  0
LINE
  5
BB
100
AcDbEntity
  8
LAYER0002
  6
CONTINUOUS
 62
       7
100
AcDbLine
 10
7.06990807
 20
-91.36554332
 30
0.0
 11
9.84160229
 21
-91.36554332
 31
0.0
  0
LINE
  5
BC
100
AcDbEntity
  8
LAYER0002
  6
CONTINUOUS
 62
       7
100
AcDbLine
 10
9.84160229
 20
-99.86554285
 30
0.0
 11
7.06990807
 21
-99.86554285
 31
0.0
  0
LINE
  5
BD
100
AcDbEntity
  8
LAYER0002
  6
CONTINUOUS
 62
       7
100
AcDbLine
 10
10.51261648
 20
-92.36554162
 30
0.0
 11
10.51261648
 21
-98.86554269
 31
0.0
  0
LINE
  5
BE
100
AcDbEntity
  8
LAYER0002
  6
CONTINUOUS
 62
       7
100
AcDbLine
 10
7.06990807
 20
-84.86554319
 30
0.0
 11
67.06990674
 21
-84.86554319
 31
0.0
  0
LINE
  5
BF
100
AcDbEntity
  8
LAYER0002
  6
CONTINUOUS
 62
       7
100
AcDbLine
 10
7.56990722
 20
-96.31554236
 30
0.0
 11
10.51261648
 21
-96.31554236
 31
0.0
  0
LINE
  5
C0
100
AcDbEntity
  8
LAYER0002
  6
CONTINUOUS
 62
       7
100
AcDbLine
 10
7.56990722
 20
-94.91554288
 30
0.0
 11
10.51261648
 21
-94.91554288
 31
0.0
  0
LINE
  5
C1
100
AcDbEntity
  8
LAYER0002
  6
CONTINUOUS
 62
       7
100
AcDbLine
 10
-172.87295037
 20
-193.01173234
 30
0.0
 11
-172.87295037
 21
-195.60593323
 31
0.0
  0
LINE
  5
C2
100
AcDbEntity
  8
LAYER0002
  6
CONTINUOUS
 62
       7
100
AcDbLine
 10
-147.37294952
 20
-193.01173235
 30
0.0
 11
-147.37294952
 21
-195.60593324
 31
0.0
  0
LINE
  5
C3
100
AcDbEntity
  8
LAYER0002
  6
CONTINUOUS
 62
       7
100
AcDbLine
 10
-147.57294948
 20
-192.61173312
 30
0.0
 11
-149.23961632
 21
-191.36173431
 31
0.0
  0
LINE
  5
C4
100
AcDbEntity
  8
LAYER0002
  6
CONTINUOUS
 62
       7
100
AcDbLine
 10
-171.00628358
 20
-191.36173431
 30
0.0
 11
-172.67295042
 21
-192.61173312
 31
0.0
  0
LINE
  5
C5
100
AcDbEntity
  8
LAYER0002
  6
CONTINUOUS
 62
       7
100
AcDbLine
 10
-170.70628362
 20
-191.26173402
 30
0.0
 11
-149.53961628
 21
-191.26173402
 31
0.0
  0
LINE
  5
C6
100
AcDbEntity
  8
LAYER0002
  6
CONTINUOUS
 62
       7
100
AcDbLine
 10
-161.62295062
 20
52.18445776
 30
0.0
 11
-158.6229506
 21
52.18445776
 31
0.0
  0
LINE
  5
C7
100
AcDbEntity
  8
LAYER0002
  6
CONTINUOUS
 62
       7
100
AcDbLine
 10
-161.62295062
 20
50.68446217
 30
0.0
 11
-158.6229506
 21
50.68446217
 31
0.0
  0
LINE
  5
C8
100
AcDbEntity
  8
LAYER0002
  6
CONTINUOUS
 62
       7
100
AcDbLine
 10
-161.62295062
 20
50.68446217
 30
0.0
 11
-161.62295062
 21
52.18445776
 31
0.0
  0
LINE
  5
C9
100
AcDbEntity
  8
LAYER0002
  6
CONTINUOUS
 62
       7
100
AcDbLine
 10
-158.6229506
 20
50.68446217
 30
0.0
 11
-158.6229506
 21
52.18445776
 31
0.0
  0
LINE
  5
CA
100
AcDbEntity
  8
LAYER0002
  6
CONTINUOUS
 62
       7
100
AcDbLine
 10
-154.65765265
 20
50.68446217
 30
0.0
 11
-157.63095189
 21
50.68446217
 31
0.0
  0
LINE
  5
CB
100
AcDbEntity
  8
LAYER0002
  6
CONTINUOUS
 62
       7
100
AcDbLine
 10
-157.63761644
 20
50.68446217
 30
0.0
 11
-154.6643172
 21
50.68446217
 31
0.0
  0
LINE
  5
CC
100
AcDbEntity
  8
LAYER0002
  6
CONTINUOUS
 62
       7
100
AcDbLine
 10
-162.60828479
 20
52.18445776
 30
0.0
 11
-165.58158403
 21
52.18445776
 31
0.0
  0
LINE
  5
CD
100
AcDbEntity
  8
LAYER0002
  6
CONTINUOUS
 62
       7
100
AcDbLine
 10
-157.63761644
 20
50.68446217
 30
0.0
 11
-157.63761644
 21
52.18445776
 31
0.0
  0
LINE
  5
CE
100
AcDbEntity
  8
LAYER0002
  6
CONTINUOUS
 62
       7
100
AcDbLine
 10
-165.58824857
 20
52.18445776
 30
0.0
 11
-162.61494933
 21
52.18445776
 31
0.0
  0
LINE
  5
CF
100
AcDbEntity
  8
LAYER0002
  6
CONTINUOUS
 62
       7
100
AcDbLine
 10
-154.65765265
 20
52.18445776
 30
0.0
 11
-157.63095189
 21
52.18445776
 31
0.0
  0
LINE
  5
D0
100
AcDbEntity
  8
LAYER0002
  6
CONTINUOUS
 62
       7
100
AcDbLine
 10
-157.63761644
 20
52.18445776
 30
0.0
 11
-154.6643172
 21
52.18445776
 31
0.0
  0
LINE
  5
D1
100
AcDbEntity
  8
LAYER0002
  6
CONTINUOUS
 62
       7
100
AcDbLine
 10
-165.58824857
 20
50.68446217
 30
0.0
 11
-162.61494933
 21
50.68446217
 31
0.0
  0
LINE
  5
D2
100
AcDbEntity
  8
LAYER0002
  6
CONTINUOUS
 62
       7
100
AcDbLine
 10
-162.60828479
 20
50.68446217
 30
0.0
 11
-165.58158403
 21
50.68446217
 31
0.0
  0
LINE
  5
D3
100
AcDbEntity
  8
LAYER0002
  6
CONTINUOUS
 62
       7
100
AcDbLine
 10
-162.60828479
 20
50.68446217
 30
0.0
 11
-162.60828479
 21
52.18445776
 31
0.0
  0
LINE
  5
D4
100
AcDbEntity
  8
LAYER0002
  6
CONTINUOUS
 62
       7
100
AcDbLine
 10
-154.6643172
 20
50.68446217
 30
0.0
 11
-154.6643172
 21
52.18445776
 31
0.0
  0
LINE
  5
D5
100
AcDbEntity
  8
LAYER0002
  6
CONTINUOUS
 62
       7
100
AcDbLine
 10
-165.58824857
 20
50.68446217
 30
0.0
 11
-165.58824857
 21
52.18445776
 31
0.0
  0
LINE
  5
D6
100
AcDbEntity
  8
LAYER0002
  6
CONTINUOUS
 62
       7
100
AcDbLine
 10
-166.54937906
 20
50.68446217
 30
0.0
 11
-169.44305138
 21
50.68446217
 31
0.0
  0
LINE
  5
D7
100
AcDbEntity
  8
LAYER0002
  6
CONTINUOUS
 62
       7
100
AcDbLine
 10
-169.45626126
 20
50.68446217
 30
0.0
 11
-166.5625894
 21
50.68446217
 31
0.0
  0
LINE
  5
D8
100
AcDbEntity
  8
LAYER0002
  6
CONTINUOUS
 62
       7
100
AcDbLine
 10
-166.54937906
 20
50.68446217
 30
0.0
 11
-166.54937906
 21
52.18445776
 31
0.0
  0
LINE
  5
D9
100
AcDbEntity
  8
LAYER0002
  6
CONTINUOUS
 62
       7
100
AcDbLine
 10
-169.45626126
 20
52.18445776
 30
0.0
 11
-166.5625894
 21
52.18445776
 31
0.0
  0
LINE
  5
DA
100
AcDbEntity
  8
LAYER0002
  6
CONTINUOUS
 62
       7
100
AcDbLine
 10
-166.54937906
 20
52.18445776
 30
0.0
 11
-169.44305138
 21
52.18445776
 31
0.0
  0
LINE
  5
DB
100
AcDbEntity
  8
LAYER0002
  6
CONTINUOUS
 62
       7
100
AcDbLine
 10
-153.69652217
 20
52.18445776
 30
0.0
 11
-150.80284984
 21
52.18445776
 31
0.0
  0
LINE
  5
DC
100
AcDbEntity
  8
LAYER0002
  6
CONTINUOUS
 62
       7
100
AcDbLine
 10
-153.69652217
 20
50.68446217
 30
0.0
 11
-150.80284984
 21
50.68446217
 31
0.0
  0
LINE
  5
DD
100
AcDbEntity
  8
LAYER0002
  6
CONTINUOUS
 62
       7
100
AcDbLine
 10
-150.78963996
 20
50.68446217
 30
0.0
 11
-153.68331182
 21
50.68446217
 31
0.0
  0
LINE
  5
DE
100
AcDbEntity
  8
LAYER0002
  6
CONTINUOUS
 62
       7
100
AcDbLine
 10
-150.78963996
 20
52.18445776
 30
0.0
 11
-153.68331182
 21
52.18445776
 31
0.0
  0
LINE
  5
DF
100
AcDbEntity
  8
LAYER0002
  6
CONTINUOUS
 62
       7
100
AcDbLine
 10
-153.69652217
 20
50.68446217
 30
0.0
 11
-153.69652217
 21
52.18445776
 31
0.0
  0
LINE
  5
E0
100
AcDbEntity
  8
LAYER0002
  6
CONTINUOUS
 62
       7
100
AcDbLine
 10
-169.45626126
 20
50.68446217
 30
0.0
 11
-169.45626126
 21
52.18445776
 31
0.0
  0
LINE
  5
E1
100
AcDbEntity
  8
LAYER0002
  6
CONTINUOUS
 62
       7
100
AcDbLine
 10
-150.78963996
 20
50.68446217
 30
0.0
 11
-150.78963996
 21
52.18445776
 31
0.0
  0
LINE
  5
E2
100
AcDbEntity
  8
LAYER0002
  6
CONTINUOUS
 62
       7
100
AcDbLine
 10
-149.86982202
 20
52.18445776
 30
0.0
 11
-147.1072855
 21
52.18445776
 31
0.0
  0
LINE
  5
E3
100
AcDbEntity
  8
LAYER0002
  6
CONTINUOUS
 62
       7
100
AcDbLine
 10
-170.37607921
 20
50.68446217
 30
0.0
 11
-173.13861573
 21
50.68446217
 31
0.0
  0
LINE
  5
E4
100
AcDbEntity
  8
LAYER0002
  6
CONTINUOUS
 62
       7
100
AcDbLine
 10
-149.86982202
 20
50.68446217
 30
0.0
 11
-147.1072855
 21
50.68446217
 31
0.0
  0
LINE
  5
E5
100
AcDbEntity
  8
LAYER0002
  6
CONTINUOUS
 62
       7
100
AcDbLine
 10
-170.37607921
 20
52.18445776
 30
0.0
 11
-173.13861573
 21
52.18445776
 31
0.0
  0
LINE
  5
E6
100
AcDbEntity
  8
LAYER0002
  6
CONTINUOUS
 62
       7
100
AcDbLine
 10
-170.37607921
 20
50.68446217
 30
0.0
 11
-170.37607921
 21
52.18445776
 31
0.0
  0
LINE
  5
E7
100
AcDbEntity
  8
LAYER0002
  6
CONTINUOUS
 62
       7
100
AcDbLine
 10
-147.08776405
 20
50.68446217
 30
0.0
 11
-149.85030056
 21
50.68446217
 31
0.0
  0
LINE
  5
E8
100
AcDbEntity
  8
LAYER0002
  6
CONTINUOUS
 62
       7
100
AcDbLine
 10
-147.08776405
 20
52.18445776
 30
0.0
 11
-149.85030056
 21
52.18445776
 31
0.0
  0
LINE
  5
E9
100
AcDbEntity
  8
LAYER0002
  6
CONTINUOUS
 62
       7
100
AcDbLine
 10
-173.15813718
 20
52.18445776
 30
0.0
 11
-170.39560066
 21
52.18445776
 31
0.0
  0
LINE
  5
EA
100
AcDbEntity
  8
LAYER0002
  6
CONTINUOUS
 62
       7
100
AcDbLine
 10
-173.15813718
 20
50.68446217
 30
0.0
 11
-170.39560066
 21
50.68446217
 31
0.0
  0
LINE
  5
EB
100
AcDbEntity
  8
LAYER0002
  6
CONTINUOUS
 62
       7
100
AcDbLine
 10
-149.86982202
 20
50.68446217
 30
0.0
 11
-149.86982202
 21
52.18445776
 31
0.0
  0
LINE
  5
EC
100
AcDbEntity
  8
LAYER0002
  6
CONTINUOUS
 62
       7
100
AcDbLine
 10
-173.15813718
 20
50.68446217
 30
0.0
 11
-173.15813718
 21
52.18445776
 31
0.0
  0
LINE
  5
ED
100
AcDbEntity
  8
LAYER0002
  6
CONTINUOUS
 62
       7
100
AcDbLine
 10
-147.08776405
 20
50.68446217
 30
0.0
 11
-147.08776405
 21
52.18445776
 31
0.0
  0
LINE
  5
EE
100
AcDbEntity
  8
LAYER0002
  6
CONTINUOUS
 62
       7
100
AcDbLine
 10
-190.12294994
 20
238.78506484
 30
0.0
 11
-190.12294994
 21
40.63446341
 31
0.0
  0
LINE
  5
EF
100
AcDbEntity
  8
LAYER0002
  6
CONTINUOUS
 62
       7
100
AcDbLine
 10
-130.12295127
 20
238.78506484
 30
0.0
 11
-130.12295127
 21
40.63446341
 31
0.0
  0
LINE
  5
F0
100
AcDbEntity
  8
LAYER0002
  6
CONTINUOUS
 62
       7
100
AcDbLine
 10
-143.6169623
 20
58.38445841
 30
0.0
 11
-143.5597898
 21
58.37765766
 31
0.0
  0
LINE
  5
F1
100
AcDbEntity
  8
LAYER0002
  6
CONTINUOUS
 62
       7
100
AcDbLine
 10
-143.5597898
 20
58.37765766
 30
0.0
 11
-143.50271518
 21
58.37047203
 31
0.0
  0
LINE
  5
F2
100
AcDbEntity
  8
LAYER0002
  6
CONTINUOUS
 62
       7
100
AcDbLine
 10
-143.50271518
 20
58.37047203
 30
0.0
 11
-143.44583632
 21
58.36251665
 31
0.0
  0
LINE
  5
F3
100
AcDbEntity
  8
LAYER0002
  6
CONTINUOUS
 62
       7
100
AcDbLine
 10
-143.44583632
 20
58.36251665
 30
0.0
 11
-143.38925109
 21
58.35340663
 31
0.0
  0
LINE
  5
F4
100
AcDbEntity
  8
LAYER0002
  6
CONTINUOUS
 62
       7
100
AcDbLine
 10
-143.38925109
 20
58.35340663
 30
0.0
 11
-143.33305738
 21
58.3427571
 31
0.0
  0
LINE
  5
F5
100
AcDbEntity
  8
LAYER0002
  6
CONTINUOUS
 62
       7
100
AcDbLine
 10
-143.33305738
 20
58.3427571
 30
0.0
 11
-143.27735306
 21
58.33018317
 31
0.0
  0
LINE
  5
F6
100
AcDbEntity
  8
LAYER0002
  6
CONTINUOUS
 62
       7
100
AcDbLine
 10
-143.27735306
 20
58.33018317
 30
0.0
 11
-143.22223602
 21
58.31529997
 31
0.0
  0
LINE
  5
F7
100
AcDbEntity
  8
LAYER0002
  6
CONTINUOUS
 62
       7
100
AcDbLine
 10
-143.22223602
 20
58.31529997
 30
0.0
 11
-143.16780413
 21
58.29772262
 31
0.0
  0
LINE
  5
F8
100
AcDbEntity
  8
LAYER0002
  6
CONTINUOUS
 62
       7
100
AcDbLine
 10
-143.16780413
 20
58.29772262
 30
0.0
 11
-143.11415498
 21
58.27707279
 31
0.0
  0
LINE
  5
F9
100
AcDbEntity
  8
LAYER0002
  6
CONTINUOUS
 62
       7
100
AcDbLine
 10
-143.11415498
 20
58.27707279
 30
0.0
 11
-143.06137581
 21
58.25320378
 31
0.0
  0
LINE
  5
FA
100
AcDbEntity
  8
LAYER0002
  6
CONTINUOUS
 62
       7
100
AcDbLine
 10
-143.06137581
 20
58.25320378
 30
0.0
 11
-143.009541
 21
58.2262571
 31
0.0
  0
LINE
  5
FB
100
AcDbEntity
  8
LAYER0002
  6
CONTINUOUS
 62
       7
100
AcDbLine
 10
-143.009541
 20
58.2262571
 30
0.0
 11
-142.95872414
 21
58.19639229
 31
0.0
  0
LINE
  5
FC
100
AcDbEntity
  8
LAYER0002
  6
CONTINUOUS
 62
       7
100
AcDbLine
 10
-142.95872414
 20
58.19639229
 30
0.0
 11
-142.90899878
 21
58.16376889
 31
0.0
  0
LINE
  5
FD
100
AcDbEntity
  8
LAYER0002
  6
CONTINUOUS
 62
       7
100
AcDbLine
 10
-142.90899878
 20
58.16376889
 30
0.0
 11
-142.86043852
 21
58.12854645
 31
0.0
  0
LINE
  5
FE
100
AcDbEntity
  8
LAYER0002
  6
CONTINUOUS
 62
       7
100
AcDbLine
 10
-142.86043852
 20
58.12854645
 30
0.0
 11
-142.81311692
 21
58.09088453
 31
0.0
  0
LINE
  5
FF
100
AcDbEntity
  8
LAYER0002
  6
CONTINUOUS
 62
       7
100
AcDbLine
 10
-142.81311692
 20
58.09088453
 30
0.0
 11
-142.76710756
 21
58.05094265
 31
0.0
  0
LINE
  5
100
100
AcDbEntity
  8
LAYER0002
  6
CONTINUOUS
 62
       7
100
AcDbLine
 10
-142.76710756
 20
58.05094265
 30
0.0
 11
-142.72248401
 21
58.00888037
 31
0.0
  0
LINE
  5
101
100
AcDbEntity
  8
LAYER0002
  6
CONTINUOUS
 62
       7
100
AcDbLine
 10
-142.72248401
 20
58.00888037
 30
0.0
 11
-142.67931609
 21
57.96484662
 31
0.0
  0
LINE
  5
102
100
AcDbEntity
  8
LAYER0002
  6
CONTINUOUS
 62
       7
100
AcDbLine
 10
-142.67931609
 20
57.96484662
 30
0.0
 11
-142.63764859
 21
57.91891957
 31
0.0
  0
LINE
  5
103
100
AcDbEntity
  8
LAYER0002
  6
CONTINUOUS
 62
       7
100
AcDbLine
 10
-142.63764859
 20
57.91891957
 30
0.0
 11
-142.59751603
 21
57.87114844
 31
0.0
  0
LINE
  5
104
100
AcDbEntity
  8
LAYER0002
  6
CONTINUOUS
 62
       7
100
AcDbLine
 10
-142.59751603
 20
57.87114844
 30
0.0
 11
-142.55895292
 21
57.82158238
 31
0.0
  0
LINE
  5
105
100
AcDbEntity
  8
LAYER0002
  6
CONTINUOUS
 62
       7
100
AcDbLine
 10
-142.55895292
 20
57.82158238
 30
0.0
 11
-142.52199378
 21
57.7702705
 31
0.0
  0
LINE
  5
106
100
AcDbEntity
  8
LAYER0002
  6
CONTINUOUS
 62
       7
100
AcDbLine
 10
-142.52199378
 20
57.7702705
 30
0.0
 11
-142.4866731
 21
57.71726197
 31
0.0
  0
LINE
  5
107
100
AcDbEntity
  8
LAYER0002
  6
CONTINUOUS
 62
       7
100
AcDbLine
 10
-142.4866731
 20
57.71726197
 30
0.0
 11
-142.45302539
 21
57.66260589
 31
0.0
  0
LINE
  5
108
100
AcDbEntity
  8
LAYER0002
  6
CONTINUOUS
 62
       7
100
AcDbLine
 10
-142.45302539
 20
57.66260589
 30
0.0
 11
-142.42108516
 21
57.60635143
 31
0.0
  0
LINE
  5
109
100
AcDbEntity
  8
LAYER0002
  6
CONTINUOUS
 62
       7
100
AcDbLine
 10
-142.42108516
 20
57.60635143
 30
0.0
 11
-142.39088708
 21
57.54854788
 31
0.0
  0
LINE
  5
10A
100
AcDbEntity
  8
LAYER0002
  6
CONTINUOUS
 62
       7
100
AcDbLine
 10
-142.39088708
 20
57.54854788
 30
0.0
 11
-142.3624859
 21
57.48926493
 31
0.0
  0
LINE
  5
10B
100
AcDbEntity
  8
LAYER0002
  6
CONTINUOUS
 62
       7
100
AcDbLine
 10
-142.3624859
 20
57.48926493
 30
0.0
 11
-142.33597469
 21
57.4286112
 31
0.0
  0
LINE
  5
10C
100
AcDbEntity
  8
LAYER0002
  6
CONTINUOUS
 62
       7
100
AcDbLine
 10
-142.33597469
 20
57.4286112
 30
0.0
 11
-142.31145082
 21
57.36669969
 31
0.0
  0
LINE
  5
10D
100
AcDbEntity
  8
LAYER0002
  6
CONTINUOUS
 62
       7
100
AcDbLine
 10
-142.31145082
 20
57.36669969
 30
0.0
 11
-142.28901171
 21
57.30364341
 31
0.0
  0
LINE
  5
10E
100
AcDbEntity
  8
LAYER0002
  6
CONTINUOUS
 62
       7
100
AcDbLine
 10
-142.28901171
 20
57.30364341
 30
0.0
 11
-142.26875474
 21
57.23955535
 31
0.0
  0
LINE
  5
10F
100
AcDbEntity
  8
LAYER0002
  6
CONTINUOUS
 62
       7
100
AcDbLine
 10
-142.26875474
 20
57.23955535
 30
0.0
 11
-142.25077729
 21
57.17454853
 31
0.0
  0
LINE
  5
110
100
AcDbEntity
  8
LAYER0002
  6
CONTINUOUS
 62
       7
100
AcDbLine
 10
-142.25077729
 20
57.17454853
 30
0.0
 11
-142.23517677
 21
57.10873594
 31
0.0
  0
LINE
  5
111
100
AcDbEntity
  8
LAYER0002
  6
CONTINUOUS
 62
       7
100
AcDbLine
 10
-142.23517677
 20
57.10873594
 30
0.0
 11
-142.22205056
 21
57.0422306
 31
0.0
  0
LINE
  5
112
100
AcDbEntity
  8
LAYER0002
  6
CONTINUOUS
 62
       7
100
AcDbLine
 10
-142.22205056
 20
57.0422306
 30
0.0
 11
-142.21146742
 21
56.97514461
 31
0.0
  0
LINE
  5
113
100
AcDbEntity
  8
LAYER0002
  6
CONTINUOUS
 62
       7
100
AcDbLine
 10
-142.21146742
 20
56.97514461
 30
0.0
 11
-142.20317432
 21
56.90758006
 31
0.0
  0
LINE
  5
114
100
AcDbEntity
  8
LAYER0002
  6
CONTINUOUS
 62
       7
100
AcDbLine
 10
-142.20317432
 20
56.90758006
 30
0.0
 11
-142.19671579
 21
56.83963275
 31
0.0
  0
LINE
  5
115
100
AcDbEntity
  8
LAYER0002
  6
CONTINUOUS
 62
       7
100
AcDbLine
 10
-142.19671579
 20
56.83963275
 30
0.0
 11
-142.19163318
 21
56.77139836
 31
0.0
  0
LINE
  5
116
100
AcDbEntity
  8
LAYER0002
  6
CONTINUOUS
 62
       7
100
AcDbLine
 10
-142.19163318
 20
56.77139836
 30
0.0
 11
-142.18746785
 21
56.70297259
 31
0.0
  0
LINE
  5
117
100
AcDbEntity
  8
LAYER0002
  6
CONTINUOUS
 62
       7
100
AcDbLine
 10
-142.18746785
 20
56.70297259
 30
0.0
 11
-142.18376116
 21
56.63445113
 31
0.0
  0
LINE
  5
118
100
AcDbEntity
  8
LAYER0002
  6
CONTINUOUS
 62
       7
100
AcDbLine
 10
-178.06214006
 20
56.63445113
 30
0.0
 11
-178.05667646
 21
56.70318613
 31
0.0
  0
LINE
  5
119
100
AcDbEntity
  8
LAYER0002
  6
CONTINUOUS
 62
       7
100
AcDbLine
 10
-178.05667646
 20
56.70318613
 30
0.0
 11
-178.05090271
 21
56.77181713
 31
0.0
  0
LINE
  5
11A
100
AcDbEntity
  8
LAYER0002
  6
CONTINUOUS
 62
       7
100
AcDbLine
 10
-178.05090271
 20
56.77181713
 30
0.0
 11
-178.04450868
 21
56.84024015
 31
0.0
  0
LINE
  5
11B
100
AcDbEntity
  8
LAYER0002
  6
CONTINUOUS
 62
       7
100
AcDbLine
 10
-178.04450868
 20
56.84024015
 30
0.0
 11
-178.03718423
 21
56.90835119
 31
0.0
  0
LINE
  5
11C
100
AcDbEntity
  8
LAYER0002
  6
CONTINUOUS
 62
       7
100
AcDbLine
 10
-178.03718423
 20
56.90835119
 30
0.0
 11
-178.02861921
 21
56.97604627
 31
0.0
  0
LINE
  5
11D
100
AcDbEntity
  8
LAYER0002
  6
CONTINUOUS
 62
       7
100
AcDbLine
 10
-178.02861921
 20
56.97604627
 30
0.0
 11
-178.01850348
 21
57.04322139
 31
0.0
  0
LINE
  5
11E
100
AcDbEntity
  8
LAYER0002
  6
CONTINUOUS
 62
       7
100
AcDbLine
 10
-178.01850348
 20
57.04322139
 30
0.0
 11
-178.00652691
 21
57.10977255
 31
0.0
  0
LINE
  5
11F
100
AcDbEntity
  8
LAYER0002
  6
CONTINUOUS
 62
       7
100
AcDbLine
 10
-178.00652691
 20
57.10977255
 30
0.0
 11
-177.99237934
 21
57.17559577
 31
0.0
  0
LINE
  5
120
100
AcDbEntity
  8
LAYER0002
  6
CONTINUOUS
 62
       7
100
AcDbLine
 10
-177.99237934
 20
57.17559577
 30
0.0
 11
-177.97575582
 21
57.24058711
 31
0.0
  0
LINE
  5
121
100
AcDbEntity
  8
LAYER0002
  6
CONTINUOUS
 62
       7
100
AcDbLine
 10
-177.97575582
 20
57.24058711
 30
0.0
 11
-177.95653558
 21
57.30464458
 31
0.0
  0
LINE
  5
122
100
AcDbEntity
  8
LAYER0002
  6
CONTINUOUS
 62
       7
100
AcDbLine
 10
-177.95653558
 20
57.30464458
 30
0.0
 11
-177.9348277
 21
57.36766866
 31
0.0
  0
LINE
  5
123
100
AcDbEntity
  8
LAYER0002
  6
CONTINUOUS
 62
       7
100
AcDbLine
 10
-177.9348277
 20
57.36766866
 30
0.0
 11
-177.9107557
 21
57.42955995
 31
0.0
  0
LINE
  5
124
100
AcDbEntity
  8
LAYER0002
  6
CONTINUOUS
 62
       7
100
AcDbLine
 10
-177.9107557
 20
57.42955995
 30
0.0
 11
-177.88444312
 21
57.49021906
 31
0.0
  0
LINE
  5
125
100
AcDbEntity
  8
LAYER0002
  6
CONTINUOUS
 62
       7
100
AcDbLine
 10
-177.88444312
 20
57.49021906
 30
0.0
 11
-177.85601348
 21
57.54954661
 31
0.0
  0
LINE
  5
126
100
AcDbEntity
  8
LAYER0002
  6
CONTINUOUS
 62
       7
100
AcDbLine
 10
-177.85601348
 20
57.54954661
 30
0.0
 11
-177.82559032
 21
57.60744322
 31
0.0
  0
LINE
  5
127
100
AcDbEntity
  8
LAYER0002
  6
CONTINUOUS
 62
       7
100
AcDbLine
 10
-177.82559032
 20
57.60744322
 30
0.0
 11
-177.79329715
 21
57.6638095
 31
0.0
  0
LINE
  5
128
100
AcDbEntity
  8
LAYER0002
  6
CONTINUOUS
 62
       7
100
AcDbLine
 10
-177.79329715
 20
57.6638095
 30
0.0
 11
-177.75925752
 21
57.71854605
 31
0.0
  0
LINE
  5
129
100
AcDbEntity
  8
LAYER0002
  6
CONTINUOUS
 62
       7
100
AcDbLine
 10
-177.75925752
 20
57.71854605
 30
0.0
 11
-177.72358654
 21
57.77155839
 31
0.0
  0
LINE
  5
12A
100
AcDbEntity
  8
LAYER0002
  6
CONTINUOUS
 62
       7
100
AcDbLine
 10
-177.72358654
 20
57.77155839
 30
0.0
 11
-177.68634297
 21
57.82278478
 31
0.0
  0
LINE
  5
12B
100
AcDbEntity
  8
LAYER0002
  6
CONTINUOUS
 62
       7
100
AcDbLine
 10
-177.68634297
 20
57.82278478
 30
0.0
 11
-177.64756239
 21
57.87217695
 31
0.0
  0
LINE
  5
12C
100
AcDbEntity
  8
LAYER0002
  6
CONTINUOUS
 62
       7
100
AcDbLine
 10
-177.64756239
 20
57.87217695
 30
0.0
 11
-177.60728034
 21
57.91968668
 31
0.0
  0
LINE
  5
12D
100
AcDbEntity
  8
LAYER0002
  6
CONTINUOUS
 62
       7
100
AcDbLine
 10
-177.60728034
 20
57.91968668
 30
0.0
 11
-177.56553233
 21
57.96526574
 31
0.0
  0
LINE
  5
12E
100
AcDbEntity
  8
LAYER0002
  6
CONTINUOUS
 62
       7
100
AcDbLine
 10
-177.56553233
 20
57.96526574
 30
0.0
 11
-177.52235387
 21
58.00886591
 31
0.0
  0
LINE
  5
12F
100
AcDbEntity
  8
LAYER0002
  6
CONTINUOUS
 62
       7
100
AcDbLine
 10
-177.52235387
 20
58.00886591
 30
0.0
 11
-177.4777805
 21
58.05043897
 31
0.0
  0
LINE
  5
130
100
AcDbEntity
  8
LAYER0002
  6
CONTINUOUS
 62
       7
100
AcDbLine
 10
-177.4777805
 20
58.05043897
 30
0.0
 11
-177.43184773
 21
58.08993667
 31
0.0
  0
LINE
  5
131
100
AcDbEntity
  8
LAYER0002
  6
CONTINUOUS
 62
       7
100
AcDbLine
 10
-177.43184773
 20
58.08993667
 30
0.0
 11
-177.38459121
 21
58.12731062
 31
0.0
  0
LINE
  5
132
100
AcDbEntity
  8
LAYER0002
  6
CONTINUOUS
 62
       7
100
AcDbLine
 10
-177.38459121
 20
58.12731062
 30
0.0
 11
-177.33606267
 21
58.16248816
 31
0.0
  0
LINE
  5
133
100
AcDbEntity
  8
LAYER0002
  6
CONTINUOUS
 62
       7
100
AcDbLine
 10
-177.33606267
 20
58.16248816
 30
0.0
 11
-177.2863453
 21
58.19534925
 31
0.0
  0
LINE
  5
134
100
AcDbEntity
  8
LAYER0002
  6
CONTINUOUS
 62
       7
100
AcDbLine
 10
-177.2863453
 20
58.19534925
 30
0.0
 11
-177.23552596
 21
58.22576837
 31
0.0
  0
LINE
  5
135
100
AcDbEntity
  8
LAYER0002
  6
CONTINUOUS
 62
       7
100
AcDbLine
 10
-177.23552596
 20
58.22576837
 30
0.0
 11
-177.18369146
 21
58.25361999
 31
0.0
  0
LINE
  5
136
100
AcDbEntity
  8
LAYER0002
  6
CONTINUOUS
 62
       7
100
AcDbLine
 10
-177.18369146
 20
58.25361999
 30
0.0
 11
-177.13092866
 21
58.27877859
 31
0.0
  0
LINE
  5
137
100
AcDbEntity
  8
LAYER0002
  6
CONTINUOUS
 62
       7
100
AcDbLine
 10
-177.13092866
 20
58.27877859
 30
0.0
 11
-177.07732438
 21
58.30111863
 31
0.0
  0
LINE
  5
138
100
AcDbEntity
  8
LAYER0002
  6
CONTINUOUS
 62
       7
100
AcDbLine
 10
-177.07732438
 20
58.30111863
 30
0.0
 11
-177.02296548
 21
58.3205146
 31
0.0
  0
LINE
  5
139
100
AcDbEntity
  8
LAYER0002
  6
CONTINUOUS
 62
       7
100
AcDbLine
 10
-177.02296548
 20
58.3205146
 30
0.0
 11
-176.96793878
 21
58.33684097
 31
0.0
  0
LINE
  5
13A
100
AcDbEntity
  8
LAYER0002
  6
CONTINUOUS
 62
       7
100
AcDbLine
 10
-176.96793878
 20
58.33684097
 30
0.0
 11
-176.91233166
 21
58.35000701
 31
0.0
  0
LINE
  5
13B
100
AcDbEntity
  8
LAYER0002
  6
CONTINUOUS
 62
       7
100
AcDbLine
 10
-176.91233166
 20
58.35000701
 30
0.0
 11
-176.85623756
 21
58.36032272
 31
0.0
  0
LINE
  5
13C
100
AcDbEntity
  8
LAYER0002
  6
CONTINUOUS
 62
       7
100
AcDbLine
 10
-176.85623756
 20
58.36032272
 30
0.0
 11
-176.79975383
 21
58.36835481
 31
0.0
  0
LINE
  5
13D
100
AcDbEntity
  8
LAYER0002
  6
CONTINUOUS
 62
       7
100
AcDbLine
 10
-176.79975383
 20
58.36835481
 30
0.0
 11
-176.74297788
 21
58.37467418
 31
0.0
  0
LINE
  5
13E
100
AcDbEntity
  8
LAYER0002
  6
CONTINUOUS
 62
       7
100
AcDbLine
 10
-176.74297788
 20
58.37467418
 30
0.0
 11
-176.68600711
 21
58.37985175
 31
0.0
  0
LINE
  5
13F
100
AcDbEntity
  8
LAYER0002
  6
CONTINUOUS
 62
       7
100
AcDbLine
 10
-176.68600711
 20
58.37985175
 30
0.0
 11
-176.62893893
 21
58.38445841
 31
0.0
  0
LINE
  5
140
100
AcDbEntity
  8
LAYER0002
  6
CONTINUOUS
 62
       7
100
AcDbLine
 10
-176.62893893
 20
44.48446153
 30
0.0
 11
-176.68611124
 21
44.49126218
 31
0.0
  0
LINE
  5
141
100
AcDbEntity
  8
LAYER0002
  6
CONTINUOUS
 62
       7
100
AcDbLine
 10
-176.68611124
 20
44.49126218
 30
0.0
 11
-176.74318567
 21
44.49844771
 31
0.0
  0
LINE
  5
142
100
AcDbEntity
  8
LAYER0002
  6
CONTINUOUS
 62
       7
100
AcDbLine
 10
-176.74318567
 20
44.49844771
 30
0.0
 11
-176.80006433
 21
44.50640299
 31
0.0
  0
LINE
  5
143
100
AcDbEntity
  8
LAYER0002
  6
CONTINUOUS
 62
       7
100
AcDbLine
 10
-176.80006433
 20
44.50640299
 30
0.0
 11
-176.85664934
 21
44.51551292
 31
0.0
  0
LINE
  5
144
100
AcDbEntity
  8
LAYER0002
  6
CONTINUOUS
 62
       7
100
AcDbLine
 10
-176.85664934
 20
44.51551292
 30
0.0
 11
-176.91284282
 21
44.52616236
 31
0.0
  0
LINE
  5
145
100
AcDbEntity
  8
LAYER0002
  6
CONTINUOUS
 62
       7
100
AcDbLine
 10
-176.91284282
 20
44.52616236
 30
0.0
 11
-176.96854689
 21
44.53873619
 31
0.0
  0
LINE
  5
146
100
AcDbEntity
  8
LAYER0002
  6
CONTINUOUS
 62
       7
100
AcDbLine
 10
-176.96854689
 20
44.53873619
 30
0.0
 11
-177.02366366
 21
44.5536193
 31
0.0
  0
LINE
  5
147
100
AcDbEntity
  8
LAYER0002
  6
CONTINUOUS
 62
       7
100
AcDbLine
 10
-177.02366366
 20
44.5536193
 30
0.0
 11
-177.07809525
 21
44.57119657
 31
0.0
  0
LINE
  5
148
100
AcDbEntity
  8
LAYER0002
  6
CONTINUOUS
 62
       7
100
AcDbLine
 10
-177.07809525
 20
44.57119657
 30
0.0
 11
-177.13174406
 21
44.59184631
 31
0.0
  0
LINE
  5
149
100
AcDbEntity
  8
LAYER0002
  6
CONTINUOUS
 62
       7
100
AcDbLine
 10
-177.13174406
 20
44.59184631
 30
0.0
 11
-177.18452287
 21
44.61571525
 31
0.0
  0
LINE
  5
14A
100
AcDbEntity
  8
LAYER0002
  6
CONTINUOUS
 62
       7
100
AcDbLine
 10
-177.18452287
 20
44.61571525
 30
0.0
 11
-177.23635732
 21
44.64266184
 31
0.0
  0
LINE
  5
14B
100
AcDbEntity
  8
LAYER0002
  6
CONTINUOUS
 62
       7
100
AcDbLine
 10
-177.23635732
 20
44.64266184
 30
0.0
 11
-177.28717386
 21
44.67252653
 31
0.0
  0
LINE
  5
14C
100
AcDbEntity
  8
LAYER0002
  6
CONTINUOUS
 62
       7
100
AcDbLine
 10
-177.28717386
 20
44.67252653
 30
0.0
 11
-177.33689894
 21
44.70514974
 31
0.0
  0
LINE
  5
14D
100
AcDbEntity
  8
LAYER0002
  6
CONTINUOUS
 62
       7
100
AcDbLine
 10
-177.33689894
 20
44.70514974
 30
0.0
 11
-177.38545903
 21
44.7403719
 31
0.0
  0
LINE
  5
14E
100
AcDbEntity
  8
LAYER0002
  6
CONTINUOUS
 62
       7
100
AcDbLine
 10
-177.38545903
 20
44.7403719
 30
0.0
 11
-177.43278057
 21
44.77803345
 31
0.0
  0
LINE
  5
14F
100
AcDbEntity
  8
LAYER0002
  6
CONTINUOUS
 62
       7
100
AcDbLine
 10
-177.43278057
 20
44.77803345
 30
0.0
 11
-177.47879002
 21
44.8179748
 31
0.0
  0
LINE
  5
150
100
AcDbEntity
  8
LAYER0002
  6
CONTINUOUS
 62
       7
100
AcDbLine
 10
-177.47879002
 20
44.8179748
 30
0.0
 11
-177.52341382
 21
44.86003639
 31
0.0
  0
LINE
  5
151
100
AcDbEntity
  8
LAYER0002
  6
CONTINUOUS
 62
       7
100
AcDbLine
 10
-177.52341382
 20
44.86003639
 30
0.0
 11
-177.56658219
 21
44.90406927
 31
0.0
  0
LINE
  5
152
100
AcDbEntity
  8
LAYER0002
  6
CONTINUOUS
 62
       7
100
AcDbLine
 10
-177.56658219
 20
44.90406927
 30
0.0
 11
-177.60825031
 21
44.94999529
 31
0.0
  0
LINE
  5
153
100
AcDbEntity
  8
LAYER0002
  6
CONTINUOUS
 62
       7
100
AcDbLine
 10
-177.60825031
 20
44.94999529
 30
0.0
 11
-177.64838357
 21
44.99776529
 31
0.0
  0
LINE
  5
154
100
AcDbEntity
  8
LAYER0002
  6
CONTINUOUS
 62
       7
100
AcDbLine
 10
-177.64838357
 20
44.99776529
 30
0.0
 11
-177.68694742
 21
45.04733017
 31
0.0
  0
LINE
  5
155
100
AcDbEntity
  8
LAYER0002
  6
CONTINUOUS
 62
       7
100
AcDbLine
 10
-177.68694742
 20
45.04733017
 30
0.0
 11
-177.72390729
 21
45.09864086
 31
0.0
  0
LINE
  5
156
100
AcDbEntity
  8
LAYER0002
  6
CONTINUOUS
 62
       7
100
AcDbLine
 10
-177.72390729
 20
45.09864086
 30
0.0
 11
-177.75922863
 21
45.15164827
 31
0.0
  0
LINE
  5
157
100
AcDbEntity
  8
LAYER0002
  6
CONTINUOUS
 62
       7
100
AcDbLine
 10
-177.75922863
 20
45.15164827
 30
0.0
 11
-177.79287685
 21
45.20630332
 31
0.0
  0
LINE
  5
158
100
AcDbEntity
  8
LAYER0002
  6
CONTINUOUS
 62
       7
100
AcDbLine
 10
-177.79287685
 20
45.20630332
 30
0.0
 11
-177.82481741
 21
45.26255692
 31
0.0
  0
LINE
  5
159
100
AcDbEntity
  8
LAYER0002
  6
CONTINUOUS
 62
       7
100
AcDbLine
 10
-177.82481741
 20
45.26255692
 30
0.0
 11
-177.85501557
 21
45.32035982
 31
0.0
  0
LINE
  5
15A
100
AcDbEntity
  8
LAYER0002
  6
CONTINUOUS
 62
       7
100
AcDbLine
 10
-177.85501557
 20
45.32035982
 30
0.0
 11
-177.88341656
 21
45.37964234
 31
0.0
  0
LINE
  5
15B
100
AcDbEntity
  8
LAYER0002
  6
CONTINUOUS
 62
       7
100
AcDbLine
 10
-177.88341656
 20
45.37964234
 30
0.0
 11
-177.90992737
 21
45.44029583
 31
0.0
  0
LINE
  5
15C
100
AcDbEntity
  8
LAYER0002
  6
CONTINUOUS
 62
       7
100
AcDbLine
 10
-177.90992737
 20
45.44029583
 30
0.0
 11
-177.93445069
 21
45.50220725
 31
0.0
  0
LINE
  5
15D
100
AcDbEntity
  8
LAYER0002
  6
CONTINUOUS
 62
       7
100
AcDbLine
 10
-177.93445069
 20
45.50220725
 30
0.0
 11
-177.9568892
 21
45.56526355
 31
0.0
  0
LINE
  5
15E
100
AcDbEntity
  8
LAYER0002
  6
CONTINUOUS
 62
       7
100
AcDbLine
 10
-177.9568892
 20
45.56526355
 30
0.0
 11
-177.97714556
 21
45.62935168
 31
0.0
  0
LINE
  5
15F
100
AcDbEntity
  8
LAYER0002
  6
CONTINUOUS
 62
       7
100
AcDbLine
 10
-177.97714556
 20
45.62935168
 30
0.0
 11
-177.99512245
 21
45.69435859
 31
0.0
  0
LINE
  5
160
100
AcDbEntity
  8
LAYER0002
  6
CONTINUOUS
 62
       7
100
AcDbLine
 10
-177.99512245
 20
45.69435859
 30
0.0
 11
-178.01072257
 21
45.76017123
 31
0.0
  0
LINE
  5
161
100
AcDbEntity
  8
LAYER0002
  6
CONTINUOUS
 62
       7
100
AcDbLine
 10
-178.01072257
 20
45.76017123
 30
0.0
 11
-178.02384857
 21
45.82667656
 31
0.0
  0
LINE
  5
162
100
AcDbEntity
  8
LAYER0002
  6
CONTINUOUS
 62
       7
100
AcDbLine
 10
-178.02384857
 20
45.82667656
 30
0.0
 11
-178.03443175
 21
45.89376242
 31
0.0
  0
LINE
  5
163
100
AcDbEntity
  8
LAYER0002
  6
CONTINUOUS
 62
       7
100
AcDbLine
 10
-178.03443175
 20
45.89376242
 30
0.0
 11
-178.04272505
 21
45.96132671
 31
0.0
  0
LINE
  5
164
100
AcDbEntity
  8
LAYER0002
  6
CONTINUOUS
 62
       7
100
AcDbLine
 10
-178.04272505
 20
45.96132671
 30
0.0
 11
-178.04918393
 21
46.02927367
 31
0.0
  0
LINE
  5
165
100
AcDbEntity
  8
LAYER0002
  6
CONTINUOUS
 62
       7
100
AcDbLine
 10
-178.04918393
 20
46.02927367
 30
0.0
 11
-178.05426698
 21
46.09750764
 31
0.0
  0
LINE
  5
166
100
AcDbEntity
  8
LAYER0002
  6
CONTINUOUS
 62
       7
100
AcDbLine
 10
-178.05426698
 20
46.09750764
 30
0.0
 11
-178.05843283
 21
46.16593293
 31
0.0
  0
LINE
  5
167
100
AcDbEntity
  8
LAYER0002
  6
CONTINUOUS
 62
       7
100
AcDbLine
 10
-178.05843283
 20
46.16593293
 30
0.0
 11
-178.06214006
 21
46.2344539
 31
0.0
  0
LINE
  5
168
100
AcDbEntity
  8
LAYER0002
  6
CONTINUOUS
 62
       7
100
AcDbLine
 10
-142.18376116
 20
46.2344539
 30
0.0
 11
-142.1892251
 21
46.1657193
 31
0.0
  0
LINE
  5
169
100
AcDbEntity
  8
LAYER0002
  6
CONTINUOUS
 62
       7
100
AcDbLine
 10
-142.1892251
 20
46.1657193
 30
0.0
 11
-142.19499918
 21
46.0970887
 31
0.0
  0
LINE
  5
16A
100
AcDbEntity
  8
LAYER0002
  6
CONTINUOUS
 62
       7
100
AcDbLine
 10
-142.19499918
 20
46.0970887
 30
0.0
 11
-142.20139354
 21
46.02866607
 31
0.0
  0
LINE
  5
16B
100
AcDbEntity
  8
LAYER0002
  6
CONTINUOUS
 62
       7
100
AcDbLine
 10
-142.20139354
 20
46.02866607
 30
0.0
 11
-142.20871834
 21
45.96055541
 31
0.0
  0
LINE
  5
16C
100
AcDbEntity
  8
LAYER0002
  6
CONTINUOUS
 62
       7
100
AcDbLine
 10
-142.20871834
 20
45.96055541
 30
0.0
 11
-142.21728371
 21
45.8928607
 31
0.0
  0
LINE
  5
16D
100
AcDbEntity
  8
LAYER0002
  6
CONTINUOUS
 62
       7
100
AcDbLine
 10
-142.21728371
 20
45.8928607
 30
0.0
 11
-142.2273998
 21
45.82568595
 31
0.0
  0
LINE
  5
16E
100
AcDbEntity
  8
LAYER0002
  6
CONTINUOUS
 62
       7
100
AcDbLine
 10
-142.2273998
 20
45.82568595
 30
0.0
 11
-142.23937675
 21
45.75913512
 31
0.0
  0
LINE
  5
16F
100
AcDbEntity
  8
LAYER0002
  6
CONTINUOUS
 62
       7
100
AcDbLine
 10
-142.23937675
 20
45.75913512
 30
0.0
 11
-142.2535247
 21
45.69331223
 31
0.0
  0
LINE
  5
170
100
AcDbEntity
  8
LAYER0002
  6
CONTINUOUS
 62
       7
100
AcDbLine
 10
-142.2535247
 20
45.69331223
 30
0.0
 11
-142.27014862
 21
45.62832119
 31
0.0
  0
LINE
  5
171
100
AcDbEntity
  8
LAYER0002
  6
CONTINUOUS
 62
       7
100
AcDbLine
 10
-142.27014862
 20
45.62832119
 30
0.0
 11
-142.28936921
 21
45.564264
 31
0.0
  0
LINE
  5
172
100
AcDbEntity
  8
LAYER0002
  6
CONTINUOUS
 62
       7
100
AcDbLine
 10
-142.28936921
 20
45.564264
 30
0.0
 11
-142.3110774
 21
45.50124022
 31
0.0
  0
LINE
  5
173
100
AcDbEntity
  8
LAYER0002
  6
CONTINUOUS
 62
       7
100
AcDbLine
 10
-142.3110774
 20
45.50124022
 30
0.0
 11
-142.33514966
 21
45.43934925
 31
0.0
  0
LINE
  5
174
100
AcDbEntity
  8
LAYER0002
  6
CONTINUOUS
 62
       7
100
AcDbLine
 10
-142.33514966
 20
45.43934925
 30
0.0
 11
-142.36146248
 21
45.3786905
 31
0.0
  0
LINE
  5
175
100
AcDbEntity
  8
LAYER0002
  6
CONTINUOUS
 62
       7
100
AcDbLine
 10
-142.36146248
 20
45.3786905
 30
0.0
 11
-142.38989232
 21
45.31936337
 31
0.0
  0
LINE
  5
176
100
AcDbEntity
  8
LAYER0002
  6
CONTINUOUS
 62
       7
100
AcDbLine
 10
-142.38989232
 20
45.31936337
 30
0.0
 11
-142.42031568
 21
45.26146728
 31
0.0
  0
LINE
  5
177
100
AcDbEntity
  8
LAYER0002
  6
CONTINUOUS
 62
       7
100
AcDbLine
 10
-142.42031568
 20
45.26146728
 30
0.0
 11
-142.45260904
 21
45.20510163
 31
0.0
  0
LINE
  5
178
100
AcDbEntity
  8
LAYER0002
  6
CONTINUOUS
 62
       7
100
AcDbLine
 10
-142.45260904
 20
45.20510163
 30
0.0
 11
-142.48664886
 21
45.15036583
 31
0.0
  0
LINE
  5
179
100
AcDbEntity
  8
LAYER0002
  6
CONTINUOUS
 62
       7
100
AcDbLine
 10
-142.48664886
 20
45.15036583
 30
0.0
 11
-142.52232005
 21
45.09735437
 31
0.0
  0
LINE
  5
17A
100
AcDbEntity
  8
LAYER0002
  6
CONTINUOUS
 62
       7
100
AcDbLine
 10
-142.52232005
 20
45.09735437
 30
0.0
 11
-142.55956383
 21
45.04612895
 31
0.0
  0
LINE
  5
17B
100
AcDbEntity
  8
LAYER0002
  6
CONTINUOUS
 62
       7
100
AcDbLine
 10
-142.55956383
 20
45.04612895
 30
0.0
 11
-142.5983446
 21
44.99673773
 31
0.0
  0
LINE
  5
17C
100
AcDbEntity
  8
LAYER0002
  6
CONTINUOUS
 62
       7
100
AcDbLine
 10
-142.5983446
 20
44.99673773
 30
0.0
 11
-142.63862681
 21
44.94922886
 31
0.0
  0
LINE
  5
17D
100
AcDbEntity
  8
LAYER0002
  6
CONTINUOUS
 62
       7
100
AcDbLine
 10
-142.63862681
 20
44.94922886
 30
0.0
 11
-142.68037492
 21
44.90365047
 31
0.0
  0
LINE
  5
17E
100
AcDbEntity
  8
LAYER0002
  6
CONTINUOUS
 62
       7
100
AcDbLine
 10
-142.68037492
 20
44.90365047
 30
0.0
 11
-142.72355338
 21
44.86005072
 31
0.0
  0
LINE
  5
17F
100
AcDbEntity
  8
LAYER0002
  6
CONTINUOUS
 62
       7
100
AcDbLine
 10
-142.72355338
 20
44.86005072
 30
0.0
 11
-142.76812666
 21
44.81847774
 31
0.0
  0
LINE
  5
180
100
AcDbEntity
  8
LAYER0002
  6
CONTINUOUS
 62
       7
100
AcDbLine
 10
-142.76812666
 20
44.81847774
 30
0.0
 11
-142.8140592
 21
44.77897966
 31
0.0
  0
LINE
  5
181
100
AcDbEntity
  8
LAYER0002
  6
CONTINUOUS
 62
       7
100
AcDbLine
 10
-142.8140592
 20
44.77897966
 30
0.0
 11
-142.86131534
 21
44.74160484
 31
0.0
  0
LINE
  5
182
100
AcDbEntity
  8
LAYER0002
  6
CONTINUOUS
 62
       7
100
AcDbLine
 10
-142.86131534
 20
44.74160484
 30
0.0
 11
-142.90984335
 21
44.70642591
 31
0.0
  0
LINE
  5
183
100
AcDbEntity
  8
LAYER0002
  6
CONTINUOUS
 62
       7
100
AcDbLine
 10
-142.90984335
 20
44.70642591
 30
0.0
 11
-142.95956005
 21
44.67356309
 31
0.0
  0
LINE
  5
184
100
AcDbEntity
  8
LAYER0002
  6
CONTINUOUS
 62
       7
100
AcDbLine
 10
-142.95956005
 20
44.67356309
 30
0.0
 11
-143.01037866
 21
44.64314207
 31
0.0
  0
LINE
  5
185
100
AcDbEntity
  8
LAYER0002
  6
CONTINUOUS
 62
       7
100
AcDbLine
 10
-143.01037866
 20
44.64314207
 30
0.0
 11
-143.06221238
 21
44.61528857
 31
0.0
  0
LINE
  5
186
100
AcDbEntity
  8
LAYER0002
  6
CONTINUOUS
 62
       7
100
AcDbLine
 10
-143.06221238
 20
44.61528857
 30
0.0
 11
-143.11497441
 21
44.5901283
 31
0.0
  0
LINE
  5
187
100
AcDbEntity
  8
LAYER0002
  6
CONTINUOUS
 62
       7
100
AcDbLine
 10
-143.11497441
 20
44.5901283
 30
0.0
 11
-143.16857797
 21
44.56778696
 31
0.0
  0
LINE
  5
188
100
AcDbEntity
  8
LAYER0002
  6
CONTINUOUS
 62
       7
100
AcDbLine
 10
-143.16857797
 20
44.56778696
 30
0.0
 11
-143.22293625
 21
44.54839025
 31
0.0
  0
LINE
  5
189
100
AcDbEntity
  8
LAYER0002
  6
CONTINUOUS
 62
       7
100
AcDbLine
 10
-143.22293625
 20
44.54839025
 30
0.0
 11
-143.27796245
 21
44.53206389
 31
0.0
  0
LINE
  5
18A
100
AcDbEntity
  8
LAYER0002
  6
CONTINUOUS
 62
       7
100
AcDbLine
 10
-143.27796245
 20
44.53206389
 30
0.0
 11
-143.33356926
 21
44.51889877
 31
0.0
  0
LINE
  5
18B
100
AcDbEntity
  8
LAYER0002
  6
CONTINUOUS
 62
       7
100
AcDbLine
 10
-143.33356926
 20
44.51889877
 30
0.0
 11
-143.38966321
 21
44.50858485
 31
0.0
  0
LINE
  5
18C
100
AcDbEntity
  8
LAYER0002
  6
CONTINUOUS
 62
       7
100
AcDbLine
 10
-143.38966321
 20
44.50858485
 30
0.0
 11
-143.44614694
 21
44.50055524
 31
0.0
  0
LINE
  5
18D
100
AcDbEntity
  8
LAYER0002
  6
CONTINUOUS
 62
       7
100
AcDbLine
 10
-143.44614694
 20
44.50055524
 30
0.0
 11
-143.50292299
 21
44.49423887
 31
0.0
  0
LINE
  5
18E
100
AcDbEntity
  8
LAYER0002
  6
CONTINUOUS
 62
       7
100
AcDbLine
 10
-143.50292299
 20
44.49423887
 30
0.0
 11
-143.55989392
 21
44.48906466
 31
0.0
  0
LINE
  5
18F
100
AcDbEntity
  8
LAYER0002
  6
CONTINUOUS
 62
       7
100
AcDbLine
 10
-143.55989392
 20
44.48906466
 30
0.0
 11
-143.6169623
 21
44.48446153
 31
0.0
  0
LINE
  5
190
100
AcDbEntity
  8
LAYER0002
  6
CONTINUOUS
 62
       7
100
AcDbLine
 10
-147.52852922
 20
-91.36554332
 30
0.0
 11
-147.483124
 21
-91.36982717
 31
0.0
  0
LINE
  5
191
100
AcDbEntity
  8
LAYER0002
  6
CONTINUOUS
 62
       7
100
AcDbLine
 10
-147.483124
 20
-91.36982717
 30
0.0
 11
-147.43774699
 21
-91.37421522
 31
0.0
  0
LINE
  5
192
100
AcDbEntity
  8
LAYER0002
  6
CONTINUOUS
 62
       7
100
AcDbLine
 10
-147.43774699
 20
-91.37421522
 30
0.0
 11
-147.39242641
 21
-91.37881165
 31
0.0
  0
LINE
  5
193
100
AcDbEntity
  8
LAYER0002
  6
CONTINUOUS
 62
       7
100
AcDbLine
 10
-147.39242641
 20
-91.37881165
 30
0.0
 11
-147.34719046
 21
-91.38372066
 31
0.0
  0
LINE
  5
194
100
AcDbEntity
  8
LAYER0002
  6
CONTINUOUS
 62
       7
100
AcDbLine
 10
-147.34719046
 20
-91.38372066
 30
0.0
 11
-147.30206736
 21
-91.38904645
 31
0.0
  0
LINE
  5
195
100
AcDbEntity
  8
LAYER0002
  6
CONTINUOUS
 62
       7
100
AcDbLine
 10
-147.30206736
 20
-91.38904645
 30
0.0
 11
-147.25708531
 21
-91.39489321
 31
0.0
  0
LINE
  5
196
100
AcDbEntity
  8
LAYER0002
  6
CONTINUOUS
 62
       7
100
AcDbLine
 10
-147.25708531
 20
-91.39489321
 30
0.0
 11
-147.21227254
 21
-91.40136513
 31
0.0
  0
LINE
  5
197
100
AcDbEntity
  8
LAYER0002
  6
CONTINUOUS
 62
       7
100
AcDbLine
 10
-147.21227254
 20
-91.40136513
 30
0.0
 11
-147.16765726
 21
-91.40856641
 31
0.0
  0
LINE
  5
198
100
AcDbEntity
  8
LAYER0002
  6
CONTINUOUS
 62
       7
100
AcDbLine
 10
-147.16765726
 20
-91.40856641
 30
0.0
 11
-147.12326767
 21
-91.41660124
 31
0.0
  0
LINE
  5
199
100
AcDbEntity
  8
LAYER0002
  6
CONTINUOUS
 62
       7
100
AcDbLine
 10
-147.12326767
 20
-91.41660124
 30
0.0
 11
-147.07913198
 21
-91.42557382
 31
0.0
  0
LINE
  5
19A
100
AcDbEntity
  8
LAYER0002
  6
CONTINUOUS
 62
       7
100
AcDbLine
 10
-147.07913198
 20
-91.42557382
 30
0.0
 11
-147.03527842
 21
-91.43558834
 31
0.0
  0
LINE
  5
19B
100
AcDbEntity
  8
LAYER0002
  6
CONTINUOUS
 62
       7
100
AcDbLine
 10
-147.03527842
 20
-91.43558834
 30
0.0
 11
-146.99173518
 21
-91.44674899
 31
0.0
  0
LINE
  5
19C
100
AcDbEntity
  8
LAYER0002
  6
CONTINUOUS
 62
       7
100
AcDbLine
 10
-146.99173518
 20
-91.44674899
 30
0.0
 11
-146.94853049
 21
-91.45915996
 31
0.0
  0
LINE
  5
19D
100
AcDbEntity
  8
LAYER0002
  6
CONTINUOUS
 62
       7
100
AcDbLine
 10
-146.94853049
 20
-91.45915996
 30
0.0
 11
-146.90569256
 21
-91.47292546
 31
0.0
  0
LINE
  5
19E
100
AcDbEntity
  8
LAYER0002
  6
CONTINUOUS
 62
       7
100
AcDbLine
 10
-146.90569256
 20
-91.47292546
 30
0.0
 11
-146.86324959
 21
-91.48814967
 31
0.0
  0
LINE
  5
19F
100
AcDbEntity
  8
LAYER0002
  6
CONTINUOUS
 62
       7
100
AcDbLine
 10
-146.86324959
 20
-91.48814967
 30
0.0
 11
-146.82123113
 21
-91.50493328
 31
0.0
  0
LINE
  5
1A0
100
AcDbEntity
  8
LAYER0002
  6
CONTINUOUS
 62
       7
100
AcDbLine
 10
-146.82123113
 20
-91.50493328
 30
0.0
 11
-146.77968968
 21
-91.52331667
 31
0.0
  0
LINE
  5
1A1
100
AcDbEntity
  8
LAYER0002
  6
CONTINUOUS
 62
       7
100
AcDbLine
 10
-146.77968968
 20
-91.52331667
 30
0.0
 11
-146.73869698
 21
-91.54328957
 31
0.0
  0
LINE
  5
1A2
100
AcDbEntity
  8
LAYER0002
  6
CONTINUOUS
 62
       7
100
AcDbLine
 10
-146.73869698
 20
-91.54328957
 30
0.0
 11
-146.6983254
 21
-91.5648401
 31
0.0
  0
LINE
  5
1A3
100
AcDbEntity
  8
LAYER0002
  6
CONTINUOUS
 62
       7
100
AcDbLine
 10
-146.6983254
 20
-91.5648401
 30
0.0
 11
-146.6586473
 21
-91.5879564
 31
0.0
  0
LINE
  5
1A4
100
AcDbEntity
  8
LAYER0002
  6
CONTINUOUS
 62
       7
100
AcDbLine
 10
-146.6586473
 20
-91.5879564
 30
0.0
 11
-146.61973505
 21
-91.61262661
 31
0.0
  0
LINE
  5
1A5
100
AcDbEntity
  8
LAYER0002
  6
CONTINUOUS
 62
       7
100
AcDbLine
 10
-146.61973505
 20
-91.61262661
 30
0.0
 11
-146.58166099
 21
-91.63883886
 31
0.0
  0
LINE
  5
1A6
100
AcDbEntity
  8
LAYER0002
  6
CONTINUOUS
 62
       7
100
AcDbLine
 10
-146.58166099
 20
-91.63883886
 30
0.0
 11
-146.5444975
 21
-91.66658129
 31
0.0
  0
LINE
  5
1A7
100
AcDbEntity
  8
LAYER0002
  6
CONTINUOUS
 62
       7
100
AcDbLine
 10
-146.5444975
 20
-91.66658129
 30
0.0
 11
-146.50831693
 21
-91.69584204
 31
0.0
  0
LINE
  5
1A8
100
AcDbEntity
  8
LAYER0002
  6
CONTINUOUS
 62
       7
100
AcDbLine
 10
-146.50831693
 20
-91.69584204
 30
0.0
 11
-146.47319547
 21
-91.72661276
 31
0.0
  0
LINE
  5
1A9
100
AcDbEntity
  8
LAYER0002
  6
CONTINUOUS
 62
       7
100
AcDbLine
 10
-146.47319547
 20
-91.72661276
 30
0.0
 11
-146.43923688
 21
-91.75891043
 31
0.0
  0
LINE
  5
1AA
100
AcDbEntity
  8
LAYER0002
  6
CONTINUOUS
 62
       7
100
AcDbLine
 10
-146.43923688
 20
-91.75891043
 30
0.0
 11
-146.40655702
 21
-91.79276317
 31
0.0
  0
LINE
  5
1AB
100
AcDbEntity
  8
LAYER0002
  6
CONTINUOUS
 62
       7
100
AcDbLine
 10
-146.40655702
 20
-91.79276317
 30
0.0
 11
-146.37527179
 21
-91.82819913
 31
0.0
  0
LINE
  5
1AC
100
AcDbEntity
  8
LAYER0002
  6
CONTINUOUS
 62
       7
100
AcDbLine
 10
-146.37527179
 20
-91.82819913
 30
0.0
 11
-146.34549709
 21
-91.86524645
 31
0.0
  0
LINE
  5
1AD
100
AcDbEntity
  8
LAYER0002
  6
CONTINUOUS
 62
       7
100
AcDbLine
 10
-146.34549709
 20
-91.86524645
 30
0.0
 11
-146.31734884
 21
-91.9039333
 31
0.0
  0
LINE
  5
1AE
100
AcDbEntity
  8
LAYER0002
  6
CONTINUOUS
 62
       7
100
AcDbLine
 10
-146.31734884
 20
-91.9039333
 30
0.0
 11
-146.29094296
 21
-91.94428782
 31
0.0
  0
LINE
  5
1AF
100
AcDbEntity
  8
LAYER0002
  6
CONTINUOUS
 62
       7
100
AcDbLine
 10
-146.29094296
 20
-91.94428782
 30
0.0
 11
-146.26644626
 21
-91.98630466
 31
0.0
  0
LINE
  5
1B0
100
AcDbEntity
  8
LAYER0002
  6
CONTINUOUS
 62
       7
100
AcDbLine
 10
-146.26644626
 20
-91.98630466
 30
0.0
 11
-146.2441916
 21
-92.02986931
 31
0.0
  0
LINE
  5
1B1
100
AcDbEntity
  8
LAYER0002
  6
CONTINUOUS
 62
       7
100
AcDbLine
 10
-146.2441916
 20
-92.02986931
 30
0.0
 11
-146.22454565
 21
-92.07484499
 31
0.0
  0
LINE
  5
1B2
100
AcDbEntity
  8
LAYER0002
  6
CONTINUOUS
 62
       7
100
AcDbLine
 10
-146.22454565
 20
-92.07484499
 30
0.0
 11
-146.20787505
 21
-92.12109496
 31
0.0
  0
LINE
  5
1B3
100
AcDbEntity
  8
LAYER0002
  6
CONTINUOUS
 62
       7
100
AcDbLine
 10
-146.20787505
 20
-92.12109496
 30
0.0
 11
-146.19454648
 21
-92.16848246
 31
0.0
  0
LINE
  5
1B4
100
AcDbEntity
  8
LAYER0002
  6
CONTINUOUS
 62
       7
100
AcDbLine
 10
-146.19454648
 20
-92.16848246
 30
0.0
 11
-146.18478113
 21
-92.21685798
 31
0.0
  0
LINE
  5
1B5
100
AcDbEntity
  8
LAYER0002
  6
CONTINUOUS
 62
       7
100
AcDbLine
 10
-146.18478113
 20
-92.21685798
 30
0.0
 11
-146.17793008
 21
-92.26599571
 31
0.0
  0
LINE
  5
1B6
100
AcDbEntity
  8
LAYER0002
  6
CONTINUOUS
 62
       7
100
AcDbLine
 10
-146.17793008
 20
-92.26599571
 30
0.0
 11
-146.17302226
 21
-92.31564162
 31
0.0
  0
LINE
  5
1B7
100
AcDbEntity
  8
LAYER0002
  6
CONTINUOUS
 62
       7
100
AcDbLine
 10
-146.17302226
 20
-92.31564162
 30
0.0
 11
-146.16908604
 21
-92.36554162
 31
0.0
  0
LINE
  5
1B8
100
AcDbEntity
  8
LAYER0002
  6
CONTINUOUS
 62
       7
100
AcDbLine
 10
-174.07681519
 20
-92.36554162
 30
0.0
 11
-174.07161383
 21
-92.31551659
 31
0.0
  0
LINE
  5
1B9
100
AcDbEntity
  8
LAYER0002
  6
CONTINUOUS
 62
       7
100
AcDbLine
 10
-174.07161383
 20
-92.31551659
 30
0.0
 11
-174.06570491
 21
-92.26574127
 31
0.0
  0
LINE
  5
1BA
100
AcDbEntity
  8
LAYER0002
  6
CONTINUOUS
 62
       7
100
AcDbLine
 10
-174.06570491
 20
-92.26574127
 30
0.0
 11
-174.05838087
 21
-92.21646539
 31
0.0
  0
LINE
  5
1BB
100
AcDbEntity
  8
LAYER0002
  6
CONTINUOUS
 62
       7
100
AcDbLine
 10
-174.05838087
 20
-92.21646539
 30
0.0
 11
-174.04893416
 21
-92.16793866
 31
0.0
  0
LINE
  5
1BC
100
AcDbEntity
  8
LAYER0002
  6
CONTINUOUS
 62
       7
100
AcDbLine
 10
-174.04893416
 20
-92.16793866
 30
0.0
 11
-174.0366572
 21
-92.12041082
 31
0.0
  0
LINE
  5
1BD
100
AcDbEntity
  8
LAYER0002
  6
CONTINUOUS
 62
       7
100
AcDbLine
 10
-174.0366572
 20
-92.12041082
 30
0.0
 11
-174.02093871
 21
-92.07411678
 31
0.0
  0
LINE
  5
1BE
100
AcDbEntity
  8
LAYER0002
  6
CONTINUOUS
 62
       7
100
AcDbLine
 10
-174.02093871
 20
-92.07411678
 30
0.0
 11
-174.00186939
 21
-92.02918364
 31
0.0
  0
LINE
  5
1BF
100
AcDbEntity
  8
LAYER0002
  6
CONTINUOUS
 62
       7
100
AcDbLine
 10
-174.00186939
 20
-92.02918364
 30
0.0
 11
-173.97985082
 21
-91.98569074
 31
0.0
  0
LINE
  5
1C0
100
AcDbEntity
  8
LAYER0002
  6
CONTINUOUS
 62
       7
100
AcDbLine
 10
-173.97985082
 20
-91.98569074
 30
0.0
 11
-173.95528602
 21
-91.94371718
 31
0.0
  0
LINE
  5
1C1
100
AcDbEntity
  8
LAYER0002
  6
CONTINUOUS
 62
       7
100
AcDbLine
 10
-173.95528602
 20
-91.94371718
 30
0.0
 11
-173.92857797
 21
-91.90334209
 31
0.0
  0
LINE
  5
1C2
100
AcDbEntity
  8
LAYER0002
  6
CONTINUOUS
 62
       7
100
AcDbLine
 10
-173.92857797
 20
-91.90334209
 30
0.0
 11
-173.90011658
 21
-91.86463969
 31
0.0
  0
LINE
  5
1C3
100
AcDbEntity
  8
LAYER0002
  6
CONTINUOUS
 62
       7
100
AcDbLine
 10
-173.90011658
 20
-91.86463969
 30
0.0
 11
-173.87012043
 21
-91.82762026
 31
0.0
  0
LINE
  5
1C4
100
AcDbEntity
  8
LAYER0002
  6
CONTINUOUS
 62
       7
100
AcDbLine
 10
-173.87012043
 20
-91.82762026
 30
0.0
 11
-173.83868775
 21
-91.79224911
 31
0.0
  0
LINE
  5
1C5
100
AcDbEntity
  8
LAYER0002
  6
CONTINUOUS
 62
       7
100
AcDbLine
 10
-173.83868775
 20
-91.79224911
 30
0.0
 11
-173.80591425
 21
-91.75849064
 31
0.0
  0
LINE
  5
1C6
100
AcDbEntity
  8
LAYER0002
  6
CONTINUOUS
 62
       7
100
AcDbLine
 10
-173.80591425
 20
-91.75849064
 30
0.0
 11
-173.77189569
 21
-91.72630925
 31
0.0
  0
LINE
  5
1C7
100
AcDbEntity
  8
LAYER0002
  6
CONTINUOUS
 62
       7
100
AcDbLine
 10
-173.77189569
 20
-91.72630925
 30
0.0
 11
-173.73672777
 21
-91.69566934
 31
0.0
  0
LINE
  5
1C8
100
AcDbEntity
  8
LAYER0002
  6
CONTINUOUS
 62
       7
100
AcDbLine
 10
-173.73672777
 20
-91.69566934
 30
0.0
 11
-173.70050624
 21
-91.66653529
 31
0.0
  0
LINE
  5
1C9
100
AcDbEntity
  8
LAYER0002
  6
CONTINUOUS
 62
       7
100
AcDbLine
 10
-173.70050624
 20
-91.66653529
 30
0.0
 11
-173.66332677
 21
-91.63887158
 31
0.0
  0
LINE
  5
1CA
100
AcDbEntity
  8
LAYER0002
  6
CONTINUOUS
 62
       7
100
AcDbLine
 10
-173.66332677
 20
-91.63887158
 30
0.0
 11
-173.62527369
 21
-91.61265326
 31
0.0
  0
LINE
  5
1CB
100
AcDbEntity
  8
LAYER0002
  6
CONTINUOUS
 62
       7
100
AcDbLine
 10
-173.62527369
 20
-91.61265326
 30
0.0
 11
-173.58640689
 21
-91.58787838
 31
0.0
  0
LINE
  5
1CC
100
AcDbEntity
  8
LAYER0002
  6
CONTINUOUS
 62
       7
100
AcDbLine
 10
-173.58640689
 20
-91.58787838
 30
0.0
 11
-173.54678304
 21
-91.56454795
 31
0.0
  0
LINE
  5
1CD
100
AcDbEntity
  8
LAYER0002
  6
CONTINUOUS
 62
       7
100
AcDbLine
 10
-173.54678304
 20
-91.56454795
 30
0.0
 11
-173.50645884
 21
-91.54266301
 31
0.0
  0
LINE
  5
1CE
100
AcDbEntity
  8
LAYER0002
  6
CONTINUOUS
 62
       7
100
AcDbLine
 10
-173.50645884
 20
-91.54266301
 30
0.0
 11
-173.46549095
 21
-91.52222457
 31
0.0
  0
LINE
  5
1CF
100
AcDbEntity
  8
LAYER0002
  6
CONTINUOUS
 62
       7
100
AcDbLine
 10
-173.46549095
 20
-91.52222457
 30
0.0
 11
-173.42393608
 21
-91.50323367
 31
0.0
  0
LINE
  5
1D0
100
AcDbEntity
  8
LAYER0002
  6
CONTINUOUS
 62
       7
100
AcDbLine
 10
-173.42393608
 20
-91.50323367
 30
0.0
 11
-173.38185089
 21
-91.48569133
 31
0.0
  0
LINE
  5
1D1
100
AcDbEntity
  8
LAYER0002
  6
CONTINUOUS
 62
       7
100
AcDbLine
 10
-173.38185089
 20
-91.48569133
 30
0.0
 11
-173.33929206
 21
-91.46959858
 31
0.0
  0
LINE
  5
1D2
100
AcDbEntity
  8
LAYER0002
  6
CONTINUOUS
 62
       7
100
AcDbLine
 10
-173.33929206
 20
-91.46959858
 30
0.0
 11
-173.2963163
 21
-91.45495645
 31
0.0
  0
LINE
  5
1D3
100
AcDbEntity
  8
LAYER0002
  6
CONTINUOUS
 62
       7
100
AcDbLine
 10
-173.2963163
 20
-91.45495645
 30
0.0
 11
-173.25298026
 21
-91.44176595
 31
0.0
  0
LINE
  5
1D4
100
AcDbEntity
  8
LAYER0002
  6
CONTINUOUS
 62
       7
100
AcDbLine
 10
-173.25298026
 20
-91.44176595
 30
0.0
 11
-173.20934038
 21
-91.43002707
 31
0.0
  0
LINE
  5
1D5
100
AcDbEntity
  8
LAYER0002
  6
CONTINUOUS
 62
       7
100
AcDbLine
 10
-173.20934038
 20
-91.43002707
 30
0.0
 11
-173.16544008
 21
-91.41968932
 31
0.0
  0
LINE
  5
1D6
100
AcDbEntity
  8
LAYER0002
  6
CONTINUOUS
 62
       7
100
AcDbLine
 10
-173.16544008
 20
-91.41968932
 30
0.0
 11
-173.12130432
 21
-91.4106303
 31
0.0
  0
LINE
  5
1D7
100
AcDbEntity
  8
LAYER0002
  6
CONTINUOUS
 62
       7
100
AcDbLine
 10
-173.12130432
 20
-91.4106303
 30
0.0
 11
-173.07695665
 21
-91.40272215
 31
0.0
  0
LINE
  5
1D8
100
AcDbEntity
  8
LAYER0002
  6
CONTINUOUS
 62
       7
100
AcDbLine
 10
-173.07695665
 20
-91.40272215
 30
0.0
 11
-173.03242062
 21
-91.395837
 31
0.0
  0
LINE
  5
1D9
100
AcDbEntity
  8
LAYER0002
  6
CONTINUOUS
 62
       7
100
AcDbLine
 10
-173.03242062
 20
-91.395837
 30
0.0
 11
-172.98771977
 21
-91.38984697
 31
0.0
  0
LINE
  5
1DA
100
AcDbEntity
  8
LAYER0002
  6
CONTINUOUS
 62
       7
100
AcDbLine
 10
-172.98771977
 20
-91.38984697
 30
0.0
 11
-172.94287764
 21
-91.38462418
 31
0.0
  0
LINE
  5
1DB
100
AcDbEntity
  8
LAYER0002
  6
CONTINUOUS
 62
       7
100
AcDbLine
 10
-172.94287764
 20
-91.38462418
 30
0.0
 11
-172.89791779
 21
-91.38004076
 31
0.0
  0
LINE
  5
1DC
100
AcDbEntity
  8
LAYER0002
  6
CONTINUOUS
 62
       7
100
AcDbLine
 10
-172.89791779
 20
-91.38004076
 30
0.0
 11
-172.85286375
 21
-91.37596884
 31
0.0
  0
LINE
  5
1DD
100
AcDbEntity
  8
LAYER0002
  6
CONTINUOUS
 62
       7
100
AcDbLine
 10
-172.85286375
 20
-91.37596884
 30
0.0
 11
-172.80773908
 21
-91.37228055
 31
0.0
  0
LINE
  5
1DE
100
AcDbEntity
  8
LAYER0002
  6
CONTINUOUS
 62
       7
100
AcDbLine
 10
-172.80773908
 20
-91.37228055
 30
0.0
 11
-172.76256732
 21
-91.368848
 31
0.0
  0
LINE
  5
1DF
100
AcDbEntity
  8
LAYER0002
  6
CONTINUOUS
 62
       7
100
AcDbLine
 10
-172.76256732
 20
-91.368848
 30
0.0
 11
-172.71737201
 21
-91.36554332
 31
0.0
  0
LINE
  5
1E0
100
AcDbEntity
  8
LAYER0002
  6
CONTINUOUS
 62
       7
100
AcDbLine
 10
-172.71737201
 20
-99.86554285
 30
0.0
 11
-172.76277722
 21
-99.86125886
 31
0.0
  0
LINE
  5
1E1
100
AcDbEntity
  8
LAYER0002
  6
CONTINUOUS
 62
       7
100
AcDbLine
 10
-172.76277722
 20
-99.86125886
 30
0.0
 11
-172.80815423
 21
-99.85687066
 31
0.0
  0
LINE
  5
1E2
100
AcDbEntity
  8
LAYER0002
  6
CONTINUOUS
 62
       7
100
AcDbLine
 10
-172.80815423
 20
-99.85687066
 30
0.0
 11
-172.85347481
 21
-99.85227409
 31
0.0
  0
LINE
  5
1E3
100
AcDbEntity
  8
LAYER0002
  6
CONTINUOUS
 62
       7
100
AcDbLine
 10
-172.85347481
 20
-99.85227409
 30
0.0
 11
-172.89871075
 21
-99.84736493
 31
0.0
  0
LINE
  5
1E4
100
AcDbEntity
  8
LAYER0002
  6
CONTINUOUS
 62
       7
100
AcDbLine
 10
-172.89871075
 20
-99.84736493
 30
0.0
 11
-172.94383385
 21
-99.842039
 31
0.0
  0
LINE
  5
1E5
100
AcDbEntity
  8
LAYER0002
  6
CONTINUOUS
 62
       7
100
AcDbLine
 10
-172.94383385
 20
-99.842039
 30
0.0
 11
-172.98881589
 21
-99.8361921
 31
0.0
  0
LINE
  5
1E6
100
AcDbEntity
  8
LAYER0002
  6
CONTINUOUS
 62
       7
100
AcDbLine
 10
-172.98881589
 20
-99.8361921
 30
0.0
 11
-173.03362865
 21
-99.82972005
 31
0.0
  0
LINE
  5
1E7
100
AcDbEntity
  8
LAYER0002
  6
CONTINUOUS
 62
       7
100
AcDbLine
 10
-173.03362865
 20
-99.82972005
 30
0.0
 11
-173.07824393
 21
-99.82251864
 31
0.0
  0
LINE
  5
1E8
100
AcDbEntity
  8
LAYER0002
  6
CONTINUOUS
 62
       7
100
AcDbLine
 10
-173.07824393
 20
-99.82251864
 30
0.0
 11
-173.12263352
 21
-99.81448369
 31
0.0
  0
LINE
  5
1E9
100
AcDbEntity
  8
LAYER0002
  6
CONTINUOUS
 62
       7
100
AcDbLine
 10
-173.12263352
 20
-99.81448369
 30
0.0
 11
-173.16676919
 21
-99.805511
 31
0.0
  0
LINE
  5
1EA
100
AcDbEntity
  8
LAYER0002
  6
CONTINUOUS
 62
       7
100
AcDbLine
 10
-173.16676919
 20
-99.805511
 30
0.0
 11
-173.21062275
 21
-99.79549638
 31
0.0
  0
LINE
  5
1EB
100
AcDbEntity
  8
LAYER0002
  6
CONTINUOUS
 62
       7
100
AcDbLine
 10
-173.21062275
 20
-99.79549638
 30
0.0
 11
-173.25416597
 21
-99.78433563
 31
0.0
  0
LINE
  5
1EC
100
AcDbEntity
  8
LAYER0002
  6
CONTINUOUS
 62
       7
100
AcDbLine
 10
-173.25416597
 20
-99.78433563
 30
0.0
 11
-173.29737066
 21
-99.77192457
 31
0.0
  0
LINE
  5
1ED
100
AcDbEntity
  8
LAYER0002
  6
CONTINUOUS
 62
       7
100
AcDbLine
 10
-173.29737066
 20
-99.77192457
 30
0.0
 11
-173.34020858
 21
-99.75815899
 31
0.0
  0
LINE
  5
1EE
100
AcDbEntity
  8
LAYER0002
  6
CONTINUOUS
 62
       7
100
AcDbLine
 10
-173.34020858
 20
-99.75815899
 30
0.0
 11
-173.38265154
 21
-99.74293471
 31
0.0
  0
LINE
  5
1EF
100
AcDbEntity
  8
LAYER0002
  6
CONTINUOUS
 62
       7
100
AcDbLine
 10
-173.38265154
 20
-99.74293471
 30
0.0
 11
-173.42466998
 21
-99.72615104
 31
0.0
  0
LINE
  5
1F0
100
AcDbEntity
  8
LAYER0002
  6
CONTINUOUS
 62
       7
100
AcDbLine
 10
-173.42466998
 20
-99.72615104
 30
0.0
 11
-173.46621142
 21
-99.7077676
 31
0.0
  0
LINE
  5
1F1
100
AcDbEntity
  8
LAYER0002
  6
CONTINUOUS
 62
       7
100
AcDbLine
 10
-173.46621142
 20
-99.7077676
 30
0.0
 11
-173.5072041
 21
-99.68779468
 31
0.0
  0
LINE
  5
1F2
100
AcDbEntity
  8
LAYER0002
  6
CONTINUOUS
 62
       7
100
AcDbLine
 10
-173.5072041
 20
-99.68779468
 30
0.0
 11
-173.54757568
 21
-99.66624413
 31
0.0
  0
LINE
  5
1F3
100
AcDbEntity
  8
LAYER0002
  6
CONTINUOUS
 62
       7
100
AcDbLine
 10
-173.54757568
 20
-99.66624413
 30
0.0
 11
-173.58725377
 21
-99.64312782
 31
0.0
  0
LINE
  5
1F4
100
AcDbEntity
  8
LAYER0002
  6
CONTINUOUS
 62
       7
100
AcDbLine
 10
-173.58725377
 20
-99.64312782
 30
0.0
 11
-173.62616604
 21
-99.61845761
 31
0.0
  0
LINE
  5
1F5
100
AcDbEntity
  8
LAYER0002
  6
CONTINUOUS
 62
       7
100
AcDbLine
 10
-173.62616604
 20
-99.61845761
 30
0.0
 11
-173.66424012
 21
-99.59224538
 31
0.0
  0
LINE
  5
1F6
100
AcDbEntity
  8
LAYER0002
  6
CONTINUOUS
 62
       7
100
AcDbLine
 10
-173.66424012
 20
-99.59224538
 30
0.0
 11
-173.70140365
 21
-99.56450298
 31
0.0
  0
LINE
  5
1F7
100
AcDbEntity
  8
LAYER0002
  6
CONTINUOUS
 62
       7
100
AcDbLine
 10
-173.70140365
 20
-99.56450298
 30
0.0
 11
-173.73758427
 21
-99.53524227
 31
0.0
  0
LINE
  5
1F8
100
AcDbEntity
  8
LAYER0002
  6
CONTINUOUS
 62
       7
100
AcDbLine
 10
-173.73758427
 20
-99.53524227
 30
0.0
 11
-173.7727058
 21
-99.50447162
 31
0.0
  0
LINE
  5
1F9
100
AcDbEntity
  8
LAYER0002
  6
CONTINUOUS
 62
       7
100
AcDbLine
 10
-173.7727058
 20
-99.50447162
 30
0.0
 11
-173.80666447
 21
-99.47217401
 31
0.0
  0
LINE
  5
1FA
100
AcDbEntity
  8
LAYER0002
  6
CONTINUOUS
 62
       7
100
AcDbLine
 10
-173.80666447
 20
-99.47217401
 30
0.0
 11
-173.83934442
 21
-99.43832134
 31
0.0
  0
LINE
  5
1FB
100
AcDbEntity
  8
LAYER0002
  6
CONTINUOUS
 62
       7
100
AcDbLine
 10
-173.83934442
 20
-99.43832134
 30
0.0
 11
-173.87062972
 21
-99.40288544
 31
0.0
  0
LINE
  5
1FC
100
AcDbEntity
  8
LAYER0002
  6
CONTINUOUS
 62
       7
100
AcDbLine
 10
-173.87062972
 20
-99.40288544
 30
0.0
 11
-173.90040448
 21
-99.36583816
 31
0.0
  0
LINE
  5
1FD
100
AcDbEntity
  8
LAYER0002
  6
CONTINUOUS
 62
       7
100
AcDbLine
 10
-173.90040448
 20
-99.36583816
 30
0.0
 11
-173.92855276
 21
-99.32715134
 31
0.0
  0
LINE
  5
1FE
100
AcDbEntity
  8
LAYER0002
  6
CONTINUOUS
 62
       7
100
AcDbLine
 10
-173.92855276
 20
-99.32715134
 30
0.0
 11
-173.95495864
 21
-99.28679683
 31
0.0
  0
LINE
  5
1FF
100
AcDbEntity
  8
LAYER0002
  6
CONTINUOUS
 62
       7
100
AcDbLine
 10
-173.95495864
 20
-99.28679683
 30
0.0
 11
-173.97945529
 21
-99.24477995
 31
0.0
  0
LINE
  5
200
100
AcDbEntity
  8
LAYER0002
  6
CONTINUOUS
 62
       7
100
AcDbLine
 10
-173.97945529
 20
-99.24477995
 30
0.0
 11
-174.00170987
 21
-99.20121525
 31
0.0
  0
LINE
  5
201
100
AcDbEntity
  8
LAYER0002
  6
CONTINUOUS
 62
       7
100
AcDbLine
 10
-174.00170987
 20
-99.20121525
 30
0.0
 11
-174.02135573
 21
-99.15623949
 31
0.0
  0
LINE
  5
202
100
AcDbEntity
  8
LAYER0002
  6
CONTINUOUS
 62
       7
100
AcDbLine
 10
-174.02135573
 20
-99.15623949
 30
0.0
 11
-174.03802623
 21
-99.10998945
 31
0.0
  0
LINE
  5
203
100
AcDbEntity
  8
LAYER0002
  6
CONTINUOUS
 62
       7
100
AcDbLine
 10
-174.03802623
 20
-99.10998945
 30
0.0
 11
-174.05135474
 21
-99.0626019
 31
0.0
  0
LINE
  5
204
100
AcDbEntity
  8
LAYER0002
  6
CONTINUOUS
 62
       7
100
AcDbLine
 10
-174.05135474
 20
-99.0626019
 30
0.0
 11
-174.06112006
 21
-99.01422635
 31
0.0
  0
LINE
  5
205
100
AcDbEntity
  8
LAYER0002
  6
CONTINUOUS
 62
       7
100
AcDbLine
 10
-174.06112006
 20
-99.01422635
 30
0.0
 11
-174.0679711
 21
-98.9650886
 31
0.0
  0
LINE
  5
206
100
AcDbEntity
  8
LAYER0002
  6
CONTINUOUS
 62
       7
100
AcDbLine
 10
-174.0679711
 20
-98.9650886
 30
0.0
 11
-174.07287894
 21
-98.91544269
 31
0.0
  0
LINE
  5
207
100
AcDbEntity
  8
LAYER0002
  6
CONTINUOUS
 62
       7
100
AcDbLine
 10
-174.07287894
 20
-98.91544269
 30
0.0
 11
-174.07681519
 21
-98.86554269
 31
0.0
  0
LINE
  5
208
100
AcDbEntity
  8
LAYER0002
  6
CONTINUOUS
 62
       7
100
AcDbLine
 10
-146.16908604
 20
-98.86554269
 30
0.0
 11
-146.17428736
 21
-98.91556775
 31
0.0
  0
LINE
  5
209
100
AcDbEntity
  8
LAYER0002
  6
CONTINUOUS
 62
       7
100
AcDbLine
 10
-146.17428736
 20
-98.91556775
 30
0.0
 11
-146.18019624
 21
-98.96534308
 31
0.0
  0
LINE
  5
20A
100
AcDbEntity
  8
LAYER0002
  6
CONTINUOUS
 62
       7
100
AcDbLine
 10
-146.18019624
 20
-98.96534308
 30
0.0
 11
-146.18752023
 21
-99.01461899
 31
0.0
  0
LINE
  5
20B
100
AcDbEntity
  8
LAYER0002
  6
CONTINUOUS
 62
       7
100
AcDbLine
 10
-146.18752023
 20
-99.01461899
 30
0.0
 11
-146.19696689
 21
-99.06314574
 31
0.0
  0
LINE
  5
20C
100
AcDbEntity
  8
LAYER0002
  6
CONTINUOUS
 62
       7
100
AcDbLine
 10
-146.19696689
 20
-99.06314574
 30
0.0
 11
-146.20924379
 21
-99.11067362
 31
0.0
  0
LINE
  5
20D
100
AcDbEntity
  8
LAYER0002
  6
CONTINUOUS
 62
       7
100
AcDbLine
 10
-146.20924379
 20
-99.11067362
 30
0.0
 11
-146.22496221
 21
-99.15696771
 31
0.0
  0
LINE
  5
20E
100
AcDbEntity
  8
LAYER0002
  6
CONTINUOUS
 62
       7
100
AcDbLine
 10
-146.22496221
 20
-99.15696771
 30
0.0
 11
-146.24403147
 21
-99.20190089
 31
0.0
  0
LINE
  5
20F
100
AcDbEntity
  8
LAYER0002
  6
CONTINUOUS
 62
       7
100
AcDbLine
 10
-146.24403147
 20
-99.20190089
 30
0.0
 11
-146.26604999
 21
-99.24539384
 31
0.0
  0
LINE
  5
210
100
AcDbEntity
  8
LAYER0002
  6
CONTINUOUS
 62
       7
100
AcDbLine
 10
-146.26604999
 20
-99.24539384
 30
0.0
 11
-146.29061477
 21
-99.28736744
 31
0.0
  0
LINE
  5
211
100
AcDbEntity
  8
LAYER0002
  6
CONTINUOUS
 62
       7
100
AcDbLine
 10
-146.29061477
 20
-99.28736744
 30
0.0
 11
-146.31732281
 21
-99.32774255
 31
0.0
  0
LINE
  5
212
100
AcDbEntity
  8
LAYER0002
  6
CONTINUOUS
 62
       7
100
AcDbLine
 10
-146.31732281
 20
-99.32774255
 30
0.0
 11
-146.34578421
 21
-99.36644494
 31
0.0
  0
LINE
  5
213
100
AcDbEntity
  8
LAYER0002
  6
CONTINUOUS
 62
       7
100
AcDbLine
 10
-146.34578421
 20
-99.36644494
 30
0.0
 11
-146.3757804
 21
-99.40346435
 31
0.0
  0
LINE
  5
214
100
AcDbEntity
  8
LAYER0002
  6
CONTINUOUS
 62
       7
100
AcDbLine
 10
-146.3757804
 20
-99.40346435
 30
0.0
 11
-146.40721313
 21
-99.43883547
 31
0.0
  0
LINE
  5
215
100
AcDbEntity
  8
LAYER0002
  6
CONTINUOUS
 62
       7
100
AcDbLine
 10
-146.40721313
 20
-99.43883547
 30
0.0
 11
-146.43998668
 21
-99.47259388
 31
0.0
  0
LINE
  5
216
100
AcDbEntity
  8
LAYER0002
  6
CONTINUOUS
 62
       7
100
AcDbLine
 10
-146.43998668
 20
-99.47259388
 30
0.0
 11
-146.47400532
 21
-99.50477521
 31
0.0
  0
LINE
  5
217
100
AcDbEntity
  8
LAYER0002
  6
CONTINUOUS
 62
       7
100
AcDbLine
 10
-146.47400532
 20
-99.50477521
 30
0.0
 11
-146.5091733
 21
-99.53541505
 31
0.0
  0
LINE
  5
218
100
AcDbEntity
  8
LAYER0002
  6
CONTINUOUS
 62
       7
100
AcDbLine
 10
-146.5091733
 20
-99.53541505
 30
0.0
 11
-146.54539489
 21
-99.56454903
 31
0.0
  0
LINE
  5
219
100
AcDbEntity
  8
LAYER0002
  6
CONTINUOUS
 62
       7
100
AcDbLine
 10
-146.54539489
 20
-99.56454903
 30
0.0
 11
-146.58257442
 21
-99.59221269
 31
0.0
  0
LINE
  5
21A
100
AcDbEntity
  8
LAYER0002
  6
CONTINUOUS
 62
       7
100
AcDbLine
 10
-146.58257442
 20
-99.59221269
 30
0.0
 11
-146.62062754
 21
-99.61843095
 31
0.0
  0
LINE
  5
21B
100
AcDbEntity
  8
LAYER0002
  6
CONTINUOUS
 62
       7
100
AcDbLine
 10
-146.62062754
 20
-99.61843095
 30
0.0
 11
-146.65949437
 21
-99.64320579
 31
0.0
  0
LINE
  5
21C
100
AcDbEntity
  8
LAYER0002
  6
CONTINUOUS
 62
       7
100
AcDbLine
 10
-146.65949437
 20
-99.64320579
 30
0.0
 11
-146.69911824
 21
-99.66653619
 31
0.0
  0
LINE
  5
21D
100
AcDbEntity
  8
LAYER0002
  6
CONTINUOUS
 62
       7
100
AcDbLine
 10
-146.69911824
 20
-99.66653619
 30
0.0
 11
-146.73944247
 21
-99.68842111
 31
0.0
  0
LINE
  5
21E
100
AcDbEntity
  8
LAYER0002
  6
CONTINUOUS
 62
       7
100
AcDbLine
 10
-146.73944247
 20
-99.68842111
 30
0.0
 11
-146.78041036
 21
-99.70885953
 31
0.0
  0
LINE
  5
21F
100
AcDbEntity
  8
LAYER0002
  6
CONTINUOUS
 62
       7
100
AcDbLine
 10
-146.78041036
 20
-99.70885953
 30
0.0
 11
-146.82196524
 21
-99.72785044
 31
0.0
  0
LINE
  5
220
100
AcDbEntity
  8
LAYER0002
  6
CONTINUOUS
 62
       7
100
AcDbLine
 10
-146.82196524
 20
-99.72785044
 30
0.0
 11
-146.86405043
 21
-99.74539279
 31
0.0
  0
LINE
  5
221
100
AcDbEntity
  8
LAYER0002
  6
CONTINUOUS
 62
       7
100
AcDbLine
 10
-146.86405043
 20
-99.74539279
 30
0.0
 11
-146.90660925
 21
-99.76148558
 31
0.0
  0
LINE
  5
222
100
AcDbEntity
  8
LAYER0002
  6
CONTINUOUS
 62
       7
100
AcDbLine
 10
-146.90660925
 20
-99.76148558
 30
0.0
 11
-146.94958501
 21
-99.77612776
 31
0.0
  0
LINE
  5
223
100
AcDbEntity
  8
LAYER0002
  6
CONTINUOUS
 62
       7
100
AcDbLine
 10
-146.94958501
 20
-99.77612776
 30
0.0
 11
-146.99292103
 21
-99.78931833
 31
0.0
  0
LINE
  5
224
100
AcDbEntity
  8
LAYER0002
  6
CONTINUOUS
 62
       7
100
AcDbLine
 10
-146.99292103
 20
-99.78931833
 30
0.0
 11
-147.03656091
 21
-99.80105729
 31
0.0
  0
LINE
  5
225
100
AcDbEntity
  8
LAYER0002
  6
CONTINUOUS
 62
       7
100
AcDbLine
 10
-147.03656091
 20
-99.80105729
 30
0.0
 11
-147.0804612
 21
-99.81139515
 31
0.0
  0
LINE
  5
226
100
AcDbEntity
  8
LAYER0002
  6
CONTINUOUS
 62
       7
100
AcDbLine
 10
-147.0804612
 20
-99.81139515
 30
0.0
 11
-147.12459695
 21
-99.82045429
 31
0.0
  0
LINE
  5
227
100
AcDbEntity
  8
LAYER0002
  6
CONTINUOUS
 62
       7
100
AcDbLine
 10
-147.12459695
 20
-99.82045429
 30
0.0
 11
-147.16894461
 21
-99.82836257
 31
0.0
  0
LINE
  5
228
100
AcDbEntity
  8
LAYER0002
  6
CONTINUOUS
 62
       7
100
AcDbLine
 10
-147.16894461
 20
-99.82836257
 30
0.0
 11
-147.21348064
 21
-99.83524788
 31
0.0
  0
LINE
  5
229
100
AcDbEntity
  8
LAYER0002
  6
CONTINUOUS
 62
       7
100
AcDbLine
 10
-147.21348064
 20
-99.83524788
 30
0.0
 11
-147.25818149
 21
-99.84123807
 31
0.0
  0
LINE
  5
22A
100
AcDbEntity
  8
LAYER0002
  6
CONTINUOUS
 62
       7
100
AcDbLine
 10
-147.25818149
 20
-99.84123807
 30
0.0
 11
-147.30302361
 21
-99.84646104
 31
0.0
  0
LINE
  5
22B
100
AcDbEntity
  8
LAYER0002
  6
CONTINUOUS
 62
       7
100
AcDbLine
 10
-147.30302361
 20
-99.84646104
 30
0.0
 11
-147.34798345
 21
-99.85104463
 31
0.0
  0
LINE
  5
22C
100
AcDbEntity
  8
LAYER0002
  6
CONTINUOUS
 62
       7
100
AcDbLine
 10
-147.34798345
 20
-99.85104463
 30
0.0
 11
-147.39303749
 21
-99.85511674
 31
0.0
  0
LINE
  5
22D
100
AcDbEntity
  8
LAYER0002
  6
CONTINUOUS
 62
       7
100
AcDbLine
 10
-147.39303749
 20
-99.85511674
 30
0.0
 11
-147.43816215
 21
-99.85880523
 31
0.0
  0
LINE
  5
22E
100
AcDbEntity
  8
LAYER0002
  6
CONTINUOUS
 62
       7
100
AcDbLine
 10
-147.43816215
 20
-99.85880523
 30
0.0
 11
-147.48333391
 21
-99.86223798
 31
0.0
  0
LINE
  5
22F
100
AcDbEntity
  8
LAYER0002
  6
CONTINUOUS
 62
       7
100
AcDbLine
 10
-147.48333391
 20
-99.86223798
 30
0.0
 11
-147.52852922
 21
-99.86554285
 31
0.0
  0
LINE
  5
230
100
AcDbEntity
  8
LAYER0002
  6
CONTINUOUS
 62
       7
100
AcDbLine
 10
12.01891153
 20
58.38445841
 30
0.0
 11
12.05707109
 21
58.37765766
 31
0.0
  0
LINE
  5
231
100
AcDbEntity
  8
LAYER0002
  6
CONTINUOUS
 62
       7
100
AcDbLine
 10
12.05707109
 20
58.37765766
 30
0.0
 11
12.09519021
 21
58.37047203
 31
0.0
  0
LINE
  5
232
100
AcDbEntity
  8
LAYER0002
  6
CONTINUOUS
 62
       7
100
AcDbLine
 10
12.09519021
 20
58.37047203
 30
0.0
 11
12.13322845
 21
58.36251665
 31
0.0
  0
LINE
  5
233
100
AcDbEntity
  8
LAYER0002
  6
CONTINUOUS
 62
       7
100
AcDbLine
 10
12.13322845
 20
58.36251665
 30
0.0
 11
12.17114537
 21
58.35340663
 31
0.0
  0
LINE
  5
234
100
AcDbEntity
  8
LAYER0002
  6
CONTINUOUS
 62
       7
100
AcDbLine
 10
12.17114537
 20
58.35340663
 30
0.0
 11
12.20890051
 21
58.3427571
 31
0.0
  0
LINE
  5
235
100
AcDbEntity
  8
LAYER0002
  6
CONTINUOUS
 62
       7
100
AcDbLine
 10
12.20890051
 20
58.3427571
 30
0.0
 11
12.24645345
 21
58.33018317
 31
0.0
  0
LINE
  5
236
100
AcDbEntity
  8
LAYER0002
  6
CONTINUOUS
 62
       7
100
AcDbLine
 10
12.24645345
 20
58.33018317
 30
0.0
 11
12.28376375
 21
58.31529997
 31
0.0
  0
LINE
  5
237
100
AcDbEntity
  8
LAYER0002
  6
CONTINUOUS
 62
       7
100
AcDbLine
 10
12.28376375
 20
58.31529997
 30
0.0
 11
12.32079095
 21
58.29772262
 31
0.0
  0
LINE
  5
238
100
AcDbEntity
  8
LAYER0002
  6
CONTINUOUS
 62
       7
100
AcDbLine
 10
12.32079095
 20
58.29772262
 30
0.0
 11
12.35749427
 21
58.27707279
 31
0.0
  0
LINE
  5
239
100
AcDbEntity
  8
LAYER0002
  6
CONTINUOUS
 62
       7
100
AcDbLine
 10
12.35749427
 20
58.27707279
 30
0.0
 11
12.39382057
 21
58.25320378
 31
0.0
  0
LINE
  5
23A
100
AcDbEntity
  8
LAYER0002
  6
CONTINUOUS
 62
       7
100
AcDbLine
 10
12.39382057
 20
58.25320378
 30
0.0
 11
12.42970134
 21
58.2262571
 31
0.0
  0
LINE
  5
23B
100
AcDbEntity
  8
LAYER0002
  6
CONTINUOUS
 62
       7
100
AcDbLine
 10
12.42970134
 20
58.2262571
 30
0.0
 11
12.46506711
 21
58.19639229
 31
0.0
  0
LINE
  5
23C
100
AcDbEntity
  8
LAYER0002
  6
CONTINUOUS
 62
       7
100
AcDbLine
 10
12.46506711
 20
58.19639229
 30
0.0
 11
12.49984841
 21
58.16376889
 31
0.0
  0
LINE
  5
23D
100
AcDbEntity
  8
LAYER0002
  6
CONTINUOUS
 62
       7
100
AcDbLine
 10
12.49984841
 20
58.16376889
 30
0.0
 11
12.53397576
 21
58.12854645
 31
0.0
  0
LINE
  5
23E
100
AcDbEntity
  8
LAYER0002
  6
CONTINUOUS
 62
       7
100
AcDbLine
 10
12.53397576
 20
58.12854645
 30
0.0
 11
12.5673797
 21
58.09088453
 31
0.0
  0
LINE
  5
23F
100
AcDbEntity
  8
LAYER0002
  6
CONTINUOUS
 62
       7
100
AcDbLine
 10
12.5673797
 20
58.09088453
 30
0.0
 11
12.59999075
 21
58.05094265
 31
0.0
  0
LINE
  5
240
100
AcDbEntity
  8
LAYER0002
  6
CONTINUOUS
 62
       7
100
AcDbLine
 10
12.59999075
 20
58.05094265
 30
0.0
 11
12.63173945
 21
58.00888037
 31
0.0
  0
LINE
  5
241
100
AcDbEntity
  8
LAYER0002
  6
CONTINUOUS
 62
       7
100
AcDbLine
 10
12.63173945
 20
58.00888037
 30
0.0
 11
12.66255972
 21
57.96484662
 31
0.0
  0
LINE
  5
242
100
AcDbEntity
  8
LAYER0002
  6
CONTINUOUS
 62
       7
100
AcDbLine
 10
12.66255972
 20
57.96484662
 30
0.0
 11
12.69240816
 21
57.91891957
 31
0.0
  0
LINE
  5
243
100
AcDbEntity
  8
LAYER0002
  6
CONTINUOUS
 62
       7
100
AcDbLine
 10
12.69240816
 20
57.91891957
 30
0.0
 11
12.72125064
 21
57.87114844
 31
0.0
  0
LINE
  5
244
100
AcDbEntity
  8
LAYER0002
  6
CONTINUOUS
 62
       7
100
AcDbLine
 10
12.72125064
 20
57.87114844
 30
0.0
 11
12.74905307
 21
57.82158238
 31
0.0
  0
LINE
  5
245
100
AcDbEntity
  8
LAYER0002
  6
CONTINUOUS
 62
       7
100
AcDbLine
 10
12.74905307
 20
57.82158238
 30
0.0
 11
12.77578134
 21
57.7702705
 31
0.0
  0
LINE
  5
246
100
AcDbEntity
  8
LAYER0002
  6
CONTINUOUS
 62
       7
100
AcDbLine
 10
12.77578134
 20
57.7702705
 30
0.0
 11
12.80140136
 21
57.71726197
 31
0.0
  0
LINE
  5
247
100
AcDbEntity
  8
LAYER0002
  6
CONTINUOUS
 62
       7
100
AcDbLine
 10
12.80140136
 20
57.71726197
 30
0.0
 11
12.82587901
 21
57.66260589
 31
0.0
  0
LINE
  5
248
100
AcDbEntity
  8
LAYER0002
  6
CONTINUOUS
 62
       7
100
AcDbLine
 10
12.82587901
 20
57.66260589
 30
0.0
 11
12.84918021
 21
57.60635143
 31
0.0
  0
LINE
  5
249
100
AcDbEntity
  8
LAYER0002
  6
CONTINUOUS
 62
       7
100
AcDbLine
 10
12.84918021
 20
57.60635143
 30
0.0
 11
12.87127072
 21
57.54854788
 31
0.0
  0
LINE
  5
24A
100
AcDbEntity
  8
LAYER0002
  6
CONTINUOUS
 62
       7
100
AcDbLine
 10
12.87127072
 20
57.54854788
 30
0.0
 11
12.89210127
 21
57.48926493
 31
0.0
  0
LINE
  5
24B
100
AcDbEntity
  8
LAYER0002
  6
CONTINUOUS
 62
       7
100
AcDbLine
 10
12.89210127
 20
57.48926493
 30
0.0
 11
12.91159384
 21
57.4286112
 31
0.0
  0
LINE
  5
24C
100
AcDbEntity
  8
LAYER0002
  6
CONTINUOUS
 62
       7
100
AcDbLine
 10
12.91159384
 20
57.4286112
 30
0.0
 11
12.92966716
 21
57.36669969
 31
0.0
  0
LINE
  5
24D
100
AcDbEntity
  8
LAYER0002
  6
CONTINUOUS
 62
       7
100
AcDbLine
 10
12.92966716
 20
57.36669969
 30
0.0
 11
12.94623998
 21
57.30364341
 31
0.0
  0
LINE
  5
24E
100
AcDbEntity
  8
LAYER0002
  6
CONTINUOUS
 62
       7
100
AcDbLine
 10
12.94623998
 20
57.30364341
 30
0.0
 11
12.96123103
 21
57.23955535
 31
0.0
  0
LINE
  5
24F
100
AcDbEntity
  8
LAYER0002
  6
CONTINUOUS
 62
       7
100
AcDbLine
 10
12.96123103
 20
57.23955535
 30
0.0
 11
12.97455905
 21
57.17454853
 31
0.0
  0
LINE
  5
250
100
AcDbEntity
  8
LAYER0002
  6
CONTINUOUS
 62
       7
100
AcDbLine
 10
12.97455905
 20
57.17454853
 30
0.0
 11
12.98614278
 21
57.10873594
 31
0.0
  0
LINE
  5
251
100
AcDbEntity
  8
LAYER0002
  6
CONTINUOUS
 62
       7
100
AcDbLine
 10
12.98614278
 20
57.10873594
 30
0.0
 11
12.99590096
 21
57.0422306
 31
0.0
  0
LINE
  5
252
100
AcDbEntity
  8
LAYER0002
  6
CONTINUOUS
 62
       7
100
AcDbLine
 10
12.99590096
 20
57.0422306
 30
0.0
 11
13.00377404
 21
56.97514461
 31
0.0
  0
LINE
  5
253
100
AcDbEntity
  8
LAYER0002
  6
CONTINUOUS
 62
       7
100
AcDbLine
 10
13.00377404
 20
56.97514461
 30
0.0
 11
13.00994662
 21
56.90758006
 31
0.0
  0
LINE
  5
254
100
AcDbEntity
  8
LAYER0002
  6
CONTINUOUS
 62
       7
100
AcDbLine
 10
13.00994662
 20
56.90758006
 30
0.0
 11
13.01475688
 21
56.83963275
 31
0.0
  0
LINE
  5
255
100
AcDbEntity
  8
LAYER0002
  6
CONTINUOUS
 62
       7
100
AcDbLine
 10
13.01475688
 20
56.83963275
 30
0.0
 11
13.0185454
 21
56.77139836
 31
0.0
  0
LINE
  5
256
100
AcDbEntity
  8
LAYER0002
  6
CONTINUOUS
 62
       7
100
AcDbLine
 10
13.0185454
 20
56.77139836
 30
0.0
 11
13.02165276
 21
56.70297259
 31
0.0
  0
LINE
  5
257
100
AcDbEntity
  8
LAYER0002
  6
CONTINUOUS
 62
       7
100
AcDbLine
 10
13.02165276
 20
56.70297259
 30
0.0
 11
13.02441954
 21
56.63445113
 31
0.0
  0
LINE
  5
258
100
AcDbEntity
  8
LAYER0002
  6
CONTINUOUS
 62
       7
100
AcDbLine
 10
13.02441954
 20
46.2344539
 30
0.0
 11
13.02033069
 21
46.1657193
 31
0.0
  0
LINE
  5
259
100
AcDbEntity
  8
LAYER0002
  6
CONTINUOUS
 62
       7
100
AcDbLine
 10
13.02033069
 20
46.1657193
 30
0.0
 11
13.01601344
 21
46.0970887
 31
0.0
  0
LINE
  5
25A
100
AcDbEntity
  8
LAYER0002
  6
CONTINUOUS
 62
       7
100
AcDbLine
 10
13.01601344
 20
46.0970887
 30
0.0
 11
13.01123939
 21
46.02866607
 31
0.0
  0
LINE
  5
25B
100
AcDbEntity
  8
LAYER0002
  6
CONTINUOUS
 62
       7
100
AcDbLine
 10
13.01123939
 20
46.02866607
 30
0.0
 11
13.00578015
 21
45.96055541
 31
0.0
  0
LINE
  5
25C
100
AcDbEntity
  8
LAYER0002
  6
CONTINUOUS
 62
       7
100
AcDbLine
 10
13.00578015
 20
45.96055541
 30
0.0
 11
12.99940732
 21
45.8928607
 31
0.0
  0
LINE
  5
25D
100
AcDbEntity
  8
LAYER0002
  6
CONTINUOUS
 62
       7
100
AcDbLine
 10
12.99940732
 20
45.8928607
 30
0.0
 11
12.9918925
 21
45.82568595
 31
0.0
  0
LINE
  5
25E
100
AcDbEntity
  8
LAYER0002
  6
CONTINUOUS
 62
       7
100
AcDbLine
 10
12.9918925
 20
45.82568595
 30
0.0
 11
12.98300729
 21
45.75913512
 31
0.0
  0
LINE
  5
25F
100
AcDbEntity
  8
LAYER0002
  6
CONTINUOUS
 62
       7
100
AcDbLine
 10
12.98300729
 20
45.75913512
 30
0.0
 11
12.9725233
 21
45.69331223
 31
0.0
  0
LINE
  5
260
100
AcDbEntity
  8
LAYER0002
  6
CONTINUOUS
 62
       7
100
AcDbLine
 10
12.9725233
 20
45.69331223
 30
0.0
 11
12.96021607
 21
45.62832119
 31
0.0
  0
LINE
  5
261
100
AcDbEntity
  8
LAYER0002
  6
CONTINUOUS
 62
       7
100
AcDbLine
 10
12.96021607
 20
45.62832119
 30
0.0
 11
12.9460017
 21
45.564264
 31
0.0
  0
LINE
  5
262
100
AcDbEntity
  8
LAYER0002
  6
CONTINUOUS
 62
       7
100
AcDbLine
 10
12.9460017
 20
45.564264
 30
0.0
 11
12.92997154
 21
45.50124022
 31
0.0
  0
LINE
  5
263
100
AcDbEntity
  8
LAYER0002
  6
CONTINUOUS
 62
       7
100
AcDbLine
 10
12.92997154
 20
45.50124022
 30
0.0
 11
12.91222797
 21
45.43934925
 31
0.0
  0
LINE
  5
264
100
AcDbEntity
  8
LAYER0002
  6
CONTINUOUS
 62
       7
100
AcDbLine
 10
12.91222797
 20
45.43934925
 30
0.0
 11
12.89287335
 21
45.3786905
 31
0.0
  0
LINE
  5
265
100
AcDbEntity
  8
LAYER0002
  6
CONTINUOUS
 62
       7
100
AcDbLine
 10
12.89287335
 20
45.3786905
 30
0.0
 11
12.87201005
 21
45.31936337
 31
0.0
  0
LINE
  5
266
100
AcDbEntity
  8
LAYER0002
  6
CONTINUOUS
 62
       7
100
AcDbLine
 10
12.87201005
 20
45.31936337
 30
0.0
 11
12.84974045
 21
45.26146728
 31
0.0
  0
LINE
  5
267
100
AcDbEntity
  8
LAYER0002
  6
CONTINUOUS
 62
       7
100
AcDbLine
 10
12.84974045
 20
45.26146728
 30
0.0
 11
12.8261669
 21
45.20510163
 31
0.0
  0
LINE
  5
268
100
AcDbEntity
  8
LAYER0002
  6
CONTINUOUS
 62
       7
100
AcDbLine
 10
12.8261669
 20
45.20510163
 30
0.0
 11
12.80139178
 21
45.15036583
 31
0.0
  0
LINE
  5
269
100
AcDbEntity
  8
LAYER0002
  6
CONTINUOUS
 62
       7
100
AcDbLine
 10
12.80139178
 20
45.15036583
 30
0.0
 11
12.77551101
 21
45.09735437
 31
0.0
  0
LINE
  5
26A
100
AcDbEntity
  8
LAYER0002
  6
CONTINUOUS
 62
       7
100
AcDbLine
 10
12.77551101
 20
45.09735437
 30
0.0
 11
12.74857721
 21
45.04612895
 31
0.0
  0
LINE
  5
26B
100
AcDbEntity
  8
LAYER0002
  6
CONTINUOUS
 62
       7
100
AcDbLine
 10
12.74857721
 20
45.04612895
 30
0.0
 11
12.72062523
 21
44.99673773
 31
0.0
  0
LINE
  5
26C
100
AcDbEntity
  8
LAYER0002
  6
CONTINUOUS
 62
       7
100
AcDbLine
 10
12.72062523
 20
44.99673773
 30
0.0
 11
12.69168989
 21
44.94922886
 31
0.0
  0
LINE
  5
26D
100
AcDbEntity
  8
LAYER0002
  6
CONTINUOUS
 62
       7
100
AcDbLine
 10
12.69168989
 20
44.94922886
 30
0.0
 11
12.66180598
 21
44.90365047
 31
0.0
  0
LINE
  5
26E
100
AcDbEntity
  8
LAYER0002
  6
CONTINUOUS
 62
       7
100
AcDbLine
 10
12.66180598
 20
44.90365047
 30
0.0
 11
12.6310083
 21
44.86005072
 31
0.0
  0
LINE
  5
26F
100
AcDbEntity
  8
LAYER0002
  6
CONTINUOUS
 62
       7
100
AcDbLine
 10
12.6310083
 20
44.86005072
 30
0.0
 11
12.59933164
 21
44.81847774
 31
0.0
  0
LINE
  5
270
100
AcDbEntity
  8
LAYER0002
  6
CONTINUOUS
 62
       7
100
AcDbLine
 10
12.59933164
 20
44.81847774
 30
0.0
 11
12.56681082
 21
44.77897966
 31
0.0
  0
LINE
  5
271
100
AcDbEntity
  8
LAYER0002
  6
CONTINUOUS
 62
       7
100
AcDbLine
 10
12.56681082
 20
44.77897966
 30
0.0
 11
12.53348073
 21
44.74160484
 31
0.0
  0
LINE
  5
272
100
AcDbEntity
  8
LAYER0002
  6
CONTINUOUS
 62
       7
100
AcDbLine
 10
12.53348073
 20
44.74160484
 30
0.0
 11
12.49938864
 21
44.70642591
 31
0.0
  0
LINE
  5
273
100
AcDbEntity
  8
LAYER0002
  6
CONTINUOUS
 62
       7
100
AcDbLine
 10
12.49938864
 20
44.70642591
 30
0.0
 11
12.464606
 21
44.67356309
 31
0.0
  0
LINE
  5
274
100
AcDbEntity
  8
LAYER0002
  6
CONTINUOUS
 62
       7
100
AcDbLine
 10
12.464606
 20
44.67356309
 30
0.0
 11
12.4292071
 21
44.64314207
 31
0.0
  0
LINE
  5
275
100
AcDbEntity
  8
LAYER0002
  6
CONTINUOUS
 62
       7
100
AcDbLine
 10
12.4292071
 20
44.64314207
 30
0.0
 11
12.39326617
 21
44.61528857
 31
0.0
  0
LINE
  5
276
100
AcDbEntity
  8
LAYER0002
  6
CONTINUOUS
 62
       7
100
AcDbLine
 10
12.39326617
 20
44.61528857
 30
0.0
 11
12.3568575
 21
44.5901283
 31
0.0
  0
LINE
  5
277
100
AcDbEntity
  8
LAYER0002
  6
CONTINUOUS
 62
       7
100
AcDbLine
 10
12.3568575
 20
44.5901283
 30
0.0
 11
12.32005534
 21
44.56778696
 31
0.0
  0
LINE
  5
278
100
AcDbEntity
  8
LAYER0002
  6
CONTINUOUS
 62
       7
100
AcDbLine
 10
12.32005534
 20
44.56778696
 30
0.0
 11
12.28293396
 21
44.54839025
 31
0.0
  0
LINE
  5
279
100
AcDbEntity
  8
LAYER0002
  6
CONTINUOUS
 62
       7
100
AcDbLine
 10
12.28293396
 20
44.54839025
 30
0.0
 11
12.24556761
 21
44.53206389
 31
0.0
  0
LINE
  5
27A
100
AcDbEntity
  8
LAYER0002
  6
CONTINUOUS
 62
       7
100
AcDbLine
 10
12.24556761
 20
44.53206389
 30
0.0
 11
12.20802813
 21
44.51889877
 31
0.0
  0
LINE
  5
27B
100
AcDbEntity
  8
LAYER0002
  6
CONTINUOUS
 62
       7
100
AcDbLine
 10
12.20802813
 20
44.51889877
 30
0.0
 11
12.17035948
 21
44.50858485
 31
0.0
  0
LINE
  5
27C
100
AcDbEntity
  8
LAYER0002
  6
CONTINUOUS
 62
       7
100
AcDbLine
 10
12.17035948
 20
44.50858485
 30
0.0
 11
12.13258771
 21
44.50055524
 31
0.0
  0
LINE
  5
27D
100
AcDbEntity
  8
LAYER0002
  6
CONTINUOUS
 62
       7
100
AcDbLine
 10
12.13258771
 20
44.50055524
 30
0.0
 11
12.09473862
 21
44.49423887
 31
0.0
  0
LINE
  5
27E
100
AcDbEntity
  8
LAYER0002
  6
CONTINUOUS
 62
       7
100
AcDbLine
 10
12.09473862
 20
44.49423887
 30
0.0
 11
12.05683796
 21
44.48906466
 31
0.0
  0
LINE
  5
27F
100
AcDbEntity
  8
LAYER0002
  6
CONTINUOUS
 62
       7
100
AcDbLine
 10
12.05683796
 20
44.48906466
 30
0.0
 11
12.01891153
 21
44.48446153
 31
0.0
  0
LINE
  5
280
100
AcDbEntity
  8
LAYER0002
  6
CONTINUOUS
 62
       7
100
AcDbLine
 10
9.84160229
 20
-91.36554332
 30
0.0
 11
9.86301889
 21
-91.36982717
 31
0.0
  0
LINE
  5
281
100
AcDbEntity
  8
LAYER0002
  6
CONTINUOUS
 62
       7
100
AcDbLine
 10
9.86301889
 20
-91.36982717
 30
0.0
 11
9.88442924
 21
-91.37421522
 31
0.0
  0
LINE
  5
282
100
AcDbEntity
  8
LAYER0002
  6
CONTINUOUS
 62
       7
100
AcDbLine
 10
9.88442924
 20
-91.37421522
 30
0.0
 11
9.90582708
 21
-91.37881165
 31
0.0
  0
LINE
  5
283
100
AcDbEntity
  8
LAYER0002
  6
CONTINUOUS
 62
       7
100
AcDbLine
 10
9.90582708
 20
-91.37881165
 30
0.0
 11
9.92720614
 21
-91.38372066
 31
0.0
  0
LINE
  5
284
100
AcDbEntity
  8
LAYER0002
  6
CONTINUOUS
 62
       7
100
AcDbLine
 10
9.92720614
 20
-91.38372066
 30
0.0
 11
9.94856018
 21
-91.38904645
 31
0.0
  0
LINE
  5
285
100
AcDbEntity
  8
LAYER0002
  6
CONTINUOUS
 62
       7
100
AcDbLine
 10
9.94856018
 20
-91.38904645
 30
0.0
 11
9.96988294
 21
-91.39489321
 31
0.0
  0
LINE
  5
286
100
AcDbEntity
  8
LAYER0002
  6
CONTINUOUS
 62
       7
100
AcDbLine
 10
9.96988294
 20
-91.39489321
 30
0.0
 11
9.99116815
 21
-91.40136513
 31
0.0
  0
LINE
  5
287
100
AcDbEntity
  8
LAYER0002
  6
CONTINUOUS
 62
       7
100
AcDbLine
 10
9.99116815
 20
-91.40136513
 30
0.0
 11
10.01240957
 21
-91.40856641
 31
0.0
  0
LINE
  5
288
100
AcDbEntity
  8
LAYER0002
  6
CONTINUOUS
 62
       7
100
AcDbLine
 10
10.01240957
 20
-91.40856641
 30
0.0
 11
10.03360094
 21
-91.41660124
 31
0.0
  0
LINE
  5
289
100
AcDbEntity
  8
LAYER0002
  6
CONTINUOUS
 62
       7
100
AcDbLine
 10
10.03360094
 20
-91.41660124
 30
0.0
 11
10.054736
 21
-91.42557382
 31
0.0
  0
LINE
  5
28A
100
AcDbEntity
  8
LAYER0002
  6
CONTINUOUS
 62
       7
100
AcDbLine
 10
10.054736
 20
-91.42557382
 30
0.0
 11
10.07580849
 21
-91.43558834
 31
0.0
  0
LINE
  5
28B
100
AcDbEntity
  8
LAYER0002
  6
CONTINUOUS
 62
       7
100
AcDbLine
 10
10.07580849
 20
-91.43558834
 30
0.0
 11
10.09681215
 21
-91.44674899
 31
0.0
  0
LINE
  5
28C
100
AcDbEntity
  8
LAYER0002
  6
CONTINUOUS
 62
       7
100
AcDbLine
 10
10.09681215
 20
-91.44674899
 30
0.0
 11
10.11774074
 21
-91.45915996
 31
0.0
  0
LINE
  5
28D
100
AcDbEntity
  8
LAYER0002
  6
CONTINUOUS
 62
       7
100
AcDbLine
 10
10.11774074
 20
-91.45915996
 30
0.0
 11
10.13858799
 21
-91.47292546
 31
0.0
  0
LINE
  5
28E
100
AcDbEntity
  8
LAYER0002
  6
CONTINUOUS
 62
       7
100
AcDbLine
 10
10.13858799
 20
-91.47292546
 30
0.0
 11
10.15934765
 21
-91.48814967
 31
0.0
  0
LINE
  5
28F
100
AcDbEntity
  8
LAYER0002
  6
CONTINUOUS
 62
       7
100
AcDbLine
 10
10.15934765
 20
-91.48814967
 30
0.0
 11
10.18001228
 21
-91.50493328
 31
0.0
  0
LINE
  5
290
100
AcDbEntity
  8
LAYER0002
  6
CONTINUOUS
 62
       7
100
AcDbLine
 10
10.18001228
 20
-91.50493328
 30
0.0
 11
10.20055414
 21
-91.52331667
 31
0.0
  0
LINE
  5
291
100
AcDbEntity
  8
LAYER0002
  6
CONTINUOUS
 62
       7
100
AcDbLine
 10
10.20055414
 20
-91.52331667
 30
0.0
 11
10.22092848
 21
-91.54328957
 31
0.0
  0
LINE
  5
292
100
AcDbEntity
  8
LAYER0002
  6
CONTINUOUS
 62
       7
100
AcDbLine
 10
10.22092848
 20
-91.54328957
 30
0.0
 11
10.24108998
 21
-91.5648401
 31
0.0
  0
LINE
  5
293
100
AcDbEntity
  8
LAYER0002
  6
CONTINUOUS
 62
       7
100
AcDbLine
 10
10.24108998
 20
-91.5648401
 30
0.0
 11
10.26099333
 21
-91.5879564
 31
0.0
  0
LINE
  5
294
100
AcDbEntity
  8
LAYER0002
  6
CONTINUOUS
 62
       7
100
AcDbLine
 10
10.26099333
 20
-91.5879564
 30
0.0
 11
10.28059322
 21
-91.61262661
 31
0.0
  0
LINE
  5
295
100
AcDbEntity
  8
LAYER0002
  6
CONTINUOUS
 62
       7
100
AcDbLine
 10
10.28059322
 20
-91.61262661
 30
0.0
 11
10.29984436
 21
-91.63883886
 31
0.0
  0
LINE
  5
296
100
AcDbEntity
  8
LAYER0002
  6
CONTINUOUS
 62
       7
100
AcDbLine
 10
10.29984436
 20
-91.63883886
 30
0.0
 11
10.31870142
 21
-91.66658129
 31
0.0
  0
LINE
  5
297
100
AcDbEntity
  8
LAYER0002
  6
CONTINUOUS
 62
       7
100
AcDbLine
 10
10.31870142
 20
-91.66658129
 30
0.0
 11
10.33711912
 21
-91.69584204
 31
0.0
  0
LINE
  5
298
100
AcDbEntity
  8
LAYER0002
  6
CONTINUOUS
 62
       7
100
AcDbLine
 10
10.33711912
 20
-91.69584204
 30
0.0
 11
10.35505047
 21
-91.72661276
 31
0.0
  0
LINE
  5
299
100
AcDbEntity
  8
LAYER0002
  6
CONTINUOUS
 62
       7
100
AcDbLine
 10
10.35505047
 20
-91.72661276
 30
0.0
 11
10.37243663
 21
-91.75891043
 31
0.0
  0
LINE
  5
29A
100
AcDbEntity
  8
LAYER0002
  6
CONTINUOUS
 62
       7
100
AcDbLine
 10
10.37243663
 20
-91.75891043
 30
0.0
 11
10.38921349
 21
-91.79276317
 31
0.0
  0
LINE
  5
29B
100
AcDbEntity
  8
LAYER0002
  6
CONTINUOUS
 62
       7
100
AcDbLine
 10
10.38921349
 20
-91.79276317
 30
0.0
 11
10.40531693
 21
-91.82819913
 31
0.0
  0
LINE
  5
29C
100
AcDbEntity
  8
LAYER0002
  6
CONTINUOUS
 62
       7
100
AcDbLine
 10
10.40531693
 20
-91.82819913
 30
0.0
 11
10.42068285
 21
-91.86524645
 31
0.0
  0
LINE
  5
29D
100
AcDbEntity
  8
LAYER0002
  6
CONTINUOUS
 62
       7
100
AcDbLine
 10
10.42068285
 20
-91.86524645
 30
0.0
 11
10.43524713
 21
-91.9039333
 31
0.0
  0
LINE
  5
29E
100
AcDbEntity
  8
LAYER0002
  6
CONTINUOUS
 62
       7
100
AcDbLine
 10
10.43524713
 20
-91.9039333
 30
0.0
 11
10.44894565
 21
-91.94428782
 31
0.0
  0
LINE
  5
29F
100
AcDbEntity
  8
LAYER0002
  6
CONTINUOUS
 62
       7
100
AcDbLine
 10
10.44894565
 20
-91.94428782
 30
0.0
 11
10.46168666
 21
-91.98630466
 31
0.0
  0
LINE
  5
2A0
100
AcDbEntity
  8
LAYER0002
  6
CONTINUOUS
 62
       7
100
AcDbLine
 10
10.46168666
 20
-91.98630466
 30
0.0
 11
10.47328835
 21
-92.02986931
 31
0.0
  0
LINE
  5
2A1
100
AcDbEntity
  8
LAYER0002
  6
CONTINUOUS
 62
       7
100
AcDbLine
 10
10.47328835
 20
-92.02986931
 30
0.0
 11
10.48355055
 21
-92.07484499
 31
0.0
  0
LINE
  5
2A2
100
AcDbEntity
  8
LAYER0002
  6
CONTINUOUS
 62
       7
100
AcDbLine
 10
10.48355055
 20
-92.07484499
 30
0.0
 11
10.49227311
 21
-92.12109496
 31
0.0
  0
LINE
  5
2A3
100
AcDbEntity
  8
LAYER0002
  6
CONTINUOUS
 62
       7
100
AcDbLine
 10
10.49227311
 20
-92.12109496
 30
0.0
 11
10.49925585
 21
-92.16848246
 31
0.0
  0
LINE
  5
2A4
100
AcDbEntity
  8
LAYER0002
  6
CONTINUOUS
 62
       7
100
AcDbLine
 10
10.49925585
 20
-92.16848246
 30
0.0
 11
10.50437564
 21
-92.21685798
 31
0.0
  0
LINE
  5
2A5
100
AcDbEntity
  8
LAYER0002
  6
CONTINUOUS
 62
       7
100
AcDbLine
 10
10.50437564
 20
-92.21685798
 30
0.0
 11
10.50797013
 21
-92.26599571
 31
0.0
  0
LINE
  5
2A6
100
AcDbEntity
  8
LAYER0002
  6
CONTINUOUS
 62
       7
100
AcDbLine
 10
10.50797013
 20
-92.26599571
 30
0.0
 11
10.51054757
 21
-92.31564162
 31
0.0
  0
LINE
  5
2A7
100
AcDbEntity
  8
LAYER0002
  6
CONTINUOUS
 62
       7
100
AcDbLine
 10
10.51054757
 20
-92.31564162
 30
0.0
 11
10.51261648
 21
-92.36554162
 31
0.0
  0
LINE
  5
2A8
100
AcDbEntity
  8
LAYER0002
  6
CONTINUOUS
 62
       7
100
AcDbLine
 10
10.51261648
 20
-98.86554269
 30
0.0
 11
10.50987993
 21
-98.91556775
 31
0.0
  0
LINE
  5
2A9
100
AcDbEntity
  8
LAYER0002
  6
CONTINUOUS
 62
       7
100
AcDbLine
 10
10.50987993
 20
-98.91556775
 30
0.0
 11
10.5067745
 21
-98.96534308
 31
0.0
  0
LINE
  5
2AA
100
AcDbEntity
  8
LAYER0002
  6
CONTINUOUS
 62
       7
100
AcDbLine
 10
10.5067745
 20
-98.96534308
 30
0.0
 11
10.50293127
 21
-99.01461899
 31
0.0
  0
LINE
  5
2AB
100
AcDbEntity
  8
LAYER0002
  6
CONTINUOUS
 62
       7
100
AcDbLine
 10
10.50293127
 20
-99.01461899
 30
0.0
 11
10.49798135
 21
-99.06314574
 31
0.0
  0
LINE
  5
2AC
100
AcDbEntity
  8
LAYER0002
  6
CONTINUOUS
 62
       7
100
AcDbLine
 10
10.49798135
 20
-99.06314574
 30
0.0
 11
10.49155584
 21
-99.11067362
 31
0.0
  0
LINE
  5
2AD
100
AcDbEntity
  8
LAYER0002
  6
CONTINUOUS
 62
       7
100
AcDbLine
 10
10.49155584
 20
-99.11067362
 30
0.0
 11
10.48333685
 21
-99.15696771
 31
0.0
  0
LINE
  5
2AE
100
AcDbEntity
  8
LAYER0002
  6
CONTINUOUS
 62
       7
100
AcDbLine
 10
10.48333685
 20
-99.15696771
 30
0.0
 11
10.47337839
 21
-99.20190089
 31
0.0
  0
LINE
  5
2AF
100
AcDbEntity
  8
LAYER0002
  6
CONTINUOUS
 62
       7
100
AcDbLine
 10
10.47337839
 20
-99.20190089
 30
0.0
 11
10.46189919
 21
-99.24539384
 31
0.0
  0
LINE
  5
2B0
100
AcDbEntity
  8
LAYER0002
  6
CONTINUOUS
 62
       7
100
AcDbLine
 10
10.46189919
 20
-99.24539384
 30
0.0
 11
10.44911871
 21
-99.28736744
 31
0.0
  0
LINE
  5
2B1
100
AcDbEntity
  8
LAYER0002
  6
CONTINUOUS
 62
       7
100
AcDbLine
 10
10.44911871
 20
-99.28736744
 30
0.0
 11
10.43525644
 21
-99.32774255
 31
0.0
  0
LINE
  5
2B2
100
AcDbEntity
  8
LAYER0002
  6
CONTINUOUS
 62
       7
100
AcDbLine
 10
10.43525644
 20
-99.32774255
 30
0.0
 11
10.42052477
 21
-99.36644494
 31
0.0
  0
LINE
  5
2B3
100
AcDbEntity
  8
LAYER0002
  6
CONTINUOUS
 62
       7
100
AcDbLine
 10
10.42052477
 20
-99.36644494
 30
0.0
 11
10.40504349
 21
-99.40346435
 31
0.0
  0
LINE
  5
2B4
100
AcDbEntity
  8
LAYER0002
  6
CONTINUOUS
 62
       7
100
AcDbLine
 10
10.40504349
 20
-99.40346435
 30
0.0
 11
10.38886733
 21
-99.43883547
 31
0.0
  0
LINE
  5
2B5
100
AcDbEntity
  8
LAYER0002
  6
CONTINUOUS
 62
       7
100
AcDbLine
 10
10.38886733
 20
-99.43883547
 30
0.0
 11
10.37204969
 21
-99.47259388
 31
0.0
  0
LINE
  5
2B6
100
AcDbEntity
  8
LAYER0002
  6
CONTINUOUS
 62
       7
100
AcDbLine
 10
10.37204969
 20
-99.47259388
 30
0.0
 11
10.35464396
 21
-99.50477521
 31
0.0
  0
LINE
  5
2B7
100
AcDbEntity
  8
LAYER0002
  6
CONTINUOUS
 62
       7
100
AcDbLine
 10
10.35464396
 20
-99.50477521
 30
0.0
 11
10.33670353
 21
-99.53541505
 31
0.0
  0
LINE
  5
2B8
100
AcDbEntity
  8
LAYER0002
  6
CONTINUOUS
 62
       7
100
AcDbLine
 10
10.33670353
 20
-99.53541505
 30
0.0
 11
10.31828178
 21
-99.56454903
 31
0.0
  0
LINE
  5
2B9
100
AcDbEntity
  8
LAYER0002
  6
CONTINUOUS
 62
       7
100
AcDbLine
 10
10.31828178
 20
-99.56454903
 30
0.0
 11
10.29943207
 21
-99.59221269
 31
0.0
  0
LINE
  5
2BA
100
AcDbEntity
  8
LAYER0002
  6
CONTINUOUS
 62
       7
100
AcDbLine
 10
10.29943207
 20
-99.59221269
 30
0.0
 11
10.28020223
 21
-99.61843095
 31
0.0
  0
LINE
  5
2BB
100
AcDbEntity
  8
LAYER0002
  6
CONTINUOUS
 62
       7
100
AcDbLine
 10
10.28020223
 20
-99.61843095
 30
0.0
 11
10.26062815
 21
-99.64320579
 31
0.0
  0
LINE
  5
2BC
100
AcDbEntity
  8
LAYER0002
  6
CONTINUOUS
 62
       7
100
AcDbLine
 10
10.26062815
 20
-99.64320579
 30
0.0
 11
10.24074414
 21
-99.66653619
 31
0.0
  0
LINE
  5
2BD
100
AcDbEntity
  8
LAYER0002
  6
CONTINUOUS
 62
       7
100
AcDbLine
 10
10.24074414
 20
-99.66653619
 30
0.0
 11
10.22058452
 21
-99.68842111
 31
0.0
  0
LINE
  5
2BE
100
AcDbEntity
  8
LAYER0002
  6
CONTINUOUS
 62
       7
100
AcDbLine
 10
10.22058452
 20
-99.68842111
 30
0.0
 11
10.20018361
 21
-99.70885953
 31
0.0
  0
LINE
  5
2BF
100
AcDbEntity
  8
LAYER0002
  6
CONTINUOUS
 62
       7
100
AcDbLine
 10
10.20018361
 20
-99.70885953
 30
0.0
 11
10.17957573
 21
-99.72785044
 31
0.0
  0
LINE
  5
2C0
100
AcDbEntity
  8
LAYER0002
  6
CONTINUOUS
 62
       7
100
AcDbLine
 10
10.17957573
 20
-99.72785044
 30
0.0
 11
10.15879521
 21
-99.74539279
 31
0.0
  0
LINE
  5
2C1
100
AcDbEntity
  8
LAYER0002
  6
CONTINUOUS
 62
       7
100
AcDbLine
 10
10.15879521
 20
-99.74539279
 30
0.0
 11
10.13787635
 21
-99.76148558
 31
0.0
  0
LINE
  5
2C2
100
AcDbEntity
  8
LAYER0002
  6
CONTINUOUS
 62
       7
100
AcDbLine
 10
10.13787635
 20
-99.76148558
 30
0.0
 11
10.11685348
 21
-99.77612776
 31
0.0
  0
LINE
  5
2C3
100
AcDbEntity
  8
LAYER0002
  6
CONTINUOUS
 62
       7
100
AcDbLine
 10
10.11685348
 20
-99.77612776
 30
0.0
 11
10.09576093
 21
-99.78931833
 31
0.0
  0
LINE
  5
2C4
100
AcDbEntity
  8
LAYER0002
  6
CONTINUOUS
 62
       7
100
AcDbLine
 10
10.09576093
 20
-99.78931833
 30
0.0
 11
10.07463273
 21
-99.80105729
 31
0.0
  0
LINE
  5
2C5
100
AcDbEntity
  8
LAYER0002
  6
CONTINUOUS
 62
       7
100
AcDbLine
 10
10.07463273
 20
-99.80105729
 30
0.0
 11
10.05348998
 21
-99.81139515
 31
0.0
  0
LINE
  5
2C6
100
AcDbEntity
  8
LAYER0002
  6
CONTINUOUS
 62
       7
100
AcDbLine
 10
10.05348998
 20
-99.81139515
 30
0.0
 11
10.03233527
 21
-99.82045429
 31
0.0
  0
LINE
  5
2C7
100
AcDbEntity
  8
LAYER0002
  6
CONTINUOUS
 62
       7
100
AcDbLine
 10
10.03233527
 20
-99.82045429
 30
0.0
 11
10.01116981
 21
-99.82836257
 31
0.0
  0
LINE
  5
2C8
100
AcDbEntity
  8
LAYER0002
  6
CONTINUOUS
 62
       7
100
AcDbLine
 10
10.01116981
 20
-99.82836257
 30
0.0
 11
9.98999479
 21
-99.83524788
 31
0.0
  0
LINE
  5
2C9
100
AcDbEntity
  8
LAYER0002
  6
CONTINUOUS
 62
       7
100
AcDbLine
 10
9.98999479
 20
-99.83524788
 30
0.0
 11
9.9688114
 21
-99.84123807
 31
0.0
  0
LINE
  5
2CA
100
AcDbEntity
  8
LAYER0002
  6
CONTINUOUS
 62
       7
100
AcDbLine
 10
9.9688114
 20
-99.84123807
 30
0.0
 11
9.94762083
 21
-99.84646104
 31
0.0
  0
LINE
  5
2CB
100
AcDbEntity
  8
LAYER0002
  6
CONTINUOUS
 62
       7
100
AcDbLine
 10
9.94762083
 20
-99.84646104
 30
0.0
 11
9.9264243
 21
-99.85104463
 31
0.0
  0
LINE
  5
2CC
100
AcDbEntity
  8
LAYER0002
  6
CONTINUOUS
 62
       7
100
AcDbLine
 10
9.9264243
 20
-99.85104463
 30
0.0
 11
9.90522298
 21
-99.85511674
 31
0.0
  0
LINE
  5
2CD
100
AcDbEntity
  8
LAYER0002
  6
CONTINUOUS
 62
       7
100
AcDbLine
 10
9.90522298
 20
-99.85511674
 30
0.0
 11
9.88401807
 21
-99.85880523
 31
0.0
  0
LINE
  5
2CE
100
AcDbEntity
  8
LAYER0002
  6
CONTINUOUS
 62
       7
100
AcDbLine
 10
9.88401807
 20
-99.85880523
 30
0.0
 11
9.86281078
 21
-99.86223798
 31
0.0
  0
LINE
  5
2CF
100
AcDbEntity
  8
LAYER0002
  6
CONTINUOUS
 62
       7
100
AcDbLine
 10
9.86281078
 20
-99.86223798
 30
0.0
 11
9.84160229
 21
-99.86554285
 31
0.0
  0
LINE
  5
2D0
100
AcDbEntity
  8
LAYER0002
  6
CONTINUOUS
 62
       7
100
AcDbLine
 10
-177.69617313
 20
-198.44750085
 30
0.0
 11
-177.69064803
 21
-198.44349523
 31
0.0
  0
LINE
  5
2D1
100
AcDbEntity
  8
LAYER0002
  6
CONTINUOUS
 62
       7
100
AcDbLine
 10
-177.69064803
 20
-198.44349523
 30
0.0
 11
-177.68480936
 21
-198.43926593
 31
0.0
  0
LINE
  5
2D2
100
AcDbEntity
  8
LAYER0002
  6
CONTINUOUS
 62
       7
100
AcDbLine
 10
-177.68480936
 20
-198.43926593
 30
0.0
 11
-177.67834356
 21
-198.43458926
 31
0.0
  0
LINE
  5
2D3
100
AcDbEntity
  8
LAYER0002
  6
CONTINUOUS
 62
       7
100
AcDbLine
 10
-177.67834356
 20
-198.43458926
 30
0.0
 11
-177.67093705
 21
-198.42924155
 31
0.0
  0
LINE
  5
2D4
100
AcDbEntity
  8
LAYER0002
  6
CONTINUOUS
 62
       7
100
AcDbLine
 10
-177.67093705
 20
-198.42924155
 30
0.0
 11
-177.66227628
 21
-198.42299912
 31
0.0
  0
LINE
  5
2D5
100
AcDbEntity
  8
LAYER0002
  6
CONTINUOUS
 62
       7
100
AcDbLine
 10
-177.66227628
 20
-198.42299912
 30
0.0
 11
-177.65204767
 21
-198.41563827
 31
0.0
  0
LINE
  5
2D6
100
AcDbEntity
  8
LAYER0002
  6
CONTINUOUS
 62
       7
100
AcDbLine
 10
-177.65204767
 20
-198.41563827
 30
0.0
 11
-177.63993766
 21
-198.40693534
 31
0.0
  0
LINE
  5
2D7
100
AcDbEntity
  8
LAYER0002
  6
CONTINUOUS
 62
       7
100
AcDbLine
 10
-177.63993766
 20
-198.40693534
 30
0.0
 11
-177.62563268
 21
-198.39666664
 31
0.0
  0
LINE
  5
2D8
100
AcDbEntity
  8
LAYER0002
  6
CONTINUOUS
 62
       7
100
AcDbLine
 10
-177.62563268
 20
-198.39666664
 30
0.0
 11
-177.60882441
 21
-198.38461236
 31
0.0
  0
LINE
  5
2D9
100
AcDbEntity
  8
LAYER0002
  6
CONTINUOUS
 62
       7
100
AcDbLine
 10
-177.60882441
 20
-198.38461236
 30
0.0
 11
-177.58939088
 21
-198.37069043
 31
0.0
  0
LINE
  5
2DA
100
AcDbEntity
  8
LAYER0002
  6
CONTINUOUS
 62
       7
100
AcDbLine
 10
-177.58939088
 20
-198.37069043
 30
0.0
 11
-177.56744253
 21
-198.35499055
 31
0.0
  0
LINE
  5
2DB
100
AcDbEntity
  8
LAYER0002
  6
CONTINUOUS
 62
       7
100
AcDbLine
 10
-177.56744253
 20
-198.35499055
 30
0.0
 11
-177.54310444
 21
-198.33761322
 31
0.0
  0
LINE
  5
2DC
100
AcDbEntity
  8
LAYER0002
  6
CONTINUOUS
 62
       7
100
AcDbLine
 10
-177.54310444
 20
-198.33761322
 30
0.0
 11
-177.51650165
 21
-198.31865894
 31
0.0
  0
LINE
  5
2DD
100
AcDbEntity
  8
LAYER0002
  6
CONTINUOUS
 62
       7
100
AcDbLine
 10
-177.51650165
 20
-198.31865894
 30
0.0
 11
-177.48775923
 21
-198.2982282
 31
0.0
  0
LINE
  5
2DE
100
AcDbEntity
  8
LAYER0002
  6
CONTINUOUS
 62
       7
100
AcDbLine
 10
-177.48775923
 20
-198.2982282
 30
0.0
 11
-177.45700222
 21
-198.27642151
 31
0.0
  0
LINE
  5
2DF
100
AcDbEntity
  8
LAYER0002
  6
CONTINUOUS
 62
       7
100
AcDbLine
 10
-177.45700222
 20
-198.27642151
 30
0.0
 11
-177.42435568
 21
-198.25333935
 31
0.0
  0
LINE
  5
2E0
100
AcDbEntity
  8
LAYER0002
  6
CONTINUOUS
 62
       7
100
AcDbLine
 10
-177.42435568
 20
-198.25333935
 30
0.0
 11
-177.38994468
 21
-198.22908222
 31
0.0
  0
LINE
  5
2E1
100
AcDbEntity
  8
LAYER0002
  6
CONTINUOUS
 62
       7
100
AcDbLine
 10
-177.38994468
 20
-198.22908222
 30
0.0
 11
-177.35388575
 21
-198.20374429
 31
0.0
  0
LINE
  5
2E2
100
AcDbEntity
  8
LAYER0002
  6
CONTINUOUS
 62
       7
100
AcDbLine
 10
-177.35388575
 20
-198.20374429
 30
0.0
 11
-177.31623845
 21
-198.17737729
 31
0.0
  0
LINE
  5
2E3
100
AcDbEntity
  8
LAYER0002
  6
CONTINUOUS
 62
       7
100
AcDbLine
 10
-177.31623845
 20
-198.17737729
 30
0.0
 11
-177.27703893
 21
-198.15001552
 31
0.0
  0
LINE
  5
2E4
100
AcDbEntity
  8
LAYER0002
  6
CONTINUOUS
 62
       7
100
AcDbLine
 10
-177.27703893
 20
-198.15001552
 30
0.0
 11
-177.23632326
 21
-198.12169322
 31
0.0
  0
LINE
  5
2E5
100
AcDbEntity
  8
LAYER0002
  6
CONTINUOUS
 62
       7
100
AcDbLine
 10
-177.23632326
 20
-198.12169322
 30
0.0
 11
-177.1941275
 21
-198.09244465
 31
0.0
  0
LINE
  5
2E6
100
AcDbEntity
  8
LAYER0002
  6
CONTINUOUS
 62
       7
100
AcDbLine
 10
-177.1941275
 20
-198.09244465
 30
0.0
 11
-177.15048773
 21
-198.06230405
 31
0.0
  0
LINE
  5
2E7
100
AcDbEntity
  8
LAYER0002
  6
CONTINUOUS
 62
       7
100
AcDbLine
 10
-177.15048773
 20
-198.06230405
 30
0.0
 11
-177.10544001
 21
-198.03130566
 31
0.0
  0
LINE
  5
2E8
100
AcDbEntity
  8
LAYER0002
  6
CONTINUOUS
 62
       7
100
AcDbLine
 10
-177.10544001
 20
-198.03130566
 30
0.0
 11
-177.05902042
 21
-197.99948374
 31
0.0
  0
LINE
  5
2E9
100
AcDbEntity
  8
LAYER0002
  6
CONTINUOUS
 62
       7
100
AcDbLine
 10
-177.05902042
 20
-197.99948374
 30
0.0
 11
-177.01126515
 21
-197.96687263
 31
0.0
  0
LINE
  5
2EA
100
AcDbEntity
  8
LAYER0002
  6
CONTINUOUS
 62
       7
100
AcDbLine
 10
-177.01126515
 20
-197.96687263
 30
0.0
 11
-176.96222666
 21
-197.9335188
 31
0.0
  0
LINE
  5
2EB
100
AcDbEntity
  8
LAYER0002
  6
CONTINUOUS
 62
       7
100
AcDbLine
 10
-176.96222666
 20
-197.9335188
 30
0.0
 11
-176.91198917
 21
-197.89949247
 31
0.0
  0
LINE
  5
2EC
100
AcDbEntity
  8
LAYER0002
  6
CONTINUOUS
 62
       7
100
AcDbLine
 10
-176.91198917
 20
-197.89949247
 30
0.0
 11
-176.8606406
 21
-197.86486659
 31
0.0
  0
LINE
  5
2ED
100
AcDbEntity
  8
LAYER0002
  6
CONTINUOUS
 62
       7
100
AcDbLine
 10
-176.8606406
 20
-197.86486659
 30
0.0
 11
-176.80826886
 21
-197.82971412
 31
0.0
  0
LINE
  5
2EE
100
AcDbEntity
  8
LAYER0002
  6
CONTINUOUS
 62
       7
100
AcDbLine
 10
-176.80826886
 20
-197.82971412
 30
0.0
 11
-176.75496186
 21
-197.794108
 31
0.0
  0
LINE
  5
2EF
100
AcDbEntity
  8
LAYER0002
  6
CONTINUOUS
 62
       7
100
AcDbLine
 10
-176.75496186
 20
-197.794108
 30
0.0
 11
-176.70080751
 21
-197.75812121
 31
0.0
  0
LINE
  5
2F0
100
AcDbEntity
  8
LAYER0002
  6
CONTINUOUS
 62
       7
100
AcDbLine
 10
-176.70080751
 20
-197.75812121
 30
0.0
 11
-176.64589371
 21
-197.72182668
 31
0.0
  0
LINE
  5
2F1
100
AcDbEntity
  8
LAYER0002
  6
CONTINUOUS
 62
       7
100
AcDbLine
 10
-176.64589371
 20
-197.72182668
 30
0.0
 11
-176.59030839
 21
-197.68529738
 31
0.0
  0
LINE
  5
2F2
100
AcDbEntity
  8
LAYER0002
  6
CONTINUOUS
 62
       7
100
AcDbLine
 10
-176.59030839
 20
-197.68529738
 30
0.0
 11
-176.53413994
 21
-197.64860384
 31
0.0
  0
LINE
  5
2F3
100
AcDbEntity
  8
LAYER0002
  6
CONTINUOUS
 62
       7
100
AcDbLine
 10
-176.53413994
 20
-197.64860384
 30
0.0
 11
-176.47748246
 21
-197.61178856
 31
0.0
  0
LINE
  5
2F4
100
AcDbEntity
  8
LAYER0002
  6
CONTINUOUS
 62
       7
100
AcDbLine
 10
-176.47748246
 20
-197.61178856
 30
0.0
 11
-176.42043373
 21
-197.57487614
 31
0.0
  0
LINE
  5
2F5
100
AcDbEntity
  8
LAYER0002
  6
CONTINUOUS
 62
       7
100
AcDbLine
 10
-176.42043373
 20
-197.57487614
 30
0.0
 11
-176.36309154
 21
-197.53789085
 31
0.0
  0
LINE
  5
2F6
100
AcDbEntity
  8
LAYER0002
  6
CONTINUOUS
 62
       7
100
AcDbLine
 10
-176.36309154
 20
-197.53789085
 30
0.0
 11
-176.30555373
 21
-197.50085698
 31
0.0
  0
LINE
  5
2F7
100
AcDbEntity
  8
LAYER0002
  6
CONTINUOUS
 62
       7
100
AcDbLine
 10
-176.30555373
 20
-197.50085698
 30
0.0
 11
-176.2479181
 21
-197.46379883
 31
0.0
  0
LINE
  5
2F8
100
AcDbEntity
  8
LAYER0002
  6
CONTINUOUS
 62
       7
100
AcDbLine
 10
7.06990807
 20
-46.40386732
 30
0.0
 11
10.03289594
 21
-36.40646221
 31
0.0
  0
LINE
  5
2F9
100
AcDbEntity
  8
LAYER0002
  6
CONTINUOUS
 62
       7
100
AcDbLine
 10
7.06990807
 20
29.67278181
 30
0.0
 11
10.03289594
 21
19.67536925
 31
0.0
  0
ARC
  5
2FA
100
AcDbEntity
  8
LAYER0002
  6
CONTINUOUS
 62
       7
100
AcDbCircle
 10
-160.1229506
 20
92.63445745
 30
0.0
 40
150.00000001
100
AcDbArc
 50
78.77683926
 51
101.22316074
  0
ARC
  5
2FB
100
AcDbEntity
  8
LAYER0002
  6
CONTINUOUS
 62
       7
100
AcDbCircle
 10
-160.12295061
 20
15.63445745
 30
0.0
 40
12.74999976
100
AcDbArc
 50
0.0
 51
180.0
  0
ARC
  5
2FC
100
AcDbEntity
  8
LAYER0002
  6
CONTINUOUS
 62
       7
100
AcDbCircle
 10
-160.12295061
 20
-32.36554255
 30
0.0
 40
12.74999976
100
AcDbArc
 50
180.00000184
 51
359.99999816
  0
ARC
  5
2FD
100
AcDbEntity
  8
LAYER0002
  6
CONTINUOUS
 62
       7
100
AcDbCircle
 10
37.06990741
 20
92.63445745
 30
0.0
 40
150.00000001
100
AcDbArc
 50
78.77683926
 51
101.22316074
  0
ARC
  5
2FE
100
AcDbEntity
  8
LAYER0002
  6
CONTINUOUS
 62
       7
100
AcDbCircle
 10
7.31990731
 20
27.88445752
 30
0.0
 40
0.49999988
100
AcDbArc
 50
90.00007792
 51
143.1301019
  0
ARC
  5
2FF
100
AcDbEntity
  8
LAYER0002
  6
CONTINUOUS
 62
       7
100
AcDbCircle
 10
7.31990748
 20
-44.6155425
 30
0.0
 40
0.50000009
100
AcDbArc
 50
216.86989742
 51
269.99992208
  0
ARC
  5
300
100
AcDbEntity
  8
LAYER0002
  6
CONTINUOUS
 62
       7
100
AcDbCircle
 10
6.06990817
 20
-42.9488753
 30
0.0
 40
0.49999904
100
AcDbArc
 50
180.0
 51
216.86983118
  0
ARC
  5
301
100
AcDbEntity
  8
LAYER0002
  6
CONTINUOUS
 62
       7
100
AcDbCircle
 10
6.06990827
 20
26.21779014
 30
0.0
 40
0.49999891
100
AcDbArc
 50
143.13020778
 51
180.0
  0
CIRCLE
  5
302
100
AcDbEntity
  8
LAYER0002
  6
CONTINUOUS
 62
       7
100
AcDbCircle
 10
-160.12295061
 20
-222.76173302
 30
0.0
 40
15.5
  0
CIRCLE
  5
303
100
AcDbEntity
  8
LAYER0002
  6
CONTINUOUS
 62
       7
100
AcDbCircle
 10
-160.12295061
 20
-222.76173302
 30
0.0
 40
30.0
  0
ARC
  5
304
100
AcDbEntity
  8
LAYER0002
  6
CONTINUOUS
 62
       7
100
AcDbCircle
 10
-172.37295049
 20
-193.01173302
 30
0.0
 40
0.49999988
100
AcDbArc
 50
126.8698981
 51
179.99992208
  0
ARC
  5
305
100
AcDbEntity
  8
LAYER0002
  6
CONTINUOUS
 62
       7
100
AcDbCircle
 10
-147.87294941
 20
-193.01173303
 30
0.0
 40
0.49999988
100
AcDbArc
 50
0.00007792
 51
53.13010258
  0
ARC
  5
306
100
AcDbEntity
  8
LAYER0002
  6
CONTINUOUS
 62
       7
100
AcDbCircle
 10
-149.53961662
 20
-191.76173374
 30
0.0
 40
0.49999972
100
AcDbArc
 50
53.13003566
 51
89.99996104
  0
ARC
  5
307
100
AcDbEntity
  8
LAYER0002
  6
CONTINUOUS
 62
       7
100
AcDbCircle
 10
-170.70628329
 20
-191.76173374
 30
0.0
 40
0.49999972
100
AcDbArc
 50
90.00003782
 51
126.86996342
  0
CIRCLE
  5
308
100
AcDbEntity
  8
LAYER0002
  6
CONTINUOUS
 62
       7
100
AcDbCircle
 10
-141.50340443
 20
-212.01173302
 30
0.0
 40
2.0
  0
CIRCLE
  5
309
100
AcDbEntity
  8
LAYER0002
  6
CONTINUOUS
 62
       7
100
AcDbCircle
 10
-178.74249679
 20
-212.01173302
 30
0.0
 40
2.0
  0
CIRCLE
  5
30A
100
AcDbEntity
  8
LAYER0002
  6
CONTINUOUS
 62
       7
100
AcDbCircle
 10
-160.12295061
 20
-244.26173302
 30
0.0
 40
2.0
  0
ARC
  5
30B
100
AcDbEntity
  8
LAYER0002
  6
CONTINUOUS
 62
       7
100
AcDbCircle
 10
-189.12294993
 20
238.78506484
 30
0.0
 40
1.0
100
AcDbArc
 50
101.22316083
 51
180.0
  0
ARC
  5
30C
100
AcDbEntity
  8
LAYER0002
  6
CONTINUOUS
 62
       7
100
AcDbCircle
 10
-131.12295127
 20
238.78506484
 30
0.0
 40
1.0
100
AcDbArc
 50
0.0
 51
78.77683917
  0
ARC
  5
30D
100
AcDbEntity
  8
LAYER0002
  6
CONTINUOUS
 62
       7
100
AcDbCircle
 10
8.06990808
 20
238.78506484
 30
0.0
 40
1.0
100
AcDbArc
 50
101.22316083
 51
180.0
  0
ARC
  5
30E
100
AcDbEntity
  8
LAYER0002
  6
CONTINUOUS
 62
       7
100
AcDbCircle
 10
66.06990674
 20
238.78506484
 30
0.0
 40
1.0
100
AcDbArc
 50
0.0
 51
78.77683917
  0
LINE
  5
30F
100
AcDbEntity
  8
LAYER0002
  6
CENTERX2
 62
       7
100
AcDbLine
 10
-160.12295061
 20
-132.76557636
 30
0.0
 11
-160.12295061
 21
255.94080656
 31
0.0
  0
LINE
  5
310
100
AcDbEntity
  8
LAYER0002
  6
CENTERX2
 62
       7
100
AcDbLine
 10
-178.74249679
 20
-124.86554255
 30
0.0
 11
-178.74249679
 21
-105.06482449
 31
0.0
  0
LINE
  5
311
100
AcDbEntity
  8
LAYER0002
  6
CENTERX2
 62
       7
100
AcDbLine
 10
-141.50340443
 20
-124.86554255
 30
0.0
 11
-141.50340443
 21
-104.3814598
 31
0.0
  0
LINE
  5
312
100
AcDbEntity
  8
LAYER0002
  6
CENTERX2
 62
       7
100
AcDbLine
 10
26.3199074
 20
-124.86554255
 30
0.0
 11
26.3199074
 21
-104.78006948
 31
0.0
  0
LINE
  5
313
100
AcDbEntity
  8
LAYER0002
  6
CENTERX2
 62
       7
100
AcDbLine
 10
58.5699074
 20
-124.86554255
 30
0.0
 11
58.5699074
 21
-104.22252241
 31
0.0
  0
LINE
  5
314
100
AcDbEntity
  8
LAYER0002
  6
CENTERX2
 62
       7
100
AcDbLine
 10
-160.12295061
 20
-222.76173302
 30
0.0
 11
-141.50340443
 21
-212.01173302
 31
0.0
  0
LINE
  5
315
100
AcDbEntity
  8
LAYER0002
  6
CENTERX2
 62
       7
100
AcDbLine
 10
-160.12295061
 20
-222.76173302
 30
0.0
 11
-178.74249679
 21
-212.01173302
 31
0.0
  0
LINE
  5
316
100
AcDbEntity
  8
LAYER0002
  6
CENTERX2
 62
       7
100
AcDbLine
 10
-193.01159536
 20
-222.76173302
 30
0.0
 11
-126.26555077
 21
-222.76173302
 31
0.0
  0
LINE
  5
317
100
AcDbEntity
  8
LAYER0002
  6
CENTERX2
 62
       7
100
AcDbLine
 10
-160.12295061
 20
-189.6255124
 30
0.0
 11
-160.12295061
 21
-255.94080656
 31
0.0
  0
LINE
  5
318
100
AcDbEntity
  8
LAYER0002
  6
CENTERX2
 62
       7
100
AcDbLine
 10
-141.50340443
 20
-215.90480373
 30
0.0
 11
-141.50340443
 21
-207.91717718
 31
0.0
  0
LINE
  5
319
100
AcDbEntity
  8
LAYER0002
  6
CENTERX2
 62
       7
100
AcDbLine
 10
-145.32546489
 20
-212.01173302
 30
0.0
 11
-137.49759087
 21
-212.01173302
 31
0.0
  0
LINE
  5
31A
100
AcDbEntity
  8
LAYER0002
  6
CENTERX2
 62
       7
100
AcDbLine
 10
-178.74249679
 20
-216.22430879
 30
0.0
 11
-178.74249679
 21
-208.23668225
 31
0.0
  0
LINE
  5
31B
100
AcDbEntity
  8
LAYER0002
  6
CENTERX2
 62
       7
100
AcDbLine
 10
-174.71993057
 20
-212.01173302
 30
0.0
 11
-183.10693844
 21
-212.01173302
 31
0.0
  0
LINE
  5
31C
100
AcDbEntity
  8
LAYER0002
  6
CENTERX2
 62
       7
100
AcDbLine
 10
-165.37440751
 20
-244.26173302
 30
0.0
 11
-156.26851325
 21
-244.26173302
 31
0.0
  0
CIRCLE
  5
31D
100
AcDbEntity
  8
LAYER0002
  6
CENTERX2
 62
       7
100
AcDbCircle
 10
-160.12295061
 20
-222.76173302
 30
0.0
 40
21.5
  0
TEXT
  5
31E
100
AcDbEntity
  8
LAYER0002
 62
       7
100
AcDbText
 10
171.25641357
 20
-239.35100753
 30
0.0
 40
17.19791667
  1
000
 72
       5
 11
222.85016358
 21
-239.35100753
 31
0.0
100
AcDbText
  0
TEXT
  5
31F
100
AcDbEntity
  8
LAYER0002
 62
       7
100
AcDbText
 10
117.28784532
 20
-100.31338164
 30
0.0
 40
7.9375
  1
Lamp 5 Layers shown
 72
       5
 11
268.10034532
 21
-100.31338164
 31
0.0
100
AcDbText
  0
ENDSEC
  0
SECTION
  2
OBJECTS
  0
DICTIONARY
  5
19
100
AcDbDictionary
  3
ACAD_GROUP
350
1A
  3
ACAD_MLINESTYLE
350
1B
  0
DICTIONARY
  5
1A
102
{ACAD_REACTORS
330
19
102
}
100
AcDbDictionary
  0
DICTIONARY
  5
1B
102
{ACAD_REACTORS
330
19
102
}
100
AcDbDictionary
  3
STANDARD
350
1C
  0
MLINESTYLE
  5
1C
102
{ACAD_REACTORS
330
1B
102
}
100
AcDbMlineStyle
  2
STANDARD
 70
       0
  3

 62
       0
 51
90.0
 52
90.0
 71
       2
 49
0.5
 62
     256
  6
BYLAYER
 49
-0.5
 62
     256
  6
BYLAYER
  0
ENDSEC
  0
EOF
