  0
SECTION
  2
HEADER
  9
$ACADVER
  1
AC1014
  9
$ACADMAINTVER
 70
       0
  9
$DWGCODEPAGE
  3
ANSI_932
  9
$INSBASE
 10
0.0
 20
0.0
 30
0.0
  9
$EXTMIN
 10
-136.36107915
 20
-189.12850336
 30
0.0
  9
$EXTMAX
 10
94.78207912
 20
189.12850336
 30
0.0
  9
$LIMMIN
 10
-143.58430285
 20
-200.94903482
  9
$LIMMAX
 10
102.00530281
 20
200.94903482
  9
$ORTHOMODE
 70
       0
  9
$REGENMODE
 70
       1
  9
$FILLMODE
 70
       1
  9
$QTEXTMODE
 70
       0
  9
$MIRRTEXT
 70
       1
  9
$DRAGMODE
 70
       2
  9
$LTSCALE
 40
1.0
  9
$OSMODE
 70
       0
  9
$ATTMODE
 70
       1
  9
$TEXTSIZE
 40
0.2
  9
$TRACEWID
 40
0.05
  9
$TEXTSTYLE
  7
STANDARD
  9
$CLAYER
  8
0
  9
$CELTYPE
  6
CONTINUOUS
  9
$CECOLOR
 62
     256
  9
$CELTSCALE
 40
1.0
  9
$DELOBJ
 70
       1
  9
$DISPSILH
 70
       0
  9
$DIMSCALE
 40
1.0
  9
$DIMASZ
 40
0.18
  9
$DIMEXO
 40
0.0625
  9
$DIMDLI
 40
0.38
  9
$DIMRND
 40
0.0
  9
$DIMDLE
 40
0.0
  9
$DIMEXE
 40
0.18
  9
$DIMTP
 40
0.0
  9
$DIMTM
 40
0.0
  9
$DIMTXT
 40
0.18
  9
$DIMCEN
 40
0.09
  9
$DIMTSZ
 40
0.0
  9
$DIMTOL
 70
       0
  9
$DIMLIM
 70
       0
  9
$DIMTIH
 70
       1
  9
$DIMTOH
 70
       1
  9
$DIMSE1
 70
       0
  9
$DIMSE2
 70
       0
  9
$DIMTAD
 70
       0
  9
$DIMZIN
 70
       0
  9
$DIMBLK
  1

  9
$DIMASO
 70
       1
  9
$DIMSHO
 70
       1
  9
$DIMPOST
  1

  9
$DIMAPOST
  1

  9
$DIMALT
 70
       0
  9
$DIMALTD
 70
       2
  9
$DIMALTF
 40
25.4
  9
$DIMLFAC
 40
1.0
  9
$DIMTOFL
 70
       0
  9
$DIMTVP
 40
0.0
  9
$DIMTIX
 70
       0
  9
$DIMSOXD
 70
       0
  9
$DIMSAH
 70
       0
  9
$DIMBLK1
  1

  9
$DIMBLK2
  1

  9
$DIMSTYLE
  2
STANDARD
  9
$DIMCLRD
 70
       0
  9
$DIMCLRE
 70
       0
  9
$DIMCLRT
 70
       0
  9
$DIMTFAC
 40
1.0
  9
$DIMGAP
 40
0.09
  9
$DIMJUST
 70
       0
  9
$DIMSD1
 70
       0
  9
$DIMSD2
 70
       0
  9
$DIMTOLJ
 70
       1
  9
$DIMTZIN
 70
       0
  9
$DIMALTZ
 70
       0
  9
$DIMALTTZ
 70
       0
  9
$DIMFIT
 70
       3
  9
$DIMUPT
 70
       0
  9
$DIMUNIT
 70
       2
  9
$DIMDEC
 70
       4
  9
$DIMTDEC
 70
       4
  9
$DIMALTU
 70
       2
  9
$DIMALTTD
 70
       2
  9
$DIMTXSTY
  7
STANDARD
  9
$DIMAUNIT
 70
       0
  9
$LUNITS
 70
       2
  9
$LUPREC
 70
       4
  9
$SKETCHINC
 40
0.1
  9
$FILLETRAD
 40
0.0
  9
$AUNITS
 70
       0
  9
$AUPREC
 70
       0
  9
$MENU
  1
acad
  9
$ELEVATION
 40
0.0
  9
$PELEVATION
 40
0.0
  9
$THICKNESS
 40
0.0
  9
$LIMCHECK
 70
       0
  9
$BLIPMODE
 70
       1
  9
$CHAMFERA
 40
0.0
  9
$CHAMFERB
 40
0.0
  9
$CHAMFERC
 40
0.0
  9
$CHAMFERD
 40
0.0
  9
$SKPOLY
 70
       0
  9
$TDCREATE
 40
0.000000000
  9
$TDUPDATE
 40
0.000000000
  9
$TDINDWG
 40
0.0000000000
  9
$TDUSRTIMER
 40
0.0000000000
  9
$USRTIMER
 70
       1
  9
$ANGBASE
 50
0.0
  9
$ANGDIR
 70
       0
  9
$PDMODE
 70
       0
  9
$PDSIZE
 40
1.0
  9
$PLINEWID
 40
0.0
  9
$COORDS
 70
       1
  9
$SPLFRAME
 70
       0
  9
$SPLINETYPE
 70
       6
  9
$SPLINESEGS
 70
       8
  9
$ATTDIA
 70
       0
  9
$ATTREQ
 70
       1
  9
$HANDLING
 70
       1
  9
$HANDSEED
  5
519
  9
$SURFTAB1
 70
       6
  9
$SURFTAB2
 70
       6
  9
$SURFTYPE
 70
       6
  9
$SURFU
 70
       6
  9
$SURFV
 70
       6
  9
$UCSNAME
  2

  9
$UCSORG
 10
0.0
 20
0.0
 30
0.0
  9
$UCSXDIR
 10
1.0
 20
0.0
 30
0.0
  9
$UCSYDIR
 10
0.0
 20
1.0
 30
0.0
  9
$PUCSNAME
  2

  9
$PUCSORG
 10
0.0
 20
0.0
 30
0.0
  9
$PUCSXDIR
 10
1.0
 20
0.0
 30
0.0
  9
$PUCSYDIR
 10
0.0
 20
1.0
 30
0.0
  9
$USERI1
 70
       0
  9
$USERI2
 70
       0
  9
$USERI3
 70
       0
  9
$USERI4
 70
       0
  9
$USERI5
 70
       0
  9
$USERR1
 40
0.0
  9
$USERR2
 40
0.0
  9
$USERR3
 40
0.0
  9
$USERR4
 40
0.0
  9
$USERR5
 40
0.0
  9
$WORLDVIEW
 70
       1
  9
$SHADEDGE
 70
       3
  9
$SHADEDIF
 70
      70
  9
$TILEMODE
 70
       1
  9
$MAXACTVP
 70
      16
  9
$PINSBASE
 10
0.0
 20
0.0
 30
0.0
  9
$PLIMCHECK
 70
       0
  9
$PEXTMIN
 10
1.00000000E+20
 20
1.00000000E+20
 30
1.00000000E+20
  9
$PEXTMAX
 10
-1.00000000E+20
 20
-1.00000000E+20
 30
-1.00000000E+20
  9
$PLIMMIN
 10
0.0
 20
0.0
  9
$PLIMMAX
 10
12.0
 20
9.0
  9
$UNITMODE
 70
       0
  9
$VISRETAIN
 70
       0
  9
$PLINEGEN
 70
       1
  9
$PSLTSCALE
 70
       0
  9
$TREEDEPTH
 70
    3020
  9
$PICKSTYLE
 70
       1
  9
$CMLSTYLE
  2
STANDARD
  9
$CMLJUST
 70
       0
  9
$CMLSCALE
 40
1.0
  9
$PROXYGRAPHICS
 70
       0
  9
$MEASUREMENT
 70
       0
  0
ENDSEC
  0
SECTION
  2
CLASSES
  0
CLASS
  1
LWPOLYLINE
  2
AcDbPolyline
  3
"AutoCAD"
 90
        0
280
       0
281
       1
  0
CLASS
  1
IMAGE
  2
AcDbRasterImage
  3
ISM
 90
      127
280
       0
281
       1
  0
CLASS
  1
OLE2FRAME
  2
AcDbOle2Frame
  3
""
 90
        0
280
       0
281
       1
  0
CLASS
  1
HATCH
  2
AcDbHatch
  3
"ACAD_SEDONA"
 90
        0
280
       0
281
       1
  0
CLASS
  1
DICTIONARYVAR
  2
AcDbDictionaryVar
  3
"AutoCAD"
 90
        0
280
       0
281
       0
  0
CLASS
  1
RASTERVARIABLES
  2
AcDbRasterVariables
  3
ISM
 90
        0
280
       0
281
       0
  0
CLASS
  1
IMAGEDEF
  2
AcDbRasterImageDef
  3
ISM
 90
        0
280
       0
281
       0
  0
CLASS
  1
IMAGEDEF_REACTOR
  2
AcDbRasterImageDefReactor
  3
ISM
 90
        1
280
       0
281
       0
  0
CLASS
  1
IDBUFFER
  2
AcDbIdBuffer
  3
"Acad"
 90
        0
280
       0
281
       0
  0
CLASS
  1
SPATIAL_FILTER
  2
AcDbSpatialFilter
  3
"Acad"
 90
        0
280
       0
281
       0
  0
CLASS
  1
XRECORD
  2
AcDbXrecord
  3
"<Built In>"
 90
        0
280
       0
281
       0
  0
CLASS
  1
SORTENTSTABLE
  2
AcDbSortentsTable
  3
"AutoCAD"
 90
        0
280
       0
281
       0
  0
CLASS
  1
LAYER_INDEX
  2
AcDbLayerIndex
  3
"Acad"
 90
        0
280
       0
281
       0
  0
CLASS
  1
SPATIAL_INDEX
  2
AcDbSpatialIndex
  3
"Acad"
 90
        0
280
       0
281
       0
  0
CLASS
  1
OBJECT_PTR
  2
CAseDLPNTableRecord
  3
"ASE-LPNTableRecord"
 90
        1
280
       0
281
       0
  0
CLASS
  1
LAYOUT
  2
AcDbLayout
  3
"AutoCAD 2000"
 90
        1
280
       0
281
       0
  0
CLASS
  1
PLOTSETTINGS
  2
AcDbPlotSettings
  3
"AutoCAD 2000"
 90
        1
280
       0
281
       0
  0
CLASS
  1
ACDBDICTIONARYWDFLT
  2
AcDbDictionaryWithDefault
  3
"AutoCAD 2000"
 90
        1
280
       0
281
       0
  0
CLASS
  1
ACDBPLACEHOLDER
  2
AcDbPlaceHolder
  3
"AutoCAD 2000"
 90
        1
280
       0
281
       0
  0
CLASS
  1
VBA_PROJECT
  2
AcDbVbaProject
  3
"acadvba"
 90
        1
280
       0
281
       0
  0
CLASS
  1
WIPEOUT
  2
AcDbWipeout
  3
WipeOut|AutoCAD Express Tool|expresstools@autodesk.com
 90
      127
280
       0
281
       1
  0
CLASS
  1
WIPEOUTVARIABLES
  2
AcDbWipeoutVariables
  3
WipeOut|AutoCAD Express Tool|expresstools@autodesk.com
 90
        0
280
       0
281
       0
  0
CLASS
  1
RTEXT
  2
RText
  3
RText|AutoCAD Express Tool|expresstools@autodesk.com
 90
        0
280
       0
281
       1
  0
CLASS
  1
ARCALIGNEDTEXT
  2
AcDbArcAlignedText
  3
ATEXT|AutoCAD Express Tool|expresstools@autodesk.com
 90
        0
280
       0
281
       1
  0
ENDSEC
  0
SECTION
  2
TABLES
  0
TABLE
  2
VPORT
  5
7
100
AcDbSymbolTable
 70
       1
  0
VPORT
  5
15
100
AcDbSymbolTableRecord
100
AcDbViewportTableRecord
  2
*ACTIVE
 70
       0
 10
0.0
 20
0.0
 11
1.0
 21
1.0
 12
-20.78950002
 22
0.0
 13
0.0
 23
0.0
 14
1.0
 24
1.0
 15
0.0
 25
0.0
 16
0.0
 26
0.0
 36
1.0
 17
0.0
 27
0.0
 37
0.0
 40
401.89806963
 41
0.61107436
 42
50.0
 43
0.0
 44
0.0
 50
0.0
 51
0.0
 71
       0
 72
     100
 73
       1
 74
       1
 75
       0
 76
       0
 77
       0
 78
       0
  0
ENDTAB
  0
TABLE
  2
LTYPE
  5
4
100
AcDbSymbolTable
 70
      30
  0
LTYPE
  5
11
100
AcDbSymbolTableRecord
100
AcDbLinetypeTableRecord
  2
BYBLOCK
 70
      64
  3

 72
      65
 73
       0
 40
0.0
  0
LTYPE
  5
12
100
AcDbSymbolTableRecord
100
AcDbLinetypeTableRecord
  2
BYLAYER
 70
      64
  3

 72
      65
 73
       0
 40
0.0
  0
LTYPE
  5
13
100
AcDbSymbolTableRecord
100
AcDbLinetypeTableRecord
  2
CONTINUOUS
 70
      64
  3
Solid line
 72
      65
 73
       0
 40
0.0
  0
LTYPE
  5
1D
100
AcDbSymbolTableRecord
100
AcDbLinetypeTableRecord
  2
HIDDENX2
 70
      64
  3
CADPAC LINETYPE
 72
      65
 73
       2
 40
21.3910859
 49
16.04331442
 74
       0
 49
-5.34777147
 74
       0
  0
LTYPE
  5
1E
100
AcDbSymbolTableRecord
100
AcDbLinetypeTableRecord
  2
HIDDEN
 70
      64
  3
CADPAC LINETYPE
 72
      65
 73
       2
 40
16.04331442
 49
10.69554295
 74
       0
 49
-5.34777147
 74
       0
  0
LTYPE
  5
1F
100
AcDbSymbolTableRecord
100
AcDbLinetypeTableRecord
  2
HIDDEN2
 70
      64
  3
CADPAC LINETYPE
 72
      65
 73
       2
 40
13.36942869
 49
8.02165721
 74
       0
 49
-5.34777147
 74
       0
  0
LTYPE
  5
20
100
AcDbSymbolTableRecord
100
AcDbLinetypeTableRecord
  2
DASHED
 70
      64
  3
CADPAC LINETYPE
 72
      65
 73
       2
 40
16.04331442
 49
10.69554295
 74
       0
 49
-5.34777147
 74
       0
  0
LTYPE
  5
21
100
AcDbSymbolTableRecord
100
AcDbLinetypeTableRecord
  2
DASHED2
 70
      64
  3
CADPAC LINETYPE
 72
      65
 73
       2
 40
12.03248582
 49
8.02165721
 74
       0
 49
-4.01082861
 74
       0
  0
LTYPE
  5
22
100
AcDbSymbolTableRecord
100
AcDbLinetypeTableRecord
  2
DASHEDX2
 70
      64
  3
CADPAC LINETYPE
 72
      65
 73
       2
 40
24.06497163
 49
16.04331442
 74
       0
 49
-8.02165721
 74
       0
  0
LTYPE
  5
23
100
AcDbSymbolTableRecord
100
AcDbLinetypeTableRecord
  2
DOTX2
 70
      64
  3
CADPAC LINETYPE
 72
      65
 73
       2
 40
6.68471434
 49
0.0
 74
       0
 49
-6.68471434
 74
       0
  0
LTYPE
  5
24
100
AcDbSymbolTableRecord
100
AcDbLinetypeTableRecord
  2
DOT
 70
      64
  3
CADPAC LINETYPE
 72
      65
 73
       2
 40
5.34777147
 49
0.0
 74
       0
 49
-5.34777147
 74
       0
  0
LTYPE
  5
25
100
AcDbSymbolTableRecord
100
AcDbLinetypeTableRecord
  2
DOT2
 70
      64
  3
CADPAC LINETYPE
 72
      65
 73
       2
 40
4.01082861
 49
0.0
 74
       0
 49
-4.01082861
 74
       0
  0
LTYPE
  5
26
100
AcDbSymbolTableRecord
100
AcDbLinetypeTableRecord
  2
CENTERX2
 70
      64
  3
CADPAC LINETYPE
 72
      65
 73
       4
 40
32.08662885
 49
13.36942869
 74
       0
 49
-6.68471434
 74
       0
 49
5.34777147
 74
       0
 49
-6.68471434
 74
       0
  0
LTYPE
  5
27
100
AcDbSymbolTableRecord
100
AcDbLinetypeTableRecord
  2
CENTER
 70
      64
  3
CADPAC LINETYPE
 72
      65
 73
       4
 40
24.59974878
 49
10.69554295
 74
       0
 49
-5.34777147
 74
       0
 49
3.20866288
 74
       0
 49
-5.34777147
 74
       0
  0
LTYPE
  5
28
100
AcDbSymbolTableRecord
100
AcDbLinetypeTableRecord
  2
CENTER2
 70
      64
  3
CADPAC LINETYPE
 72
      65
 73
       4
 40
17.11286872
 49
8.02165721
 74
       0
 49
-4.01082861
 74
       0
 49
1.06955429
 74
       0
 49
-4.01082861
 74
       0
  0
LTYPE
  5
29
100
AcDbSymbolTableRecord
100
AcDbLinetypeTableRecord
  2
DASHDOTX2
 70
      64
  3
CADPAC LINETYPE
 72
      65
 73
       4
 40
26.73885737
 49
13.36942869
 74
       0
 49
-6.68471434
 74
       0
 49
0.0
 74
       0
 49
-6.68471434
 74
       0
  0
LTYPE
  5
2A
100
AcDbSymbolTableRecord
100
AcDbLinetypeTableRecord
  2
DASHDOT
 70
      64
  3
CADPAC LINETYPE
 72
      65
 73
       4
 40
21.3910859
 49
10.69554295
 74
       0
 49
-5.34777147
 74
       0
 49
0.0
 74
       0
 49
-5.34777147
 74
       0
  0
LTYPE
  5
2B
100
AcDbSymbolTableRecord
100
AcDbLinetypeTableRecord
  2
DASHDOT2
 70
      64
  3
CADPAC LINETYPE
 72
      65
 73
       4
 40
16.04331442
 49
8.02165721
 74
       0
 49
-4.01082861
 74
       0
 49
0.0
 74
       0
 49
-4.01082861
 74
       0
  0
LTYPE
  5
2C
100
AcDbSymbolTableRecord
100
AcDbLinetypeTableRecord
  2
DIVIDEX2
 70
      64
  3
CADPAC LINETYPE
 72
      65
 73
       6
 40
33.42357171
 49
13.36942869
 74
       0
 49
-6.68471434
 74
       0
 49
0.0
 74
       0
 49
-6.68471434
 74
       0
 49
0.0
 74
       0
 49
-6.68471434
 74
       0
  0
LTYPE
  5
2D
100
AcDbSymbolTableRecord
100
AcDbLinetypeTableRecord
  2
DIVIDE
 70
      64
  3
CADPAC LINETYPE
 72
      65
 73
       6
 40
26.73885737
 49
10.69554295
 74
       0
 49
-5.34777147
 74
       0
 49
0.0
 74
       0
 49
-5.34777147
 74
       0
 49
0.0
 74
       0
 49
-5.34777147
 74
       0
  0
LTYPE
  5
2E
100
AcDbSymbolTableRecord
100
AcDbLinetypeTableRecord
  2
DIVIDE2
 70
      64
  3
CADPAC LINETYPE
 72
      65
 73
       6
 40
20.05414303
 49
8.02165721
 74
       0
 49
-4.01082861
 74
       0
 49
0.0
 74
       0
 49
-4.01082861
 74
       0
 49
0.0
 74
       0
 49
-4.01082861
 74
       0
  0
LTYPE
  5
2F
100
AcDbSymbolTableRecord
100
AcDbLinetypeTableRecord
  2
BORDERX2
 70
      64
  3
CADPAC LINETYPE
 72
      65
 73
       6
 40
46.7930004
 49
13.36942869
 74
       0
 49
-6.68471434
 74
       0
 49
13.36942869
 74
       0
 49
-6.68471434
 74
       0
 49
0.0
 74
       0
 49
-6.68471434
 74
       0
  0
LTYPE
  5
30
100
AcDbSymbolTableRecord
100
AcDbLinetypeTableRecord
  2
BORDER
 70
      64
  3
CADPAC LINETYPE
 72
      65
 73
       6
 40
37.43440032
 49
10.69554295
 74
       0
 49
-5.34777147
 74
       0
 49
10.69554295
 74
       0
 49
-5.34777147
 74
       0
 49
0.0
 74
       0
 49
-5.34777147
 74
       0
  0
LTYPE
  5
31
100
AcDbSymbolTableRecord
100
AcDbLinetypeTableRecord
  2
BORDER2
 70
      64
  3
CADPAC LINETYPE
 72
      65
 73
       6
 40
28.07580024
 49
8.02165721
 74
       0
 49
-4.01082861
 74
       0
 49
8.02165721
 74
       0
 49
-4.01082861
 74
       0
 49
0.0
 74
       0
 49
-4.01082861
 74
       0
  0
LTYPE
  5
32
100
AcDbSymbolTableRecord
100
AcDbLinetypeTableRecord
  2
PHANTOMX2
 70
      64
  3
CADPAC LINETYPE
 72
      65
 73
       6
 40
40.10828606
 49
13.36942869
 74
       0
 49
-5.34777147
 74
       0
 49
5.34777147
 74
       0
 49
-5.34777147
 74
       0
 49
5.34777147
 74
       0
 49
-5.34777147
 74
       0
  0
LTYPE
  5
33
100
AcDbSymbolTableRecord
100
AcDbLinetypeTableRecord
  2
PHANTOM
 70
      64
  3
CADPAC LINETYPE
 72
      65
 73
       6
 40
33.15618314
 49
10.69554295
 74
       0
 49
-5.34777147
 74
       0
 49
3.20866288
 74
       0
 49
-5.34777147
 74
       0
 49
3.20866288
 74
       0
 49
-5.34777147
 74
       0
  0
LTYPE
  5
34
100
AcDbSymbolTableRecord
100
AcDbLinetypeTableRecord
  2
PHANTOM2
 70
      64
  3
CADPAC LINETYPE
 72
      65
 73
       6
 40
28.34318881
 49
8.02165721
 74
       0
 49
-5.34777147
 74
       0
 49
2.13910859
 74
       0
 49
-5.34777147
 74
       0
 49
2.13910859
 74
       0
 49
-5.34777147
 74
       0
  0
LTYPE
  5
35
100
AcDbSymbolTableRecord
100
AcDbLinetypeTableRecord
  2
ACAD_ISO06W100
 70
      64
  3
CADPAC LINETYPE
 72
      65
 73
       8
 40
36.09745745
 49
13.36942869
 74
       0
 49
-6.68471434
 74
       0
 49
0.0
 74
       0
 49
-5.34777147
 74
       0
 49
0.0
 74
       0
 49
-5.34777147
 74
       0
 49
0.0
 74
       0
 49
-5.34777147
 74
       0
  0
LTYPE
  5
36
100
AcDbSymbolTableRecord
100
AcDbLinetypeTableRecord
  2
ACAD_ISO13W100
 70
      64
  3
CADPAC LINETYPE
 72
      65
 73
       8
 40
42.78217179
 49
10.69554295
 74
       0
 49
-5.34777147
 74
       0
 49
10.69554295
 74
       0
 49
-5.34777147
 74
       0
 49
0.0
 74
       0
 49
-5.34777147
 74
       0
 49
0.0
 74
       0
 49
-5.34777147
 74
       0
  0
LTYPE
  5
37
100
AcDbSymbolTableRecord
100
AcDbLinetypeTableRecord
  2
ACAD_ISO14W100
 70
      64
  3
CADPAC LINETYPE
 72
      65
 73
       8
 40
32.08662885
 49
10.69554295
 74
       0
 49
-5.34777147
 74
       0
 49
0.0
 74
       0
 49
-5.34777147
 74
       0
 49
0.0
 74
       0
 49
-5.34777147
 74
       0
 49
0.0
 74
       0
 49
-5.34777147
 74
       0
  0
ENDTAB
  0
TABLE
  2
LAYER
  5
2
100
AcDbSymbolTable
 70
       2
  0
LAYER
  5
14
100
AcDbSymbolTableRecord
100
AcDbLayerTableRecord
  2
0
 70
       0
 62
       7
  6
CONTINUOUS
  0
LAYER
  5
38
100
AcDbSymbolTableRecord
100
AcDbLayerTableRecord
  2
LAYER0001
 70
       0
 62
       7
  6
CONTINUOUS
  0
ENDTAB
  0
TABLE
  2
STYLE
  5
3
100
AcDbSymbolTable
 70
       1
  0
STYLE
  5
17
100
AcDbSymbolTableRecord
100
AcDbTextStyleTableRecord
  2
STANDARD
 70
       0
 40
0.0
 41
1.0
 50
0.0
 71
       0
 42
9.525
  3
txt.shx
  4
bigfont.shx
  0
ENDTAB
  0
TABLE
  2
VIEW
  5
5
100
AcDbSymbolTable
 70
       1
  0
VIEW
  5
39
100
AcDbSymbolTableRecord
100
AcDbViewTableRecord
  2
QQQQ
 70
       0
 40
401.89806963
 10
-20.78950002
 20
0.0
 41
245.58960566
 11
0.0
 21
0.0
 31
1.0
 12
100.0
 22
100.0
 32
0.0
 42
50.0
 43
0.0
 44
0.0
 50
0.0
 71
       0
  0
ENDTAB
  0
TABLE
  2
UCS
  5
6
100
AcDbSymbolTable
 70
       0
  0
ENDTAB
  0
TABLE
  2
APPID
  5
8
100
AcDbSymbolTable
 70
       1
  0
APPID
  5
16
100
AcDbSymbolTableRecord
100
AcDbRegAppTableRecord
  2
ACAD
 70
       0
  0
ENDTAB
  0
TABLE
  2
DIMSTYLE
  5
9
100
AcDbSymbolTable
 70
       1
  0
DIMSTYLE
105
18
100
AcDbSymbolTableRecord
100
AcDbDimStyleTableRecord
  2
STANDARD
 70
       0
  3

  4

  5

  6

  7

 40
1.0
 41
0.18
 42
0.0625
 43
0.38
 44
0.18
 45
0.0
 46
0.0
 47
0.0
 48
0.0
 71
       0
 72
       0
 73
       1
 74
       1
 75
       0
 76
       0
 77
       0
 78
       0
140
0.18
141
0.09
142
0.0
143
25.4
144
1.0
145
0.0
146
1.0
147
0.09
170
       0
171
       2
172
       0
173
       0
174
       0
175
       0
176
       0
177
       0
178
       0
270
       2
271
       4
272
       4
273
       2
274
       2
275
       0
280
       0
281
       0
282
       0
283
       1
284
       0
285
       0
286
       0
287
       0
288
       0
340
17
  0
ENDTAB
  0
TABLE
  2
BLOCK_RECORD
  5
1
100
AcDbSymbolTable
 70
      23
  0
BLOCK_RECORD
  5
A
100
AcDbSymbolTableRecord
100
AcDbBlockTableRecord
  2
*MODEL_SPACE
  0
BLOCK_RECORD
  5
B
100
AcDbSymbolTableRecord
100
AcDbBlockTableRecord
  2
*PAPER_SPACE
  0
BLOCK_RECORD
  5
3A
100
AcDbSymbolTableRecord
100
AcDbBlockTableRecord
  2
GROUP_1
  0
BLOCK_RECORD
  5
3B
100
AcDbSymbolTableRecord
100
AcDbBlockTableRecord
  2
GROUP_2
  0
BLOCK_RECORD
  5
3C
100
AcDbSymbolTableRecord
100
AcDbBlockTableRecord
  2
GROUP_3
  0
BLOCK_RECORD
  5
3D
100
AcDbSymbolTableRecord
100
AcDbBlockTableRecord
  2
GROUP_4
  0
BLOCK_RECORD
  5
3E
100
AcDbSymbolTableRecord
100
AcDbBlockTableRecord
  2
GROUP_5
  0
BLOCK_RECORD
  5
3F
100
AcDbSymbolTableRecord
100
AcDbBlockTableRecord
  2
GROUP_6
  0
BLOCK_RECORD
  5
40
100
AcDbSymbolTableRecord
100
AcDbBlockTableRecord
  2
GROUP_7
  0
BLOCK_RECORD
  5
41
100
AcDbSymbolTableRecord
100
AcDbBlockTableRecord
  2
GROUP_8
  0
BLOCK_RECORD
  5
42
100
AcDbSymbolTableRecord
100
AcDbBlockTableRecord
  2
GROUP_9
  0
BLOCK_RECORD
  5
43
100
AcDbSymbolTableRecord
100
AcDbBlockTableRecord
  2
GROUP_10
  0
BLOCK_RECORD
  5
44
100
AcDbSymbolTableRecord
100
AcDbBlockTableRecord
  2
GROUP_11
  0
BLOCK_RECORD
  5
45
100
AcDbSymbolTableRecord
100
AcDbBlockTableRecord
  2
GROUP_12
  0
BLOCK_RECORD
  5
46
100
AcDbSymbolTableRecord
100
AcDbBlockTableRecord
  2
GROUP_13
  0
BLOCK_RECORD
  5
47
100
AcDbSymbolTableRecord
100
AcDbBlockTableRecord
  2
GROUP_14
  0
BLOCK_RECORD
  5
48
100
AcDbSymbolTableRecord
100
AcDbBlockTableRecord
  2
GROUP_15
  0
BLOCK_RECORD
  5
49
100
AcDbSymbolTableRecord
100
AcDbBlockTableRecord
  2
GROUP_16
  0
BLOCK_RECORD
  5
4A
100
AcDbSymbolTableRecord
100
AcDbBlockTableRecord
  2
GROUP_17
  0
BLOCK_RECORD
  5
4B
100
AcDbSymbolTableRecord
100
AcDbBlockTableRecord
  2
GROUP_18
  0
BLOCK_RECORD
  5
4C
100
AcDbSymbolTableRecord
100
AcDbBlockTableRecord
  2
GROUP_19
  0
BLOCK_RECORD
  5
4D
100
AcDbSymbolTableRecord
100
AcDbBlockTableRecord
  2
GROUP_20
  0
BLOCK_RECORD
  5
4E
100
AcDbSymbolTableRecord
100
AcDbBlockTableRecord
  2
GROUP_21
  0
BLOCK_RECORD
  5
4F
100
AcDbSymbolTableRecord
100
AcDbBlockTableRecord
  2
GROUP_22
  0
BLOCK_RECORD
  5
50
100
AcDbSymbolTableRecord
100
AcDbBlockTableRecord
  2
GROUP_23
  0
ENDTAB
  0
ENDSEC
  0
SECTION
  2
BLOCKS
  0
BLOCK
  5
D
100
AcDbEntity
  8
0
100
AcDbBlockBegin
  2
*MODEL_SPACE
 70
       0
 10
0.0
 20
0.0
 30
0.0
  3
*MODEL_SPACE
  1

  0
ENDBLK
  5
E
100
AcDbEntity
  8
0
100
AcDbBlockEnd
  0
BLOCK
  5
F
100
AcDbEntity
 67
       1
  8
0
100
AcDbBlockBegin
  2
*PAPER_SPACE
 70
       0
 10
0.0
 20
0.0
 30
0.0
  3
*PAPER_SPACE
  1

  0
ENDBLK
  5
10
100
AcDbEntity
 67
       1
  8
0
100
AcDbBlockEnd
  0
BLOCK
  5
51
100
AcDbEntity
  8
0
100
AcDbBlockBegin
  2
GROUP_1
 70
       0
 10
0.0
 20
0.0
 30
0.0
  3
GROUP_1
  1

  0
LINE
  5
52
100
AcDbEntity
  8
LAYER0001
  6
CONTINUOUS
 62
       7
100
AcDbLine
 10
-100.74174909
 20
-84.21672429
 30
0.0
 11
-100.74210877
 21
-84.19413709
 31
0.0
  0
LINE
  5
53
100
AcDbEntity
  8
LAYER0001
  6
CONTINUOUS
 62
       7
100
AcDbLine
 10
-100.74210877
 20
-84.19413709
 30
0.0
 11
-100.74248036
 21
-84.17156843
 31
0.0
  0
LINE
  5
54
100
AcDbEntity
  8
LAYER0001
  6
CONTINUOUS
 62
       7
100
AcDbLine
 10
-100.74248036
 20
-84.17156843
 30
0.0
 11
-100.74287575
 21
-84.14903687
 31
0.0
  0
LINE
  5
55
100
AcDbEntity
  8
LAYER0001
  6
CONTINUOUS
 62
       7
100
AcDbLine
 10
-100.74287575
 20
-84.14903687
 30
0.0
 11
-100.74330686
 21
-84.12656095
 31
0.0
  0
LINE
  5
56
100
AcDbEntity
  8
LAYER0001
  6
CONTINUOUS
 62
       7
100
AcDbLine
 10
-100.74330686
 20
-84.12656095
 30
0.0
 11
-100.74378559
 21
-84.10415922
 31
0.0
  0
LINE
  5
57
100
AcDbEntity
  8
LAYER0001
  6
CONTINUOUS
 62
       7
100
AcDbLine
 10
-100.74378559
 20
-84.10415922
 30
0.0
 11
-100.74432384
 21
-84.08185022
 31
0.0
  0
LINE
  5
58
100
AcDbEntity
  8
LAYER0001
  6
CONTINUOUS
 62
       7
100
AcDbLine
 10
-100.74432384
 20
-84.08185022
 30
0.0
 11
-100.74493352
 21
-84.05965251
 31
0.0
  0
LINE
  5
59
100
AcDbEntity
  8
LAYER0001
  6
CONTINUOUS
 62
       7
100
AcDbLine
 10
-100.74493352
 20
-84.05965251
 30
0.0
 11
-100.74562653
 21
-84.03758462
 31
0.0
  0
LINE
  5
5A
100
AcDbEntity
  8
LAYER0001
  6
CONTINUOUS
 62
       7
100
AcDbLine
 10
-100.74562653
 20
-84.03758462
 30
0.0
 11
-100.74641478
 21
-84.01566512
 31
0.0
  0
LINE
  5
5B
100
AcDbEntity
  8
LAYER0001
  6
CONTINUOUS
 62
       7
100
AcDbLine
 10
-100.74641478
 20
-84.01566512
 30
0.0
 11
-100.74731017
 21
-83.99391254
 31
0.0
  0
LINE
  5
5C
100
AcDbEntity
  8
LAYER0001
  6
CONTINUOUS
 62
       7
100
AcDbLine
 10
-100.74731017
 20
-83.99391254
 30
0.0
 11
-100.7483246
 21
-83.97234543
 31
0.0
  0
LINE
  5
5D
100
AcDbEntity
  8
LAYER0001
  6
CONTINUOUS
 62
       7
100
AcDbLine
 10
-100.7483246
 20
-83.97234543
 30
0.0
 11
-100.74946999
 21
-83.95098234
 31
0.0
  0
LINE
  5
5E
100
AcDbEntity
  8
LAYER0001
  6
CONTINUOUS
 62
       7
100
AcDbLine
 10
-100.74946999
 20
-83.95098234
 30
0.0
 11
-100.75075556
 21
-83.92984138
 31
0.0
  0
LINE
  5
5F
100
AcDbEntity
  8
LAYER0001
  6
CONTINUOUS
 62
       7
100
AcDbLine
 10
-100.75075556
 20
-83.92984138
 30
0.0
 11
-100.75217668
 21
-83.90893848
 31
0.0
  0
LINE
  5
60
100
AcDbEntity
  8
LAYER0001
  6
CONTINUOUS
 62
       7
100
AcDbLine
 10
-100.75217668
 20
-83.90893848
 30
0.0
 11
-100.75372423
 21
-83.88828883
 31
0.0
  0
LINE
  5
61
100
AcDbEntity
  8
LAYER0001
  6
CONTINUOUS
 62
       7
100
AcDbLine
 10
-100.75372423
 20
-83.88828883
 30
0.0
 11
-100.75538908
 21
-83.86790762
 31
0.0
  0
LINE
  5
62
100
AcDbEntity
  8
LAYER0001
  6
CONTINUOUS
 62
       7
100
AcDbLine
 10
-100.75538908
 20
-83.86790762
 30
0.0
 11
-100.75716212
 21
-83.84781005
 31
0.0
  0
LINE
  5
63
100
AcDbEntity
  8
LAYER0001
  6
CONTINUOUS
 62
       7
100
AcDbLine
 10
-100.75716212
 20
-83.84781005
 30
0.0
 11
-100.75903422
 21
-83.82801131
 31
0.0
  0
LINE
  5
64
100
AcDbEntity
  8
LAYER0001
  6
CONTINUOUS
 62
       7
100
AcDbLine
 10
-100.75903422
 20
-83.82801131
 30
0.0
 11
-100.76099625
 21
-83.8085266
 31
0.0
  0
LINE
  5
65
100
AcDbEntity
  8
LAYER0001
  6
CONTINUOUS
 62
       7
100
AcDbLine
 10
-100.76099625
 20
-83.8085266
 30
0.0
 11
-100.7630391
 21
-83.78937111
 31
0.0
  0
LINE
  5
66
100
AcDbEntity
  8
LAYER0001
  6
CONTINUOUS
 62
       7
100
AcDbLine
 10
-100.7630391
 20
-83.78937111
 30
0.0
 11
-100.76515364
 21
-83.77056004
 31
0.0
  0
LINE
  5
67
100
AcDbEntity
  8
LAYER0001
  6
CONTINUOUS
 62
       7
100
AcDbLine
 10
-100.76515364
 20
-83.77056004
 30
0.0
 11
-100.76733075
 21
-83.75210859
 31
0.0
  0
LINE
  5
68
100
AcDbEntity
  8
LAYER0001
  6
CONTINUOUS
 62
       7
100
AcDbLine
 10
-100.76733075
 20
-83.75210859
 30
0.0
 11
-100.7695613
 21
-83.73403194
 31
0.0
  0
LINE
  5
69
100
AcDbEntity
  8
LAYER0001
  6
CONTINUOUS
 62
       7
100
AcDbLine
 10
-100.7695613
 20
-83.73403194
 30
0.0
 11
-100.77183617
 21
-83.7163453
 31
0.0
  0
LINE
  5
6A
100
AcDbEntity
  8
LAYER0001
  6
CONTINUOUS
 62
       7
100
AcDbLine
 10
-100.77183617
 20
-83.7163453
 30
0.0
 11
-100.77414623
 21
-83.69906387
 31
0.0
  0
LINE
  5
6B
100
AcDbEntity
  8
LAYER0001
  6
CONTINUOUS
 62
       7
100
AcDbLine
 10
-100.77414623
 20
-83.69906387
 30
0.0
 11
-100.77648267
 21
-83.6822024
 31
0.0
  0
LINE
  5
6C
100
AcDbEntity
  8
LAYER0001
  6
CONTINUOUS
 62
       7
100
AcDbLine
 10
-100.77648267
 20
-83.6822024
 30
0.0
 11
-100.77883907
 21
-83.66577224
 31
0.0
  0
LINE
  5
6D
100
AcDbEntity
  8
LAYER0001
  6
CONTINUOUS
 62
       7
100
AcDbLine
 10
-100.77883907
 20
-83.66577224
 30
0.0
 11
-100.78121018
 21
-83.64978304
 31
0.0
  0
LINE
  5
6E
100
AcDbEntity
  8
LAYER0001
  6
CONTINUOUS
 62
       7
100
AcDbLine
 10
-100.78121018
 20
-83.64978304
 30
0.0
 11
-100.78359079
 21
-83.63424443
 31
0.0
  0
LINE
  5
6F
100
AcDbEntity
  8
LAYER0001
  6
CONTINUOUS
 62
       7
100
AcDbLine
 10
-100.78359079
 20
-83.63424443
 30
0.0
 11
-100.78597567
 21
-83.61916605
 31
0.0
  0
LINE
  5
70
100
AcDbEntity
  8
LAYER0001
  6
CONTINUOUS
 62
       7
100
AcDbLine
 10
-100.78597567
 20
-83.61916605
 30
0.0
 11
-100.78835958
 21
-83.60455754
 31
0.0
  0
LINE
  5
71
100
AcDbEntity
  8
LAYER0001
  6
CONTINUOUS
 62
       7
100
AcDbLine
 10
-100.78835958
 20
-83.60455754
 30
0.0
 11
-100.7907373
 21
-83.59042854
 31
0.0
  0
LINE
  5
72
100
AcDbEntity
  8
LAYER0001
  6
CONTINUOUS
 62
       7
100
AcDbLine
 10
-100.7907373
 20
-83.59042854
 30
0.0
 11
-100.79310361
 21
-83.57678868
 31
0.0
  0
LINE
  5
73
100
AcDbEntity
  8
LAYER0001
  6
CONTINUOUS
 62
       7
100
AcDbLine
 10
-100.79310361
 20
-83.57678868
 30
0.0
 11
-100.79545327
 21
-83.5636476
 31
0.0
  0
LINE
  5
74
100
AcDbEntity
  8
LAYER0001
  6
CONTINUOUS
 62
       7
100
AcDbLine
 10
-100.79545327
 20
-83.5636476
 30
0.0
 11
-100.79778106
 21
-83.55101495
 31
0.0
  0
LINE
  5
75
100
AcDbEntity
  8
LAYER0001
  6
CONTINUOUS
 62
       7
100
AcDbLine
 10
-100.79778106
 20
-83.55101495
 30
0.0
 11
-100.80008175
 21
-83.53890035
 31
0.0
  0
LINE
  5
76
100
AcDbEntity
  8
LAYER0001
  6
CONTINUOUS
 62
       7
100
AcDbLine
 10
-100.80008175
 20
-83.53890035
 30
0.0
 11
-100.80235011
 21
-83.52731346
 31
0.0
  0
LINE
  5
77
100
AcDbEntity
  8
LAYER0001
  6
CONTINUOUS
 62
       7
100
AcDbLine
 10
-100.80235011
 20
-83.52731346
 30
0.0
 11
-100.80458092
 21
-83.5162639
 31
0.0
  0
LINE
  5
78
100
AcDbEntity
  8
LAYER0001
  6
CONTINUOUS
 62
       7
100
AcDbLine
 10
-100.80458092
 20
-83.5162639
 30
0.0
 11
-100.80677235
 21
-83.50575213
 31
0.0
  0
LINE
  5
79
100
AcDbEntity
  8
LAYER0001
  6
CONTINUOUS
 62
       7
100
AcDbLine
 10
-100.80677235
 20
-83.50575213
 30
0.0
 11
-100.80896079
 21
-83.49567551
 31
0.0
  0
LINE
  5
7A
100
AcDbEntity
  8
LAYER0001
  6
CONTINUOUS
 62
       7
100
AcDbLine
 10
-100.80896079
 20
-83.49567551
 30
0.0
 11
-100.81120665
 21
-83.4858666
 31
0.0
  0
LINE
  5
7B
100
AcDbEntity
  8
LAYER0001
  6
CONTINUOUS
 62
       7
100
AcDbLine
 10
-100.81120665
 20
-83.4858666
 30
0.0
 11
-100.81357073
 21
-83.47615691
 31
0.0
  0
LINE
  5
7C
100
AcDbEntity
  8
LAYER0001
  6
CONTINUOUS
 62
       7
100
AcDbLine
 10
-100.81357073
 20
-83.47615691
 30
0.0
 11
-100.81611382
 21
-83.46637799
 31
0.0
  0
LINE
  5
7D
100
AcDbEntity
  8
LAYER0001
  6
CONTINUOUS
 62
       7
100
AcDbLine
 10
-100.81611382
 20
-83.46637799
 30
0.0
 11
-100.8188967
 21
-83.45636137
 31
0.0
  0
LINE
  5
7E
100
AcDbEntity
  8
LAYER0001
  6
CONTINUOUS
 62
       7
100
AcDbLine
 10
-100.8188967
 20
-83.45636137
 30
0.0
 11
-100.82198017
 21
-83.44593858
 31
0.0
  0
LINE
  5
7F
100
AcDbEntity
  8
LAYER0001
  6
CONTINUOUS
 62
       7
100
AcDbLine
 10
-100.82198017
 20
-83.44593858
 30
0.0
 11
-100.82542844
 21
-83.43493939
 31
0.0
  0
LINE
  5
80
100
AcDbEntity
  8
LAYER0001
  6
CONTINUOUS
 62
       7
100
AcDbLine
 10
-100.82542844
 20
-83.43493939
 30
0.0
 11
-100.82944692
 21
-83.42312107
 31
0.0
  0
LINE
  5
81
100
AcDbEntity
  8
LAYER0001
  6
CONTINUOUS
 62
       7
100
AcDbLine
 10
-100.82944692
 20
-83.42312107
 30
0.0
 11
-100.83442921
 21
-83.41014422
 31
0.0
  0
LINE
  5
82
100
AcDbEntity
  8
LAYER0001
  6
CONTINUOUS
 62
       7
100
AcDbLine
 10
-100.83442921
 20
-83.41014422
 30
0.0
 11
-100.8407819
 21
-83.39566288
 31
0.0
  0
LINE
  5
83
100
AcDbEntity
  8
LAYER0001
  6
CONTINUOUS
 62
       7
100
AcDbLine
 10
-100.8407819
 20
-83.39566288
 30
0.0
 11
-100.84881207
 21
-83.37956607
 31
0.0
  0
LINE
  5
84
100
AcDbEntity
  8
LAYER0001
  6
CONTINUOUS
 62
       7
100
AcDbLine
 10
-100.84881207
 20
-83.37956607
 30
0.0
 11
-100.85852687
 21
-83.36245084
 31
0.0
  0
LINE
  5
85
100
AcDbEntity
  8
LAYER0001
  6
CONTINUOUS
 62
       7
100
AcDbLine
 10
-100.85852687
 20
-83.36245084
 30
0.0
 11
-100.86987719
 21
-83.34504699
 31
0.0
  0
LINE
  5
86
100
AcDbEntity
  8
LAYER0001
  6
CONTINUOUS
 62
       7
100
AcDbLine
 10
-100.86987719
 20
-83.34504699
 30
0.0
 11
-100.88279475
 21
-83.3279845
 31
0.0
  0
LINE
  5
87
100
AcDbEntity
  8
LAYER0001
  6
CONTINUOUS
 62
       7
100
AcDbLine
 10
-100.88279475
 20
-83.3279845
 30
0.0
 11
-100.89715561
 21
-83.3116031
 31
0.0
  0
LINE
  5
88
100
AcDbEntity
  8
LAYER0001
  6
CONTINUOUS
 62
       7
100
AcDbLine
 10
-100.89715561
 20
-83.3116031
 30
0.0
 11
-100.91282575
 21
-83.29619005
 31
0.0
  0
LINE
  5
89
100
AcDbEntity
  8
LAYER0001
  6
CONTINUOUS
 62
       7
100
AcDbLine
 10
-100.91282575
 20
-83.29619005
 30
0.0
 11
-100.92967255
 21
-83.28201942
 31
0.0
  0
LINE
  5
8A
100
AcDbEntity
  8
LAYER0001
  6
CONTINUOUS
 62
       7
100
AcDbLine
 10
-100.92967255
 20
-83.28201942
 30
0.0
 11
-100.94758627
 21
-83.26915019
 31
0.0
  0
LINE
  5
8B
100
AcDbEntity
  8
LAYER0001
  6
CONTINUOUS
 62
       7
100
AcDbLine
 10
-100.94758627
 20
-83.26915019
 30
0.0
 11
-100.96647574
 21
-83.25746597
 31
0.0
  0
LINE
  5
8C
100
AcDbEntity
  8
LAYER0001
  6
CONTINUOUS
 62
       7
100
AcDbLine
 10
-100.96647574
 20
-83.25746597
 30
0.0
 11
-100.98625038
 21
-83.24684524
 31
0.0
  0
LINE
  5
8D
100
AcDbEntity
  8
LAYER0001
  6
CONTINUOUS
 62
       7
100
AcDbLine
 10
-100.98625038
 20
-83.24684524
 30
0.0
 11
-101.00681802
 21
-83.23718109
 31
0.0
  0
LINE
  5
8E
100
AcDbEntity
  8
LAYER0001
  6
CONTINUOUS
 62
       7
100
AcDbLine
 10
-101.00681802
 20
-83.23718109
 30
0.0
 11
-101.02804761
 21
-83.22873042
 31
0.0
  0
LINE
  5
8F
100
AcDbEntity
  8
LAYER0001
  6
CONTINUOUS
 62
       7
100
AcDbLine
 10
-101.02804761
 20
-83.22873042
 30
0.0
 11
-101.04976743
 21
-83.22213031
 31
0.0
  0
LINE
  5
90
100
AcDbEntity
  8
LAYER0001
  6
CONTINUOUS
 62
       7
100
AcDbLine
 10
-101.04976743
 20
-83.22213031
 30
0.0
 11
-101.07180383
 21
-83.21803569
 31
0.0
  0
LINE
  5
91
100
AcDbEntity
  8
LAYER0001
  6
CONTINUOUS
 62
       7
100
AcDbLine
 10
-101.07180383
 20
-83.21803569
 30
0.0
 11
-101.09398321
 21
-83.21710152
 31
0.0
  0
LINE
  5
92
100
AcDbEntity
  8
LAYER0001
  6
CONTINUOUS
 62
       7
100
AcDbLine
 10
-101.09398321
 20
-83.21710152
 30
0.0
 11
-101.11615235
 21
-83.21953579
 31
0.0
  0
ENDBLK
  5
93
100
AcDbEntity
  8
0
100
AcDbBlockEnd
  0
BLOCK
  5
94
100
AcDbEntity
  8
0
100
AcDbBlockBegin
  2
GROUP_2
 70
       0
 10
0.0
 20
0.0
 30
0.0
  3
GROUP_2
  1

  0
LINE
  5
95
100
AcDbEntity
  8
LAYER0001
  6
CONTINUOUS
 62
       7
100
AcDbLine
 10
-102.72614231
 20
-83.22097748
 30
0.0
 11
-102.74620913
 21
-83.22200013
 31
0.0
  0
LINE
  5
96
100
AcDbEntity
  8
LAYER0001
  6
CONTINUOUS
 62
       7
100
AcDbLine
 10
-102.74620913
 20
-83.22200013
 30
0.0
 11
-102.76615618
 21
-83.22355664
 31
0.0
  0
LINE
  5
97
100
AcDbEntity
  8
LAYER0001
  6
CONTINUOUS
 62
       7
100
AcDbLine
 10
-102.76615618
 20
-83.22355664
 30
0.0
 11
-102.78586367
 21
-83.22618087
 31
0.0
  0
LINE
  5
98
100
AcDbEntity
  8
LAYER0001
  6
CONTINUOUS
 62
       7
100
AcDbLine
 10
-102.78586367
 20
-83.22618087
 30
0.0
 11
-102.8052119
 21
-83.23040563
 31
0.0
  0
LINE
  5
99
100
AcDbEntity
  8
LAYER0001
  6
CONTINUOUS
 62
       7
100
AcDbLine
 10
-102.8052119
 20
-83.23040563
 30
0.0
 11
-102.82409659
 21
-83.23653689
 31
0.0
  0
LINE
  5
9A
100
AcDbEntity
  8
LAYER0001
  6
CONTINUOUS
 62
       7
100
AcDbLine
 10
-102.82409659
 20
-83.23653689
 30
0.0
 11
-102.84244808
 21
-83.24437168
 31
0.0
  0
LINE
  5
9B
100
AcDbEntity
  8
LAYER0001
  6
CONTINUOUS
 62
       7
100
AcDbLine
 10
-102.84244808
 20
-83.24437168
 30
0.0
 11
-102.86020141
 21
-83.25363776
 31
0.0
  0
LINE
  5
9C
100
AcDbEntity
  8
LAYER0001
  6
CONTINUOUS
 62
       7
100
AcDbLine
 10
-102.86020141
 20
-83.25363776
 30
0.0
 11
-102.87729164
 21
-83.26406287
 31
0.0
  0
LINE
  5
9D
100
AcDbEntity
  8
LAYER0001
  6
CONTINUOUS
 62
       7
100
AcDbLine
 10
-102.87729164
 20
-83.26406287
 30
0.0
 11
-102.89365178
 21
-83.27541019
 31
0.0
  0
LINE
  5
9E
100
AcDbEntity
  8
LAYER0001
  6
CONTINUOUS
 62
       7
100
AcDbLine
 10
-102.89365178
 20
-83.27541019
 30
0.0
 11
-102.90920479
 21
-83.28762003
 31
0.0
  0
LINE
  5
9F
100
AcDbEntity
  8
LAYER0001
  6
CONTINUOUS
 62
       7
100
AcDbLine
 10
-102.90920479
 20
-83.28762003
 30
0.0
 11
-102.92387048
 21
-83.30068789
 31
0.0
  0
LINE
  5
A0
100
AcDbEntity
  8
LAYER0001
  6
CONTINUOUS
 62
       7
100
AcDbLine
 10
-102.92387048
 20
-83.30068789
 30
0.0
 11
-102.93756857
 21
-83.31460816
 31
0.0
  0
LINE
  5
A1
100
AcDbEntity
  8
LAYER0001
  6
CONTINUOUS
 62
       7
100
AcDbLine
 10
-102.93756857
 20
-83.31460816
 30
0.0
 11
-102.95021398
 21
-83.32928381
 31
0.0
  0
LINE
  5
A2
100
AcDbEntity
  8
LAYER0001
  6
CONTINUOUS
 62
       7
100
AcDbLine
 10
-102.95021398
 20
-83.32928381
 30
0.0
 11
-102.96171342
 21
-83.34446213
 31
0.0
  0
LINE
  5
A3
100
AcDbEntity
  8
LAYER0001
  6
CONTINUOUS
 62
       7
100
AcDbLine
 10
-102.96171342
 20
-83.34446213
 30
0.0
 11
-102.97197285
 21
-83.35987491
 31
0.0
  0
LINE
  5
A4
100
AcDbEntity
  8
LAYER0001
  6
CONTINUOUS
 62
       7
100
AcDbLine
 10
-102.97197285
 20
-83.35987491
 30
0.0
 11
-102.98091772
 21
-83.37518587
 31
0.0
  0
LINE
  5
A5
100
AcDbEntity
  8
LAYER0001
  6
CONTINUOUS
 62
       7
100
AcDbLine
 10
-102.98091772
 20
-83.37518587
 30
0.0
 11
-102.9885168
 21
-83.3899071
 31
0.0
  0
LINE
  5
A6
100
AcDbEntity
  8
LAYER0001
  6
CONTINUOUS
 62
       7
100
AcDbLine
 10
-102.9885168
 20
-83.3899071
 30
0.0
 11
-102.99475928
 21
-83.40355659
 31
0.0
  0
LINE
  5
A7
100
AcDbEntity
  8
LAYER0001
  6
CONTINUOUS
 62
       7
100
AcDbLine
 10
-102.99475928
 20
-83.40355659
 30
0.0
 11
-102.99980315
 21
-83.41595806
 31
0.0
  0
LINE
  5
A8
100
AcDbEntity
  8
LAYER0001
  6
CONTINUOUS
 62
       7
100
AcDbLine
 10
-102.99980315
 20
-83.41595806
 30
0.0
 11
-103.00391376
 21
-83.42713731
 31
0.0
  0
LINE
  5
A9
100
AcDbEntity
  8
LAYER0001
  6
CONTINUOUS
 62
       7
100
AcDbLine
 10
-103.00391376
 20
-83.42713731
 30
0.0
 11
-103.00732821
 21
-83.43726886
 31
0.0
  0
LINE
  5
AA
100
AcDbEntity
  8
LAYER0001
  6
CONTINUOUS
 62
       7
100
AcDbLine
 10
-103.00732821
 20
-83.43726886
 30
0.0
 11
-103.01025142
 21
-83.44668277
 31
0.0
  0
LINE
  5
AB
100
AcDbEntity
  8
LAYER0001
  6
CONTINUOUS
 62
       7
100
AcDbLine
 10
-103.01025142
 20
-83.44668277
 30
0.0
 11
-103.01288067
 21
-83.45570805
 31
0.0
  0
LINE
  5
AC
100
AcDbEntity
  8
LAYER0001
  6
CONTINUOUS
 62
       7
100
AcDbLine
 10
-103.01288067
 20
-83.45570805
 30
0.0
 11
-103.01532225
 21
-83.46454341
 31
0.0
  0
LINE
  5
AD
100
AcDbEntity
  8
LAYER0001
  6
CONTINUOUS
 62
       7
100
AcDbLine
 10
-103.01532225
 20
-83.46454341
 30
0.0
 11
-103.01761256
 21
-83.47328744
 31
0.0
  0
LINE
  5
AE
100
AcDbEntity
  8
LAYER0001
  6
CONTINUOUS
 62
       7
100
AcDbLine
 10
-103.01761256
 20
-83.47328744
 30
0.0
 11
-103.0197862
 21
-83.48203614
 31
0.0
  0
LINE
  5
AF
100
AcDbEntity
  8
LAYER0001
  6
CONTINUOUS
 62
       7
100
AcDbLine
 10
-103.0197862
 20
-83.48203614
 30
0.0
 11
-103.02187775
 21
-83.49088552
 31
0.0
  0
LINE
  5
B0
100
AcDbEntity
  8
LAYER0001
  6
CONTINUOUS
 62
       7
100
AcDbLine
 10
-103.02187775
 20
-83.49088552
 30
0.0
 11
-103.02392181
 21
-83.4999316
 31
0.0
  0
LINE
  5
B1
100
AcDbEntity
  8
LAYER0001
  6
CONTINUOUS
 62
       7
100
AcDbLine
 10
-103.02392181
 20
-83.4999316
 30
0.0
 11
-103.02595297
 21
-83.50927038
 31
0.0
  0
LINE
  5
B2
100
AcDbEntity
  8
LAYER0001
  6
CONTINUOUS
 62
       7
100
AcDbLine
 10
-103.02595297
 20
-83.50927038
 30
0.0
 11
-103.0280004
 21
-83.5189837
 31
0.0
  0
LINE
  5
B3
100
AcDbEntity
  8
LAYER0001
  6
CONTINUOUS
 62
       7
100
AcDbLine
 10
-103.0280004
 20
-83.5189837
 30
0.0
 11
-103.03006804
 21
-83.52908753
 31
0.0
  0
LINE
  5
B4
100
AcDbEntity
  8
LAYER0001
  6
CONTINUOUS
 62
       7
100
AcDbLine
 10
-103.03006804
 20
-83.52908753
 30
0.0
 11
-103.0321525
 21
-83.53957874
 31
0.0
  0
LINE
  5
B5
100
AcDbEntity
  8
LAYER0001
  6
CONTINUOUS
 62
       7
100
AcDbLine
 10
-103.0321525
 20
-83.53957874
 30
0.0
 11
-103.0342504
 21
-83.55045417
 31
0.0
  0
LINE
  5
B6
100
AcDbEntity
  8
LAYER0001
  6
CONTINUOUS
 62
       7
100
AcDbLine
 10
-103.0342504
 20
-83.55045417
 30
0.0
 11
-103.03635837
 21
-83.56171069
 31
0.0
  0
LINE
  5
B7
100
AcDbEntity
  8
LAYER0001
  6
CONTINUOUS
 62
       7
100
AcDbLine
 10
-103.03635837
 20
-83.56171069
 30
0.0
 11
-103.03847302
 21
-83.57334515
 31
0.0
  0
LINE
  5
B8
100
AcDbEntity
  8
LAYER0001
  6
CONTINUOUS
 62
       7
100
AcDbLine
 10
-103.03847302
 20
-83.57334515
 30
0.0
 11
-103.04059096
 21
-83.58535441
 31
0.0
  0
LINE
  5
B9
100
AcDbEntity
  8
LAYER0001
  6
CONTINUOUS
 62
       7
100
AcDbLine
 10
-103.04059096
 20
-83.58535441
 30
0.0
 11
-103.04270883
 21
-83.59773532
 31
0.0
  0
LINE
  5
BA
100
AcDbEntity
  8
LAYER0001
  6
CONTINUOUS
 62
       7
100
AcDbLine
 10
-103.04270883
 20
-83.59773532
 30
0.0
 11
-103.04482322
 21
-83.61048475
 31
0.0
  0
LINE
  5
BB
100
AcDbEntity
  8
LAYER0001
  6
CONTINUOUS
 62
       7
100
AcDbLine
 10
-103.04482322
 20
-83.61048475
 30
0.0
 11
-103.04693077
 21
-83.62359955
 31
0.0
  0
LINE
  5
BC
100
AcDbEntity
  8
LAYER0001
  6
CONTINUOUS
 62
       7
100
AcDbLine
 10
-103.04693077
 20
-83.62359955
 30
0.0
 11
-103.04902809
 21
-83.63707658
 31
0.0
  0
LINE
  5
BD
100
AcDbEntity
  8
LAYER0001
  6
CONTINUOUS
 62
       7
100
AcDbLine
 10
-103.04902809
 20
-83.63707658
 30
0.0
 11
-103.0511118
 21
-83.6509127
 31
0.0
  0
LINE
  5
BE
100
AcDbEntity
  8
LAYER0001
  6
CONTINUOUS
 62
       7
100
AcDbLine
 10
-103.0511118
 20
-83.6509127
 30
0.0
 11
-103.05317852
 21
-83.66510475
 31
0.0
  0
LINE
  5
BF
100
AcDbEntity
  8
LAYER0001
  6
CONTINUOUS
 62
       7
100
AcDbLine
 10
-103.05317852
 20
-83.66510475
 30
0.0
 11
-103.05522486
 21
-83.67964961
 31
0.0
  0
LINE
  5
C0
100
AcDbEntity
  8
LAYER0001
  6
CONTINUOUS
 62
       7
100
AcDbLine
 10
-103.05522486
 20
-83.67964961
 30
0.0
 11
-103.05724744
 21
-83.69454412
 31
0.0
  0
LINE
  5
C1
100
AcDbEntity
  8
LAYER0001
  6
CONTINUOUS
 62
       7
100
AcDbLine
 10
-103.05724744
 20
-83.69454412
 30
0.0
 11
-103.05924296
 21
-83.70978419
 31
0.0
  0
LINE
  5
C2
100
AcDbEntity
  8
LAYER0001
  6
CONTINUOUS
 62
       7
100
AcDbLine
 10
-103.05924296
 20
-83.70978419
 30
0.0
 11
-103.06120851
 21
-83.72536057
 31
0.0
  0
LINE
  5
C3
100
AcDbEntity
  8
LAYER0001
  6
CONTINUOUS
 62
       7
100
AcDbLine
 10
-103.06120851
 20
-83.72536057
 30
0.0
 11
-103.0631413
 21
-83.74126224
 31
0.0
  0
LINE
  5
C4
100
AcDbEntity
  8
LAYER0001
  6
CONTINUOUS
 62
       7
100
AcDbLine
 10
-103.0631413
 20
-83.74126224
 30
0.0
 11
-103.06503857
 21
-83.75747819
 31
0.0
  0
LINE
  5
C5
100
AcDbEntity
  8
LAYER0001
  6
CONTINUOUS
 62
       7
100
AcDbLine
 10
-103.06503857
 20
-83.75747819
 30
0.0
 11
-103.06689753
 21
-83.77399742
 31
0.0
  0
LINE
  5
C6
100
AcDbEntity
  8
LAYER0001
  6
CONTINUOUS
 62
       7
100
AcDbLine
 10
-103.06689753
 20
-83.77399742
 30
0.0
 11
-103.06871542
 21
-83.79080891
 31
0.0
  0
LINE
  5
C7
100
AcDbEntity
  8
LAYER0001
  6
CONTINUOUS
 62
       7
100
AcDbLine
 10
-103.06871542
 20
-83.79080891
 30
0.0
 11
-103.07048945
 21
-83.80790166
 31
0.0
  0
LINE
  5
C8
100
AcDbEntity
  8
LAYER0001
  6
CONTINUOUS
 62
       7
100
AcDbLine
 10
-103.07048945
 20
-83.80790166
 30
0.0
 11
-103.07221685
 21
-83.82526465
 31
0.0
  0
LINE
  5
C9
100
AcDbEntity
  8
LAYER0001
  6
CONTINUOUS
 62
       7
100
AcDbLine
 10
-103.07221685
 20
-83.82526465
 30
0.0
 11
-103.07389485
 21
-83.84288688
 31
0.0
  0
LINE
  5
CA
100
AcDbEntity
  8
LAYER0001
  6
CONTINUOUS
 62
       7
100
AcDbLine
 10
-103.07389485
 20
-83.84288688
 30
0.0
 11
-103.07552066
 21
-83.86075734
 31
0.0
  0
LINE
  5
CB
100
AcDbEntity
  8
LAYER0001
  6
CONTINUOUS
 62
       7
100
AcDbLine
 10
-103.07552066
 20
-83.86075734
 30
0.0
 11
-103.07709152
 21
-83.87886502
 31
0.0
  0
LINE
  5
CC
100
AcDbEntity
  8
LAYER0001
  6
CONTINUOUS
 62
       7
100
AcDbLine
 10
-103.07709152
 20
-83.87886502
 30
0.0
 11
-103.07860465
 21
-83.89719891
 31
0.0
  0
LINE
  5
CD
100
AcDbEntity
  8
LAYER0001
  6
CONTINUOUS
 62
       7
100
AcDbLine
 10
-103.07860465
 20
-83.89719891
 30
0.0
 11
-103.08005727
 21
-83.915748
 31
0.0
  0
LINE
  5
CE
100
AcDbEntity
  8
LAYER0001
  6
CONTINUOUS
 62
       7
100
AcDbLine
 10
-103.08005727
 20
-83.915748
 30
0.0
 11
-103.08144661
 21
-83.93450128
 31
0.0
  0
LINE
  5
CF
100
AcDbEntity
  8
LAYER0001
  6
CONTINUOUS
 62
       7
100
AcDbLine
 10
-103.08144661
 20
-83.93450128
 30
0.0
 11
-103.08276959
 21
-83.95344721
 31
0.0
  0
LINE
  5
D0
100
AcDbEntity
  8
LAYER0001
  6
CONTINUOUS
 62
       7
100
AcDbLine
 10
-103.08276959
 20
-83.95344721
 30
0.0
 11
-103.08402125
 21
-83.97257089
 31
0.0
  0
LINE
  5
D1
100
AcDbEntity
  8
LAYER0001
  6
CONTINUOUS
 62
       7
100
AcDbLine
 10
-103.08402125
 20
-83.97257089
 30
0.0
 11
-103.08519585
 21
-83.99185604
 31
0.0
  0
LINE
  5
D2
100
AcDbEntity
  8
LAYER0001
  6
CONTINUOUS
 62
       7
100
AcDbLine
 10
-103.08519585
 20
-83.99185604
 30
0.0
 11
-103.08628766
 21
-84.01128637
 31
0.0
  0
LINE
  5
D3
100
AcDbEntity
  8
LAYER0001
  6
CONTINUOUS
 62
       7
100
AcDbLine
 10
-103.08628766
 20
-84.01128637
 30
0.0
 11
-103.08729092
 21
-84.03084562
 31
0.0
  0
LINE
  5
D4
100
AcDbEntity
  8
LAYER0001
  6
CONTINUOUS
 62
       7
100
AcDbLine
 10
-103.08729092
 20
-84.03084562
 30
0.0
 11
-103.08819992
 21
-84.05051749
 31
0.0
  0
LINE
  5
D5
100
AcDbEntity
  8
LAYER0001
  6
CONTINUOUS
 62
       7
100
AcDbLine
 10
-103.08819992
 20
-84.05051749
 30
0.0
 11
-103.08900891
 21
-84.07028571
 31
0.0
  0
LINE
  5
D6
100
AcDbEntity
  8
LAYER0001
  6
CONTINUOUS
 62
       7
100
AcDbLine
 10
-103.08900891
 20
-84.07028571
 30
0.0
 11
-103.08971215
 21
-84.090134
 31
0.0
  0
LINE
  5
D7
100
AcDbEntity
  8
LAYER0001
  6
CONTINUOUS
 62
       7
100
AcDbLine
 10
-103.08971215
 20
-84.090134
 30
0.0
 11
-103.09030391
 21
-84.11004609
 31
0.0
  0
LINE
  5
D8
100
AcDbEntity
  8
LAYER0001
  6
CONTINUOUS
 62
       7
100
AcDbLine
 10
-103.09030391
 20
-84.11004609
 30
0.0
 11
-103.09077844
 21
-84.13000569
 31
0.0
  0
LINE
  5
D9
100
AcDbEntity
  8
LAYER0001
  6
CONTINUOUS
 62
       7
100
AcDbLine
 10
-103.09077844
 20
-84.13000569
 30
0.0
 11
-103.09113002
 21
-84.14999652
 31
0.0
  0
LINE
  5
DA
100
AcDbEntity
  8
LAYER0001
  6
CONTINUOUS
 62
       7
100
AcDbLine
 10
-103.09113002
 20
-84.14999652
 30
0.0
 11
-103.0913529
 21
-84.17000231
 31
0.0
  0
LINE
  5
DB
100
AcDbEntity
  8
LAYER0001
  6
CONTINUOUS
 62
       7
100
AcDbLine
 10
-103.0913529
 20
-84.17000231
 30
0.0
 11
-103.09144135
 21
-84.19000677
 31
0.0
  0
LINE
  5
DC
100
AcDbEntity
  8
LAYER0001
  6
CONTINUOUS
 62
       7
100
AcDbLine
 10
-103.09144135
 20
-84.19000677
 30
0.0
 11
-103.09138962
 21
-84.20999363
 31
0.0
  0
LINE
  5
DD
100
AcDbEntity
  8
LAYER0001
  6
CONTINUOUS
 62
       7
100
AcDbLine
 10
-103.09138962
 20
-84.20999363
 30
0.0
 11
-103.09119199
 21
-84.22994661
 31
0.0
  0
LINE
  5
DE
100
AcDbEntity
  8
LAYER0001
  6
CONTINUOUS
 62
       7
100
AcDbLine
 10
-103.09119199
 20
-84.22994661
 30
0.0
 11
-103.09085241
 21
-84.24985434
 31
0.0
  0
LINE
  5
DF
100
AcDbEntity
  8
LAYER0001
  6
CONTINUOUS
 62
       7
100
AcDbLine
 10
-103.09085241
 20
-84.24985434
 30
0.0
 11
-103.09043158
 21
-84.26973424
 31
0.0
  0
ENDBLK
  5
E0
100
AcDbEntity
  8
0
100
AcDbBlockEnd
  0
BLOCK
  5
E1
100
AcDbEntity
  8
0
100
AcDbBlockBegin
  2
GROUP_3
 70
       0
 10
0.0
 20
0.0
 30
0.0
  3
GROUP_3
  1

  0
LINE
  5
E2
100
AcDbEntity
  8
LAYER0001
  6
CONTINUOUS
 62
       7
100
AcDbLine
 10
-101.10675518
 20
-89.51288755
 30
0.0
 11
-101.0866743
 21
-89.51187325
 31
0.0
  0
LINE
  5
E3
100
AcDbEntity
  8
LAYER0001
  6
CONTINUOUS
 62
       7
100
AcDbLine
 10
-101.0866743
 20
-89.51187325
 30
0.0
 11
-101.06671129
 21
-89.51033357
 31
0.0
  0
LINE
  5
E4
100
AcDbEntity
  8
LAYER0001
  6
CONTINUOUS
 62
       7
100
AcDbLine
 10
-101.06671129
 20
-89.51033357
 30
0.0
 11
-101.04698403
 21
-89.50774313
 31
0.0
  0
LINE
  5
E5
100
AcDbEntity
  8
LAYER0001
  6
CONTINUOUS
 62
       7
100
AcDbLine
 10
-101.04698403
 20
-89.50774313
 30
0.0
 11
-101.02761036
 21
-89.50357704
 31
0.0
  0
LINE
  5
E6
100
AcDbEntity
  8
LAYER0001
  6
CONTINUOUS
 62
       7
100
AcDbLine
 10
-101.02761036
 20
-89.50357704
 30
0.0
 11
-101.00869489
 21
-89.49751258
 31
0.0
  0
LINE
  5
E7
100
AcDbEntity
  8
LAYER0001
  6
CONTINUOUS
 62
       7
100
AcDbLine
 10
-101.00869489
 20
-89.49751258
 30
0.0
 11
-100.99030875
 21
-89.48973898
 31
0.0
  0
LINE
  5
E8
100
AcDbEntity
  8
LAYER0001
  6
CONTINUOUS
 62
       7
100
AcDbLine
 10
-100.99030875
 20
-89.48973898
 30
0.0
 11
-100.97251783
 21
-89.48052532
 31
0.0
  0
LINE
  5
E9
100
AcDbEntity
  8
LAYER0001
  6
CONTINUOUS
 62
       7
100
AcDbLine
 10
-100.97251783
 20
-89.48052532
 30
0.0
 11
-100.95538802
 21
-89.47014067
 31
0.0
  0
LINE
  5
EA
100
AcDbEntity
  8
LAYER0001
  6
CONTINUOUS
 62
       7
100
AcDbLine
 10
-100.95538802
 20
-89.47014067
 30
0.0
 11
-100.93898685
 21
-89.4588236
 31
0.0
  0
LINE
  5
EB
100
AcDbEntity
  8
LAYER0001
  6
CONTINUOUS
 62
       7
100
AcDbLine
 10
-100.93898685
 20
-89.4588236
 30
0.0
 11
-100.92339112
 21
-89.44664037
 31
0.0
  0
LINE
  5
EC
100
AcDbEntity
  8
LAYER0001
  6
CONTINUOUS
 62
       7
100
AcDbLine
 10
-100.92339112
 20
-89.44664037
 30
0.0
 11
-100.90868089
 21
-89.43359677
 31
0.0
  0
LINE
  5
ED
100
AcDbEntity
  8
LAYER0001
  6
CONTINUOUS
 62
       7
100
AcDbLine
 10
-100.90868089
 20
-89.43359677
 30
0.0
 11
-100.89493625
 21
-89.41969928
 31
0.0
  0
LINE
  5
EE
100
AcDbEntity
  8
LAYER0001
  6
CONTINUOUS
 62
       7
100
AcDbLine
 10
-100.89493625
 20
-89.41969928
 30
0.0
 11
-100.88224192
 21
-89.40503877
 31
0.0
  0
LINE
  5
EF
100
AcDbEntity
  8
LAYER0001
  6
CONTINUOUS
 62
       7
100
AcDbLine
 10
-100.88224192
 20
-89.40503877
 30
0.0
 11
-100.87069132
 21
-89.38986546
 31
0.0
  0
LINE
  5
F0
100
AcDbEntity
  8
LAYER0001
  6
CONTINUOUS
 62
       7
100
AcDbLine
 10
-100.87069132
 20
-89.38986546
 30
0.0
 11
-100.8603788
 21
-89.37444748
 31
0.0
  0
LINE
  5
F1
100
AcDbEntity
  8
LAYER0001
  6
CONTINUOUS
 62
       7
100
AcDbLine
 10
-100.8603788
 20
-89.37444748
 30
0.0
 11
-100.85138077
 21
-89.35911576
 31
0.0
  0
LINE
  5
F2
100
AcDbEntity
  8
LAYER0001
  6
CONTINUOUS
 62
       7
100
AcDbLine
 10
-100.85138077
 20
-89.35911576
 30
0.0
 11
-100.84372931
 21
-89.3443562
 31
0.0
  0
LINE
  5
F3
100
AcDbEntity
  8
LAYER0001
  6
CONTINUOUS
 62
       7
100
AcDbLine
 10
-100.84372931
 20
-89.3443562
 30
0.0
 11
-100.83743737
 21
-89.33065563
 31
0.0
  0
LINE
  5
F4
100
AcDbEntity
  8
LAYER0001
  6
CONTINUOUS
 62
       7
100
AcDbLine
 10
-100.83743737
 20
-89.33065563
 30
0.0
 11
-100.83235407
 21
-89.31820428
 31
0.0
  0
LINE
  5
F5
100
AcDbEntity
  8
LAYER0001
  6
CONTINUOUS
 62
       7
100
AcDbLine
 10
-100.83235407
 20
-89.31820428
 30
0.0
 11
-100.82821393
 21
-89.30697871
 31
0.0
  0
LINE
  5
F6
100
AcDbEntity
  8
LAYER0001
  6
CONTINUOUS
 62
       7
100
AcDbLine
 10
-100.82821393
 20
-89.30697871
 30
0.0
 11
-100.82477782
 21
-89.296812
 31
0.0
  0
LINE
  5
F7
100
AcDbEntity
  8
LAYER0001
  6
CONTINUOUS
 62
       7
100
AcDbLine
 10
-100.82477782
 20
-89.296812
 30
0.0
 11
-100.82184014
 21
-89.28737486
 31
0.0
  0
LINE
  5
F8
100
AcDbEntity
  8
LAYER0001
  6
CONTINUOUS
 62
       7
100
AcDbLine
 10
-100.82184014
 20
-89.28737486
 30
0.0
 11
-100.81920237
 21
-89.27833623
 31
0.0
  0
LINE
  5
F9
100
AcDbEntity
  8
LAYER0001
  6
CONTINUOUS
 62
       7
100
AcDbLine
 10
-100.81920237
 20
-89.27833623
 30
0.0
 11
-100.81675405
 21
-89.26949128
 31
0.0
  0
LINE
  5
FA
100
AcDbEntity
  8
LAYER0001
  6
CONTINUOUS
 62
       7
100
AcDbLine
 10
-100.81675405
 20
-89.26949128
 30
0.0
 11
-100.81445827
 21
-89.26074062
 31
0.0
  0
LINE
  5
FB
100
AcDbEntity
  8
LAYER0001
  6
CONTINUOUS
 62
       7
100
AcDbLine
 10
-100.81445827
 20
-89.26074062
 30
0.0
 11
-100.81228035
 21
-89.25198809
 31
0.0
  0
LINE
  5
FC
100
AcDbEntity
  8
LAYER0001
  6
CONTINUOUS
 62
       7
100
AcDbLine
 10
-100.81228035
 20
-89.25198809
 30
0.0
 11
-100.81018565
 21
-89.24313754
 31
0.0
  0
LINE
  5
FD
100
AcDbEntity
  8
LAYER0001
  6
CONTINUOUS
 62
       7
100
AcDbLine
 10
-100.81018565
 20
-89.24313754
 30
0.0
 11
-100.8081395
 21
-89.2340928
 31
0.0
  0
LINE
  5
FE
100
AcDbEntity
  8
LAYER0001
  6
CONTINUOUS
 62
       7
100
AcDbLine
 10
-100.8081395
 20
-89.2340928
 30
0.0
 11
-100.80610724
 21
-89.22475774
 31
0.0
  0
LINE
  5
FF
100
AcDbEntity
  8
LAYER0001
  6
CONTINUOUS
 62
       7
100
AcDbLine
 10
-100.80610724
 20
-89.22475774
 30
0.0
 11
-100.8040592
 21
-89.21504917
 31
0.0
  0
LINE
  5
100
100
AcDbEntity
  8
LAYER0001
  6
CONTINUOUS
 62
       7
100
AcDbLine
 10
-100.8040592
 20
-89.21504917
 30
0.0
 11
-100.80199083
 21
-89.20494958
 31
0.0
  0
LINE
  5
101
100
AcDbEntity
  8
LAYER0001
  6
CONTINUOUS
 62
       7
100
AcDbLine
 10
-100.80199083
 20
-89.20494958
 30
0.0
 11
-100.79990552
 21
-89.19446209
 31
0.0
  0
LINE
  5
102
100
AcDbEntity
  8
LAYER0001
  6
CONTINUOUS
 62
       7
100
AcDbLine
 10
-100.79990552
 20
-89.19446209
 30
0.0
 11
-100.79780666
 21
-89.18358985
 31
0.0
  0
LINE
  5
103
100
AcDbEntity
  8
LAYER0001
  6
CONTINUOUS
 62
       7
100
AcDbLine
 10
-100.79780666
 20
-89.18358985
 30
0.0
 11
-100.79569764
 21
-89.17233602
 31
0.0
  0
LINE
  5
104
100
AcDbEntity
  8
LAYER0001
  6
CONTINUOUS
 62
       7
100
AcDbLine
 10
-100.79569764
 20
-89.17233602
 30
0.0
 11
-100.79358184
 21
-89.16070373
 31
0.0
  0
LINE
  5
105
100
AcDbEntity
  8
LAYER0001
  6
CONTINUOUS
 62
       7
100
AcDbLine
 10
-100.79358184
 20
-89.16070373
 30
0.0
 11
-100.79146266
 21
-89.14869613
 31
0.0
  0
LINE
  5
106
100
AcDbEntity
  8
LAYER0001
  6
CONTINUOUS
 62
       7
100
AcDbLine
 10
-100.79146266
 20
-89.14869613
 30
0.0
 11
-100.78934348
 21
-89.13631636
 31
0.0
  0
LINE
  5
107
100
AcDbEntity
  8
LAYER0001
  6
CONTINUOUS
 62
       7
100
AcDbLine
 10
-100.78934348
 20
-89.13631636
 30
0.0
 11
-100.7872277
 21
-89.12356758
 31
0.0
  0
LINE
  5
108
100
AcDbEntity
  8
LAYER0001
  6
CONTINUOUS
 62
       7
100
AcDbLine
 10
-100.7872277
 20
-89.12356758
 30
0.0
 11
-100.78511869
 21
-89.11045292
 31
0.0
  0
LINE
  5
109
100
AcDbEntity
  8
LAYER0001
  6
CONTINUOUS
 62
       7
100
AcDbLine
 10
-100.78511869
 20
-89.11045292
 30
0.0
 11
-100.78301985
 21
-89.09697554
 31
0.0
  0
LINE
  5
10A
100
AcDbEntity
  8
LAYER0001
  6
CONTINUOUS
 62
       7
100
AcDbLine
 10
-100.78301985
 20
-89.09697554
 30
0.0
 11
-100.78093456
 21
-89.08313858
 31
0.0
  0
LINE
  5
10B
100
AcDbEntity
  8
LAYER0001
  6
CONTINUOUS
 62
       7
100
AcDbLine
 10
-100.78093456
 20
-89.08313858
 30
0.0
 11
-100.77886622
 21
-89.06894519
 31
0.0
  0
LINE
  5
10C
100
AcDbEntity
  8
LAYER0001
  6
CONTINUOUS
 62
       7
100
AcDbLine
 10
-100.77886622
 20
-89.06894519
 30
0.0
 11
-100.77681821
 21
-89.0543985
 31
0.0
  0
LINE
  5
10D
100
AcDbEntity
  8
LAYER0001
  6
CONTINUOUS
 62
       7
100
AcDbLine
 10
-100.77681821
 20
-89.0543985
 30
0.0
 11
-100.77479392
 21
-89.03950168
 31
0.0
  0
LINE
  5
10E
100
AcDbEntity
  8
LAYER0001
  6
CONTINUOUS
 62
       7
100
AcDbLine
 10
-100.77479392
 20
-89.03950168
 30
0.0
 11
-100.77279668
 21
-89.02425875
 31
0.0
  0
LINE
  5
10F
100
AcDbEntity
  8
LAYER0001
  6
CONTINUOUS
 62
       7
100
AcDbLine
 10
-100.77279668
 20
-89.02425875
 30
0.0
 11
-100.77082939
 21
-89.00867891
 31
0.0
  0
LINE
  5
110
100
AcDbEntity
  8
LAYER0001
  6
CONTINUOUS
 62
       7
100
AcDbLine
 10
-100.77082939
 20
-89.00867891
 30
0.0
 11
-100.76889485
 21
-88.99277319
 31
0.0
  0
LINE
  5
111
100
AcDbEntity
  8
LAYER0001
  6
CONTINUOUS
 62
       7
100
AcDbLine
 10
-100.76889485
 20
-88.99277319
 30
0.0
 11
-100.76699583
 21
-88.97655261
 31
0.0
  0
LINE
  5
112
100
AcDbEntity
  8
LAYER0001
  6
CONTINUOUS
 62
       7
100
AcDbLine
 10
-100.76699583
 20
-88.97655261
 30
0.0
 11
-100.76513511
 21
-88.96002821
 31
0.0
  0
LINE
  5
113
100
AcDbEntity
  8
LAYER0001
  6
CONTINUOUS
 62
       7
100
AcDbLine
 10
-100.76513511
 20
-88.96002821
 30
0.0
 11
-100.76331548
 21
-88.94321101
 31
0.0
  0
LINE
  5
114
100
AcDbEntity
  8
LAYER0001
  6
CONTINUOUS
 62
       7
100
AcDbLine
 10
-100.76331548
 20
-88.94321101
 30
0.0
 11
-100.76153971
 21
-88.92611205
 31
0.0
  0
LINE
  5
115
100
AcDbEntity
  8
LAYER0001
  6
CONTINUOUS
 62
       7
100
AcDbLine
 10
-100.76153971
 20
-88.92611205
 30
0.0
 11
-100.75981059
 21
-88.90874235
 31
0.0
  0
LINE
  5
116
100
AcDbEntity
  8
LAYER0001
  6
CONTINUOUS
 62
       7
100
AcDbLine
 10
-100.75981059
 20
-88.90874235
 30
0.0
 11
-100.7581309
 21
-88.89111295
 31
0.0
  0
LINE
  5
117
100
AcDbEntity
  8
LAYER0001
  6
CONTINUOUS
 62
       7
100
AcDbLine
 10
-100.7581309
 20
-88.89111295
 30
0.0
 11
-100.75650341
 21
-88.87323488
 31
0.0
  0
LINE
  5
118
100
AcDbEntity
  8
LAYER0001
  6
CONTINUOUS
 62
       7
100
AcDbLine
 10
-100.75650341
 20
-88.87323488
 30
0.0
 11
-100.75493091
 21
-88.85511916
 31
0.0
  0
LINE
  5
119
100
AcDbEntity
  8
LAYER0001
  6
CONTINUOUS
 62
       7
100
AcDbLine
 10
-100.75493091
 20
-88.85511916
 30
0.0
 11
-100.75341618
 21
-88.83677682
 31
0.0
  0
LINE
  5
11A
100
AcDbEntity
  8
LAYER0001
  6
CONTINUOUS
 62
       7
100
AcDbLine
 10
-100.75341618
 20
-88.83677682
 30
0.0
 11
-100.75196199
 21
-88.81821891
 31
0.0
  0
LINE
  5
11B
100
AcDbEntity
  8
LAYER0001
  6
CONTINUOUS
 62
       7
100
AcDbLine
 10
-100.75196199
 20
-88.81821891
 30
0.0
 11
-100.75057114
 21
-88.79945643
 31
0.0
  0
LINE
  5
11C
100
AcDbEntity
  8
LAYER0001
  6
CONTINUOUS
 62
       7
100
AcDbLine
 10
-100.75057114
 20
-88.79945643
 30
0.0
 11
-100.74924668
 21
-88.78050094
 31
0.0
  0
LINE
  5
11D
100
AcDbEntity
  8
LAYER0001
  6
CONTINUOUS
 62
       7
100
AcDbLine
 10
-100.74924668
 20
-88.78050094
 30
0.0
 11
-100.74799357
 21
-88.76136733
 31
0.0
  0
LINE
  5
11E
100
AcDbEntity
  8
LAYER0001
  6
CONTINUOUS
 62
       7
100
AcDbLine
 10
-100.74799357
 20
-88.76136733
 30
0.0
 11
-100.74681756
 21
-88.74207192
 31
0.0
  0
LINE
  5
11F
100
AcDbEntity
  8
LAYER0001
  6
CONTINUOUS
 62
       7
100
AcDbLine
 10
-100.74681756
 20
-88.74207192
 30
0.0
 11
-100.7457244
 21
-88.72263101
 31
0.0
  0
LINE
  5
120
100
AcDbEntity
  8
LAYER0001
  6
CONTINUOUS
 62
       7
100
AcDbLine
 10
-100.7457244
 20
-88.72263101
 30
0.0
 11
-100.74471984
 21
-88.70306091
 31
0.0
  0
LINE
  5
121
100
AcDbEntity
  8
LAYER0001
  6
CONTINUOUS
 62
       7
100
AcDbLine
 10
-100.74471984
 20
-88.70306091
 30
0.0
 11
-100.74380962
 21
-88.68337793
 31
0.0
  0
LINE
  5
122
100
AcDbEntity
  8
LAYER0001
  6
CONTINUOUS
 62
       7
100
AcDbLine
 10
-100.74380962
 20
-88.68337793
 30
0.0
 11
-100.74299949
 21
-88.66359837
 31
0.0
  0
LINE
  5
123
100
AcDbEntity
  8
LAYER0001
  6
CONTINUOUS
 62
       7
100
AcDbLine
 10
-100.74299949
 20
-88.66359837
 30
0.0
 11
-100.7422952
 21
-88.64373855
 31
0.0
  0
LINE
  5
124
100
AcDbEntity
  8
LAYER0001
  6
CONTINUOUS
 62
       7
100
AcDbLine
 10
-100.7422952
 20
-88.64373855
 30
0.0
 11
-100.7417025
 21
-88.62381478
 31
0.0
  0
LINE
  5
125
100
AcDbEntity
  8
LAYER0001
  6
CONTINUOUS
 62
       7
100
AcDbLine
 10
-100.7417025
 20
-88.62381478
 30
0.0
 11
-100.74122713
 21
-88.60384335
 31
0.0
  0
LINE
  5
126
100
AcDbEntity
  8
LAYER0001
  6
CONTINUOUS
 62
       7
100
AcDbLine
 10
-100.74122713
 20
-88.60384335
 30
0.0
 11
-100.74087485
 21
-88.58384059
 31
0.0
  0
LINE
  5
127
100
AcDbEntity
  8
LAYER0001
  6
CONTINUOUS
 62
       7
100
AcDbLine
 10
-100.74087485
 20
-88.58384059
 30
0.0
 11
-100.7406514
 21
-88.56382279
 31
0.0
  0
LINE
  5
128
100
AcDbEntity
  8
LAYER0001
  6
CONTINUOUS
 62
       7
100
AcDbLine
 10
-100.7406514
 20
-88.56382279
 30
0.0
 11
-100.74056253
 21
-88.54380627
 31
0.0
  0
LINE
  5
129
100
AcDbEntity
  8
LAYER0001
  6
CONTINUOUS
 62
       7
100
AcDbLine
 10
-100.74056253
 20
-88.54380627
 30
0.0
 11
-100.74061398
 21
-88.52380733
 31
0.0
  0
LINE
  5
12A
100
AcDbEntity
  8
LAYER0001
  6
CONTINUOUS
 62
       7
100
AcDbLine
 10
-100.74061398
 20
-88.52380733
 30
0.0
 11
-100.74081151
 21
-88.50384229
 31
0.0
  0
LINE
  5
12B
100
AcDbEntity
  8
LAYER0001
  6
CONTINUOUS
 62
       7
100
AcDbLine
 10
-100.74081151
 20
-88.50384229
 30
0.0
 11
-100.74115118
 21
-88.48392254
 31
0.0
  0
LINE
  5
12C
100
AcDbEntity
  8
LAYER0001
  6
CONTINUOUS
 62
       7
100
AcDbLine
 10
-100.74115118
 20
-88.48392254
 30
0.0
 11
-100.74157225
 21
-88.46403067
 31
0.0
  0
ENDBLK
  5
12D
100
AcDbEntity
  8
0
100
AcDbBlockEnd
  0
BLOCK
  5
12E
100
AcDbEntity
  8
0
100
AcDbBlockBegin
  2
GROUP_4
 70
       0
 10
0.0
 20
0.0
 30
0.0
  3
GROUP_4
  1

  0
LINE
  5
12F
100
AcDbEntity
  8
LAYER0001
  6
CONTINUOUS
 62
       7
100
AcDbLine
 10
-103.09025929
 20
-88.51688416
 30
0.0
 11
-103.08989965
 21
-88.53947394
 31
0.0
  0
LINE
  5
130
100
AcDbEntity
  8
LAYER0001
  6
CONTINUOUS
 62
       7
100
AcDbLine
 10
-103.08989965
 20
-88.53947394
 30
0.0
 11
-103.08952812
 21
-88.56204518
 31
0.0
  0
LINE
  5
131
100
AcDbEntity
  8
LAYER0001
  6
CONTINUOUS
 62
       7
100
AcDbLine
 10
-103.08952812
 20
-88.56204518
 30
0.0
 11
-103.08913279
 21
-88.58457935
 31
0.0
  0
LINE
  5
132
100
AcDbEntity
  8
LAYER0001
  6
CONTINUOUS
 62
       7
100
AcDbLine
 10
-103.08913279
 20
-88.58457935
 30
0.0
 11
-103.08870177
 21
-88.6070579
 31
0.0
  0
LINE
  5
133
100
AcDbEntity
  8
LAYER0001
  6
CONTINUOUS
 62
       7
100
AcDbLine
 10
-103.08870177
 20
-88.6070579
 30
0.0
 11
-103.08822316
 21
-88.62946231
 31
0.0
  0
LINE
  5
134
100
AcDbEntity
  8
LAYER0001
  6
CONTINUOUS
 62
       7
100
AcDbLine
 10
-103.08822316
 20
-88.62946231
 30
0.0
 11
-103.08768505
 21
-88.65177404
 31
0.0
  0
LINE
  5
135
100
AcDbEntity
  8
LAYER0001
  6
CONTINUOUS
 62
       7
100
AcDbLine
 10
-103.08768505
 20
-88.65177404
 30
0.0
 11
-103.08707556
 21
-88.67397455
 31
0.0
  0
LINE
  5
136
100
AcDbEntity
  8
LAYER0001
  6
CONTINUOUS
 62
       7
100
AcDbLine
 10
-103.08707556
 20
-88.67397455
 30
0.0
 11
-103.08638278
 21
-88.69604531
 31
0.0
  0
LINE
  5
137
100
AcDbEntity
  8
LAYER0001
  6
CONTINUOUS
 62
       7
100
AcDbLine
 10
-103.08638278
 20
-88.69604531
 30
0.0
 11
-103.08559482
 21
-88.71796777
 31
0.0
  0
LINE
  5
138
100
AcDbEntity
  8
LAYER0001
  6
CONTINUOUS
 62
       7
100
AcDbLine
 10
-103.08559482
 20
-88.71796777
 30
0.0
 11
-103.08469978
 21
-88.7397234
 31
0.0
  0
LINE
  5
139
100
AcDbEntity
  8
LAYER0001
  6
CONTINUOUS
 62
       7
100
AcDbLine
 10
-103.08469978
 20
-88.7397234
 30
0.0
 11
-103.08368576
 21
-88.76129367
 31
0.0
  0
LINE
  5
13A
100
AcDbEntity
  8
LAYER0001
  6
CONTINUOUS
 62
       7
100
AcDbLine
 10
-103.08368576
 20
-88.76129367
 30
0.0
 11
-103.08254086
 21
-88.78266003
 31
0.0
  0
LINE
  5
13B
100
AcDbEntity
  8
LAYER0001
  6
CONTINUOUS
 62
       7
100
AcDbLine
 10
-103.08254086
 20
-88.78266003
 30
0.0
 11
-103.08125581
 21
-88.80380438
 31
0.0
  0
LINE
  5
13C
100
AcDbEntity
  8
LAYER0001
  6
CONTINUOUS
 62
       7
100
AcDbLine
 10
-103.08125581
 20
-88.80380438
 30
0.0
 11
-103.07983516
 21
-88.82471076
 31
0.0
  0
LINE
  5
13D
100
AcDbEntity
  8
LAYER0001
  6
CONTINUOUS
 62
       7
100
AcDbLine
 10
-103.07983516
 20
-88.82471076
 30
0.0
 11
-103.07828804
 21
-88.84536399
 31
0.0
  0
LINE
  5
13E
100
AcDbEntity
  8
LAYER0001
  6
CONTINUOUS
 62
       7
100
AcDbLine
 10
-103.07828804
 20
-88.84536399
 30
0.0
 11
-103.07662358
 21
-88.86574885
 31
0.0
  0
LINE
  5
13F
100
AcDbEntity
  8
LAYER0001
  6
CONTINUOUS
 62
       7
100
AcDbLine
 10
-103.07662358
 20
-88.86574885
 30
0.0
 11
-103.07485088
 21
-88.88585013
 31
0.0
  0
LINE
  5
140
100
AcDbEntity
  8
LAYER0001
  6
CONTINUOUS
 62
       7
100
AcDbLine
 10
-103.07485088
 20
-88.88585013
 30
0.0
 11
-103.07297908
 21
-88.90565263
 31
0.0
  0
LINE
  5
141
100
AcDbEntity
  8
LAYER0001
  6
CONTINUOUS
 62
       7
100
AcDbLine
 10
-103.07297908
 20
-88.90565263
 30
0.0
 11
-103.07101729
 21
-88.92514113
 31
0.0
  0
LINE
  5
142
100
AcDbEntity
  8
LAYER0001
  6
CONTINUOUS
 62
       7
100
AcDbLine
 10
-103.07101729
 20
-88.92514113
 30
0.0
 11
-103.06897464
 21
-88.94430044
 31
0.0
  0
LINE
  5
143
100
AcDbEntity
  8
LAYER0001
  6
CONTINUOUS
 62
       7
100
AcDbLine
 10
-103.06897464
 20
-88.94430044
 30
0.0
 11
-103.06686025
 21
-88.96311534
 31
0.0
  0
LINE
  5
144
100
AcDbEntity
  8
LAYER0001
  6
CONTINUOUS
 62
       7
100
AcDbLine
 10
-103.06686025
 20
-88.96311534
 30
0.0
 11
-103.06468324
 21
-88.98157062
 31
0.0
  0
LINE
  5
145
100
AcDbEntity
  8
LAYER0001
  6
CONTINUOUS
 62
       7
100
AcDbLine
 10
-103.06468324
 20
-88.98157062
 30
0.0
 11
-103.06245273
 21
-88.99965108
 31
0.0
  0
LINE
  5
146
100
AcDbEntity
  8
LAYER0001
  6
CONTINUOUS
 62
       7
100
AcDbLine
 10
-103.06245273
 20
-88.99965108
 30
0.0
 11
-103.06017785
 21
-89.01734151
 31
0.0
  0
LINE
  5
147
100
AcDbEntity
  8
LAYER0001
  6
CONTINUOUS
 62
       7
100
AcDbLine
 10
-103.06017785
 20
-89.01734151
 30
0.0
 11
-103.05786771
 21
-89.0346267
 31
0.0
  0
LINE
  5
148
100
AcDbEntity
  8
LAYER0001
  6
CONTINUOUS
 62
       7
100
AcDbLine
 10
-103.05786771
 20
-89.0346267
 30
0.0
 11
-103.05553115
 21
-89.05149186
 31
0.0
  0
LINE
  5
149
100
AcDbEntity
  8
LAYER0001
  6
CONTINUOUS
 62
       7
100
AcDbLine
 10
-103.05553115
 20
-89.05149186
 30
0.0
 11
-103.0531746
 21
-89.06792563
 31
0.0
  0
LINE
  5
14A
100
AcDbEntity
  8
LAYER0001
  6
CONTINUOUS
 62
       7
100
AcDbLine
 10
-103.0531746
 20
-89.06792563
 30
0.0
 11
-103.05080329
 21
-89.08391838
 31
0.0
  0
LINE
  5
14B
100
AcDbEntity
  8
LAYER0001
  6
CONTINUOUS
 62
       7
100
AcDbLine
 10
-103.05080329
 20
-89.08391838
 30
0.0
 11
-103.04842246
 21
-89.09946046
 31
0.0
  0
LINE
  5
14C
100
AcDbEntity
  8
LAYER0001
  6
CONTINUOUS
 62
       7
100
AcDbLine
 10
-103.04842246
 20
-89.09946046
 30
0.0
 11
-103.04603733
 21
-89.11454223
 31
0.0
  0
LINE
  5
14D
100
AcDbEntity
  8
LAYER0001
  6
CONTINUOUS
 62
       7
100
AcDbLine
 10
-103.04603733
 20
-89.11454223
 30
0.0
 11
-103.04365314
 21
-89.12915406
 31
0.0
  0
LINE
  5
14E
100
AcDbEntity
  8
LAYER0001
  6
CONTINUOUS
 62
       7
100
AcDbLine
 10
-103.04365314
 20
-89.12915406
 30
0.0
 11
-103.04127511
 21
-89.1432863
 31
0.0
  0
LINE
  5
14F
100
AcDbEntity
  8
LAYER0001
  6
CONTINUOUS
 62
       7
100
AcDbLine
 10
-103.04127511
 20
-89.1432863
 30
0.0
 11
-103.03890848
 21
-89.15692933
 31
0.0
  0
LINE
  5
150
100
AcDbEntity
  8
LAYER0001
  6
CONTINUOUS
 62
       7
100
AcDbLine
 10
-103.03890848
 20
-89.15692933
 30
0.0
 11
-103.03655848
 21
-89.17007349
 31
0.0
  0
LINE
  5
151
100
AcDbEntity
  8
LAYER0001
  6
CONTINUOUS
 62
       7
100
AcDbLine
 10
-103.03655848
 20
-89.17007349
 30
0.0
 11
-103.03423034
 21
-89.18270916
 31
0.0
  0
LINE
  5
152
100
AcDbEntity
  8
LAYER0001
  6
CONTINUOUS
 62
       7
100
AcDbLine
 10
-103.03423034
 20
-89.18270916
 30
0.0
 11
-103.03192929
 21
-89.1948267
 31
0.0
  0
LINE
  5
153
100
AcDbEntity
  8
LAYER0001
  6
CONTINUOUS
 62
       7
100
AcDbLine
 10
-103.03192929
 20
-89.1948267
 30
0.0
 11
-103.02966056
 21
-89.20641647
 31
0.0
  0
LINE
  5
154
100
AcDbEntity
  8
LAYER0001
  6
CONTINUOUS
 62
       7
100
AcDbLine
 10
-103.02966056
 20
-89.20641647
 30
0.0
 11
-103.02742938
 21
-89.21746883
 31
0.0
  0
LINE
  5
155
100
AcDbEntity
  8
LAYER0001
  6
CONTINUOUS
 62
       7
100
AcDbLine
 10
-103.02742938
 20
-89.21746883
 30
0.0
 11
-103.02523761
 21
-89.22798321
 31
0.0
  0
LINE
  5
156
100
AcDbEntity
  8
LAYER0001
  6
CONTINUOUS
 62
       7
100
AcDbLine
 10
-103.02523761
 20
-89.22798321
 30
0.0
 11
-103.02304901
 21
-89.2380619
 31
0.0
  0
LINE
  5
157
100
AcDbEntity
  8
LAYER0001
  6
CONTINUOUS
 62
       7
100
AcDbLine
 10
-103.02304901
 20
-89.2380619
 30
0.0
 11
-103.02080313
 21
-89.2478724
 31
0.0
  0
LINE
  5
158
100
AcDbEntity
  8
LAYER0001
  6
CONTINUOUS
 62
       7
100
AcDbLine
 10
-103.02080313
 20
-89.2478724
 30
0.0
 11
-103.01843917
 21
-89.25758321
 31
0.0
  0
LINE
  5
159
100
AcDbEntity
  8
LAYER0001
  6
CONTINUOUS
 62
       7
100
AcDbLine
 10
-103.01843917
 20
-89.25758321
 30
0.0
 11
-103.01589632
 21
-89.26736286
 31
0.0
  0
LINE
  5
15A
100
AcDbEntity
  8
LAYER0001
  6
CONTINUOUS
 62
       7
100
AcDbLine
 10
-103.01589632
 20
-89.26736286
 30
0.0
 11
-103.01311377
 21
-89.27737986
 31
0.0
  0
LINE
  5
15B
100
AcDbEntity
  8
LAYER0001
  6
CONTINUOUS
 62
       7
100
AcDbLine
 10
-103.01311377
 20
-89.27737986
 30
0.0
 11
-103.01003071
 21
-89.28780272
 31
0.0
  0
LINE
  5
15C
100
AcDbEntity
  8
LAYER0001
  6
CONTINUOUS
 62
       7
100
AcDbLine
 10
-103.01003071
 20
-89.28780272
 30
0.0
 11
-103.00658295
 21
-89.2988017
 31
0.0
  0
LINE
  5
15D
100
AcDbEntity
  8
LAYER0001
  6
CONTINUOUS
 62
       7
100
AcDbLine
 10
-103.00658295
 20
-89.2988017
 30
0.0
 11
-103.00256555
 21
-89.31061934
 31
0.0
  0
LINE
  5
15E
100
AcDbEntity
  8
LAYER0001
  6
CONTINUOUS
 62
       7
100
AcDbLine
 10
-103.00256555
 20
-89.31061934
 30
0.0
 11
-102.99758493
 21
-89.32359508
 31
0.0
  0
LINE
  5
15F
100
AcDbEntity
  8
LAYER0001
  6
CONTINUOUS
 62
       7
100
AcDbLine
 10
-102.99758493
 20
-89.32359508
 30
0.0
 11
-102.99123435
 21
-89.338075
 31
0.0
  0
LINE
  5
160
100
AcDbEntity
  8
LAYER0001
  6
CONTINUOUS
 62
       7
100
AcDbLine
 10
-102.99123435
 20
-89.338075
 30
0.0
 11
-102.98320617
 21
-89.35417122
 31
0.0
  0
LINE
  5
161
100
AcDbEntity
  8
LAYER0001
  6
CONTINUOUS
 62
       7
100
AcDbLine
 10
-102.98320617
 20
-89.35417122
 30
0.0
 11
-102.97349292
 21
-89.37128727
 31
0.0
  0
LINE
  5
162
100
AcDbEntity
  8
LAYER0001
  6
CONTINUOUS
 62
       7
100
AcDbLine
 10
-102.97349292
 20
-89.37128727
 30
0.0
 11
-102.96214372
 21
-89.38869313
 31
0.0
  0
LINE
  5
163
100
AcDbEntity
  8
LAYER0001
  6
CONTINUOUS
 62
       7
100
AcDbLine
 10
-102.96214372
 20
-89.38869313
 30
0.0
 11
-102.94922681
 21
-89.40575823
 31
0.0
  0
LINE
  5
164
100
AcDbEntity
  8
LAYER0001
  6
CONTINUOUS
 62
       7
100
AcDbLine
 10
-102.94922681
 20
-89.40575823
 30
0.0
 11
-102.93486611
 21
-89.42214245
 31
0.0
  0
LINE
  5
165
100
AcDbEntity
  8
LAYER0001
  6
CONTINUOUS
 62
       7
100
AcDbLine
 10
-102.93486611
 20
-89.42214245
 30
0.0
 11
-102.91919567
 21
-89.43755842
 31
0.0
  0
LINE
  5
166
100
AcDbEntity
  8
LAYER0001
  6
CONTINUOUS
 62
       7
100
AcDbLine
 10
-102.91919567
 20
-89.43755842
 30
0.0
 11
-102.90234816
 21
-89.45173186
 31
0.0
  0
LINE
  5
167
100
AcDbEntity
  8
LAYER0001
  6
CONTINUOUS
 62
       7
100
AcDbLine
 10
-102.90234816
 20
-89.45173186
 30
0.0
 11
-102.8844334
 21
-89.46460349
 31
0.0
  0
LINE
  5
168
100
AcDbEntity
  8
LAYER0001
  6
CONTINUOUS
 62
       7
100
AcDbLine
 10
-102.8844334
 20
-89.46460349
 30
0.0
 11
-102.8655426
 21
-89.4762898
 31
0.0
  0
LINE
  5
169
100
AcDbEntity
  8
LAYER0001
  6
CONTINUOUS
 62
       7
100
AcDbLine
 10
-102.8655426
 20
-89.4762898
 30
0.0
 11
-102.84576637
 21
-89.48691241
 31
0.0
  0
LINE
  5
16A
100
AcDbEntity
  8
LAYER0001
  6
CONTINUOUS
 62
       7
100
AcDbLine
 10
-102.84576637
 20
-89.48691241
 30
0.0
 11
-102.82519693
 21
-89.4965784
 31
0.0
  0
LINE
  5
16B
100
AcDbEntity
  8
LAYER0001
  6
CONTINUOUS
 62
       7
100
AcDbLine
 10
-102.82519693
 20
-89.4965784
 30
0.0
 11
-102.80396533
 21
-89.50503109
 31
0.0
  0
LINE
  5
16C
100
AcDbEntity
  8
LAYER0001
  6
CONTINUOUS
 62
       7
100
AcDbLine
 10
-102.80396533
 20
-89.50503109
 30
0.0
 11
-102.78224335
 21
-89.5116331
 31
0.0
  0
LINE
  5
16D
100
AcDbEntity
  8
LAYER0001
  6
CONTINUOUS
 62
       7
100
AcDbLine
 10
-102.78224335
 20
-89.5116331
 30
0.0
 11
-102.76020467
 21
-89.51572911
 31
0.0
  0
LINE
  5
16E
100
AcDbEntity
  8
LAYER0001
  6
CONTINUOUS
 62
       7
100
AcDbLine
 10
-102.76020467
 20
-89.51572911
 30
0.0
 11
-102.73802296
 21
-89.51666381
 31
0.0
  0
LINE
  5
16F
100
AcDbEntity
  8
LAYER0001
  6
CONTINUOUS
 62
       7
100
AcDbLine
 10
-102.73802296
 20
-89.51666381
 30
0.0
 11
-102.71585149
 21
-89.51422889
 31
0.0
  0
ENDBLK
  5
170
100
AcDbEntity
  8
0
100
AcDbBlockEnd
  0
BLOCK
  5
171
100
AcDbEntity
  8
0
100
AcDbBlockBegin
  2
GROUP_5
 70
       0
 10
0.0
 20
0.0
 30
0.0
  3
GROUP_5
  1

  0
LINE
  5
172
100
AcDbEntity
  8
LAYER0001
  6
CONTINUOUS
 62
       7
100
AcDbLine
 10
-113.53138256
 20
-100.41688211
 30
0.0
 11
-113.58709261
 21
-100.41635186
 31
0.0
  0
LINE
  5
173
100
AcDbEntity
  8
LAYER0001
  6
CONTINUOUS
 62
       7
100
AcDbLine
 10
-113.58709261
 20
-100.41635186
 30
0.0
 11
-113.64275184
 21
-100.41515643
 31
0.0
  0
LINE
  5
174
100
AcDbEntity
  8
LAYER0001
  6
CONTINUOUS
 62
       7
100
AcDbLine
 10
-113.64275184
 20
-100.41515643
 30
0.0
 11
-113.69832658
 21
-100.41285487
 31
0.0
  0
LINE
  5
175
100
AcDbEntity
  8
LAYER0001
  6
CONTINUOUS
 62
       7
100
AcDbLine
 10
-113.69832658
 20
-100.41285487
 30
0.0
 11
-113.75381674
 21
-100.40944631
 31
0.0
  0
LINE
  5
176
100
AcDbEntity
  8
LAYER0001
  6
CONTINUOUS
 62
       7
100
AcDbLine
 10
-113.75381674
 20
-100.40944631
 30
0.0
 11
-113.80922618
 21
-100.40498106
 31
0.0
  0
LINE
  5
177
100
AcDbEntity
  8
LAYER0001
  6
CONTINUOUS
 62
       7
100
AcDbLine
 10
-113.80922618
 20
-100.40498106
 30
0.0
 11
-113.86455874
 21
-100.39950944
 31
0.0
  0
LINE
  5
178
100
AcDbEntity
  8
LAYER0001
  6
CONTINUOUS
 62
       7
100
AcDbLine
 10
-113.86455874
 20
-100.39950944
 30
0.0
 11
-113.91981826
 21
-100.39308177
 31
0.0
  0
LINE
  5
179
100
AcDbEntity
  8
LAYER0001
  6
CONTINUOUS
 62
       7
100
AcDbLine
 10
-113.91981826
 20
-100.39308177
 30
0.0
 11
-113.97500858
 21
-100.38574837
 31
0.0
  0
LINE
  5
17A
100
AcDbEntity
  8
LAYER0001
  6
CONTINUOUS
 62
       7
100
AcDbLine
 10
-113.97500858
 20
-100.38574837
 30
0.0
 11
-114.03013356
 21
-100.37755955
 31
0.0
  0
LINE
  5
17B
100
AcDbEntity
  8
LAYER0001
  6
CONTINUOUS
 62
       7
100
AcDbLine
 10
-114.03013356
 20
-100.37755955
 30
0.0
 11
-114.08519704
 21
-100.36856564
 31
0.0
  0
LINE
  5
17C
100
AcDbEntity
  8
LAYER0001
  6
CONTINUOUS
 62
       7
100
AcDbLine
 10
-114.08519704
 20
-100.36856564
 30
0.0
 11
-114.14020285
 21
-100.35881695
 31
0.0
  0
LINE
  5
17D
100
AcDbEntity
  8
LAYER0001
  6
CONTINUOUS
 62
       7
100
AcDbLine
 10
-114.14020285
 20
-100.35881695
 30
0.0
 11
-114.19515485
 21
-100.3483638
 31
0.0
  0
LINE
  5
17E
100
AcDbEntity
  8
LAYER0001
  6
CONTINUOUS
 62
       7
100
AcDbLine
 10
-114.19515485
 20
-100.3483638
 30
0.0
 11
-114.25005688
 21
-100.33725652
 31
0.0
  0
LINE
  5
17F
100
AcDbEntity
  8
LAYER0001
  6
CONTINUOUS
 62
       7
100
AcDbLine
 10
-114.25005688
 20
-100.33725652
 30
0.0
 11
-114.30491277
 21
-100.32554541
 31
0.0
  0
LINE
  5
180
100
AcDbEntity
  8
LAYER0001
  6
CONTINUOUS
 62
       7
100
AcDbLine
 10
-114.30491277
 20
-100.32554541
 30
0.0
 11
-114.35972639
 21
-100.3132808
 31
0.0
  0
LINE
  5
181
100
AcDbEntity
  8
LAYER0001
  6
CONTINUOUS
 62
       7
100
AcDbLine
 10
-114.35972639
 20
-100.3132808
 30
0.0
 11
-114.41450156
 21
-100.300513
 31
0.0
  0
LINE
  5
182
100
AcDbEntity
  8
LAYER0001
  6
CONTINUOUS
 62
       7
100
AcDbLine
 10
-114.41450156
 20
-100.300513
 30
0.0
 11
-114.46924213
 21
-100.28729234
 31
0.0
  0
LINE
  5
183
100
AcDbEntity
  8
LAYER0001
  6
CONTINUOUS
 62
       7
100
AcDbLine
 10
-114.46924213
 20
-100.28729234
 30
0.0
 11
-114.52395196
 21
-100.27366913
 31
0.0
  0
LINE
  5
184
100
AcDbEntity
  8
LAYER0001
  6
CONTINUOUS
 62
       7
100
AcDbLine
 10
-114.52395196
 20
-100.27366913
 30
0.0
 11
-114.57863487
 21
-100.25969369
 31
0.0
  0
LINE
  5
185
100
AcDbEntity
  8
LAYER0001
  6
CONTINUOUS
 62
       7
100
AcDbLine
 10
-114.57863487
 20
-100.25969369
 30
0.0
 11
-114.63329472
 21
-100.24541634
 31
0.0
  0
LINE
  5
186
100
AcDbEntity
  8
LAYER0001
  6
CONTINUOUS
 62
       7
100
AcDbLine
 10
-114.63329472
 20
-100.24541634
 30
0.0
 11
-114.68793535
 21
-100.2308874
 31
0.0
  0
LINE
  5
187
100
AcDbEntity
  8
LAYER0001
  6
CONTINUOUS
 62
       7
100
AcDbLine
 10
-114.68793535
 20
-100.2308874
 30
0.0
 11
-114.74256061
 21
-100.21615718
 31
0.0
  0
LINE
  5
188
100
AcDbEntity
  8
LAYER0001
  6
CONTINUOUS
 62
       7
100
AcDbLine
 10
-114.74256061
 20
-100.21615718
 30
0.0
 11
-114.79717433
 21
-100.20127601
 31
0.0
  0
LINE
  5
189
100
AcDbEntity
  8
LAYER0001
  6
CONTINUOUS
 62
       7
100
AcDbLine
 10
-114.79717433
 20
-100.20127601
 30
0.0
 11
-114.85178036
 21
-100.1862942
 31
0.0
  0
LINE
  5
18A
100
AcDbEntity
  8
LAYER0001
  6
CONTINUOUS
 62
       7
100
AcDbLine
 10
-114.85178036
 20
-100.1862942
 30
0.0
 11
-114.90638255
 21
-100.17126208
 31
0.0
  0
ENDBLK
  5
18B
100
AcDbEntity
  8
0
100
AcDbBlockEnd
  0
BLOCK
  5
18C
100
AcDbEntity
  8
0
100
AcDbBlockBegin
  2
GROUP_6
 70
       0
 10
0.0
 20
0.0
 30
0.0
  3
GROUP_6
  1

  0
LINE
  5
18D
100
AcDbEntity
  8
LAYER0001
  6
CONTINUOUS
 62
       7
100
AcDbLine
 10
-116.28138255
 20
-100.41688211
 30
0.0
 11
-116.33709262
 21
-100.41635186
 31
0.0
  0
LINE
  5
18E
100
AcDbEntity
  8
LAYER0001
  6
CONTINUOUS
 62
       7
100
AcDbLine
 10
-116.33709262
 20
-100.41635186
 30
0.0
 11
-116.39275189
 21
-100.41515643
 31
0.0
  0
LINE
  5
18F
100
AcDbEntity
  8
LAYER0001
  6
CONTINUOUS
 62
       7
100
AcDbLine
 10
-116.39275189
 20
-100.41515643
 30
0.0
 11
-116.44832665
 21
-100.41285487
 31
0.0
  0
LINE
  5
190
100
AcDbEntity
  8
LAYER0001
  6
CONTINUOUS
 62
       7
100
AcDbLine
 10
-116.44832665
 20
-100.41285487
 30
0.0
 11
-116.50381684
 21
-100.40944631
 31
0.0
  0
LINE
  5
191
100
AcDbEntity
  8
LAYER0001
  6
CONTINUOUS
 62
       7
100
AcDbLine
 10
-116.50381684
 20
-100.40944631
 30
0.0
 11
-116.55922631
 21
-100.40498106
 31
0.0
  0
LINE
  5
192
100
AcDbEntity
  8
LAYER0001
  6
CONTINUOUS
 62
       7
100
AcDbLine
 10
-116.55922631
 20
-100.40498106
 30
0.0
 11
-116.6145589
 21
-100.39950944
 31
0.0
  0
LINE
  5
193
100
AcDbEntity
  8
LAYER0001
  6
CONTINUOUS
 62
       7
100
AcDbLine
 10
-116.6145589
 20
-100.39950944
 30
0.0
 11
-116.66981845
 21
-100.39308177
 31
0.0
  0
LINE
  5
194
100
AcDbEntity
  8
LAYER0001
  6
CONTINUOUS
 62
       7
100
AcDbLine
 10
-116.66981845
 20
-100.39308177
 30
0.0
 11
-116.72500882
 21
-100.38574836
 31
0.0
  0
LINE
  5
195
100
AcDbEntity
  8
LAYER0001
  6
CONTINUOUS
 62
       7
100
AcDbLine
 10
-116.72500882
 20
-100.38574836
 30
0.0
 11
-116.78013383
 21
-100.37755955
 31
0.0
  0
LINE
  5
196
100
AcDbEntity
  8
LAYER0001
  6
CONTINUOUS
 62
       7
100
AcDbLine
 10
-116.78013383
 20
-100.37755955
 30
0.0
 11
-116.83519734
 21
-100.36856563
 31
0.0
  0
LINE
  5
197
100
AcDbEntity
  8
LAYER0001
  6
CONTINUOUS
 62
       7
100
AcDbLine
 10
-116.83519734
 20
-100.36856563
 30
0.0
 11
-116.89020319
 21
-100.35881694
 31
0.0
  0
LINE
  5
198
100
AcDbEntity
  8
LAYER0001
  6
CONTINUOUS
 62
       7
100
AcDbLine
 10
-116.89020319
 20
-100.35881694
 30
0.0
 11
-116.94515523
 21
-100.3483638
 31
0.0
  0
LINE
  5
199
100
AcDbEntity
  8
LAYER0001
  6
CONTINUOUS
 62
       7
100
AcDbLine
 10
-116.94515523
 20
-100.3483638
 30
0.0
 11
-117.00005729
 21
-100.33725651
 31
0.0
  0
LINE
  5
19A
100
AcDbEntity
  8
LAYER0001
  6
CONTINUOUS
 62
       7
100
AcDbLine
 10
-117.00005729
 20
-100.33725651
 30
0.0
 11
-117.05491323
 21
-100.3255454
 31
0.0
  0
LINE
  5
19B
100
AcDbEntity
  8
LAYER0001
  6
CONTINUOUS
 62
       7
100
AcDbLine
 10
-117.05491323
 20
-100.3255454
 30
0.0
 11
-117.10972688
 21
-100.31328079
 31
0.0
  0
LINE
  5
19C
100
AcDbEntity
  8
LAYER0001
  6
CONTINUOUS
 62
       7
100
AcDbLine
 10
-117.10972688
 20
-100.31328079
 30
0.0
 11
-117.16450209
 21
-100.300513
 31
0.0
  0
LINE
  5
19D
100
AcDbEntity
  8
LAYER0001
  6
CONTINUOUS
 62
       7
100
AcDbLine
 10
-117.16450209
 20
-100.300513
 30
0.0
 11
-117.21924271
 21
-100.28729233
 31
0.0
  0
LINE
  5
19E
100
AcDbEntity
  8
LAYER0001
  6
CONTINUOUS
 62
       7
100
AcDbLine
 10
-117.21924271
 20
-100.28729233
 30
0.0
 11
-117.27395258
 21
-100.27366912
 31
0.0
  0
LINE
  5
19F
100
AcDbEntity
  8
LAYER0001
  6
CONTINUOUS
 62
       7
100
AcDbLine
 10
-117.27395258
 20
-100.27366912
 30
0.0
 11
-117.32863553
 21
-100.25969369
 31
0.0
  0
LINE
  5
1A0
100
AcDbEntity
  8
LAYER0001
  6
CONTINUOUS
 62
       7
100
AcDbLine
 10
-117.32863553
 20
-100.25969369
 30
0.0
 11
-117.38329543
 21
-100.24541634
 31
0.0
  0
LINE
  5
1A1
100
AcDbEntity
  8
LAYER0001
  6
CONTINUOUS
 62
       7
100
AcDbLine
 10
-117.38329543
 20
-100.24541634
 30
0.0
 11
-117.4379361
 21
-100.23088739
 31
0.0
  0
LINE
  5
1A2
100
AcDbEntity
  8
LAYER0001
  6
CONTINUOUS
 62
       7
100
AcDbLine
 10
-117.4379361
 20
-100.23088739
 30
0.0
 11
-117.4925614
 21
-100.21615718
 31
0.0
  0
LINE
  5
1A3
100
AcDbEntity
  8
LAYER0001
  6
CONTINUOUS
 62
       7
100
AcDbLine
 10
-117.4925614
 20
-100.21615718
 30
0.0
 11
-117.54717516
 21
-100.20127601
 31
0.0
  0
LINE
  5
1A4
100
AcDbEntity
  8
LAYER0001
  6
CONTINUOUS
 62
       7
100
AcDbLine
 10
-117.54717516
 20
-100.20127601
 30
0.0
 11
-117.60178124
 21
-100.1862942
 31
0.0
  0
LINE
  5
1A5
100
AcDbEntity
  8
LAYER0001
  6
CONTINUOUS
 62
       7
100
AcDbLine
 10
-117.60178124
 20
-100.1862942
 30
0.0
 11
-117.65638347
 21
-100.17126208
 31
0.0
  0
ENDBLK
  5
1A6
100
AcDbEntity
  8
0
100
AcDbBlockEnd
  0
BLOCK
  5
1A7
100
AcDbEntity
  8
0
100
AcDbBlockBegin
  2
GROUP_7
 70
       0
 10
0.0
 20
0.0
 30
0.0
  3
GROUP_7
  1

  0
LINE
  5
1A8
100
AcDbEntity
  8
LAYER0001
  6
CONTINUOUS
 62
       7
100
AcDbLine
 10
-112.15638257
 20
-100.41688211
 30
0.0
 11
-112.15638257
 21
-100.41533495
 31
0.0
  0
LINE
  5
1A9
100
AcDbEntity
  8
LAYER0001
  6
CONTINUOUS
 62
       7
100
AcDbLine
 10
-112.15638257
 20
-100.41533495
 30
0.0
 11
-112.15638257
 21
-100.41360574
 31
0.0
  0
LINE
  5
1AA
100
AcDbEntity
  8
LAYER0001
  6
CONTINUOUS
 62
       7
100
AcDbLine
 10
-112.15638257
 20
-100.41360574
 30
0.0
 11
-112.15638257
 21
-100.41151243
 31
0.0
  0
LINE
  5
1AB
100
AcDbEntity
  8
LAYER0001
  6
CONTINUOUS
 62
       7
100
AcDbLine
 10
-112.15638257
 20
-100.41151243
 30
0.0
 11
-112.15638257
 21
-100.40887296
 31
0.0
  0
LINE
  5
1AC
100
AcDbEntity
  8
LAYER0001
  6
CONTINUOUS
 62
       7
100
AcDbLine
 10
-112.15638257
 20
-100.40887296
 30
0.0
 11
-112.15638257
 21
-100.40550528
 31
0.0
  0
LINE
  5
1AD
100
AcDbEntity
  8
LAYER0001
  6
CONTINUOUS
 62
       7
100
AcDbLine
 10
-112.15638257
 20
-100.40550528
 30
0.0
 11
-112.15638257
 21
-100.40122735
 31
0.0
  0
LINE
  5
1AE
100
AcDbEntity
  8
LAYER0001
  6
CONTINUOUS
 62
       7
100
AcDbLine
 10
-112.15638257
 20
-100.40122735
 30
0.0
 11
-112.15638257
 21
-100.3958735
 31
0.0
  0
LINE
  5
1AF
100
AcDbEntity
  8
LAYER0001
  6
CONTINUOUS
 62
       7
100
AcDbLine
 10
-112.15638257
 20
-100.3958735
 30
0.0
 11
-112.15638257
 21
-100.38942573
 31
0.0
  0
LINE
  5
1B0
100
AcDbEntity
  8
LAYER0001
  6
CONTINUOUS
 62
       7
100
AcDbLine
 10
-112.15638257
 20
-100.38942573
 30
0.0
 11
-112.15638257
 21
-100.38194413
 31
0.0
  0
LINE
  5
1B1
100
AcDbEntity
  8
LAYER0001
  6
CONTINUOUS
 62
       7
100
AcDbLine
 10
-112.15638257
 20
-100.38194413
 30
0.0
 11
-112.15638257
 21
-100.37348952
 31
0.0
  0
LINE
  5
1B2
100
AcDbEntity
  8
LAYER0001
  6
CONTINUOUS
 62
       7
100
AcDbLine
 10
-112.15638257
 20
-100.37348952
 30
0.0
 11
-112.15638257
 21
-100.36412272
 31
0.0
  0
LINE
  5
1B3
100
AcDbEntity
  8
LAYER0001
  6
CONTINUOUS
 62
       7
100
AcDbLine
 10
-112.15638257
 20
-100.36412272
 30
0.0
 11
-112.15638257
 21
-100.35390453
 31
0.0
  0
LINE
  5
1B4
100
AcDbEntity
  8
LAYER0001
  6
CONTINUOUS
 62
       7
100
AcDbLine
 10
-112.15638257
 20
-100.35390453
 30
0.0
 11
-112.15638257
 21
-100.34289577
 31
0.0
  0
LINE
  5
1B5
100
AcDbEntity
  8
LAYER0001
  6
CONTINUOUS
 62
       7
100
AcDbLine
 10
-112.15638257
 20
-100.34289577
 30
0.0
 11
-112.15638257
 21
-100.33115725
 31
0.0
  0
LINE
  5
1B6
100
AcDbEntity
  8
LAYER0001
  6
CONTINUOUS
 62
       7
100
AcDbLine
 10
-112.15638257
 20
-100.33115725
 30
0.0
 11
-112.15638257
 21
-100.31874978
 31
0.0
  0
LINE
  5
1B7
100
AcDbEntity
  8
LAYER0001
  6
CONTINUOUS
 62
       7
100
AcDbLine
 10
-112.15638257
 20
-100.31874978
 30
0.0
 11
-112.15638257
 21
-100.30573419
 31
0.0
  0
LINE
  5
1B8
100
AcDbEntity
  8
LAYER0001
  6
CONTINUOUS
 62
       7
100
AcDbLine
 10
-112.15638257
 20
-100.30573419
 30
0.0
 11
-112.15638257
 21
-100.29217128
 31
0.0
  0
LINE
  5
1B9
100
AcDbEntity
  8
LAYER0001
  6
CONTINUOUS
 62
       7
100
AcDbLine
 10
-112.15638257
 20
-100.29217128
 30
0.0
 11
-112.15638257
 21
-100.27812186
 31
0.0
  0
LINE
  5
1BA
100
AcDbEntity
  8
LAYER0001
  6
CONTINUOUS
 62
       7
100
AcDbLine
 10
-112.15638257
 20
-100.27812186
 30
0.0
 11
-112.15638257
 21
-100.26364674
 31
0.0
  0
LINE
  5
1BB
100
AcDbEntity
  8
LAYER0001
  6
CONTINUOUS
 62
       7
100
AcDbLine
 10
-112.15638257
 20
-100.26364674
 30
0.0
 11
-112.15638257
 21
-100.24880675
 31
0.0
  0
LINE
  5
1BC
100
AcDbEntity
  8
LAYER0001
  6
CONTINUOUS
 62
       7
100
AcDbLine
 10
-112.15638257
 20
-100.24880675
 30
0.0
 11
-112.15638257
 21
-100.2336627
 31
0.0
  0
LINE
  5
1BD
100
AcDbEntity
  8
LAYER0001
  6
CONTINUOUS
 62
       7
100
AcDbLine
 10
-112.15638257
 20
-100.2336627
 30
0.0
 11
-112.15638257
 21
-100.21827539
 31
0.0
  0
LINE
  5
1BE
100
AcDbEntity
  8
LAYER0001
  6
CONTINUOUS
 62
       7
100
AcDbLine
 10
-112.15638257
 20
-100.21827539
 30
0.0
 11
-112.15638257
 21
-100.20270564
 31
0.0
  0
LINE
  5
1BF
100
AcDbEntity
  8
LAYER0001
  6
CONTINUOUS
 62
       7
100
AcDbLine
 10
-112.15638257
 20
-100.20270564
 30
0.0
 11
-112.15638257
 21
-100.18701426
 31
0.0
  0
LINE
  5
1C0
100
AcDbEntity
  8
LAYER0001
  6
CONTINUOUS
 62
       7
100
AcDbLine
 10
-112.15638257
 20
-100.18701426
 30
0.0
 11
-112.15638257
 21
-100.17126208
 31
0.0
  0
ENDBLK
  5
1C1
100
AcDbEntity
  8
0
100
AcDbBlockEnd
  0
BLOCK
  5
1C2
100
AcDbEntity
  8
0
100
AcDbBlockBegin
  2
GROUP_8
 70
       0
 10
0.0
 20
0.0
 30
0.0
  3
GROUP_8
  1

  0
LINE
  5
1C3
100
AcDbEntity
  8
LAYER0001
  6
CONTINUOUS
 62
       7
100
AcDbLine
 10
-117.65638347
 20
-100.17126208
 30
0.0
 11
-117.65638347
 21
-100.18701426
 31
0.0
  0
LINE
  5
1C4
100
AcDbEntity
  8
LAYER0001
  6
CONTINUOUS
 62
       7
100
AcDbLine
 10
-117.65638347
 20
-100.18701426
 30
0.0
 11
-117.65638347
 21
-100.20270564
 31
0.0
  0
LINE
  5
1C5
100
AcDbEntity
  8
LAYER0001
  6
CONTINUOUS
 62
       7
100
AcDbLine
 10
-117.65638347
 20
-100.20270564
 30
0.0
 11
-117.65638347
 21
-100.21827539
 31
0.0
  0
LINE
  5
1C6
100
AcDbEntity
  8
LAYER0001
  6
CONTINUOUS
 62
       7
100
AcDbLine
 10
-117.65638347
 20
-100.21827539
 30
0.0
 11
-117.65638347
 21
-100.2336627
 31
0.0
  0
LINE
  5
1C7
100
AcDbEntity
  8
LAYER0001
  6
CONTINUOUS
 62
       7
100
AcDbLine
 10
-117.65638347
 20
-100.2336627
 30
0.0
 11
-117.65638347
 21
-100.24880675
 31
0.0
  0
LINE
  5
1C8
100
AcDbEntity
  8
LAYER0001
  6
CONTINUOUS
 62
       7
100
AcDbLine
 10
-117.65638347
 20
-100.24880675
 30
0.0
 11
-117.65638347
 21
-100.26364674
 31
0.0
  0
LINE
  5
1C9
100
AcDbEntity
  8
LAYER0001
  6
CONTINUOUS
 62
       7
100
AcDbLine
 10
-117.65638347
 20
-100.26364674
 30
0.0
 11
-117.65638347
 21
-100.27812186
 31
0.0
  0
LINE
  5
1CA
100
AcDbEntity
  8
LAYER0001
  6
CONTINUOUS
 62
       7
100
AcDbLine
 10
-117.65638347
 20
-100.27812186
 30
0.0
 11
-117.65638347
 21
-100.29217128
 31
0.0
  0
LINE
  5
1CB
100
AcDbEntity
  8
LAYER0001
  6
CONTINUOUS
 62
       7
100
AcDbLine
 10
-117.65638347
 20
-100.29217128
 30
0.0
 11
-117.65638347
 21
-100.30573419
 31
0.0
  0
LINE
  5
1CC
100
AcDbEntity
  8
LAYER0001
  6
CONTINUOUS
 62
       7
100
AcDbLine
 10
-117.65638347
 20
-100.30573419
 30
0.0
 11
-117.65638347
 21
-100.31874978
 31
0.0
  0
LINE
  5
1CD
100
AcDbEntity
  8
LAYER0001
  6
CONTINUOUS
 62
       7
100
AcDbLine
 10
-117.65638347
 20
-100.31874978
 30
0.0
 11
-117.65638347
 21
-100.33115725
 31
0.0
  0
LINE
  5
1CE
100
AcDbEntity
  8
LAYER0001
  6
CONTINUOUS
 62
       7
100
AcDbLine
 10
-117.65638347
 20
-100.33115725
 30
0.0
 11
-117.65638347
 21
-100.34289577
 31
0.0
  0
LINE
  5
1CF
100
AcDbEntity
  8
LAYER0001
  6
CONTINUOUS
 62
       7
100
AcDbLine
 10
-117.65638347
 20
-100.34289577
 30
0.0
 11
-117.65638347
 21
-100.35390453
 31
0.0
  0
LINE
  5
1D0
100
AcDbEntity
  8
LAYER0001
  6
CONTINUOUS
 62
       7
100
AcDbLine
 10
-117.65638347
 20
-100.35390453
 30
0.0
 11
-117.65638347
 21
-100.36412272
 31
0.0
  0
LINE
  5
1D1
100
AcDbEntity
  8
LAYER0001
  6
CONTINUOUS
 62
       7
100
AcDbLine
 10
-117.65638347
 20
-100.36412272
 30
0.0
 11
-117.65638347
 21
-100.37348952
 31
0.0
  0
LINE
  5
1D2
100
AcDbEntity
  8
LAYER0001
  6
CONTINUOUS
 62
       7
100
AcDbLine
 10
-117.65638347
 20
-100.37348952
 30
0.0
 11
-117.65638347
 21
-100.38194413
 31
0.0
  0
LINE
  5
1D3
100
AcDbEntity
  8
LAYER0001
  6
CONTINUOUS
 62
       7
100
AcDbLine
 10
-117.65638347
 20
-100.38194413
 30
0.0
 11
-117.65638347
 21
-100.38942573
 31
0.0
  0
LINE
  5
1D4
100
AcDbEntity
  8
LAYER0001
  6
CONTINUOUS
 62
       7
100
AcDbLine
 10
-117.65638347
 20
-100.38942573
 30
0.0
 11
-117.65638347
 21
-100.3958735
 31
0.0
  0
LINE
  5
1D5
100
AcDbEntity
  8
LAYER0001
  6
CONTINUOUS
 62
       7
100
AcDbLine
 10
-117.65638347
 20
-100.3958735
 30
0.0
 11
-117.65638347
 21
-100.40122735
 31
0.0
  0
LINE
  5
1D6
100
AcDbEntity
  8
LAYER0001
  6
CONTINUOUS
 62
       7
100
AcDbLine
 10
-117.65638347
 20
-100.40122735
 30
0.0
 11
-117.65638347
 21
-100.40550528
 31
0.0
  0
LINE
  5
1D7
100
AcDbEntity
  8
LAYER0001
  6
CONTINUOUS
 62
       7
100
AcDbLine
 10
-117.65638347
 20
-100.40550528
 30
0.0
 11
-117.65638347
 21
-100.40887296
 31
0.0
  0
LINE
  5
1D8
100
AcDbEntity
  8
LAYER0001
  6
CONTINUOUS
 62
       7
100
AcDbLine
 10
-117.65638347
 20
-100.40887296
 30
0.0
 11
-117.65638347
 21
-100.41151243
 31
0.0
  0
LINE
  5
1D9
100
AcDbEntity
  8
LAYER0001
  6
CONTINUOUS
 62
       7
100
AcDbLine
 10
-117.65638347
 20
-100.41151243
 30
0.0
 11
-117.65638347
 21
-100.41360574
 31
0.0
  0
LINE
  5
1DA
100
AcDbEntity
  8
LAYER0001
  6
CONTINUOUS
 62
       7
100
AcDbLine
 10
-117.65638347
 20
-100.41360574
 30
0.0
 11
-117.65638347
 21
-100.41533495
 31
0.0
  0
LINE
  5
1DB
100
AcDbEntity
  8
LAYER0001
  6
CONTINUOUS
 62
       7
100
AcDbLine
 10
-117.65638347
 20
-100.41533495
 30
0.0
 11
-117.65638347
 21
-100.41688211
 31
0.0
  0
ENDBLK
  5
1DC
100
AcDbEntity
  8
0
100
AcDbBlockEnd
  0
BLOCK
  5
1DD
100
AcDbEntity
  8
0
100
AcDbBlockBegin
  2
GROUP_9
 70
       0
 10
0.0
 20
0.0
 30
0.0
  3
GROUP_9
  1

  0
LINE
  5
1DE
100
AcDbEntity
  8
LAYER0001
  6
CONTINUOUS
 62
       7
100
AcDbLine
 10
-103.29100191
 20
-100.41688211
 30
0.0
 11
-103.34671187
 21
-100.41635186
 31
0.0
  0
LINE
  5
1DF
100
AcDbEntity
  8
LAYER0001
  6
CONTINUOUS
 62
       7
100
AcDbLine
 10
-103.34671187
 20
-100.41635186
 30
0.0
 11
-103.40237103
 21
-100.41515642
 31
0.0
  0
LINE
  5
1E0
100
AcDbEntity
  8
LAYER0001
  6
CONTINUOUS
 62
       7
100
AcDbLine
 10
-103.40237103
 20
-100.41515642
 30
0.0
 11
-103.45794569
 21
-100.41285485
 31
0.0
  0
LINE
  5
1E1
100
AcDbEntity
  8
LAYER0001
  6
CONTINUOUS
 62
       7
100
AcDbLine
 10
-103.45794569
 20
-100.41285485
 30
0.0
 11
-103.51343579
 21
-100.40944628
 31
0.0
  0
LINE
  5
1E2
100
AcDbEntity
  8
LAYER0001
  6
CONTINUOUS
 62
       7
100
AcDbLine
 10
-103.51343579
 20
-100.40944628
 30
0.0
 11
-103.56884518
 21
-100.40498103
 31
0.0
  0
LINE
  5
1E3
100
AcDbEntity
  8
LAYER0001
  6
CONTINUOUS
 62
       7
100
AcDbLine
 10
-103.56884518
 20
-100.40498103
 30
0.0
 11
-103.6241777
 21
-100.3995094
 31
0.0
  0
LINE
  5
1E4
100
AcDbEntity
  8
LAYER0001
  6
CONTINUOUS
 62
       7
100
AcDbLine
 10
-103.6241777
 20
-100.3995094
 30
0.0
 11
-103.67943719
 21
-100.39308173
 31
0.0
  0
LINE
  5
1E5
100
AcDbEntity
  8
LAYER0001
  6
CONTINUOUS
 62
       7
100
AcDbLine
 10
-103.67943719
 20
-100.39308173
 30
0.0
 11
-103.73462749
 21
-100.38574832
 31
0.0
  0
LINE
  5
1E6
100
AcDbEntity
  8
LAYER0001
  6
CONTINUOUS
 62
       7
100
AcDbLine
 10
-103.73462749
 20
-100.38574832
 30
0.0
 11
-103.78975246
 21
-100.3775595
 31
0.0
  0
LINE
  5
1E7
100
AcDbEntity
  8
LAYER0001
  6
CONTINUOUS
 62
       7
100
AcDbLine
 10
-103.78975246
 20
-100.3775595
 30
0.0
 11
-103.84481593
 21
-100.36856559
 31
0.0
  0
LINE
  5
1E8
100
AcDbEntity
  8
LAYER0001
  6
CONTINUOUS
 62
       7
100
AcDbLine
 10
-103.84481593
 20
-100.36856559
 30
0.0
 11
-103.89982174
 21
-100.3588169
 31
0.0
  0
LINE
  5
1E9
100
AcDbEntity
  8
LAYER0001
  6
CONTINUOUS
 62
       7
100
AcDbLine
 10
-103.89982174
 20
-100.3588169
 30
0.0
 11
-103.95477374
 21
-100.34836375
 31
0.0
  0
LINE
  5
1EA
100
AcDbEntity
  8
LAYER0001
  6
CONTINUOUS
 62
       7
100
AcDbLine
 10
-103.95477374
 20
-100.34836375
 30
0.0
 11
-104.00967578
 21
-100.33725647
 31
0.0
  0
LINE
  5
1EB
100
AcDbEntity
  8
LAYER0001
  6
CONTINUOUS
 62
       7
100
AcDbLine
 10
-104.00967578
 20
-100.33725647
 30
0.0
 11
-104.06453169
 21
-100.32554536
 31
0.0
  0
LINE
  5
1EC
100
AcDbEntity
  8
LAYER0001
  6
CONTINUOUS
 62
       7
100
AcDbLine
 10
-104.06453169
 20
-100.32554536
 30
0.0
 11
-104.11934533
 21
-100.31328075
 31
0.0
  0
LINE
  5
1ED
100
AcDbEntity
  8
LAYER0001
  6
CONTINUOUS
 62
       7
100
AcDbLine
 10
-104.11934533
 20
-100.31328075
 30
0.0
 11
-104.17412053
 21
-100.30051296
 31
0.0
  0
LINE
  5
1EE
100
AcDbEntity
  8
LAYER0001
  6
CONTINUOUS
 62
       7
100
AcDbLine
 10
-104.17412053
 20
-100.30051296
 30
0.0
 11
-104.22886114
 21
-100.2872923
 31
0.0
  0
LINE
  5
1EF
100
AcDbEntity
  8
LAYER0001
  6
CONTINUOUS
 62
       7
100
AcDbLine
 10
-104.22886114
 20
-100.2872923
 30
0.0
 11
-104.28357099
 21
-100.27366909
 31
0.0
  0
LINE
  5
1F0
100
AcDbEntity
  8
LAYER0001
  6
CONTINUOUS
 62
       7
100
AcDbLine
 10
-104.28357099
 20
-100.27366909
 30
0.0
 11
-104.33825395
 21
-100.25969366
 31
0.0
  0
LINE
  5
1F1
100
AcDbEntity
  8
LAYER0001
  6
CONTINUOUS
 62
       7
100
AcDbLine
 10
-104.33825395
 20
-100.25969366
 30
0.0
 11
-104.39291384
 21
-100.24541631
 31
0.0
  0
LINE
  5
1F2
100
AcDbEntity
  8
LAYER0001
  6
CONTINUOUS
 62
       7
100
AcDbLine
 10
-104.39291384
 20
-100.24541631
 30
0.0
 11
-104.44755451
 21
-100.23088738
 31
0.0
  0
LINE
  5
1F3
100
AcDbEntity
  8
LAYER0001
  6
CONTINUOUS
 62
       7
100
AcDbLine
 10
-104.44755451
 20
-100.23088738
 30
0.0
 11
-104.50217981
 21
-100.21615717
 31
0.0
  0
LINE
  5
1F4
100
AcDbEntity
  8
LAYER0001
  6
CONTINUOUS
 62
       7
100
AcDbLine
 10
-104.50217981
 20
-100.21615717
 30
0.0
 11
-104.55679358
 21
-100.201276
 31
0.0
  0
LINE
  5
1F5
100
AcDbEntity
  8
LAYER0001
  6
CONTINUOUS
 62
       7
100
AcDbLine
 10
-104.55679358
 20
-100.201276
 30
0.0
 11
-104.61139966
 21
-100.1862942
 31
0.0
  0
LINE
  5
1F6
100
AcDbEntity
  8
LAYER0001
  6
CONTINUOUS
 62
       7
100
AcDbLine
 10
-104.61139966
 20
-100.1862942
 30
0.0
 11
-104.6660019
 21
-100.17126208
 31
0.0
  0
ENDBLK
  5
1F7
100
AcDbEntity
  8
0
100
AcDbBlockEnd
  0
BLOCK
  5
1F8
100
AcDbEntity
  8
0
100
AcDbBlockBegin
  2
GROUP_10
 70
       0
 10
0.0
 20
0.0
 30
0.0
  3
GROUP_10
  1

  0
LINE
  5
1F9
100
AcDbEntity
  8
LAYER0001
  6
CONTINUOUS
 62
       7
100
AcDbLine
 10
-100.54100192
 20
-100.41688211
 30
0.0
 11
-100.59671212
 21
-100.41635185
 31
0.0
  0
LINE
  5
1FA
100
AcDbEntity
  8
LAYER0001
  6
CONTINUOUS
 62
       7
100
AcDbLine
 10
-100.59671212
 20
-100.41635185
 30
0.0
 11
-100.6523715
 21
-100.41515641
 31
0.0
  0
LINE
  5
1FB
100
AcDbEntity
  8
LAYER0001
  6
CONTINUOUS
 62
       7
100
AcDbLine
 10
-100.6523715
 20
-100.41515641
 30
0.0
 11
-100.70794635
 21
-100.41285483
 31
0.0
  0
LINE
  5
1FC
100
AcDbEntity
  8
LAYER0001
  6
CONTINUOUS
 62
       7
100
AcDbLine
 10
-100.70794635
 20
-100.41285483
 30
0.0
 11
-100.76343662
 21
-100.40944626
 31
0.0
  0
LINE
  5
1FD
100
AcDbEntity
  8
LAYER0001
  6
CONTINUOUS
 62
       7
100
AcDbLine
 10
-100.76343662
 20
-100.40944626
 30
0.0
 11
-100.81884614
 21
-100.40498099
 31
0.0
  0
LINE
  5
1FE
100
AcDbEntity
  8
LAYER0001
  6
CONTINUOUS
 62
       7
100
AcDbLine
 10
-100.81884614
 20
-100.40498099
 30
0.0
 11
-100.87417877
 21
-100.39950937
 31
0.0
  0
LINE
  5
1FF
100
AcDbEntity
  8
LAYER0001
  6
CONTINUOUS
 62
       7
100
AcDbLine
 10
-100.87417877
 20
-100.39950937
 30
0.0
 11
-100.92943834
 21
-100.39308169
 31
0.0
  0
LINE
  5
200
100
AcDbEntity
  8
LAYER0001
  6
CONTINUOUS
 62
       7
100
AcDbLine
 10
-100.92943834
 20
-100.39308169
 30
0.0
 11
-100.98462871
 21
-100.38574828
 31
0.0
  0
LINE
  5
201
100
AcDbEntity
  8
LAYER0001
  6
CONTINUOUS
 62
       7
100
AcDbLine
 10
-100.98462871
 20
-100.38574828
 30
0.0
 11
-101.03975372
 21
-100.37755946
 31
0.0
  0
LINE
  5
202
100
AcDbEntity
  8
LAYER0001
  6
CONTINUOUS
 62
       7
100
AcDbLine
 10
-101.03975372
 20
-100.37755946
 30
0.0
 11
-101.0948172
 21
-100.36856554
 31
0.0
  0
LINE
  5
203
100
AcDbEntity
  8
LAYER0001
  6
CONTINUOUS
 62
       7
100
AcDbLine
 10
-101.0948172
 20
-100.36856554
 30
0.0
 11
-101.14982302
 21
-100.35881686
 31
0.0
  0
LINE
  5
204
100
AcDbEntity
  8
LAYER0001
  6
CONTINUOUS
 62
       7
100
AcDbLine
 10
-101.14982302
 20
-100.35881686
 30
0.0
 11
-101.20477501
 21
-100.34836371
 31
0.0
  0
LINE
  5
205
100
AcDbEntity
  8
LAYER0001
  6
CONTINUOUS
 62
       7
100
AcDbLine
 10
-101.20477501
 20
-100.34836371
 30
0.0
 11
-101.25967701
 21
-100.33725642
 31
0.0
  0
LINE
  5
206
100
AcDbEntity
  8
LAYER0001
  6
CONTINUOUS
 62
       7
100
AcDbLine
 10
-101.25967701
 20
-100.33725642
 30
0.0
 11
-101.31453288
 21
-100.32554532
 31
0.0
  0
LINE
  5
207
100
AcDbEntity
  8
LAYER0001
  6
CONTINUOUS
 62
       7
100
AcDbLine
 10
-101.31453288
 20
-100.32554532
 30
0.0
 11
-101.36934645
 21
-100.31328071
 31
0.0
  0
LINE
  5
208
100
AcDbEntity
  8
LAYER0001
  6
CONTINUOUS
 62
       7
100
AcDbLine
 10
-101.36934645
 20
-100.31328071
 30
0.0
 11
-101.42412158
 21
-100.30051292
 31
0.0
  0
LINE
  5
209
100
AcDbEntity
  8
LAYER0001
  6
CONTINUOUS
 62
       7
100
AcDbLine
 10
-101.42412158
 20
-100.30051292
 30
0.0
 11
-101.4788621
 21
-100.28729227
 31
0.0
  0
LINE
  5
20A
100
AcDbEntity
  8
LAYER0001
  6
CONTINUOUS
 62
       7
100
AcDbLine
 10
-101.4788621
 20
-100.28729227
 30
0.0
 11
-101.53357186
 21
-100.27366906
 31
0.0
  0
LINE
  5
20B
100
AcDbEntity
  8
LAYER0001
  6
CONTINUOUS
 62
       7
100
AcDbLine
 10
-101.53357186
 20
-100.27366906
 30
0.0
 11
-101.58825471
 21
-100.25969363
 31
0.0
  0
LINE
  5
20C
100
AcDbEntity
  8
LAYER0001
  6
CONTINUOUS
 62
       7
100
AcDbLine
 10
-101.58825471
 20
-100.25969363
 30
0.0
 11
-101.64291449
 21
-100.24541629
 31
0.0
  0
LINE
  5
20D
100
AcDbEntity
  8
LAYER0001
  6
CONTINUOUS
 62
       7
100
AcDbLine
 10
-101.64291449
 20
-100.24541629
 30
0.0
 11
-101.69755504
 21
-100.23088736
 31
0.0
  0
LINE
  5
20E
100
AcDbEntity
  8
LAYER0001
  6
CONTINUOUS
 62
       7
100
AcDbLine
 10
-101.69755504
 20
-100.23088736
 30
0.0
 11
-101.75218022
 21
-100.21615715
 31
0.0
  0
LINE
  5
20F
100
AcDbEntity
  8
LAYER0001
  6
CONTINUOUS
 62
       7
100
AcDbLine
 10
-101.75218022
 20
-100.21615715
 30
0.0
 11
-101.80679386
 21
-100.20127599
 31
0.0
  0
LINE
  5
210
100
AcDbEntity
  8
LAYER0001
  6
CONTINUOUS
 62
       7
100
AcDbLine
 10
-101.80679386
 20
-100.20127599
 30
0.0
 11
-101.86139981
 21
-100.18629419
 31
0.0
  0
LINE
  5
211
100
AcDbEntity
  8
LAYER0001
  6
CONTINUOUS
 62
       7
100
AcDbLine
 10
-101.86139981
 20
-100.18629419
 30
0.0
 11
-101.91600192
 21
-100.17126208
 31
0.0
  0
ENDBLK
  5
212
100
AcDbEntity
  8
0
100
AcDbBlockEnd
  0
BLOCK
  5
213
100
AcDbEntity
  8
0
100
AcDbBlockBegin
  2
GROUP_11
 70
       0
 10
0.0
 20
0.0
 30
0.0
  3
GROUP_11
  1

  0
LINE
  5
214
100
AcDbEntity
  8
LAYER0001
  6
CONTINUOUS
 62
       7
100
AcDbLine
 10
-99.16600193
 20
-100.41688211
 30
0.0
 11
-99.16600193
 21
-100.41533495
 31
0.0
  0
LINE
  5
215
100
AcDbEntity
  8
LAYER0001
  6
CONTINUOUS
 62
       7
100
AcDbLine
 10
-99.16600193
 20
-100.41533495
 30
0.0
 11
-99.16600193
 21
-100.41360573
 31
0.0
  0
LINE
  5
216
100
AcDbEntity
  8
LAYER0001
  6
CONTINUOUS
 62
       7
100
AcDbLine
 10
-99.16600193
 20
-100.41360573
 30
0.0
 11
-99.16600193
 21
-100.41151242
 31
0.0
  0
LINE
  5
217
100
AcDbEntity
  8
LAYER0001
  6
CONTINUOUS
 62
       7
100
AcDbLine
 10
-99.16600193
 20
-100.41151242
 30
0.0
 11
-99.16600193
 21
-100.40887294
 31
0.0
  0
LINE
  5
218
100
AcDbEntity
  8
LAYER0001
  6
CONTINUOUS
 62
       7
100
AcDbLine
 10
-99.16600193
 20
-100.40887294
 30
0.0
 11
-99.16600193
 21
-100.40550526
 31
0.0
  0
LINE
  5
219
100
AcDbEntity
  8
LAYER0001
  6
CONTINUOUS
 62
       7
100
AcDbLine
 10
-99.16600193
 20
-100.40550526
 30
0.0
 11
-99.16600193
 21
-100.40122732
 31
0.0
  0
LINE
  5
21A
100
AcDbEntity
  8
LAYER0001
  6
CONTINUOUS
 62
       7
100
AcDbLine
 10
-99.16600193
 20
-100.40122732
 30
0.0
 11
-99.16600193
 21
-100.39587347
 31
0.0
  0
LINE
  5
21B
100
AcDbEntity
  8
LAYER0001
  6
CONTINUOUS
 62
       7
100
AcDbLine
 10
-99.16600193
 20
-100.39587347
 30
0.0
 11
-99.16600193
 21
-100.38942569
 31
0.0
  0
LINE
  5
21C
100
AcDbEntity
  8
LAYER0001
  6
CONTINUOUS
 62
       7
100
AcDbLine
 10
-99.16600193
 20
-100.38942569
 30
0.0
 11
-99.16600193
 21
-100.38194409
 31
0.0
  0
LINE
  5
21D
100
AcDbEntity
  8
LAYER0001
  6
CONTINUOUS
 62
       7
100
AcDbLine
 10
-99.16600193
 20
-100.38194409
 30
0.0
 11
-99.16600193
 21
-100.37348948
 31
0.0
  0
LINE
  5
21E
100
AcDbEntity
  8
LAYER0001
  6
CONTINUOUS
 62
       7
100
AcDbLine
 10
-99.16600193
 20
-100.37348948
 30
0.0
 11
-99.16600193
 21
-100.36412268
 31
0.0
  0
LINE
  5
21F
100
AcDbEntity
  8
LAYER0001
  6
CONTINUOUS
 62
       7
100
AcDbLine
 10
-99.16600193
 20
-100.36412268
 30
0.0
 11
-99.16600193
 21
-100.35390449
 31
0.0
  0
LINE
  5
220
100
AcDbEntity
  8
LAYER0001
  6
CONTINUOUS
 62
       7
100
AcDbLine
 10
-99.16600193
 20
-100.35390449
 30
0.0
 11
-99.16600193
 21
-100.34289573
 31
0.0
  0
LINE
  5
221
100
AcDbEntity
  8
LAYER0001
  6
CONTINUOUS
 62
       7
100
AcDbLine
 10
-99.16600193
 20
-100.34289573
 30
0.0
 11
-99.16600193
 21
-100.33115721
 31
0.0
  0
LINE
  5
222
100
AcDbEntity
  8
LAYER0001
  6
CONTINUOUS
 62
       7
100
AcDbLine
 10
-99.16600193
 20
-100.33115721
 30
0.0
 11
-99.16600193
 21
-100.31874975
 31
0.0
  0
LINE
  5
223
100
AcDbEntity
  8
LAYER0001
  6
CONTINUOUS
 62
       7
100
AcDbLine
 10
-99.16600193
 20
-100.31874975
 30
0.0
 11
-99.16600193
 21
-100.30573415
 31
0.0
  0
LINE
  5
224
100
AcDbEntity
  8
LAYER0001
  6
CONTINUOUS
 62
       7
100
AcDbLine
 10
-99.16600193
 20
-100.30573415
 30
0.0
 11
-99.16600193
 21
-100.29217124
 31
0.0
  0
LINE
  5
225
100
AcDbEntity
  8
LAYER0001
  6
CONTINUOUS
 62
       7
100
AcDbLine
 10
-99.16600193
 20
-100.29217124
 30
0.0
 11
-99.16600193
 21
-100.27812183
 31
0.0
  0
LINE
  5
226
100
AcDbEntity
  8
LAYER0001
  6
CONTINUOUS
 62
       7
100
AcDbLine
 10
-99.16600193
 20
-100.27812183
 30
0.0
 11
-99.16600193
 21
-100.26364672
 31
0.0
  0
LINE
  5
227
100
AcDbEntity
  8
LAYER0001
  6
CONTINUOUS
 62
       7
100
AcDbLine
 10
-99.16600193
 20
-100.26364672
 30
0.0
 11
-99.16600193
 21
-100.24880673
 31
0.0
  0
LINE
  5
228
100
AcDbEntity
  8
LAYER0001
  6
CONTINUOUS
 62
       7
100
AcDbLine
 10
-99.16600193
 20
-100.24880673
 30
0.0
 11
-99.16600193
 21
-100.23366268
 31
0.0
  0
LINE
  5
229
100
AcDbEntity
  8
LAYER0001
  6
CONTINUOUS
 62
       7
100
AcDbLine
 10
-99.16600193
 20
-100.23366268
 30
0.0
 11
-99.16600193
 21
-100.21827537
 31
0.0
  0
LINE
  5
22A
100
AcDbEntity
  8
LAYER0001
  6
CONTINUOUS
 62
       7
100
AcDbLine
 10
-99.16600193
 20
-100.21827537
 30
0.0
 11
-99.16600193
 21
-100.20270563
 31
0.0
  0
LINE
  5
22B
100
AcDbEntity
  8
LAYER0001
  6
CONTINUOUS
 62
       7
100
AcDbLine
 10
-99.16600193
 20
-100.20270563
 30
0.0
 11
-99.16600193
 21
-100.18701426
 31
0.0
  0
LINE
  5
22C
100
AcDbEntity
  8
LAYER0001
  6
CONTINUOUS
 62
       7
100
AcDbLine
 10
-99.16600193
 20
-100.18701426
 30
0.0
 11
-99.16600193
 21
-100.17126208
 31
0.0
  0
ENDBLK
  5
22D
100
AcDbEntity
  8
0
100
AcDbBlockEnd
  0
BLOCK
  5
22E
100
AcDbEntity
  8
0
100
AcDbBlockBegin
  2
GROUP_12
 70
       0
 10
0.0
 20
0.0
 30
0.0
  3
GROUP_12
  1

  0
LINE
  5
22F
100
AcDbEntity
  8
LAYER0001
  6
CONTINUOUS
 62
       7
100
AcDbLine
 10
-104.6660019
 20
-100.17126208
 30
0.0
 11
-104.6660019
 21
-100.18701426
 31
0.0
  0
LINE
  5
230
100
AcDbEntity
  8
LAYER0001
  6
CONTINUOUS
 62
       7
100
AcDbLine
 10
-104.6660019
 20
-100.18701426
 30
0.0
 11
-104.6660019
 21
-100.20270563
 31
0.0
  0
LINE
  5
231
100
AcDbEntity
  8
LAYER0001
  6
CONTINUOUS
 62
       7
100
AcDbLine
 10
-104.6660019
 20
-100.20270563
 30
0.0
 11
-104.6660019
 21
-100.21827537
 31
0.0
  0
LINE
  5
232
100
AcDbEntity
  8
LAYER0001
  6
CONTINUOUS
 62
       7
100
AcDbLine
 10
-104.6660019
 20
-100.21827537
 30
0.0
 11
-104.6660019
 21
-100.23366268
 31
0.0
  0
LINE
  5
233
100
AcDbEntity
  8
LAYER0001
  6
CONTINUOUS
 62
       7
100
AcDbLine
 10
-104.6660019
 20
-100.23366268
 30
0.0
 11
-104.6660019
 21
-100.24880673
 31
0.0
  0
LINE
  5
234
100
AcDbEntity
  8
LAYER0001
  6
CONTINUOUS
 62
       7
100
AcDbLine
 10
-104.6660019
 20
-100.24880673
 30
0.0
 11
-104.6660019
 21
-100.26364672
 31
0.0
  0
LINE
  5
235
100
AcDbEntity
  8
LAYER0001
  6
CONTINUOUS
 62
       7
100
AcDbLine
 10
-104.6660019
 20
-100.26364672
 30
0.0
 11
-104.6660019
 21
-100.27812183
 31
0.0
  0
LINE
  5
236
100
AcDbEntity
  8
LAYER0001
  6
CONTINUOUS
 62
       7
100
AcDbLine
 10
-104.6660019
 20
-100.27812183
 30
0.0
 11
-104.6660019
 21
-100.29217124
 31
0.0
  0
LINE
  5
237
100
AcDbEntity
  8
LAYER0001
  6
CONTINUOUS
 62
       7
100
AcDbLine
 10
-104.6660019
 20
-100.29217124
 30
0.0
 11
-104.6660019
 21
-100.30573415
 31
0.0
  0
LINE
  5
238
100
AcDbEntity
  8
LAYER0001
  6
CONTINUOUS
 62
       7
100
AcDbLine
 10
-104.6660019
 20
-100.30573415
 30
0.0
 11
-104.6660019
 21
-100.31874975
 31
0.0
  0
LINE
  5
239
100
AcDbEntity
  8
LAYER0001
  6
CONTINUOUS
 62
       7
100
AcDbLine
 10
-104.6660019
 20
-100.31874975
 30
0.0
 11
-104.6660019
 21
-100.33115721
 31
0.0
  0
LINE
  5
23A
100
AcDbEntity
  8
LAYER0001
  6
CONTINUOUS
 62
       7
100
AcDbLine
 10
-104.6660019
 20
-100.33115721
 30
0.0
 11
-104.6660019
 21
-100.34289573
 31
0.0
  0
LINE
  5
23B
100
AcDbEntity
  8
LAYER0001
  6
CONTINUOUS
 62
       7
100
AcDbLine
 10
-104.6660019
 20
-100.34289573
 30
0.0
 11
-104.6660019
 21
-100.35390449
 31
0.0
  0
LINE
  5
23C
100
AcDbEntity
  8
LAYER0001
  6
CONTINUOUS
 62
       7
100
AcDbLine
 10
-104.6660019
 20
-100.35390449
 30
0.0
 11
-104.6660019
 21
-100.36412268
 31
0.0
  0
LINE
  5
23D
100
AcDbEntity
  8
LAYER0001
  6
CONTINUOUS
 62
       7
100
AcDbLine
 10
-104.6660019
 20
-100.36412268
 30
0.0
 11
-104.6660019
 21
-100.37348948
 31
0.0
  0
LINE
  5
23E
100
AcDbEntity
  8
LAYER0001
  6
CONTINUOUS
 62
       7
100
AcDbLine
 10
-104.6660019
 20
-100.37348948
 30
0.0
 11
-104.6660019
 21
-100.38194409
 31
0.0
  0
LINE
  5
23F
100
AcDbEntity
  8
LAYER0001
  6
CONTINUOUS
 62
       7
100
AcDbLine
 10
-104.6660019
 20
-100.38194409
 30
0.0
 11
-104.6660019
 21
-100.38942569
 31
0.0
  0
LINE
  5
240
100
AcDbEntity
  8
LAYER0001
  6
CONTINUOUS
 62
       7
100
AcDbLine
 10
-104.6660019
 20
-100.38942569
 30
0.0
 11
-104.6660019
 21
-100.39587347
 31
0.0
  0
LINE
  5
241
100
AcDbEntity
  8
LAYER0001
  6
CONTINUOUS
 62
       7
100
AcDbLine
 10
-104.6660019
 20
-100.39587347
 30
0.0
 11
-104.6660019
 21
-100.40122732
 31
0.0
  0
LINE
  5
242
100
AcDbEntity
  8
LAYER0001
  6
CONTINUOUS
 62
       7
100
AcDbLine
 10
-104.6660019
 20
-100.40122732
 30
0.0
 11
-104.6660019
 21
-100.40550526
 31
0.0
  0
LINE
  5
243
100
AcDbEntity
  8
LAYER0001
  6
CONTINUOUS
 62
       7
100
AcDbLine
 10
-104.6660019
 20
-100.40550526
 30
0.0
 11
-104.6660019
 21
-100.40887294
 31
0.0
  0
LINE
  5
244
100
AcDbEntity
  8
LAYER0001
  6
CONTINUOUS
 62
       7
100
AcDbLine
 10
-104.6660019
 20
-100.40887294
 30
0.0
 11
-104.6660019
 21
-100.41151242
 31
0.0
  0
LINE
  5
245
100
AcDbEntity
  8
LAYER0001
  6
CONTINUOUS
 62
       7
100
AcDbLine
 10
-104.6660019
 20
-100.41151242
 30
0.0
 11
-104.6660019
 21
-100.41360573
 31
0.0
  0
LINE
  5
246
100
AcDbEntity
  8
LAYER0001
  6
CONTINUOUS
 62
       7
100
AcDbLine
 10
-104.6660019
 20
-100.41360573
 30
0.0
 11
-104.6660019
 21
-100.41533495
 31
0.0
  0
LINE
  5
247
100
AcDbEntity
  8
LAYER0001
  6
CONTINUOUS
 62
       7
100
AcDbLine
 10
-104.6660019
 20
-100.41533495
 30
0.0
 11
-104.6660019
 21
-100.41688211
 31
0.0
  0
ENDBLK
  5
248
100
AcDbEntity
  8
0
100
AcDbBlockEnd
  0
BLOCK
  5
249
100
AcDbEntity
  8
0
100
AcDbBlockBegin
  2
GROUP_13
 70
       0
 10
0.0
 20
0.0
 30
0.0
  3
GROUP_13
  1

  0
LINE
  5
24A
100
AcDbEntity
  8
LAYER0001
  6
CONTINUOUS
 62
       7
100
AcDbLine
 10
-87.55062129
 20
-100.41688211
 30
0.0
 11
-87.6063312
 21
-100.41635185
 31
0.0
  0
LINE
  5
24B
100
AcDbEntity
  8
LAYER0001
  6
CONTINUOUS
 62
       7
100
AcDbLine
 10
-87.6063312
 20
-100.41635185
 30
0.0
 11
-87.66199031
 21
-100.41515641
 31
0.0
  0
LINE
  5
24C
100
AcDbEntity
  8
LAYER0001
  6
CONTINUOUS
 62
       7
100
AcDbLine
 10
-87.66199031
 20
-100.41515641
 30
0.0
 11
-87.71756493
 21
-100.41285484
 31
0.0
  0
LINE
  5
24D
100
AcDbEntity
  8
LAYER0001
  6
CONTINUOUS
 62
       7
100
AcDbLine
 10
-87.71756493
 20
-100.41285484
 30
0.0
 11
-87.773055
 21
-100.40944627
 31
0.0
  0
LINE
  5
24E
100
AcDbEntity
  8
LAYER0001
  6
CONTINUOUS
 62
       7
100
AcDbLine
 10
-87.773055
 20
-100.40944627
 30
0.0
 11
-87.82846435
 21
-100.40498101
 31
0.0
  0
LINE
  5
24F
100
AcDbEntity
  8
LAYER0001
  6
CONTINUOUS
 62
       7
100
AcDbLine
 10
-87.82846435
 20
-100.40498101
 30
0.0
 11
-87.88379685
 21
-100.39950938
 31
0.0
  0
LINE
  5
250
100
AcDbEntity
  8
LAYER0001
  6
CONTINUOUS
 62
       7
100
AcDbLine
 10
-87.88379685
 20
-100.39950938
 30
0.0
 11
-87.93905632
 21
-100.3930817
 31
0.0
  0
LINE
  5
251
100
AcDbEntity
  8
LAYER0001
  6
CONTINUOUS
 62
       7
100
AcDbLine
 10
-87.93905632
 20
-100.3930817
 30
0.0
 11
-87.99424661
 21
-100.38574829
 31
0.0
  0
LINE
  5
252
100
AcDbEntity
  8
LAYER0001
  6
CONTINUOUS
 62
       7
100
AcDbLine
 10
-87.99424661
 20
-100.38574829
 30
0.0
 11
-88.04937156
 21
-100.37755947
 31
0.0
  0
LINE
  5
253
100
AcDbEntity
  8
LAYER0001
  6
CONTINUOUS
 62
       7
100
AcDbLine
 10
-88.04937156
 20
-100.37755947
 30
0.0
 11
-88.10443503
 21
-100.36856556
 31
0.0
  0
LINE
  5
254
100
AcDbEntity
  8
LAYER0001
  6
CONTINUOUS
 62
       7
100
AcDbLine
 10
-88.10443503
 20
-100.36856556
 30
0.0
 11
-88.15944084
 21
-100.35881687
 31
0.0
  0
LINE
  5
255
100
AcDbEntity
  8
LAYER0001
  6
CONTINUOUS
 62
       7
100
AcDbLine
 10
-88.15944084
 20
-100.35881687
 30
0.0
 11
-88.21439285
 21
-100.34836372
 31
0.0
  0
LINE
  5
256
100
AcDbEntity
  8
LAYER0001
  6
CONTINUOUS
 62
       7
100
AcDbLine
 10
-88.21439285
 20
-100.34836372
 30
0.0
 11
-88.26929489
 21
-100.33725644
 31
0.0
  0
LINE
  5
257
100
AcDbEntity
  8
LAYER0001
  6
CONTINUOUS
 62
       7
100
AcDbLine
 10
-88.26929489
 20
-100.33725644
 30
0.0
 11
-88.32415082
 21
-100.32554533
 31
0.0
  0
LINE
  5
258
100
AcDbEntity
  8
LAYER0001
  6
CONTINUOUS
 62
       7
100
AcDbLine
 10
-88.32415082
 20
-100.32554533
 30
0.0
 11
-88.37896446
 21
-100.31328073
 31
0.0
  0
LINE
  5
259
100
AcDbEntity
  8
LAYER0001
  6
CONTINUOUS
 62
       7
100
AcDbLine
 10
-88.37896446
 20
-100.31328073
 30
0.0
 11
-88.43373968
 21
-100.30051293
 31
0.0
  0
LINE
  5
25A
100
AcDbEntity
  8
LAYER0001
  6
CONTINUOUS
 62
       7
100
AcDbLine
 10
-88.43373968
 20
-100.30051293
 30
0.0
 11
-88.48848031
 21
-100.28729228
 31
0.0
  0
LINE
  5
25B
100
AcDbEntity
  8
LAYER0001
  6
CONTINUOUS
 62
       7
100
AcDbLine
 10
-88.48848031
 20
-100.28729228
 30
0.0
 11
-88.54319018
 21
-100.27366907
 31
0.0
  0
LINE
  5
25C
100
AcDbEntity
  8
LAYER0001
  6
CONTINUOUS
 62
       7
100
AcDbLine
 10
-88.54319018
 20
-100.27366907
 30
0.0
 11
-88.59787316
 21
-100.25969364
 31
0.0
  0
LINE
  5
25D
100
AcDbEntity
  8
LAYER0001
  6
CONTINUOUS
 62
       7
100
AcDbLine
 10
-88.59787316
 20
-100.25969364
 30
0.0
 11
-88.65253308
 21
-100.2454163
 31
0.0
  0
LINE
  5
25E
100
AcDbEntity
  8
LAYER0001
  6
CONTINUOUS
 62
       7
100
AcDbLine
 10
-88.65253308
 20
-100.2454163
 30
0.0
 11
-88.70717378
 21
-100.23088736
 31
0.0
  0
LINE
  5
25F
100
AcDbEntity
  8
LAYER0001
  6
CONTINUOUS
 62
       7
100
AcDbLine
 10
-88.70717378
 20
-100.23088736
 30
0.0
 11
-88.7617991
 21
-100.21615716
 31
0.0
  0
LINE
  5
260
100
AcDbEntity
  8
LAYER0001
  6
CONTINUOUS
 62
       7
100
AcDbLine
 10
-88.7617991
 20
-100.21615716
 30
0.0
 11
-88.8164129
 21
-100.20127599
 31
0.0
  0
LINE
  5
261
100
AcDbEntity
  8
LAYER0001
  6
CONTINUOUS
 62
       7
100
AcDbLine
 10
-88.8164129
 20
-100.20127599
 30
0.0
 11
-88.87101901
 21
-100.18629419
 31
0.0
  0
LINE
  5
262
100
AcDbEntity
  8
LAYER0001
  6
CONTINUOUS
 62
       7
100
AcDbLine
 10
-88.87101901
 20
-100.18629419
 30
0.0
 11
-88.92562128
 21
-100.17126208
 31
0.0
  0
ENDBLK
  5
263
100
AcDbEntity
  8
0
100
AcDbBlockEnd
  0
BLOCK
  5
264
100
AcDbEntity
  8
0
100
AcDbBlockBegin
  2
GROUP_14
 70
       0
 10
0.0
 20
0.0
 30
0.0
  3
GROUP_14
  1

  0
LINE
  5
265
100
AcDbEntity
  8
LAYER0001
  6
CONTINUOUS
 62
       7
100
AcDbLine
 10
-90.30062127
 20
-100.41688211
 30
0.0
 11
-90.35633118
 21
-100.41635185
 31
0.0
  0
LINE
  5
266
100
AcDbEntity
  8
LAYER0001
  6
CONTINUOUS
 62
       7
100
AcDbLine
 10
-90.35633118
 20
-100.41635185
 30
0.0
 11
-90.41199029
 21
-100.41515641
 31
0.0
  0
LINE
  5
267
100
AcDbEntity
  8
LAYER0001
  6
CONTINUOUS
 62
       7
100
AcDbLine
 10
-90.41199029
 20
-100.41515641
 30
0.0
 11
-90.46756491
 21
-100.41285484
 31
0.0
  0
LINE
  5
268
100
AcDbEntity
  8
LAYER0001
  6
CONTINUOUS
 62
       7
100
AcDbLine
 10
-90.46756491
 20
-100.41285484
 30
0.0
 11
-90.52305498
 21
-100.40944627
 31
0.0
  0
LINE
  5
269
100
AcDbEntity
  8
LAYER0001
  6
CONTINUOUS
 62
       7
100
AcDbLine
 10
-90.52305498
 20
-100.40944627
 30
0.0
 11
-90.57846434
 21
-100.40498101
 31
0.0
  0
LINE
  5
26A
100
AcDbEntity
  8
LAYER0001
  6
CONTINUOUS
 62
       7
100
AcDbLine
 10
-90.57846434
 20
-100.40498101
 30
0.0
 11
-90.63379683
 21
-100.39950938
 31
0.0
  0
LINE
  5
26B
100
AcDbEntity
  8
LAYER0001
  6
CONTINUOUS
 62
       7
100
AcDbLine
 10
-90.63379683
 20
-100.39950938
 30
0.0
 11
-90.6890563
 21
-100.3930817
 31
0.0
  0
LINE
  5
26C
100
AcDbEntity
  8
LAYER0001
  6
CONTINUOUS
 62
       7
100
AcDbLine
 10
-90.6890563
 20
-100.3930817
 30
0.0
 11
-90.74424659
 21
-100.38574829
 31
0.0
  0
LINE
  5
26D
100
AcDbEntity
  8
LAYER0001
  6
CONTINUOUS
 62
       7
100
AcDbLine
 10
-90.74424659
 20
-100.38574829
 30
0.0
 11
-90.79937155
 21
-100.37755947
 31
0.0
  0
LINE
  5
26E
100
AcDbEntity
  8
LAYER0001
  6
CONTINUOUS
 62
       7
100
AcDbLine
 10
-90.79937155
 20
-100.37755947
 30
0.0
 11
-90.85443501
 21
-100.36856556
 31
0.0
  0
LINE
  5
26F
100
AcDbEntity
  8
LAYER0001
  6
CONTINUOUS
 62
       7
100
AcDbLine
 10
-90.85443501
 20
-100.36856556
 30
0.0
 11
-90.90944083
 21
-100.35881687
 31
0.0
  0
LINE
  5
270
100
AcDbEntity
  8
LAYER0001
  6
CONTINUOUS
 62
       7
100
AcDbLine
 10
-90.90944083
 20
-100.35881687
 30
0.0
 11
-90.96439283
 21
-100.34836372
 31
0.0
  0
LINE
  5
271
100
AcDbEntity
  8
LAYER0001
  6
CONTINUOUS
 62
       7
100
AcDbLine
 10
-90.96439283
 20
-100.34836372
 30
0.0
 11
-91.01929488
 21
-100.33725644
 31
0.0
  0
LINE
  5
272
100
AcDbEntity
  8
LAYER0001
  6
CONTINUOUS
 62
       7
100
AcDbLine
 10
-91.01929488
 20
-100.33725644
 30
0.0
 11
-91.0741508
 21
-100.32554533
 31
0.0
  0
LINE
  5
273
100
AcDbEntity
  8
LAYER0001
  6
CONTINUOUS
 62
       7
100
AcDbLine
 10
-91.0741508
 20
-100.32554533
 30
0.0
 11
-91.12896445
 21
-100.31328073
 31
0.0
  0
LINE
  5
274
100
AcDbEntity
  8
LAYER0001
  6
CONTINUOUS
 62
       7
100
AcDbLine
 10
-91.12896445
 20
-100.31328073
 30
0.0
 11
-91.18373966
 21
-100.30051293
 31
0.0
  0
LINE
  5
275
100
AcDbEntity
  8
LAYER0001
  6
CONTINUOUS
 62
       7
100
AcDbLine
 10
-91.18373966
 20
-100.30051293
 30
0.0
 11
-91.23848029
 21
-100.28729228
 31
0.0
  0
LINE
  5
276
100
AcDbEntity
  8
LAYER0001
  6
CONTINUOUS
 62
       7
100
AcDbLine
 10
-91.23848029
 20
-100.28729228
 30
0.0
 11
-91.29319017
 21
-100.27366907
 31
0.0
  0
LINE
  5
277
100
AcDbEntity
  8
LAYER0001
  6
CONTINUOUS
 62
       7
100
AcDbLine
 10
-91.29319017
 20
-100.27366907
 30
0.0
 11
-91.34787315
 21
-100.25969364
 31
0.0
  0
LINE
  5
278
100
AcDbEntity
  8
LAYER0001
  6
CONTINUOUS
 62
       7
100
AcDbLine
 10
-91.34787315
 20
-100.25969364
 30
0.0
 11
-91.40253306
 21
-100.2454163
 31
0.0
  0
LINE
  5
279
100
AcDbEntity
  8
LAYER0001
  6
CONTINUOUS
 62
       7
100
AcDbLine
 10
-91.40253306
 20
-100.2454163
 30
0.0
 11
-91.45717376
 21
-100.23088736
 31
0.0
  0
LINE
  5
27A
100
AcDbEntity
  8
LAYER0001
  6
CONTINUOUS
 62
       7
100
AcDbLine
 10
-91.45717376
 20
-100.23088736
 30
0.0
 11
-91.51179909
 21
-100.21615716
 31
0.0
  0
LINE
  5
27B
100
AcDbEntity
  8
LAYER0001
  6
CONTINUOUS
 62
       7
100
AcDbLine
 10
-91.51179909
 20
-100.21615716
 30
0.0
 11
-91.56641289
 21
-100.20127599
 31
0.0
  0
LINE
  5
27C
100
AcDbEntity
  8
LAYER0001
  6
CONTINUOUS
 62
       7
100
AcDbLine
 10
-91.56641289
 20
-100.20127599
 30
0.0
 11
-91.621019
 21
-100.18629419
 31
0.0
  0
LINE
  5
27D
100
AcDbEntity
  8
LAYER0001
  6
CONTINUOUS
 62
       7
100
AcDbLine
 10
-91.621019
 20
-100.18629419
 30
0.0
 11
-91.67562126
 21
-100.17126208
 31
0.0
  0
ENDBLK
  5
27E
100
AcDbEntity
  8
0
100
AcDbBlockEnd
  0
BLOCK
  5
27F
100
AcDbEntity
  8
0
100
AcDbBlockBegin
  2
GROUP_15
 70
       0
 10
0.0
 20
0.0
 30
0.0
  3
GROUP_15
  1

  0
LINE
  5
280
100
AcDbEntity
  8
LAYER0001
  6
CONTINUOUS
 62
       7
100
AcDbLine
 10
-86.17562036
 20
-100.41688211
 30
0.0
 11
-86.17562036
 21
-100.41533495
 31
0.0
  0
LINE
  5
281
100
AcDbEntity
  8
LAYER0001
  6
CONTINUOUS
 62
       7
100
AcDbLine
 10
-86.17562036
 20
-100.41533495
 30
0.0
 11
-86.17562036
 21
-100.41360574
 31
0.0
  0
LINE
  5
282
100
AcDbEntity
  8
LAYER0001
  6
CONTINUOUS
 62
       7
100
AcDbLine
 10
-86.17562036
 20
-100.41360574
 30
0.0
 11
-86.17562036
 21
-100.41151243
 31
0.0
  0
LINE
  5
283
100
AcDbEntity
  8
LAYER0001
  6
CONTINUOUS
 62
       7
100
AcDbLine
 10
-86.17562036
 20
-100.41151243
 30
0.0
 11
-86.17562036
 21
-100.40887296
 31
0.0
  0
LINE
  5
284
100
AcDbEntity
  8
LAYER0001
  6
CONTINUOUS
 62
       7
100
AcDbLine
 10
-86.17562036
 20
-100.40887296
 30
0.0
 11
-86.17562036
 21
-100.40550528
 31
0.0
  0
LINE
  5
285
100
AcDbEntity
  8
LAYER0001
  6
CONTINUOUS
 62
       7
100
AcDbLine
 10
-86.17562036
 20
-100.40550528
 30
0.0
 11
-86.17562036
 21
-100.40122735
 31
0.0
  0
LINE
  5
286
100
AcDbEntity
  8
LAYER0001
  6
CONTINUOUS
 62
       7
100
AcDbLine
 10
-86.17562036
 20
-100.40122735
 30
0.0
 11
-86.17562036
 21
-100.3958735
 31
0.0
  0
LINE
  5
287
100
AcDbEntity
  8
LAYER0001
  6
CONTINUOUS
 62
       7
100
AcDbLine
 10
-86.17562036
 20
-100.3958735
 30
0.0
 11
-86.17562036
 21
-100.38942573
 31
0.0
  0
LINE
  5
288
100
AcDbEntity
  8
LAYER0001
  6
CONTINUOUS
 62
       7
100
AcDbLine
 10
-86.17562036
 20
-100.38942573
 30
0.0
 11
-86.17562036
 21
-100.38194413
 31
0.0
  0
LINE
  5
289
100
AcDbEntity
  8
LAYER0001
  6
CONTINUOUS
 62
       7
100
AcDbLine
 10
-86.17562036
 20
-100.38194413
 30
0.0
 11
-86.17562036
 21
-100.37348952
 31
0.0
  0
LINE
  5
28A
100
AcDbEntity
  8
LAYER0001
  6
CONTINUOUS
 62
       7
100
AcDbLine
 10
-86.17562036
 20
-100.37348952
 30
0.0
 11
-86.17562036
 21
-100.36412272
 31
0.0
  0
LINE
  5
28B
100
AcDbEntity
  8
LAYER0001
  6
CONTINUOUS
 62
       7
100
AcDbLine
 10
-86.17562036
 20
-100.36412272
 30
0.0
 11
-86.17562036
 21
-100.35390453
 31
0.0
  0
LINE
  5
28C
100
AcDbEntity
  8
LAYER0001
  6
CONTINUOUS
 62
       7
100
AcDbLine
 10
-86.17562036
 20
-100.35390453
 30
0.0
 11
-86.17562036
 21
-100.34289577
 31
0.0
  0
LINE
  5
28D
100
AcDbEntity
  8
LAYER0001
  6
CONTINUOUS
 62
       7
100
AcDbLine
 10
-86.17562036
 20
-100.34289577
 30
0.0
 11
-86.17562036
 21
-100.33115725
 31
0.0
  0
LINE
  5
28E
100
AcDbEntity
  8
LAYER0001
  6
CONTINUOUS
 62
       7
100
AcDbLine
 10
-86.17562036
 20
-100.33115725
 30
0.0
 11
-86.17562036
 21
-100.31874978
 31
0.0
  0
LINE
  5
28F
100
AcDbEntity
  8
LAYER0001
  6
CONTINUOUS
 62
       7
100
AcDbLine
 10
-86.17562036
 20
-100.31874978
 30
0.0
 11
-86.17562036
 21
-100.30573419
 31
0.0
  0
LINE
  5
290
100
AcDbEntity
  8
LAYER0001
  6
CONTINUOUS
 62
       7
100
AcDbLine
 10
-86.17562036
 20
-100.30573419
 30
0.0
 11
-86.17562036
 21
-100.29217128
 31
0.0
  0
LINE
  5
291
100
AcDbEntity
  8
LAYER0001
  6
CONTINUOUS
 62
       7
100
AcDbLine
 10
-86.17562036
 20
-100.29217128
 30
0.0
 11
-86.17562036
 21
-100.27812186
 31
0.0
  0
LINE
  5
292
100
AcDbEntity
  8
LAYER0001
  6
CONTINUOUS
 62
       7
100
AcDbLine
 10
-86.17562036
 20
-100.27812186
 30
0.0
 11
-86.17562036
 21
-100.26364674
 31
0.0
  0
LINE
  5
293
100
AcDbEntity
  8
LAYER0001
  6
CONTINUOUS
 62
       7
100
AcDbLine
 10
-86.17562036
 20
-100.26364674
 30
0.0
 11
-86.17562036
 21
-100.24880675
 31
0.0
  0
LINE
  5
294
100
AcDbEntity
  8
LAYER0001
  6
CONTINUOUS
 62
       7
100
AcDbLine
 10
-86.17562036
 20
-100.24880675
 30
0.0
 11
-86.17562036
 21
-100.2336627
 31
0.0
  0
LINE
  5
295
100
AcDbEntity
  8
LAYER0001
  6
CONTINUOUS
 62
       7
100
AcDbLine
 10
-86.17562036
 20
-100.2336627
 30
0.0
 11
-86.17562036
 21
-100.21827539
 31
0.0
  0
LINE
  5
296
100
AcDbEntity
  8
LAYER0001
  6
CONTINUOUS
 62
       7
100
AcDbLine
 10
-86.17562036
 20
-100.21827539
 30
0.0
 11
-86.17562036
 21
-100.20270564
 31
0.0
  0
LINE
  5
297
100
AcDbEntity
  8
LAYER0001
  6
CONTINUOUS
 62
       7
100
AcDbLine
 10
-86.17562036
 20
-100.20270564
 30
0.0
 11
-86.17562036
 21
-100.18701426
 31
0.0
  0
LINE
  5
298
100
AcDbEntity
  8
LAYER0001
  6
CONTINUOUS
 62
       7
100
AcDbLine
 10
-86.17562036
 20
-100.18701426
 30
0.0
 11
-86.17562036
 21
-100.17126208
 31
0.0
  0
ENDBLK
  5
299
100
AcDbEntity
  8
0
100
AcDbBlockEnd
  0
BLOCK
  5
29A
100
AcDbEntity
  8
0
100
AcDbBlockBegin
  2
GROUP_16
 70
       0
 10
0.0
 20
0.0
 30
0.0
  3
GROUP_16
  1

  0
LINE
  5
29B
100
AcDbEntity
  8
LAYER0001
  6
CONTINUOUS
 62
       7
100
AcDbLine
 10
-91.67562126
 20
-100.17126208
 30
0.0
 11
-91.67562126
 21
-100.18701426
 31
0.0
  0
LINE
  5
29C
100
AcDbEntity
  8
LAYER0001
  6
CONTINUOUS
 62
       7
100
AcDbLine
 10
-91.67562126
 20
-100.18701426
 30
0.0
 11
-91.67562126
 21
-100.20270564
 31
0.0
  0
LINE
  5
29D
100
AcDbEntity
  8
LAYER0001
  6
CONTINUOUS
 62
       7
100
AcDbLine
 10
-91.67562126
 20
-100.20270564
 30
0.0
 11
-91.67562126
 21
-100.21827539
 31
0.0
  0
LINE
  5
29E
100
AcDbEntity
  8
LAYER0001
  6
CONTINUOUS
 62
       7
100
AcDbLine
 10
-91.67562126
 20
-100.21827539
 30
0.0
 11
-91.67562126
 21
-100.2336627
 31
0.0
  0
LINE
  5
29F
100
AcDbEntity
  8
LAYER0001
  6
CONTINUOUS
 62
       7
100
AcDbLine
 10
-91.67562126
 20
-100.2336627
 30
0.0
 11
-91.67562126
 21
-100.24880675
 31
0.0
  0
LINE
  5
2A0
100
AcDbEntity
  8
LAYER0001
  6
CONTINUOUS
 62
       7
100
AcDbLine
 10
-91.67562126
 20
-100.24880675
 30
0.0
 11
-91.67562126
 21
-100.26364674
 31
0.0
  0
LINE
  5
2A1
100
AcDbEntity
  8
LAYER0001
  6
CONTINUOUS
 62
       7
100
AcDbLine
 10
-91.67562126
 20
-100.26364674
 30
0.0
 11
-91.67562126
 21
-100.27812186
 31
0.0
  0
LINE
  5
2A2
100
AcDbEntity
  8
LAYER0001
  6
CONTINUOUS
 62
       7
100
AcDbLine
 10
-91.67562126
 20
-100.27812186
 30
0.0
 11
-91.67562126
 21
-100.29217128
 31
0.0
  0
LINE
  5
2A3
100
AcDbEntity
  8
LAYER0001
  6
CONTINUOUS
 62
       7
100
AcDbLine
 10
-91.67562126
 20
-100.29217128
 30
0.0
 11
-91.67562126
 21
-100.30573419
 31
0.0
  0
LINE
  5
2A4
100
AcDbEntity
  8
LAYER0001
  6
CONTINUOUS
 62
       7
100
AcDbLine
 10
-91.67562126
 20
-100.30573419
 30
0.0
 11
-91.67562126
 21
-100.31874978
 31
0.0
  0
LINE
  5
2A5
100
AcDbEntity
  8
LAYER0001
  6
CONTINUOUS
 62
       7
100
AcDbLine
 10
-91.67562126
 20
-100.31874978
 30
0.0
 11
-91.67562126
 21
-100.33115725
 31
0.0
  0
LINE
  5
2A6
100
AcDbEntity
  8
LAYER0001
  6
CONTINUOUS
 62
       7
100
AcDbLine
 10
-91.67562126
 20
-100.33115725
 30
0.0
 11
-91.67562126
 21
-100.34289577
 31
0.0
  0
LINE
  5
2A7
100
AcDbEntity
  8
LAYER0001
  6
CONTINUOUS
 62
       7
100
AcDbLine
 10
-91.67562126
 20
-100.34289577
 30
0.0
 11
-91.67562126
 21
-100.35390453
 31
0.0
  0
LINE
  5
2A8
100
AcDbEntity
  8
LAYER0001
  6
CONTINUOUS
 62
       7
100
AcDbLine
 10
-91.67562126
 20
-100.35390453
 30
0.0
 11
-91.67562126
 21
-100.36412272
 31
0.0
  0
LINE
  5
2A9
100
AcDbEntity
  8
LAYER0001
  6
CONTINUOUS
 62
       7
100
AcDbLine
 10
-91.67562126
 20
-100.36412272
 30
0.0
 11
-91.67562126
 21
-100.37348952
 31
0.0
  0
LINE
  5
2AA
100
AcDbEntity
  8
LAYER0001
  6
CONTINUOUS
 62
       7
100
AcDbLine
 10
-91.67562126
 20
-100.37348952
 30
0.0
 11
-91.67562126
 21
-100.38194413
 31
0.0
  0
LINE
  5
2AB
100
AcDbEntity
  8
LAYER0001
  6
CONTINUOUS
 62
       7
100
AcDbLine
 10
-91.67562126
 20
-100.38194413
 30
0.0
 11
-91.67562126
 21
-100.38942573
 31
0.0
  0
LINE
  5
2AC
100
AcDbEntity
  8
LAYER0001
  6
CONTINUOUS
 62
       7
100
AcDbLine
 10
-91.67562126
 20
-100.38942573
 30
0.0
 11
-91.67562126
 21
-100.3958735
 31
0.0
  0
LINE
  5
2AD
100
AcDbEntity
  8
LAYER0001
  6
CONTINUOUS
 62
       7
100
AcDbLine
 10
-91.67562126
 20
-100.3958735
 30
0.0
 11
-91.67562126
 21
-100.40122735
 31
0.0
  0
LINE
  5
2AE
100
AcDbEntity
  8
LAYER0001
  6
CONTINUOUS
 62
       7
100
AcDbLine
 10
-91.67562126
 20
-100.40122735
 30
0.0
 11
-91.67562126
 21
-100.40550528
 31
0.0
  0
LINE
  5
2AF
100
AcDbEntity
  8
LAYER0001
  6
CONTINUOUS
 62
       7
100
AcDbLine
 10
-91.67562126
 20
-100.40550528
 30
0.0
 11
-91.67562126
 21
-100.40887296
 31
0.0
  0
LINE
  5
2B0
100
AcDbEntity
  8
LAYER0001
  6
CONTINUOUS
 62
       7
100
AcDbLine
 10
-91.67562126
 20
-100.40887296
 30
0.0
 11
-91.67562126
 21
-100.41151243
 31
0.0
  0
LINE
  5
2B1
100
AcDbEntity
  8
LAYER0001
  6
CONTINUOUS
 62
       7
100
AcDbLine
 10
-91.67562126
 20
-100.41151243
 30
0.0
 11
-91.67562126
 21
-100.41360574
 31
0.0
  0
LINE
  5
2B2
100
AcDbEntity
  8
LAYER0001
  6
CONTINUOUS
 62
       7
100
AcDbLine
 10
-91.67562126
 20
-100.41360574
 30
0.0
 11
-91.67562126
 21
-100.41533495
 31
0.0
  0
LINE
  5
2B3
100
AcDbEntity
  8
LAYER0001
  6
CONTINUOUS
 62
       7
100
AcDbLine
 10
-91.67562126
 20
-100.41533495
 30
0.0
 11
-91.67562126
 21
-100.41688211
 31
0.0
  0
ENDBLK
  5
2B4
100
AcDbEntity
  8
0
100
AcDbBlockEnd
  0
BLOCK
  5
2B5
100
AcDbEntity
  8
0
100
AcDbBlockBegin
  2
GROUP_17
 70
       0
 10
0.0
 20
0.0
 30
0.0
  3
GROUP_17
  1

  0
LINE
  5
2B6
100
AcDbEntity
  8
LAYER0001
  6
CONTINUOUS
 62
       7
100
AcDbLine
 10
-89.16814219
 20
-87.31688217
 30
0.0
 11
-89.1412873
 21
-87.31727605
 31
0.0
  0
LINE
  5
2B7
100
AcDbEntity
  8
LAYER0001
  6
CONTINUOUS
 62
       7
100
AcDbLine
 10
-89.1412873
 20
-87.31727605
 30
0.0
 11
-89.1145793
 21
-87.31846112
 31
0.0
  0
LINE
  5
2B8
100
AcDbEntity
  8
LAYER0001
  6
CONTINUOUS
 62
       7
100
AcDbLine
 10
-89.1145793
 20
-87.31846112
 30
0.0
 11
-89.0880184
 21
-87.32044251
 31
0.0
  0
LINE
  5
2B9
100
AcDbEntity
  8
LAYER0001
  6
CONTINUOUS
 62
       7
100
AcDbLine
 10
-89.0880184
 20
-87.32044251
 30
0.0
 11
-89.06160482
 21
-87.32322537
 31
0.0
  0
LINE
  5
2BA
100
AcDbEntity
  8
LAYER0001
  6
CONTINUOUS
 62
       7
100
AcDbLine
 10
-89.06160482
 20
-87.32322537
 30
0.0
 11
-89.03533877
 21
-87.32681485
 31
0.0
  0
LINE
  5
2BB
100
AcDbEntity
  8
LAYER0001
  6
CONTINUOUS
 62
       7
100
AcDbLine
 10
-89.03533877
 20
-87.32681485
 30
0.0
 11
-89.00922047
 21
-87.33121609
 31
0.0
  0
LINE
  5
2BC
100
AcDbEntity
  8
LAYER0001
  6
CONTINUOUS
 62
       7
100
AcDbLine
 10
-89.00922047
 20
-87.33121609
 30
0.0
 11
-88.98325013
 21
-87.33643422
 31
0.0
  0
LINE
  5
2BD
100
AcDbEntity
  8
LAYER0001
  6
CONTINUOUS
 62
       7
100
AcDbLine
 10
-88.98325013
 20
-87.33643422
 30
0.0
 11
-88.95742798
 21
-87.3424744
 31
0.0
  0
LINE
  5
2BE
100
AcDbEntity
  8
LAYER0001
  6
CONTINUOUS
 62
       7
100
AcDbLine
 10
-88.95742798
 20
-87.3424744
 30
0.0
 11
-88.93175422
 21
-87.34934176
 31
0.0
  0
LINE
  5
2BF
100
AcDbEntity
  8
LAYER0001
  6
CONTINUOUS
 62
       7
100
AcDbLine
 10
-88.93175422
 20
-87.34934176
 30
0.0
 11
-88.90622907
 21
-87.35704144
 31
0.0
  0
LINE
  5
2C0
100
AcDbEntity
  8
LAYER0001
  6
CONTINUOUS
 62
       7
100
AcDbLine
 10
-88.90622907
 20
-87.35704144
 30
0.0
 11
-88.88085276
 21
-87.36557859
 31
0.0
  0
LINE
  5
2C1
100
AcDbEntity
  8
LAYER0001
  6
CONTINUOUS
 62
       7
100
AcDbLine
 10
-88.88085276
 20
-87.36557859
 30
0.0
 11
-88.85562548
 21
-87.37495836
 31
0.0
  0
LINE
  5
2C2
100
AcDbEntity
  8
LAYER0001
  6
CONTINUOUS
 62
       7
100
AcDbLine
 10
-88.85562548
 20
-87.37495836
 30
0.0
 11
-88.83055837
 21
-87.38518486
 31
0.0
  0
LINE
  5
2C3
100
AcDbEntity
  8
LAYER0001
  6
CONTINUOUS
 62
       7
100
AcDbLine
 10
-88.83055837
 20
-87.38518486
 30
0.0
 11
-88.80572408
 21
-87.39625651
 31
0.0
  0
LINE
  5
2C4
100
AcDbEntity
  8
LAYER0001
  6
CONTINUOUS
 62
       7
100
AcDbLine
 10
-88.80572408
 20
-87.39625651
 30
0.0
 11
-88.78115177
 21
-87.40817574
 31
0.0
  0
LINE
  5
2C5
100
AcDbEntity
  8
LAYER0001
  6
CONTINUOUS
 62
       7
100
AcDbLine
 10
-88.78115177
 20
-87.40817574
 30
0.0
 11
-88.75686052
 21
-87.42094592
 31
0.0
  0
LINE
  5
2C6
100
AcDbEntity
  8
LAYER0001
  6
CONTINUOUS
 62
       7
100
AcDbLine
 10
-88.75686052
 20
-87.42094592
 30
0.0
 11
-88.73286937
 21
-87.43457044
 31
0.0
  0
LINE
  5
2C7
100
AcDbEntity
  8
LAYER0001
  6
CONTINUOUS
 62
       7
100
AcDbLine
 10
-88.73286937
 20
-87.43457044
 30
0.0
 11
-88.70919737
 21
-87.44905268
 31
0.0
  0
LINE
  5
2C8
100
AcDbEntity
  8
LAYER0001
  6
CONTINUOUS
 62
       7
100
AcDbLine
 10
-88.70919737
 20
-87.44905268
 30
0.0
 11
-88.6858636
 21
-87.46439601
 31
0.0
  0
LINE
  5
2C9
100
AcDbEntity
  8
LAYER0001
  6
CONTINUOUS
 62
       7
100
AcDbLine
 10
-88.6858636
 20
-87.46439601
 30
0.0
 11
-88.6628871
 21
-87.48060383
 31
0.0
  0
LINE
  5
2CA
100
AcDbEntity
  8
LAYER0001
  6
CONTINUOUS
 62
       7
100
AcDbLine
 10
-88.6628871
 20
-87.48060383
 30
0.0
 11
-88.64028693
 21
-87.4976795
 31
0.0
  0
LINE
  5
2CB
100
AcDbEntity
  8
LAYER0001
  6
CONTINUOUS
 62
       7
100
AcDbLine
 10
-88.64028693
 20
-87.4976795
 30
0.0
 11
-88.61808215
 21
-87.5156264
 31
0.0
  0
LINE
  5
2CC
100
AcDbEntity
  8
LAYER0001
  6
CONTINUOUS
 62
       7
100
AcDbLine
 10
-88.61808215
 20
-87.5156264
 30
0.0
 11
-88.59629182
 21
-87.53444792
 31
0.0
  0
LINE
  5
2CD
100
AcDbEntity
  8
LAYER0001
  6
CONTINUOUS
 62
       7
100
AcDbLine
 10
-88.59629182
 20
-87.53444792
 30
0.0
 11
-88.57493499
 21
-87.55414743
 31
0.0
  0
LINE
  5
2CE
100
AcDbEntity
  8
LAYER0001
  6
CONTINUOUS
 62
       7
100
AcDbLine
 10
-88.57493499
 20
-87.55414743
 30
0.0
 11
-88.55403072
 21
-87.57472831
 31
0.0
  0
LINE
  5
2CF
100
AcDbEntity
  8
LAYER0001
  6
CONTINUOUS
 62
       7
100
AcDbLine
 10
-88.55403072
 20
-87.57472831
 30
0.0
 11
-88.53361924
 21
-87.59618421
 31
0.0
  0
LINE
  5
2D0
100
AcDbEntity
  8
LAYER0001
  6
CONTINUOUS
 62
       7
100
AcDbLine
 10
-88.53361924
 20
-87.59618421
 30
0.0
 11
-88.51374595
 21
-87.61849516
 31
0.0
  0
LINE
  5
2D1
100
AcDbEntity
  8
LAYER0001
  6
CONTINUOUS
 62
       7
100
AcDbLine
 10
-88.51374595
 20
-87.61849516
 30
0.0
 11
-88.49443765
 21
-87.64164415
 31
0.0
  0
LINE
  5
2D2
100
AcDbEntity
  8
LAYER0001
  6
CONTINUOUS
 62
       7
100
AcDbLine
 10
-88.49443765
 20
-87.64164415
 30
0.0
 11
-88.47572115
 21
-87.66561418
 31
0.0
  0
LINE
  5
2D3
100
AcDbEntity
  8
LAYER0001
  6
CONTINUOUS
 62
       7
100
AcDbLine
 10
-88.47572115
 20
-87.66561418
 30
0.0
 11
-88.45762325
 21
-87.69038823
 31
0.0
  0
LINE
  5
2D4
100
AcDbEntity
  8
LAYER0001
  6
CONTINUOUS
 62
       7
100
AcDbLine
 10
-88.45762325
 20
-87.69038823
 30
0.0
 11
-88.44017075
 21
-87.71594929
 31
0.0
  0
LINE
  5
2D5
100
AcDbEntity
  8
LAYER0001
  6
CONTINUOUS
 62
       7
100
AcDbLine
 10
-88.44017075
 20
-87.71594929
 30
0.0
 11
-88.42339046
 21
-87.74228036
 31
0.0
  0
LINE
  5
2D6
100
AcDbEntity
  8
LAYER0001
  6
CONTINUOUS
 62
       7
100
AcDbLine
 10
-88.42339046
 20
-87.74228036
 30
0.0
 11
-88.40730918
 21
-87.76936443
 31
0.0
  0
LINE
  5
2D7
100
AcDbEntity
  8
LAYER0001
  6
CONTINUOUS
 62
       7
100
AcDbLine
 10
-88.40730918
 20
-87.76936443
 30
0.0
 11
-88.39195371
 21
-87.79718447
 31
0.0
  0
LINE
  5
2D8
100
AcDbEntity
  8
LAYER0001
  6
CONTINUOUS
 62
       7
100
AcDbLine
 10
-88.39195371
 20
-87.79718447
 30
0.0
 11
-88.37735086
 21
-87.8257235
 31
0.0
  0
LINE
  5
2D9
100
AcDbEntity
  8
LAYER0001
  6
CONTINUOUS
 62
       7
100
AcDbLine
 10
-88.37735086
 20
-87.8257235
 30
0.0
 11
-88.36352743
 21
-87.85496449
 31
0.0
  0
LINE
  5
2DA
100
AcDbEntity
  8
LAYER0001
  6
CONTINUOUS
 62
       7
100
AcDbLine
 10
-88.36352743
 20
-87.85496449
 30
0.0
 11
-88.35051023
 21
-87.88489043
 31
0.0
  0
LINE
  5
2DB
100
AcDbEntity
  8
LAYER0001
  6
CONTINUOUS
 62
       7
100
AcDbLine
 10
-88.35051023
 20
-87.88489043
 30
0.0
 11
-88.33832962
 21
-87.91547525
 31
0.0
  0
LINE
  5
2DC
100
AcDbEntity
  8
LAYER0001
  6
CONTINUOUS
 62
       7
100
AcDbLine
 10
-88.33832962
 20
-87.91547525
 30
0.0
 11
-88.32702958
 21
-87.94664035
 31
0.0
  0
LINE
  5
2DD
100
AcDbEntity
  8
LAYER0001
  6
CONTINUOUS
 62
       7
100
AcDbLine
 10
-88.32702958
 20
-87.94664035
 30
0.0
 11
-88.31662984
 21
-87.97834134
 31
0.0
  0
LINE
  5
2DE
100
AcDbEntity
  8
LAYER0001
  6
CONTINUOUS
 62
       7
100
AcDbLine
 10
-88.31662984
 20
-87.97834134
 30
0.0
 11
-88.30714608
 21
-88.01054213
 31
0.0
  0
LINE
  5
2DF
100
AcDbEntity
  8
LAYER0001
  6
CONTINUOUS
 62
       7
100
AcDbLine
 10
-88.30714608
 20
-88.01054213
 30
0.0
 11
-88.29859399
 21
-88.04320659
 31
0.0
  0
LINE
  5
2E0
100
AcDbEntity
  8
LAYER0001
  6
CONTINUOUS
 62
       7
100
AcDbLine
 10
-88.29859399
 20
-88.04320659
 30
0.0
 11
-88.29098926
 21
-88.07629864
 31
0.0
  0
LINE
  5
2E1
100
AcDbEntity
  8
LAYER0001
  6
CONTINUOUS
 62
       7
100
AcDbLine
 10
-88.29098926
 20
-88.07629864
 30
0.0
 11
-88.28434759
 21
-88.10978215
 31
0.0
  0
LINE
  5
2E2
100
AcDbEntity
  8
LAYER0001
  6
CONTINUOUS
 62
       7
100
AcDbLine
 10
-88.28434759
 20
-88.10978215
 30
0.0
 11
-88.27868467
 21
-88.14362103
 31
0.0
  0
LINE
  5
2E3
100
AcDbEntity
  8
LAYER0001
  6
CONTINUOUS
 62
       7
100
AcDbLine
 10
-88.27868467
 20
-88.14362103
 30
0.0
 11
-88.27401618
 21
-88.17777917
 31
0.0
  0
LINE
  5
2E4
100
AcDbEntity
  8
LAYER0001
  6
CONTINUOUS
 62
       7
100
AcDbLine
 10
-88.27401618
 20
-88.17777917
 30
0.0
 11
-88.27035782
 21
-88.21222046
 31
0.0
  0
LINE
  5
2E5
100
AcDbEntity
  8
LAYER0001
  6
CONTINUOUS
 62
       7
100
AcDbLine
 10
-88.27035782
 20
-88.21222046
 30
0.0
 11
-88.26772528
 21
-88.24690879
 31
0.0
  0
LINE
  5
2E6
100
AcDbEntity
  8
LAYER0001
  6
CONTINUOUS
 62
       7
100
AcDbLine
 10
-88.26772528
 20
-88.24690879
 30
0.0
 11
-88.26613425
 21
-88.28180807
 31
0.0
  0
LINE
  5
2E7
100
AcDbEntity
  8
LAYER0001
  6
CONTINUOUS
 62
       7
100
AcDbLine
 10
-88.26613425
 20
-88.28180807
 30
0.0
 11
-88.26560042
 21
-88.31688217
 31
0.0
  0
ENDBLK
  5
2E8
100
AcDbEntity
  8
0
100
AcDbBlockEnd
  0
BLOCK
  5
2E9
100
AcDbEntity
  8
0
100
AcDbBlockBegin
  2
GROUP_18
 70
       0
 10
0.0
 20
0.0
 30
0.0
  3
GROUP_18
  1

  0
LINE
  5
2EA
100
AcDbEntity
  8
LAYER0001
  6
CONTINUOUS
 62
       7
100
AcDbLine
 10
-115.56640321
 20
-88.31688232
 30
0.0
 11
-115.56604084
 21
-88.28773599
 31
0.0
  0
LINE
  5
2EB
100
AcDbEntity
  8
LAYER0001
  6
CONTINUOUS
 62
       7
100
AcDbLine
 10
-115.56604084
 20
-88.28773599
 30
0.0
 11
-115.56495732
 21
-88.25876413
 31
0.0
  0
LINE
  5
2EC
100
AcDbEntity
  8
LAYER0001
  6
CONTINUOUS
 62
       7
100
AcDbLine
 10
-115.56495732
 20
-88.25876413
 30
0.0
 11
-115.56315805
 21
-88.22996535
 31
0.0
  0
LINE
  5
2ED
100
AcDbEntity
  8
LAYER0001
  6
CONTINUOUS
 62
       7
100
AcDbLine
 10
-115.56315805
 20
-88.22996535
 30
0.0
 11
-115.56064842
 21
-88.20133825
 31
0.0
  0
LINE
  5
2EE
100
AcDbEntity
  8
LAYER0001
  6
CONTINUOUS
 62
       7
100
AcDbLine
 10
-115.56064842
 20
-88.20133825
 30
0.0
 11
-115.55743383
 21
-88.17288146
 31
0.0
  0
LINE
  5
2EF
100
AcDbEntity
  8
LAYER0001
  6
CONTINUOUS
 62
       7
100
AcDbLine
 10
-115.55743383
 20
-88.17288146
 30
0.0
 11
-115.55351967
 21
-88.14459357
 31
0.0
  0
LINE
  5
2F0
100
AcDbEntity
  8
LAYER0001
  6
CONTINUOUS
 62
       7
100
AcDbLine
 10
-115.55351967
 20
-88.14459357
 30
0.0
 11
-115.54891135
 21
-88.11647319
 31
0.0
  0
LINE
  5
2F1
100
AcDbEntity
  8
LAYER0001
  6
CONTINUOUS
 62
       7
100
AcDbLine
 10
-115.54891135
 20
-88.11647319
 30
0.0
 11
-115.54361075
 21
-88.08851829
 31
0.0
  0
LINE
  5
2F2
100
AcDbEntity
  8
LAYER0001
  6
CONTINUOUS
 62
       7
100
AcDbLine
 10
-115.54361075
 20
-88.08851829
 30
0.0
 11
-115.5376081
 21
-88.06074362
 31
0.0
  0
LINE
  5
2F3
100
AcDbEntity
  8
LAYER0001
  6
CONTINUOUS
 62
       7
100
AcDbLine
 10
-115.5376081
 20
-88.06074362
 30
0.0
 11
-115.53092023
 21
-88.03319811
 31
0.0
  0
LINE
  5
2F4
100
AcDbEntity
  8
LAYER0001
  6
CONTINUOUS
 62
       7
100
AcDbLine
 10
-115.53092023
 20
-88.03319811
 30
0.0
 11
-115.52356809
 21
-88.00593354
 31
0.0
  0
LINE
  5
2F5
100
AcDbEntity
  8
LAYER0001
  6
CONTINUOUS
 62
       7
100
AcDbLine
 10
-115.52356809
 20
-88.00593354
 30
0.0
 11
-115.51557265
 21
-87.97900172
 31
0.0
  0
LINE
  5
2F6
100
AcDbEntity
  8
LAYER0001
  6
CONTINUOUS
 62
       7
100
AcDbLine
 10
-115.51557265
 20
-87.97900172
 30
0.0
 11
-115.50695488
 21
-87.95245441
 31
0.0
  0
LINE
  5
2F7
100
AcDbEntity
  8
LAYER0001
  6
CONTINUOUS
 62
       7
100
AcDbLine
 10
-115.50695488
 20
-87.95245441
 30
0.0
 11
-115.49773574
 21
-87.92634343
 31
0.0
  0
LINE
  5
2F8
100
AcDbEntity
  8
LAYER0001
  6
CONTINUOUS
 62
       7
100
AcDbLine
 10
-115.49773574
 20
-87.92634343
 30
0.0
 11
-115.48793619
 21
-87.90072054
 31
0.0
  0
LINE
  5
2F9
100
AcDbEntity
  8
LAYER0001
  6
CONTINUOUS
 62
       7
100
AcDbLine
 10
-115.48793619
 20
-87.90072054
 30
0.0
 11
-115.4775593
 21
-87.87557718
 31
0.0
  0
LINE
  5
2FA
100
AcDbEntity
  8
LAYER0001
  6
CONTINUOUS
 62
       7
100
AcDbLine
 10
-115.4775593
 20
-87.87557718
 30
0.0
 11
-115.46660473
 21
-87.85087812
 31
0.0
  0
LINE
  5
2FB
100
AcDbEntity
  8
LAYER0001
  6
CONTINUOUS
 62
       7
100
AcDbLine
 10
-115.46660473
 20
-87.85087812
 30
0.0
 11
-115.45508831
 21
-87.82663521
 31
0.0
  0
LINE
  5
2FC
100
AcDbEntity
  8
LAYER0001
  6
CONTINUOUS
 62
       7
100
AcDbLine
 10
-115.45508831
 20
-87.82663521
 30
0.0
 11
-115.44302592
 21
-87.80286029
 31
0.0
  0
LINE
  5
2FD
100
AcDbEntity
  8
LAYER0001
  6
CONTINUOUS
 62
       7
100
AcDbLine
 10
-115.44302592
 20
-87.80286029
 30
0.0
 11
-115.43043339
 21
-87.7795652
 31
0.0
  0
LINE
  5
2FE
100
AcDbEntity
  8
LAYER0001
  6
CONTINUOUS
 62
       7
100
AcDbLine
 10
-115.43043339
 20
-87.7795652
 30
0.0
 11
-115.41732659
 21
-87.75676178
 31
0.0
  0
LINE
  5
2FF
100
AcDbEntity
  8
LAYER0001
  6
CONTINUOUS
 62
       7
100
AcDbLine
 10
-115.41732659
 20
-87.75676178
 30
0.0
 11
-115.40372135
 21
-87.73446187
 31
0.0
  0
LINE
  5
300
100
AcDbEntity
  8
LAYER0001
  6
CONTINUOUS
 62
       7
100
AcDbLine
 10
-115.40372135
 20
-87.73446187
 30
0.0
 11
-115.38963355
 21
-87.71267731
 31
0.0
  0
LINE
  5
301
100
AcDbEntity
  8
LAYER0001
  6
CONTINUOUS
 62
       7
100
AcDbLine
 10
-115.38963355
 20
-87.71267731
 30
0.0
 11
-115.37507903
 21
-87.69141994
 31
0.0
  0
LINE
  5
302
100
AcDbEntity
  8
LAYER0001
  6
CONTINUOUS
 62
       7
100
AcDbLine
 10
-115.37507903
 20
-87.69141994
 30
0.0
 11
-115.36007364
 21
-87.67070162
 31
0.0
  0
LINE
  5
303
100
AcDbEntity
  8
LAYER0001
  6
CONTINUOUS
 62
       7
100
AcDbLine
 10
-115.36007364
 20
-87.67070162
 30
0.0
 11
-115.34463323
 21
-87.65053416
 31
0.0
  0
LINE
  5
304
100
AcDbEntity
  8
LAYER0001
  6
CONTINUOUS
 62
       7
100
AcDbLine
 10
-115.34463323
 20
-87.65053416
 30
0.0
 11
-115.32877366
 21
-87.63092943
 31
0.0
  0
LINE
  5
305
100
AcDbEntity
  8
LAYER0001
  6
CONTINUOUS
 62
       7
100
AcDbLine
 10
-115.32877366
 20
-87.63092943
 30
0.0
 11
-115.31251078
 21
-87.61189926
 31
0.0
  0
LINE
  5
306
100
AcDbEntity
  8
LAYER0001
  6
CONTINUOUS
 62
       7
100
AcDbLine
 10
-115.31251078
 20
-87.61189926
 30
0.0
 11
-115.29586044
 21
-87.59345548
 31
0.0
  0
LINE
  5
307
100
AcDbEntity
  8
LAYER0001
  6
CONTINUOUS
 62
       7
100
AcDbLine
 10
-115.29586044
 20
-87.59345548
 30
0.0
 11
-115.2788385
 21
-87.57560995
 31
0.0
  0
LINE
  5
308
100
AcDbEntity
  8
LAYER0001
  6
CONTINUOUS
 62
       7
100
AcDbLine
 10
-115.2788385
 20
-87.57560995
 30
0.0
 11
-115.26147206
 21
-87.55837212
 31
0.0
  0
LINE
  5
309
100
AcDbEntity
  8
LAYER0001
  6
CONTINUOUS
 62
       7
100
AcDbLine
 10
-115.26147206
 20
-87.55837212
 30
0.0
 11
-115.24378469
 21
-87.54174248
 31
0.0
  0
LINE
  5
30A
100
AcDbEntity
  8
LAYER0001
  6
CONTINUOUS
 62
       7
100
AcDbLine
 10
-115.24378469
 20
-87.54174248
 30
0.0
 11
-115.22578701
 21
-87.52571945
 31
0.0
  0
LINE
  5
30B
100
AcDbEntity
  8
LAYER0001
  6
CONTINUOUS
 62
       7
100
AcDbLine
 10
-115.22578701
 20
-87.52571945
 30
0.0
 11
-115.20748959
 21
-87.51030145
 31
0.0
  0
LINE
  5
30C
100
AcDbEntity
  8
LAYER0001
  6
CONTINUOUS
 62
       7
100
AcDbLine
 10
-115.20748959
 20
-87.51030145
 30
0.0
 11
-115.18890302
 21
-87.49548689
 31
0.0
  0
LINE
  5
30D
100
AcDbEntity
  8
LAYER0001
  6
CONTINUOUS
 62
       7
100
AcDbLine
 10
-115.18890302
 20
-87.49548689
 30
0.0
 11
-115.17003789
 21
-87.48127419
 31
0.0
  0
LINE
  5
30E
100
AcDbEntity
  8
LAYER0001
  6
CONTINUOUS
 62
       7
100
AcDbLine
 10
-115.17003789
 20
-87.48127419
 30
0.0
 11
-115.1509048
 21
-87.46766175
 31
0.0
  0
LINE
  5
30F
100
AcDbEntity
  8
LAYER0001
  6
CONTINUOUS
 62
       7
100
AcDbLine
 10
-115.1509048
 20
-87.46766175
 30
0.0
 11
-115.13151433
 21
-87.45464799
 31
0.0
  0
LINE
  5
310
100
AcDbEntity
  8
LAYER0001
  6
CONTINUOUS
 62
       7
100
AcDbLine
 10
-115.13151433
 20
-87.45464799
 30
0.0
 11
-115.11187706
 21
-87.44223133
 31
0.0
  0
LINE
  5
311
100
AcDbEntity
  8
LAYER0001
  6
CONTINUOUS
 62
       7
100
AcDbLine
 10
-115.11187706
 20
-87.44223133
 30
0.0
 11
-115.0920036
 21
-87.43041018
 31
0.0
  0
LINE
  5
312
100
AcDbEntity
  8
LAYER0001
  6
CONTINUOUS
 62
       7
100
AcDbLine
 10
-115.0920036
 20
-87.43041018
 30
0.0
 11
-115.07190453
 21
-87.41918295
 31
0.0
  0
LINE
  5
313
100
AcDbEntity
  8
LAYER0001
  6
CONTINUOUS
 62
       7
100
AcDbLine
 10
-115.07190453
 20
-87.41918295
 30
0.0
 11
-115.05159044
 21
-87.40854806
 31
0.0
  0
LINE
  5
314
100
AcDbEntity
  8
LAYER0001
  6
CONTINUOUS
 62
       7
100
AcDbLine
 10
-115.05159044
 20
-87.40854806
 30
0.0
 11
-115.03107191
 21
-87.39850392
 31
0.0
  0
LINE
  5
315
100
AcDbEntity
  8
LAYER0001
  6
CONTINUOUS
 62
       7
100
AcDbLine
 10
-115.03107191
 20
-87.39850392
 30
0.0
 11
-115.01035954
 21
-87.38904895
 31
0.0
  0
LINE
  5
316
100
AcDbEntity
  8
LAYER0001
  6
CONTINUOUS
 62
       7
100
AcDbLine
 10
-115.01035954
 20
-87.38904895
 30
0.0
 11
-114.98946392
 21
-87.38018155
 31
0.0
  0
LINE
  5
317
100
AcDbEntity
  8
LAYER0001
  6
CONTINUOUS
 62
       7
100
AcDbLine
 10
-114.98946392
 20
-87.38018155
 30
0.0
 11
-114.96843156
 21
-87.37190605
 31
0.0
  0
LINE
  5
318
100
AcDbEntity
  8
LAYER0001
  6
CONTINUOUS
 62
       7
100
AcDbLine
 10
-114.96843156
 20
-87.37190605
 30
0.0
 11
-114.94730204
 21
-87.36422542
 31
0.0
  0
LINE
  5
319
100
AcDbEntity
  8
LAYER0001
  6
CONTINUOUS
 62
       7
100
AcDbLine
 10
-114.94730204
 20
-87.36422542
 30
0.0
 11
-114.92607556
 21
-87.35713609
 31
0.0
  0
LINE
  5
31A
100
AcDbEntity
  8
LAYER0001
  6
CONTINUOUS
 62
       7
100
AcDbLine
 10
-114.92607556
 20
-87.35713609
 30
0.0
 11
-114.90475228
 21
-87.35063448
 31
0.0
  0
LINE
  5
31B
100
AcDbEntity
  8
LAYER0001
  6
CONTINUOUS
 62
       7
100
AcDbLine
 10
-114.90475228
 20
-87.35063448
 30
0.0
 11
-114.88333241
 21
-87.344717
 31
0.0
  0
LINE
  5
31C
100
AcDbEntity
  8
LAYER0001
  6
CONTINUOUS
 62
       7
100
AcDbLine
 10
-114.88333241
 20
-87.344717
 30
0.0
 11
-114.86181612
 21
-87.33938009
 31
0.0
  0
LINE
  5
31D
100
AcDbEntity
  8
LAYER0001
  6
CONTINUOUS
 62
       7
100
AcDbLine
 10
-114.86181612
 20
-87.33938009
 30
0.0
 11
-114.84020361
 21
-87.33462015
 31
0.0
  0
LINE
  5
31E
100
AcDbEntity
  8
LAYER0001
  6
CONTINUOUS
 62
       7
100
AcDbLine
 10
-114.84020361
 20
-87.33462015
 30
0.0
 11
-114.81849504
 21
-87.33043361
 31
0.0
  0
LINE
  5
31F
100
AcDbEntity
  8
LAYER0001
  6
CONTINUOUS
 62
       7
100
AcDbLine
 10
-114.81849504
 20
-87.33043361
 30
0.0
 11
-114.79669062
 21
-87.32681689
 31
0.0
  0
LINE
  5
320
100
AcDbEntity
  8
LAYER0001
  6
CONTINUOUS
 62
       7
100
AcDbLine
 10
-114.79669062
 20
-87.32681689
 30
0.0
 11
-114.77479053
 21
-87.32376641
 31
0.0
  0
LINE
  5
321
100
AcDbEntity
  8
LAYER0001
  6
CONTINUOUS
 62
       7
100
AcDbLine
 10
-114.77479053
 20
-87.32376641
 30
0.0
 11
-114.75279495
 21
-87.32127859
 31
0.0
  0
LINE
  5
322
100
AcDbEntity
  8
LAYER0001
  6
CONTINUOUS
 62
       7
100
AcDbLine
 10
-114.75279495
 20
-87.32127859
 30
0.0
 11
-114.73070406
 21
-87.31934985
 31
0.0
  0
LINE
  5
323
100
AcDbEntity
  8
LAYER0001
  6
CONTINUOUS
 62
       7
100
AcDbLine
 10
-114.73070406
 20
-87.31934985
 30
0.0
 11
-114.70851806
 21
-87.31797661
 31
0.0
  0
LINE
  5
324
100
AcDbEntity
  8
LAYER0001
  6
CONTINUOUS
 62
       7
100
AcDbLine
 10
-114.70851806
 20
-87.31797661
 30
0.0
 11
-114.68623713
 21
-87.3171553
 31
0.0
  0
LINE
  5
325
100
AcDbEntity
  8
LAYER0001
  6
CONTINUOUS
 62
       7
100
AcDbLine
 10
-114.68623713
 20
-87.3171553
 30
0.0
 11
-114.66386145
 21
-87.31688232
 31
0.0
  0
ENDBLK
  5
326
100
AcDbEntity
  8
0
100
AcDbBlockEnd
  0
BLOCK
  5
327
100
AcDbEntity
  8
0
100
AcDbBlockBegin
  2
GROUP_19
 70
       0
 10
0.0
 20
0.0
 30
0.0
  3
GROUP_19
  1

  0
LINE
  5
328
100
AcDbEntity
  8
LAYER0001
  6
CONTINUOUS
 62
       7
100
AcDbLine
 10
28.28781543
 20
-42.69531631
 30
0.0
 11
28.29230597
 21
-42.64650792
 31
0.0
  0
LINE
  5
329
100
AcDbEntity
  8
LAYER0001
  6
CONTINUOUS
 62
       7
100
AcDbLine
 10
28.29230597
 20
-42.64650792
 30
0.0
 11
28.29737175
 21
-42.59794456
 31
0.0
  0
LINE
  5
32A
100
AcDbEntity
  8
LAYER0001
  6
CONTINUOUS
 62
       7
100
AcDbLine
 10
28.29737175
 20
-42.59794456
 30
0.0
 11
28.30358801
 21
-42.54987124
 31
0.0
  0
LINE
  5
32B
100
AcDbEntity
  8
LAYER0001
  6
CONTINUOUS
 62
       7
100
AcDbLine
 10
28.30358801
 20
-42.54987124
 30
0.0
 11
28.31152999
 21
-42.50253298
 31
0.0
  0
LINE
  5
32C
100
AcDbEntity
  8
LAYER0001
  6
CONTINUOUS
 62
       7
100
AcDbLine
 10
28.31152999
 20
-42.50253298
 30
0.0
 11
28.32177293
 21
-42.45617481
 31
0.0
  0
LINE
  5
32D
100
AcDbEntity
  8
LAYER0001
  6
CONTINUOUS
 62
       7
100
AcDbLine
 10
28.32177293
 20
-42.45617481
 30
0.0
 11
28.33483198
 21
-42.41102955
 31
0.0
  0
LINE
  5
32E
100
AcDbEntity
  8
LAYER0001
  6
CONTINUOUS
 62
       7
100
AcDbLine
 10
28.33483198
 20
-42.41102955
 30
0.0
 11
28.35066203
 21
-42.36721644
 31
0.0
  0
LINE
  5
32F
100
AcDbEntity
  8
LAYER0001
  6
CONTINUOUS
 62
       7
100
AcDbLine
 10
28.35066203
 20
-42.36721644
 30
0.0
 11
28.36891288
 21
-42.3247928
 31
0.0
  0
LINE
  5
330
100
AcDbEntity
  8
LAYER0001
  6
CONTINUOUS
 62
       7
100
AcDbLine
 10
28.36891288
 20
-42.3247928
 30
0.0
 11
28.38923128
 21
-42.28381538
 31
0.0
  0
LINE
  5
331
100
AcDbEntity
  8
LAYER0001
  6
CONTINUOUS
 62
       7
100
AcDbLine
 10
28.38923128
 20
-42.28381538
 30
0.0
 11
28.41126396
 21
-42.24434089
 31
0.0
  0
LINE
  5
332
100
AcDbEntity
  8
LAYER0001
  6
CONTINUOUS
 62
       7
100
AcDbLine
 10
28.41126396
 20
-42.24434089
 30
0.0
 11
28.4346632
 21
-42.20642417
 31
0.0
  0
LINE
  5
333
100
AcDbEntity
  8
LAYER0001
  6
CONTINUOUS
 62
       7
100
AcDbLine
 10
28.4346632
 20
-42.20642417
 30
0.0
 11
28.45921346
 21
-42.17007465
 31
0.0
  0
LINE
  5
334
100
AcDbEntity
  8
LAYER0001
  6
CONTINUOUS
 62
       7
100
AcDbLine
 10
28.45921346
 20
-42.17007465
 30
0.0
 11
28.48483429
 21
-42.1352554
 31
0.0
  0
LINE
  5
335
100
AcDbEntity
  8
LAYER0001
  6
CONTINUOUS
 62
       7
100
AcDbLine
 10
28.48483429
 20
-42.1352554
 30
0.0
 11
28.51145136
 21
-42.10192741
 31
0.0
  0
LINE
  5
336
100
AcDbEntity
  8
LAYER0001
  6
CONTINUOUS
 62
       7
100
AcDbLine
 10
28.51145136
 20
-42.10192741
 30
0.0
 11
28.53899033
 21
-42.07005163
 31
0.0
  0
LINE
  5
337
100
AcDbEntity
  8
LAYER0001
  6
CONTINUOUS
 62
       7
100
AcDbLine
 10
28.53899033
 20
-42.07005163
 30
0.0
 11
28.56737684
 21
-42.03958904
 31
0.0
  0
LINE
  5
338
100
AcDbEntity
  8
LAYER0001
  6
CONTINUOUS
 62
       7
100
AcDbLine
 10
28.56737684
 20
-42.03958904
 30
0.0
 11
28.59653656
 21
-42.01050061
 31
0.0
  0
LINE
  5
339
100
AcDbEntity
  8
LAYER0001
  6
CONTINUOUS
 62
       7
100
AcDbLine
 10
28.59653656
 20
-42.01050061
 30
0.0
 11
28.62639514
 21
-41.98274732
 31
0.0
  0
LINE
  5
33A
100
AcDbEntity
  8
LAYER0001
  6
CONTINUOUS
 62
       7
100
AcDbLine
 10
28.62639514
 20
-41.98274732
 30
0.0
 11
28.6568794
 21
-41.95629229
 31
0.0
  0
LINE
  5
33B
100
AcDbEntity
  8
LAYER0001
  6
CONTINUOUS
 62
       7
100
AcDbLine
 10
28.6568794
 20
-41.95629229
 30
0.0
 11
28.68793217
 21
-41.93112872
 31
0.0
  0
LINE
  5
33C
100
AcDbEntity
  8
LAYER0001
  6
CONTINUOUS
 62
       7
100
AcDbLine
 10
28.68793217
 20
-41.93112872
 30
0.0
 11
28.71950807
 21
-41.90727189
 31
0.0
  0
LINE
  5
33D
100
AcDbEntity
  8
LAYER0001
  6
CONTINUOUS
 62
       7
100
AcDbLine
 10
28.71950807
 20
-41.90727189
 30
0.0
 11
28.75156198
 21
-41.88473759
 31
0.0
  0
LINE
  5
33E
100
AcDbEntity
  8
LAYER0001
  6
CONTINUOUS
 62
       7
100
AcDbLine
 10
28.75156198
 20
-41.88473759
 30
0.0
 11
28.78404881
 21
-41.86354162
 31
0.0
  0
LINE
  5
33F
100
AcDbEntity
  8
LAYER0001
  6
CONTINUOUS
 62
       7
100
AcDbLine
 10
28.78404881
 20
-41.86354162
 30
0.0
 11
28.81692342
 21
-41.84369976
 31
0.0
  0
LINE
  5
340
100
AcDbEntity
  8
LAYER0001
  6
CONTINUOUS
 62
       7
100
AcDbLine
 10
28.81692342
 20
-41.84369976
 30
0.0
 11
28.85014072
 21
-41.82522781
 31
0.0
  0
LINE
  5
341
100
AcDbEntity
  8
LAYER0001
  6
CONTINUOUS
 62
       7
100
AcDbLine
 10
28.85014072
 20
-41.82522781
 30
0.0
 11
28.88365559
 21
-41.80814155
 31
0.0
  0
LINE
  5
342
100
AcDbEntity
  8
LAYER0001
  6
CONTINUOUS
 62
       7
100
AcDbLine
 10
28.88365559
 20
-41.80814155
 30
0.0
 11
28.91742292
 21
-41.79245677
 31
0.0
  0
LINE
  5
343
100
AcDbEntity
  8
LAYER0001
  6
CONTINUOUS
 62
       7
100
AcDbLine
 10
28.91742292
 20
-41.79245677
 30
0.0
 11
28.95139759
 21
-41.77818928
 31
0.0
  0
LINE
  5
344
100
AcDbEntity
  8
LAYER0001
  6
CONTINUOUS
 62
       7
100
AcDbLine
 10
28.95139759
 20
-41.77818928
 30
0.0
 11
28.9855345
 21
-41.76535485
 31
0.0
  0
LINE
  5
345
100
AcDbEntity
  8
LAYER0001
  6
CONTINUOUS
 62
       7
100
AcDbLine
 10
28.9855345
 20
-41.76535485
 30
0.0
 11
29.01978857
 21
-41.75396915
 31
0.0
  0
LINE
  5
346
100
AcDbEntity
  8
LAYER0001
  6
CONTINUOUS
 62
       7
100
AcDbLine
 10
29.01978857
 20
-41.75396915
 30
0.0
 11
29.05412449
 21
-41.74400594
 31
0.0
  0
LINE
  5
347
100
AcDbEntity
  8
LAYER0001
  6
CONTINUOUS
 62
       7
100
AcDbLine
 10
29.05412449
 20
-41.74400594
 30
0.0
 11
29.08853087
 21
-41.73533675
 31
0.0
  0
LINE
  5
348
100
AcDbEntity
  8
LAYER0001
  6
CONTINUOUS
 62
       7
100
AcDbLine
 10
29.08853087
 20
-41.73533675
 30
0.0
 11
29.12299988
 21
-41.7278178
 31
0.0
  0
LINE
  5
349
100
AcDbEntity
  8
LAYER0001
  6
CONTINUOUS
 62
       7
100
AcDbLine
 10
29.12299988
 20
-41.7278178
 30
0.0
 11
29.15752369
 21
-41.72130531
 31
0.0
  0
LINE
  5
34A
100
AcDbEntity
  8
LAYER0001
  6
CONTINUOUS
 62
       7
100
AcDbLine
 10
29.15752369
 20
-41.72130531
 30
0.0
 11
29.19209447
 21
-41.71565549
 31
0.0
  0
LINE
  5
34B
100
AcDbEntity
  8
LAYER0001
  6
CONTINUOUS
 62
       7
100
AcDbLine
 10
29.19209447
 20
-41.71565549
 30
0.0
 11
29.22670439
 21
-41.71072457
 31
0.0
  0
LINE
  5
34C
100
AcDbEntity
  8
LAYER0001
  6
CONTINUOUS
 62
       7
100
AcDbLine
 10
29.22670439
 20
-41.71072457
 30
0.0
 11
29.26134562
 21
-41.70636877
 31
0.0
  0
LINE
  5
34D
100
AcDbEntity
  8
LAYER0001
  6
CONTINUOUS
 62
       7
100
AcDbLine
 10
29.26134562
 20
-41.70636877
 30
0.0
 11
29.29601035
 21
-41.70244431
 31
0.0
  0
LINE
  5
34E
100
AcDbEntity
  8
LAYER0001
  6
CONTINUOUS
 62
       7
100
AcDbLine
 10
29.29601035
 20
-41.70244431
 30
0.0
 11
29.33069072
 21
-41.6988074
 31
0.0
  0
LINE
  5
34F
100
AcDbEntity
  8
LAYER0001
  6
CONTINUOUS
 62
       7
100
AcDbLine
 10
29.33069072
 20
-41.6988074
 30
0.0
 11
29.36537893
 21
-41.69531428
 31
0.0
  0
ENDBLK
  5
350
100
AcDbEntity
  8
0
100
AcDbBlockEnd
  0
BLOCK
  5
351
100
AcDbEntity
  8
0
100
AcDbBlockBegin
  2
GROUP_20
 70
       0
 10
0.0
 20
0.0
 30
0.0
  3
GROUP_20
  1

  0
LINE
  5
352
100
AcDbEntity
  8
LAYER0001
  6
CONTINUOUS
 62
       7
100
AcDbLine
 10
29.36537893
 20
-72.29531445
 30
0.0
 11
29.33048707
 21
-72.29075421
 31
0.0
  0
LINE
  5
353
100
AcDbEntity
  8
LAYER0001
  6
CONTINUOUS
 62
       7
100
AcDbLine
 10
29.33048707
 20
-72.29075421
 30
0.0
 11
29.29560877
 21
-72.28608155
 31
0.0
  0
LINE
  5
354
100
AcDbEntity
  8
LAYER0001
  6
CONTINUOUS
 62
       7
100
AcDbLine
 10
29.29560877
 20
-72.28608155
 30
0.0
 11
29.26075761
 21
-72.28118402
 31
0.0
  0
LINE
  5
355
100
AcDbEntity
  8
LAYER0001
  6
CONTINUOUS
 62
       7
100
AcDbLine
 10
29.26075761
 20
-72.28118402
 30
0.0
 11
29.22594715
 21
-72.2759492
 31
0.0
  0
LINE
  5
356
100
AcDbEntity
  8
LAYER0001
  6
CONTINUOUS
 62
       7
100
AcDbLine
 10
29.22594715
 20
-72.2759492
 30
0.0
 11
29.19119095
 21
-72.27026466
 31
0.0
  0
LINE
  5
357
100
AcDbEntity
  8
LAYER0001
  6
CONTINUOUS
 62
       7
100
AcDbLine
 10
29.19119095
 20
-72.27026466
 30
0.0
 11
29.1565026
 21
-72.26401798
 31
0.0
  0
LINE
  5
358
100
AcDbEntity
  8
LAYER0001
  6
CONTINUOUS
 62
       7
100
AcDbLine
 10
29.1565026
 20
-72.26401798
 30
0.0
 11
29.12189565
 21
-72.25709671
 31
0.0
  0
LINE
  5
359
100
AcDbEntity
  8
LAYER0001
  6
CONTINUOUS
 62
       7
100
AcDbLine
 10
29.12189565
 20
-72.25709671
 30
0.0
 11
29.08738367
 21
-72.24938843
 31
0.0
  0
LINE
  5
35A
100
AcDbEntity
  8
LAYER0001
  6
CONTINUOUS
 62
       7
100
AcDbLine
 10
29.08738367
 20
-72.24938843
 30
0.0
 11
29.05298024
 21
-72.24078072
 31
0.0
  0
LINE
  5
35B
100
AcDbEntity
  8
LAYER0001
  6
CONTINUOUS
 62
       7
100
AcDbLine
 10
29.05298024
 20
-72.24078072
 30
0.0
 11
29.0186989
 21
-72.23116113
 31
0.0
  0
LINE
  5
35C
100
AcDbEntity
  8
LAYER0001
  6
CONTINUOUS
 62
       7
100
AcDbLine
 10
29.0186989
 20
-72.23116113
 30
0.0
 11
28.98455325
 21
-72.22041724
 31
0.0
  0
LINE
  5
35D
100
AcDbEntity
  8
LAYER0001
  6
CONTINUOUS
 62
       7
100
AcDbLine
 10
28.98455325
 20
-72.22041724
 30
0.0
 11
28.95055683
 21
-72.20843663
 31
0.0
  0
LINE
  5
35E
100
AcDbEntity
  8
LAYER0001
  6
CONTINUOUS
 62
       7
100
AcDbLine
 10
28.95055683
 20
-72.20843663
 30
0.0
 11
28.91672322
 21
-72.19510685
 31
0.0
  0
LINE
  5
35F
100
AcDbEntity
  8
LAYER0001
  6
CONTINUOUS
 62
       7
100
AcDbLine
 10
28.91672322
 20
-72.19510685
 30
0.0
 11
28.88306603
 21
-72.18031558
 31
0.0
  0
LINE
  5
360
100
AcDbEntity
  8
LAYER0001
  6
CONTINUOUS
 62
       7
100
AcDbLine
 10
28.88306603
 20
-72.18031558
 30
0.0
 11
28.84960999
 21
-72.1639854
 31
0.0
  0
LINE
  5
361
100
AcDbEntity
  8
LAYER0001
  6
CONTINUOUS
 62
       7
100
AcDbLine
 10
28.84960999
 20
-72.1639854
 30
0.0
 11
28.81640764
 21
-72.14612577
 31
0.0
  0
LINE
  5
362
100
AcDbEntity
  8
LAYER0001
  6
CONTINUOUS
 62
       7
100
AcDbLine
 10
28.81640764
 20
-72.14612577
 30
0.0
 11
28.78351573
 21
-72.12675936
 31
0.0
  0
LINE
  5
363
100
AcDbEntity
  8
LAYER0001
  6
CONTINUOUS
 62
       7
100
AcDbLine
 10
28.78351573
 20
-72.12675936
 30
0.0
 11
28.75099102
 21
-72.10590891
 31
0.0
  0
LINE
  5
364
100
AcDbEntity
  8
LAYER0001
  6
CONTINUOUS
 62
       7
100
AcDbLine
 10
28.75099102
 20
-72.10590891
 30
0.0
 11
28.71889025
 21
-72.08359709
 31
0.0
  0
LINE
  5
365
100
AcDbEntity
  8
LAYER0001
  6
CONTINUOUS
 62
       7
100
AcDbLine
 10
28.71889025
 20
-72.08359709
 30
0.0
 11
28.68727019
 21
-72.05984663
 31
0.0
  0
LINE
  5
366
100
AcDbEntity
  8
LAYER0001
  6
CONTINUOUS
 62
       7
100
AcDbLine
 10
28.68727019
 20
-72.05984663
 30
0.0
 11
28.65618759
 21
-72.03468023
 31
0.0
  0
LINE
  5
367
100
AcDbEntity
  8
LAYER0001
  6
CONTINUOUS
 62
       7
100
AcDbLine
 10
28.65618759
 20
-72.03468023
 30
0.0
 11
28.62569921
 21
-72.00812059
 31
0.0
  0
LINE
  5
368
100
AcDbEntity
  8
LAYER0001
  6
CONTINUOUS
 62
       7
100
AcDbLine
 10
28.62569921
 20
-72.00812059
 30
0.0
 11
28.5958618
 21
-71.98019041
 31
0.0
  0
LINE
  5
369
100
AcDbEntity
  8
LAYER0001
  6
CONTINUOUS
 62
       7
100
AcDbLine
 10
28.5958618
 20
-71.98019041
 30
0.0
 11
28.56673213
 21
-71.95091239
 31
0.0
  0
LINE
  5
36A
100
AcDbEntity
  8
LAYER0001
  6
CONTINUOUS
 62
       7
100
AcDbLine
 10
28.56673213
 20
-71.95091239
 30
0.0
 11
28.53837542
 21
-71.92029424
 31
0.0
  0
LINE
  5
36B
100
AcDbEntity
  8
LAYER0001
  6
CONTINUOUS
 62
       7
100
AcDbLine
 10
28.53837542
 20
-71.92029424
 30
0.0
 11
28.51088024
 21
-71.8883023
 31
0.0
  0
LINE
  5
36C
100
AcDbEntity
  8
LAYER0001
  6
CONTINUOUS
 62
       7
100
AcDbLine
 10
28.51088024
 20
-71.8883023
 30
0.0
 11
28.48433917
 21
-71.85489581
 31
0.0
  0
LINE
  5
36D
100
AcDbEntity
  8
LAYER0001
  6
CONTINUOUS
 62
       7
100
AcDbLine
 10
28.48433917
 20
-71.85489581
 30
0.0
 11
28.4588448
 21
-71.820034
 31
0.0
  0
LINE
  5
36E
100
AcDbEntity
  8
LAYER0001
  6
CONTINUOUS
 62
       7
100
AcDbLine
 10
28.4588448
 20
-71.820034
 30
0.0
 11
28.43448972
 21
-71.78367613
 31
0.0
  0
LINE
  5
36F
100
AcDbEntity
  8
LAYER0001
  6
CONTINUOUS
 62
       7
100
AcDbLine
 10
28.43448972
 20
-71.78367613
 30
0.0
 11
28.41136651
 21
-71.74578142
 31
0.0
  0
LINE
  5
370
100
AcDbEntity
  8
LAYER0001
  6
CONTINUOUS
 62
       7
100
AcDbLine
 10
28.41136651
 20
-71.74578142
 30
0.0
 11
28.38956849
 21
-71.7063096
 31
0.0
  0
LINE
  5
371
100
AcDbEntity
  8
LAYER0001
  6
CONTINUOUS
 62
       7
100
AcDbLine
 10
28.38956849
 20
-71.7063096
 30
0.0
 11
28.36926582
 21
-71.66527075
 31
0.0
  0
LINE
  5
372
100
AcDbEntity
  8
LAYER0001
  6
CONTINUOUS
 62
       7
100
AcDbLine
 10
28.36926582
 20
-71.66527075
 30
0.0
 11
28.35077152
 21
-71.62276865
 31
0.0
  0
LINE
  5
373
100
AcDbEntity
  8
LAYER0001
  6
CONTINUOUS
 62
       7
100
AcDbLine
 10
28.35077152
 20
-71.62276865
 30
0.0
 11
28.3344142
 21
-71.57891726
 31
0.0
  0
LINE
  5
374
100
AcDbEntity
  8
LAYER0001
  6
CONTINUOUS
 62
       7
100
AcDbLine
 10
28.3344142
 20
-71.57891726
 30
0.0
 11
28.32052246
 21
-71.53383054
 31
0.0
  0
LINE
  5
375
100
AcDbEntity
  8
LAYER0001
  6
CONTINUOUS
 62
       7
100
AcDbLine
 10
28.32052246
 20
-71.53383054
 30
0.0
 11
28.3094249
 21
-71.48762246
 31
0.0
  0
LINE
  5
376
100
AcDbEntity
  8
LAYER0001
  6
CONTINUOUS
 62
       7
100
AcDbLine
 10
28.3094249
 20
-71.48762246
 30
0.0
 11
28.30127368
 21
-71.44042892
 31
0.0
  0
LINE
  5
377
100
AcDbEntity
  8
LAYER0001
  6
CONTINUOUS
 62
       7
100
AcDbLine
 10
28.30127368
 20
-71.44042892
 30
0.0
 11
28.29547862
 21
-71.39247809
 31
0.0
  0
LINE
  5
378
100
AcDbEntity
  8
LAYER0001
  6
CONTINUOUS
 62
       7
100
AcDbLine
 10
28.29547862
 20
-71.39247809
 30
0.0
 11
28.29125433
 21
-71.34402241
 31
0.0
  0
LINE
  5
379
100
AcDbEntity
  8
LAYER0001
  6
CONTINUOUS
 62
       7
100
AcDbLine
 10
28.29125433
 20
-71.34402241
 30
0.0
 11
28.28781543
 21
-71.29531429
 31
0.0
  0
ENDBLK
  5
37A
100
AcDbEntity
  8
0
100
AcDbBlockEnd
  0
BLOCK
  5
37B
100
AcDbEntity
  8
0
100
AcDbBlockBegin
  2
GROUP_21
 70
       0
 10
0.0
 20
0.0
 30
0.0
  3
GROUP_21
  1

  0
LINE
  5
37C
100
AcDbEntity
  8
LAYER0001
  6
CONTINUOUS
 62
       7
100
AcDbLine
 10
-6.75263578
 20
-89.89531459
 30
0.0
 11
-6.79181775
 21
-89.89259749
 31
0.0
  0
LINE
  5
37D
100
AcDbEntity
  8
LAYER0001
  6
CONTINUOUS
 62
       7
100
AcDbLine
 10
-6.79181775
 20
-89.89259749
 30
0.0
 11
-6.83094339
 21
-89.88956271
 31
0.0
  0
LINE
  5
37E
100
AcDbEntity
  8
LAYER0001
  6
CONTINUOUS
 62
       7
100
AcDbLine
 10
-6.83094339
 20
-89.88956271
 30
0.0
 11
-6.86995636
 21
-89.88589259
 31
0.0
  0
LINE
  5
37F
100
AcDbEntity
  8
LAYER0001
  6
CONTINUOUS
 62
       7
100
AcDbLine
 10
-6.86995636
 20
-89.88589259
 30
0.0
 11
-6.90880034
 21
-89.88126946
 31
0.0
  0
LINE
  5
380
100
AcDbEntity
  8
LAYER0001
  6
CONTINUOUS
 62
       7
100
AcDbLine
 10
-6.90880034
 20
-89.88126946
 30
0.0
 11
-6.94741899
 21
-89.87537563
 31
0.0
  0
LINE
  5
381
100
AcDbEntity
  8
LAYER0001
  6
CONTINUOUS
 62
       7
100
AcDbLine
 10
-6.94741899
 20
-89.87537563
 30
0.0
 11
-6.98575597
 21
-89.86789374
 31
0.0
  0
LINE
  5
382
100
AcDbEntity
  8
LAYER0001
  6
CONTINUOUS
 62
       7
100
AcDbLine
 10
-6.98575597
 20
-89.86789374
 30
0.0
 11
-7.02375311
 21
-89.85860793
 31
0.0
  0
LINE
  5
383
100
AcDbEntity
  8
LAYER0001
  6
CONTINUOUS
 62
       7
100
AcDbLine
 10
-7.02375311
 20
-89.85860793
 30
0.0
 11
-7.06134767
 21
-89.84755375
 31
0.0
  0
LINE
  5
384
100
AcDbEntity
  8
LAYER0001
  6
CONTINUOUS
 62
       7
100
AcDbLine
 10
-7.06134767
 20
-89.84755375
 30
0.0
 11
-7.09847623
 21
-89.83480492
 31
0.0
  0
LINE
  5
385
100
AcDbEntity
  8
LAYER0001
  6
CONTINUOUS
 62
       7
100
AcDbLine
 10
-7.09847623
 20
-89.83480492
 30
0.0
 11
-7.13507536
 21
-89.82043517
 31
0.0
  0
LINE
  5
386
100
AcDbEntity
  8
LAYER0001
  6
CONTINUOUS
 62
       7
100
AcDbLine
 10
-7.13507536
 20
-89.82043517
 30
0.0
 11
-7.17108165
 21
-89.80451824
 31
0.0
  0
LINE
  5
387
100
AcDbEntity
  8
LAYER0001
  6
CONTINUOUS
 62
       7
100
AcDbLine
 10
-7.17108165
 20
-89.80451824
 30
0.0
 11
-7.20643166
 21
-89.78712786
 31
0.0
  0
LINE
  5
388
100
AcDbEntity
  8
LAYER0001
  6
CONTINUOUS
 62
       7
100
AcDbLine
 10
-7.20643166
 20
-89.78712786
 30
0.0
 11
-7.24106197
 21
-89.76833776
 31
0.0
  0
LINE
  5
389
100
AcDbEntity
  8
LAYER0001
  6
CONTINUOUS
 62
       7
100
AcDbLine
 10
-7.24106197
 20
-89.76833776
 30
0.0
 11
-7.27490916
 21
-89.74822168
 31
0.0
  0
LINE
  5
38A
100
AcDbEntity
  8
LAYER0001
  6
CONTINUOUS
 62
       7
100
AcDbLine
 10
-7.27490916
 20
-89.74822168
 30
0.0
 11
-7.30791068
 21
-89.72685222
 31
0.0
  0
LINE
  5
38B
100
AcDbEntity
  8
LAYER0001
  6
CONTINUOUS
 62
       7
100
AcDbLine
 10
-7.30791068
 20
-89.72685222
 30
0.0
 11
-7.34002213
 21
-89.70427875
 31
0.0
  0
LINE
  5
38C
100
AcDbEntity
  8
LAYER0001
  6
CONTINUOUS
 62
       7
100
AcDbLine
 10
-7.34002213
 20
-89.70427875
 30
0.0
 11
-7.37121621
 21
-89.68052877
 31
0.0
  0
LINE
  5
38D
100
AcDbEntity
  8
LAYER0001
  6
CONTINUOUS
 62
       7
100
AcDbLine
 10
-7.37121621
 20
-89.68052877
 30
0.0
 11
-7.40146628
 21
-89.65562889
 31
0.0
  0
LINE
  5
38E
100
AcDbEntity
  8
LAYER0001
  6
CONTINUOUS
 62
       7
100
AcDbLine
 10
-7.40146628
 20
-89.65562889
 30
0.0
 11
-7.43074569
 21
-89.62960575
 31
0.0
  0
LINE
  5
38F
100
AcDbEntity
  8
LAYER0001
  6
CONTINUOUS
 62
       7
100
AcDbLine
 10
-7.43074569
 20
-89.62960575
 30
0.0
 11
-7.45902781
 21
-89.60248599
 31
0.0
  0
LINE
  5
390
100
AcDbEntity
  8
LAYER0001
  6
CONTINUOUS
 62
       7
100
AcDbLine
 10
-7.45902781
 20
-89.60248599
 30
0.0
 11
-7.486286
 21
-89.57429623
 31
0.0
  0
LINE
  5
391
100
AcDbEntity
  8
LAYER0001
  6
CONTINUOUS
 62
       7
100
AcDbLine
 10
-7.486286
 20
-89.57429623
 30
0.0
 11
-7.51249361
 21
-89.5450631
 31
0.0
  0
LINE
  5
392
100
AcDbEntity
  8
LAYER0001
  6
CONTINUOUS
 62
       7
100
AcDbLine
 10
-7.51249361
 20
-89.5450631
 30
0.0
 11
-7.53762401
 21
-89.51481324
 31
0.0
  0
LINE
  5
393
100
AcDbEntity
  8
LAYER0001
  6
CONTINUOUS
 62
       7
100
AcDbLine
 10
-7.53762401
 20
-89.51481324
 30
0.0
 11
-7.56164055
 21
-89.48357776
 31
0.0
  0
LINE
  5
394
100
AcDbEntity
  8
LAYER0001
  6
CONTINUOUS
 62
       7
100
AcDbLine
 10
-7.56164055
 20
-89.48357776
 30
0.0
 11
-7.58446263
 21
-89.45140746
 31
0.0
  0
LINE
  5
395
100
AcDbEntity
  8
LAYER0001
  6
CONTINUOUS
 62
       7
100
AcDbLine
 10
-7.58446263
 20
-89.45140746
 30
0.0
 11
-7.60599763
 21
-89.41835853
 31
0.0
  0
LINE
  5
396
100
AcDbEntity
  8
LAYER0001
  6
CONTINUOUS
 62
       7
100
AcDbLine
 10
-7.60599763
 20
-89.41835853
 30
0.0
 11
-7.62615291
 21
-89.38448716
 31
0.0
  0
LINE
  5
397
100
AcDbEntity
  8
LAYER0001
  6
CONTINUOUS
 62
       7
100
AcDbLine
 10
-7.62615291
 20
-89.38448716
 30
0.0
 11
-7.64483583
 21
-89.34984954
 31
0.0
  0
LINE
  5
398
100
AcDbEntity
  8
LAYER0001
  6
CONTINUOUS
 62
       7
100
AcDbLine
 10
-7.64483583
 20
-89.34984954
 30
0.0
 11
-7.66195375
 21
-89.31450187
 31
0.0
  0
LINE
  5
399
100
AcDbEntity
  8
LAYER0001
  6
CONTINUOUS
 62
       7
100
AcDbLine
 10
-7.66195375
 20
-89.31450187
 30
0.0
 11
-7.67741405
 21
-89.27850034
 31
0.0
  0
LINE
  5
39A
100
AcDbEntity
  8
LAYER0001
  6
CONTINUOUS
 62
       7
100
AcDbLine
 10
-7.67741405
 20
-89.27850034
 30
0.0
 11
-7.69112408
 21
-89.24190115
 31
0.0
  0
LINE
  5
39B
100
AcDbEntity
  8
LAYER0001
  6
CONTINUOUS
 62
       7
100
AcDbLine
 10
-7.69112408
 20
-89.24190115
 30
0.0
 11
-7.70299746
 21
-89.20476056
 31
0.0
  0
LINE
  5
39C
100
AcDbEntity
  8
LAYER0001
  6
CONTINUOUS
 62
       7
100
AcDbLine
 10
-7.70299746
 20
-89.20476056
 30
0.0
 11
-7.7130972
 21
-89.16713685
 31
0.0
  0
LINE
  5
39D
100
AcDbEntity
  8
LAYER0001
  6
CONTINUOUS
 62
       7
100
AcDbLine
 10
-7.7130972
 20
-89.16713685
 30
0.0
 11
-7.72163897
 21
-89.12909033
 31
0.0
  0
LINE
  5
39E
100
AcDbEntity
  8
LAYER0001
  6
CONTINUOUS
 62
       7
100
AcDbLine
 10
-7.72163897
 20
-89.12909033
 30
0.0
 11
-7.72884533
 21
-89.0906814
 31
0.0
  0
LINE
  5
39F
100
AcDbEntity
  8
LAYER0001
  6
CONTINUOUS
 62
       7
100
AcDbLine
 10
-7.72884533
 20
-89.0906814
 30
0.0
 11
-7.73493886
 21
-89.05197046
 31
0.0
  0
LINE
  5
3A0
100
AcDbEntity
  8
LAYER0001
  6
CONTINUOUS
 62
       7
100
AcDbLine
 10
-7.73493886
 20
-89.05197046
 30
0.0
 11
-7.74014211
 21
-89.01301791
 31
0.0
  0
LINE
  5
3A1
100
AcDbEntity
  8
LAYER0001
  6
CONTINUOUS
 62
       7
100
AcDbLine
 10
-7.74014211
 20
-89.01301791
 30
0.0
 11
-7.74467767
 21
-88.97388416
 31
0.0
  0
LINE
  5
3A2
100
AcDbEntity
  8
LAYER0001
  6
CONTINUOUS
 62
       7
100
AcDbLine
 10
-7.74467767
 20
-88.97388416
 30
0.0
 11
-7.74876809
 21
-88.93462961
 31
0.0
  0
LINE
  5
3A3
100
AcDbEntity
  8
LAYER0001
  6
CONTINUOUS
 62
       7
100
AcDbLine
 10
-7.74876809
 20
-88.93462961
 30
0.0
 11
-7.75263595
 21
-88.89531466
 31
0.0
  0
ENDBLK
  5
3A4
100
AcDbEntity
  8
0
100
AcDbBlockEnd
  0
BLOCK
  5
3A5
100
AcDbEntity
  8
0
100
AcDbBlockBegin
  2
GROUP_22
 70
       0
 10
0.0
 20
0.0
 30
0.0
  3
GROUP_22
  1

  0
LINE
  5
3A6
100
AcDbEntity
  8
LAYER0001
  6
CONTINUOUS
 62
       7
100
AcDbLine
 10
-7.75263595
 20
-84.59531498
 30
0.0
 11
-7.74999285
 21
-84.55612097
 31
0.0
  0
LINE
  5
3A7
100
AcDbEntity
  8
LAYER0001
  6
CONTINUOUS
 62
       7
100
AcDbLine
 10
-7.74999285
 20
-84.55612097
 30
0.0
 11
-7.74702228
 21
-84.51698266
 31
0.0
  0
LINE
  5
3A8
100
AcDbEntity
  8
LAYER0001
  6
CONTINUOUS
 62
       7
100
AcDbLine
 10
-7.74702228
 20
-84.51698266
 30
0.0
 11
-7.74339678
 21
-84.47795575
 31
0.0
  0
LINE
  5
3A9
100
AcDbEntity
  8
LAYER0001
  6
CONTINUOUS
 62
       7
100
AcDbLine
 10
-7.74339678
 20
-84.47795575
 30
0.0
 11
-7.73878889
 21
-84.43909595
 31
0.0
  0
LINE
  5
3AA
100
AcDbEntity
  8
LAYER0001
  6
CONTINUOUS
 62
       7
100
AcDbLine
 10
-7.73878889
 20
-84.43909595
 30
0.0
 11
-7.73287113
 21
-84.40045896
 31
0.0
  0
LINE
  5
3AB
100
AcDbEntity
  8
LAYER0001
  6
CONTINUOUS
 62
       7
100
AcDbLine
 10
-7.73287113
 20
-84.40045896
 30
0.0
 11
-7.72531869
 21
-84.36210053
 31
0.0
  0
LINE
  5
3AC
100
AcDbEntity
  8
LAYER0001
  6
CONTINUOUS
 62
       7
100
AcDbLine
 10
-7.72531869
 20
-84.36210053
 30
0.0
 11
-7.7159569
 21
-84.32407972
 31
0.0
  0
LINE
  5
3AD
100
AcDbEntity
  8
LAYER0001
  6
CONTINUOUS
 62
       7
100
AcDbLine
 10
-7.7159569
 20
-84.32407972
 30
0.0
 11
-7.7048394
 21
-84.28646059
 31
0.0
  0
LINE
  5
3AE
100
AcDbEntity
  8
LAYER0001
  6
CONTINUOUS
 62
       7
100
AcDbLine
 10
-7.7048394
 20
-84.28646059
 30
0.0
 11
-7.69203894
 21
-84.24930762
 31
0.0
  0
LINE
  5
3AF
100
AcDbEntity
  8
LAYER0001
  6
CONTINUOUS
 62
       7
100
AcDbLine
 10
-7.69203894
 20
-84.24930762
 30
0.0
 11
-7.67762827
 21
-84.21268527
 31
0.0
  0
LINE
  5
3B0
100
AcDbEntity
  8
LAYER0001
  6
CONTINUOUS
 62
       7
100
AcDbLine
 10
-7.67762827
 20
-84.21268527
 30
0.0
 11
-7.66168016
 21
-84.17665804
 31
0.0
  0
LINE
  5
3B1
100
AcDbEntity
  8
LAYER0001
  6
CONTINUOUS
 62
       7
100
AcDbLine
 10
-7.66168016
 20
-84.17665804
 30
0.0
 11
-7.64426734
 21
-84.1412904
 31
0.0
  0
LINE
  5
3B2
100
AcDbEntity
  8
LAYER0001
  6
CONTINUOUS
 62
       7
100
AcDbLine
 10
-7.64426734
 20
-84.1412904
 30
0.0
 11
-7.62546257
 21
-84.10664682
 31
0.0
  0
LINE
  5
3B3
100
AcDbEntity
  8
LAYER0001
  6
CONTINUOUS
 62
       7
100
AcDbLine
 10
-7.62546257
 20
-84.10664682
 30
0.0
 11
-7.60533861
 21
-84.07279179
 31
0.0
  0
LINE
  5
3B4
100
AcDbEntity
  8
LAYER0001
  6
CONTINUOUS
 62
       7
100
AcDbLine
 10
-7.60533861
 20
-84.07279179
 30
0.0
 11
-7.58396557
 21
-84.0397876
 31
0.0
  0
LINE
  5
3B5
100
AcDbEntity
  8
LAYER0001
  6
CONTINUOUS
 62
       7
100
AcDbLine
 10
-7.58396557
 20
-84.0397876
 30
0.0
 11
-7.56138664
 21
-84.00767419
 31
0.0
  0
LINE
  5
3B6
100
AcDbEntity
  8
LAYER0001
  6
CONTINUOUS
 62
       7
100
AcDbLine
 10
-7.56138664
 20
-84.00767419
 30
0.0
 11
-7.53762925
 21
-83.97647844
 31
0.0
  0
LINE
  5
3B7
100
AcDbEntity
  8
LAYER0001
  6
CONTINUOUS
 62
       7
100
AcDbLine
 10
-7.53762925
 20
-83.97647844
 30
0.0
 11
-7.51272062
 21
-83.94622705
 31
0.0
  0
LINE
  5
3B8
100
AcDbEntity
  8
LAYER0001
  6
CONTINUOUS
 62
       7
100
AcDbLine
 10
-7.51272062
 20
-83.94622705
 30
0.0
 11
-7.48668797
 21
-83.91694675
 31
0.0
  0
LINE
  5
3B9
100
AcDbEntity
  8
LAYER0001
  6
CONTINUOUS
 62
       7
100
AcDbLine
 10
-7.48668797
 20
-83.91694675
 30
0.0
 11
-7.45955853
 21
-83.88866422
 31
0.0
  0
LINE
  5
3BA
100
AcDbEntity
  8
LAYER0001
  6
CONTINUOUS
 62
       7
100
AcDbLine
 10
-7.45955853
 20
-83.88866422
 30
0.0
 11
-7.43135953
 21
-83.86140618
 31
0.0
  0
LINE
  5
3BB
100
AcDbEntity
  8
LAYER0001
  6
CONTINUOUS
 62
       7
100
AcDbLine
 10
-7.43135953
 20
-83.86140618
 30
0.0
 11
-7.40211818
 21
-83.83519935
 31
0.0
  0
LINE
  5
3BC
100
AcDbEntity
  8
LAYER0001
  6
CONTINUOUS
 62
       7
100
AcDbLine
 10
-7.40211818
 20
-83.83519935
 30
0.0
 11
-7.37186173
 21
-83.81007043
 31
0.0
  0
LINE
  5
3BD
100
AcDbEntity
  8
LAYER0001
  6
CONTINUOUS
 62
       7
100
AcDbLine
 10
-7.37186173
 20
-83.81007043
 30
0.0
 11
-7.34062355
 21
-83.78606033
 31
0.0
  0
LINE
  5
3BE
100
AcDbEntity
  8
LAYER0001
  6
CONTINUOUS
 62
       7
100
AcDbLine
 10
-7.34062355
 20
-83.78606033
 30
0.0
 11
-7.30845569
 21
-83.76325283
 31
0.0
  0
LINE
  5
3BF
100
AcDbEntity
  8
LAYER0001
  6
CONTINUOUS
 62
       7
100
AcDbLine
 10
-7.30845569
 20
-83.76325283
 30
0.0
 11
-7.27541366
 21
-83.74173978
 31
0.0
  0
LINE
  5
3C0
100
AcDbEntity
  8
LAYER0001
  6
CONTINUOUS
 62
       7
100
AcDbLine
 10
-7.27541366
 20
-83.74173978
 30
0.0
 11
-7.24155299
 21
-83.72161299
 31
0.0
  0
LINE
  5
3C1
100
AcDbEntity
  8
LAYER0001
  6
CONTINUOUS
 62
       7
100
AcDbLine
 10
-7.24155299
 20
-83.72161299
 30
0.0
 11
-7.20692921
 21
-83.70296432
 31
0.0
  0
LINE
  5
3C2
100
AcDbEntity
  8
LAYER0001
  6
CONTINUOUS
 62
       7
100
AcDbLine
 10
-7.20692921
 20
-83.70296432
 30
0.0
 11
-7.17159784
 21
-83.68588558
 31
0.0
  0
LINE
  5
3C3
100
AcDbEntity
  8
LAYER0001
  6
CONTINUOUS
 62
       7
100
AcDbLine
 10
-7.17159784
 20
-83.68588558
 30
0.0
 11
-7.13561441
 21
-83.67046862
 31
0.0
  0
LINE
  5
3C4
100
AcDbEntity
  8
LAYER0001
  6
CONTINUOUS
 62
       7
100
AcDbLine
 10
-7.13561441
 20
-83.67046862
 30
0.0
 11
-7.09903444
 21
-83.65680528
 31
0.0
  0
LINE
  5
3C5
100
AcDbEntity
  8
LAYER0001
  6
CONTINUOUS
 62
       7
100
AcDbLine
 10
-7.09903444
 20
-83.65680528
 30
0.0
 11
-7.0619136
 21
-83.64497853
 31
0.0
  0
LINE
  5
3C6
100
AcDbEntity
  8
LAYER0001
  6
CONTINUOUS
 62
       7
100
AcDbLine
 10
-7.0619136
 20
-83.64497853
 30
0.0
 11
-7.02431002
 21
-83.63491137
 31
0.0
  0
LINE
  5
3C7
100
AcDbEntity
  8
LAYER0001
  6
CONTINUOUS
 62
       7
100
AcDbLine
 10
-7.02431002
 20
-83.63491137
 30
0.0
 11
-6.98628398
 21
-83.62638788
 31
0.0
  0
LINE
  5
3C8
100
AcDbEntity
  8
LAYER0001
  6
CONTINUOUS
 62
       7
100
AcDbLine
 10
-6.98628398
 20
-83.62638788
 30
0.0
 11
-6.94789584
 21
-83.61918755
 31
0.0
  0
LINE
  5
3C9
100
AcDbEntity
  8
LAYER0001
  6
CONTINUOUS
 62
       7
100
AcDbLine
 10
-6.94789584
 20
-83.61918755
 30
0.0
 11
-6.90920593
 21
-83.61308985
 31
0.0
  0
LINE
  5
3CA
100
AcDbEntity
  8
LAYER0001
  6
CONTINUOUS
 62
       7
100
AcDbLine
 10
-6.90920593
 20
-83.61308985
 30
0.0
 11
-6.87027463
 21
-83.60787425
 31
0.0
  0
LINE
  5
3CB
100
AcDbEntity
  8
LAYER0001
  6
CONTINUOUS
 62
       7
100
AcDbLine
 10
-6.87027463
 20
-83.60787425
 30
0.0
 11
-6.83116226
 21
-83.60332023
 31
0.0
  0
LINE
  5
3CC
100
AcDbEntity
  8
LAYER0001
  6
CONTINUOUS
 62
       7
100
AcDbLine
 10
-6.83116226
 20
-83.60332023
 30
0.0
 11
-6.7919292
 21
-83.59920726
 31
0.0
  0
LINE
  5
3CD
100
AcDbEntity
  8
LAYER0001
  6
CONTINUOUS
 62
       7
100
AcDbLine
 10
-6.7919292
 20
-83.59920726
 30
0.0
 11
-6.75263578
 21
-83.59531481
 31
0.0
  0
ENDBLK
  5
3CE
100
AcDbEntity
  8
0
100
AcDbBlockEnd
  0
BLOCK
  5
3CF
100
AcDbEntity
  8
0
100
AcDbBlockBegin
  2
GROUP_23
 70
       0
 10
0.0
 20
0.0
 30
0.0
  3
GROUP_23
  1

  0
LINE
  5
3D0
100
AcDbEntity
  8
LAYER0001
  6
CONTINUOUS
 62
       7
100
AcDbLine
 10
-0.17966524
 20
-87.69531453
 30
0.0
 11
-0.15741128
 21
-87.69570841
 31
0.0
  0
LINE
  5
3D1
100
AcDbEntity
  8
LAYER0001
  6
CONTINUOUS
 62
       7
100
AcDbLine
 10
-0.15741128
 20
-87.69570841
 30
0.0
 11
-0.1352005
 21
-87.69689348
 31
0.0
  0
LINE
  5
3D2
100
AcDbEntity
  8
LAYER0001
  6
CONTINUOUS
 62
       7
100
AcDbLine
 10
-0.1352005
 20
-87.69689348
 30
0.0
 11
-0.11303406
 21
-87.69887487
 31
0.0
  0
LINE
  5
3D3
100
AcDbEntity
  8
LAYER0001
  6
CONTINUOUS
 62
       7
100
AcDbLine
 10
-0.11303406
 20
-87.69887487
 30
0.0
 11
-0.0909131
 21
-87.70165773
 31
0.0
  0
LINE
  5
3D4
100
AcDbEntity
  8
LAYER0001
  6
CONTINUOUS
 62
       7
100
AcDbLine
 10
-0.0909131
 20
-87.70165773
 30
0.0
 11
-0.06883878
 21
-87.70524721
 31
0.0
  0
LINE
  5
3D5
100
AcDbEntity
  8
LAYER0001
  6
CONTINUOUS
 62
       7
100
AcDbLine
 10
-0.06883878
 20
-87.70524721
 30
0.0
 11
-0.04681224
 21
-87.70964845
 31
0.0
  0
LINE
  5
3D6
100
AcDbEntity
  8
LAYER0001
  6
CONTINUOUS
 62
       7
100
AcDbLine
 10
-0.04681224
 20
-87.70964845
 30
0.0
 11
-0.02483465
 21
-87.71486658
 31
0.0
  0
LINE
  5
3D7
100
AcDbEntity
  8
LAYER0001
  6
CONTINUOUS
 62
       7
100
AcDbLine
 10
-0.02483465
 20
-87.71486658
 30
0.0
 11
-0.00290714
 21
-87.72090676
 31
0.0
  0
LINE
  5
3D8
100
AcDbEntity
  8
LAYER0001
  6
CONTINUOUS
 62
       7
100
AcDbLine
 10
-0.00290714
 20
-87.72090676
 30
0.0
 11
0.01896913
 21
-87.72777412
 31
0.0
  0
LINE
  5
3D9
100
AcDbEntity
  8
LAYER0001
  6
CONTINUOUS
 62
       7
100
AcDbLine
 10
0.01896913
 20
-87.72777412
 30
0.0
 11
0.04079301
 21
-87.7354738
 31
0.0
  0
LINE
  5
3DA
100
AcDbEntity
  8
LAYER0001
  6
CONTINUOUS
 62
       7
100
AcDbLine
 10
0.04079301
 20
-87.7354738
 30
0.0
 11
0.06256334
 21
-87.74401095
 31
0.0
  0
LINE
  5
3DB
100
AcDbEntity
  8
LAYER0001
  6
CONTINUOUS
 62
       7
100
AcDbLine
 10
0.06256334
 20
-87.74401095
 30
0.0
 11
0.08427898
 21
-87.75339072
 31
0.0
  0
LINE
  5
3DC
100
AcDbEntity
  8
LAYER0001
  6
CONTINUOUS
 62
       7
100
AcDbLine
 10
0.08427898
 20
-87.75339072
 30
0.0
 11
0.10592963
 21
-87.76361723
 31
0.0
  0
LINE
  5
3DD
100
AcDbEntity
  8
LAYER0001
  6
CONTINUOUS
 62
       7
100
AcDbLine
 10
0.10592963
 20
-87.76361723
 30
0.0
 11
0.12745242
 21
-87.77468887
 31
0.0
  0
LINE
  5
3DE
100
AcDbEntity
  8
LAYER0001
  6
CONTINUOUS
 62
       7
100
AcDbLine
 10
0.12745242
 20
-87.77468887
 30
0.0
 11
0.14881955
 21
-87.7866081
 31
0.0
  0
LINE
  5
3DF
100
AcDbEntity
  8
LAYER0001
  6
CONTINUOUS
 62
       7
100
AcDbLine
 10
0.14881955
 20
-87.7866081
 30
0.0
 11
0.17001159
 21
-87.79937828
 31
0.0
  0
LINE
  5
3E0
100
AcDbEntity
  8
LAYER0001
  6
CONTINUOUS
 62
       7
100
AcDbLine
 10
0.17001159
 20
-87.79937828
 30
0.0
 11
0.19100913
 21
-87.8130028
 31
0.0
  0
LINE
  5
3E1
100
AcDbEntity
  8
LAYER0001
  6
CONTINUOUS
 62
       7
100
AcDbLine
 10
0.19100913
 20
-87.8130028
 30
0.0
 11
0.21179275
 21
-87.82748504
 31
0.0
  0
LINE
  5
3E2
100
AcDbEntity
  8
LAYER0001
  6
CONTINUOUS
 62
       7
100
AcDbLine
 10
0.21179275
 20
-87.82748504
 30
0.0
 11
0.23234301
 21
-87.84282837
 31
0.0
  0
LINE
  5
3E3
100
AcDbEntity
  8
LAYER0001
  6
CONTINUOUS
 62
       7
100
AcDbLine
 10
0.23234301
 20
-87.84282837
 30
0.0
 11
0.25264051
 21
-87.85903619
 31
0.0
  0
LINE
  5
3E4
100
AcDbEntity
  8
LAYER0001
  6
CONTINUOUS
 62
       7
100
AcDbLine
 10
0.25264051
 20
-87.85903619
 30
0.0
 11
0.27266583
 21
-87.87611186
 31
0.0
  0
LINE
  5
3E5
100
AcDbEntity
  8
LAYER0001
  6
CONTINUOUS
 62
       7
100
AcDbLine
 10
0.27266583
 20
-87.87611186
 30
0.0
 11
0.29239953
 21
-87.89405876
 31
0.0
  0
LINE
  5
3E6
100
AcDbEntity
  8
LAYER0001
  6
CONTINUOUS
 62
       7
100
AcDbLine
 10
0.29239953
 20
-87.89405876
 30
0.0
 11
0.31182221
 21
-87.91288028
 31
0.0
  0
LINE
  5
3E7
100
AcDbEntity
  8
LAYER0001
  6
CONTINUOUS
 62
       7
100
AcDbLine
 10
0.31182221
 20
-87.91288028
 30
0.0
 11
0.33091443
 21
-87.93257979
 31
0.0
  0
LINE
  5
3E8
100
AcDbEntity
  8
LAYER0001
  6
CONTINUOUS
 62
       7
100
AcDbLine
 10
0.33091443
 20
-87.93257979
 30
0.0
 11
0.34965678
 21
-87.95316067
 31
0.0
  0
LINE
  5
3E9
100
AcDbEntity
  8
LAYER0001
  6
CONTINUOUS
 62
       7
100
AcDbLine
 10
0.34965678
 20
-87.95316067
 30
0.0
 11
0.36800999
 21
-87.97461657
 31
0.0
  0
LINE
  5
3EA
100
AcDbEntity
  8
LAYER0001
  6
CONTINUOUS
 62
       7
100
AcDbLine
 10
0.36800999
 20
-87.97461657
 30
0.0
 11
0.38592872
 21
-87.99692752
 31
0.0
  0
LINE
  5
3EB
100
AcDbEntity
  8
LAYER0001
  6
CONTINUOUS
 62
       7
100
AcDbLine
 10
0.38592872
 20
-87.99692752
 30
0.0
 11
0.40338444
 21
-88.02007651
 31
0.0
  0
LINE
  5
3EC
100
AcDbEntity
  8
LAYER0001
  6
CONTINUOUS
 62
       7
100
AcDbLine
 10
0.40338444
 20
-88.02007651
 30
0.0
 11
0.4203486
 21
-88.04404654
 31
0.0
  0
LINE
  5
3ED
100
AcDbEntity
  8
LAYER0001
  6
CONTINUOUS
 62
       7
100
AcDbLine
 10
0.4203486
 20
-88.04404654
 30
0.0
 11
0.43679267
 21
-88.06882059
 31
0.0
  0
LINE
  5
3EE
100
AcDbEntity
  8
LAYER0001
  6
CONTINUOUS
 62
       7
100
AcDbLine
 10
0.43679267
 20
-88.06882059
 30
0.0
 11
0.45268813
 21
-88.09438165
 31
0.0
  0
LINE
  5
3EF
100
AcDbEntity
  8
LAYER0001
  6
CONTINUOUS
 62
       7
100
AcDbLine
 10
0.45268813
 20
-88.09438165
 30
0.0
 11
0.46800643
 21
-88.12071272
 31
0.0
  0
LINE
  5
3F0
100
AcDbEntity
  8
LAYER0001
  6
CONTINUOUS
 62
       7
100
AcDbLine
 10
0.46800643
 20
-88.12071272
 30
0.0
 11
0.48271903
 21
-88.14779679
 31
0.0
  0
LINE
  5
3F1
100
AcDbEntity
  8
LAYER0001
  6
CONTINUOUS
 62
       7
100
AcDbLine
 10
0.48271903
 20
-88.14779679
 30
0.0
 11
0.49679741
 21
-88.17561683
 31
0.0
  0
LINE
  5
3F2
100
AcDbEntity
  8
LAYER0001
  6
CONTINUOUS
 62
       7
100
AcDbLine
 10
0.49679741
 20
-88.17561683
 30
0.0
 11
0.51021303
 21
-88.20415586
 31
0.0
  0
LINE
  5
3F3
100
AcDbEntity
  8
LAYER0001
  6
CONTINUOUS
 62
       7
100
AcDbLine
 10
0.51021303
 20
-88.20415586
 30
0.0
 11
0.52293735
 21
-88.23339685
 31
0.0
  0
LINE
  5
3F4
100
AcDbEntity
  8
LAYER0001
  6
CONTINUOUS
 62
       7
100
AcDbLine
 10
0.52293735
 20
-88.23339685
 30
0.0
 11
0.53494184
 21
-88.26332279
 31
0.0
  0
LINE
  5
3F5
100
AcDbEntity
  8
LAYER0001
  6
CONTINUOUS
 62
       7
100
AcDbLine
 10
0.53494184
 20
-88.26332279
 30
0.0
 11
0.54619418
 21
-88.29390761
 31
0.0
  0
LINE
  5
3F6
100
AcDbEntity
  8
LAYER0001
  6
CONTINUOUS
 62
       7
100
AcDbLine
 10
0.54619418
 20
-88.29390761
 30
0.0
 11
0.55664743
 21
-88.32507271
 31
0.0
  0
LINE
  5
3F7
100
AcDbEntity
  8
LAYER0001
  6
CONTINUOUS
 62
       7
100
AcDbLine
 10
0.55664743
 20
-88.32507271
 30
0.0
 11
0.56628041
 21
-88.3567737
 31
0.0
  0
LINE
  5
3F8
100
AcDbEntity
  8
LAYER0001
  6
CONTINUOUS
 62
       7
100
AcDbLine
 10
0.56628041
 20
-88.3567737
 30
0.0
 11
0.57507622
 21
-88.38897449
 31
0.0
  0
LINE
  5
3F9
100
AcDbEntity
  8
LAYER0001
  6
CONTINUOUS
 62
       7
100
AcDbLine
 10
0.57507622
 20
-88.38897449
 30
0.0
 11
0.58301795
 21
-88.42163895
 31
0.0
  0
LINE
  5
3FA
100
AcDbEntity
  8
LAYER0001
  6
CONTINUOUS
 62
       7
100
AcDbLine
 10
0.58301795
 20
-88.42163895
 30
0.0
 11
0.59008868
 21
-88.454731
 31
0.0
  0
LINE
  5
3FB
100
AcDbEntity
  8
LAYER0001
  6
CONTINUOUS
 62
       7
100
AcDbLine
 10
0.59008868
 20
-88.454731
 30
0.0
 11
0.59627151
 21
-88.48821451
 31
0.0
  0
LINE
  5
3FC
100
AcDbEntity
  8
LAYER0001
  6
CONTINUOUS
 62
       7
100
AcDbLine
 10
0.59627151
 20
-88.48821451
 30
0.0
 11
0.60154953
 21
-88.52205339
 31
0.0
  0
LINE
  5
3FD
100
AcDbEntity
  8
LAYER0001
  6
CONTINUOUS
 62
       7
100
AcDbLine
 10
0.60154953
 20
-88.52205339
 30
0.0
 11
0.60590583
 21
-88.55621153
 31
0.0
  0
LINE
  5
3FE
100
AcDbEntity
  8
LAYER0001
  6
CONTINUOUS
 62
       7
100
AcDbLine
 10
0.60590583
 20
-88.55621153
 30
0.0
 11
0.60932349
 21
-88.59065282
 31
0.0
  0
LINE
  5
3FF
100
AcDbEntity
  8
LAYER0001
  6
CONTINUOUS
 62
       7
100
AcDbLine
 10
0.60932349
 20
-88.59065282
 30
0.0
 11
0.61178561
 21
-88.62534115
 31
0.0
  0
LINE
  5
400
100
AcDbEntity
  8
LAYER0001
  6
CONTINUOUS
 62
       7
100
AcDbLine
 10
0.61178561
 20
-88.62534115
 30
0.0
 11
0.61327529
 21
-88.66024043
 31
0.0
  0
LINE
  5
401
100
AcDbEntity
  8
LAYER0001
  6
CONTINUOUS
 62
       7
100
AcDbLine
 10
0.61327529
 20
-88.66024043
 30
0.0
 11
0.61377561
 21
-88.69531453
 31
0.0
  0
ENDBLK
  5
402
100
AcDbEntity
  8
0
100
AcDbBlockEnd
  0
ENDSEC
  0
SECTION
  2
ENTITIES
  0
LINE
  5
403
100
AcDbEntity
  8
LAYER0001
  6
CONTINUOUS
 62
       7
100
AcDbLine
 10
-131.91600012
 20
35.58310978
 30
0.0
 11
-131.91600125
 21
4.88311411
 31
0.0
  0
LINE
  5
404
100
AcDbEntity
  8
LAYER0001
  6
CONTINUOUS
 62
       7
100
AcDbLine
 10
-131.91600125
 20
4.88311411
 30
0.0
 11
-71.91600259
 21
4.88311411
 31
0.0
  0
LINE
  5
405
100
AcDbEntity
  8
LAYER0001
  6
CONTINUOUS
 62
       7
100
AcDbLine
 10
-131.91600012
 20
67.58311503
 30
0.0
 11
-131.91600125
 21
36.88311935
 31
0.0
  0
LINE
  5
406
100
AcDbEntity
  8
LAYER0001
  6
CONTINUOUS
 62
       7
100
AcDbLine
 10
-71.91600613
 20
132.88312019
 30
0.0
 11
-71.91600444
 21
163.58306313
 31
0.0
  0
LINE
  5
407
100
AcDbEntity
  8
LAYER0001
  6
CONTINUOUS
 62
       7
100
AcDbLine
 10
-131.91600012
 20
131.58311061
 30
0.0
 11
-71.91600371
 21
131.58311061
 31
0.0
  0
LINE
  5
408
100
AcDbEntity
  8
LAYER0001
  6
CONTINUOUS
 62
       7
100
AcDbLine
 10
-71.91600259
 20
3.58311445
 30
0.0
 11
-131.91600125
 21
3.58311445
 31
0.0
  0
LINE
  5
409
100
AcDbEntity
  8
LAYER0001
  6
CONTINUOUS
 62
       7
100
AcDbLine
 10
-131.91600125
 20
3.58311445
 30
0.0
 11
-131.91600192
 21
1.41588752
 31
0.0
  0
LINE
  5
40A
100
AcDbEntity
  8
LAYER0001
  6
CONTINUOUS
 62
       7
100
AcDbLine
 10
-131.91600012
 20
99.58312027
 30
0.0
 11
-131.91600125
 21
68.8831246
 31
0.0
  0
LINE
  5
40B
100
AcDbEntity
  8
LAYER0001
  6
CONTINUOUS
 62
       7
100
AcDbLine
 10
-131.91600365
 20
163.58310219
 30
0.0
 11
-71.91600444
 21
163.58306313
 31
0.0
  0
LINE
  5
40C
100
AcDbEntity
  8
LAYER0001
  6
CONTINUOUS
 62
       7
100
AcDbLine
 10
-131.91600125
 20
132.88312019
 30
0.0
 11
-71.91600613
 21
132.88312019
 31
0.0
  0
LINE
  5
40D
100
AcDbEntity
  8
LAYER0001
  6
CONTINUOUS
 62
       7
100
AcDbLine
 10
-71.91600437
 20
164.88311035
 30
0.0
 11
-71.916004
 21
171.53372529
 31
0.0
  0
LINE
  5
40E
100
AcDbEntity
  8
LAYER0001
  6
CONTINUOUS
 62
       7
100
AcDbLine
 10
-71.91600259
 20
4.88311411
 30
0.0
 11
-71.91600371
 21
35.58310978
 31
0.0
  0
LINE
  5
40F
100
AcDbEntity
  8
LAYER0001
  6
CONTINUOUS
 62
       7
100
AcDbLine
 10
-118.40638313
 20
-97.11688212
 30
0.0
 11
-118.40638313
 21
-97.81688233
 31
0.0
  0
LINE
  5
410
100
AcDbEntity
  8
LAYER0001
  6
CONTINUOUS
 62
       7
100
AcDbLine
 10
-111.40638291
 20
-97.81688233
 30
0.0
 11
-111.40638291
 21
-97.11688212
 31
0.0
  0
LINE
  5
411
100
AcDbEntity
  8
LAYER0001
  6
CONTINUOUS
 62
       7
100
AcDbLine
 10
-105.41600202
 20
-97.11688212
 30
0.0
 11
-105.41600202
 21
-97.81688233
 31
0.0
  0
LINE
  5
412
100
AcDbEntity
  8
LAYER0001
  6
CONTINUOUS
 62
       7
100
AcDbLine
 10
-98.41600181
 20
-97.81688233
 30
0.0
 11
-98.41600181
 21
-97.11688212
 31
0.0
  0
LINE
  5
413
100
AcDbEntity
  8
LAYER0001
  6
CONTINUOUS
 62
       7
100
AcDbLine
 10
-92.42562092
 20
-97.11688212
 30
0.0
 11
-92.42562092
 21
-97.81688233
 31
0.0
  0
LINE
  5
414
100
AcDbEntity
  8
LAYER0001
  6
CONTINUOUS
 62
       7
100
AcDbLine
 10
-85.42562071
 20
-97.81688233
 30
0.0
 11
-85.42562071
 21
-97.11688212
 31
0.0
  0
LINE
  5
415
100
AcDbEntity
  8
LAYER0001
  6
CONTINUOUS
 62
       7
100
AcDbLine
 10
-100.7408166
 20
-88.5168823
 30
0.0
 11
-100.7408166
 21
-84.21688262
 31
0.0
  0
LINE
  5
416
100
AcDbEntity
  8
LAYER0001
  6
CONTINUOUS
 62
       7
100
AcDbLine
 10
-103.09118723
 20
-84.21688262
 30
0.0
 11
-103.09118723
 21
-88.5168823
 31
0.0
  0
LINE
  5
417
100
AcDbEntity
  8
LAYER0001
  6
CONTINUOUS
 62
       7
100
AcDbLine
 10
-101.07411681
 20
-89.5134517
 30
0.0
 11
-101.11935697
 21
-89.51688223
 31
0.0
  0
LINE
  5
418
100
AcDbEntity
  8
LAYER0001
  6
CONTINUOUS
 62
       7
100
AcDbLine
 10
-102.75788702
 20
-83.22031345
 30
0.0
 11
-102.71264686
 21
-83.21688245
 31
0.0
  0
LINE
  5
419
100
AcDbEntity
  8
LAYER0001
  6
CONTINUOUS
 62
       7
100
AcDbLine
 10
-103.1448984
 20
-85.11688249
 30
0.0
 11
-103.1448984
 21
-85.51688227
 31
0.0
  0
LINE
  5
41A
100
AcDbEntity
  8
LAYER0001
  6
CONTINUOUS
 62
       7
100
AcDbLine
 10
-100.68710541
 20
-85.51688227
 30
0.0
 11
-100.68710541
 21
-85.11688249
 31
0.0
  0
LINE
  5
41B
100
AcDbEntity
  8
LAYER0001
  6
CONTINUOUS
 62
       7
100
AcDbLine
 10
-106.91600179
 20
-87.31688232
 30
0.0
 11
-106.91600192
 21
-89.01688232
 31
0.0
  0
LINE
  5
41C
100
AcDbEntity
  8
LAYER0001
  6
CONTINUOUS
 62
       7
100
AcDbLine
 10
-96.91600192
 20
-89.01688232
 30
0.0
 11
-96.91600204
 21
-87.3168823
 31
0.0
  0
LINE
  5
41D
100
AcDbEntity
  8
LAYER0001
  6
CONTINUOUS
 62
       7
100
AcDbLine
 10
-90.42562059
 20
-92.61688232
 30
0.0
 11
-90.42562059
 21
-97.11688212
 31
0.0
  0
LINE
  5
41E
100
AcDbEntity
  8
LAYER0001
  6
CONTINUOUS
 62
       7
100
AcDbLine
 10
-90.42562059
 20
-100.41688211
 30
0.0
 11
-90.42562059
 21
-101.41688227
 31
0.0
  0
LINE
  5
41F
100
AcDbEntity
  8
LAYER0001
  6
CONTINUOUS
 62
       7
100
AcDbLine
 10
-87.42562103
 20
-101.41688227
 30
0.0
 11
-87.42562103
 21
-100.41688211
 31
0.0
  0
LINE
  5
420
100
AcDbEntity
  8
LAYER0001
  6
CONTINUOUS
 62
       7
100
AcDbLine
 10
-87.42562103
 20
-97.11688212
 30
0.0
 11
-87.42562103
 21
-92.61688232
 31
0.0
  0
LINE
  5
421
100
AcDbEntity
  8
LAYER0001
  6
CONTINUOUS
 62
       7
100
AcDbLine
 10
-116.4063828
 20
-92.61688232
 30
0.0
 11
-116.4063828
 21
-97.11688212
 31
0.0
  0
LINE
  5
422
100
AcDbEntity
  8
LAYER0001
  6
CONTINUOUS
 62
       7
100
AcDbLine
 10
-116.4063828
 20
-100.41688211
 30
0.0
 11
-116.4063828
 21
-101.41688227
 31
0.0
  0
LINE
  5
423
100
AcDbEntity
  8
LAYER0001
  6
CONTINUOUS
 62
       7
100
AcDbLine
 10
-113.40638324
 20
-101.41688227
 30
0.0
 11
-113.40638324
 21
-100.41688211
 31
0.0
  0
LINE
  5
424
100
AcDbEntity
  8
LAYER0001
  6
CONTINUOUS
 62
       7
100
AcDbLine
 10
-113.40638324
 20
-97.11688212
 30
0.0
 11
-113.40638324
 21
-92.61688232
 31
0.0
  0
LINE
  5
425
100
AcDbEntity
  8
LAYER0001
  6
CONTINUOUS
 62
       7
100
AcDbLine
 10
-103.41600193
 20
-92.61688232
 30
0.0
 11
-103.41600193
 21
-97.11688212
 31
0.0
  0
LINE
  5
426
100
AcDbEntity
  8
LAYER0001
  6
CONTINUOUS
 62
       7
100
AcDbLine
 10
-103.41600193
 20
-100.41688211
 30
0.0
 11
-103.41600193
 21
-101.41688227
 31
0.0
  0
LINE
  5
427
100
AcDbEntity
  8
LAYER0001
  6
CONTINUOUS
 62
       7
100
AcDbLine
 10
-100.4160019
 20
-101.41688227
 30
0.0
 11
-100.4160019
 21
-100.41688211
 31
0.0
  0
LINE
  5
428
100
AcDbEntity
  8
LAYER0001
  6
CONTINUOUS
 62
       7
100
AcDbLine
 10
-100.4160019
 20
-97.11688212
 30
0.0
 11
-100.4160019
 21
-92.61688232
 31
0.0
  0
LINE
  5
429
100
AcDbEntity
  8
LAYER0001
  6
CONTINUOUS
 62
       7
100
AcDbLine
 10
-81.91600236
 20
-92.61688232
 30
0.0
 11
-81.91600236
 21
-17.64140236
 31
0.0
  0
LINE
  5
42A
100
AcDbEntity
  8
LAYER0001
  6
CONTINUOUS
 62
       7
100
AcDbLine
 10
-121.91600147
 20
-17.64140236
 30
0.0
 11
-121.91600147
 21
-92.61688232
 31
0.0
  0
LINE
  5
42B
100
AcDbEntity
  8
LAYER0001
  6
CONTINUOUS
 62
       7
100
AcDbLine
 10
-98.79280145
 20
-85.11688234
 30
0.0
 11
-98.79280145
 21
-87.31688233
 31
0.0
  0
LINE
  5
42C
100
AcDbEntity
  8
LAYER0001
  6
CONTINUOUS
 62
       7
100
AcDbLine
 10
-105.03920213
 20
-87.31688232
 30
0.0
 11
-105.03920213
 21
-85.11688233
 31
0.0
  0
LINE
  5
42D
100
AcDbEntity
  8
LAYER0001
  6
CONTINUOUS
 62
       7
100
AcDbLine
 10
-71.91600259
 20
36.88311935
 30
0.0
 11
-71.91600371
 21
67.58311503
 31
0.0
  0
LINE
  5
42E
100
AcDbEntity
  8
LAYER0001
  6
CONTINUOUS
 62
       7
100
AcDbLine
 10
-131.91600012
 20
67.58311503
 30
0.0
 11
-71.91600371
 21
67.58311503
 31
0.0
  0
LINE
  5
42F
100
AcDbEntity
  8
LAYER0001
  6
CONTINUOUS
 62
       7
100
AcDbLine
 10
-131.91600012
 20
131.58311061
 30
0.0
 11
-131.91600125
 21
100.88311494
 31
0.0
  0
LINE
  5
430
100
AcDbEntity
  8
LAYER0001
  6
CONTINUOUS
 62
       7
100
AcDbLine
 10
-131.91600125
 20
100.88311494
 30
0.0
 11
-71.91600259
 21
100.88311494
 31
0.0
  0
LINE
  5
431
100
AcDbEntity
  8
LAYER0001
  6
CONTINUOUS
 62
       7
100
AcDbLine
 10
-131.91600012
 20
35.58310978
 30
0.0
 11
-71.91600371
 21
35.58310978
 31
0.0
  0
LINE
  5
432
100
AcDbEntity
  8
LAYER0001
  6
CONTINUOUS
 62
       7
100
AcDbLine
 10
-71.91600192
 20
1.41588752
 30
0.0
 11
-71.91600259
 21
3.58311445
 31
0.0
  0
LINE
  5
433
100
AcDbEntity
  8
LAYER0001
  6
CONTINUOUS
 62
       7
100
AcDbLine
 10
-71.91600259
 20
68.8831246
 30
0.0
 11
-71.91600371
 21
99.58312027
 31
0.0
  0
LINE
  5
434
100
AcDbEntity
  8
LAYER0001
  6
CONTINUOUS
 62
       7
100
AcDbLine
 10
-131.91600125
 20
36.88311935
 30
0.0
 11
-71.91600259
 21
36.88311935
 31
0.0
  0
LINE
  5
435
100
AcDbEntity
  8
LAYER0001
  6
CONTINUOUS
 62
       7
100
AcDbLine
 10
-131.91599983
 20
171.53372583
 30
0.0
 11
-131.91600303
 21
164.88312836
 31
0.0
  0
LINE
  5
436
100
AcDbEntity
  8
LAYER0001
  6
CONTINUOUS
 62
       7
100
AcDbLine
 10
-131.91600365
 20
163.58310219
 30
0.0
 11
-131.91601841
 21
132.88312019
 31
0.0
  0
LINE
  5
437
100
AcDbEntity
  8
LAYER0001
  6
CONTINUOUS
 62
       7
100
AcDbLine
 10
-131.91600125
 20
68.8831246
 30
0.0
 11
-71.91600259
 21
68.8831246
 31
0.0
  0
LINE
  5
438
100
AcDbEntity
  8
LAYER0001
  6
CONTINUOUS
 62
       7
100
AcDbLine
 10
-131.91600012
 20
99.58312027
 30
0.0
 11
-71.91600371
 21
99.58312027
 31
0.0
  0
LINE
  5
439
100
AcDbEntity
  8
LAYER0001
  6
CONTINUOUS
 62
       7
100
AcDbLine
 10
-71.91600437
 20
164.88311035
 30
0.0
 11
-131.91600303
 21
164.88312836
 31
0.0
  0
LINE
  5
43A
100
AcDbEntity
  8
LAYER0001
  6
CONTINUOUS
 62
       7
100
AcDbLine
 10
-93.88853292
 20
175.1681628
 30
0.0
 11
-109.94347091
 21
175.1681628
 31
0.0
  0
LINE
  5
43B
100
AcDbEntity
  8
LAYER0001
  6
CONTINUOUS
 62
       7
100
AcDbLine
 10
-71.91600259
 20
100.88311494
 30
0.0
 11
-71.91600371
 21
131.58311061
 31
0.0
  0
LINE
  5
43C
100
AcDbEntity
  8
LAYER0001
  6
CONTINUOUS
 62
       7
100
AcDbLine
 10
-114.90638255
 20
-97.11688212
 30
0.0
 11
-118.40638313
 21
-97.11688212
 31
0.0
  0
LINE
  5
43D
100
AcDbEntity
  8
LAYER0001
  6
CONTINUOUS
 62
       7
100
AcDbLine
 10
-111.40638291
 20
-97.11688212
 30
0.0
 11
-114.90638255
 21
-97.11688212
 31
0.0
  0
LINE
  5
43E
100
AcDbEntity
  8
LAYER0001
  6
CONTINUOUS
 62
       7
100
AcDbLine
 10
-114.90638255
 20
-97.81688233
 30
0.0
 11
-118.40638313
 21
-97.81688233
 31
0.0
  0
LINE
  5
43F
100
AcDbEntity
  8
LAYER0001
  6
CONTINUOUS
 62
       7
100
AcDbLine
 10
-111.40638291
 20
-97.81688233
 30
0.0
 11
-114.90638255
 21
-97.81688233
 31
0.0
  0
LINE
  5
440
100
AcDbEntity
  8
LAYER0001
  6
CONTINUOUS
 62
       7
100
AcDbLine
 10
-114.90638255
 20
-100.17126208
 30
0.0
 11
-114.90638255
 21
-97.81688233
 31
0.0
  0
LINE
  5
441
100
AcDbEntity
  8
LAYER0001
  6
CONTINUOUS
 62
       7
100
AcDbLine
 10
-112.15638257
 20
-100.17126208
 30
0.0
 11
-112.15638257
 21
-97.81688233
 31
0.0
  0
LINE
  5
442
100
AcDbEntity
  8
LAYER0001
  6
CONTINUOUS
 62
       7
100
AcDbLine
 10
-112.15638257
 20
-100.17126208
 30
0.0
 11
-113.53138256
 21
-100.41688211
 31
0.0
  0
LINE
  5
443
100
AcDbEntity
  8
LAYER0001
  6
CONTINUOUS
 62
       7
100
AcDbLine
 10
-117.65638347
 20
-100.17126208
 30
0.0
 11
-117.65638347
 21
-97.81688233
 31
0.0
  0
LINE
  5
444
100
AcDbEntity
  8
LAYER0001
  6
CONTINUOUS
 62
       7
100
AcDbLine
 10
-114.90638255
 20
-100.17126208
 30
0.0
 11
-116.28138255
 21
-100.41688211
 31
0.0
  0
LINE
  5
445
100
AcDbEntity
  8
LAYER0001
  6
CONTINUOUS
 62
       7
100
AcDbLine
 10
-113.53138256
 20
-100.41688211
 30
0.0
 11
-116.28138255
 21
-100.41688211
 31
0.0
  0
LINE
  5
446
100
AcDbEntity
  8
LAYER0001
  6
CONTINUOUS
 62
       7
100
AcDbLine
 10
-112.15638257
 20
-100.41688211
 30
0.0
 11
-113.53138256
 21
-100.41688211
 31
0.0
  0
LINE
  5
447
100
AcDbEntity
  8
LAYER0001
  6
CONTINUOUS
 62
       7
100
AcDbLine
 10
-116.28138255
 20
-100.41688211
 30
0.0
 11
-117.65638347
 21
-100.41688211
 31
0.0
  0
LINE
  5
448
100
AcDbEntity
  8
LAYER0001
  6
CONTINUOUS
 62
       7
100
AcDbLine
 10
-101.91600192
 20
-97.11688212
 30
0.0
 11
-105.41600202
 21
-97.11688212
 31
0.0
  0
LINE
  5
449
100
AcDbEntity
  8
LAYER0001
  6
CONTINUOUS
 62
       7
100
AcDbLine
 10
-98.41600181
 20
-97.11688212
 30
0.0
 11
-101.91600192
 21
-97.11688212
 31
0.0
  0
LINE
  5
44A
100
AcDbEntity
  8
LAYER0001
  6
CONTINUOUS
 62
       7
100
AcDbLine
 10
-101.91600192
 20
-97.81688233
 30
0.0
 11
-105.41600202
 21
-97.81688233
 31
0.0
  0
LINE
  5
44B
100
AcDbEntity
  8
LAYER0001
  6
CONTINUOUS
 62
       7
100
AcDbLine
 10
-98.41600181
 20
-97.81688233
 30
0.0
 11
-101.91600192
 21
-97.81688233
 31
0.0
  0
LINE
  5
44C
100
AcDbEntity
  8
LAYER0001
  6
CONTINUOUS
 62
       7
100
AcDbLine
 10
-104.6660019
 20
-100.17126208
 30
0.0
 11
-104.6660019
 21
-97.81688233
 31
0.0
  0
LINE
  5
44D
100
AcDbEntity
  8
LAYER0001
  6
CONTINUOUS
 62
       7
100
AcDbLine
 10
-101.91600192
 20
-100.17126208
 30
0.0
 11
-101.91600192
 21
-97.81688233
 31
0.0
  0
LINE
  5
44E
100
AcDbEntity
  8
LAYER0001
  6
CONTINUOUS
 62
       7
100
AcDbLine
 10
-101.91600192
 20
-100.17126208
 30
0.0
 11
-103.29100191
 21
-100.41688211
 31
0.0
  0
LINE
  5
44F
100
AcDbEntity
  8
LAYER0001
  6
CONTINUOUS
 62
       7
100
AcDbLine
 10
-99.16600193
 20
-100.17126208
 30
0.0
 11
-99.16600193
 21
-97.81688233
 31
0.0
  0
LINE
  5
450
100
AcDbEntity
  8
LAYER0001
  6
CONTINUOUS
 62
       7
100
AcDbLine
 10
-99.16600193
 20
-100.17126208
 30
0.0
 11
-100.54100192
 21
-100.41688211
 31
0.0
  0
LINE
  5
451
100
AcDbEntity
  8
LAYER0001
  6
CONTINUOUS
 62
       7
100
AcDbLine
 10
-100.54100192
 20
-100.41688211
 30
0.0
 11
-103.29100191
 21
-100.41688211
 31
0.0
  0
LINE
  5
452
100
AcDbEntity
  8
LAYER0001
  6
CONTINUOUS
 62
       7
100
AcDbLine
 10
-99.16600193
 20
-100.41688211
 30
0.0
 11
-100.54100192
 21
-100.41688211
 31
0.0
  0
LINE
  5
453
100
AcDbEntity
  8
LAYER0001
  6
CONTINUOUS
 62
       7
100
AcDbLine
 10
-103.29100191
 20
-100.41688211
 30
0.0
 11
-104.6660019
 21
-100.41688211
 31
0.0
  0
LINE
  5
454
100
AcDbEntity
  8
LAYER0001
  6
CONTINUOUS
 62
       7
100
AcDbLine
 10
-88.92562128
 20
-97.81688233
 30
0.0
 11
-92.42562092
 21
-97.81688233
 31
0.0
  0
LINE
  5
455
100
AcDbEntity
  8
LAYER0001
  6
CONTINUOUS
 62
       7
100
AcDbLine
 10
-85.42562071
 20
-97.81688233
 30
0.0
 11
-88.92562128
 21
-97.81688233
 31
0.0
  0
LINE
  5
456
100
AcDbEntity
  8
LAYER0001
  6
CONTINUOUS
 62
       7
100
AcDbLine
 10
-88.92562128
 20
-97.11688212
 30
0.0
 11
-92.42562092
 21
-97.11688212
 31
0.0
  0
LINE
  5
457
100
AcDbEntity
  8
LAYER0001
  6
CONTINUOUS
 62
       7
100
AcDbLine
 10
-85.42562071
 20
-97.11688212
 30
0.0
 11
-88.92562128
 21
-97.11688212
 31
0.0
  0
LINE
  5
458
100
AcDbEntity
  8
LAYER0001
  6
CONTINUOUS
 62
       7
100
AcDbLine
 10
-88.92562128
 20
-100.17126208
 30
0.0
 11
-88.92562128
 21
-97.81688233
 31
0.0
  0
LINE
  5
459
100
AcDbEntity
  8
LAYER0001
  6
CONTINUOUS
 62
       7
100
AcDbLine
 10
-86.17562036
 20
-100.17126208
 30
0.0
 11
-86.17562036
 21
-97.81688233
 31
0.0
  0
LINE
  5
45A
100
AcDbEntity
  8
LAYER0001
  6
CONTINUOUS
 62
       7
100
AcDbLine
 10
-86.17562036
 20
-100.17126208
 30
0.0
 11
-87.55062129
 21
-100.41688211
 31
0.0
  0
LINE
  5
45B
100
AcDbEntity
  8
LAYER0001
  6
CONTINUOUS
 62
       7
100
AcDbLine
 10
-91.67562126
 20
-100.17126208
 30
0.0
 11
-91.67562126
 21
-97.81688233
 31
0.0
  0
LINE
  5
45C
100
AcDbEntity
  8
LAYER0001
  6
CONTINUOUS
 62
       7
100
AcDbLine
 10
-88.92562128
 20
-100.17126208
 30
0.0
 11
-90.30062127
 21
-100.41688211
 31
0.0
  0
LINE
  5
45D
100
AcDbEntity
  8
LAYER0001
  6
CONTINUOUS
 62
       7
100
AcDbLine
 10
-87.55062129
 20
-100.41688211
 30
0.0
 11
-90.30062127
 21
-100.41688211
 31
0.0
  0
LINE
  5
45E
100
AcDbEntity
  8
LAYER0001
  6
CONTINUOUS
 62
       7
100
AcDbLine
 10
-86.17562036
 20
-100.41688211
 30
0.0
 11
-87.55062129
 21
-100.41688211
 31
0.0
  0
LINE
  5
45F
100
AcDbEntity
  8
LAYER0001
  6
CONTINUOUS
 62
       7
100
AcDbLine
 10
-90.30062127
 20
-100.41688211
 30
0.0
 11
-91.67562126
 21
-100.41688211
 31
0.0
  0
LINE
  5
460
100
AcDbEntity
  8
LAYER0001
  6
CONTINUOUS
 62
       7
100
AcDbLine
 10
-102.71547556
 20
-83.21688248
 30
0.0
 11
-101.11652823
 21
-83.21688248
 31
0.0
  0
LINE
  5
461
100
AcDbEntity
  8
LAYER0001
  6
CONTINUOUS
 62
       7
100
AcDbLine
 10
-101.11652825
 20
-89.51688232
 30
0.0
 11
-102.71547558
 21
-89.51688232
 31
0.0
  0
LINE
  5
462
100
AcDbEntity
  8
LAYER0001
  6
CONTINUOUS
 62
       7
100
AcDbLine
 10
-102.71547558
 20
-89.51688232
 30
0.0
 11
-103.66827626
 21
-89.51688232
 31
0.0
  0
LINE
  5
463
100
AcDbEntity
  8
LAYER0001
  6
CONTINUOUS
 62
       7
100
AcDbLine
 10
-100.16372757
 20
-89.51688232
 30
0.0
 11
-101.11652825
 21
-89.51688232
 31
0.0
  0
LINE
  5
464
100
AcDbEntity
  8
LAYER0001
  6
CONTINUOUS
 62
       7
100
AcDbLine
 10
-100.68710541
 20
-85.51688227
 30
0.0
 11
-99.86939169
 21
-85.51688227
 31
0.0
  0
LINE
  5
465
100
AcDbEntity
  8
LAYER0001
  6
CONTINUOUS
 62
       7
100
AcDbLine
 10
-103.96261213
 20
-85.51688227
 30
0.0
 11
-103.1448984
 21
-85.51688227
 31
0.0
  0
LINE
  5
466
100
AcDbEntity
  8
LAYER0001
  6
CONTINUOUS
 62
       7
100
AcDbLine
 10
-103.66827626
 20
-89.51688232
 30
0.0
 11
-106.41600192
 21
-89.51688232
 31
0.0
  0
LINE
  5
467
100
AcDbEntity
  8
LAYER0001
  6
CONTINUOUS
 62
       7
100
AcDbLine
 10
-97.41600192
 20
-89.51688232
 30
0.0
 11
-100.16372757
 21
-89.51688232
 31
0.0
  0
LINE
  5
468
100
AcDbEntity
  8
LAYER0001
  6
CONTINUOUS
 62
       7
100
AcDbLine
 10
-99.86939169
 20
-85.51688227
 30
0.0
 11
-98.79280165
 21
-85.51688227
 31
0.0
  0
LINE
  5
469
100
AcDbEntity
  8
LAYER0001
  6
CONTINUOUS
 62
       7
100
AcDbLine
 10
-105.03920217
 20
-85.51688227
 30
0.0
 11
-103.96261213
 21
-85.51688227
 31
0.0
  0
LINE
  5
46A
100
AcDbEntity
  8
LAYER0001
  6
CONTINUOUS
 62
       7
100
AcDbLine
 10
-90.42562059
 20
-101.41688227
 30
0.0
 11
-87.42562103
 21
-101.41688227
 31
0.0
  0
LINE
  5
46B
100
AcDbEntity
  8
LAYER0001
  6
CONTINUOUS
 62
       7
100
AcDbLine
 10
-116.4063828
 20
-101.41688227
 30
0.0
 11
-113.40638324
 21
-101.41688227
 31
0.0
  0
LINE
  5
46C
100
AcDbEntity
  8
LAYER0001
  6
CONTINUOUS
 62
       7
100
AcDbLine
 10
-103.41600193
 20
-101.41688227
 30
0.0
 11
-100.4160019
 21
-101.41688227
 31
0.0
  0
LINE
  5
46D
100
AcDbEntity
  8
LAYER0001
  6
CONTINUOUS
 62
       7
100
AcDbLine
 10
-121.91600147
 20
-92.61688232
 30
0.0
 11
-81.91600236
 21
-92.61688232
 31
0.0
  0
LINE
  5
46E
100
AcDbEntity
  8
LAYER0001
  6
CONTINUOUS
 62
       7
100
AcDbLine
 10
-88.26560042
 20
-88.31688217
 30
0.0
 11
-88.26560042
 21
-92.61688232
 31
0.0
  0
LINE
  5
46F
100
AcDbEntity
  8
LAYER0001
  6
CONTINUOUS
 62
       7
100
AcDbLine
 10
-98.32089937
 20
-87.31688233
 30
0.0
 11
-89.16814219
 21
-87.31688217
 31
0.0
  0
LINE
  5
470
100
AcDbEntity
  8
LAYER0001
  6
CONTINUOUS
 62
       7
100
AcDbLine
 10
-98.79280145
 20
-85.11688234
 30
0.0
 11
-100.68710541
 21
-85.11688249
 31
0.0
  0
LINE
  5
471
100
AcDbEntity
  8
LAYER0001
  6
CONTINUOUS
 62
       7
100
AcDbLine
 10
-103.1448984
 20
-85.11688249
 30
0.0
 11
-105.03920213
 21
-85.11688233
 31
0.0
  0
LINE
  5
472
100
AcDbEntity
  8
LAYER0001
  6
CONTINUOUS
 62
       7
100
AcDbLine
 10
-114.66386145
 20
-87.31688232
 30
0.0
 11
-105.51110421
 21
-87.31688232
 31
0.0
  0
LINE
  5
473
100
AcDbEntity
  8
LAYER0001
  6
CONTINUOUS
 62
       7
100
AcDbLine
 10
-115.56640321
 20
-88.31688232
 30
0.0
 11
-115.56640341
 21
-92.61688232
 31
0.0
  0
LINE
  5
474
100
AcDbEntity
  8
LAYER0001
  6
CONTINUOUS
 62
       7
100
AcDbLine
 10
-98.32089937
 20
-87.31688233
 30
0.0
 11
-98.79280145
 21
-87.31688233
 31
0.0
  0
LINE
  5
475
100
AcDbEntity
  8
LAYER0001
  6
CONTINUOUS
 62
       7
100
AcDbLine
 10
-105.03920213
 20
-87.31688232
 30
0.0
 11
-105.51110421
 21
-87.31688232
 31
0.0
  0
LINE
  5
476
100
AcDbEntity
  8
LAYER0001
  6
CONTINUOUS
 62
       7
100
AcDbLine
 10
35.03111241
 20
-72.29531445
 30
0.0
 11
35.03111241
 21
-41.69531428
 31
0.0
  0
LINE
  5
477
100
AcDbEntity
  8
LAYER0001
  6
CONTINUOUS
 62
       7
100
AcDbLine
 10
-4.76888703
 20
-18.01983472
 30
0.0
 11
-4.76888703
 21
-87.6953147
 31
0.0
  0
LINE
  5
478
100
AcDbEntity
  8
LAYER0001
  6
CONTINUOUS
 62
       7
100
AcDbLine
 10
35.23111207
 20
-41.69531428
 30
0.0
 11
35.23111207
 21
-18.01983472
 31
0.0
  0
LINE
  5
479
100
AcDbEntity
  8
LAYER0001
  6
CONTINUOUS
 62
       7
100
AcDbLine
 10
35.23111207
 20
-92.99531468
 30
0.0
 11
35.23111207
 21
-72.29531445
 31
0.0
  0
LINE
  5
47A
100
AcDbEntity
  8
LAYER0001
  6
CONTINUOUS
 62
       7
100
AcDbLine
 10
6.23111291
 20
-92.99531468
 30
0.0
 11
6.23111291
 21
-101.79531463
 31
0.0
  0
LINE
  5
47B
100
AcDbEntity
  8
LAYER0001
  6
CONTINUOUS
 62
       7
100
AcDbLine
 10
9.23111247
 20
-101.79531463
 30
0.0
 11
9.23111247
 21
-92.99531468
 31
0.0
  0
LINE
  5
47C
100
AcDbEntity
  8
LAYER0001
  6
CONTINUOUS
 62
       7
100
AcDbLine
 10
28.73111287
 20
-92.99531468
 30
0.0
 11
28.73111287
 21
-101.79531463
 31
0.0
  0
LINE
  5
47D
100
AcDbEntity
  8
LAYER0001
  6
CONTINUOUS
 62
       7
100
AcDbLine
 10
31.73111243
 20
-101.79531463
 30
0.0
 11
31.73111243
 21
-92.99531468
 31
0.0
  0
LINE
  5
47E
100
AcDbEntity
  8
LAYER0001
  6
CONTINUOUS
 62
       7
100
AcDbLine
 10
-0.38907906
 20
-87.69531483
 30
0.0
 11
-0.38907906
 21
-92.99531468
 31
0.0
  0
LINE
  5
47F
100
AcDbEntity
  8
LAYER0001
  6
CONTINUOUS
 62
       7
100
AcDbLine
 10
-14.76888569
 20
35.20467742
 30
0.0
 11
-14.76888681
 21
4.50468175
 31
0.0
  0
LINE
  5
480
100
AcDbEntity
  8
LAYER0001
  6
CONTINUOUS
 62
       7
100
AcDbLine
 10
29.36537893
 20
-41.69531428
 30
0.0
 11
35.23111207
 21
-41.69531428
 31
0.0
  0
LINE
  5
481
100
AcDbEntity
  8
LAYER0001
  6
CONTINUOUS
 62
       7
100
AcDbLine
 10
28.28781543
 20
-71.29531429
 30
0.0
 11
28.28781543
 21
-42.69531631
 31
0.0
  0
LINE
  5
482
100
AcDbEntity
  8
LAYER0001
  6
CONTINUOUS
 62
       7
100
AcDbLine
 10
29.36537893
 20
-72.29531445
 30
0.0
 11
35.23111207
 21
-72.29531445
 31
0.0
  0
LINE
  5
483
100
AcDbEntity
  8
LAYER0001
  6
CONTINUOUS
 62
       7
100
AcDbLine
 10
-0.38907906
 20
-89.89531459
 30
0.0
 11
-3.71370787
 21
-89.89531459
 31
0.0
  0
LINE
  5
484
100
AcDbEntity
  8
LAYER0001
  6
CONTINUOUS
 62
       7
100
AcDbLine
 10
-3.71370787
 20
-89.89531459
 30
0.0
 11
-6.75263578
 21
-89.89531459
 31
0.0
  0
LINE
  5
485
100
AcDbEntity
  8
LAYER0001
  6
CONTINUOUS
 62
       7
100
AcDbLine
 10
-6.75263578
 20
-83.59531481
 30
0.0
 11
-4.76888703
 21
-83.5953146
 31
0.0
  0
LINE
  5
486
100
AcDbEntity
  8
LAYER0001
  6
CONTINUOUS
 62
       7
100
AcDbLine
 10
-7.75263595
 20
-88.89531466
 30
0.0
 11
-7.75263595
 21
-84.59531498
 31
0.0
  0
LINE
  5
487
100
AcDbEntity
  8
LAYER0001
  6
CONTINUOUS
 62
       7
100
AcDbLine
 10
7.73111269
 20
-101.79531463
 30
0.0
 11
9.23111247
 21
-101.79531463
 31
0.0
  0
LINE
  5
488
100
AcDbEntity
  8
LAYER0001
  6
CONTINUOUS
 62
       7
100
AcDbLine
 10
6.23111291
 20
-101.79531463
 30
0.0
 11
7.73111269
 21
-101.79531463
 31
0.0
  0
LINE
  5
489
100
AcDbEntity
  8
LAYER0001
  6
CONTINUOUS
 62
       7
100
AcDbLine
 10
28.73111287
 20
-101.79531463
 30
0.0
 11
31.73111243
 21
-101.79531463
 31
0.0
  0
LINE
  5
48A
100
AcDbEntity
  8
LAYER0001
  6
CONTINUOUS
 62
       7
100
AcDbLine
 10
0.61377561
 20
-92.99531468
 30
0.0
 11
35.23111207
 21
-92.99531468
 31
0.0
  0
LINE
  5
48B
100
AcDbEntity
  8
LAYER0001
  6
CONTINUOUS
 62
       7
100
AcDbLine
 10
0.61377561
 20
-88.69531453
 30
0.0
 11
0.61377561
 21
-92.99531468
 31
0.0
  0
LINE
  5
48C
100
AcDbEntity
  8
LAYER0001
  6
CONTINUOUS
 62
       7
100
AcDbLine
 10
-4.76888703
 20
-87.6953147
 30
0.0
 11
-0.17966524
 21
-87.69531453
 31
0.0
  0
LINE
  5
48D
100
AcDbEntity
  8
LAYER0001
  6
CONTINUOUS
 62
       7
100
AcDbLine
 10
-0.20131232
 20
-92.99531468
 30
0.0
 11
0.61377561
 21
-92.99531468
 31
0.0
  0
LINE
  5
48E
100
AcDbEntity
  8
LAYER0001
  6
CONTINUOUS
 62
       7
100
AcDbLine
 10
-0.38907906
 20
-92.99531468
 30
0.0
 11
-0.20131232
 21
-92.99531468
 31
0.0
  0
LINE
  5
48F
100
AcDbEntity
  8
LAYER0001
  6
CONTINUOUS
 62
       7
100
AcDbLine
 10
-4.44311578
 20
-87.69531469
 30
0.0
 11
-4.44963131
 21
-87.69531469
 31
0.0
  0
LINE
  5
490
100
AcDbEntity
  8
LAYER0001
  6
CONTINUOUS
 62
       7
100
AcDbLine
 10
-103.31600169
 20
-148.55432995
 30
0.0
 11
-100.51600174
 21
-148.55432995
 31
0.0
  0
LINE
  5
491
100
AcDbEntity
  8
LAYER0001
  6
CONTINUOUS
 62
       7
100
AcDbLine
 10
-105.91600215
 20
-151.35433011
 30
0.0
 11
-97.91600177
 21
-151.35433011
 31
0.0
  0
LINE
  5
492
100
AcDbEntity
  8
LAYER0001
  6
CONTINUOUS
 62
       7
100
AcDbLine
 10
-107.91600197
 20
-157.5002283
 30
0.0
 11
-107.91600197
 21
-153.35433012
 31
0.0
  0
LINE
  5
493
100
AcDbEntity
  8
LAYER0001
  6
CONTINUOUS
 62
       7
100
AcDbLine
 10
-97.89093902
 20
-161.85432995
 30
0.0
 11
-105.94106484
 21
-161.85433017
 31
0.0
  0
LINE
  5
494
100
AcDbEntity
  8
LAYER0001
  6
CONTINUOUS
 62
       7
100
AcDbLine
 10
-95.91600192
 20
-153.35433016
 30
0.0
 11
-95.91600192
 21
-157.50022818
 31
0.0
  0
LINE
  5
495
100
AcDbEntity
  8
LAYER0001
  6
CONTINUOUS
 62
       7
100
AcDbLine
 10
-103.08628015
 20
-129.22463181
 30
0.0
 11
-103.08628015
 21
-132.19321508
 31
0.0
  0
LINE
  5
496
100
AcDbEntity
  8
LAYER0001
  6
CONTINUOUS
 62
       7
100
AcDbLine
 10
-100.74572713
 20
-129.22463181
 30
0.0
 11
-100.74572713
 21
-132.19321506
 31
0.0
  0
LINE
  5
497
100
AcDbEntity
  8
LAYER0001
  6
CONTINUOUS
 62
       7
100
AcDbLine
 10
-102.79118894
 20
-128.87058392
 30
0.0
 11
-101.04081834
 21
-128.87058392
 31
0.0
  0
LINE
  5
498
100
AcDbEntity
  8
LAYER0001
  6
CONTINUOUS
 62
       7
100
AcDbLine
 10
-92.54668552
 20
-139.85433003
 30
0.0
 11
-89.91600189
 21
-139.85433015
 31
0.0
  0
LINE
  5
499
100
AcDbEntity
  8
LAYER0001
  6
CONTINUOUS
 62
       7
100
AcDbLine
 10
-113.91600189
 20
-139.85433015
 30
0.0
 11
-111.28531778
 21
-139.85433003
 31
0.0
  0
LINE
  5
49A
100
AcDbEntity
  8
LAYER0001
  6
CONTINUOUS
 62
       7
100
AcDbLine
 10
-14.76888681
 20
4.50468175
 30
0.0
 11
45.23111185
 21
4.50468175
 31
0.0
  0
LINE
  5
49B
100
AcDbEntity
  8
LAYER0001
  6
CONTINUOUS
 62
       7
100
AcDbLine
 10
-14.76888569
 20
67.20468267
 30
0.0
 11
-14.76888681
 21
36.50468699
 31
0.0
  0
LINE
  5
49C
100
AcDbEntity
  8
LAYER0001
  6
CONTINUOUS
 62
       7
100
AcDbLine
 10
45.23110831
 20
132.50468783
 30
0.0
 11
45.23111
 21
163.20463077
 31
0.0
  0
LINE
  5
49D
100
AcDbEntity
  8
LAYER0001
  6
CONTINUOUS
 62
       7
100
AcDbLine
 10
-14.76888569
 20
131.20467825
 30
0.0
 11
45.23111072
 21
131.20467825
 31
0.0
  0
LINE
  5
49E
100
AcDbEntity
  8
LAYER0001
  6
CONTINUOUS
 62
       7
100
AcDbLine
 10
45.23111185
 20
3.20468209
 30
0.0
 11
-14.76888681
 21
3.20468209
 31
0.0
  0
LINE
  5
49F
100
AcDbEntity
  8
LAYER0001
  6
CONTINUOUS
 62
       7
100
AcDbLine
 10
-14.76888681
 20
3.20468209
 30
0.0
 11
-14.76888748
 21
1.03745516
 31
0.0
  0
LINE
  5
4A0
100
AcDbEntity
  8
LAYER0001
  6
CONTINUOUS
 62
       7
100
AcDbLine
 10
-14.76888569
 20
99.20468791
 30
0.0
 11
-14.76888681
 21
68.50469224
 31
0.0
  0
LINE
  5
4A1
100
AcDbEntity
  8
LAYER0001
  6
CONTINUOUS
 62
       7
100
AcDbLine
 10
-14.76888922
 20
163.20466983
 30
0.0
 11
45.23111
 21
163.20463077
 31
0.0
  0
LINE
  5
4A2
100
AcDbEntity
  8
LAYER0001
  6
CONTINUOUS
 62
       7
100
AcDbLine
 10
-14.76888681
 20
132.50468783
 30
0.0
 11
45.23110831
 21
132.50468783
 31
0.0
  0
LINE
  5
4A3
100
AcDbEntity
  8
LAYER0001
  6
CONTINUOUS
 62
       7
100
AcDbLine
 10
45.23111007
 20
164.50467799
 30
0.0
 11
45.23111043
 21
171.15529293
 31
0.0
  0
LINE
  5
4A4
100
AcDbEntity
  8
LAYER0001
  6
CONTINUOUS
 62
       7
100
AcDbLine
 10
45.23111185
 20
4.50468175
 30
0.0
 11
45.23111072
 21
35.20467742
 31
0.0
  0
LINE
  5
4A5
100
AcDbEntity
  8
LAYER0001
  6
CONTINUOUS
 62
       7
100
AcDbLine
 10
45.23111185
 20
36.50468699
 30
0.0
 11
45.23111072
 21
67.20468267
 31
0.0
  0
LINE
  5
4A6
100
AcDbEntity
  8
LAYER0001
  6
CONTINUOUS
 62
       7
100
AcDbLine
 10
-14.76888569
 20
67.20468267
 30
0.0
 11
45.23111072
 21
67.20468267
 31
0.0
  0
LINE
  5
4A7
100
AcDbEntity
  8
LAYER0001
  6
CONTINUOUS
 62
       7
100
AcDbLine
 10
-14.76888569
 20
131.20467825
 30
0.0
 11
-14.76888681
 21
100.50468258
 31
0.0
  0
LINE
  5
4A8
100
AcDbEntity
  8
LAYER0001
  6
CONTINUOUS
 62
       7
100
AcDbLine
 10
-14.76888681
 20
100.50468258
 30
0.0
 11
45.23111185
 21
100.50468258
 31
0.0
  0
LINE
  5
4A9
100
AcDbEntity
  8
LAYER0001
  6
CONTINUOUS
 62
       7
100
AcDbLine
 10
-14.76888569
 20
35.20467742
 30
0.0
 11
45.23111072
 21
35.20467742
 31
0.0
  0
LINE
  5
4AA
100
AcDbEntity
  8
LAYER0001
  6
CONTINUOUS
 62
       7
100
AcDbLine
 10
45.23111252
 20
1.03745516
 30
0.0
 11
45.23111185
 21
3.20468209
 31
0.0
  0
LINE
  5
4AB
100
AcDbEntity
  8
LAYER0001
  6
CONTINUOUS
 62
       7
100
AcDbLine
 10
45.23111185
 20
68.50469224
 30
0.0
 11
45.23111072
 21
99.20468791
 31
0.0
  0
LINE
  5
4AC
100
AcDbEntity
  8
LAYER0001
  6
CONTINUOUS
 62
       7
100
AcDbLine
 10
-14.76888681
 20
36.50468699
 30
0.0
 11
45.23111185
 21
36.50468699
 31
0.0
  0
LINE
  5
4AD
100
AcDbEntity
  8
LAYER0001
  6
CONTINUOUS
 62
       7
100
AcDbLine
 10
-14.76888539
 20
171.15529347
 30
0.0
 11
-14.76888859
 21
164.504696
 31
0.0
  0
LINE
  5
4AE
100
AcDbEntity
  8
LAYER0001
  6
CONTINUOUS
 62
       7
100
AcDbLine
 10
-14.76888922
 20
163.20466983
 30
0.0
 11
-14.76890398
 21
132.50468783
 31
0.0
  0
LINE
  5
4AF
100
AcDbEntity
  8
LAYER0001
  6
CONTINUOUS
 62
       7
100
AcDbLine
 10
-14.76888681
 20
68.50469224
 30
0.0
 11
45.23111185
 21
68.50469224
 31
0.0
  0
LINE
  5
4B0
100
AcDbEntity
  8
LAYER0001
  6
CONTINUOUS
 62
       7
100
AcDbLine
 10
-14.76888569
 20
99.20468791
 30
0.0
 11
45.23111072
 21
99.20468791
 31
0.0
  0
LINE
  5
4B1
100
AcDbEntity
  8
LAYER0001
  6
CONTINUOUS
 62
       7
100
AcDbLine
 10
45.23111007
 20
164.50467799
 30
0.0
 11
-14.76888859
 21
164.504696
 31
0.0
  0
LINE
  5
4B2
100
AcDbEntity
  8
LAYER0001
  6
CONTINUOUS
 62
       7
100
AcDbLine
 10
23.25858151
 20
174.78973044
 30
0.0
 11
7.20364352
 21
174.78973044
 31
0.0
  0
LINE
  5
4B3
100
AcDbEntity
  8
LAYER0001
  6
CONTINUOUS
 62
       7
100
AcDbLine
 10
45.23111185
 20
100.50468258
 30
0.0
 11
45.23111072
 21
131.20467825
 31
0.0
  0
ARC
  5
4B4
100
AcDbEntity
  8
LAYER0001
  6
CONTINUOUS
 62
       7
100
AcDbCircle
 10
-101.91600192
 20
25.38311768
 30
0.0
 40
150.0
100
AcDbArc
 50
87.4731145
 51
92.5268855
  0
ARC
  5
4B5
100
AcDbEntity
  8
LAYER0001
  6
CONTINUOUS
 62
       7
100
AcDbCircle
 10
-101.91600192
 20
25.38311768
 30
0.0
 40
150.0
100
AcDbArc
 50
93.06773282
 51
101.22316018
  0
ARC
  5
4B6
100
AcDbEntity
  8
LAYER0001
  6
CONTINUOUS
 62
       7
100
AcDbCircle
 10
-73.66600192
 20
68.23312293
 30
0.0
 40
0.75
100
AcDbArc
 50
299.92643487
 51
420.07356513
  0
ARC
  5
4B7
100
AcDbEntity
  8
LAYER0001
  6
CONTINUOUS
 62
       7
100
AcDbCircle
 10
-130.16600192
 20
164.23312376
 30
0.0
 40
0.75
100
AcDbArc
 50
119.92643487
 51
240.07356513
  0
ARC
  5
4B8
100
AcDbEntity
  8
LAYER0001
  6
CONTINUOUS
 62
       7
100
AcDbCircle
 10
-130.16600192
 20
132.23311852
 30
0.0
 40
0.75
100
AcDbArc
 50
119.92643487
 51
240.07356513
  0
ARC
  5
4B9
100
AcDbEntity
  8
LAYER0001
  6
CONTINUOUS
 62
       7
100
AcDbCircle
 10
-73.66600192
 20
4.23311768
 30
0.0
 40
0.75
100
AcDbArc
 50
299.92643487
 51
420.07356513
  0
ARC
  5
4BA
100
AcDbEntity
  8
LAYER0001
  6
CONTINUOUS
 62
       7
100
AcDbCircle
 10
-95.31600192
 20
174.93755593
 30
0.0
 40
0.3
100
AcDbArc
 50
50.2363587
 51
87.47311452
  0
ARC
  5
4BB
100
AcDbEntity
  8
LAYER0001
  6
CONTINUOUS
 62
       7
100
AcDbCircle
 10
-130.16600192
 20
68.23312293
 30
0.0
 40
0.75
100
AcDbArc
 50
119.92643487
 51
240.07356513
  0
ARC
  5
4BC
100
AcDbEntity
  8
LAYER0001
  6
CONTINUOUS
 62
       7
100
AcDbCircle
 10
-61.42514716
 20
-17.02914982
 30
0.0
 40
20.5
100
AcDbArc
 50
123.02731871
 51
181.71144896
  0
ARC
  5
4BD
100
AcDbEntity
  8
LAYER0001
  6
CONTINUOUS
 62
       7
100
AcDbCircle
 10
-130.91599983
 20
171.53372535
 30
0.0
 40
1.0
100
AcDbArc
 50
101.22316019
 51
179.99997245
  0
ARC
  5
4BE
100
AcDbEntity
  8
LAYER0001
  6
CONTINUOUS
 62
       7
100
AcDbCircle
 10
-73.66600192
 20
100.23312817
 30
0.0
 40
0.75
100
AcDbArc
 50
299.92643487
 51
420.07356513
  0
ARC
  5
4BF
100
AcDbEntity
  8
LAYER0001
  6
CONTINUOUS
 62
       7
100
AcDbCircle
 10
-73.66600192
 20
164.23312376
 30
0.0
 40
0.75
100
AcDbArc
 50
299.92643487
 51
420.07356513
  0
ARC
  5
4C0
100
AcDbEntity
  8
LAYER0001
  6
CONTINUOUS
 62
       7
100
AcDbCircle
 10
-73.66600192
 20
36.23311768
 30
0.0
 40
0.75
100
AcDbArc
 50
299.92643487
 51
420.07356513
  0
ARC
  5
4C1
100
AcDbEntity
  8
LAYER0001
  6
CONTINUOUS
 62
       7
100
AcDbCircle
 10
-130.16600192
 20
4.23311768
 30
0.0
 40
0.75
100
AcDbArc
 50
119.92643487
 51
240.07356513
  0
ARC
  5
4C2
100
AcDbEntity
  8
LAYER0001
  6
CONTINUOUS
 62
       7
100
AcDbCircle
 10
-108.51600192
 20
174.93755593
 30
0.0
 40
0.3
100
AcDbArc
 50
92.52688548
 51
129.7636413
  0
ARC
  5
4C3
100
AcDbEntity
  8
LAYER0001
  6
CONTINUOUS
 62
       7
100
AcDbCircle
 10
-97.41600192
 20
-89.01688232
 30
0.0
 40
0.5
100
AcDbArc
 50
270.0
 51
360.0
  0
ARC
  5
4C4
100
AcDbEntity
  8
LAYER0001
  6
CONTINUOUS
 62
       7
100
AcDbCircle
 10
-106.41600192
 20
-89.01688232
 30
0.0
 40
0.5
100
AcDbArc
 50
180.0
 51
270.0
  0
ARC
  5
4C5
100
AcDbEntity
  8
LAYER0001
  6
CONTINUOUS
 62
       7
100
AcDbCircle
 10
-101.91600192
 20
25.38311768
 30
0.0
 40
150.0
100
AcDbArc
 50
78.77683982
 51
86.93226718
  0
ARC
  5
4C6
100
AcDbEntity
  8
LAYER0001
  6
CONTINUOUS
 62
       7
100
AcDbCircle
 10
-73.66600192
 20
132.23311852
 30
0.0
 40
0.75
100
AcDbArc
 50
299.92643487
 51
420.07356513
  0
ARC
  5
4C7
100
AcDbEntity
  8
LAYER0001
  6
CONTINUOUS
 62
       7
100
AcDbCircle
 10
-130.16600192
 20
100.23312817
 30
0.0
 40
0.75
100
AcDbArc
 50
119.92643487
 51
240.07356513
  0
ARC
  5
4C8
100
AcDbEntity
  8
LAYER0001
  6
CONTINUOUS
 62
       7
100
AcDbCircle
 10
-73.41600192
 20
1.41588752
 30
0.0
 40
1.5
100
AcDbArc
 50
303.02731871
 51
360.0
  0
ARC
  5
4C9
100
AcDbEntity
  8
LAYER0001
  6
CONTINUOUS
 62
       7
100
AcDbCircle
 10
-105.91600196
 20
-153.35433012
 30
0.0
 40
2.00000001
100
AcDbArc
 50
90.00000544
 51
180.0
  0
ARC
  5
4CA
100
AcDbEntity
  8
LAYER0001
  6
CONTINUOUS
 62
       7
100
AcDbCircle
 10
-110.91600196
 20
-160.85433018
 30
0.0
 40
4.49999993
100
AcDbArc
 50
354.26082952
 51
408.18968444
  0
ARC
  5
4CB
100
AcDbEntity
  8
LAYER0001
  6
CONTINUOUS
 62
       7
100
AcDbCircle
 10
-105.94106484
 20
-161.35433017
 30
0.0
 40
0.5
100
AcDbArc
 50
174.26082953
 51
270.0
  0
ARC
  5
4CC
100
AcDbEntity
  8
LAYER0001
  6
CONTINUOUS
 62
       7
100
AcDbCircle
 10
-97.89093922
 20
-161.35433006
 30
0.0
 40
0.49999989
100
AcDbArc
 50
270.00002261
 51
365.73917048
  0
ARC
  5
4CD
100
AcDbEntity
  8
LAYER0001
  6
CONTINUOUS
 62
       7
100
AcDbCircle
 10
-92.91600212
 20
-160.85433033
 30
0.0
 40
4.5
100
AcDbArc
 50
131.81031154
 51
185.73916717
  0
ARC
  5
4CE
100
AcDbEntity
  8
LAYER0001
  6
CONTINUOUS
 62
       7
100
AcDbCircle
 10
-97.91600196
 20
-153.35433015
 30
0.0
 40
2.00000004
100
AcDbArc
 50
359.99999962
 51
449.99999456
  0
ARC
  5
4CF
100
AcDbEntity
  8
LAYER0001
  6
CONTINUOUS
 62
       7
100
AcDbCircle
 10
-103.31600169
 20
-140.55433001
 30
0.0
 40
7.99999993
100
AcDbArc
 50
174.98019998
 51
270.0
  0
ARC
  5
4D0
100
AcDbEntity
  8
LAYER0001
  6
CONTINUOUS
 62
       7
100
AcDbCircle
 10
-100.51600169
 20
-140.55432994
 30
0.0
 40
8.00000001
100
AcDbArc
 50
269.99999964
 51
365.01979942
  0
ARC
  5
4D1
100
AcDbEntity
  8
LAYER0001
  6
CONTINUOUS
 62
       7
100
AcDbCircle
 10
-101.91600361
 20
-137.05433149
 30
0.0
 40
5.0
100
AcDbArc
 50
103.53594299
 51
436.46405774
  0
ARC
  5
4D2
100
AcDbEntity
  8
LAYER0001
  6
CONTINUOUS
 62
       7
100
AcDbCircle
 10
-101.04081835
 20
-129.17058392
 30
0.0
 40
0.3
100
AcDbArc
 50
349.62094182
 51
449.99999794
  0
ARC
  5
4D3
100
AcDbEntity
  8
LAYER0001
  6
CONTINUOUS
 62
       7
100
AcDbCircle
 10
-102.79118893
 20
-129.17058392
 30
0.0
 40
0.3
100
AcDbArc
 50
90.00000206
 51
190.37905817
  0
CIRCLE
  5
4D4
100
AcDbEntity
  8
LAYER0001
  6
CONTINUOUS
 62
       7
100
AcDbCircle
 10
-88.92562086
 20
-144.35433012
 30
0.0
 40
1.5
  0
CIRCLE
  5
4D5
100
AcDbEntity
  8
LAYER0001
  6
CONTINUOUS
 62
       7
100
AcDbCircle
 10
-114.90638297
 20
-144.35433012
 30
0.0
 40
1.5
  0
CIRCLE
  5
4D6
100
AcDbEntity
  8
LAYER0001
  6
CONTINUOUS
 62
       7
100
AcDbCircle
 10
-101.91600192
 20
-166.85433012
 30
0.0
 40
1.5
  0
ARC
  5
4D7
100
AcDbEntity
  8
LAYER0001
  6
CONTINUOUS
 62
       7
100
AcDbCircle
 10
-113.91600189
 20
-142.85433015
 30
0.0
 40
3.0
100
AcDbArc
 50
90.0
 51
143.13010235
  0
ARC
  5
4D8
100
AcDbEntity
  8
LAYER0001
  6
CONTINUOUS
 62
       7
100
AcDbCircle
 10
-101.91600189
 20
-151.85433015
 30
0.0
 40
18.0
100
AcDbArc
 50
143.13010235
 51
396.86989765
  0
ARC
  5
4D9
100
AcDbEntity
  8
LAYER0001
  6
CONTINUOUS
 62
       7
100
AcDbCircle
 10
-89.91600189
 20
-142.85433015
 30
0.0
 40
3.0
100
AcDbArc
 50
36.86989765
 51
90.0
  0
ARC
  5
4DA
100
AcDbEntity
  8
LAYER0001
  6
CONTINUOUS
 62
       7
100
AcDbCircle
 10
-101.91600189
 20
-151.85433015
 30
0.0
 40
20.00000002
100
AcDbArc
 50
93.35451634
 51
446.64549367
  0
ARC
  5
4DB
100
AcDbEntity
  8
LAYER0001
  6
CONTINUOUS
 62
       7
100
AcDbCircle
 10
-142.40685667
 20
-17.02914982
 30
0.0
 40
20.5
100
AcDbArc
 50
358.28855104
 51
416.97268129
  0
ARC
  5
4DC
100
AcDbEntity
  8
LAYER0001
  6
CONTINUOUS
 62
       7
100
AcDbCircle
 10
-130.41600192
 20
1.41588752
 30
0.0
 40
1.5
100
AcDbArc
 50
180.0
 51
236.97268129
  0
ARC
  5
4DD
100
AcDbEntity
  8
LAYER0001
  6
CONTINUOUS
 62
       7
100
AcDbCircle
 10
-72.916004
 20
171.53372535
 30
0.0
 40
1.0
100
AcDbArc
 50
359.99999685
 51
438.77683981
  0
ARC
  5
4DE
100
AcDbEntity
  8
LAYER0001
  6
CONTINUOUS
 62
       7
100
AcDbCircle
 10
-130.16600192
 20
36.23311768
 30
0.0
 40
0.75
100
AcDbArc
 50
119.92643487
 51
240.07356513
  0
ARC
  5
4DF
100
AcDbEntity
  8
LAYER0001
  6
CONTINUOUS
 62
       7
100
AcDbCircle
 10
15.23111252
 20
25.00468532
 30
0.0
 40
150.0
100
AcDbArc
 50
87.4731145
 51
92.5268855
  0
ARC
  5
4E0
100
AcDbEntity
  8
LAYER0001
  6
CONTINUOUS
 62
       7
100
AcDbCircle
 10
15.23111252
 20
25.00468532
 30
0.0
 40
150.0
100
AcDbArc
 50
93.06773282
 51
101.22316018
  0
ARC
  5
4E1
100
AcDbEntity
  8
LAYER0001
  6
CONTINUOUS
 62
       7
100
AcDbCircle
 10
43.48111252
 20
67.85469057
 30
0.0
 40
0.75
100
AcDbArc
 50
299.92643487
 51
420.07356513
  0
ARC
  5
4E2
100
AcDbEntity
  8
LAYER0001
  6
CONTINUOUS
 62
       7
100
AcDbCircle
 10
-13.01888748
 20
163.8546914
 30
0.0
 40
0.75
100
AcDbArc
 50
119.92643487
 51
240.07356513
  0
ARC
  5
4E3
100
AcDbEntity
  8
LAYER0001
  6
CONTINUOUS
 62
       7
100
AcDbCircle
 10
-13.01888748
 20
131.85468616
 30
0.0
 40
0.75
100
AcDbArc
 50
119.92643487
 51
240.07356513
  0
ARC
  5
4E4
100
AcDbEntity
  8
LAYER0001
  6
CONTINUOUS
 62
       7
100
AcDbCircle
 10
43.48111252
 20
3.85468532
 30
0.0
 40
0.75
100
AcDbArc
 50
299.92643487
 51
420.07356513
  0
ARC
  5
4E5
100
AcDbEntity
  8
LAYER0001
  6
CONTINUOUS
 62
       7
100
AcDbCircle
 10
21.83111252
 20
174.55912357
 30
0.0
 40
0.3
100
AcDbArc
 50
50.2363587
 51
87.47311452
  0
ARC
  5
4E6
100
AcDbEntity
  8
LAYER0001
  6
CONTINUOUS
 62
       7
100
AcDbCircle
 10
-13.01888748
 20
67.85469057
 30
0.0
 40
0.75
100
AcDbArc
 50
119.92643487
 51
240.07356513
  0
ARC
  5
4E7
100
AcDbEntity
  8
LAYER0001
  6
CONTINUOUS
 62
       7
100
AcDbCircle
 10
55.72196727
 20
-17.40758218
 30
0.0
 40
20.5
100
AcDbArc
 50
123.02731871
 51
181.71144896
  0
ARC
  5
4E8
100
AcDbEntity
  8
LAYER0001
  6
CONTINUOUS
 62
       7
100
AcDbCircle
 10
-13.76888539
 20
171.15529299
 30
0.0
 40
1.0
100
AcDbArc
 50
101.22316019
 51
179.99997245
  0
ARC
  5
4E9
100
AcDbEntity
  8
LAYER0001
  6
CONTINUOUS
 62
       7
100
AcDbCircle
 10
43.48111252
 20
99.85469581
 30
0.0
 40
0.75
100
AcDbArc
 50
299.92643487
 51
420.07356513
  0
ARC
  5
4EA
100
AcDbEntity
  8
LAYER0001
  6
CONTINUOUS
 62
       7
100
AcDbCircle
 10
43.48111252
 20
163.8546914
 30
0.0
 40
0.75
100
AcDbArc
 50
299.92643487
 51
420.07356513
  0
ARC
  5
4EB
100
AcDbEntity
  8
LAYER0001
  6
CONTINUOUS
 62
       7
100
AcDbCircle
 10
43.48111252
 20
35.85468532
 30
0.0
 40
0.75
100
AcDbArc
 50
299.92643487
 51
420.07356513
  0
ARC
  5
4EC
100
AcDbEntity
  8
LAYER0001
  6
CONTINUOUS
 62
       7
100
AcDbCircle
 10
-13.01888748
 20
3.85468532
 30
0.0
 40
0.75
100
AcDbArc
 50
119.92643487
 51
240.07356513
  0
ARC
  5
4ED
100
AcDbEntity
  8
LAYER0001
  6
CONTINUOUS
 62
       7
100
AcDbCircle
 10
8.63111252
 20
174.55912357
 30
0.0
 40
0.3
100
AcDbArc
 50
92.52688548
 51
129.7636413
  0
ARC
  5
4EE
100
AcDbEntity
  8
LAYER0001
  6
CONTINUOUS
 62
       7
100
AcDbCircle
 10
15.23111252
 20
25.00468532
 30
0.0
 40
150.0
100
AcDbArc
 50
78.77683982
 51
86.93226718
  0
ARC
  5
4EF
100
AcDbEntity
  8
LAYER0001
  6
CONTINUOUS
 62
       7
100
AcDbCircle
 10
43.48111252
 20
131.85468616
 30
0.0
 40
0.75
100
AcDbArc
 50
299.92643487
 51
420.07356513
  0
ARC
  5
4F0
100
AcDbEntity
  8
LAYER0001
  6
CONTINUOUS
 62
       7
100
AcDbCircle
 10
-13.01888748
 20
99.85469581
 30
0.0
 40
0.75
100
AcDbArc
 50
119.92643487
 51
240.07356513
  0
ARC
  5
4F1
100
AcDbEntity
  8
LAYER0001
  6
CONTINUOUS
 62
       7
100
AcDbCircle
 10
43.73111252
 20
1.03745516
 30
0.0
 40
1.5
100
AcDbArc
 50
303.02731871
 51
360.0
  0
ARC
  5
4F2
100
AcDbEntity
  8
LAYER0001
  6
CONTINUOUS
 62
       7
100
AcDbCircle
 10
-25.25974223
 20
-17.40758218
 30
0.0
 40
20.5
100
AcDbArc
 50
358.28855104
 51
416.97268129
  0
ARC
  5
4F3
100
AcDbEntity
  8
LAYER0001
  6
CONTINUOUS
 62
       7
100
AcDbCircle
 10
-13.26888748
 20
1.03745516
 30
0.0
 40
1.5
100
AcDbArc
 50
180.0
 51
236.97268129
  0
ARC
  5
4F4
100
AcDbEntity
  8
LAYER0001
  6
CONTINUOUS
 62
       7
100
AcDbCircle
 10
44.23111043
 20
171.15529299
 30
0.0
 40
1.0
100
AcDbArc
 50
359.99999685
 51
438.77683981
  0
ARC
  5
4F5
100
AcDbEntity
  8
LAYER0001
  6
CONTINUOUS
 62
       7
100
AcDbCircle
 10
-13.01888748
 20
35.85468532
 30
0.0
 40
0.75
100
AcDbArc
 50
119.92643487
 51
240.07356513
  0
CIRCLE
  5
4F6
100
AcDbEntity
  8
LAYER0001
  6
CONTINUOUS
 62
       7
100
AcDbCircle
 10
-101.91600189
 20
-151.85433015
 30
0.0
 40
30.0
  0
LINE
  5
4F7
100
AcDbEntity
  8
LAYER0001
  6
CENTER
 62
       7
100
AcDbLine
 10
-125.40020406
 20
-151.85433015
 30
0.0
 11
-77.47181869
 21
-151.85433015
 31
0.0
  0
LINE
  5
4F8
100
AcDbEntity
  8
LAYER0001
  6
CENTER
 62
       7
100
AcDbLine
 10
-101.91600189
 20
-174.98962434
 30
0.0
 11
-101.91600189
 21
-123.63133568
 31
0.0
  0
LINE
  5
4F9
100
AcDbEntity
  8
LAYER0001
  6
CENTER
 62
       7
100
AcDbLine
 10
-101.91600192
 20
-110.31688232
 30
0.0
 11
-101.91600192
 21
181.47589779
 31
0.0
  0
LINE
  5
4FA
100
AcDbEntity
  8
LAYER0001
  6
CENTER
 62
       7
100
AcDbLine
 10
-88.92562086
 20
-110.31688232
 30
0.0
 11
-88.92562086
 21
-90.71646553
 31
0.0
  0
LINE
  5
4FB
100
AcDbEntity
  8
LAYER0001
  6
CENTER
 62
       7
100
AcDbLine
 10
-114.90638297
 20
-110.31688232
 30
0.0
 11
-114.90638297
 21
-90.24643333
 31
0.0
  0
LINE
  5
4FC
100
AcDbEntity
  8
LAYER0001
  6
CENTER
 62
       7
100
AcDbLine
 10
15.23111252
 20
-98.09537215
 30
0.0
 11
15.23111252
 21
181.85433015
 31
0.0
  0
LINE
  5
4FD
100
AcDbEntity
  8
LAYER0001
  6
CENTER
 62
       7
100
AcDbLine
 10
30.23111252
 20
-110.69531468
 30
0.0
 11
30.23111252
 21
-90.1548335
 31
0.0
  0
LINE
  5
4FE
100
AcDbEntity
  8
LAYER0001
  6
CENTER
 62
       7
100
AcDbLine
 10
7.73111252
 20
-110.69531468
 30
0.0
 11
7.73111252
 21
-90.4681883
 31
0.0
  0
CIRCLE
  5
4FF
100
AcDbEntity
  8
LAYER0001
  6
CENTER
 62
       7
100
AcDbCircle
 10
-101.91600189
 20
-151.85433015
 30
0.0
 40
15.0
  0
INSERT
  5
500
100
AcDbEntity
  8
LAYER0001
  6
CONTINUOUS
100
AcDbBlockReference
  2
GROUP_1
 10
0.0
 20
0.0
 30
0.0
  0
INSERT
  5
501
100
AcDbEntity
  8
LAYER0001
  6
CONTINUOUS
100
AcDbBlockReference
  2
GROUP_2
 10
0.0
 20
0.0
 30
0.0
  0
INSERT
  5
502
100
AcDbEntity
  8
LAYER0001
  6
CONTINUOUS
100
AcDbBlockReference
  2
GROUP_3
 10
0.0
 20
0.0
 30
0.0
  0
INSERT
  5
503
100
AcDbEntity
  8
LAYER0001
  6
CONTINUOUS
100
AcDbBlockReference
  2
GROUP_4
 10
0.0
 20
0.0
 30
0.0
  0
INSERT
  5
504
100
AcDbEntity
  8
LAYER0001
  6
CONTINUOUS
100
AcDbBlockReference
  2
GROUP_5
 10
0.0
 20
0.0
 30
0.0
  0
INSERT
  5
505
100
AcDbEntity
  8
LAYER0001
  6
CONTINUOUS
100
AcDbBlockReference
  2
GROUP_6
 10
0.0
 20
0.0
 30
0.0
  0
INSERT
  5
506
100
AcDbEntity
  8
LAYER0001
  6
CONTINUOUS
100
AcDbBlockReference
  2
GROUP_7
 10
0.0
 20
0.0
 30
0.0
  0
INSERT
  5
507
100
AcDbEntity
  8
LAYER0001
  6
CONTINUOUS
100
AcDbBlockReference
  2
GROUP_8
 10
0.0
 20
0.0
 30
0.0
  0
INSERT
  5
508
100
AcDbEntity
  8
LAYER0001
  6
CONTINUOUS
100
AcDbBlockReference
  2
GROUP_9
 10
0.0
 20
0.0
 30
0.0
  0
INSERT
  5
509
100
AcDbEntity
  8
LAYER0001
  6
CONTINUOUS
100
AcDbBlockReference
  2
GROUP_10
 10
0.0
 20
0.0
 30
0.0
  0
INSERT
  5
50A
100
AcDbEntity
  8
LAYER0001
  6
CONTINUOUS
100
AcDbBlockReference
  2
GROUP_11
 10
0.0
 20
0.0
 30
0.0
  0
INSERT
  5
50B
100
AcDbEntity
  8
LAYER0001
  6
CONTINUOUS
100
AcDbBlockReference
  2
GROUP_12
 10
0.0
 20
0.0
 30
0.0
  0
INSERT
  5
50C
100
AcDbEntity
  8
LAYER0001
  6
CONTINUOUS
100
AcDbBlockReference
  2
GROUP_13
 10
0.0
 20
0.0
 30
0.0
  0
INSERT
  5
50D
100
AcDbEntity
  8
LAYER0001
  6
CONTINUOUS
100
AcDbBlockReference
  2
GROUP_14
 10
0.0
 20
0.0
 30
0.0
  0
INSERT
  5
50E
100
AcDbEntity
  8
LAYER0001
  6
CONTINUOUS
100
AcDbBlockReference
  2
GROUP_15
 10
0.0
 20
0.0
 30
0.0
  0
INSERT
  5
50F
100
AcDbEntity
  8
LAYER0001
  6
CONTINUOUS
100
AcDbBlockReference
  2
GROUP_16
 10
0.0
 20
0.0
 30
0.0
  0
INSERT
  5
510
100
AcDbEntity
  8
LAYER0001
  6
CONTINUOUS
100
AcDbBlockReference
  2
GROUP_17
 10
0.0
 20
0.0
 30
0.0
  0
INSERT
  5
511
100
AcDbEntity
  8
LAYER0001
  6
CONTINUOUS
100
AcDbBlockReference
  2
GROUP_18
 10
0.0
 20
0.0
 30
0.0
  0
INSERT
  5
512
100
AcDbEntity
  8
LAYER0001
  6
CONTINUOUS
100
AcDbBlockReference
  2
GROUP_19
 10
0.0
 20
0.0
 30
0.0
  0
INSERT
  5
513
100
AcDbEntity
  8
LAYER0001
  6
CONTINUOUS
100
AcDbBlockReference
  2
GROUP_20
 10
0.0
 20
0.0
 30
0.0
  0
INSERT
  5
514
100
AcDbEntity
  8
LAYER0001
  6
CONTINUOUS
100
AcDbBlockReference
  2
GROUP_21
 10
0.0
 20
0.0
 30
0.0
  0
INSERT
  5
515
100
AcDbEntity
  8
LAYER0001
  6
CONTINUOUS
100
AcDbBlockReference
  2
GROUP_22
 10
0.0
 20
0.0
 30
0.0
  0
INSERT
  5
516
100
AcDbEntity
  8
LAYER0001
  6
CONTINUOUS
100
AcDbBlockReference
  2
GROUP_23
 10
0.0
 20
0.0
 30
0.0
  0
TEXT
  5
517
100
AcDbEntity
  8
LAYER0001
 62
       7
100
AcDbText
 10
80.06720214
 20
-143.92604291
 30
0.0
 40
9.525
  1
000
 72
       5
 11
108.64220214
 21
-143.92604291
 31
0.0
100
AcDbText
  0
TEXT
  5
518
100
AcDbEntity
  8
LAYER0001
 62
       7
100
AcDbText
 10
71.33701838
 20
-92.97190711
 30
0.0
 40
6.35
  1
Lamp 5 Layers shown
 72
       5
 11
191.98701838
 21
-92.97190711
 31
0.0
100
AcDbText
  0
ENDSEC
  0
SECTION
  2
OBJECTS
  0
DICTIONARY
  5
19
100
AcDbDictionary
  3
ACAD_GROUP
350
1A
  3
ACAD_MLINESTYLE
350
1B
  0
DICTIONARY
  5
1A
102
{ACAD_REACTORS
330
19
102
}
100
AcDbDictionary
  0
DICTIONARY
  5
1B
102
{ACAD_REACTORS
330
19
102
}
100
AcDbDictionary
  3
STANDARD
350
1C
  0
MLINESTYLE
  5
1C
102
{ACAD_REACTORS
330
1B
102
}
100
AcDbMlineStyle
  2
STANDARD
 70
       0
  3

 62
       0
 51
90.0
 52
90.0
 71
       2
 49
0.5
 62
     256
  6
BYLAYER
 49
-0.5
 62
     256
  6
BYLAYER
  0
ENDSEC
  0
EOF

