  0
SECTION
  2
HEADER
  9
$ACADVER
  1
AC1014
  9
$ACADMAINTVER
 70
       0
  9
$DWGCODEPAGE
  3
ANSI_932
  9
$INSBASE
 10
0.0
 20
0.0
 30
0.0
  9
$EXTMIN
 10
-369.99840888
 20
-288.74737355
 30
0.0
  9
$EXTMAX
 10
337.14790344
 20
288.74737355
 30
0.0
  9
$LIMMIN
 10
-392.09673114
 20
-306.79408439
  9
$LIMMAX
 10
359.2462257
 20
306.79408439
  9
$ORTHOMODE
 70
       0
  9
$REGENMODE
 70
       1
  9
$FILLMODE
 70
       1
  9
$QTEXTMODE
 70
       0
  9
$MIRRTEXT
 70
       1
  9
$DRAGMODE
 70
       2
  9
$LTSCALE
 40
1.0
  9
$OSMODE
 70
       0
  9
$ATTMODE
 70
       1
  9
$TEXTSIZE
 40
0.2
  9
$TRACEWID
 40
0.05
  9
$TEXTSTYLE
  7
STANDARD
  9
$CLAYER
  8
0
  9
$CELTYPE
  6
CONTINUOUS
  9
$CECOLOR
 62
     256
  9
$CELTSCALE
 40
1.0
  9
$DELOBJ
 70
       1
  9
$DISPSILH
 70
       0
  9
$DIMSCALE
 40
1.0
  9
$DIMASZ
 40
0.18
  9
$DIMEXO
 40
0.0625
  9
$DIMDLI
 40
0.38
  9
$DIMRND
 40
0.0
  9
$DIMDLE
 40
0.0
  9
$DIMEXE
 40
0.18
  9
$DIMTP
 40
0.0
  9
$DIMTM
 40
0.0
  9
$DIMTXT
 40
0.18
  9
$DIMCEN
 40
0.09
  9
$DIMTSZ
 40
0.0
  9
$DIMTOL
 70
       0
  9
$DIMLIM
 70
       0
  9
$DIMTIH
 70
       1
  9
$DIMTOH
 70
       1
  9
$DIMSE1
 70
       0
  9
$DIMSE2
 70
       0
  9
$DIMTAD
 70
       0
  9
$DIMZIN
 70
       0
  9
$DIMBLK
  1

  9
$DIMASO
 70
       1
  9
$DIMSHO
 70
       1
  9
$DIMPOST
  1

  9
$DIMAPOST
  1

  9
$DIMALT
 70
       0
  9
$DIMALTD
 70
       2
  9
$DIMALTF
 40
25.4
  9
$DIMLFAC
 40
1.0
  9
$DIMTOFL
 70
       0
  9
$DIMTVP
 40
0.0
  9
$DIMTIX
 70
       0
  9
$DIMSOXD
 70
       0
  9
$DIMSAH
 70
       0
  9
$DIMBLK1
  1

  9
$DIMBLK2
  1

  9
$DIMSTYLE
  2
STANDARD
  9
$DIMCLRD
 70
       0
  9
$DIMCLRE
 70
       0
  9
$DIMCLRT
 70
       0
  9
$DIMTFAC
 40
1.0
  9
$DIMGAP
 40
0.09
  9
$DIMJUST
 70
       0
  9
$DIMSD1
 70
       0
  9
$DIMSD2
 70
       0
  9
$DIMTOLJ
 70
       1
  9
$DIMTZIN
 70
       0
  9
$DIMALTZ
 70
       0
  9
$DIMALTTZ
 70
       0
  9
$DIMFIT
 70
       3
  9
$DIMUPT
 70
       0
  9
$DIMUNIT
 70
       2
  9
$DIMDEC
 70
       4
  9
$DIMTDEC
 70
       4
  9
$DIMALTU
 70
       2
  9
$DIMALTTD
 70
       2
  9
$DIMTXSTY
  7
STANDARD
  9
$DIMAUNIT
 70
       0
  9
$LUNITS
 70
       2
  9
$LUPREC
 70
       4
  9
$SKETCHINC
 40
0.1
  9
$FILLETRAD
 40
0.0
  9
$AUNITS
 70
       0
  9
$AUPREC
 70
       0
  9
$MENU
  1
acad
  9
$ELEVATION
 40
0.0
  9
$PELEVATION
 40
0.0
  9
$THICKNESS
 40
0.0
  9
$LIMCHECK
 70
       0
  9
$BLIPMODE
 70
       1
  9
$CHAMFERA
 40
0.0
  9
$CHAMFERB
 40
0.0
  9
$CHAMFERC
 40
0.0
  9
$CHAMFERD
 40
0.0
  9
$SKPOLY
 70
       0
  9
$TDCREATE
 40
0.000000000
  9
$TDUPDATE
 40
0.000000000
  9
$TDINDWG
 40
0.0000000000
  9
$TDUSRTIMER
 40
0.0000000000
  9
$USRTIMER
 70
       1
  9
$ANGBASE
 50
0.0
  9
$ANGDIR
 70
       0
  9
$PDMODE
 70
       0
  9
$PDSIZE
 40
1.0
  9
$PLINEWID
 40
0.0
  9
$COORDS
 70
       1
  9
$SPLFRAME
 70
       0
  9
$SPLINETYPE
 70
       6
  9
$SPLINESEGS
 70
       8
  9
$ATTDIA
 70
       0
  9
$ATTREQ
 70
       1
  9
$HANDLING
 70
       1
  9
$HANDSEED
  5
673
  9
$SURFTAB1
 70
       6
  9
$SURFTAB2
 70
       6
  9
$SURFTYPE
 70
       6
  9
$SURFU
 70
       6
  9
$SURFV
 70
       6
  9
$UCSNAME
  2

  9
$UCSORG
 10
0.0
 20
0.0
 30
0.0
  9
$UCSXDIR
 10
1.0
 20
0.0
 30
0.0
  9
$UCSYDIR
 10
0.0
 20
1.0
 30
0.0
  9
$PUCSNAME
  2

  9
$PUCSORG
 10
0.0
 20
0.0
 30
0.0
  9
$PUCSXDIR
 10
1.0
 20
0.0
 30
0.0
  9
$PUCSYDIR
 10
0.0
 20
1.0
 30
0.0
  9
$USERI1
 70
       0
  9
$USERI2
 70
       0
  9
$USERI3
 70
       0
  9
$USERI4
 70
       0
  9
$USERI5
 70
       0
  9
$USERR1
 40
0.0
  9
$USERR2
 40
0.0
  9
$USERR3
 40
0.0
  9
$USERR4
 40
0.0
  9
$USERR5
 40
0.0
  9
$WORLDVIEW
 70
       1
  9
$SHADEDGE
 70
       3
  9
$SHADEDIF
 70
      70
  9
$TILEMODE
 70
       1
  9
$MAXACTVP
 70
      16
  9
$PINSBASE
 10
0.0
 20
0.0
 30
0.0
  9
$PLIMCHECK
 70
       0
  9
$PEXTMIN
 10
1.00000000E+20
 20
1.00000000E+20
 30
1.00000000E+20
  9
$PEXTMAX
 10
-1.00000000E+20
 20
-1.00000000E+20
 30
-1.00000000E+20
  9
$PLIMMIN
 10
0.0
 20
0.0
  9
$PLIMMAX
 10
12.0
 20
9.0
  9
$UNITMODE
 70
       0
  9
$VISRETAIN
 70
       0
  9
$PLINEGEN
 70
       1
  9
$PSLTSCALE
 70
       0
  9
$TREEDEPTH
 70
    3020
  9
$PICKSTYLE
 70
       1
  9
$CMLSTYLE
  2
STANDARD
  9
$CMLJUST
 70
       0
  9
$CMLSCALE
 40
1.0
  9
$PROXYGRAPHICS
 70
       0
  9
$MEASUREMENT
 70
       0
  0
ENDSEC
  0
SECTION
  2
CLASSES
  0
CLASS
  1
LWPOLYLINE
  2
AcDbPolyline
  3
"AutoCAD"
 90
        0
280
       0
281
       1
  0
CLASS
  1
IMAGE
  2
AcDbRasterImage
  3
ISM
 90
      127
280
       0
281
       1
  0
CLASS
  1
OLE2FRAME
  2
AcDbOle2Frame
  3
""
 90
        0
280
       0
281
       1
  0
CLASS
  1
HATCH
  2
AcDbHatch
  3
"ACAD_SEDONA"
 90
        0
280
       0
281
       1
  0
CLASS
  1
DICTIONARYVAR
  2
AcDbDictionaryVar
  3
"AutoCAD"
 90
        0
280
       0
281
       0
  0
CLASS
  1
RASTERVARIABLES
  2
AcDbRasterVariables
  3
ISM
 90
        0
280
       0
281
       0
  0
CLASS
  1
IMAGEDEF
  2
AcDbRasterImageDef
  3
ISM
 90
        0
280
       0
281
       0
  0
CLASS
  1
IMAGEDEF_REACTOR
  2
AcDbRasterImageDefReactor
  3
ISM
 90
        1
280
       0
281
       0
  0
CLASS
  1
IDBUFFER
  2
AcDbIdBuffer
  3
"Acad"
 90
        0
280
       0
281
       0
  0
CLASS
  1
SPATIAL_FILTER
  2
AcDbSpatialFilter
  3
"Acad"
 90
        0
280
       0
281
       0
  0
CLASS
  1
XRECORD
  2
AcDbXrecord
  3
"<Built In>"
 90
        0
280
       0
281
       0
  0
CLASS
  1
SORTENTSTABLE
  2
AcDbSortentsTable
  3
"AutoCAD"
 90
        0
280
       0
281
       0
  0
CLASS
  1
LAYER_INDEX
  2
AcDbLayerIndex
  3
"Acad"
 90
        0
280
       0
281
       0
  0
CLASS
  1
SPATIAL_INDEX
  2
AcDbSpatialIndex
  3
"Acad"
 90
        0
280
       0
281
       0
  0
CLASS
  1
OBJECT_PTR
  2
CAseDLPNTableRecord
  3
"ASE-LPNTableRecord"
 90
        1
280
       0
281
       0
  0
CLASS
  1
LAYOUT
  2
AcDbLayout
  3
"AutoCAD 2000"
 90
        1
280
       0
281
       0
  0
CLASS
  1
PLOTSETTINGS
  2
AcDbPlotSettings
  3
"AutoCAD 2000"
 90
        1
280
       0
281
       0
  0
CLASS
  1
ACDBDICTIONARYWDFLT
  2
AcDbDictionaryWithDefault
  3
"AutoCAD 2000"
 90
        1
280
       0
281
       0
  0
CLASS
  1
ACDBPLACEHOLDER
  2
AcDbPlaceHolder
  3
"AutoCAD 2000"
 90
        1
280
       0
281
       0
  0
CLASS
  1
VBA_PROJECT
  2
AcDbVbaProject
  3
"acadvba"
 90
        1
280
       0
281
       0
  0
CLASS
  1
WIPEOUT
  2
AcDbWipeout
  3
WipeOut|AutoCAD Express Tool|expresstools@autodesk.com
 90
      127
280
       0
281
       1
  0
CLASS
  1
WIPEOUTVARIABLES
  2
AcDbWipeoutVariables
  3
WipeOut|AutoCAD Express Tool|expresstools@autodesk.com
 90
        0
280
       0
281
       0
  0
CLASS
  1
RTEXT
  2
RText
  3
RText|AutoCAD Express Tool|expresstools@autodesk.com
 90
        0
280
       0
281
       1
  0
CLASS
  1
ARCALIGNEDTEXT
  2
AcDbArcAlignedText
  3
ATEXT|AutoCAD Express Tool|expresstools@autodesk.com
 90
        0
280
       0
281
       1
  0
ENDSEC
  0
SECTION
  2
TABLES
  0
TABLE
  2
VPORT
  5
7
100
AcDbSymbolTable
 70
       1
  0
VPORT
  5
15
100
AcDbSymbolTableRecord
100
AcDbViewportTableRecord
  2
*ACTIVE
 70
       0
 10
0.0
 20
0.0
 11
1.0
 21
1.0
 12
-16.42525272
 22
0.0
 13
0.0
 23
0.0
 14
1.0
 24
1.0
 15
0.0
 25
0.0
 16
0.0
 26
0.0
 36
1.0
 17
0.0
 27
0.0
 37
0.0
 40
613.58816879
 41
1.22450692
 42
50.0
 43
0.0
 44
0.0
 50
0.0
 51
0.0
 71
       0
 72
     100
 73
       1
 74
       1
 75
       0
 76
       0
 77
       0
 78
       0
  0
ENDTAB
  0
TABLE
  2
LTYPE
  5
4
100
AcDbSymbolTable
 70
      30
  0
LTYPE
  5
11
100
AcDbSymbolTableRecord
100
AcDbLinetypeTableRecord
  2
BYBLOCK
 70
      64
  3

 72
      65
 73
       0
 40
0.0
  0
LTYPE
  5
12
100
AcDbSymbolTableRecord
100
AcDbLinetypeTableRecord
  2
BYLAYER
 70
      64
  3

 72
      65
 73
       0
 40
0.0
  0
LTYPE
  5
13
100
AcDbSymbolTableRecord
100
AcDbLinetypeTableRecord
  2
CONTINUOUS
 70
      64
  3
Solid line
 72
      65
 73
       0
 40
0.0
  0
LTYPE
  5
1D
100
AcDbSymbolTableRecord
100
AcDbLinetypeTableRecord
  2
HIDDENX2
 70
      64
  3
CADPAC LINETYPE
 72
      65
 73
       2
 40
32.65832363
 49
24.49374272
 74
       0
 49
-8.16458091
 74
       0
  0
LTYPE
  5
1E
100
AcDbSymbolTableRecord
100
AcDbLinetypeTableRecord
  2
HIDDEN
 70
      64
  3
CADPAC LINETYPE
 72
      65
 73
       2
 40
24.49374272
 49
16.32916181
 74
       0
 49
-8.16458091
 74
       0
  0
LTYPE
  5
1F
100
AcDbSymbolTableRecord
100
AcDbLinetypeTableRecord
  2
HIDDEN2
 70
      64
  3
CADPAC LINETYPE
 72
      65
 73
       2
 40
20.41145227
 49
12.24687136
 74
       0
 49
-8.16458091
 74
       0
  0
LTYPE
  5
20
100
AcDbSymbolTableRecord
100
AcDbLinetypeTableRecord
  2
DASHED
 70
      64
  3
CADPAC LINETYPE
 72
      65
 73
       2
 40
24.49374272
 49
16.32916181
 74
       0
 49
-8.16458091
 74
       0
  0
LTYPE
  5
21
100
AcDbSymbolTableRecord
100
AcDbLinetypeTableRecord
  2
DASHED2
 70
      64
  3
CADPAC LINETYPE
 72
      65
 73
       2
 40
18.37030704
 49
12.24687136
 74
       0
 49
-6.12343568
 74
       0
  0
LTYPE
  5
22
100
AcDbSymbolTableRecord
100
AcDbLinetypeTableRecord
  2
DASHEDX2
 70
      64
  3
CADPAC LINETYPE
 72
      65
 73
       2
 40
36.74061408
 49
24.49374272
 74
       0
 49
-12.24687136
 74
       0
  0
LTYPE
  5
23
100
AcDbSymbolTableRecord
100
AcDbLinetypeTableRecord
  2
DOTX2
 70
      64
  3
CADPAC LINETYPE
 72
      65
 73
       2
 40
10.20572613
 49
0.0
 74
       0
 49
-10.20572613
 74
       0
  0
LTYPE
  5
24
100
AcDbSymbolTableRecord
100
AcDbLinetypeTableRecord
  2
DOT
 70
      64
  3
CADPAC LINETYPE
 72
      65
 73
       2
 40
8.16458091
 49
0.0
 74
       0
 49
-8.16458091
 74
       0
  0
LTYPE
  5
25
100
AcDbSymbolTableRecord
100
AcDbLinetypeTableRecord
  2
DOT2
 70
      64
  3
CADPAC LINETYPE
 72
      65
 73
       2
 40
6.12343568
 49
0.0
 74
       0
 49
-6.12343568
 74
       0
  0
LTYPE
  5
26
100
AcDbSymbolTableRecord
100
AcDbLinetypeTableRecord
  2
CENTERX2
 70
      64
  3
CADPAC LINETYPE
 72
      65
 73
       4
 40
48.98748544
 49
20.41145227
 74
       0
 49
-10.20572613
 74
       0
 49
8.16458091
 74
       0
 49
-10.20572613
 74
       0
  0
LTYPE
  5
27
100
AcDbSymbolTableRecord
100
AcDbLinetypeTableRecord
  2
CENTER
 70
      64
  3
CADPAC LINETYPE
 72
      65
 73
       4
 40
37.55707217
 49
16.32916181
 74
       0
 49
-8.16458091
 74
       0
 49
4.89874854
 74
       0
 49
-8.16458091
 74
       0
  0
LTYPE
  5
28
100
AcDbSymbolTableRecord
100
AcDbLinetypeTableRecord
  2
CENTER2
 70
      64
  3
CADPAC LINETYPE
 72
      65
 73
       4
 40
26.1266589
 49
12.24687136
 74
       0
 49
-6.12343568
 74
       0
 49
1.63291618
 74
       0
 49
-6.12343568
 74
       0
  0
LTYPE
  5
29
100
AcDbSymbolTableRecord
100
AcDbLinetypeTableRecord
  2
DASHDOTX2
 70
      64
  3
CADPAC LINETYPE
 72
      65
 73
       4
 40
40.82290454
 49
20.41145227
 74
       0
 49
-10.20572613
 74
       0
 49
0.0
 74
       0
 49
-10.20572613
 74
       0
  0
LTYPE
  5
2A
100
AcDbSymbolTableRecord
100
AcDbLinetypeTableRecord
  2
DASHDOT
 70
      64
  3
CADPAC LINETYPE
 72
      65
 73
       4
 40
32.65832363
 49
16.32916181
 74
       0
 49
-8.16458091
 74
       0
 49
0.0
 74
       0
 49
-8.16458091
 74
       0
  0
LTYPE
  5
2B
100
AcDbSymbolTableRecord
100
AcDbLinetypeTableRecord
  2
DASHDOT2
 70
      64
  3
CADPAC LINETYPE
 72
      65
 73
       4
 40
24.49374272
 49
12.24687136
 74
       0
 49
-6.12343568
 74
       0
 49
0.0
 74
       0
 49
-6.12343568
 74
       0
  0
LTYPE
  5
2C
100
AcDbSymbolTableRecord
100
AcDbLinetypeTableRecord
  2
DIVIDEX2
 70
      64
  3
CADPAC LINETYPE
 72
      65
 73
       6
 40
51.02863067
 49
20.41145227
 74
       0
 49
-10.20572613
 74
       0
 49
0.0
 74
       0
 49
-10.20572613
 74
       0
 49
0.0
 74
       0
 49
-10.20572613
 74
       0
  0
LTYPE
  5
2D
100
AcDbSymbolTableRecord
100
AcDbLinetypeTableRecord
  2
DIVIDE
 70
      64
  3
CADPAC LINETYPE
 72
      65
 73
       6
 40
40.82290454
 49
16.32916181
 74
       0
 49
-8.16458091
 74
       0
 49
0.0
 74
       0
 49
-8.16458091
 74
       0
 49
0.0
 74
       0
 49
-8.16458091
 74
       0
  0
LTYPE
  5
2E
100
AcDbSymbolTableRecord
100
AcDbLinetypeTableRecord
  2
DIVIDE2
 70
      64
  3
CADPAC LINETYPE
 72
      65
 73
       6
 40
30.6171784
 49
12.24687136
 74
       0
 49
-6.12343568
 74
       0
 49
0.0
 74
       0
 49
-6.12343568
 74
       0
 49
0.0
 74
       0
 49
-6.12343568
 74
       0
  0
LTYPE
  5
2F
100
AcDbSymbolTableRecord
100
AcDbLinetypeTableRecord
  2
BORDERX2
 70
      64
  3
CADPAC LINETYPE
 72
      65
 73
       6
 40
71.44008294
 49
20.41145227
 74
       0
 49
-10.20572613
 74
       0
 49
20.41145227
 74
       0
 49
-10.20572613
 74
       0
 49
0.0
 74
       0
 49
-10.20572613
 74
       0
  0
LTYPE
  5
30
100
AcDbSymbolTableRecord
100
AcDbLinetypeTableRecord
  2
BORDER
 70
      64
  3
CADPAC LINETYPE
 72
      65
 73
       6
 40
57.15206635
 49
16.32916181
 74
       0
 49
-8.16458091
 74
       0
 49
16.32916181
 74
       0
 49
-8.16458091
 74
       0
 49
0.0
 74
       0
 49
-8.16458091
 74
       0
  0
LTYPE
  5
31
100
AcDbSymbolTableRecord
100
AcDbLinetypeTableRecord
  2
BORDER2
 70
      64
  3
CADPAC LINETYPE
 72
      65
 73
       6
 40
42.86404976
 49
12.24687136
 74
       0
 49
-6.12343568
 74
       0
 49
12.24687136
 74
       0
 49
-6.12343568
 74
       0
 49
0.0
 74
       0
 49
-6.12343568
 74
       0
  0
LTYPE
  5
32
100
AcDbSymbolTableRecord
100
AcDbLinetypeTableRecord
  2
PHANTOMX2
 70
      64
  3
CADPAC LINETYPE
 72
      65
 73
       6
 40
61.2343568
 49
20.41145227
 74
       0
 49
-8.16458091
 74
       0
 49
8.16458091
 74
       0
 49
-8.16458091
 74
       0
 49
8.16458091
 74
       0
 49
-8.16458091
 74
       0
  0
LTYPE
  5
33
100
AcDbSymbolTableRecord
100
AcDbLinetypeTableRecord
  2
PHANTOM
 70
      64
  3
CADPAC LINETYPE
 72
      65
 73
       6
 40
50.62040162
 49
16.32916181
 74
       0
 49
-8.16458091
 74
       0
 49
4.89874854
 74
       0
 49
-8.16458091
 74
       0
 49
4.89874854
 74
       0
 49
-8.16458091
 74
       0
  0
LTYPE
  5
34
100
AcDbSymbolTableRecord
100
AcDbLinetypeTableRecord
  2
PHANTOM2
 70
      64
  3
CADPAC LINETYPE
 72
      65
 73
       6
 40
43.27227881
 49
12.24687136
 74
       0
 49
-8.16458091
 74
       0
 49
3.26583236
 74
       0
 49
-8.16458091
 74
       0
 49
3.26583236
 74
       0
 49
-8.16458091
 74
       0
  0
LTYPE
  5
35
100
AcDbSymbolTableRecord
100
AcDbLinetypeTableRecord
  2
ACAD_ISO06W100
 70
      64
  3
CADPAC LINETYPE
 72
      65
 73
       8
 40
55.11092112
 49
20.41145227
 74
       0
 49
-10.20572613
 74
       0
 49
0.0
 74
       0
 49
-8.16458091
 74
       0
 49
0.0
 74
       0
 49
-8.16458091
 74
       0
 49
0.0
 74
       0
 49
-8.16458091
 74
       0
  0
LTYPE
  5
36
100
AcDbSymbolTableRecord
100
AcDbLinetypeTableRecord
  2
ACAD_ISO13W100
 70
      64
  3
CADPAC LINETYPE
 72
      65
 73
       8
 40
65.31664726
 49
16.32916181
 74
       0
 49
-8.16458091
 74
       0
 49
16.32916181
 74
       0
 49
-8.16458091
 74
       0
 49
0.0
 74
       0
 49
-8.16458091
 74
       0
 49
0.0
 74
       0
 49
-8.16458091
 74
       0
  0
LTYPE
  5
37
100
AcDbSymbolTableRecord
100
AcDbLinetypeTableRecord
  2
ACAD_ISO14W100
 70
      64
  3
CADPAC LINETYPE
 72
      65
 73
       8
 40
48.98748544
 49
16.32916181
 74
       0
 49
-8.16458091
 74
       0
 49
0.0
 74
       0
 49
-8.16458091
 74
       0
 49
0.0
 74
       0
 49
-8.16458091
 74
       0
 49
0.0
 74
       0
 49
-8.16458091
 74
       0
  0
ENDTAB
  0
TABLE
  2
LAYER
  5
2
100
AcDbSymbolTable
 70
       2
  0
LAYER
  5
14
100
AcDbSymbolTableRecord
100
AcDbLayerTableRecord
  2
0
 70
       0
 62
       7
  6
CONTINUOUS
  0
LAYER
  5
38
100
AcDbSymbolTableRecord
100
AcDbLayerTableRecord
  2
LAYER0001
 70
       0
 62
       7
  6
CONTINUOUS
  0
ENDTAB
  0
TABLE
  2
STYLE
  5
3
100
AcDbSymbolTable
 70
       1
  0
STYLE
  5
17
100
AcDbSymbolTableRecord
100
AcDbTextStyleTableRecord
  2
STANDARD
 70
       0
 40
0.0
 41
1.0
 50
0.0
 71
       0
 42
9.525
  3
txt.shx
  4
bigfont.shx
  0
ENDTAB
  0
TABLE
  2
VIEW
  5
5
100
AcDbSymbolTable
 70
       1
  0
VIEW
  5
39
100
AcDbSymbolTableRecord
100
AcDbViewTableRecord
  2
QQQQ
 70
       0
 40
613.58816879
 10
-16.42525272
 20
0.0
 41
751.34295684
 11
0.0
 21
0.0
 31
1.0
 12
100.0
 22
100.0
 32
0.0
 42
50.0
 43
0.0
 44
0.0
 50
0.0
 71
       0
  0
ENDTAB
  0
TABLE
  2
UCS
  5
6
100
AcDbSymbolTable
 70
       0
  0
ENDTAB
  0
TABLE
  2
APPID
  5
8
100
AcDbSymbolTable
 70
       1
  0
APPID
  5
16
100
AcDbSymbolTableRecord
100
AcDbRegAppTableRecord
  2
ACAD
 70
       0
  0
ENDTAB
  0
TABLE
  2
DIMSTYLE
  5
9
100
AcDbSymbolTable
 70
       1
  0
DIMSTYLE
105
18
100
AcDbSymbolTableRecord
100
AcDbDimStyleTableRecord
  2
STANDARD
 70
       0
  3

  4

  5

  6

  7

 40
1.0
 41
0.18
 42
0.0625
 43
0.38
 44
0.18
 45
0.0
 46
0.0
 47
0.0
 48
0.0
 71
       0
 72
       0
 73
       1
 74
       1
 75
       0
 76
       0
 77
       0
 78
       0
140
0.18
141
0.09
142
0.0
143
25.4
144
1.0
145
0.0
146
1.0
147
0.09
170
       0
171
       2
172
       0
173
       0
174
       0
175
       0
176
       0
177
       0
178
       0
270
       2
271
       4
272
       4
273
       2
274
       2
275
       0
280
       0
281
       0
282
       0
283
       1
284
       0
285
       0
286
       0
287
       0
288
       0
340
17
  0
ENDTAB
  0
TABLE
  2
BLOCK_RECORD
  5
1
100
AcDbSymbolTable
 70
      36
  0
BLOCK_RECORD
  5
A
100
AcDbSymbolTableRecord
100
AcDbBlockTableRecord
  2
*MODEL_SPACE
  0
BLOCK_RECORD
  5
B
100
AcDbSymbolTableRecord
100
AcDbBlockTableRecord
  2
*PAPER_SPACE
  0
BLOCK_RECORD
  5
3A
100
AcDbSymbolTableRecord
100
AcDbBlockTableRecord
  2
GROUP_1
  0
BLOCK_RECORD
  5
3B
100
AcDbSymbolTableRecord
100
AcDbBlockTableRecord
  2
GROUP_2
  0
BLOCK_RECORD
  5
3C
100
AcDbSymbolTableRecord
100
AcDbBlockTableRecord
  2
GROUP_3
  0
BLOCK_RECORD
  5
3D
100
AcDbSymbolTableRecord
100
AcDbBlockTableRecord
  2
GROUP_4
  0
BLOCK_RECORD
  5
3E
100
AcDbSymbolTableRecord
100
AcDbBlockTableRecord
  2
GROUP_5
  0
BLOCK_RECORD
  5
3F
100
AcDbSymbolTableRecord
100
AcDbBlockTableRecord
  2
GROUP_6
  0
BLOCK_RECORD
  5
40
100
AcDbSymbolTableRecord
100
AcDbBlockTableRecord
  2
GROUP_7
  0
BLOCK_RECORD
  5
41
100
AcDbSymbolTableRecord
100
AcDbBlockTableRecord
  2
GROUP_8
  0
BLOCK_RECORD
  5
42
100
AcDbSymbolTableRecord
100
AcDbBlockTableRecord
  2
GROUP_9
  0
BLOCK_RECORD
  5
43
100
AcDbSymbolTableRecord
100
AcDbBlockTableRecord
  2
GROUP_10
  0
BLOCK_RECORD
  5
44
100
AcDbSymbolTableRecord
100
AcDbBlockTableRecord
  2
GROUP_11
  0
BLOCK_RECORD
  5
45
100
AcDbSymbolTableRecord
100
AcDbBlockTableRecord
  2
GROUP_12
  0
BLOCK_RECORD
  5
46
100
AcDbSymbolTableRecord
100
AcDbBlockTableRecord
  2
GROUP_13
  0
BLOCK_RECORD
  5
47
100
AcDbSymbolTableRecord
100
AcDbBlockTableRecord
  2
GROUP_14
  0
BLOCK_RECORD
  5
48
100
AcDbSymbolTableRecord
100
AcDbBlockTableRecord
  2
GROUP_15
  0
BLOCK_RECORD
  5
49
100
AcDbSymbolTableRecord
100
AcDbBlockTableRecord
  2
GROUP_16
  0
BLOCK_RECORD
  5
4A
100
AcDbSymbolTableRecord
100
AcDbBlockTableRecord
  2
GROUP_17
  0
BLOCK_RECORD
  5
4B
100
AcDbSymbolTableRecord
100
AcDbBlockTableRecord
  2
GROUP_18
  0
BLOCK_RECORD
  5
4C
100
AcDbSymbolTableRecord
100
AcDbBlockTableRecord
  2
GROUP_19
  0
BLOCK_RECORD
  5
4D
100
AcDbSymbolTableRecord
100
AcDbBlockTableRecord
  2
GROUP_20
  0
BLOCK_RECORD
  5
4E
100
AcDbSymbolTableRecord
100
AcDbBlockTableRecord
  2
GROUP_21
  0
BLOCK_RECORD
  5
4F
100
AcDbSymbolTableRecord
100
AcDbBlockTableRecord
  2
GROUP_22
  0
BLOCK_RECORD
  5
50
100
AcDbSymbolTableRecord
100
AcDbBlockTableRecord
  2
GROUP_23
  0
BLOCK_RECORD
  5
51
100
AcDbSymbolTableRecord
100
AcDbBlockTableRecord
  2
GROUP_24
  0
BLOCK_RECORD
  5
52
100
AcDbSymbolTableRecord
100
AcDbBlockTableRecord
  2
GROUP_25
  0
BLOCK_RECORD
  5
53
100
AcDbSymbolTableRecord
100
AcDbBlockTableRecord
  2
GROUP_26
  0
BLOCK_RECORD
  5
54
100
AcDbSymbolTableRecord
100
AcDbBlockTableRecord
  2
GROUP_27
  0
BLOCK_RECORD
  5
55
100
AcDbSymbolTableRecord
100
AcDbBlockTableRecord
  2
GROUP_28
  0
BLOCK_RECORD
  5
56
100
AcDbSymbolTableRecord
100
AcDbBlockTableRecord
  2
GROUP_29
  0
BLOCK_RECORD
  5
57
100
AcDbSymbolTableRecord
100
AcDbBlockTableRecord
  2
GROUP_30
  0
BLOCK_RECORD
  5
58
100
AcDbSymbolTableRecord
100
AcDbBlockTableRecord
  2
GROUP_31
  0
BLOCK_RECORD
  5
59
100
AcDbSymbolTableRecord
100
AcDbBlockTableRecord
  2
GROUP_32
  0
BLOCK_RECORD
  5
5A
100
AcDbSymbolTableRecord
100
AcDbBlockTableRecord
  2
GROUP_33
  0
BLOCK_RECORD
  5
5B
100
AcDbSymbolTableRecord
100
AcDbBlockTableRecord
  2
GROUP_34
  0
BLOCK_RECORD
  5
5C
100
AcDbSymbolTableRecord
100
AcDbBlockTableRecord
  2
GROUP_35
  0
BLOCK_RECORD
  5
5D
100
AcDbSymbolTableRecord
100
AcDbBlockTableRecord
  2
GROUP_36
  0
ENDTAB
  0
ENDSEC
  0
SECTION
  2
BLOCKS
  0
BLOCK
  5
D
100
AcDbEntity
  8
0
100
AcDbBlockBegin
  2
*MODEL_SPACE
 70
       0
 10
0.0
 20
0.0
 30
0.0
  3
*MODEL_SPACE
  1

  0
ENDBLK
  5
E
100
AcDbEntity
  8
0
100
AcDbBlockEnd
  0
BLOCK
  5
F
100
AcDbEntity
 67
       1
  8
0
100
AcDbBlockBegin
  2
*PAPER_SPACE
 70
       0
 10
0.0
 20
0.0
 30
0.0
  3
*PAPER_SPACE
  1

  0
ENDBLK
  5
10
100
AcDbEntity
 67
       1
  8
0
100
AcDbBlockEnd
  0
BLOCK
  5
5E
100
AcDbEntity
  8
0
100
AcDbBlockBegin
  2
GROUP_1
 70
       0
 10
0.0
 20
0.0
 30
0.0
  3
GROUP_1
  1

  0
LINE
  5
5F
100
AcDbEntity
  8
LAYER0001
  6
CONTINUOUS
 62
       7
100
AcDbLine
 10
259.30823343
 20
-232.74170524
 30
0.0
 11
259.50268993
 21
-232.73974532
 31
0.0
  0
LINE
  5
60
100
AcDbEntity
  8
LAYER0001
  6
CONTINUOUS
 62
       7
100
AcDbLine
 10
259.50268993
 20
-232.73974532
 30
0.0
 11
259.69715532
 21
-232.73655045
 31
0.0
  0
LINE
  5
61
100
AcDbEntity
  8
LAYER0001
  6
CONTINUOUS
 62
       7
100
AcDbLine
 10
259.69715532
 20
-232.73655045
 30
0.0
 11
259.89163339
 21
-232.73103555
 31
0.0
  0
LINE
  5
62
100
AcDbEntity
  8
LAYER0001
  6
CONTINUOUS
 62
       7
100
AcDbLine
 10
259.89163339
 20
-232.73103555
 30
0.0
 11
260.08609994
 21
-232.72293331
 31
0.0
  0
LINE
  5
63
100
AcDbEntity
  8
LAYER0001
  6
CONTINUOUS
 62
       7
100
AcDbLine
 10
260.08609994
 20
-232.72293331
 30
0.0
 11
260.28052129
 21
-232.71225403
 31
0.0
  0
LINE
  5
64
100
AcDbEntity
  8
LAYER0001
  6
CONTINUOUS
 62
       7
100
AcDbLine
 10
260.28052129
 20
-232.71225403
 30
0.0
 11
260.47486374
 21
-232.69900821
 31
0.0
  0
LINE
  5
65
100
AcDbEntity
  8
LAYER0001
  6
CONTINUOUS
 62
       7
100
AcDbLine
 10
260.47486374
 20
-232.69900821
 30
0.0
 11
260.6690936
 21
-232.68320639
 31
0.0
  0
LINE
  5
66
100
AcDbEntity
  8
LAYER0001
  6
CONTINUOUS
 62
       7
100
AcDbLine
 10
260.6690936
 20
-232.68320639
 30
0.0
 11
260.86317718
 21
-232.66485907
 31
0.0
  0
LINE
  5
67
100
AcDbEntity
  8
LAYER0001
  6
CONTINUOUS
 62
       7
100
AcDbLine
 10
260.86317718
 20
-232.66485907
 30
0.0
 11
261.05708078
 21
-232.64397677
 31
0.0
  0
LINE
  5
68
100
AcDbEntity
  8
LAYER0001
  6
CONTINUOUS
 62
       7
100
AcDbLine
 10
261.05708078
 20
-232.64397677
 30
0.0
 11
261.25077071
 21
-232.62057001
 31
0.0
  0
LINE
  5
69
100
AcDbEntity
  8
LAYER0001
  6
CONTINUOUS
 62
       7
100
AcDbLine
 10
261.25077071
 20
-232.62057001
 30
0.0
 11
261.44421327
 21
-232.59464931
 31
0.0
  0
LINE
  5
6A
100
AcDbEntity
  8
LAYER0001
  6
CONTINUOUS
 62
       7
100
AcDbLine
 10
261.44421327
 20
-232.59464931
 30
0.0
 11
261.63737478
 21
-232.56622518
 31
0.0
  0
LINE
  5
6B
100
AcDbEntity
  8
LAYER0001
  6
CONTINUOUS
 62
       7
100
AcDbLine
 10
261.63737478
 20
-232.56622518
 30
0.0
 11
261.83022154
 21
-232.53530814
 31
0.0
  0
LINE
  5
6C
100
AcDbEntity
  8
LAYER0001
  6
CONTINUOUS
 62
       7
100
AcDbLine
 10
261.83022154
 20
-232.53530814
 30
0.0
 11
262.02271985
 21
-232.50190871
 31
0.0
  0
LINE
  5
6D
100
AcDbEntity
  8
LAYER0001
  6
CONTINUOUS
 62
       7
100
AcDbLine
 10
262.02271985
 20
-232.50190871
 30
0.0
 11
262.21483603
 21
-232.4660374
 31
0.0
  0
LINE
  5
6E
100
AcDbEntity
  8
LAYER0001
  6
CONTINUOUS
 62
       7
100
AcDbLine
 10
262.21483603
 20
-232.4660374
 30
0.0
 11
262.40653638
 21
-232.42770474
 31
0.0
  0
LINE
  5
6F
100
AcDbEntity
  8
LAYER0001
  6
CONTINUOUS
 62
       7
100
AcDbLine
 10
262.40653638
 20
-232.42770474
 30
0.0
 11
262.5978008
 21
-232.38695523
 31
0.0
  0
LINE
  5
70
100
AcDbEntity
  8
LAYER0001
  6
CONTINUOUS
 62
       7
100
AcDbLine
 10
262.5978008
 20
-232.38695523
 30
0.0
 11
262.78865245
 21
-232.34394153
 31
0.0
  0
LINE
  5
71
100
AcDbEntity
  8
LAYER0001
  6
CONTINUOUS
 62
       7
100
AcDbLine
 10
262.78865245
 20
-232.34394153
 30
0.0
 11
262.97912307
 21
-232.29883783
 31
0.0
  0
LINE
  5
72
100
AcDbEntity
  8
LAYER0001
  6
CONTINUOUS
 62
       7
100
AcDbLine
 10
262.97912307
 20
-232.29883783
 30
0.0
 11
263.16924442
 21
-232.25181828
 31
0.0
  0
LINE
  5
73
100
AcDbEntity
  8
LAYER0001
  6
CONTINUOUS
 62
       7
100
AcDbLine
 10
263.16924442
 20
-232.25181828
 30
0.0
 11
263.35904825
 21
-232.20305705
 31
0.0
  0
LINE
  5
74
100
AcDbEntity
  8
LAYER0001
  6
CONTINUOUS
 62
       7
100
AcDbLine
 10
263.35904825
 20
-232.20305705
 30
0.0
 11
263.54856632
 21
-232.15272831
 31
0.0
  0
LINE
  5
75
100
AcDbEntity
  8
LAYER0001
  6
CONTINUOUS
 62
       7
100
AcDbLine
 10
263.54856632
 20
-232.15272831
 30
0.0
 11
263.73783037
 21
-232.10100623
 31
0.0
  0
LINE
  5
76
100
AcDbEntity
  8
LAYER0001
  6
CONTINUOUS
 62
       7
100
AcDbLine
 10
263.73783037
 20
-232.10100623
 30
0.0
 11
263.92687215
 21
-232.04806498
 31
0.0
  0
LINE
  5
77
100
AcDbEntity
  8
LAYER0001
  6
CONTINUOUS
 62
       7
100
AcDbLine
 10
263.92687215
 20
-232.04806498
 30
0.0
 11
264.11572343
 21
-231.99407872
 31
0.0
  0
LINE
  5
78
100
AcDbEntity
  8
LAYER0001
  6
CONTINUOUS
 62
       7
100
AcDbLine
 10
264.11572343
 20
-231.99407872
 30
0.0
 11
264.30441594
 21
-231.93922162
 31
0.0
  0
LINE
  5
79
100
AcDbEntity
  8
LAYER0001
  6
CONTINUOUS
 62
       7
100
AcDbLine
 10
264.30441594
 20
-231.93922162
 30
0.0
 11
264.49298145
 21
-231.88366785
 31
0.0
  0
LINE
  5
7A
100
AcDbEntity
  8
LAYER0001
  6
CONTINUOUS
 62
       7
100
AcDbLine
 10
264.49298145
 20
-231.88366785
 30
0.0
 11
264.6814517
 21
-231.82759158
 31
0.0
  0
LINE
  5
7B
100
AcDbEntity
  8
LAYER0001
  6
CONTINUOUS
 62
       7
100
AcDbLine
 10
264.6814517
 20
-231.82759158
 30
0.0
 11
264.86985845
 21
-231.77116697
 31
0.0
  0
LINE
  5
7C
100
AcDbEntity
  8
LAYER0001
  6
CONTINUOUS
 62
       7
100
AcDbLine
 10
264.86985845
 20
-231.77116697
 30
0.0
 11
265.05823344
 21
-231.7145682
 31
0.0
  0
ENDBLK
  5
7D
100
AcDbEntity
  8
0
100
AcDbBlockEnd
  0
BLOCK
  5
7E
100
AcDbEntity
  8
0
100
AcDbBlockBegin
  2
GROUP_2
 70
       0
 10
0.0
 20
0.0
 30
0.0
  3
GROUP_2
  1

  0
LINE
  5
7F
100
AcDbEntity
  8
LAYER0001
  6
CONTINUOUS
 62
       7
100
AcDbLine
 10
265.05823344
 20
-231.7145682
 30
0.0
 11
265.28441448
 21
-231.78403734
 31
0.0
  0
LINE
  5
80
100
AcDbEntity
  8
LAYER0001
  6
CONTINUOUS
 62
       7
100
AcDbLine
 10
265.28441448
 20
-231.78403734
 30
0.0
 11
265.51064482
 21
-231.85314016
 31
0.0
  0
LINE
  5
81
100
AcDbEntity
  8
LAYER0001
  6
CONTINUOUS
 62
       7
100
AcDbLine
 10
265.51064482
 20
-231.85314016
 30
0.0
 11
265.73697372
 21
-231.92151033
 31
0.0
  0
LINE
  5
82
100
AcDbEntity
  8
LAYER0001
  6
CONTINUOUS
 62
       7
100
AcDbLine
 10
265.73697372
 20
-231.92151033
 30
0.0
 11
265.96345049
 21
-231.98878154
 31
0.0
  0
LINE
  5
83
100
AcDbEntity
  8
LAYER0001
  6
CONTINUOUS
 62
       7
100
AcDbLine
 10
265.96345049
 20
-231.98878154
 30
0.0
 11
266.19012441
 21
-232.05458747
 31
0.0
  0
LINE
  5
84
100
AcDbEntity
  8
LAYER0001
  6
CONTINUOUS
 62
       7
100
AcDbLine
 10
266.19012441
 20
-232.05458747
 30
0.0
 11
266.41704477
 21
-232.1185618
 31
0.0
  0
LINE
  5
85
100
AcDbEntity
  8
LAYER0001
  6
CONTINUOUS
 62
       7
100
AcDbLine
 10
266.41704477
 20
-232.1185618
 30
0.0
 11
266.64426085
 21
-232.1803382
 31
0.0
  0
LINE
  5
86
100
AcDbEntity
  8
LAYER0001
  6
CONTINUOUS
 62
       7
100
AcDbLine
 10
266.64426085
 20
-232.1803382
 30
0.0
 11
266.87182195
 21
-232.23955035
 31
0.0
  0
LINE
  5
87
100
AcDbEntity
  8
LAYER0001
  6
CONTINUOUS
 62
       7
100
AcDbLine
 10
266.87182195
 20
-232.23955035
 30
0.0
 11
267.09977735
 21
-232.29583193
 31
0.0
  0
LINE
  5
88
100
AcDbEntity
  8
LAYER0001
  6
CONTINUOUS
 62
       7
100
AcDbLine
 10
267.09977735
 20
-232.29583193
 30
0.0
 11
267.32817634
 21
-232.34881663
 31
0.0
  0
LINE
  5
89
100
AcDbEntity
  8
LAYER0001
  6
CONTINUOUS
 62
       7
100
AcDbLine
 10
267.32817634
 20
-232.34881663
 30
0.0
 11
267.5570682
 21
-232.39813812
 31
0.0
  0
LINE
  5
8A
100
AcDbEntity
  8
LAYER0001
  6
CONTINUOUS
 62
       7
100
AcDbLine
 10
267.5570682
 20
-232.39813812
 30
0.0
 11
267.78650223
 21
-232.44343007
 31
0.0
  0
LINE
  5
8B
100
AcDbEntity
  8
LAYER0001
  6
CONTINUOUS
 62
       7
100
AcDbLine
 10
267.78650223
 20
-232.44343007
 30
0.0
 11
268.01652395
 21
-232.48435412
 31
0.0
  0
LINE
  5
8C
100
AcDbEntity
  8
LAYER0001
  6
CONTINUOUS
 62
       7
100
AcDbLine
 10
268.01652395
 20
-232.48435412
 30
0.0
 11
268.24712553
 21
-232.52096846
 31
0.0
  0
LINE
  5
8D
100
AcDbEntity
  8
LAYER0001
  6
CONTINUOUS
 62
       7
100
AcDbLine
 10
268.24712553
 20
-232.52096846
 30
0.0
 11
268.47825952
 21
-232.55362582
 31
0.0
  0
LINE
  5
8E
100
AcDbEntity
  8
LAYER0001
  6
CONTINUOUS
 62
       7
100
AcDbLine
 10
268.47825952
 20
-232.55362582
 30
0.0
 11
268.70987751
 21
-232.58268593
 31
0.0
  0
LINE
  5
8F
100
AcDbEntity
  8
LAYER0001
  6
CONTINUOUS
 62
       7
100
AcDbLine
 10
268.70987751
 20
-232.58268593
 30
0.0
 11
268.94193109
 21
-232.60850851
 31
0.0
  0
LINE
  5
90
100
AcDbEntity
  8
LAYER0001
  6
CONTINUOUS
 62
       7
100
AcDbLine
 10
268.94193109
 20
-232.60850851
 30
0.0
 11
269.17437189
 21
-232.63145329
 31
0.0
  0
LINE
  5
91
100
AcDbEntity
  8
LAYER0001
  6
CONTINUOUS
 62
       7
100
AcDbLine
 10
269.17437189
 20
-232.63145329
 30
0.0
 11
269.40715148
 21
-232.65188
 31
0.0
  0
LINE
  5
92
100
AcDbEntity
  8
LAYER0001
  6
CONTINUOUS
 62
       7
100
AcDbLine
 10
269.40715148
 20
-232.65188
 30
0.0
 11
269.64022147
 21
-232.67014835
 31
0.0
  0
LINE
  5
93
100
AcDbEntity
  8
LAYER0001
  6
CONTINUOUS
 62
       7
100
AcDbLine
 10
269.64022147
 20
-232.67014835
 30
0.0
 11
269.87353347
 21
-232.68661808
 31
0.0
  0
LINE
  5
94
100
AcDbEntity
  8
LAYER0001
  6
CONTINUOUS
 62
       7
100
AcDbLine
 10
269.87353347
 20
-232.68661808
 30
0.0
 11
270.10703906
 21
-232.70164891
 31
0.0
  0
LINE
  5
95
100
AcDbEntity
  8
LAYER0001
  6
CONTINUOUS
 62
       7
100
AcDbLine
 10
270.10703906
 20
-232.70164891
 30
0.0
 11
270.34068986
 21
-232.71560056
 31
0.0
  0
LINE
  5
96
100
AcDbEntity
  8
LAYER0001
  6
CONTINUOUS
 62
       7
100
AcDbLine
 10
270.34068986
 20
-232.71560056
 30
0.0
 11
270.57443746
 21
-232.72883276
 31
0.0
  0
LINE
  5
97
100
AcDbEntity
  8
LAYER0001
  6
CONTINUOUS
 62
       7
100
AcDbLine
 10
270.57443746
 20
-232.72883276
 30
0.0
 11
270.80823345
 21
-232.74170524
 31
0.0
  0
ENDBLK
  5
98
100
AcDbEntity
  8
0
100
AcDbBlockEnd
  0
BLOCK
  5
99
100
AcDbEntity
  8
0
100
AcDbBlockBegin
  2
GROUP_3
 70
       0
 10
0.0
 20
0.0
 30
0.0
  3
GROUP_3
  1

  0
LINE
  5
9A
100
AcDbEntity
  8
LAYER0001
  6
CONTINUOUS
 62
       7
100
AcDbLine
 10
270.80823345
 20
-225.24171239
 30
0.0
 11
270.61377662
 21
-225.24365736
 31
0.0
  0
LINE
  5
9B
100
AcDbEntity
  8
LAYER0001
  6
CONTINUOUS
 62
       7
100
AcDbLine
 10
270.61377662
 20
-225.24365736
 30
0.0
 11
270.4193109
 21
-225.24683865
 31
0.0
  0
LINE
  5
9C
100
AcDbEntity
  8
LAYER0001
  6
CONTINUOUS
 62
       7
100
AcDbLine
 10
270.4193109
 20
-225.24683865
 30
0.0
 11
270.22483251
 21
-225.25234254
 31
0.0
  0
LINE
  5
9D
100
AcDbEntity
  8
LAYER0001
  6
CONTINUOUS
 62
       7
100
AcDbLine
 10
270.22483251
 20
-225.25234254
 30
0.0
 11
270.03036565
 21
-225.26043644
 31
0.0
  0
LINE
  5
9E
100
AcDbEntity
  8
LAYER0001
  6
CONTINUOUS
 62
       7
100
AcDbLine
 10
270.03036565
 20
-225.26043644
 30
0.0
 11
269.83594401
 21
-225.27110981
 31
0.0
  0
LINE
  5
9F
100
AcDbEntity
  8
LAYER0001
  6
CONTINUOUS
 62
       7
100
AcDbLine
 10
269.83594401
 20
-225.27110981
 30
0.0
 11
269.64160128
 21
-225.28435189
 31
0.0
  0
LINE
  5
A0
100
AcDbEntity
  8
LAYER0001
  6
CONTINUOUS
 62
       7
100
AcDbLine
 10
269.64160128
 20
-225.28435189
 30
0.0
 11
269.44737117
 21
-225.30015192
 31
0.0
  0
LINE
  5
A1
100
AcDbEntity
  8
LAYER0001
  6
CONTINUOUS
 62
       7
100
AcDbLine
 10
269.44737117
 20
-225.30015192
 30
0.0
 11
269.25328735
 21
-225.31849914
 31
0.0
  0
LINE
  5
A2
100
AcDbEntity
  8
LAYER0001
  6
CONTINUOUS
 62
       7
100
AcDbLine
 10
269.25328735
 20
-225.31849914
 30
0.0
 11
269.05938354
 21
-225.33938277
 31
0.0
  0
LINE
  5
A3
100
AcDbEntity
  8
LAYER0001
  6
CONTINUOUS
 62
       7
100
AcDbLine
 10
269.05938354
 20
-225.33938277
 30
0.0
 11
268.86569343
 21
-225.36279208
 31
0.0
  0
LINE
  5
A4
100
AcDbEntity
  8
LAYER0001
  6
CONTINUOUS
 62
       7
100
AcDbLine
 10
268.86569343
 20
-225.36279208
 30
0.0
 11
268.6722507
 21
-225.38871628
 31
0.0
  0
LINE
  5
A5
100
AcDbEntity
  8
LAYER0001
  6
CONTINUOUS
 62
       7
100
AcDbLine
 10
268.6722507
 20
-225.38871628
 30
0.0
 11
268.47908907
 21
-225.41714461
 31
0.0
  0
LINE
  5
A6
100
AcDbEntity
  8
LAYER0001
  6
CONTINUOUS
 62
       7
100
AcDbLine
 10
268.47908907
 20
-225.41714461
 30
0.0
 11
268.28624221
 21
-225.44806633
 31
0.0
  0
LINE
  5
A7
100
AcDbEntity
  8
LAYER0001
  6
CONTINUOUS
 62
       7
100
AcDbLine
 10
268.28624221
 20
-225.44806633
 30
0.0
 11
268.09374384
 21
-225.48147065
 31
0.0
  0
LINE
  5
A8
100
AcDbEntity
  8
LAYER0001
  6
CONTINUOUS
 62
       7
100
AcDbLine
 10
268.09374384
 20
-225.48147065
 30
0.0
 11
267.90162764
 21
-225.51734683
 31
0.0
  0
LINE
  5
A9
100
AcDbEntity
  8
LAYER0001
  6
CONTINUOUS
 62
       7
100
AcDbLine
 10
267.90162764
 20
-225.51734683
 30
0.0
 11
267.70992731
 21
-225.55568408
 31
0.0
  0
LINE
  5
AA
100
AcDbEntity
  8
LAYER0001
  6
CONTINUOUS
 62
       7
100
AcDbLine
 10
267.70992731
 20
-225.55568408
 30
0.0
 11
267.51866294
 21
-225.59643773
 31
0.0
  0
LINE
  5
AB
100
AcDbEntity
  8
LAYER0001
  6
CONTINUOUS
 62
       7
100
AcDbLine
 10
267.51866294
 20
-225.59643773
 30
0.0
 11
267.32781139
 21
-225.6394551
 31
0.0
  0
LINE
  5
AC
100
AcDbEntity
  8
LAYER0001
  6
CONTINUOUS
 62
       7
100
AcDbLine
 10
267.32781139
 20
-225.6394551
 30
0.0
 11
267.1373409
 21
-225.68456205
 31
0.0
  0
LINE
  5
AD
100
AcDbEntity
  8
LAYER0001
  6
CONTINUOUS
 62
       7
100
AcDbLine
 10
267.1373409
 20
-225.68456205
 30
0.0
 11
266.94721971
 21
-225.73158446
 31
0.0
  0
LINE
  5
AE
100
AcDbEntity
  8
LAYER0001
  6
CONTINUOUS
 62
       7
100
AcDbLine
 10
266.94721971
 20
-225.73158446
 30
0.0
 11
266.75741608
 21
-225.78034819
 31
0.0
  0
LINE
  5
AF
100
AcDbEntity
  8
LAYER0001
  6
CONTINUOUS
 62
       7
100
AcDbLine
 10
266.75741608
 20
-225.78034819
 30
0.0
 11
266.56789823
 21
-225.83067911
 31
0.0
  0
LINE
  5
B0
100
AcDbEntity
  8
LAYER0001
  6
CONTINUOUS
 62
       7
100
AcDbLine
 10
266.56789823
 20
-225.83067911
 30
0.0
 11
266.37863442
 21
-225.88240309
 31
0.0
  0
LINE
  5
B1
100
AcDbEntity
  8
LAYER0001
  6
CONTINUOUS
 62
       7
100
AcDbLine
 10
266.37863442
 20
-225.88240309
 30
0.0
 11
266.1895929
 21
-225.93534599
 31
0.0
  0
LINE
  5
B2
100
AcDbEntity
  8
LAYER0001
  6
CONTINUOUS
 62
       7
100
AcDbLine
 10
266.1895929
 20
-225.93534599
 30
0.0
 11
266.0007419
 21
-225.98933369
 31
0.0
  0
LINE
  5
B3
100
AcDbEntity
  8
LAYER0001
  6
CONTINUOUS
 62
       7
100
AcDbLine
 10
266.0007419
 20
-225.98933369
 30
0.0
 11
265.81204968
 21
-226.04419204
 31
0.0
  0
LINE
  5
B4
100
AcDbEntity
  8
LAYER0001
  6
CONTINUOUS
 62
       7
100
AcDbLine
 10
265.81204968
 20
-226.04419204
 30
0.0
 11
265.62348448
 21
-226.09974693
 31
0.0
  0
LINE
  5
B5
100
AcDbEntity
  8
LAYER0001
  6
CONTINUOUS
 62
       7
100
AcDbLine
 10
265.62348448
 20
-226.09974693
 30
0.0
 11
265.43501454
 21
-226.15582421
 31
0.0
  0
LINE
  5
B6
100
AcDbEntity
  8
LAYER0001
  6
CONTINUOUS
 62
       7
100
AcDbLine
 10
265.43501454
 20
-226.15582421
 30
0.0
 11
265.24660811
 21
-226.21224975
 31
0.0
  0
LINE
  5
B7
100
AcDbEntity
  8
LAYER0001
  6
CONTINUOUS
 62
       7
100
AcDbLine
 10
265.24660811
 20
-226.21224975
 30
0.0
 11
265.05823344
 21
-226.26884943
 31
0.0
  0
ENDBLK
  5
B8
100
AcDbEntity
  8
0
100
AcDbBlockEnd
  0
BLOCK
  5
B9
100
AcDbEntity
  8
0
100
AcDbBlockBegin
  2
GROUP_4
 70
       0
 10
0.0
 20
0.0
 30
0.0
  3
GROUP_4
  1

  0
LINE
  5
BA
100
AcDbEntity
  8
LAYER0001
  6
CONTINUOUS
 62
       7
100
AcDbLine
 10
276.55823346
 20
-226.26884943
 30
0.0
 11
276.33205286
 21
-226.19937681
 31
0.0
  0
LINE
  5
BB
100
AcDbEntity
  8
LAYER0001
  6
CONTINUOUS
 62
       7
100
AcDbLine
 10
276.33205286
 20
-226.19937681
 30
0.0
 11
276.10582296
 21
-226.13027055
 31
0.0
  0
LINE
  5
BC
100
AcDbEntity
  8
LAYER0001
  6
CONTINUOUS
 62
       7
100
AcDbLine
 10
276.10582296
 20
-226.13027055
 30
0.0
 11
275.87949447
 21
-226.06189703
 31
0.0
  0
LINE
  5
BD
100
AcDbEntity
  8
LAYER0001
  6
CONTINUOUS
 62
       7
100
AcDbLine
 10
275.87949447
 20
-226.06189703
 30
0.0
 11
275.65301811
 21
-225.9946226
 31
0.0
  0
LINE
  5
BE
100
AcDbEntity
  8
LAYER0001
  6
CONTINUOUS
 62
       7
100
AcDbLine
 10
275.65301811
 20
-225.9946226
 30
0.0
 11
275.42634457
 21
-225.92881363
 31
0.0
  0
LINE
  5
BF
100
AcDbEntity
  8
LAYER0001
  6
CONTINUOUS
 62
       7
100
AcDbLine
 10
275.42634457
 20
-225.92881363
 30
0.0
 11
275.19942456
 21
-225.8648365
 31
0.0
  0
LINE
  5
C0
100
AcDbEntity
  8
LAYER0001
  6
CONTINUOUS
 62
       7
100
AcDbLine
 10
275.19942456
 20
-225.8648365
 30
0.0
 11
274.9722088
 21
-225.80305755
 31
0.0
  0
LINE
  5
C1
100
AcDbEntity
  8
LAYER0001
  6
CONTINUOUS
 62
       7
100
AcDbLine
 10
274.9722088
 20
-225.80305755
 30
0.0
 11
274.74464798
 21
-225.74384317
 31
0.0
  0
LINE
  5
C2
100
AcDbEntity
  8
LAYER0001
  6
CONTINUOUS
 62
       7
100
AcDbLine
 10
274.74464798
 20
-225.74384317
 30
0.0
 11
274.51669282
 21
-225.6875597
 31
0.0
  0
LINE
  5
C3
100
AcDbEntity
  8
LAYER0001
  6
CONTINUOUS
 62
       7
100
AcDbLine
 10
274.51669282
 20
-225.6875597
 30
0.0
 11
274.28829402
 21
-225.63457353
 31
0.0
  0
LINE
  5
C4
100
AcDbEntity
  8
LAYER0001
  6
CONTINUOUS
 62
       7
100
AcDbLine
 10
274.28829402
 20
-225.63457353
 30
0.0
 11
274.05940228
 21
-225.58525102
 31
0.0
  0
LINE
  5
C5
100
AcDbEntity
  8
LAYER0001
  6
CONTINUOUS
 62
       7
100
AcDbLine
 10
274.05940228
 20
-225.58525102
 30
0.0
 11
273.82996832
 21
-225.53995852
 31
0.0
  0
LINE
  5
C6
100
AcDbEntity
  8
LAYER0001
  6
CONTINUOUS
 62
       7
100
AcDbLine
 10
273.82996832
 20
-225.53995852
 30
0.0
 11
273.5999466
 21
-225.49903447
 31
0.0
  0
LINE
  5
C7
100
AcDbEntity
  8
LAYER0001
  6
CONTINUOUS
 62
       7
100
AcDbLine
 10
273.5999466
 20
-225.49903447
 30
0.0
 11
273.36934495
 21
-225.46242066
 31
0.0
  0
LINE
  5
C8
100
AcDbEntity
  8
LAYER0001
  6
CONTINUOUS
 62
       7
100
AcDbLine
 10
273.36934495
 20
-225.46242066
 30
0.0
 11
273.13821084
 21
-225.42976433
 31
0.0
  0
LINE
  5
C9
100
AcDbEntity
  8
LAYER0001
  6
CONTINUOUS
 62
       7
100
AcDbLine
 10
273.13821084
 20
-225.42976433
 30
0.0
 11
272.90659267
 21
-225.40070569
 31
0.0
  0
LINE
  5
CA
100
AcDbEntity
  8
LAYER0001
  6
CONTINUOUS
 62
       7
100
AcDbLine
 10
272.90659267
 20
-225.40070569
 30
0.0
 11
272.67453884
 21
-225.37488498
 31
0.0
  0
LINE
  5
CB
100
AcDbEntity
  8
LAYER0001
  6
CONTINUOUS
 62
       7
100
AcDbLine
 10
272.67453884
 20
-225.37488498
 30
0.0
 11
272.44209777
 21
-225.35194244
 31
0.0
  0
LINE
  5
CC
100
AcDbEntity
  8
LAYER0001
  6
CONTINUOUS
 62
       7
100
AcDbLine
 10
272.44209777
 20
-225.35194244
 30
0.0
 11
272.20931786
 21
-225.33151828
 31
0.0
  0
LINE
  5
CD
100
AcDbEntity
  8
LAYER0001
  6
CONTINUOUS
 62
       7
100
AcDbLine
 10
272.20931786
 20
-225.33151828
 30
0.0
 11
271.97624751
 21
-225.31325274
 31
0.0
  0
LINE
  5
CE
100
AcDbEntity
  8
LAYER0001
  6
CONTINUOUS
 62
       7
100
AcDbLine
 10
271.97624751
 20
-225.31325274
 30
0.0
 11
271.74293513
 21
-225.29678605
 31
0.0
  0
LINE
  5
CF
100
AcDbEntity
  8
LAYER0001
  6
CONTINUOUS
 62
       7
100
AcDbLine
 10
271.74293513
 20
-225.29678605
 30
0.0
 11
271.50942913
 21
-225.28175844
 31
0.0
  0
LINE
  5
D0
100
AcDbEntity
  8
LAYER0001
  6
CONTINUOUS
 62
       7
100
AcDbLine
 10
271.50942913
 20
-225.28175844
 30
0.0
 11
271.27577792
 21
-225.26781014
 31
0.0
  0
LINE
  5
D1
100
AcDbEntity
  8
LAYER0001
  6
CONTINUOUS
 62
       7
100
AcDbLine
 10
271.27577792
 20
-225.26781014
 30
0.0
 11
271.04202989
 21
-225.25458138
 31
0.0
  0
LINE
  5
D2
100
AcDbEntity
  8
LAYER0001
  6
CONTINUOUS
 62
       7
100
AcDbLine
 10
271.04202989
 20
-225.25458138
 30
0.0
 11
270.80823345
 21
-225.24171239
 31
0.0
  0
ENDBLK
  5
D3
100
AcDbEntity
  8
0
100
AcDbBlockEnd
  0
BLOCK
  5
D4
100
AcDbEntity
  8
0
100
AcDbBlockBegin
  2
GROUP_5
 70
       0
 10
0.0
 20
0.0
 30
0.0
  3
GROUP_5
  1

  0
LINE
  5
D5
100
AcDbEntity
  8
LAYER0001
  6
CONTINUOUS
 62
       7
100
AcDbLine
 10
270.80823345
 20
-232.74170524
 30
0.0
 11
271.00268976
 21
-232.73974532
 31
0.0
  0
LINE
  5
D6
100
AcDbEntity
  8
LAYER0001
  6
CONTINUOUS
 62
       7
100
AcDbLine
 10
271.00268976
 20
-232.73974532
 30
0.0
 11
271.19715499
 21
-232.73655046
 31
0.0
  0
LINE
  5
D7
100
AcDbEntity
  8
LAYER0001
  6
CONTINUOUS
 62
       7
100
AcDbLine
 10
271.19715499
 20
-232.73655046
 30
0.0
 11
271.39163292
 21
-232.73103556
 31
0.0
  0
LINE
  5
D8
100
AcDbEntity
  8
LAYER0001
  6
CONTINUOUS
 62
       7
100
AcDbLine
 10
271.39163292
 20
-232.73103556
 30
0.0
 11
271.58609938
 21
-232.72293333
 31
0.0
  0
LINE
  5
D9
100
AcDbEntity
  8
LAYER0001
  6
CONTINUOUS
 62
       7
100
AcDbLine
 10
271.58609938
 20
-232.72293333
 30
0.0
 11
271.78052067
 21
-232.71225405
 31
0.0
  0
LINE
  5
DA
100
AcDbEntity
  8
LAYER0001
  6
CONTINUOUS
 62
       7
100
AcDbLine
 10
271.78052067
 20
-232.71225405
 30
0.0
 11
271.97486309
 21
-232.69900824
 31
0.0
  0
LINE
  5
DB
100
AcDbEntity
  8
LAYER0001
  6
CONTINUOUS
 62
       7
100
AcDbLine
 10
271.97486309
 20
-232.69900824
 30
0.0
 11
272.16909295
 21
-232.68320643
 31
0.0
  0
LINE
  5
DC
100
AcDbEntity
  8
LAYER0001
  6
CONTINUOUS
 62
       7
100
AcDbLine
 10
272.16909295
 20
-232.68320643
 30
0.0
 11
272.36317655
 21
-232.66485911
 31
0.0
  0
LINE
  5
DD
100
AcDbEntity
  8
LAYER0001
  6
CONTINUOUS
 62
       7
100
AcDbLine
 10
272.36317655
 20
-232.66485911
 30
0.0
 11
272.55708019
 21
-232.64397682
 31
0.0
  0
LINE
  5
DE
100
AcDbEntity
  8
LAYER0001
  6
CONTINUOUS
 62
       7
100
AcDbLine
 10
272.55708019
 20
-232.64397682
 30
0.0
 11
272.75077017
 21
-232.62057007
 31
0.0
  0
LINE
  5
DF
100
AcDbEntity
  8
LAYER0001
  6
CONTINUOUS
 62
       7
100
AcDbLine
 10
272.75077017
 20
-232.62057007
 30
0.0
 11
272.94421281
 21
-232.59464937
 31
0.0
  0
LINE
  5
E0
100
AcDbEntity
  8
LAYER0001
  6
CONTINUOUS
 62
       7
100
AcDbLine
 10
272.94421281
 20
-232.59464937
 30
0.0
 11
273.13737439
 21
-232.56622524
 31
0.0
  0
LINE
  5
E1
100
AcDbEntity
  8
LAYER0001
  6
CONTINUOUS
 62
       7
100
AcDbLine
 10
273.13737439
 20
-232.56622524
 30
0.0
 11
273.33022122
 21
-232.53530821
 31
0.0
  0
LINE
  5
E2
100
AcDbEntity
  8
LAYER0001
  6
CONTINUOUS
 62
       7
100
AcDbLine
 10
273.33022122
 20
-232.53530821
 30
0.0
 11
273.52271962
 21
-232.50190878
 31
0.0
  0
LINE
  5
E3
100
AcDbEntity
  8
LAYER0001
  6
CONTINUOUS
 62
       7
100
AcDbLine
 10
273.52271962
 20
-232.50190878
 30
0.0
 11
273.71483587
 21
-232.46603747
 31
0.0
  0
LINE
  5
E4
100
AcDbEntity
  8
LAYER0001
  6
CONTINUOUS
 62
       7
100
AcDbLine
 10
273.71483587
 20
-232.46603747
 30
0.0
 11
273.90653629
 21
-232.42770481
 31
0.0
  0
LINE
  5
E5
100
AcDbEntity
  8
LAYER0001
  6
CONTINUOUS
 62
       7
100
AcDbLine
 10
273.90653629
 20
-232.42770481
 30
0.0
 11
274.09780076
 21
-232.3869553
 31
0.0
  0
LINE
  5
E6
100
AcDbEntity
  8
LAYER0001
  6
CONTINUOUS
 62
       7
100
AcDbLine
 10
274.09780076
 20
-232.3869553
 30
0.0
 11
274.28865245
 21
-232.34394161
 31
0.0
  0
LINE
  5
E7
100
AcDbEntity
  8
LAYER0001
  6
CONTINUOUS
 62
       7
100
AcDbLine
 10
274.28865245
 20
-232.34394161
 30
0.0
 11
274.47912311
 21
-232.2988379
 31
0.0
  0
LINE
  5
E8
100
AcDbEntity
  8
LAYER0001
  6
CONTINUOUS
 62
       7
100
AcDbLine
 10
274.47912311
 20
-232.2988379
 30
0.0
 11
274.66924449
 21
-232.25181834
 31
0.0
  0
LINE
  5
E9
100
AcDbEntity
  8
LAYER0001
  6
CONTINUOUS
 62
       7
100
AcDbLine
 10
274.66924449
 20
-232.25181834
 30
0.0
 11
274.85904834
 21
-232.20305711
 31
0.0
  0
LINE
  5
EA
100
AcDbEntity
  8
LAYER0001
  6
CONTINUOUS
 62
       7
100
AcDbLine
 10
274.85904834
 20
-232.20305711
 30
0.0
 11
275.04856642
 21
-232.15272837
 31
0.0
  0
LINE
  5
EB
100
AcDbEntity
  8
LAYER0001
  6
CONTINUOUS
 62
       7
100
AcDbLine
 10
275.04856642
 20
-232.15272837
 30
0.0
 11
275.23783047
 21
-232.10100628
 31
0.0
  0
LINE
  5
EC
100
AcDbEntity
  8
LAYER0001
  6
CONTINUOUS
 62
       7
100
AcDbLine
 10
275.23783047
 20
-232.10100628
 30
0.0
 11
275.42687225
 21
-232.04806503
 31
0.0
  0
LINE
  5
ED
100
AcDbEntity
  8
LAYER0001
  6
CONTINUOUS
 62
       7
100
AcDbLine
 10
275.42687225
 20
-232.04806503
 30
0.0
 11
275.61572352
 21
-231.99407876
 31
0.0
  0
LINE
  5
EE
100
AcDbEntity
  8
LAYER0001
  6
CONTINUOUS
 62
       7
100
AcDbLine
 10
275.61572352
 20
-231.99407876
 30
0.0
 11
275.80441603
 21
-231.93922165
 31
0.0
  0
LINE
  5
EF
100
AcDbEntity
  8
LAYER0001
  6
CONTINUOUS
 62
       7
100
AcDbLine
 10
275.80441603
 20
-231.93922165
 30
0.0
 11
275.99298152
 21
-231.88366788
 31
0.0
  0
LINE
  5
F0
100
AcDbEntity
  8
LAYER0001
  6
CONTINUOUS
 62
       7
100
AcDbLine
 10
275.99298152
 20
-231.88366788
 30
0.0
 11
276.18145176
 21
-231.8275916
 31
0.0
  0
LINE
  5
F1
100
AcDbEntity
  8
LAYER0001
  6
CONTINUOUS
 62
       7
100
AcDbLine
 10
276.18145176
 20
-231.8275916
 30
0.0
 11
276.36985849
 21
-231.77116698
 31
0.0
  0
LINE
  5
F2
100
AcDbEntity
  8
LAYER0001
  6
CONTINUOUS
 62
       7
100
AcDbLine
 10
276.36985849
 20
-231.77116698
 30
0.0
 11
276.55823346
 21
-231.7145682
 31
0.0
  0
ENDBLK
  5
F3
100
AcDbEntity
  8
0
100
AcDbBlockEnd
  0
BLOCK
  5
F4
100
AcDbEntity
  8
0
100
AcDbBlockBegin
  2
GROUP_6
 70
       0
 10
0.0
 20
0.0
 30
0.0
  3
GROUP_6
  1

  0
LINE
  5
F5
100
AcDbEntity
  8
LAYER0001
  6
CONTINUOUS
 62
       7
100
AcDbLine
 10
265.05823344
 20
-226.26884943
 30
0.0
 11
264.83205287
 21
-226.19937681
 31
0.0
  0
LINE
  5
F6
100
AcDbEntity
  8
LAYER0001
  6
CONTINUOUS
 62
       7
100
AcDbLine
 10
264.83205287
 20
-226.19937681
 30
0.0
 11
264.605823
 21
-226.13027056
 31
0.0
  0
LINE
  5
F7
100
AcDbEntity
  8
LAYER0001
  6
CONTINUOUS
 62
       7
100
AcDbLine
 10
264.605823
 20
-226.13027056
 30
0.0
 11
264.37949454
 21
-226.06189703
 31
0.0
  0
LINE
  5
F8
100
AcDbEntity
  8
LAYER0001
  6
CONTINUOUS
 62
       7
100
AcDbLine
 10
264.37949454
 20
-226.06189703
 30
0.0
 11
264.15301821
 21
-225.9946226
 31
0.0
  0
LINE
  5
F9
100
AcDbEntity
  8
LAYER0001
  6
CONTINUOUS
 62
       7
100
AcDbLine
 10
264.15301821
 20
-225.9946226
 30
0.0
 11
263.92634469
 21
-225.92881364
 31
0.0
  0
LINE
  5
FA
100
AcDbEntity
  8
LAYER0001
  6
CONTINUOUS
 62
       7
100
AcDbLine
 10
263.92634469
 20
-225.92881364
 30
0.0
 11
263.69942471
 21
-225.8648365
 31
0.0
  0
LINE
  5
FB
100
AcDbEntity
  8
LAYER0001
  6
CONTINUOUS
 62
       7
100
AcDbLine
 10
263.69942471
 20
-225.8648365
 30
0.0
 11
263.47220897
 21
-225.80305756
 31
0.0
  0
LINE
  5
FC
100
AcDbEntity
  8
LAYER0001
  6
CONTINUOUS
 62
       7
100
AcDbLine
 10
263.47220897
 20
-225.80305756
 30
0.0
 11
263.24464818
 21
-225.74384317
 31
0.0
  0
LINE
  5
FD
100
AcDbEntity
  8
LAYER0001
  6
CONTINUOUS
 62
       7
100
AcDbLine
 10
263.24464818
 20
-225.74384317
 30
0.0
 11
263.01669303
 21
-225.68755971
 31
0.0
  0
LINE
  5
FE
100
AcDbEntity
  8
LAYER0001
  6
CONTINUOUS
 62
       7
100
AcDbLine
 10
263.01669303
 20
-225.68755971
 30
0.0
 11
262.78829424
 21
-225.63457354
 31
0.0
  0
LINE
  5
FF
100
AcDbEntity
  8
LAYER0001
  6
CONTINUOUS
 62
       7
100
AcDbLine
 10
262.78829424
 20
-225.63457354
 30
0.0
 11
262.55940251
 21
-225.58525102
 31
0.0
  0
LINE
  5
100
100
AcDbEntity
  8
LAYER0001
  6
CONTINUOUS
 62
       7
100
AcDbLine
 10
262.55940251
 20
-225.58525102
 30
0.0
 11
262.32996856
 21
-225.53995853
 31
0.0
  0
LINE
  5
101
100
AcDbEntity
  8
LAYER0001
  6
CONTINUOUS
 62
       7
100
AcDbLine
 10
262.32996856
 20
-225.53995853
 30
0.0
 11
262.09994684
 21
-225.49903447
 31
0.0
  0
LINE
  5
102
100
AcDbEntity
  8
LAYER0001
  6
CONTINUOUS
 62
       7
100
AcDbLine
 10
262.09994684
 20
-225.49903447
 30
0.0
 11
261.86934518
 21
-225.46242067
 31
0.0
  0
LINE
  5
103
100
AcDbEntity
  8
LAYER0001
  6
CONTINUOUS
 62
       7
100
AcDbLine
 10
261.86934518
 20
-225.46242067
 30
0.0
 11
261.63821106
 21
-225.42976433
 31
0.0
  0
LINE
  5
104
100
AcDbEntity
  8
LAYER0001
  6
CONTINUOUS
 62
       7
100
AcDbLine
 10
261.63821106
 20
-225.42976433
 30
0.0
 11
261.40659287
 21
-225.4007057
 31
0.0
  0
LINE
  5
105
100
AcDbEntity
  8
LAYER0001
  6
CONTINUOUS
 62
       7
100
AcDbLine
 10
261.40659287
 20
-225.4007057
 30
0.0
 11
261.17453903
 21
-225.37488499
 31
0.0
  0
LINE
  5
106
100
AcDbEntity
  8
LAYER0001
  6
CONTINUOUS
 62
       7
100
AcDbLine
 10
261.17453903
 20
-225.37488499
 30
0.0
 11
260.94209794
 21
-225.35194244
 31
0.0
  0
LINE
  5
107
100
AcDbEntity
  8
LAYER0001
  6
CONTINUOUS
 62
       7
100
AcDbLine
 10
260.94209794
 20
-225.35194244
 30
0.0
 11
260.70931801
 21
-225.33151828
 31
0.0
  0
LINE
  5
108
100
AcDbEntity
  8
LAYER0001
  6
CONTINUOUS
 62
       7
100
AcDbLine
 10
260.70931801
 20
-225.33151828
 30
0.0
 11
260.47624763
 21
-225.31325274
 31
0.0
  0
LINE
  5
109
100
AcDbEntity
  8
LAYER0001
  6
CONTINUOUS
 62
       7
100
AcDbLine
 10
260.47624763
 20
-225.31325274
 30
0.0
 11
260.24293523
 21
-225.29678605
 31
0.0
  0
LINE
  5
10A
100
AcDbEntity
  8
LAYER0001
  6
CONTINUOUS
 62
       7
100
AcDbLine
 10
260.24293523
 20
-225.29678605
 30
0.0
 11
260.0094292
 21
-225.28175844
 31
0.0
  0
LINE
  5
10B
100
AcDbEntity
  8
LAYER0001
  6
CONTINUOUS
 62
       7
100
AcDbLine
 10
260.0094292
 20
-225.28175844
 30
0.0
 11
259.77577796
 21
-225.26781014
 31
0.0
  0
LINE
  5
10C
100
AcDbEntity
  8
LAYER0001
  6
CONTINUOUS
 62
       7
100
AcDbLine
 10
259.77577796
 20
-225.26781014
 30
0.0
 11
259.5420299
 21
-225.25458138
 31
0.0
  0
LINE
  5
10D
100
AcDbEntity
  8
LAYER0001
  6
CONTINUOUS
 62
       7
100
AcDbLine
 10
259.5420299
 20
-225.25458138
 30
0.0
 11
259.30823343
 21
-225.24171239
 31
0.0
  0
ENDBLK
  5
10E
100
AcDbEntity
  8
0
100
AcDbBlockEnd
  0
BLOCK
  5
10F
100
AcDbEntity
  8
0
100
AcDbBlockBegin
  2
GROUP_7
 70
       0
 10
0.0
 20
0.0
 30
0.0
  3
GROUP_7
  1

  0
LINE
  5
110
100
AcDbEntity
  8
LAYER0001
  6
CONTINUOUS
 62
       7
100
AcDbLine
 10
259.30823343
 20
-225.24171239
 30
0.0
 11
259.11377679
 21
-225.24365736
 31
0.0
  0
LINE
  5
111
100
AcDbEntity
  8
LAYER0001
  6
CONTINUOUS
 62
       7
100
AcDbLine
 10
259.11377679
 20
-225.24365736
 30
0.0
 11
258.91931124
 21
-225.24683865
 31
0.0
  0
LINE
  5
112
100
AcDbEntity
  8
LAYER0001
  6
CONTINUOUS
 62
       7
100
AcDbLine
 10
258.91931124
 20
-225.24683865
 30
0.0
 11
258.72483298
 21
-225.25234253
 31
0.0
  0
LINE
  5
113
100
AcDbEntity
  8
LAYER0001
  6
CONTINUOUS
 62
       7
100
AcDbLine
 10
258.72483298
 20
-225.25234253
 30
0.0
 11
258.53036622
 21
-225.26043642
 31
0.0
  0
LINE
  5
114
100
AcDbEntity
  8
LAYER0001
  6
CONTINUOUS
 62
       7
100
AcDbLine
 10
258.53036622
 20
-225.26043642
 30
0.0
 11
258.33594463
 21
-225.27110979
 31
0.0
  0
LINE
  5
115
100
AcDbEntity
  8
LAYER0001
  6
CONTINUOUS
 62
       7
100
AcDbLine
 10
258.33594463
 20
-225.27110979
 30
0.0
 11
258.14160194
 21
-225.28435186
 31
0.0
  0
LINE
  5
116
100
AcDbEntity
  8
LAYER0001
  6
CONTINUOUS
 62
       7
100
AcDbLine
 10
258.14160194
 20
-225.28435186
 30
0.0
 11
257.94737182
 21
-225.30015188
 31
0.0
  0
LINE
  5
117
100
AcDbEntity
  8
LAYER0001
  6
CONTINUOUS
 62
       7
100
AcDbLine
 10
257.94737182
 20
-225.30015188
 30
0.0
 11
257.75328799
 21
-225.31849909
 31
0.0
  0
LINE
  5
118
100
AcDbEntity
  8
LAYER0001
  6
CONTINUOUS
 62
       7
100
AcDbLine
 10
257.75328799
 20
-225.31849909
 30
0.0
 11
257.55938413
 21
-225.33938272
 31
0.0
  0
LINE
  5
119
100
AcDbEntity
  8
LAYER0001
  6
CONTINUOUS
 62
       7
100
AcDbLine
 10
257.55938413
 20
-225.33938272
 30
0.0
 11
257.36569396
 21
-225.36279202
 31
0.0
  0
LINE
  5
11A
100
AcDbEntity
  8
LAYER0001
  6
CONTINUOUS
 62
       7
100
AcDbLine
 10
257.36569396
 20
-225.36279202
 30
0.0
 11
257.17225117
 21
-225.38871622
 31
0.0
  0
LINE
  5
11B
100
AcDbEntity
  8
LAYER0001
  6
CONTINUOUS
 62
       7
100
AcDbLine
 10
257.17225117
 20
-225.38871622
 30
0.0
 11
256.97908946
 21
-225.41714455
 31
0.0
  0
LINE
  5
11C
100
AcDbEntity
  8
LAYER0001
  6
CONTINUOUS
 62
       7
100
AcDbLine
 10
256.97908946
 20
-225.41714455
 30
0.0
 11
256.78624253
 21
-225.44806626
 31
0.0
  0
LINE
  5
11D
100
AcDbEntity
  8
LAYER0001
  6
CONTINUOUS
 62
       7
100
AcDbLine
 10
256.78624253
 20
-225.44806626
 30
0.0
 11
256.59374408
 21
-225.48147058
 31
0.0
  0
LINE
  5
11E
100
AcDbEntity
  8
LAYER0001
  6
CONTINUOUS
 62
       7
100
AcDbLine
 10
256.59374408
 20
-225.48147058
 30
0.0
 11
256.4016278
 21
-225.51734676
 31
0.0
  0
LINE
  5
11F
100
AcDbEntity
  8
LAYER0001
  6
CONTINUOUS
 62
       7
100
AcDbLine
 10
256.4016278
 20
-225.51734676
 30
0.0
 11
256.2099274
 21
-225.55568401
 31
0.0
  0
LINE
  5
120
100
AcDbEntity
  8
LAYER0001
  6
CONTINUOUS
 62
       7
100
AcDbLine
 10
256.2099274
 20
-225.55568401
 30
0.0
 11
256.01866298
 21
-225.59643766
 31
0.0
  0
LINE
  5
121
100
AcDbEntity
  8
LAYER0001
  6
CONTINUOUS
 62
       7
100
AcDbLine
 10
256.01866298
 20
-225.59643766
 30
0.0
 11
255.82781139
 21
-225.63945503
 31
0.0
  0
LINE
  5
122
100
AcDbEntity
  8
LAYER0001
  6
CONTINUOUS
 62
       7
100
AcDbLine
 10
255.82781139
 20
-225.63945503
 30
0.0
 11
255.63734086
 21
-225.68456198
 31
0.0
  0
LINE
  5
123
100
AcDbEntity
  8
LAYER0001
  6
CONTINUOUS
 62
       7
100
AcDbLine
 10
255.63734086
 20
-225.68456198
 30
0.0
 11
255.44721965
 21
-225.73158439
 31
0.0
  0
LINE
  5
124
100
AcDbEntity
  8
LAYER0001
  6
CONTINUOUS
 62
       7
100
AcDbLine
 10
255.44721965
 20
-225.73158439
 30
0.0
 11
255.25741599
 21
-225.78034813
 31
0.0
  0
LINE
  5
125
100
AcDbEntity
  8
LAYER0001
  6
CONTINUOUS
 62
       7
100
AcDbLine
 10
255.25741599
 20
-225.78034813
 30
0.0
 11
255.06789813
 21
-225.83067905
 31
0.0
  0
LINE
  5
126
100
AcDbEntity
  8
LAYER0001
  6
CONTINUOUS
 62
       7
100
AcDbLine
 10
255.06789813
 20
-225.83067905
 30
0.0
 11
254.87863432
 21
-225.88240304
 31
0.0
  0
LINE
  5
127
100
AcDbEntity
  8
LAYER0001
  6
CONTINUOUS
 62
       7
100
AcDbLine
 10
254.87863432
 20
-225.88240304
 30
0.0
 11
254.68959279
 21
-225.93534594
 31
0.0
  0
LINE
  5
128
100
AcDbEntity
  8
LAYER0001
  6
CONTINUOUS
 62
       7
100
AcDbLine
 10
254.68959279
 20
-225.93534594
 30
0.0
 11
254.50074181
 21
-225.98933365
 31
0.0
  0
LINE
  5
129
100
AcDbEntity
  8
LAYER0001
  6
CONTINUOUS
 62
       7
100
AcDbLine
 10
254.50074181
 20
-225.98933365
 30
0.0
 11
254.31204959
 21
-226.04419201
 31
0.0
  0
LINE
  5
12A
100
AcDbEntity
  8
LAYER0001
  6
CONTINUOUS
 62
       7
100
AcDbLine
 10
254.31204959
 20
-226.04419201
 30
0.0
 11
254.12348441
 21
-226.0997469
 31
0.0
  0
LINE
  5
12B
100
AcDbEntity
  8
LAYER0001
  6
CONTINUOUS
 62
       7
100
AcDbLine
 10
254.12348441
 20
-226.0997469
 30
0.0
 11
253.93501448
 21
-226.15582419
 31
0.0
  0
LINE
  5
12C
100
AcDbEntity
  8
LAYER0001
  6
CONTINUOUS
 62
       7
100
AcDbLine
 10
253.93501448
 20
-226.15582419
 30
0.0
 11
253.74660807
 21
-226.21224975
 31
0.0
  0
LINE
  5
12D
100
AcDbEntity
  8
LAYER0001
  6
CONTINUOUS
 62
       7
100
AcDbLine
 10
253.74660807
 20
-226.21224975
 30
0.0
 11
253.55823342
 21
-226.26884943
 31
0.0
  0
ENDBLK
  5
12E
100
AcDbEntity
  8
0
100
AcDbBlockEnd
  0
BLOCK
  5
12F
100
AcDbEntity
  8
0
100
AcDbBlockBegin
  2
GROUP_8
 70
       0
 10
0.0
 20
0.0
 30
0.0
  3
GROUP_8
  1

  0
LINE
  5
130
100
AcDbEntity
  8
LAYER0001
  6
CONTINUOUS
 62
       7
100
AcDbLine
 10
253.55823342
 20
-231.7145682
 30
0.0
 11
253.78441449
 21
-231.78403734
 31
0.0
  0
LINE
  5
131
100
AcDbEntity
  8
LAYER0001
  6
CONTINUOUS
 62
       7
100
AcDbLine
 10
253.78441449
 20
-231.78403734
 30
0.0
 11
254.01064485
 21
-231.85314016
 31
0.0
  0
LINE
  5
132
100
AcDbEntity
  8
LAYER0001
  6
CONTINUOUS
 62
       7
100
AcDbLine
 10
254.01064485
 20
-231.85314016
 30
0.0
 11
254.23697379
 21
-231.92151033
 31
0.0
  0
LINE
  5
133
100
AcDbEntity
  8
LAYER0001
  6
CONTINUOUS
 62
       7
100
AcDbLine
 10
254.23697379
 20
-231.92151033
 30
0.0
 11
254.46345059
 21
-231.98878155
 31
0.0
  0
LINE
  5
134
100
AcDbEntity
  8
LAYER0001
  6
CONTINUOUS
 62
       7
100
AcDbLine
 10
254.46345059
 20
-231.98878155
 30
0.0
 11
254.69012454
 21
-232.05458748
 31
0.0
  0
LINE
  5
135
100
AcDbEntity
  8
LAYER0001
  6
CONTINUOUS
 62
       7
100
AcDbLine
 10
254.69012454
 20
-232.05458748
 30
0.0
 11
254.91704492
 21
-232.1185618
 31
0.0
  0
LINE
  5
136
100
AcDbEntity
  8
LAYER0001
  6
CONTINUOUS
 62
       7
100
AcDbLine
 10
254.91704492
 20
-232.1185618
 30
0.0
 11
255.14426102
 21
-232.1803382
 31
0.0
  0
LINE
  5
137
100
AcDbEntity
  8
LAYER0001
  6
CONTINUOUS
 62
       7
100
AcDbLine
 10
255.14426102
 20
-232.1803382
 30
0.0
 11
255.37182214
 21
-232.23955035
 31
0.0
  0
LINE
  5
138
100
AcDbEntity
  8
LAYER0001
  6
CONTINUOUS
 62
       7
100
AcDbLine
 10
255.37182214
 20
-232.23955035
 30
0.0
 11
255.59977756
 21
-232.29583194
 31
0.0
  0
LINE
  5
139
100
AcDbEntity
  8
LAYER0001
  6
CONTINUOUS
 62
       7
100
AcDbLine
 10
255.59977756
 20
-232.29583194
 30
0.0
 11
255.82817656
 21
-232.34881663
 31
0.0
  0
LINE
  5
13A
100
AcDbEntity
  8
LAYER0001
  6
CONTINUOUS
 62
       7
100
AcDbLine
 10
255.82817656
 20
-232.34881663
 30
0.0
 11
256.05706843
 21
-232.39813812
 31
0.0
  0
LINE
  5
13B
100
AcDbEntity
  8
LAYER0001
  6
CONTINUOUS
 62
       7
100
AcDbLine
 10
256.05706843
 20
-232.39813812
 30
0.0
 11
256.28650247
 21
-232.44343008
 31
0.0
  0
LINE
  5
13C
100
AcDbEntity
  8
LAYER0001
  6
CONTINUOUS
 62
       7
100
AcDbLine
 10
256.28650247
 20
-232.44343008
 30
0.0
 11
256.51652419
 21
-232.48435413
 31
0.0
  0
LINE
  5
13D
100
AcDbEntity
  8
LAYER0001
  6
CONTINUOUS
 62
       7
100
AcDbLine
 10
256.51652419
 20
-232.48435413
 30
0.0
 11
256.74712576
 21
-232.52096846
 31
0.0
  0
LINE
  5
13E
100
AcDbEntity
  8
LAYER0001
  6
CONTINUOUS
 62
       7
100
AcDbLine
 10
256.74712576
 20
-232.52096846
 30
0.0
 11
256.97825974
 21
-232.55362582
 31
0.0
  0
LINE
  5
13F
100
AcDbEntity
  8
LAYER0001
  6
CONTINUOUS
 62
       7
100
AcDbLine
 10
256.97825974
 20
-232.55362582
 30
0.0
 11
257.20987771
 21
-232.58268593
 31
0.0
  0
LINE
  5
140
100
AcDbEntity
  8
LAYER0001
  6
CONTINUOUS
 62
       7
100
AcDbLine
 10
257.20987771
 20
-232.58268593
 30
0.0
 11
257.44193129
 21
-232.60850851
 31
0.0
  0
LINE
  5
141
100
AcDbEntity
  8
LAYER0001
  6
CONTINUOUS
 62
       7
100
AcDbLine
 10
257.44193129
 20
-232.60850851
 30
0.0
 11
257.67437206
 21
-232.63145329
 31
0.0
  0
LINE
  5
142
100
AcDbEntity
  8
LAYER0001
  6
CONTINUOUS
 62
       7
100
AcDbLine
 10
257.67437206
 20
-232.63145329
 30
0.0
 11
257.90715163
 21
-232.65188
 31
0.0
  0
LINE
  5
143
100
AcDbEntity
  8
LAYER0001
  6
CONTINUOUS
 62
       7
100
AcDbLine
 10
257.90715163
 20
-232.65188
 30
0.0
 11
258.1402216
 21
-232.67014835
 31
0.0
  0
LINE
  5
144
100
AcDbEntity
  8
LAYER0001
  6
CONTINUOUS
 62
       7
100
AcDbLine
 10
258.1402216
 20
-232.67014835
 30
0.0
 11
258.37353356
 21
-232.68661808
 31
0.0
  0
LINE
  5
145
100
AcDbEntity
  8
LAYER0001
  6
CONTINUOUS
 62
       7
100
AcDbLine
 10
258.37353356
 20
-232.68661808
 30
0.0
 11
258.60703913
 21
-232.70164891
 31
0.0
  0
LINE
  5
146
100
AcDbEntity
  8
LAYER0001
  6
CONTINUOUS
 62
       7
100
AcDbLine
 10
258.60703913
 20
-232.70164891
 30
0.0
 11
258.8406899
 21
-232.71560056
 31
0.0
  0
LINE
  5
147
100
AcDbEntity
  8
LAYER0001
  6
CONTINUOUS
 62
       7
100
AcDbLine
 10
258.8406899
 20
-232.71560056
 30
0.0
 11
259.07443746
 21
-232.72883276
 31
0.0
  0
LINE
  5
148
100
AcDbEntity
  8
LAYER0001
  6
CONTINUOUS
 62
       7
100
AcDbLine
 10
259.07443746
 20
-232.72883276
 30
0.0
 11
259.30823343
 21
-232.74170524
 31
0.0
  0
ENDBLK
  5
149
100
AcDbEntity
  8
0
100
AcDbBlockEnd
  0
BLOCK
  5
14A
100
AcDbEntity
  8
0
100
AcDbBlockBegin
  2
GROUP_9
 70
       0
 10
0.0
 20
0.0
 30
0.0
  3
GROUP_9
  1

  0
LINE
  5
14B
100
AcDbEntity
  8
LAYER0001
  6
CONTINUOUS
 62
       7
100
AcDbLine
 10
276.55823346
 20
-231.7145682
 30
0.0
 11
276.55823346
 21
-231.78057989
 31
0.0
  0
LINE
  5
14C
100
AcDbEntity
  8
LAYER0001
  6
CONTINUOUS
 62
       7
100
AcDbLine
 10
276.55823346
 20
-231.78057989
 30
0.0
 11
276.55823346
 21
-231.84633459
 31
0.0
  0
LINE
  5
14D
100
AcDbEntity
  8
LAYER0001
  6
CONTINUOUS
 62
       7
100
AcDbLine
 10
276.55823346
 20
-231.84633459
 30
0.0
 11
276.55823346
 21
-231.91157531
 31
0.0
  0
LINE
  5
14E
100
AcDbEntity
  8
LAYER0001
  6
CONTINUOUS
 62
       7
100
AcDbLine
 10
276.55823346
 20
-231.91157531
 30
0.0
 11
276.55823346
 21
-231.97604506
 31
0.0
  0
LINE
  5
14F
100
AcDbEntity
  8
LAYER0001
  6
CONTINUOUS
 62
       7
100
AcDbLine
 10
276.55823346
 20
-231.97604506
 30
0.0
 11
276.55823346
 21
-232.03948686
 31
0.0
  0
LINE
  5
150
100
AcDbEntity
  8
LAYER0001
  6
CONTINUOUS
 62
       7
100
AcDbLine
 10
276.55823346
 20
-232.03948686
 30
0.0
 11
276.55823346
 21
-232.10164371
 31
0.0
  0
LINE
  5
151
100
AcDbEntity
  8
LAYER0001
  6
CONTINUOUS
 62
       7
100
AcDbLine
 10
276.55823346
 20
-232.10164371
 30
0.0
 11
276.55823346
 21
-232.16225863
 31
0.0
  0
LINE
  5
152
100
AcDbEntity
  8
LAYER0001
  6
CONTINUOUS
 62
       7
100
AcDbLine
 10
276.55823346
 20
-232.16225863
 30
0.0
 11
276.55823346
 21
-232.22107462
 31
0.0
  0
LINE
  5
153
100
AcDbEntity
  8
LAYER0001
  6
CONTINUOUS
 62
       7
100
AcDbLine
 10
276.55823346
 20
-232.22107462
 30
0.0
 11
276.55823346
 21
-232.2778347
 31
0.0
  0
LINE
  5
154
100
AcDbEntity
  8
LAYER0001
  6
CONTINUOUS
 62
       7
100
AcDbLine
 10
276.55823346
 20
-232.2778347
 30
0.0
 11
276.55823346
 21
-232.33228188
 31
0.0
  0
LINE
  5
155
100
AcDbEntity
  8
LAYER0001
  6
CONTINUOUS
 62
       7
100
AcDbLine
 10
276.55823346
 20
-232.33228188
 30
0.0
 11
276.55823346
 21
-232.38415917
 31
0.0
  0
LINE
  5
156
100
AcDbEntity
  8
LAYER0001
  6
CONTINUOUS
 62
       7
100
AcDbLine
 10
276.55823346
 20
-232.38415917
 30
0.0
 11
276.55823346
 21
-232.43320957
 31
0.0
  0
LINE
  5
157
100
AcDbEntity
  8
LAYER0001
  6
CONTINUOUS
 62
       7
100
AcDbLine
 10
276.55823346
 20
-232.43320957
 30
0.0
 11
276.55823346
 21
-232.47917611
 31
0.0
  0
LINE
  5
158
100
AcDbEntity
  8
LAYER0001
  6
CONTINUOUS
 62
       7
100
AcDbLine
 10
276.55823346
 20
-232.47917611
 30
0.0
 11
276.55823346
 21
-232.52180178
 31
0.0
  0
LINE
  5
159
100
AcDbEntity
  8
LAYER0001
  6
CONTINUOUS
 62
       7
100
AcDbLine
 10
276.55823346
 20
-232.52180178
 30
0.0
 11
276.55823346
 21
-232.56082961
 31
0.0
  0
LINE
  5
15A
100
AcDbEntity
  8
LAYER0001
  6
CONTINUOUS
 62
       7
100
AcDbLine
 10
276.55823346
 20
-232.56082961
 30
0.0
 11
276.55823346
 21
-232.59600261
 31
0.0
  0
LINE
  5
15B
100
AcDbEntity
  8
LAYER0001
  6
CONTINUOUS
 62
       7
100
AcDbLine
 10
276.55823346
 20
-232.59600261
 30
0.0
 11
276.55823346
 21
-232.62706377
 31
0.0
  0
LINE
  5
15C
100
AcDbEntity
  8
LAYER0001
  6
CONTINUOUS
 62
       7
100
AcDbLine
 10
276.55823346
 20
-232.62706377
 30
0.0
 11
276.55823346
 21
-232.65375612
 31
0.0
  0
LINE
  5
15D
100
AcDbEntity
  8
LAYER0001
  6
CONTINUOUS
 62
       7
100
AcDbLine
 10
276.55823346
 20
-232.65375612
 30
0.0
 11
276.55823346
 21
-232.67584138
 31
0.0
  0
LINE
  5
15E
100
AcDbEntity
  8
LAYER0001
  6
CONTINUOUS
 62
       7
100
AcDbLine
 10
276.55823346
 20
-232.67584138
 30
0.0
 11
276.55823346
 21
-232.69354601
 31
0.0
  0
LINE
  5
15F
100
AcDbEntity
  8
LAYER0001
  6
CONTINUOUS
 62
       7
100
AcDbLine
 10
276.55823346
 20
-232.69354601
 30
0.0
 11
276.55823346
 21
-232.70758119
 31
0.0
  0
LINE
  5
160
100
AcDbEntity
  8
LAYER0001
  6
CONTINUOUS
 62
       7
100
AcDbLine
 10
276.55823346
 20
-232.70758119
 30
0.0
 11
276.55823346
 21
-232.71868081
 31
0.0
  0
LINE
  5
161
100
AcDbEntity
  8
LAYER0001
  6
CONTINUOUS
 62
       7
100
AcDbLine
 10
276.55823346
 20
-232.71868081
 30
0.0
 11
276.55823346
 21
-232.72757877
 31
0.0
  0
LINE
  5
162
100
AcDbEntity
  8
LAYER0001
  6
CONTINUOUS
 62
       7
100
AcDbLine
 10
276.55823346
 20
-232.72757877
 30
0.0
 11
276.55823346
 21
-232.73500895
 31
0.0
  0
LINE
  5
163
100
AcDbEntity
  8
LAYER0001
  6
CONTINUOUS
 62
       7
100
AcDbLine
 10
276.55823346
 20
-232.73500895
 30
0.0
 11
276.55823346
 21
-232.74170524
 31
0.0
  0
ENDBLK
  5
164
100
AcDbEntity
  8
0
100
AcDbBlockEnd
  0
BLOCK
  5
165
100
AcDbEntity
  8
0
100
AcDbBlockBegin
  2
GROUP_10
 70
       0
 10
0.0
 20
0.0
 30
0.0
  3
GROUP_10
  1

  0
LINE
  5
166
100
AcDbEntity
  8
LAYER0001
  6
CONTINUOUS
 62
       7
100
AcDbLine
 10
276.55823346
 20
-225.24171239
 30
0.0
 11
276.55823346
 21
-225.24840333
 31
0.0
  0
LINE
  5
167
100
AcDbEntity
  8
LAYER0001
  6
CONTINUOUS
 62
       7
100
AcDbLine
 10
276.55823346
 20
-225.24840333
 30
0.0
 11
276.55823346
 21
-225.25582827
 31
0.0
  0
LINE
  5
168
100
AcDbEntity
  8
LAYER0001
  6
CONTINUOUS
 62
       7
100
AcDbLine
 10
276.55823346
 20
-225.25582827
 30
0.0
 11
276.55823346
 21
-225.26472122
 31
0.0
  0
LINE
  5
169
100
AcDbEntity
  8
LAYER0001
  6
CONTINUOUS
 62
       7
100
AcDbLine
 10
276.55823346
 20
-225.26472122
 30
0.0
 11
276.55823346
 21
-225.27581618
 31
0.0
  0
LINE
  5
16A
100
AcDbEntity
  8
LAYER0001
  6
CONTINUOUS
 62
       7
100
AcDbLine
 10
276.55823346
 20
-225.27581618
 30
0.0
 11
276.55823346
 21
-225.28984716
 31
0.0
  0
LINE
  5
16B
100
AcDbEntity
  8
LAYER0001
  6
CONTINUOUS
 62
       7
100
AcDbLine
 10
276.55823346
 20
-225.28984716
 30
0.0
 11
276.55823346
 21
-225.30754816
 31
0.0
  0
LINE
  5
16C
100
AcDbEntity
  8
LAYER0001
  6
CONTINUOUS
 62
       7
100
AcDbLine
 10
276.55823346
 20
-225.30754816
 30
0.0
 11
276.55823346
 21
-225.32963048
 31
0.0
  0
LINE
  5
16D
100
AcDbEntity
  8
LAYER0001
  6
CONTINUOUS
 62
       7
100
AcDbLine
 10
276.55823346
 20
-225.32963048
 30
0.0
 11
276.55823346
 21
-225.3563206
 31
0.0
  0
LINE
  5
16E
100
AcDbEntity
  8
LAYER0001
  6
CONTINUOUS
 62
       7
100
AcDbLine
 10
276.55823346
 20
-225.3563206
 30
0.0
 11
276.55823346
 21
-225.38738022
 31
0.0
  0
LINE
  5
16F
100
AcDbEntity
  8
LAYER0001
  6
CONTINUOUS
 62
       7
100
AcDbLine
 10
276.55823346
 20
-225.38738022
 30
0.0
 11
276.55823346
 21
-225.4225523
 31
0.0
  0
LINE
  5
170
100
AcDbEntity
  8
LAYER0001
  6
CONTINUOUS
 62
       7
100
AcDbLine
 10
276.55823346
 20
-225.4225523
 30
0.0
 11
276.55823346
 21
-225.46157982
 31
0.0
  0
LINE
  5
171
100
AcDbEntity
  8
LAYER0001
  6
CONTINUOUS
 62
       7
100
AcDbLine
 10
276.55823346
 20
-225.46157982
 30
0.0
 11
276.55823346
 21
-225.50420574
 31
0.0
  0
LINE
  5
172
100
AcDbEntity
  8
LAYER0001
  6
CONTINUOUS
 62
       7
100
AcDbLine
 10
276.55823346
 20
-225.50420574
 30
0.0
 11
276.55823346
 21
-225.55017304
 31
0.0
  0
LINE
  5
173
100
AcDbEntity
  8
LAYER0001
  6
CONTINUOUS
 62
       7
100
AcDbLine
 10
276.55823346
 20
-225.55017304
 30
0.0
 11
276.55823346
 21
-225.59922468
 31
0.0
  0
LINE
  5
174
100
AcDbEntity
  8
LAYER0001
  6
CONTINUOUS
 62
       7
100
AcDbLine
 10
276.55823346
 20
-225.59922468
 30
0.0
 11
276.55823346
 21
-225.65110364
 31
0.0
  0
LINE
  5
175
100
AcDbEntity
  8
LAYER0001
  6
CONTINUOUS
 62
       7
100
AcDbLine
 10
276.55823346
 20
-225.65110364
 30
0.0
 11
276.55823346
 21
-225.7055529
 31
0.0
  0
LINE
  5
176
100
AcDbEntity
  8
LAYER0001
  6
CONTINUOUS
 62
       7
100
AcDbLine
 10
276.55823346
 20
-225.7055529
 30
0.0
 11
276.55823346
 21
-225.76231541
 31
0.0
  0
LINE
  5
177
100
AcDbEntity
  8
LAYER0001
  6
CONTINUOUS
 62
       7
100
AcDbLine
 10
276.55823346
 20
-225.76231541
 30
0.0
 11
276.55823346
 21
-225.82113416
 31
0.0
  0
LINE
  5
178
100
AcDbEntity
  8
LAYER0001
  6
CONTINUOUS
 62
       7
100
AcDbLine
 10
276.55823346
 20
-225.82113416
 30
0.0
 11
276.55823346
 21
-225.88175211
 31
0.0
  0
LINE
  5
179
100
AcDbEntity
  8
LAYER0001
  6
CONTINUOUS
 62
       7
100
AcDbLine
 10
276.55823346
 20
-225.88175211
 30
0.0
 11
276.55823346
 21
-225.94391223
 31
0.0
  0
LINE
  5
17A
100
AcDbEntity
  8
LAYER0001
  6
CONTINUOUS
 62
       7
100
AcDbLine
 10
276.55823346
 20
-225.94391223
 30
0.0
 11
276.55823346
 21
-226.0073575
 31
0.0
  0
LINE
  5
17B
100
AcDbEntity
  8
LAYER0001
  6
CONTINUOUS
 62
       7
100
AcDbLine
 10
276.55823346
 20
-226.0073575
 30
0.0
 11
276.55823346
 21
-226.07183088
 31
0.0
  0
LINE
  5
17C
100
AcDbEntity
  8
LAYER0001
  6
CONTINUOUS
 62
       7
100
AcDbLine
 10
276.55823346
 20
-226.07183088
 30
0.0
 11
276.55823346
 21
-226.13707535
 31
0.0
  0
LINE
  5
17D
100
AcDbEntity
  8
LAYER0001
  6
CONTINUOUS
 62
       7
100
AcDbLine
 10
276.55823346
 20
-226.13707535
 30
0.0
 11
276.55823346
 21
-226.20283388
 31
0.0
  0
LINE
  5
17E
100
AcDbEntity
  8
LAYER0001
  6
CONTINUOUS
 62
       7
100
AcDbLine
 10
276.55823346
 20
-226.20283388
 30
0.0
 11
276.55823346
 21
-226.26884943
 31
0.0
  0
ENDBLK
  5
17F
100
AcDbEntity
  8
0
100
AcDbBlockEnd
  0
BLOCK
  5
180
100
AcDbEntity
  8
0
100
AcDbBlockBegin
  2
GROUP_11
 70
       0
 10
0.0
 20
0.0
 30
0.0
  3
GROUP_11
  1

  0
LINE
  5
181
100
AcDbEntity
  8
LAYER0001
  6
CONTINUOUS
 62
       7
100
AcDbLine
 10
253.55823342
 20
-226.26884943
 30
0.0
 11
253.55823342
 21
-226.20283388
 31
0.0
  0
LINE
  5
182
100
AcDbEntity
  8
LAYER0001
  6
CONTINUOUS
 62
       7
100
AcDbLine
 10
253.55823342
 20
-226.20283388
 30
0.0
 11
253.55823342
 21
-226.13707535
 31
0.0
  0
LINE
  5
183
100
AcDbEntity
  8
LAYER0001
  6
CONTINUOUS
 62
       7
100
AcDbLine
 10
253.55823342
 20
-226.13707535
 30
0.0
 11
253.55823342
 21
-226.07183088
 31
0.0
  0
LINE
  5
184
100
AcDbEntity
  8
LAYER0001
  6
CONTINUOUS
 62
       7
100
AcDbLine
 10
253.55823342
 20
-226.07183088
 30
0.0
 11
253.55823342
 21
-226.0073575
 31
0.0
  0
LINE
  5
185
100
AcDbEntity
  8
LAYER0001
  6
CONTINUOUS
 62
       7
100
AcDbLine
 10
253.55823342
 20
-226.0073575
 30
0.0
 11
253.55823342
 21
-225.94391223
 31
0.0
  0
LINE
  5
186
100
AcDbEntity
  8
LAYER0001
  6
CONTINUOUS
 62
       7
100
AcDbLine
 10
253.55823342
 20
-225.94391223
 30
0.0
 11
253.55823342
 21
-225.88175211
 31
0.0
  0
LINE
  5
187
100
AcDbEntity
  8
LAYER0001
  6
CONTINUOUS
 62
       7
100
AcDbLine
 10
253.55823342
 20
-225.88175211
 30
0.0
 11
253.55823342
 21
-225.82113416
 31
0.0
  0
LINE
  5
188
100
AcDbEntity
  8
LAYER0001
  6
CONTINUOUS
 62
       7
100
AcDbLine
 10
253.55823342
 20
-225.82113416
 30
0.0
 11
253.55823342
 21
-225.76231541
 31
0.0
  0
LINE
  5
189
100
AcDbEntity
  8
LAYER0001
  6
CONTINUOUS
 62
       7
100
AcDbLine
 10
253.55823342
 20
-225.76231541
 30
0.0
 11
253.55823342
 21
-225.7055529
 31
0.0
  0
LINE
  5
18A
100
AcDbEntity
  8
LAYER0001
  6
CONTINUOUS
 62
       7
100
AcDbLine
 10
253.55823342
 20
-225.7055529
 30
0.0
 11
253.55823342
 21
-225.65110364
 31
0.0
  0
LINE
  5
18B
100
AcDbEntity
  8
LAYER0001
  6
CONTINUOUS
 62
       7
100
AcDbLine
 10
253.55823342
 20
-225.65110364
 30
0.0
 11
253.55823342
 21
-225.59922468
 31
0.0
  0
LINE
  5
18C
100
AcDbEntity
  8
LAYER0001
  6
CONTINUOUS
 62
       7
100
AcDbLine
 10
253.55823342
 20
-225.59922468
 30
0.0
 11
253.55823342
 21
-225.55017304
 31
0.0
  0
LINE
  5
18D
100
AcDbEntity
  8
LAYER0001
  6
CONTINUOUS
 62
       7
100
AcDbLine
 10
253.55823342
 20
-225.55017304
 30
0.0
 11
253.55823342
 21
-225.50420574
 31
0.0
  0
LINE
  5
18E
100
AcDbEntity
  8
LAYER0001
  6
CONTINUOUS
 62
       7
100
AcDbLine
 10
253.55823342
 20
-225.50420574
 30
0.0
 11
253.55823342
 21
-225.46157982
 31
0.0
  0
LINE
  5
18F
100
AcDbEntity
  8
LAYER0001
  6
CONTINUOUS
 62
       7
100
AcDbLine
 10
253.55823342
 20
-225.46157982
 30
0.0
 11
253.55823342
 21
-225.4225523
 31
0.0
  0
LINE
  5
190
100
AcDbEntity
  8
LAYER0001
  6
CONTINUOUS
 62
       7
100
AcDbLine
 10
253.55823342
 20
-225.4225523
 30
0.0
 11
253.55823342
 21
-225.38738022
 31
0.0
  0
LINE
  5
191
100
AcDbEntity
  8
LAYER0001
  6
CONTINUOUS
 62
       7
100
AcDbLine
 10
253.55823342
 20
-225.38738022
 30
0.0
 11
253.55823342
 21
-225.3563206
 31
0.0
  0
LINE
  5
192
100
AcDbEntity
  8
LAYER0001
  6
CONTINUOUS
 62
       7
100
AcDbLine
 10
253.55823342
 20
-225.3563206
 30
0.0
 11
253.55823342
 21
-225.32963048
 31
0.0
  0
LINE
  5
193
100
AcDbEntity
  8
LAYER0001
  6
CONTINUOUS
 62
       7
100
AcDbLine
 10
253.55823342
 20
-225.32963048
 30
0.0
 11
253.55823342
 21
-225.30754816
 31
0.0
  0
LINE
  5
194
100
AcDbEntity
  8
LAYER0001
  6
CONTINUOUS
 62
       7
100
AcDbLine
 10
253.55823342
 20
-225.30754816
 30
0.0
 11
253.55823342
 21
-225.28984716
 31
0.0
  0
LINE
  5
195
100
AcDbEntity
  8
LAYER0001
  6
CONTINUOUS
 62
       7
100
AcDbLine
 10
253.55823342
 20
-225.28984716
 30
0.0
 11
253.55823342
 21
-225.27581618
 31
0.0
  0
LINE
  5
196
100
AcDbEntity
  8
LAYER0001
  6
CONTINUOUS
 62
       7
100
AcDbLine
 10
253.55823342
 20
-225.27581618
 30
0.0
 11
253.55823342
 21
-225.26472122
 31
0.0
  0
LINE
  5
197
100
AcDbEntity
  8
LAYER0001
  6
CONTINUOUS
 62
       7
100
AcDbLine
 10
253.55823342
 20
-225.26472122
 30
0.0
 11
253.55823342
 21
-225.25582827
 31
0.0
  0
LINE
  5
198
100
AcDbEntity
  8
LAYER0001
  6
CONTINUOUS
 62
       7
100
AcDbLine
 10
253.55823342
 20
-225.25582827
 30
0.0
 11
253.55823342
 21
-225.24840333
 31
0.0
  0
LINE
  5
199
100
AcDbEntity
  8
LAYER0001
  6
CONTINUOUS
 62
       7
100
AcDbLine
 10
253.55823342
 20
-225.24840333
 30
0.0
 11
253.55823342
 21
-225.24171239
 31
0.0
  0
ENDBLK
  5
19A
100
AcDbEntity
  8
0
100
AcDbBlockEnd
  0
BLOCK
  5
19B
100
AcDbEntity
  8
0
100
AcDbBlockBegin
  2
GROUP_12
 70
       0
 10
0.0
 20
0.0
 30
0.0
  3
GROUP_12
  1

  0
LINE
  5
19C
100
AcDbEntity
  8
LAYER0001
  6
CONTINUOUS
 62
       7
100
AcDbLine
 10
253.55823342
 20
-232.74170524
 30
0.0
 11
253.55823342
 21
-232.73500895
 31
0.0
  0
LINE
  5
19D
100
AcDbEntity
  8
LAYER0001
  6
CONTINUOUS
 62
       7
100
AcDbLine
 10
253.55823342
 20
-232.73500895
 30
0.0
 11
253.55823342
 21
-232.72757877
 31
0.0
  0
LINE
  5
19E
100
AcDbEntity
  8
LAYER0001
  6
CONTINUOUS
 62
       7
100
AcDbLine
 10
253.55823342
 20
-232.72757877
 30
0.0
 11
253.55823342
 21
-232.71868081
 31
0.0
  0
LINE
  5
19F
100
AcDbEntity
  8
LAYER0001
  6
CONTINUOUS
 62
       7
100
AcDbLine
 10
253.55823342
 20
-232.71868081
 30
0.0
 11
253.55823342
 21
-232.70758119
 31
0.0
  0
LINE
  5
1A0
100
AcDbEntity
  8
LAYER0001
  6
CONTINUOUS
 62
       7
100
AcDbLine
 10
253.55823342
 20
-232.70758119
 30
0.0
 11
253.55823342
 21
-232.69354601
 31
0.0
  0
LINE
  5
1A1
100
AcDbEntity
  8
LAYER0001
  6
CONTINUOUS
 62
       7
100
AcDbLine
 10
253.55823342
 20
-232.69354601
 30
0.0
 11
253.55823342
 21
-232.67584138
 31
0.0
  0
LINE
  5
1A2
100
AcDbEntity
  8
LAYER0001
  6
CONTINUOUS
 62
       7
100
AcDbLine
 10
253.55823342
 20
-232.67584138
 30
0.0
 11
253.55823342
 21
-232.65375612
 31
0.0
  0
LINE
  5
1A3
100
AcDbEntity
  8
LAYER0001
  6
CONTINUOUS
 62
       7
100
AcDbLine
 10
253.55823342
 20
-232.65375612
 30
0.0
 11
253.55823342
 21
-232.62706377
 31
0.0
  0
LINE
  5
1A4
100
AcDbEntity
  8
LAYER0001
  6
CONTINUOUS
 62
       7
100
AcDbLine
 10
253.55823342
 20
-232.62706377
 30
0.0
 11
253.55823342
 21
-232.59600261
 31
0.0
  0
LINE
  5
1A5
100
AcDbEntity
  8
LAYER0001
  6
CONTINUOUS
 62
       7
100
AcDbLine
 10
253.55823342
 20
-232.59600261
 30
0.0
 11
253.55823342
 21
-232.56082961
 31
0.0
  0
LINE
  5
1A6
100
AcDbEntity
  8
LAYER0001
  6
CONTINUOUS
 62
       7
100
AcDbLine
 10
253.55823342
 20
-232.56082961
 30
0.0
 11
253.55823342
 21
-232.52180178
 31
0.0
  0
LINE
  5
1A7
100
AcDbEntity
  8
LAYER0001
  6
CONTINUOUS
 62
       7
100
AcDbLine
 10
253.55823342
 20
-232.52180178
 30
0.0
 11
253.55823342
 21
-232.47917611
 31
0.0
  0
LINE
  5
1A8
100
AcDbEntity
  8
LAYER0001
  6
CONTINUOUS
 62
       7
100
AcDbLine
 10
253.55823342
 20
-232.47917611
 30
0.0
 11
253.55823342
 21
-232.43320957
 31
0.0
  0
LINE
  5
1A9
100
AcDbEntity
  8
LAYER0001
  6
CONTINUOUS
 62
       7
100
AcDbLine
 10
253.55823342
 20
-232.43320957
 30
0.0
 11
253.55823342
 21
-232.38415917
 31
0.0
  0
LINE
  5
1AA
100
AcDbEntity
  8
LAYER0001
  6
CONTINUOUS
 62
       7
100
AcDbLine
 10
253.55823342
 20
-232.38415917
 30
0.0
 11
253.55823342
 21
-232.33228188
 31
0.0
  0
LINE
  5
1AB
100
AcDbEntity
  8
LAYER0001
  6
CONTINUOUS
 62
       7
100
AcDbLine
 10
253.55823342
 20
-232.33228188
 30
0.0
 11
253.55823342
 21
-232.2778347
 31
0.0
  0
LINE
  5
1AC
100
AcDbEntity
  8
LAYER0001
  6
CONTINUOUS
 62
       7
100
AcDbLine
 10
253.55823342
 20
-232.2778347
 30
0.0
 11
253.55823342
 21
-232.22107462
 31
0.0
  0
LINE
  5
1AD
100
AcDbEntity
  8
LAYER0001
  6
CONTINUOUS
 62
       7
100
AcDbLine
 10
253.55823342
 20
-232.22107462
 30
0.0
 11
253.55823342
 21
-232.16225863
 31
0.0
  0
LINE
  5
1AE
100
AcDbEntity
  8
LAYER0001
  6
CONTINUOUS
 62
       7
100
AcDbLine
 10
253.55823342
 20
-232.16225863
 30
0.0
 11
253.55823342
 21
-232.10164371
 31
0.0
  0
LINE
  5
1AF
100
AcDbEntity
  8
LAYER0001
  6
CONTINUOUS
 62
       7
100
AcDbLine
 10
253.55823342
 20
-232.10164371
 30
0.0
 11
253.55823342
 21
-232.03948686
 31
0.0
  0
LINE
  5
1B0
100
AcDbEntity
  8
LAYER0001
  6
CONTINUOUS
 62
       7
100
AcDbLine
 10
253.55823342
 20
-232.03948686
 30
0.0
 11
253.55823342
 21
-231.97604506
 31
0.0
  0
LINE
  5
1B1
100
AcDbEntity
  8
LAYER0001
  6
CONTINUOUS
 62
       7
100
AcDbLine
 10
253.55823342
 20
-231.97604506
 30
0.0
 11
253.55823342
 21
-231.91157531
 31
0.0
  0
LINE
  5
1B2
100
AcDbEntity
  8
LAYER0001
  6
CONTINUOUS
 62
       7
100
AcDbLine
 10
253.55823342
 20
-231.91157531
 30
0.0
 11
253.55823342
 21
-231.84633459
 31
0.0
  0
LINE
  5
1B3
100
AcDbEntity
  8
LAYER0001
  6
CONTINUOUS
 62
       7
100
AcDbLine
 10
253.55823342
 20
-231.84633459
 30
0.0
 11
253.55823342
 21
-231.78057989
 31
0.0
  0
LINE
  5
1B4
100
AcDbEntity
  8
LAYER0001
  6
CONTINUOUS
 62
       7
100
AcDbLine
 10
253.55823342
 20
-231.78057989
 30
0.0
 11
253.55823342
 21
-231.7145682
 31
0.0
  0
ENDBLK
  5
1B5
100
AcDbEntity
  8
0
100
AcDbBlockEnd
  0
BLOCK
  5
1B6
100
AcDbEntity
  8
0
100
AcDbBlockBegin
  2
GROUP_13
 70
       0
 10
0.0
 20
0.0
 30
0.0
  3
GROUP_13
  1

  0
LINE
  5
1B7
100
AcDbEntity
  8
LAYER0001
  6
CONTINUOUS
 62
       7
100
AcDbLine
 10
270.80823345
 20
-211.541704
 30
0.0
 11
270.61377696
 21
-211.54366392
 31
0.0
  0
LINE
  5
1B8
100
AcDbEntity
  8
LAYER0001
  6
CONTINUOUS
 62
       7
100
AcDbLine
 10
270.61377696
 20
-211.54366392
 30
0.0
 11
270.41931156
 21
-211.54685878
 31
0.0
  0
LINE
  5
1B9
100
AcDbEntity
  8
LAYER0001
  6
CONTINUOUS
 62
       7
100
AcDbLine
 10
270.41931156
 20
-211.54685878
 30
0.0
 11
270.22483349
 21
-211.55237369
 31
0.0
  0
LINE
  5
1BA
100
AcDbEntity
  8
LAYER0001
  6
CONTINUOUS
 62
       7
100
AcDbLine
 10
270.22483349
 20
-211.55237369
 30
0.0
 11
270.03036694
 21
-211.56047593
 31
0.0
  0
LINE
  5
1BB
100
AcDbEntity
  8
LAYER0001
  6
CONTINUOUS
 62
       7
100
AcDbLine
 10
270.03036694
 20
-211.56047593
 30
0.0
 11
269.83594559
 21
-211.57115521
 31
0.0
  0
LINE
  5
1BC
100
AcDbEntity
  8
LAYER0001
  6
CONTINUOUS
 62
       7
100
AcDbLine
 10
269.83594559
 20
-211.57115521
 30
0.0
 11
269.64160314
 21
-211.58440103
 31
0.0
  0
LINE
  5
1BD
100
AcDbEntity
  8
LAYER0001
  6
CONTINUOUS
 62
       7
100
AcDbLine
 10
269.64160314
 20
-211.58440103
 30
0.0
 11
269.44737328
 21
-211.60020285
 31
0.0
  0
LINE
  5
1BE
100
AcDbEntity
  8
LAYER0001
  6
CONTINUOUS
 62
       7
100
AcDbLine
 10
269.44737328
 20
-211.60020285
 30
0.0
 11
269.2532897
 21
-211.61855017
 31
0.0
  0
LINE
  5
1BF
100
AcDbEntity
  8
LAYER0001
  6
CONTINUOUS
 62
       7
100
AcDbLine
 10
269.2532897
 20
-211.61855017
 30
0.0
 11
269.0593861
 21
-211.63943247
 31
0.0
  0
LINE
  5
1C0
100
AcDbEntity
  8
LAYER0001
  6
CONTINUOUS
 62
       7
100
AcDbLine
 10
269.0593861
 20
-211.63943247
 30
0.0
 11
268.86569617
 21
-211.66283923
 31
0.0
  0
LINE
  5
1C1
100
AcDbEntity
  8
LAYER0001
  6
CONTINUOUS
 62
       7
100
AcDbLine
 10
268.86569617
 20
-211.66283923
 30
0.0
 11
268.67225361
 21
-211.68875993
 31
0.0
  0
LINE
  5
1C2
100
AcDbEntity
  8
LAYER0001
  6
CONTINUOUS
 62
       7
100
AcDbLine
 10
268.67225361
 20
-211.68875993
 30
0.0
 11
268.4790921
 21
-211.71718406
 31
0.0
  0
LINE
  5
1C3
100
AcDbEntity
  8
LAYER0001
  6
CONTINUOUS
 62
       7
100
AcDbLine
 10
268.4790921
 20
-211.71718406
 30
0.0
 11
268.28624534
 21
-211.7481011
 31
0.0
  0
LINE
  5
1C4
100
AcDbEntity
  8
LAYER0001
  6
CONTINUOUS
 62
       7
100
AcDbLine
 10
268.28624534
 20
-211.7481011
 30
0.0
 11
268.09374703
 21
-211.78150053
 31
0.0
  0
LINE
  5
1C5
100
AcDbEntity
  8
LAYER0001
  6
CONTINUOUS
 62
       7
100
AcDbLine
 10
268.09374703
 20
-211.78150053
 30
0.0
 11
267.90163085
 21
-211.81737184
 31
0.0
  0
LINE
  5
1C6
100
AcDbEntity
  8
LAYER0001
  6
CONTINUOUS
 62
       7
100
AcDbLine
 10
267.90163085
 20
-211.81737184
 30
0.0
 11
267.7099305
 21
-211.8557045
 31
0.0
  0
LINE
  5
1C7
100
AcDbEntity
  8
LAYER0001
  6
CONTINUOUS
 62
       7
100
AcDbLine
 10
267.7099305
 20
-211.8557045
 30
0.0
 11
267.51866608
 21
-211.89645401
 31
0.0
  0
LINE
  5
1C8
100
AcDbEntity
  8
LAYER0001
  6
CONTINUOUS
 62
       7
100
AcDbLine
 10
267.51866608
 20
-211.89645401
 30
0.0
 11
267.32781444
 21
-211.9394677
 31
0.0
  0
LINE
  5
1C9
100
AcDbEntity
  8
LAYER0001
  6
CONTINUOUS
 62
       7
100
AcDbLine
 10
267.32781444
 20
-211.9394677
 30
0.0
 11
267.13734381
 21
-211.98457141
 31
0.0
  0
LINE
  5
1CA
100
AcDbEntity
  8
LAYER0001
  6
CONTINUOUS
 62
       7
100
AcDbLine
 10
267.13734381
 20
-211.98457141
 30
0.0
 11
266.94722246
 21
-212.03159096
 31
0.0
  0
LINE
  5
1CB
100
AcDbEntity
  8
LAYER0001
  6
CONTINUOUS
 62
       7
100
AcDbLine
 10
266.94722246
 20
-212.03159096
 30
0.0
 11
266.75741863
 21
-212.08035219
 31
0.0
  0
LINE
  5
1CC
100
AcDbEntity
  8
LAYER0001
  6
CONTINUOUS
 62
       7
100
AcDbLine
 10
266.75741863
 20
-212.08035219
 30
0.0
 11
266.56790057
 21
-212.13068093
 31
0.0
  0
LINE
  5
1CD
100
AcDbEntity
  8
LAYER0001
  6
CONTINUOUS
 62
       7
100
AcDbLine
 10
266.56790057
 20
-212.13068093
 30
0.0
 11
266.37863652
 21
-212.18240301
 31
0.0
  0
LINE
  5
1CE
100
AcDbEntity
  8
LAYER0001
  6
CONTINUOUS
 62
       7
100
AcDbLine
 10
266.37863652
 20
-212.18240301
 30
0.0
 11
266.18959473
 21
-212.23534426
 31
0.0
  0
LINE
  5
1CF
100
AcDbEntity
  8
LAYER0001
  6
CONTINUOUS
 62
       7
100
AcDbLine
 10
266.18959473
 20
-212.23534426
 30
0.0
 11
266.00074346
 21
-212.28933052
 31
0.0
  0
LINE
  5
1D0
100
AcDbEntity
  8
LAYER0001
  6
CONTINUOUS
 62
       7
100
AcDbLine
 10
266.00074346
 20
-212.28933052
 30
0.0
 11
265.81205094
 21
-212.34418762
 31
0.0
  0
LINE
  5
1D1
100
AcDbEntity
  8
LAYER0001
  6
CONTINUOUS
 62
       7
100
AcDbLine
 10
265.81205094
 20
-212.34418762
 30
0.0
 11
265.62348544
 21
-212.39974139
 31
0.0
  0
LINE
  5
1D2
100
AcDbEntity
  8
LAYER0001
  6
CONTINUOUS
 62
       7
100
AcDbLine
 10
265.62348544
 20
-212.39974139
 30
0.0
 11
265.43501518
 21
-212.45581766
 31
0.0
  0
LINE
  5
1D3
100
AcDbEntity
  8
LAYER0001
  6
CONTINUOUS
 62
       7
100
AcDbLine
 10
265.43501518
 20
-212.45581766
 30
0.0
 11
265.24660844
 21
-212.51224227
 31
0.0
  0
LINE
  5
1D4
100
AcDbEntity
  8
LAYER0001
  6
CONTINUOUS
 62
       7
100
AcDbLine
 10
265.24660844
 20
-212.51224227
 30
0.0
 11
265.05823344
 21
-212.56884104
 31
0.0
  0
ENDBLK
  5
1D5
100
AcDbEntity
  8
0
100
AcDbBlockEnd
  0
BLOCK
  5
1D6
100
AcDbEntity
  8
0
100
AcDbBlockBegin
  2
GROUP_14
 70
       0
 10
0.0
 20
0.0
 30
0.0
  3
GROUP_14
  1

  0
LINE
  5
1D7
100
AcDbEntity
  8
LAYER0001
  6
CONTINUOUS
 62
       7
100
AcDbLine
 10
276.55823346
 20
-212.56884104
 30
0.0
 11
276.33205239
 21
-212.4993719
 31
0.0
  0
LINE
  5
1D8
100
AcDbEntity
  8
LAYER0001
  6
CONTINUOUS
 62
       7
100
AcDbLine
 10
276.33205239
 20
-212.4993719
 30
0.0
 11
276.10582203
 21
-212.43026908
 31
0.0
  0
LINE
  5
1D9
100
AcDbEntity
  8
LAYER0001
  6
CONTINUOUS
 62
       7
100
AcDbLine
 10
276.10582203
 20
-212.43026908
 30
0.0
 11
275.87949309
 21
-212.36189891
 31
0.0
  0
LINE
  5
1DA
100
AcDbEntity
  8
LAYER0001
  6
CONTINUOUS
 62
       7
100
AcDbLine
 10
275.87949309
 20
-212.36189891
 30
0.0
 11
275.6530163
 21
-212.29462769
 31
0.0
  0
LINE
  5
1DB
100
AcDbEntity
  8
LAYER0001
  6
CONTINUOUS
 62
       7
100
AcDbLine
 10
275.6530163
 20
-212.29462769
 30
0.0
 11
275.42634235
 21
-212.22882176
 31
0.0
  0
LINE
  5
1DC
100
AcDbEntity
  8
LAYER0001
  6
CONTINUOUS
 62
       7
100
AcDbLine
 10
275.42634235
 20
-212.22882176
 30
0.0
 11
275.19942197
 21
-212.16484744
 31
0.0
  0
LINE
  5
1DD
100
AcDbEntity
  8
LAYER0001
  6
CONTINUOUS
 62
       7
100
AcDbLine
 10
275.19942197
 20
-212.16484744
 30
0.0
 11
274.97220586
 21
-212.10307104
 31
0.0
  0
LINE
  5
1DE
100
AcDbEntity
  8
LAYER0001
  6
CONTINUOUS
 62
       7
100
AcDbLine
 10
274.97220586
 20
-212.10307104
 30
0.0
 11
274.74464474
 21
-212.04385888
 31
0.0
  0
LINE
  5
1DF
100
AcDbEntity
  8
LAYER0001
  6
CONTINUOUS
 62
       7
100
AcDbLine
 10
274.74464474
 20
-212.04385888
 30
0.0
 11
274.51668933
 21
-211.9875773
 31
0.0
  0
LINE
  5
1E0
100
AcDbEntity
  8
LAYER0001
  6
CONTINUOUS
 62
       7
100
AcDbLine
 10
274.51668933
 20
-211.9875773
 30
0.0
 11
274.28829032
 21
-211.9345926
 31
0.0
  0
LINE
  5
1E1
100
AcDbEntity
  8
LAYER0001
  6
CONTINUOUS
 62
       7
100
AcDbLine
 10
274.28829032
 20
-211.9345926
 30
0.0
 11
274.05939845
 21
-211.88527112
 31
0.0
  0
LINE
  5
1E2
100
AcDbEntity
  8
LAYER0001
  6
CONTINUOUS
 62
       7
100
AcDbLine
 10
274.05939845
 20
-211.88527112
 30
0.0
 11
273.82996442
 21
-211.83997916
 31
0.0
  0
LINE
  5
1E3
100
AcDbEntity
  8
LAYER0001
  6
CONTINUOUS
 62
       7
100
AcDbLine
 10
273.82996442
 20
-211.83997916
 30
0.0
 11
273.5999427
 21
-211.79905511
 31
0.0
  0
LINE
  5
1E4
100
AcDbEntity
  8
LAYER0001
  6
CONTINUOUS
 62
       7
100
AcDbLine
 10
273.5999427
 20
-211.79905511
 30
0.0
 11
273.36934112
 21
-211.76244077
 31
0.0
  0
LINE
  5
1E5
100
AcDbEntity
  8
LAYER0001
  6
CONTINUOUS
 62
       7
100
AcDbLine
 10
273.36934112
 20
-211.76244077
 30
0.0
 11
273.13820714
 21
-211.72978341
 31
0.0
  0
LINE
  5
1E6
100
AcDbEntity
  8
LAYER0001
  6
CONTINUOUS
 62
       7
100
AcDbLine
 10
273.13820714
 20
-211.72978341
 30
0.0
 11
272.90658917
 21
-211.70072331
 31
0.0
  0
LINE
  5
1E7
100
AcDbEntity
  8
LAYER0001
  6
CONTINUOUS
 62
       7
100
AcDbLine
 10
272.90658917
 20
-211.70072331
 30
0.0
 11
272.6745356
 21
-211.67490073
 31
0.0
  0
LINE
  5
1E8
100
AcDbEntity
  8
LAYER0001
  6
CONTINUOUS
 62
       7
100
AcDbLine
 10
272.6745356
 20
-211.67490073
 30
0.0
 11
272.44209483
 21
-211.65195595
 31
0.0
  0
LINE
  5
1E9
100
AcDbEntity
  8
LAYER0001
  6
CONTINUOUS
 62
       7
100
AcDbLine
 10
272.44209483
 20
-211.65195595
 30
0.0
 11
272.20931526
 21
-211.63152924
 31
0.0
  0
LINE
  5
1EA
100
AcDbEntity
  8
LAYER0001
  6
CONTINUOUS
 62
       7
100
AcDbLine
 10
272.20931526
 20
-211.63152924
 30
0.0
 11
271.97624529
 21
-211.61326089
 31
0.0
  0
LINE
  5
1EB
100
AcDbEntity
  8
LAYER0001
  6
CONTINUOUS
 62
       7
100
AcDbLine
 10
271.97624529
 20
-211.61326089
 30
0.0
 11
271.74293332
 21
-211.59679116
 31
0.0
  0
LINE
  5
1EC
100
AcDbEntity
  8
LAYER0001
  6
CONTINUOUS
 62
       7
100
AcDbLine
 10
271.74293332
 20
-211.59679116
 30
0.0
 11
271.50942775
 21
-211.58176033
 31
0.0
  0
LINE
  5
1ED
100
AcDbEntity
  8
LAYER0001
  6
CONTINUOUS
 62
       7
100
AcDbLine
 10
271.50942775
 20
-211.58176033
 30
0.0
 11
271.27577699
 21
-211.56780868
 31
0.0
  0
LINE
  5
1EE
100
AcDbEntity
  8
LAYER0001
  6
CONTINUOUS
 62
       7
100
AcDbLine
 10
271.27577699
 20
-211.56780868
 30
0.0
 11
271.04202942
 21
-211.55457648
 31
0.0
  0
LINE
  5
1EF
100
AcDbEntity
  8
LAYER0001
  6
CONTINUOUS
 62
       7
100
AcDbLine
 10
271.04202942
 20
-211.55457648
 30
0.0
 11
270.80823345
 21
-211.541704
 31
0.0
  0
ENDBLK
  5
1F0
100
AcDbEntity
  8
0
100
AcDbBlockEnd
  0
BLOCK
  5
1F1
100
AcDbEntity
  8
0
100
AcDbBlockBegin
  2
GROUP_15
 70
       0
 10
0.0
 20
0.0
 30
0.0
  3
GROUP_15
  1

  0
LINE
  5
1F2
100
AcDbEntity
  8
LAYER0001
  6
CONTINUOUS
 62
       7
100
AcDbLine
 10
270.80823345
 20
-219.04169685
 30
0.0
 11
271.00268976
 21
-219.03973693
 31
0.0
  0
LINE
  5
1F3
100
AcDbEntity
  8
LAYER0001
  6
CONTINUOUS
 62
       7
100
AcDbLine
 10
271.00268976
 20
-219.03973693
 30
0.0
 11
271.19715499
 21
-219.03654207
 31
0.0
  0
LINE
  5
1F4
100
AcDbEntity
  8
LAYER0001
  6
CONTINUOUS
 62
       7
100
AcDbLine
 10
271.19715499
 20
-219.03654207
 30
0.0
 11
271.39163292
 21
-219.03102717
 31
0.0
  0
LINE
  5
1F5
100
AcDbEntity
  8
LAYER0001
  6
CONTINUOUS
 62
       7
100
AcDbLine
 10
271.39163292
 20
-219.03102717
 30
0.0
 11
271.58609938
 21
-219.02292494
 31
0.0
  0
LINE
  5
1F6
100
AcDbEntity
  8
LAYER0001
  6
CONTINUOUS
 62
       7
100
AcDbLine
 10
271.58609938
 20
-219.02292494
 30
0.0
 11
271.78052067
 21
-219.01224566
 31
0.0
  0
LINE
  5
1F7
100
AcDbEntity
  8
LAYER0001
  6
CONTINUOUS
 62
       7
100
AcDbLine
 10
271.78052067
 20
-219.01224566
 30
0.0
 11
271.97486309
 21
-218.99899985
 31
0.0
  0
LINE
  5
1F8
100
AcDbEntity
  8
LAYER0001
  6
CONTINUOUS
 62
       7
100
AcDbLine
 10
271.97486309
 20
-218.99899985
 30
0.0
 11
272.16909295
 21
-218.98319803
 31
0.0
  0
LINE
  5
1F9
100
AcDbEntity
  8
LAYER0001
  6
CONTINUOUS
 62
       7
100
AcDbLine
 10
272.16909295
 20
-218.98319803
 30
0.0
 11
272.36317655
 21
-218.96485072
 31
0.0
  0
LINE
  5
1FA
100
AcDbEntity
  8
LAYER0001
  6
CONTINUOUS
 62
       7
100
AcDbLine
 10
272.36317655
 20
-218.96485072
 30
0.0
 11
272.55708019
 21
-218.94396843
 31
0.0
  0
LINE
  5
1FB
100
AcDbEntity
  8
LAYER0001
  6
CONTINUOUS
 62
       7
100
AcDbLine
 10
272.55708019
 20
-218.94396843
 30
0.0
 11
272.75077017
 21
-218.92056168
 31
0.0
  0
LINE
  5
1FC
100
AcDbEntity
  8
LAYER0001
  6
CONTINUOUS
 62
       7
100
AcDbLine
 10
272.75077017
 20
-218.92056168
 30
0.0
 11
272.94421281
 21
-218.89464098
 31
0.0
  0
LINE
  5
1FD
100
AcDbEntity
  8
LAYER0001
  6
CONTINUOUS
 62
       7
100
AcDbLine
 10
272.94421281
 20
-218.89464098
 30
0.0
 11
273.13737439
 21
-218.86621685
 31
0.0
  0
LINE
  5
1FE
100
AcDbEntity
  8
LAYER0001
  6
CONTINUOUS
 62
       7
100
AcDbLine
 10
273.13737439
 20
-218.86621685
 30
0.0
 11
273.33022122
 21
-218.83529982
 31
0.0
  0
LINE
  5
1FF
100
AcDbEntity
  8
LAYER0001
  6
CONTINUOUS
 62
       7
100
AcDbLine
 10
273.33022122
 20
-218.83529982
 30
0.0
 11
273.52271962
 21
-218.80190039
 31
0.0
  0
LINE
  5
200
100
AcDbEntity
  8
LAYER0001
  6
CONTINUOUS
 62
       7
100
AcDbLine
 10
273.52271962
 20
-218.80190039
 30
0.0
 11
273.71483587
 21
-218.76602908
 31
0.0
  0
LINE
  5
201
100
AcDbEntity
  8
LAYER0001
  6
CONTINUOUS
 62
       7
100
AcDbLine
 10
273.71483587
 20
-218.76602908
 30
0.0
 11
273.90653629
 21
-218.72769642
 31
0.0
  0
LINE
  5
202
100
AcDbEntity
  8
LAYER0001
  6
CONTINUOUS
 62
       7
100
AcDbLine
 10
273.90653629
 20
-218.72769642
 30
0.0
 11
274.09780076
 21
-218.68694691
 31
0.0
  0
LINE
  5
203
100
AcDbEntity
  8
LAYER0001
  6
CONTINUOUS
 62
       7
100
AcDbLine
 10
274.09780076
 20
-218.68694691
 30
0.0
 11
274.28865245
 21
-218.64393321
 31
0.0
  0
LINE
  5
204
100
AcDbEntity
  8
LAYER0001
  6
CONTINUOUS
 62
       7
100
AcDbLine
 10
274.28865245
 20
-218.64393321
 30
0.0
 11
274.47912311
 21
-218.59882951
 31
0.0
  0
LINE
  5
205
100
AcDbEntity
  8
LAYER0001
  6
CONTINUOUS
 62
       7
100
AcDbLine
 10
274.47912311
 20
-218.59882951
 30
0.0
 11
274.66924449
 21
-218.55180995
 31
0.0
  0
LINE
  5
206
100
AcDbEntity
  8
LAYER0001
  6
CONTINUOUS
 62
       7
100
AcDbLine
 10
274.66924449
 20
-218.55180995
 30
0.0
 11
274.85904834
 21
-218.50304872
 31
0.0
  0
LINE
  5
207
100
AcDbEntity
  8
LAYER0001
  6
CONTINUOUS
 62
       7
100
AcDbLine
 10
274.85904834
 20
-218.50304872
 30
0.0
 11
275.04856642
 21
-218.45271998
 31
0.0
  0
LINE
  5
208
100
AcDbEntity
  8
LAYER0001
  6
CONTINUOUS
 62
       7
100
AcDbLine
 10
275.04856642
 20
-218.45271998
 30
0.0
 11
275.23783047
 21
-218.40099789
 31
0.0
  0
LINE
  5
209
100
AcDbEntity
  8
LAYER0001
  6
CONTINUOUS
 62
       7
100
AcDbLine
 10
275.23783047
 20
-218.40099789
 30
0.0
 11
275.42687225
 21
-218.34805663
 31
0.0
  0
LINE
  5
20A
100
AcDbEntity
  8
LAYER0001
  6
CONTINUOUS
 62
       7
100
AcDbLine
 10
275.42687225
 20
-218.34805663
 30
0.0
 11
275.61572352
 21
-218.29407037
 31
0.0
  0
LINE
  5
20B
100
AcDbEntity
  8
LAYER0001
  6
CONTINUOUS
 62
       7
100
AcDbLine
 10
275.61572352
 20
-218.29407037
 30
0.0
 11
275.80441603
 21
-218.23921326
 31
0.0
  0
LINE
  5
20C
100
AcDbEntity
  8
LAYER0001
  6
CONTINUOUS
 62
       7
100
AcDbLine
 10
275.80441603
 20
-218.23921326
 30
0.0
 11
275.99298152
 21
-218.18365948
 31
0.0
  0
LINE
  5
20D
100
AcDbEntity
  8
LAYER0001
  6
CONTINUOUS
 62
       7
100
AcDbLine
 10
275.99298152
 20
-218.18365948
 30
0.0
 11
276.18145176
 21
-218.1275832
 31
0.0
  0
LINE
  5
20E
100
AcDbEntity
  8
LAYER0001
  6
CONTINUOUS
 62
       7
100
AcDbLine
 10
276.18145176
 20
-218.1275832
 30
0.0
 11
276.36985849
 21
-218.07115859
 31
0.0
  0
LINE
  5
20F
100
AcDbEntity
  8
LAYER0001
  6
CONTINUOUS
 62
       7
100
AcDbLine
 10
276.36985849
 20
-218.07115859
 30
0.0
 11
276.55823346
 21
-218.01455981
 31
0.0
  0
ENDBLK
  5
210
100
AcDbEntity
  8
0
100
AcDbBlockEnd
  0
BLOCK
  5
211
100
AcDbEntity
  8
0
100
AcDbBlockBegin
  2
GROUP_16
 70
       0
 10
0.0
 20
0.0
 30
0.0
  3
GROUP_16
  1

  0
LINE
  5
212
100
AcDbEntity
  8
LAYER0001
  6
CONTINUOUS
 62
       7
100
AcDbLine
 10
265.05823344
 20
-218.01455981
 30
0.0
 11
265.28441402
 21
-218.08403243
 31
0.0
  0
LINE
  5
213
100
AcDbEntity
  8
LAYER0001
  6
CONTINUOUS
 62
       7
100
AcDbLine
 10
265.28441402
 20
-218.08403243
 30
0.0
 11
265.51064389
 21
-218.15313868
 31
0.0
  0
LINE
  5
214
100
AcDbEntity
  8
LAYER0001
  6
CONTINUOUS
 62
       7
100
AcDbLine
 10
265.51064389
 20
-218.15313868
 30
0.0
 11
265.73697234
 21
-218.22151221
 31
0.0
  0
LINE
  5
215
100
AcDbEntity
  8
LAYER0001
  6
CONTINUOUS
 62
       7
100
AcDbLine
 10
265.73697234
 20
-218.22151221
 30
0.0
 11
265.96344868
 21
-218.28878664
 31
0.0
  0
LINE
  5
216
100
AcDbEntity
  8
LAYER0001
  6
CONTINUOUS
 62
       7
100
AcDbLine
 10
265.96344868
 20
-218.28878664
 30
0.0
 11
266.19012219
 21
-218.3545956
 31
0.0
  0
LINE
  5
217
100
AcDbEntity
  8
LAYER0001
  6
CONTINUOUS
 62
       7
100
AcDbLine
 10
266.19012219
 20
-218.3545956
 30
0.0
 11
266.41704217
 21
-218.41857274
 31
0.0
  0
LINE
  5
218
100
AcDbEntity
  8
LAYER0001
  6
CONTINUOUS
 62
       7
100
AcDbLine
 10
266.41704217
 20
-218.41857274
 30
0.0
 11
266.64425791
 21
-218.48035168
 31
0.0
  0
LINE
  5
219
100
AcDbEntity
  8
LAYER0001
  6
CONTINUOUS
 62
       7
100
AcDbLine
 10
266.64425791
 20
-218.48035168
 30
0.0
 11
266.87181871
 21
-218.53956607
 31
0.0
  0
LINE
  5
21A
100
AcDbEntity
  8
LAYER0001
  6
CONTINUOUS
 62
       7
100
AcDbLine
 10
266.87181871
 20
-218.53956607
 30
0.0
 11
267.09977385
 21
-218.59584953
 31
0.0
  0
LINE
  5
21B
100
AcDbEntity
  8
LAYER0001
  6
CONTINUOUS
 62
       7
100
AcDbLine
 10
267.09977385
 20
-218.59584953
 30
0.0
 11
267.32817264
 21
-218.6488357
 31
0.0
  0
LINE
  5
21C
100
AcDbEntity
  8
LAYER0001
  6
CONTINUOUS
 62
       7
100
AcDbLine
 10
267.32817264
 20
-218.6488357
 30
0.0
 11
267.55706437
 21
-218.69815822
 31
0.0
  0
LINE
  5
21D
100
AcDbEntity
  8
LAYER0001
  6
CONTINUOUS
 62
       7
100
AcDbLine
 10
267.55706437
 20
-218.69815822
 30
0.0
 11
267.78649833
 21
-218.74345071
 31
0.0
  0
LINE
  5
21E
100
AcDbEntity
  8
LAYER0001
  6
CONTINUOUS
 62
       7
100
AcDbLine
 10
267.78649833
 20
-218.74345071
 30
0.0
 11
268.01652005
 21
-218.78437477
 31
0.0
  0
LINE
  5
21F
100
AcDbEntity
  8
LAYER0001
  6
CONTINUOUS
 62
       7
100
AcDbLine
 10
268.01652005
 20
-218.78437477
 30
0.0
 11
268.2471217
 21
-218.82098857
 31
0.0
  0
LINE
  5
220
100
AcDbEntity
  8
LAYER0001
  6
CONTINUOUS
 62
       7
100
AcDbLine
 10
268.2471217
 20
-218.82098857
 30
0.0
 11
268.47825582
 21
-218.85364491
 31
0.0
  0
LINE
  5
221
100
AcDbEntity
  8
LAYER0001
  6
CONTINUOUS
 62
       7
100
AcDbLine
 10
268.47825582
 20
-218.85364491
 30
0.0
 11
268.70987401
 21
-218.88270354
 31
0.0
  0
LINE
  5
222
100
AcDbEntity
  8
LAYER0001
  6
CONTINUOUS
 62
       7
100
AcDbLine
 10
268.70987401
 20
-218.88270354
 30
0.0
 11
268.94192785
 21
-218.90852425
 31
0.0
  0
LINE
  5
223
100
AcDbEntity
  8
LAYER0001
  6
CONTINUOUS
 62
       7
100
AcDbLine
 10
268.94192785
 20
-218.90852425
 30
0.0
 11
269.17436894
 21
-218.9314668
 31
0.0
  0
LINE
  5
224
100
AcDbEntity
  8
LAYER0001
  6
CONTINUOUS
 62
       7
100
AcDbLine
 10
269.17436894
 20
-218.9314668
 30
0.0
 11
269.40714888
 21
-218.95189096
 31
0.0
  0
LINE
  5
225
100
AcDbEntity
  8
LAYER0001
  6
CONTINUOUS
 62
       7
100
AcDbLine
 10
269.40714888
 20
-218.95189096
 30
0.0
 11
269.64021925
 21
-218.9701565
 31
0.0
  0
LINE
  5
226
100
AcDbEntity
  8
LAYER0001
  6
CONTINUOUS
 62
       7
100
AcDbLine
 10
269.64021925
 20
-218.9701565
 30
0.0
 11
269.87353165
 21
-218.98662319
 31
0.0
  0
LINE
  5
227
100
AcDbEntity
  8
LAYER0001
  6
CONTINUOUS
 62
       7
100
AcDbLine
 10
269.87353165
 20
-218.98662319
 30
0.0
 11
270.10703768
 21
-219.0016508
 31
0.0
  0
LINE
  5
228
100
AcDbEntity
  8
LAYER0001
  6
CONTINUOUS
 62
       7
100
AcDbLine
 10
270.10703768
 20
-219.0016508
 30
0.0
 11
270.34068893
 21
-219.0155991
 31
0.0
  0
LINE
  5
229
100
AcDbEntity
  8
LAYER0001
  6
CONTINUOUS
 62
       7
100
AcDbLine
 10
270.34068893
 20
-219.0155991
 30
0.0
 11
270.57443699
 21
-219.02882786
 31
0.0
  0
LINE
  5
22A
100
AcDbEntity
  8
LAYER0001
  6
CONTINUOUS
 62
       7
100
AcDbLine
 10
270.57443699
 20
-219.02882786
 30
0.0
 11
270.80823345
 21
-219.04169685
 31
0.0
  0
ENDBLK
  5
22B
100
AcDbEntity
  8
0
100
AcDbBlockEnd
  0
BLOCK
  5
22C
100
AcDbEntity
  8
0
100
AcDbBlockBegin
  2
GROUP_17
 70
       0
 10
0.0
 20
0.0
 30
0.0
  3
GROUP_17
  1

  0
LINE
  5
22D
100
AcDbEntity
  8
LAYER0001
  6
CONTINUOUS
 62
       7
100
AcDbLine
 10
259.30823343
 20
-211.541704
 30
0.0
 11
259.11377712
 21
-211.54366392
 31
0.0
  0
LINE
  5
22E
100
AcDbEntity
  8
LAYER0001
  6
CONTINUOUS
 62
       7
100
AcDbLine
 10
259.11377712
 20
-211.54366392
 30
0.0
 11
258.9193119
 21
-211.54685878
 31
0.0
  0
LINE
  5
22F
100
AcDbEntity
  8
LAYER0001
  6
CONTINUOUS
 62
       7
100
AcDbLine
 10
258.9193119
 20
-211.54685878
 30
0.0
 11
258.72483396
 21
-211.55237367
 31
0.0
  0
LINE
  5
230
100
AcDbEntity
  8
LAYER0001
  6
CONTINUOUS
 62
       7
100
AcDbLine
 10
258.72483396
 20
-211.55237367
 30
0.0
 11
258.5303675
 21
-211.56047591
 31
0.0
  0
LINE
  5
231
100
AcDbEntity
  8
LAYER0001
  6
CONTINUOUS
 62
       7
100
AcDbLine
 10
258.5303675
 20
-211.56047591
 30
0.0
 11
258.33594621
 21
-211.57115519
 31
0.0
  0
LINE
  5
232
100
AcDbEntity
  8
LAYER0001
  6
CONTINUOUS
 62
       7
100
AcDbLine
 10
258.33594621
 20
-211.57115519
 30
0.0
 11
258.14160379
 21
-211.58440099
 31
0.0
  0
LINE
  5
233
100
AcDbEntity
  8
LAYER0001
  6
CONTINUOUS
 62
       7
100
AcDbLine
 10
258.14160379
 20
-211.58440099
 30
0.0
 11
257.94737393
 21
-211.60020281
 31
0.0
  0
LINE
  5
234
100
AcDbEntity
  8
LAYER0001
  6
CONTINUOUS
 62
       7
100
AcDbLine
 10
257.94737393
 20
-211.60020281
 30
0.0
 11
257.75329034
 21
-211.61855013
 31
0.0
  0
LINE
  5
235
100
AcDbEntity
  8
LAYER0001
  6
CONTINUOUS
 62
       7
100
AcDbLine
 10
257.75329034
 20
-211.61855013
 30
0.0
 11
257.5593867
 21
-211.63943242
 31
0.0
  0
LINE
  5
236
100
AcDbEntity
  8
LAYER0001
  6
CONTINUOUS
 62
       7
100
AcDbLine
 10
257.5593867
 20
-211.63943242
 30
0.0
 11
257.36569671
 21
-211.66283917
 31
0.0
  0
LINE
  5
237
100
AcDbEntity
  8
LAYER0001
  6
CONTINUOUS
 62
       7
100
AcDbLine
 10
257.36569671
 20
-211.66283917
 30
0.0
 11
257.17225408
 21
-211.68875987
 31
0.0
  0
LINE
  5
238
100
AcDbEntity
  8
LAYER0001
  6
CONTINUOUS
 62
       7
100
AcDbLine
 10
257.17225408
 20
-211.68875987
 30
0.0
 11
256.9790925
 21
-211.71718399
 31
0.0
  0
LINE
  5
239
100
AcDbEntity
  8
LAYER0001
  6
CONTINUOUS
 62
       7
100
AcDbLine
 10
256.9790925
 20
-211.71718399
 30
0.0
 11
256.78624566
 21
-211.74810103
 31
0.0
  0
LINE
  5
23A
100
AcDbEntity
  8
LAYER0001
  6
CONTINUOUS
 62
       7
100
AcDbLine
 10
256.78624566
 20
-211.74810103
 30
0.0
 11
256.59374727
 21
-211.78150046
 31
0.0
  0
LINE
  5
23B
100
AcDbEntity
  8
LAYER0001
  6
CONTINUOUS
 62
       7
100
AcDbLine
 10
256.59374727
 20
-211.78150046
 30
0.0
 11
256.40163101
 21
-211.81737177
 31
0.0
  0
LINE
  5
23C
100
AcDbEntity
  8
LAYER0001
  6
CONTINUOUS
 62
       7
100
AcDbLine
 10
256.40163101
 20
-211.81737177
 30
0.0
 11
256.2099306
 21
-211.85570442
 31
0.0
  0
LINE
  5
23D
100
AcDbEntity
  8
LAYER0001
  6
CONTINUOUS
 62
       7
100
AcDbLine
 10
256.2099306
 20
-211.85570442
 30
0.0
 11
256.01866612
 21
-211.89645394
 31
0.0
  0
LINE
  5
23E
100
AcDbEntity
  8
LAYER0001
  6
CONTINUOUS
 62
       7
100
AcDbLine
 10
256.01866612
 20
-211.89645394
 30
0.0
 11
255.82781443
 21
-211.93946763
 31
0.0
  0
LINE
  5
23F
100
AcDbEntity
  8
LAYER0001
  6
CONTINUOUS
 62
       7
100
AcDbLine
 10
255.82781443
 20
-211.93946763
 30
0.0
 11
255.63734377
 21
-211.98457134
 31
0.0
  0
LINE
  5
240
100
AcDbEntity
  8
LAYER0001
  6
CONTINUOUS
 62
       7
100
AcDbLine
 10
255.63734377
 20
-211.98457134
 30
0.0
 11
255.44722239
 21
-212.03159089
 31
0.0
  0
LINE
  5
241
100
AcDbEntity
  8
LAYER0001
  6
CONTINUOUS
 62
       7
100
AcDbLine
 10
255.44722239
 20
-212.03159089
 30
0.0
 11
255.25741854
 21
-212.08035213
 31
0.0
  0
LINE
  5
242
100
AcDbEntity
  8
LAYER0001
  6
CONTINUOUS
 62
       7
100
AcDbLine
 10
255.25741854
 20
-212.08035213
 30
0.0
 11
255.06790047
 21
-212.13068087
 31
0.0
  0
LINE
  5
243
100
AcDbEntity
  8
LAYER0001
  6
CONTINUOUS
 62
       7
100
AcDbLine
 10
255.06790047
 20
-212.13068087
 30
0.0
 11
254.87863641
 21
-212.18240295
 31
0.0
  0
LINE
  5
244
100
AcDbEntity
  8
LAYER0001
  6
CONTINUOUS
 62
       7
100
AcDbLine
 10
254.87863641
 20
-212.18240295
 30
0.0
 11
254.68959463
 21
-212.23534421
 31
0.0
  0
LINE
  5
245
100
AcDbEntity
  8
LAYER0001
  6
CONTINUOUS
 62
       7
100
AcDbLine
 10
254.68959463
 20
-212.23534421
 30
0.0
 11
254.50074336
 21
-212.28933048
 31
0.0
  0
LINE
  5
246
100
AcDbEntity
  8
LAYER0001
  6
CONTINUOUS
 62
       7
100
AcDbLine
 10
254.50074336
 20
-212.28933048
 30
0.0
 11
254.31205086
 21
-212.34418758
 31
0.0
  0
LINE
  5
247
100
AcDbEntity
  8
LAYER0001
  6
CONTINUOUS
 62
       7
100
AcDbLine
 10
254.31205086
 20
-212.34418758
 30
0.0
 11
254.12348536
 21
-212.39974136
 31
0.0
  0
LINE
  5
248
100
AcDbEntity
  8
LAYER0001
  6
CONTINUOUS
 62
       7
100
AcDbLine
 10
254.12348536
 20
-212.39974136
 30
0.0
 11
253.93501513
 21
-212.45581764
 31
0.0
  0
LINE
  5
249
100
AcDbEntity
  8
LAYER0001
  6
CONTINUOUS
 62
       7
100
AcDbLine
 10
253.93501513
 20
-212.45581764
 30
0.0
 11
253.7466084
 21
-212.51224226
 31
0.0
  0
LINE
  5
24A
100
AcDbEntity
  8
LAYER0001
  6
CONTINUOUS
 62
       7
100
AcDbLine
 10
253.7466084
 20
-212.51224226
 30
0.0
 11
253.55823342
 21
-212.56884104
 31
0.0
  0
ENDBLK
  5
24B
100
AcDbEntity
  8
0
100
AcDbBlockEnd
  0
BLOCK
  5
24C
100
AcDbEntity
  8
0
100
AcDbBlockBegin
  2
GROUP_18
 70
       0
 10
0.0
 20
0.0
 30
0.0
  3
GROUP_18
  1

  0
LINE
  5
24D
100
AcDbEntity
  8
LAYER0001
  6
CONTINUOUS
 62
       7
100
AcDbLine
 10
265.05823344
 20
-212.56884104
 30
0.0
 11
264.8320524
 21
-212.4993719
 31
0.0
  0
LINE
  5
24E
100
AcDbEntity
  8
LAYER0001
  6
CONTINUOUS
 62
       7
100
AcDbLine
 10
264.8320524
 20
-212.4993719
 30
0.0
 11
264.60582207
 21
-212.43026908
 31
0.0
  0
LINE
  5
24F
100
AcDbEntity
  8
LAYER0001
  6
CONTINUOUS
 62
       7
100
AcDbLine
 10
264.60582207
 20
-212.43026908
 30
0.0
 11
264.37949316
 21
-212.36189891
 31
0.0
  0
LINE
  5
250
100
AcDbEntity
  8
LAYER0001
  6
CONTINUOUS
 62
       7
100
AcDbLine
 10
264.37949316
 20
-212.36189891
 30
0.0
 11
264.15301639
 21
-212.29462769
 31
0.0
  0
LINE
  5
251
100
AcDbEntity
  8
LAYER0001
  6
CONTINUOUS
 62
       7
100
AcDbLine
 10
264.15301639
 20
-212.29462769
 30
0.0
 11
263.92634247
 21
-212.22882176
 31
0.0
  0
LINE
  5
252
100
AcDbEntity
  8
LAYER0001
  6
CONTINUOUS
 62
       7
100
AcDbLine
 10
263.92634247
 20
-212.22882176
 30
0.0
 11
263.69942212
 21
-212.16484744
 31
0.0
  0
LINE
  5
253
100
AcDbEntity
  8
LAYER0001
  6
CONTINUOUS
 62
       7
100
AcDbLine
 10
263.69942212
 20
-212.16484744
 30
0.0
 11
263.47220603
 21
-212.10307104
 31
0.0
  0
LINE
  5
254
100
AcDbEntity
  8
LAYER0001
  6
CONTINUOUS
 62
       7
100
AcDbLine
 10
263.47220603
 20
-212.10307104
 30
0.0
 11
263.24464493
 21
-212.04385889
 31
0.0
  0
LINE
  5
255
100
AcDbEntity
  8
LAYER0001
  6
CONTINUOUS
 62
       7
100
AcDbLine
 10
263.24464493
 20
-212.04385889
 30
0.0
 11
263.01668954
 21
-211.9875773
 31
0.0
  0
LINE
  5
256
100
AcDbEntity
  8
LAYER0001
  6
CONTINUOUS
 62
       7
100
AcDbLine
 10
263.01668954
 20
-211.9875773
 30
0.0
 11
262.78829055
 21
-211.93459261
 31
0.0
  0
LINE
  5
257
100
AcDbEntity
  8
LAYER0001
  6
CONTINUOUS
 62
       7
100
AcDbLine
 10
262.78829055
 20
-211.93459261
 30
0.0
 11
262.55939868
 21
-211.88527112
 31
0.0
  0
LINE
  5
258
100
AcDbEntity
  8
LAYER0001
  6
CONTINUOUS
 62
       7
100
AcDbLine
 10
262.55939868
 20
-211.88527112
 30
0.0
 11
262.32996465
 21
-211.83997917
 31
0.0
  0
LINE
  5
259
100
AcDbEntity
  8
LAYER0001
  6
CONTINUOUS
 62
       7
100
AcDbLine
 10
262.32996465
 20
-211.83997917
 30
0.0
 11
262.09994293
 21
-211.79905511
 31
0.0
  0
LINE
  5
25A
100
AcDbEntity
  8
LAYER0001
  6
CONTINUOUS
 62
       7
100
AcDbLine
 10
262.09994293
 20
-211.79905511
 30
0.0
 11
261.86934135
 21
-211.76244078
 31
0.0
  0
LINE
  5
25B
100
AcDbEntity
  8
LAYER0001
  6
CONTINUOUS
 62
       7
100
AcDbLine
 10
261.86934135
 20
-211.76244078
 30
0.0
 11
261.63820737
 21
-211.72978342
 31
0.0
  0
LINE
  5
25C
100
AcDbEntity
  8
LAYER0001
  6
CONTINUOUS
 62
       7
100
AcDbLine
 10
261.63820737
 20
-211.72978342
 30
0.0
 11
261.40658938
 21
-211.70072331
 31
0.0
  0
LINE
  5
25D
100
AcDbEntity
  8
LAYER0001
  6
CONTINUOUS
 62
       7
100
AcDbLine
 10
261.40658938
 20
-211.70072331
 30
0.0
 11
261.17453579
 21
-211.67490073
 31
0.0
  0
LINE
  5
25E
100
AcDbEntity
  8
LAYER0001
  6
CONTINUOUS
 62
       7
100
AcDbLine
 10
261.17453579
 20
-211.67490073
 30
0.0
 11
260.942095
 21
-211.65195595
 31
0.0
  0
LINE
  5
25F
100
AcDbEntity
  8
LAYER0001
  6
CONTINUOUS
 62
       7
100
AcDbLine
 10
260.942095
 20
-211.65195595
 30
0.0
 11
260.70931541
 21
-211.63152924
 31
0.0
  0
LINE
  5
260
100
AcDbEntity
  8
LAYER0001
  6
CONTINUOUS
 62
       7
100
AcDbLine
 10
260.70931541
 20
-211.63152924
 30
0.0
 11
260.47624541
 21
-211.61326089
 31
0.0
  0
LINE
  5
261
100
AcDbEntity
  8
LAYER0001
  6
CONTINUOUS
 62
       7
100
AcDbLine
 10
260.47624541
 20
-211.61326089
 30
0.0
 11
260.24293342
 21
-211.59679116
 31
0.0
  0
LINE
  5
262
100
AcDbEntity
  8
LAYER0001
  6
CONTINUOUS
 62
       7
100
AcDbLine
 10
260.24293342
 20
-211.59679116
 30
0.0
 11
260.00942782
 21
-211.58176033
 31
0.0
  0
LINE
  5
263
100
AcDbEntity
  8
LAYER0001
  6
CONTINUOUS
 62
       7
100
AcDbLine
 10
260.00942782
 20
-211.58176033
 30
0.0
 11
259.77577702
 21
-211.56780868
 31
0.0
  0
LINE
  5
264
100
AcDbEntity
  8
LAYER0001
  6
CONTINUOUS
 62
       7
100
AcDbLine
 10
259.77577702
 20
-211.56780868
 30
0.0
 11
259.54202943
 21
-211.55457648
 31
0.0
  0
LINE
  5
265
100
AcDbEntity
  8
LAYER0001
  6
CONTINUOUS
 62
       7
100
AcDbLine
 10
259.54202943
 20
-211.55457648
 30
0.0
 11
259.30823343
 21
-211.541704
 31
0.0
  0
ENDBLK
  5
266
100
AcDbEntity
  8
0
100
AcDbBlockEnd
  0
BLOCK
  5
267
100
AcDbEntity
  8
0
100
AcDbBlockBegin
  2
GROUP_19
 70
       0
 10
0.0
 20
0.0
 30
0.0
  3
GROUP_19
  1

  0
LINE
  5
268
100
AcDbEntity
  8
LAYER0001
  6
CONTINUOUS
 62
       7
100
AcDbLine
 10
259.30823343
 20
-219.04169685
 30
0.0
 11
259.50268993
 21
-219.03973693
 31
0.0
  0
LINE
  5
269
100
AcDbEntity
  8
LAYER0001
  6
CONTINUOUS
 62
       7
100
AcDbLine
 10
259.50268993
 20
-219.03973693
 30
0.0
 11
259.69715532
 21
-219.03654206
 31
0.0
  0
LINE
  5
26A
100
AcDbEntity
  8
LAYER0001
  6
CONTINUOUS
 62
       7
100
AcDbLine
 10
259.69715532
 20
-219.03654206
 30
0.0
 11
259.89163339
 21
-219.03102716
 31
0.0
  0
LINE
  5
26B
100
AcDbEntity
  8
LAYER0001
  6
CONTINUOUS
 62
       7
100
AcDbLine
 10
259.89163339
 20
-219.03102716
 30
0.0
 11
260.08609994
 21
-219.02292492
 31
0.0
  0
LINE
  5
26C
100
AcDbEntity
  8
LAYER0001
  6
CONTINUOUS
 62
       7
100
AcDbLine
 10
260.08609994
 20
-219.02292492
 30
0.0
 11
260.28052129
 21
-219.01224563
 31
0.0
  0
LINE
  5
26D
100
AcDbEntity
  8
LAYER0001
  6
CONTINUOUS
 62
       7
100
AcDbLine
 10
260.28052129
 20
-219.01224563
 30
0.0
 11
260.47486374
 21
-218.99899982
 31
0.0
  0
LINE
  5
26E
100
AcDbEntity
  8
LAYER0001
  6
CONTINUOUS
 62
       7
100
AcDbLine
 10
260.47486374
 20
-218.99899982
 30
0.0
 11
260.6690936
 21
-218.983198
 31
0.0
  0
LINE
  5
26F
100
AcDbEntity
  8
LAYER0001
  6
CONTINUOUS
 62
       7
100
AcDbLine
 10
260.6690936
 20
-218.983198
 30
0.0
 11
260.86317718
 21
-218.96485068
 31
0.0
  0
LINE
  5
270
100
AcDbEntity
  8
LAYER0001
  6
CONTINUOUS
 62
       7
100
AcDbLine
 10
260.86317718
 20
-218.96485068
 30
0.0
 11
261.05708078
 21
-218.94396838
 31
0.0
  0
LINE
  5
271
100
AcDbEntity
  8
LAYER0001
  6
CONTINUOUS
 62
       7
100
AcDbLine
 10
261.05708078
 20
-218.94396838
 30
0.0
 11
261.25077071
 21
-218.92056162
 31
0.0
  0
LINE
  5
272
100
AcDbEntity
  8
LAYER0001
  6
CONTINUOUS
 62
       7
100
AcDbLine
 10
261.25077071
 20
-218.92056162
 30
0.0
 11
261.44421327
 21
-218.89464092
 31
0.0
  0
LINE
  5
273
100
AcDbEntity
  8
LAYER0001
  6
CONTINUOUS
 62
       7
100
AcDbLine
 10
261.44421327
 20
-218.89464092
 30
0.0
 11
261.63737478
 21
-218.86621679
 31
0.0
  0
LINE
  5
274
100
AcDbEntity
  8
LAYER0001
  6
CONTINUOUS
 62
       7
100
AcDbLine
 10
261.63737478
 20
-218.86621679
 30
0.0
 11
261.83022154
 21
-218.83529975
 31
0.0
  0
LINE
  5
275
100
AcDbEntity
  8
LAYER0001
  6
CONTINUOUS
 62
       7
100
AcDbLine
 10
261.83022154
 20
-218.83529975
 30
0.0
 11
262.02271985
 21
-218.80190032
 31
0.0
  0
LINE
  5
276
100
AcDbEntity
  8
LAYER0001
  6
CONTINUOUS
 62
       7
100
AcDbLine
 10
262.02271985
 20
-218.80190032
 30
0.0
 11
262.21483603
 21
-218.76602901
 31
0.0
  0
LINE
  5
277
100
AcDbEntity
  8
LAYER0001
  6
CONTINUOUS
 62
       7
100
AcDbLine
 10
262.21483603
 20
-218.76602901
 30
0.0
 11
262.40653638
 21
-218.72769635
 31
0.0
  0
LINE
  5
278
100
AcDbEntity
  8
LAYER0001
  6
CONTINUOUS
 62
       7
100
AcDbLine
 10
262.40653638
 20
-218.72769635
 30
0.0
 11
262.5978008
 21
-218.68694684
 31
0.0
  0
LINE
  5
279
100
AcDbEntity
  8
LAYER0001
  6
CONTINUOUS
 62
       7
100
AcDbLine
 10
262.5978008
 20
-218.68694684
 30
0.0
 11
262.78865245
 21
-218.64393314
 31
0.0
  0
LINE
  5
27A
100
AcDbEntity
  8
LAYER0001
  6
CONTINUOUS
 62
       7
100
AcDbLine
 10
262.78865245
 20
-218.64393314
 30
0.0
 11
262.97912307
 21
-218.59882944
 31
0.0
  0
LINE
  5
27B
100
AcDbEntity
  8
LAYER0001
  6
CONTINUOUS
 62
       7
100
AcDbLine
 10
262.97912307
 20
-218.59882944
 30
0.0
 11
263.16924442
 21
-218.55180989
 31
0.0
  0
LINE
  5
27C
100
AcDbEntity
  8
LAYER0001
  6
CONTINUOUS
 62
       7
100
AcDbLine
 10
263.16924442
 20
-218.55180989
 30
0.0
 11
263.35904825
 21
-218.50304866
 31
0.0
  0
LINE
  5
27D
100
AcDbEntity
  8
LAYER0001
  6
CONTINUOUS
 62
       7
100
AcDbLine
 10
263.35904825
 20
-218.50304866
 30
0.0
 11
263.54856632
 21
-218.45271992
 31
0.0
  0
LINE
  5
27E
100
AcDbEntity
  8
LAYER0001
  6
CONTINUOUS
 62
       7
100
AcDbLine
 10
263.54856632
 20
-218.45271992
 30
0.0
 11
263.73783037
 21
-218.40099784
 31
0.0
  0
LINE
  5
27F
100
AcDbEntity
  8
LAYER0001
  6
CONTINUOUS
 62
       7
100
AcDbLine
 10
263.73783037
 20
-218.40099784
 30
0.0
 11
263.92687215
 21
-218.34805659
 31
0.0
  0
LINE
  5
280
100
AcDbEntity
  8
LAYER0001
  6
CONTINUOUS
 62
       7
100
AcDbLine
 10
263.92687215
 20
-218.34805659
 30
0.0
 11
264.11572343
 21
-218.29407033
 31
0.0
  0
LINE
  5
281
100
AcDbEntity
  8
LAYER0001
  6
CONTINUOUS
 62
       7
100
AcDbLine
 10
264.11572343
 20
-218.29407033
 30
0.0
 11
264.30441594
 21
-218.23921323
 31
0.0
  0
LINE
  5
282
100
AcDbEntity
  8
LAYER0001
  6
CONTINUOUS
 62
       7
100
AcDbLine
 10
264.30441594
 20
-218.23921323
 30
0.0
 11
264.49298145
 21
-218.18365946
 31
0.0
  0
LINE
  5
283
100
AcDbEntity
  8
LAYER0001
  6
CONTINUOUS
 62
       7
100
AcDbLine
 10
264.49298145
 20
-218.18365946
 30
0.0
 11
264.6814517
 21
-218.12758319
 31
0.0
  0
LINE
  5
284
100
AcDbEntity
  8
LAYER0001
  6
CONTINUOUS
 62
       7
100
AcDbLine
 10
264.6814517
 20
-218.12758319
 30
0.0
 11
264.86985845
 21
-218.07115858
 31
0.0
  0
LINE
  5
285
100
AcDbEntity
  8
LAYER0001
  6
CONTINUOUS
 62
       7
100
AcDbLine
 10
264.86985845
 20
-218.07115858
 30
0.0
 11
265.05823344
 21
-218.01455981
 31
0.0
  0
ENDBLK
  5
286
100
AcDbEntity
  8
0
100
AcDbBlockEnd
  0
BLOCK
  5
287
100
AcDbEntity
  8
0
100
AcDbBlockBegin
  2
GROUP_20
 70
       0
 10
0.0
 20
0.0
 30
0.0
  3
GROUP_20
  1

  0
LINE
  5
288
100
AcDbEntity
  8
LAYER0001
  6
CONTINUOUS
 62
       7
100
AcDbLine
 10
253.55823342
 20
-218.01455981
 30
0.0
 11
253.78441403
 21
-218.08403243
 31
0.0
  0
LINE
  5
289
100
AcDbEntity
  8
LAYER0001
  6
CONTINUOUS
 62
       7
100
AcDbLine
 10
253.78441403
 20
-218.08403243
 30
0.0
 11
254.01064392
 21
-218.15313868
 31
0.0
  0
LINE
  5
28A
100
AcDbEntity
  8
LAYER0001
  6
CONTINUOUS
 62
       7
100
AcDbLine
 10
254.01064392
 20
-218.15313868
 30
0.0
 11
254.23697241
 21
-218.22151221
 31
0.0
  0
LINE
  5
28B
100
AcDbEntity
  8
LAYER0001
  6
CONTINUOUS
 62
       7
100
AcDbLine
 10
254.23697241
 20
-218.22151221
 30
0.0
 11
254.46344878
 21
-218.28878664
 31
0.0
  0
LINE
  5
28C
100
AcDbEntity
  8
LAYER0001
  6
CONTINUOUS
 62
       7
100
AcDbLine
 10
254.46344878
 20
-218.28878664
 30
0.0
 11
254.69012231
 21
-218.3545956
 31
0.0
  0
LINE
  5
28D
100
AcDbEntity
  8
LAYER0001
  6
CONTINUOUS
 62
       7
100
AcDbLine
 10
254.69012231
 20
-218.3545956
 30
0.0
 11
254.91704232
 21
-218.41857274
 31
0.0
  0
LINE
  5
28E
100
AcDbEntity
  8
LAYER0001
  6
CONTINUOUS
 62
       7
100
AcDbLine
 10
254.91704232
 20
-218.41857274
 30
0.0
 11
255.14425808
 21
-218.48035169
 31
0.0
  0
LINE
  5
28F
100
AcDbEntity
  8
LAYER0001
  6
CONTINUOUS
 62
       7
100
AcDbLine
 10
255.14425808
 20
-218.48035169
 30
0.0
 11
255.3718189
 21
-218.53956607
 31
0.0
  0
LINE
  5
290
100
AcDbEntity
  8
LAYER0001
  6
CONTINUOUS
 62
       7
100
AcDbLine
 10
255.3718189
 20
-218.53956607
 30
0.0
 11
255.59977406
 21
-218.59584953
 31
0.0
  0
LINE
  5
291
100
AcDbEntity
  8
LAYER0001
  6
CONTINUOUS
 62
       7
100
AcDbLine
 10
255.59977406
 20
-218.59584953
 30
0.0
 11
255.82817287
 21
-218.64883571
 31
0.0
  0
LINE
  5
292
100
AcDbEntity
  8
LAYER0001
  6
CONTINUOUS
 62
       7
100
AcDbLine
 10
255.82817287
 20
-218.64883571
 30
0.0
 11
256.0570646
 21
-218.69815822
 31
0.0
  0
LINE
  5
293
100
AcDbEntity
  8
LAYER0001
  6
CONTINUOUS
 62
       7
100
AcDbLine
 10
256.0570646
 20
-218.69815822
 30
0.0
 11
256.28649856
 21
-218.74345071
 31
0.0
  0
LINE
  5
294
100
AcDbEntity
  8
LAYER0001
  6
CONTINUOUS
 62
       7
100
AcDbLine
 10
256.28649856
 20
-218.74345071
 30
0.0
 11
256.51652028
 21
-218.78437477
 31
0.0
  0
LINE
  5
295
100
AcDbEntity
  8
LAYER0001
  6
CONTINUOUS
 62
       7
100
AcDbLine
 10
256.51652028
 20
-218.78437477
 30
0.0
 11
256.74712193
 21
-218.82098858
 31
0.0
  0
LINE
  5
296
100
AcDbEntity
  8
LAYER0001
  6
CONTINUOUS
 62
       7
100
AcDbLine
 10
256.74712193
 20
-218.82098858
 30
0.0
 11
256.97825605
 21
-218.85364491
 31
0.0
  0
LINE
  5
297
100
AcDbEntity
  8
LAYER0001
  6
CONTINUOUS
 62
       7
100
AcDbLine
 10
256.97825605
 20
-218.85364491
 30
0.0
 11
257.20987422
 21
-218.88270355
 31
0.0
  0
LINE
  5
298
100
AcDbEntity
  8
LAYER0001
  6
CONTINUOUS
 62
       7
100
AcDbLine
 10
257.20987422
 20
-218.88270355
 30
0.0
 11
257.44192804
 21
-218.90852425
 31
0.0
  0
LINE
  5
299
100
AcDbEntity
  8
LAYER0001
  6
CONTINUOUS
 62
       7
100
AcDbLine
 10
257.44192804
 20
-218.90852425
 30
0.0
 11
257.67436911
 21
-218.9314668
 31
0.0
  0
LINE
  5
29A
100
AcDbEntity
  8
LAYER0001
  6
CONTINUOUS
 62
       7
100
AcDbLine
 10
257.67436911
 20
-218.9314668
 30
0.0
 11
257.90714903
 21
-218.95189096
 31
0.0
  0
LINE
  5
29B
100
AcDbEntity
  8
LAYER0001
  6
CONTINUOUS
 62
       7
100
AcDbLine
 10
257.90714903
 20
-218.95189096
 30
0.0
 11
258.14021937
 21
-218.9701565
 31
0.0
  0
LINE
  5
29C
100
AcDbEntity
  8
LAYER0001
  6
CONTINUOUS
 62
       7
100
AcDbLine
 10
258.14021937
 20
-218.9701565
 30
0.0
 11
258.37353175
 21
-218.98662319
 31
0.0
  0
LINE
  5
29D
100
AcDbEntity
  8
LAYER0001
  6
CONTINUOUS
 62
       7
100
AcDbLine
 10
258.37353175
 20
-218.98662319
 30
0.0
 11
258.60703775
 21
-219.0016508
 31
0.0
  0
LINE
  5
29E
100
AcDbEntity
  8
LAYER0001
  6
CONTINUOUS
 62
       7
100
AcDbLine
 10
258.60703775
 20
-219.0016508
 30
0.0
 11
258.84068897
 21
-219.0155991
 31
0.0
  0
LINE
  5
29F
100
AcDbEntity
  8
LAYER0001
  6
CONTINUOUS
 62
       7
100
AcDbLine
 10
258.84068897
 20
-219.0155991
 30
0.0
 11
259.074437
 21
-219.02882786
 31
0.0
  0
LINE
  5
2A0
100
AcDbEntity
  8
LAYER0001
  6
CONTINUOUS
 62
       7
100
AcDbLine
 10
259.074437
 20
-219.02882786
 30
0.0
 11
259.30823343
 21
-219.04169685
 31
0.0
  0
ENDBLK
  5
2A1
100
AcDbEntity
  8
0
100
AcDbBlockEnd
  0
BLOCK
  5
2A2
100
AcDbEntity
  8
0
100
AcDbBlockBegin
  2
GROUP_21
 70
       0
 10
0.0
 20
0.0
 30
0.0
  3
GROUP_21
  1

  0
LINE
  5
2A3
100
AcDbEntity
  8
LAYER0001
  6
CONTINUOUS
 62
       7
100
AcDbLine
 10
253.55823342
 20
-212.56884104
 30
0.0
 11
253.55823342
 21
-212.50282935
 31
0.0
  0
LINE
  5
2A4
100
AcDbEntity
  8
LAYER0001
  6
CONTINUOUS
 62
       7
100
AcDbLine
 10
253.55823342
 20
-212.50282935
 30
0.0
 11
253.55823342
 21
-212.43707465
 31
0.0
  0
LINE
  5
2A5
100
AcDbEntity
  8
LAYER0001
  6
CONTINUOUS
 62
       7
100
AcDbLine
 10
253.55823342
 20
-212.43707465
 30
0.0
 11
253.55823342
 21
-212.37183393
 31
0.0
  0
LINE
  5
2A6
100
AcDbEntity
  8
LAYER0001
  6
CONTINUOUS
 62
       7
100
AcDbLine
 10
253.55823342
 20
-212.37183393
 30
0.0
 11
253.55823342
 21
-212.30736418
 31
0.0
  0
LINE
  5
2A7
100
AcDbEntity
  8
LAYER0001
  6
CONTINUOUS
 62
       7
100
AcDbLine
 10
253.55823342
 20
-212.30736418
 30
0.0
 11
253.55823342
 21
-212.24392238
 31
0.0
  0
LINE
  5
2A8
100
AcDbEntity
  8
LAYER0001
  6
CONTINUOUS
 62
       7
100
AcDbLine
 10
253.55823342
 20
-212.24392238
 30
0.0
 11
253.55823342
 21
-212.18176553
 31
0.0
  0
LINE
  5
2A9
100
AcDbEntity
  8
LAYER0001
  6
CONTINUOUS
 62
       7
100
AcDbLine
 10
253.55823342
 20
-212.18176553
 30
0.0
 11
253.55823342
 21
-212.12115061
 31
0.0
  0
LINE
  5
2AA
100
AcDbEntity
  8
LAYER0001
  6
CONTINUOUS
 62
       7
100
AcDbLine
 10
253.55823342
 20
-212.12115061
 30
0.0
 11
253.55823342
 21
-212.06233462
 31
0.0
  0
LINE
  5
2AB
100
AcDbEntity
  8
LAYER0001
  6
CONTINUOUS
 62
       7
100
AcDbLine
 10
253.55823342
 20
-212.06233462
 30
0.0
 11
253.55823342
 21
-212.00557454
 31
0.0
  0
LINE
  5
2AC
100
AcDbEntity
  8
LAYER0001
  6
CONTINUOUS
 62
       7
100
AcDbLine
 10
253.55823342
 20
-212.00557454
 30
0.0
 11
253.55823342
 21
-211.95112736
 31
0.0
  0
LINE
  5
2AD
100
AcDbEntity
  8
LAYER0001
  6
CONTINUOUS
 62
       7
100
AcDbLine
 10
253.55823342
 20
-211.95112736
 30
0.0
 11
253.55823342
 21
-211.89925007
 31
0.0
  0
LINE
  5
2AE
100
AcDbEntity
  8
LAYER0001
  6
CONTINUOUS
 62
       7
100
AcDbLine
 10
253.55823342
 20
-211.89925007
 30
0.0
 11
253.55823342
 21
-211.85019967
 31
0.0
  0
LINE
  5
2AF
100
AcDbEntity
  8
LAYER0001
  6
CONTINUOUS
 62
       7
100
AcDbLine
 10
253.55823342
 20
-211.85019967
 30
0.0
 11
253.55823342
 21
-211.80423313
 31
0.0
  0
LINE
  5
2B0
100
AcDbEntity
  8
LAYER0001
  6
CONTINUOUS
 62
       7
100
AcDbLine
 10
253.55823342
 20
-211.80423313
 30
0.0
 11
253.55823342
 21
-211.76160745
 31
0.0
  0
LINE
  5
2B1
100
AcDbEntity
  8
LAYER0001
  6
CONTINUOUS
 62
       7
100
AcDbLine
 10
253.55823342
 20
-211.76160745
 30
0.0
 11
253.55823342
 21
-211.72257962
 31
0.0
  0
LINE
  5
2B2
100
AcDbEntity
  8
LAYER0001
  6
CONTINUOUS
 62
       7
100
AcDbLine
 10
253.55823342
 20
-211.72257962
 30
0.0
 11
253.55823342
 21
-211.68740663
 31
0.0
  0
LINE
  5
2B3
100
AcDbEntity
  8
LAYER0001
  6
CONTINUOUS
 62
       7
100
AcDbLine
 10
253.55823342
 20
-211.68740663
 30
0.0
 11
253.55823342
 21
-211.65634547
 31
0.0
  0
LINE
  5
2B4
100
AcDbEntity
  8
LAYER0001
  6
CONTINUOUS
 62
       7
100
AcDbLine
 10
253.55823342
 20
-211.65634547
 30
0.0
 11
253.55823342
 21
-211.62965311
 31
0.0
  0
LINE
  5
2B5
100
AcDbEntity
  8
LAYER0001
  6
CONTINUOUS
 62
       7
100
AcDbLine
 10
253.55823342
 20
-211.62965311
 30
0.0
 11
253.55823342
 21
-211.60756786
 31
0.0
  0
LINE
  5
2B6
100
AcDbEntity
  8
LAYER0001
  6
CONTINUOUS
 62
       7
100
AcDbLine
 10
253.55823342
 20
-211.60756786
 30
0.0
 11
253.55823342
 21
-211.58986323
 31
0.0
  0
LINE
  5
2B7
100
AcDbEntity
  8
LAYER0001
  6
CONTINUOUS
 62
       7
100
AcDbLine
 10
253.55823342
 20
-211.58986323
 30
0.0
 11
253.55823342
 21
-211.57582805
 31
0.0
  0
LINE
  5
2B8
100
AcDbEntity
  8
LAYER0001
  6
CONTINUOUS
 62
       7
100
AcDbLine
 10
253.55823342
 20
-211.57582805
 30
0.0
 11
253.55823342
 21
-211.56472843
 31
0.0
  0
LINE
  5
2B9
100
AcDbEntity
  8
LAYER0001
  6
CONTINUOUS
 62
       7
100
AcDbLine
 10
253.55823342
 20
-211.56472843
 30
0.0
 11
253.55823342
 21
-211.55583047
 31
0.0
  0
LINE
  5
2BA
100
AcDbEntity
  8
LAYER0001
  6
CONTINUOUS
 62
       7
100
AcDbLine
 10
253.55823342
 20
-211.55583047
 30
0.0
 11
253.55823342
 21
-211.54840029
 31
0.0
  0
LINE
  5
2BB
100
AcDbEntity
  8
LAYER0001
  6
CONTINUOUS
 62
       7
100
AcDbLine
 10
253.55823342
 20
-211.54840029
 30
0.0
 11
253.55823342
 21
-211.541704
 31
0.0
  0
ENDBLK
  5
2BC
100
AcDbEntity
  8
0
100
AcDbBlockEnd
  0
BLOCK
  5
2BD
100
AcDbEntity
  8
0
100
AcDbBlockBegin
  2
GROUP_22
 70
       0
 10
0.0
 20
0.0
 30
0.0
  3
GROUP_22
  1

  0
LINE
  5
2BE
100
AcDbEntity
  8
LAYER0001
  6
CONTINUOUS
 62
       7
100
AcDbLine
 10
276.55823346
 20
-211.541704
 30
0.0
 11
276.55823346
 21
-211.54840029
 31
0.0
  0
LINE
  5
2BF
100
AcDbEntity
  8
LAYER0001
  6
CONTINUOUS
 62
       7
100
AcDbLine
 10
276.55823346
 20
-211.54840029
 30
0.0
 11
276.55823346
 21
-211.55583047
 31
0.0
  0
LINE
  5
2C0
100
AcDbEntity
  8
LAYER0001
  6
CONTINUOUS
 62
       7
100
AcDbLine
 10
276.55823346
 20
-211.55583047
 30
0.0
 11
276.55823346
 21
-211.56472843
 31
0.0
  0
LINE
  5
2C1
100
AcDbEntity
  8
LAYER0001
  6
CONTINUOUS
 62
       7
100
AcDbLine
 10
276.55823346
 20
-211.56472843
 30
0.0
 11
276.55823346
 21
-211.57582805
 31
0.0
  0
LINE
  5
2C2
100
AcDbEntity
  8
LAYER0001
  6
CONTINUOUS
 62
       7
100
AcDbLine
 10
276.55823346
 20
-211.57582805
 30
0.0
 11
276.55823346
 21
-211.58986323
 31
0.0
  0
LINE
  5
2C3
100
AcDbEntity
  8
LAYER0001
  6
CONTINUOUS
 62
       7
100
AcDbLine
 10
276.55823346
 20
-211.58986323
 30
0.0
 11
276.55823346
 21
-211.60756786
 31
0.0
  0
LINE
  5
2C4
100
AcDbEntity
  8
LAYER0001
  6
CONTINUOUS
 62
       7
100
AcDbLine
 10
276.55823346
 20
-211.60756786
 30
0.0
 11
276.55823346
 21
-211.62965311
 31
0.0
  0
LINE
  5
2C5
100
AcDbEntity
  8
LAYER0001
  6
CONTINUOUS
 62
       7
100
AcDbLine
 10
276.55823346
 20
-211.62965311
 30
0.0
 11
276.55823346
 21
-211.65634547
 31
0.0
  0
LINE
  5
2C6
100
AcDbEntity
  8
LAYER0001
  6
CONTINUOUS
 62
       7
100
AcDbLine
 10
276.55823346
 20
-211.65634547
 30
0.0
 11
276.55823346
 21
-211.68740663
 31
0.0
  0
LINE
  5
2C7
100
AcDbEntity
  8
LAYER0001
  6
CONTINUOUS
 62
       7
100
AcDbLine
 10
276.55823346
 20
-211.68740663
 30
0.0
 11
276.55823346
 21
-211.72257962
 31
0.0
  0
LINE
  5
2C8
100
AcDbEntity
  8
LAYER0001
  6
CONTINUOUS
 62
       7
100
AcDbLine
 10
276.55823346
 20
-211.72257962
 30
0.0
 11
276.55823346
 21
-211.76160745
 31
0.0
  0
LINE
  5
2C9
100
AcDbEntity
  8
LAYER0001
  6
CONTINUOUS
 62
       7
100
AcDbLine
 10
276.55823346
 20
-211.76160745
 30
0.0
 11
276.55823346
 21
-211.80423313
 31
0.0
  0
LINE
  5
2CA
100
AcDbEntity
  8
LAYER0001
  6
CONTINUOUS
 62
       7
100
AcDbLine
 10
276.55823346
 20
-211.80423313
 30
0.0
 11
276.55823346
 21
-211.85019967
 31
0.0
  0
LINE
  5
2CB
100
AcDbEntity
  8
LAYER0001
  6
CONTINUOUS
 62
       7
100
AcDbLine
 10
276.55823346
 20
-211.85019967
 30
0.0
 11
276.55823346
 21
-211.89925007
 31
0.0
  0
LINE
  5
2CC
100
AcDbEntity
  8
LAYER0001
  6
CONTINUOUS
 62
       7
100
AcDbLine
 10
276.55823346
 20
-211.89925007
 30
0.0
 11
276.55823346
 21
-211.95112736
 31
0.0
  0
LINE
  5
2CD
100
AcDbEntity
  8
LAYER0001
  6
CONTINUOUS
 62
       7
100
AcDbLine
 10
276.55823346
 20
-211.95112736
 30
0.0
 11
276.55823346
 21
-212.00557454
 31
0.0
  0
LINE
  5
2CE
100
AcDbEntity
  8
LAYER0001
  6
CONTINUOUS
 62
       7
100
AcDbLine
 10
276.55823346
 20
-212.00557454
 30
0.0
 11
276.55823346
 21
-212.06233462
 31
0.0
  0
LINE
  5
2CF
100
AcDbEntity
  8
LAYER0001
  6
CONTINUOUS
 62
       7
100
AcDbLine
 10
276.55823346
 20
-212.06233462
 30
0.0
 11
276.55823346
 21
-212.12115061
 31
0.0
  0
LINE
  5
2D0
100
AcDbEntity
  8
LAYER0001
  6
CONTINUOUS
 62
       7
100
AcDbLine
 10
276.55823346
 20
-212.12115061
 30
0.0
 11
276.55823346
 21
-212.18176553
 31
0.0
  0
LINE
  5
2D1
100
AcDbEntity
  8
LAYER0001
  6
CONTINUOUS
 62
       7
100
AcDbLine
 10
276.55823346
 20
-212.18176553
 30
0.0
 11
276.55823346
 21
-212.24392238
 31
0.0
  0
LINE
  5
2D2
100
AcDbEntity
  8
LAYER0001
  6
CONTINUOUS
 62
       7
100
AcDbLine
 10
276.55823346
 20
-212.24392238
 30
0.0
 11
276.55823346
 21
-212.30736418
 31
0.0
  0
LINE
  5
2D3
100
AcDbEntity
  8
LAYER0001
  6
CONTINUOUS
 62
       7
100
AcDbLine
 10
276.55823346
 20
-212.30736418
 30
0.0
 11
276.55823346
 21
-212.37183393
 31
0.0
  0
LINE
  5
2D4
100
AcDbEntity
  8
LAYER0001
  6
CONTINUOUS
 62
       7
100
AcDbLine
 10
276.55823346
 20
-212.37183393
 30
0.0
 11
276.55823346
 21
-212.43707465
 31
0.0
  0
LINE
  5
2D5
100
AcDbEntity
  8
LAYER0001
  6
CONTINUOUS
 62
       7
100
AcDbLine
 10
276.55823346
 20
-212.43707465
 30
0.0
 11
276.55823346
 21
-212.50282935
 31
0.0
  0
LINE
  5
2D6
100
AcDbEntity
  8
LAYER0001
  6
CONTINUOUS
 62
       7
100
AcDbLine
 10
276.55823346
 20
-212.50282935
 30
0.0
 11
276.55823346
 21
-212.56884104
 31
0.0
  0
ENDBLK
  5
2D7
100
AcDbEntity
  8
0
100
AcDbBlockEnd
  0
BLOCK
  5
2D8
100
AcDbEntity
  8
0
100
AcDbBlockBegin
  2
GROUP_23
 70
       0
 10
0.0
 20
0.0
 30
0.0
  3
GROUP_23
  1

  0
LINE
  5
2D9
100
AcDbEntity
  8
LAYER0001
  6
CONTINUOUS
 62
       7
100
AcDbLine
 10
276.55823346
 20
-218.01455981
 30
0.0
 11
276.55823346
 21
-218.08057149
 31
0.0
  0
LINE
  5
2DA
100
AcDbEntity
  8
LAYER0001
  6
CONTINUOUS
 62
       7
100
AcDbLine
 10
276.55823346
 20
-218.08057149
 30
0.0
 11
276.55823346
 21
-218.14632619
 31
0.0
  0
LINE
  5
2DB
100
AcDbEntity
  8
LAYER0001
  6
CONTINUOUS
 62
       7
100
AcDbLine
 10
276.55823346
 20
-218.14632619
 30
0.0
 11
276.55823346
 21
-218.21156692
 31
0.0
  0
LINE
  5
2DC
100
AcDbEntity
  8
LAYER0001
  6
CONTINUOUS
 62
       7
100
AcDbLine
 10
276.55823346
 20
-218.21156692
 30
0.0
 11
276.55823346
 21
-218.27603667
 31
0.0
  0
LINE
  5
2DD
100
AcDbEntity
  8
LAYER0001
  6
CONTINUOUS
 62
       7
100
AcDbLine
 10
276.55823346
 20
-218.27603667
 30
0.0
 11
276.55823346
 21
-218.33947847
 31
0.0
  0
LINE
  5
2DE
100
AcDbEntity
  8
LAYER0001
  6
CONTINUOUS
 62
       7
100
AcDbLine
 10
276.55823346
 20
-218.33947847
 30
0.0
 11
276.55823346
 21
-218.40163532
 31
0.0
  0
LINE
  5
2DF
100
AcDbEntity
  8
LAYER0001
  6
CONTINUOUS
 62
       7
100
AcDbLine
 10
276.55823346
 20
-218.40163532
 30
0.0
 11
276.55823346
 21
-218.46225024
 31
0.0
  0
LINE
  5
2E0
100
AcDbEntity
  8
LAYER0001
  6
CONTINUOUS
 62
       7
100
AcDbLine
 10
276.55823346
 20
-218.46225024
 30
0.0
 11
276.55823346
 21
-218.52106623
 31
0.0
  0
LINE
  5
2E1
100
AcDbEntity
  8
LAYER0001
  6
CONTINUOUS
 62
       7
100
AcDbLine
 10
276.55823346
 20
-218.52106623
 30
0.0
 11
276.55823346
 21
-218.57782631
 31
0.0
  0
LINE
  5
2E2
100
AcDbEntity
  8
LAYER0001
  6
CONTINUOUS
 62
       7
100
AcDbLine
 10
276.55823346
 20
-218.57782631
 30
0.0
 11
276.55823346
 21
-218.63227349
 31
0.0
  0
LINE
  5
2E3
100
AcDbEntity
  8
LAYER0001
  6
CONTINUOUS
 62
       7
100
AcDbLine
 10
276.55823346
 20
-218.63227349
 30
0.0
 11
276.55823346
 21
-218.68415077
 31
0.0
  0
LINE
  5
2E4
100
AcDbEntity
  8
LAYER0001
  6
CONTINUOUS
 62
       7
100
AcDbLine
 10
276.55823346
 20
-218.68415077
 30
0.0
 11
276.55823346
 21
-218.73320118
 31
0.0
  0
LINE
  5
2E5
100
AcDbEntity
  8
LAYER0001
  6
CONTINUOUS
 62
       7
100
AcDbLine
 10
276.55823346
 20
-218.73320118
 30
0.0
 11
276.55823346
 21
-218.77916772
 31
0.0
  0
LINE
  5
2E6
100
AcDbEntity
  8
LAYER0001
  6
CONTINUOUS
 62
       7
100
AcDbLine
 10
276.55823346
 20
-218.77916772
 30
0.0
 11
276.55823346
 21
-218.82179339
 31
0.0
  0
LINE
  5
2E7
100
AcDbEntity
  8
LAYER0001
  6
CONTINUOUS
 62
       7
100
AcDbLine
 10
276.55823346
 20
-218.82179339
 30
0.0
 11
276.55823346
 21
-218.86082122
 31
0.0
  0
LINE
  5
2E8
100
AcDbEntity
  8
LAYER0001
  6
CONTINUOUS
 62
       7
100
AcDbLine
 10
276.55823346
 20
-218.86082122
 30
0.0
 11
276.55823346
 21
-218.89599421
 31
0.0
  0
LINE
  5
2E9
100
AcDbEntity
  8
LAYER0001
  6
CONTINUOUS
 62
       7
100
AcDbLine
 10
276.55823346
 20
-218.89599421
 30
0.0
 11
276.55823346
 21
-218.92705538
 31
0.0
  0
LINE
  5
2EA
100
AcDbEntity
  8
LAYER0001
  6
CONTINUOUS
 62
       7
100
AcDbLine
 10
276.55823346
 20
-218.92705538
 30
0.0
 11
276.55823346
 21
-218.95374773
 31
0.0
  0
LINE
  5
2EB
100
AcDbEntity
  8
LAYER0001
  6
CONTINUOUS
 62
       7
100
AcDbLine
 10
276.55823346
 20
-218.95374773
 30
0.0
 11
276.55823346
 21
-218.97583299
 31
0.0
  0
LINE
  5
2EC
100
AcDbEntity
  8
LAYER0001
  6
CONTINUOUS
 62
       7
100
AcDbLine
 10
276.55823346
 20
-218.97583299
 30
0.0
 11
276.55823346
 21
-218.99353761
 31
0.0
  0
LINE
  5
2ED
100
AcDbEntity
  8
LAYER0001
  6
CONTINUOUS
 62
       7
100
AcDbLine
 10
276.55823346
 20
-218.99353761
 30
0.0
 11
276.55823346
 21
-219.0075728
 31
0.0
  0
LINE
  5
2EE
100
AcDbEntity
  8
LAYER0001
  6
CONTINUOUS
 62
       7
100
AcDbLine
 10
276.55823346
 20
-219.0075728
 30
0.0
 11
276.55823346
 21
-219.01867242
 31
0.0
  0
LINE
  5
2EF
100
AcDbEntity
  8
LAYER0001
  6
CONTINUOUS
 62
       7
100
AcDbLine
 10
276.55823346
 20
-219.01867242
 30
0.0
 11
276.55823346
 21
-219.02757038
 31
0.0
  0
LINE
  5
2F0
100
AcDbEntity
  8
LAYER0001
  6
CONTINUOUS
 62
       7
100
AcDbLine
 10
276.55823346
 20
-219.02757038
 30
0.0
 11
276.55823346
 21
-219.03500056
 31
0.0
  0
LINE
  5
2F1
100
AcDbEntity
  8
LAYER0001
  6
CONTINUOUS
 62
       7
100
AcDbLine
 10
276.55823346
 20
-219.03500056
 30
0.0
 11
276.55823346
 21
-219.04169685
 31
0.0
  0
ENDBLK
  5
2F2
100
AcDbEntity
  8
0
100
AcDbBlockEnd
  0
BLOCK
  5
2F3
100
AcDbEntity
  8
0
100
AcDbBlockBegin
  2
GROUP_24
 70
       0
 10
0.0
 20
0.0
 30
0.0
  3
GROUP_24
  1

  0
LINE
  5
2F4
100
AcDbEntity
  8
LAYER0001
  6
CONTINUOUS
 62
       7
100
AcDbLine
 10
253.55823342
 20
-219.04169685
 30
0.0
 11
253.55823342
 21
-219.03500056
 31
0.0
  0
LINE
  5
2F5
100
AcDbEntity
  8
LAYER0001
  6
CONTINUOUS
 62
       7
100
AcDbLine
 10
253.55823342
 20
-219.03500056
 30
0.0
 11
253.55823342
 21
-219.02757038
 31
0.0
  0
LINE
  5
2F6
100
AcDbEntity
  8
LAYER0001
  6
CONTINUOUS
 62
       7
100
AcDbLine
 10
253.55823342
 20
-219.02757038
 30
0.0
 11
253.55823342
 21
-219.01867242
 31
0.0
  0
LINE
  5
2F7
100
AcDbEntity
  8
LAYER0001
  6
CONTINUOUS
 62
       7
100
AcDbLine
 10
253.55823342
 20
-219.01867242
 30
0.0
 11
253.55823342
 21
-219.0075728
 31
0.0
  0
LINE
  5
2F8
100
AcDbEntity
  8
LAYER0001
  6
CONTINUOUS
 62
       7
100
AcDbLine
 10
253.55823342
 20
-219.0075728
 30
0.0
 11
253.55823342
 21
-218.99353761
 31
0.0
  0
LINE
  5
2F9
100
AcDbEntity
  8
LAYER0001
  6
CONTINUOUS
 62
       7
100
AcDbLine
 10
253.55823342
 20
-218.99353761
 30
0.0
 11
253.55823342
 21
-218.97583299
 31
0.0
  0
LINE
  5
2FA
100
AcDbEntity
  8
LAYER0001
  6
CONTINUOUS
 62
       7
100
AcDbLine
 10
253.55823342
 20
-218.97583299
 30
0.0
 11
253.55823342
 21
-218.95374773
 31
0.0
  0
LINE
  5
2FB
100
AcDbEntity
  8
LAYER0001
  6
CONTINUOUS
 62
       7
100
AcDbLine
 10
253.55823342
 20
-218.95374773
 30
0.0
 11
253.55823342
 21
-218.92705538
 31
0.0
  0
LINE
  5
2FC
100
AcDbEntity
  8
LAYER0001
  6
CONTINUOUS
 62
       7
100
AcDbLine
 10
253.55823342
 20
-218.92705538
 30
0.0
 11
253.55823342
 21
-218.89599421
 31
0.0
  0
LINE
  5
2FD
100
AcDbEntity
  8
LAYER0001
  6
CONTINUOUS
 62
       7
100
AcDbLine
 10
253.55823342
 20
-218.89599421
 30
0.0
 11
253.55823342
 21
-218.86082122
 31
0.0
  0
LINE
  5
2FE
100
AcDbEntity
  8
LAYER0001
  6
CONTINUOUS
 62
       7
100
AcDbLine
 10
253.55823342
 20
-218.86082122
 30
0.0
 11
253.55823342
 21
-218.82179339
 31
0.0
  0
LINE
  5
2FF
100
AcDbEntity
  8
LAYER0001
  6
CONTINUOUS
 62
       7
100
AcDbLine
 10
253.55823342
 20
-218.82179339
 30
0.0
 11
253.55823342
 21
-218.77916772
 31
0.0
  0
LINE
  5
300
100
AcDbEntity
  8
LAYER0001
  6
CONTINUOUS
 62
       7
100
AcDbLine
 10
253.55823342
 20
-218.77916772
 30
0.0
 11
253.55823342
 21
-218.73320118
 31
0.0
  0
LINE
  5
301
100
AcDbEntity
  8
LAYER0001
  6
CONTINUOUS
 62
       7
100
AcDbLine
 10
253.55823342
 20
-218.73320118
 30
0.0
 11
253.55823342
 21
-218.68415077
 31
0.0
  0
LINE
  5
302
100
AcDbEntity
  8
LAYER0001
  6
CONTINUOUS
 62
       7
100
AcDbLine
 10
253.55823342
 20
-218.68415077
 30
0.0
 11
253.55823342
 21
-218.63227349
 31
0.0
  0
LINE
  5
303
100
AcDbEntity
  8
LAYER0001
  6
CONTINUOUS
 62
       7
100
AcDbLine
 10
253.55823342
 20
-218.63227349
 30
0.0
 11
253.55823342
 21
-218.57782631
 31
0.0
  0
LINE
  5
304
100
AcDbEntity
  8
LAYER0001
  6
CONTINUOUS
 62
       7
100
AcDbLine
 10
253.55823342
 20
-218.57782631
 30
0.0
 11
253.55823342
 21
-218.52106623
 31
0.0
  0
LINE
  5
305
100
AcDbEntity
  8
LAYER0001
  6
CONTINUOUS
 62
       7
100
AcDbLine
 10
253.55823342
 20
-218.52106623
 30
0.0
 11
253.55823342
 21
-218.46225024
 31
0.0
  0
LINE
  5
306
100
AcDbEntity
  8
LAYER0001
  6
CONTINUOUS
 62
       7
100
AcDbLine
 10
253.55823342
 20
-218.46225024
 30
0.0
 11
253.55823342
 21
-218.40163532
 31
0.0
  0
LINE
  5
307
100
AcDbEntity
  8
LAYER0001
  6
CONTINUOUS
 62
       7
100
AcDbLine
 10
253.55823342
 20
-218.40163532
 30
0.0
 11
253.55823342
 21
-218.33947847
 31
0.0
  0
LINE
  5
308
100
AcDbEntity
  8
LAYER0001
  6
CONTINUOUS
 62
       7
100
AcDbLine
 10
253.55823342
 20
-218.33947847
 30
0.0
 11
253.55823342
 21
-218.27603667
 31
0.0
  0
LINE
  5
309
100
AcDbEntity
  8
LAYER0001
  6
CONTINUOUS
 62
       7
100
AcDbLine
 10
253.55823342
 20
-218.27603667
 30
0.0
 11
253.55823342
 21
-218.21156692
 31
0.0
  0
LINE
  5
30A
100
AcDbEntity
  8
LAYER0001
  6
CONTINUOUS
 62
       7
100
AcDbLine
 10
253.55823342
 20
-218.21156692
 30
0.0
 11
253.55823342
 21
-218.14632619
 31
0.0
  0
LINE
  5
30B
100
AcDbEntity
  8
LAYER0001
  6
CONTINUOUS
 62
       7
100
AcDbLine
 10
253.55823342
 20
-218.14632619
 30
0.0
 11
253.55823342
 21
-218.08057149
 31
0.0
  0
LINE
  5
30C
100
AcDbEntity
  8
LAYER0001
  6
CONTINUOUS
 62
       7
100
AcDbLine
 10
253.55823342
 20
-218.08057149
 30
0.0
 11
253.55823342
 21
-218.01455981
 31
0.0
  0
ENDBLK
  5
30D
100
AcDbEntity
  8
0
100
AcDbBlockEnd
  0
BLOCK
  5
30E
100
AcDbEntity
  8
0
100
AcDbBlockBegin
  2
GROUP_25
 70
       0
 10
0.0
 20
0.0
 30
0.0
  3
GROUP_25
  1

  0
LINE
  5
30F
100
AcDbEntity
  8
LAYER0001
  6
CONTINUOUS
 62
       7
100
AcDbLine
 10
94.20292529
 20
-211.541704
 30
0.0
 11
94.09065613
 21
-211.54366392
 31
0.0
  0
LINE
  5
310
100
AcDbEntity
  8
LAYER0001
  6
CONTINUOUS
 62
       7
100
AcDbLine
 10
94.09065613
 20
-211.54366392
 30
0.0
 11
93.9783818
 21
-211.54685878
 31
0.0
  0
LINE
  5
311
100
AcDbEntity
  8
LAYER0001
  6
CONTINUOUS
 62
       7
100
AcDbLine
 10
93.9783818
 20
-211.54685878
 30
0.0
 11
93.86610009
 21
-211.55237369
 31
0.0
  0
LINE
  5
312
100
AcDbEntity
  8
LAYER0001
  6
CONTINUOUS
 62
       7
100
AcDbLine
 10
93.86610009
 20
-211.55237369
 30
0.0
 11
93.75382498
 21
-211.56047593
 31
0.0
  0
LINE
  5
313
100
AcDbEntity
  8
LAYER0001
  6
CONTINUOUS
 62
       7
100
AcDbLine
 10
93.75382498
 20
-211.56047593
 30
0.0
 11
93.64157591
 21
-211.57115521
 31
0.0
  0
LINE
  5
314
100
AcDbEntity
  8
LAYER0001
  6
CONTINUOUS
 62
       7
100
AcDbLine
 10
93.64157591
 20
-211.57115521
 30
0.0
 11
93.52937234
 21
-211.58440103
 31
0.0
  0
LINE
  5
315
100
AcDbEntity
  8
LAYER0001
  6
CONTINUOUS
 62
       7
100
AcDbLine
 10
93.52937234
 20
-211.58440103
 30
0.0
 11
93.41723372
 21
-211.60020285
 31
0.0
  0
LINE
  5
316
100
AcDbEntity
  8
LAYER0001
  6
CONTINUOUS
 62
       7
100
AcDbLine
 10
93.41723372
 20
-211.60020285
 30
0.0
 11
93.30517953
 21
-211.61855017
 31
0.0
  0
LINE
  5
317
100
AcDbEntity
  8
LAYER0001
  6
CONTINUOUS
 62
       7
100
AcDbLine
 10
93.30517953
 20
-211.61855017
 30
0.0
 11
93.19322922
 21
-211.63943247
 31
0.0
  0
LINE
  5
318
100
AcDbEntity
  8
LAYER0001
  6
CONTINUOUS
 62
       7
100
AcDbLine
 10
93.19322922
 20
-211.63943247
 30
0.0
 11
93.08140224
 21
-211.66283923
 31
0.0
  0
LINE
  5
319
100
AcDbEntity
  8
LAYER0001
  6
CONTINUOUS
 62
       7
100
AcDbLine
 10
93.08140224
 20
-211.66283923
 30
0.0
 11
92.96971806
 21
-211.68875993
 31
0.0
  0
LINE
  5
31A
100
AcDbEntity
  8
LAYER0001
  6
CONTINUOUS
 62
       7
100
AcDbLine
 10
92.96971806
 20
-211.68875993
 30
0.0
 11
92.85819613
 21
-211.71718406
 31
0.0
  0
LINE
  5
31B
100
AcDbEntity
  8
LAYER0001
  6
CONTINUOUS
 62
       7
100
AcDbLine
 10
92.85819613
 20
-211.71718406
 30
0.0
 11
92.74685591
 21
-211.7481011
 31
0.0
  0
LINE
  5
31C
100
AcDbEntity
  8
LAYER0001
  6
CONTINUOUS
 62
       7
100
AcDbLine
 10
92.74685591
 20
-211.7481011
 30
0.0
 11
92.63571686
 21
-211.78150053
 31
0.0
  0
LINE
  5
31D
100
AcDbEntity
  8
LAYER0001
  6
CONTINUOUS
 62
       7
100
AcDbLine
 10
92.63571686
 20
-211.78150053
 30
0.0
 11
92.52479843
 21
-211.81737184
 31
0.0
  0
LINE
  5
31E
100
AcDbEntity
  8
LAYER0001
  6
CONTINUOUS
 62
       7
100
AcDbLine
 10
92.52479843
 20
-211.81737184
 30
0.0
 11
92.4141201
 21
-211.8557045
 31
0.0
  0
LINE
  5
31F
100
AcDbEntity
  8
LAYER0001
  6
CONTINUOUS
 62
       7
100
AcDbLine
 10
92.4141201
 20
-211.8557045
 30
0.0
 11
92.30369345
 21
-211.89645401
 31
0.0
  0
LINE
  5
320
100
AcDbEntity
  8
LAYER0001
  6
CONTINUOUS
 62
       7
100
AcDbLine
 10
92.30369345
 20
-211.89645401
 30
0.0
 11
92.19350514
 21
-211.9394677
 31
0.0
  0
LINE
  5
321
100
AcDbEntity
  8
LAYER0001
  6
CONTINUOUS
 62
       7
100
AcDbLine
 10
92.19350514
 20
-211.9394677
 30
0.0
 11
92.08353682
 21
-211.98457141
 31
0.0
  0
LINE
  5
322
100
AcDbEntity
  8
LAYER0001
  6
CONTINUOUS
 62
       7
100
AcDbLine
 10
92.08353682
 20
-211.98457141
 30
0.0
 11
91.97377016
 21
-212.03159096
 31
0.0
  0
LINE
  5
323
100
AcDbEntity
  8
LAYER0001
  6
CONTINUOUS
 62
       7
100
AcDbLine
 10
91.97377016
 20
-212.03159096
 30
0.0
 11
91.86418683
 21
-212.08035219
 31
0.0
  0
LINE
  5
324
100
AcDbEntity
  8
LAYER0001
  6
CONTINUOUS
 62
       7
100
AcDbLine
 10
91.86418683
 20
-212.08035219
 30
0.0
 11
91.75476849
 21
-212.13068093
 31
0.0
  0
LINE
  5
325
100
AcDbEntity
  8
LAYER0001
  6
CONTINUOUS
 62
       7
100
AcDbLine
 10
91.75476849
 20
-212.13068093
 30
0.0
 11
91.64549682
 21
-212.18240301
 31
0.0
  0
LINE
  5
326
100
AcDbEntity
  8
LAYER0001
  6
CONTINUOUS
 62
       7
100
AcDbLine
 10
91.64549682
 20
-212.18240301
 30
0.0
 11
91.53635348
 21
-212.23534426
 31
0.0
  0
LINE
  5
327
100
AcDbEntity
  8
LAYER0001
  6
CONTINUOUS
 62
       7
100
AcDbLine
 10
91.53635348
 20
-212.23534426
 30
0.0
 11
91.42732013
 21
-212.28933052
 31
0.0
  0
LINE
  5
328
100
AcDbEntity
  8
LAYER0001
  6
CONTINUOUS
 62
       7
100
AcDbLine
 10
91.42732013
 20
-212.28933052
 30
0.0
 11
91.31837845
 21
-212.34418762
 31
0.0
  0
LINE
  5
329
100
AcDbEntity
  8
LAYER0001
  6
CONTINUOUS
 62
       7
100
AcDbLine
 10
91.31837845
 20
-212.34418762
 30
0.0
 11
91.2095101
 21
-212.39974139
 31
0.0
  0
LINE
  5
32A
100
AcDbEntity
  8
LAYER0001
  6
CONTINUOUS
 62
       7
100
AcDbLine
 10
91.2095101
 20
-212.39974139
 30
0.0
 11
91.10069675
 21
-212.45581766
 31
0.0
  0
LINE
  5
32B
100
AcDbEntity
  8
LAYER0001
  6
CONTINUOUS
 62
       7
100
AcDbLine
 10
91.10069675
 20
-212.45581766
 30
0.0
 11
90.99192006
 21
-212.51224227
 31
0.0
  0
LINE
  5
32C
100
AcDbEntity
  8
LAYER0001
  6
CONTINUOUS
 62
       7
100
AcDbLine
 10
90.99192006
 20
-212.51224227
 30
0.0
 11
90.88316171
 21
-212.56884104
 31
0.0
  0
ENDBLK
  5
32D
100
AcDbEntity
  8
0
100
AcDbBlockEnd
  0
BLOCK
  5
32E
100
AcDbEntity
  8
0
100
AcDbBlockBegin
  2
GROUP_26
 70
       0
 10
0.0
 20
0.0
 30
0.0
  3
GROUP_26
  1

  0
LINE
  5
32F
100
AcDbEntity
  8
LAYER0001
  6
CONTINUOUS
 62
       7
100
AcDbLine
 10
97.5226898
 20
-212.56884104
 30
0.0
 11
97.39210416
 21
-212.4993719
 31
0.0
  0
LINE
  5
330
100
AcDbEntity
  8
LAYER0001
  6
CONTINUOUS
 62
       7
100
AcDbLine
 10
97.39210416
 20
-212.4993719
 30
0.0
 11
97.26149007
 21
-212.43026908
 31
0.0
  0
LINE
  5
331
100
AcDbEntity
  8
LAYER0001
  6
CONTINUOUS
 62
       7
100
AcDbLine
 10
97.26149007
 20
-212.43026908
 30
0.0
 11
97.13081906
 21
-212.36189891
 31
0.0
  0
LINE
  5
332
100
AcDbEntity
  8
LAYER0001
  6
CONTINUOUS
 62
       7
100
AcDbLine
 10
97.13081906
 20
-212.36189891
 30
0.0
 11
97.00006268
 21
-212.29462769
 31
0.0
  0
LINE
  5
333
100
AcDbEntity
  8
LAYER0001
  6
CONTINUOUS
 62
       7
100
AcDbLine
 10
97.00006268
 20
-212.29462769
 30
0.0
 11
96.86919248
 21
-212.22882176
 31
0.0
  0
LINE
  5
334
100
AcDbEntity
  8
LAYER0001
  6
CONTINUOUS
 62
       7
100
AcDbLine
 10
96.86919248
 20
-212.22882176
 30
0.0
 11
96.73817998
 21
-212.16484744
 31
0.0
  0
LINE
  5
335
100
AcDbEntity
  8
LAYER0001
  6
CONTINUOUS
 62
       7
100
AcDbLine
 10
96.73817998
 20
-212.16484744
 30
0.0
 11
96.60699675
 21
-212.10307104
 31
0.0
  0
LINE
  5
336
100
AcDbEntity
  8
LAYER0001
  6
CONTINUOUS
 62
       7
100
AcDbLine
 10
96.60699675
 20
-212.10307104
 30
0.0
 11
96.47561431
 21
-212.04385888
 31
0.0
  0
LINE
  5
337
100
AcDbEntity
  8
LAYER0001
  6
CONTINUOUS
 62
       7
100
AcDbLine
 10
96.47561431
 20
-212.04385888
 30
0.0
 11
96.34400422
 21
-211.9875773
 31
0.0
  0
LINE
  5
338
100
AcDbEntity
  8
LAYER0001
  6
CONTINUOUS
 62
       7
100
AcDbLine
 10
96.34400422
 20
-211.9875773
 30
0.0
 11
96.21213801
 21
-211.9345926
 31
0.0
  0
LINE
  5
339
100
AcDbEntity
  8
LAYER0001
  6
CONTINUOUS
 62
       7
100
AcDbLine
 10
96.21213801
 20
-211.9345926
 30
0.0
 11
96.07998724
 21
-211.88527112
 31
0.0
  0
LINE
  5
33A
100
AcDbEntity
  8
LAYER0001
  6
CONTINUOUS
 62
       7
100
AcDbLine
 10
96.07998724
 20
-211.88527112
 30
0.0
 11
95.94752343
 21
-211.83997916
 31
0.0
  0
LINE
  5
33B
100
AcDbEntity
  8
LAYER0001
  6
CONTINUOUS
 62
       7
100
AcDbLine
 10
95.94752343
 20
-211.83997916
 30
0.0
 11
95.81472031
 21
-211.79905511
 31
0.0
  0
LINE
  5
33C
100
AcDbEntity
  8
LAYER0001
  6
CONTINUOUS
 62
       7
100
AcDbLine
 10
95.81472031
 20
-211.79905511
 30
0.0
 11
95.68158239
 21
-211.76244077
 31
0.0
  0
LINE
  5
33D
100
AcDbEntity
  8
LAYER0001
  6
CONTINUOUS
 62
       7
100
AcDbLine
 10
95.68158239
 20
-211.76244077
 30
0.0
 11
95.54813709
 21
-211.72978342
 31
0.0
  0
LINE
  5
33E
100
AcDbEntity
  8
LAYER0001
  6
CONTINUOUS
 62
       7
100
AcDbLine
 10
95.54813709
 20
-211.72978342
 30
0.0
 11
95.41441233
 21
-211.70072331
 31
0.0
  0
LINE
  5
33F
100
AcDbEntity
  8
LAYER0001
  6
CONTINUOUS
 62
       7
100
AcDbLine
 10
95.41441233
 20
-211.70072331
 30
0.0
 11
95.28043607
 21
-211.67490073
 31
0.0
  0
LINE
  5
340
100
AcDbEntity
  8
LAYER0001
  6
CONTINUOUS
 62
       7
100
AcDbLine
 10
95.28043607
 20
-211.67490073
 30
0.0
 11
95.14623626
 21
-211.65195595
 31
0.0
  0
LINE
  5
341
100
AcDbEntity
  8
LAYER0001
  6
CONTINUOUS
 62
       7
100
AcDbLine
 10
95.14623626
 20
-211.65195595
 30
0.0
 11
95.01184083
 21
-211.63152924
 31
0.0
  0
LINE
  5
342
100
AcDbEntity
  8
LAYER0001
  6
CONTINUOUS
 62
       7
100
AcDbLine
 10
95.01184083
 20
-211.63152924
 30
0.0
 11
94.87727773
 21
-211.61326089
 31
0.0
  0
LINE
  5
343
100
AcDbEntity
  8
LAYER0001
  6
CONTINUOUS
 62
       7
100
AcDbLine
 10
94.87727773
 20
-211.61326089
 30
0.0
 11
94.74257491
 21
-211.59679116
 31
0.0
  0
LINE
  5
344
100
AcDbEntity
  8
LAYER0001
  6
CONTINUOUS
 62
       7
100
AcDbLine
 10
94.74257491
 20
-211.59679116
 30
0.0
 11
94.60776031
 21
-211.58176033
 31
0.0
  0
LINE
  5
345
100
AcDbEntity
  8
LAYER0001
  6
CONTINUOUS
 62
       7
100
AcDbLine
 10
94.60776031
 20
-211.58176033
 30
0.0
 11
94.47286188
 21
-211.56780868
 31
0.0
  0
LINE
  5
346
100
AcDbEntity
  8
LAYER0001
  6
CONTINUOUS
 62
       7
100
AcDbLine
 10
94.47286188
 20
-211.56780868
 30
0.0
 11
94.33790756
 21
-211.55457648
 31
0.0
  0
LINE
  5
347
100
AcDbEntity
  8
LAYER0001
  6
CONTINUOUS
 62
       7
100
AcDbLine
 10
94.33790756
 20
-211.55457648
 30
0.0
 11
94.20292529
 21
-211.541704
 31
0.0
  0
ENDBLK
  5
348
100
AcDbEntity
  8
0
100
AcDbBlockEnd
  0
BLOCK
  5
349
100
AcDbEntity
  8
0
100
AcDbBlockBegin
  2
GROUP_27
 70
       0
 10
0.0
 20
0.0
 30
0.0
  3
GROUP_27
  1

  0
LINE
  5
34A
100
AcDbEntity
  8
LAYER0001
  6
CONTINUOUS
 62
       7
100
AcDbLine
 10
94.20292529
 20
-219.04169685
 30
0.0
 11
94.31519481
 21
-219.03973693
 31
0.0
  0
LINE
  5
34B
100
AcDbEntity
  8
LAYER0001
  6
CONTINUOUS
 62
       7
100
AcDbLine
 10
94.31519481
 20
-219.03973693
 30
0.0
 11
94.42746946
 21
-219.03654207
 31
0.0
  0
LINE
  5
34C
100
AcDbEntity
  8
LAYER0001
  6
CONTINUOUS
 62
       7
100
AcDbLine
 10
94.42746946
 20
-219.03654207
 30
0.0
 11
94.53975143
 21
-219.03102717
 31
0.0
  0
LINE
  5
34D
100
AcDbEntity
  8
LAYER0001
  6
CONTINUOUS
 62
       7
100
AcDbLine
 10
94.53975143
 20
-219.03102717
 30
0.0
 11
94.65202674
 21
-219.02292494
 31
0.0
  0
LINE
  5
34E
100
AcDbEntity
  8
LAYER0001
  6
CONTINUOUS
 62
       7
100
AcDbLine
 10
94.65202674
 20
-219.02292494
 30
0.0
 11
94.76427595
 21
-219.01224566
 31
0.0
  0
LINE
  5
34F
100
AcDbEntity
  8
LAYER0001
  6
CONTINUOUS
 62
       7
100
AcDbLine
 10
94.76427595
 20
-219.01224566
 30
0.0
 11
94.8764796
 21
-218.99899985
 31
0.0
  0
LINE
  5
350
100
AcDbEntity
  8
LAYER0001
  6
CONTINUOUS
 62
       7
100
AcDbLine
 10
94.8764796
 20
-218.99899985
 30
0.0
 11
94.98861825
 21
-218.98319803
 31
0.0
  0
LINE
  5
351
100
AcDbEntity
  8
LAYER0001
  6
CONTINUOUS
 62
       7
100
AcDbLine
 10
94.98861825
 20
-218.98319803
 30
0.0
 11
95.10067244
 21
-218.96485072
 31
0.0
  0
LINE
  5
352
100
AcDbEntity
  8
LAYER0001
  6
CONTINUOUS
 62
       7
100
AcDbLine
 10
95.10067244
 20
-218.96485072
 30
0.0
 11
95.21262271
 21
-218.94396843
 31
0.0
  0
LINE
  5
353
100
AcDbEntity
  8
LAYER0001
  6
CONTINUOUS
 62
       7
100
AcDbLine
 10
95.21262271
 20
-218.94396843
 30
0.0
 11
95.32444963
 21
-218.92056168
 31
0.0
  0
LINE
  5
354
100
AcDbEntity
  8
LAYER0001
  6
CONTINUOUS
 62
       7
100
AcDbLine
 10
95.32444963
 20
-218.92056168
 30
0.0
 11
95.43613373
 21
-218.89464098
 31
0.0
  0
LINE
  5
355
100
AcDbEntity
  8
LAYER0001
  6
CONTINUOUS
 62
       7
100
AcDbLine
 10
95.43613373
 20
-218.89464098
 30
0.0
 11
95.54765556
 21
-218.86621685
 31
0.0
  0
LINE
  5
356
100
AcDbEntity
  8
LAYER0001
  6
CONTINUOUS
 62
       7
100
AcDbLine
 10
95.54765556
 20
-218.86621685
 30
0.0
 11
95.65899568
 21
-218.83529982
 31
0.0
  0
LINE
  5
357
100
AcDbEntity
  8
LAYER0001
  6
CONTINUOUS
 62
       7
100
AcDbLine
 10
95.65899568
 20
-218.83529982
 30
0.0
 11
95.77013462
 21
-218.80190039
 31
0.0
  0
LINE
  5
358
100
AcDbEntity
  8
LAYER0001
  6
CONTINUOUS
 62
       7
100
AcDbLine
 10
95.77013462
 20
-218.80190039
 30
0.0
 11
95.88105295
 21
-218.76602908
 31
0.0
  0
LINE
  5
359
100
AcDbEntity
  8
LAYER0001
  6
CONTINUOUS
 62
       7
100
AcDbLine
 10
95.88105295
 20
-218.76602908
 30
0.0
 11
95.9917312
 21
-218.72769642
 31
0.0
  0
LINE
  5
35A
100
AcDbEntity
  8
LAYER0001
  6
CONTINUOUS
 62
       7
100
AcDbLine
 10
95.9917312
 20
-218.72769642
 30
0.0
 11
96.10215778
 21
-218.68694691
 31
0.0
  0
LINE
  5
35B
100
AcDbEntity
  8
LAYER0001
  6
CONTINUOUS
 62
       7
100
AcDbLine
 10
96.10215778
 20
-218.68694691
 30
0.0
 11
96.21234605
 21
-218.64393321
 31
0.0
  0
LINE
  5
35C
100
AcDbEntity
  8
LAYER0001
  6
CONTINUOUS
 62
       7
100
AcDbLine
 10
96.21234605
 20
-218.64393321
 30
0.0
 11
96.32231434
 21
-218.59882951
 31
0.0
  0
LINE
  5
35D
100
AcDbEntity
  8
LAYER0001
  6
CONTINUOUS
 62
       7
100
AcDbLine
 10
96.32231434
 20
-218.59882951
 30
0.0
 11
96.43208098
 21
-218.55180995
 31
0.0
  0
LINE
  5
35E
100
AcDbEntity
  8
LAYER0001
  6
CONTINUOUS
 62
       7
100
AcDbLine
 10
96.43208098
 20
-218.55180995
 30
0.0
 11
96.54166431
 21
-218.50304872
 31
0.0
  0
LINE
  5
35F
100
AcDbEntity
  8
LAYER0001
  6
CONTINUOUS
 62
       7
100
AcDbLine
 10
96.54166431
 20
-218.50304872
 30
0.0
 11
96.65108265
 21
-218.45271998
 31
0.0
  0
LINE
  5
360
100
AcDbEntity
  8
LAYER0001
  6
CONTINUOUS
 62
       7
100
AcDbLine
 10
96.65108265
 20
-218.45271998
 30
0.0
 11
96.76035435
 21
-218.40099789
 31
0.0
  0
LINE
  5
361
100
AcDbEntity
  8
LAYER0001
  6
CONTINUOUS
 62
       7
100
AcDbLine
 10
96.76035435
 20
-218.40099789
 30
0.0
 11
96.86949772
 21
-218.34805663
 31
0.0
  0
LINE
  5
362
100
AcDbEntity
  8
LAYER0001
  6
CONTINUOUS
 62
       7
100
AcDbLine
 10
96.86949772
 20
-218.34805663
 30
0.0
 11
96.97853111
 21
-218.29407037
 31
0.0
  0
LINE
  5
363
100
AcDbEntity
  8
LAYER0001
  6
CONTINUOUS
 62
       7
100
AcDbLine
 10
96.97853111
 20
-218.29407037
 30
0.0
 11
97.08747283
 21
-218.23921326
 31
0.0
  0
LINE
  5
364
100
AcDbEntity
  8
LAYER0001
  6
CONTINUOUS
 62
       7
100
AcDbLine
 10
97.08747283
 20
-218.23921326
 30
0.0
 11
97.19634124
 21
-218.18365948
 31
0.0
  0
LINE
  5
365
100
AcDbEntity
  8
LAYER0001
  6
CONTINUOUS
 62
       7
100
AcDbLine
 10
97.19634124
 20
-218.18365948
 30
0.0
 11
97.30515464
 21
-218.1275832
 31
0.0
  0
LINE
  5
366
100
AcDbEntity
  8
LAYER0001
  6
CONTINUOUS
 62
       7
100
AcDbLine
 10
97.30515464
 20
-218.1275832
 30
0.0
 11
97.41393139
 21
-218.07115859
 31
0.0
  0
LINE
  5
367
100
AcDbEntity
  8
LAYER0001
  6
CONTINUOUS
 62
       7
100
AcDbLine
 10
97.41393139
 20
-218.07115859
 30
0.0
 11
97.5226898
 21
-218.01455981
 31
0.0
  0
ENDBLK
  5
368
100
AcDbEntity
  8
0
100
AcDbBlockEnd
  0
BLOCK
  5
369
100
AcDbEntity
  8
0
100
AcDbBlockBegin
  2
GROUP_28
 70
       0
 10
0.0
 20
0.0
 30
0.0
  3
GROUP_28
  1

  0
LINE
  5
36A
100
AcDbEntity
  8
LAYER0001
  6
CONTINUOUS
 62
       7
100
AcDbLine
 10
90.88316171
 20
-218.01455981
 30
0.0
 11
91.01374709
 21
-218.08403243
 31
0.0
  0
LINE
  5
36B
100
AcDbEntity
  8
LAYER0001
  6
CONTINUOUS
 62
       7
100
AcDbLine
 10
91.01374709
 20
-218.08403243
 30
0.0
 11
91.14436094
 21
-218.15313868
 31
0.0
  0
LINE
  5
36C
100
AcDbEntity
  8
LAYER0001
  6
CONTINUOUS
 62
       7
100
AcDbLine
 10
91.14436094
 20
-218.15313868
 30
0.0
 11
91.2750317
 21
-218.22151221
 31
0.0
  0
LINE
  5
36D
100
AcDbEntity
  8
LAYER0001
  6
CONTINUOUS
 62
       7
100
AcDbLine
 10
91.2750317
 20
-218.22151221
 30
0.0
 11
91.40578784
 21
-218.28878664
 31
0.0
  0
LINE
  5
36E
100
AcDbEntity
  8
LAYER0001
  6
CONTINUOUS
 62
       7
100
AcDbLine
 10
91.40578784
 20
-218.28878664
 30
0.0
 11
91.53665782
 21
-218.3545956
 31
0.0
  0
LINE
  5
36F
100
AcDbEntity
  8
LAYER0001
  6
CONTINUOUS
 62
       7
100
AcDbLine
 10
91.53665782
 20
-218.3545956
 30
0.0
 11
91.6676701
 21
-218.41857274
 31
0.0
  0
LINE
  5
370
100
AcDbEntity
  8
LAYER0001
  6
CONTINUOUS
 62
       7
100
AcDbLine
 10
91.6676701
 20
-218.41857274
 30
0.0
 11
91.79885314
 21
-218.48035168
 31
0.0
  0
LINE
  5
371
100
AcDbEntity
  8
LAYER0001
  6
CONTINUOUS
 62
       7
100
AcDbLine
 10
91.79885314
 20
-218.48035168
 30
0.0
 11
91.9302354
 21
-218.53956607
 31
0.0
  0
LINE
  5
372
100
AcDbEntity
  8
LAYER0001
  6
CONTINUOUS
 62
       7
100
AcDbLine
 10
91.9302354
 20
-218.53956607
 30
0.0
 11
92.06184534
 21
-218.59584953
 31
0.0
  0
LINE
  5
373
100
AcDbEntity
  8
LAYER0001
  6
CONTINUOUS
 62
       7
100
AcDbLine
 10
92.06184534
 20
-218.59584953
 30
0.0
 11
92.19371142
 21
-218.6488357
 31
0.0
  0
LINE
  5
374
100
AcDbEntity
  8
LAYER0001
  6
CONTINUOUS
 62
       7
100
AcDbLine
 10
92.19371142
 20
-218.6488357
 30
0.0
 11
92.32586209
 21
-218.69815822
 31
0.0
  0
LINE
  5
375
100
AcDbEntity
  8
LAYER0001
  6
CONTINUOUS
 62
       7
100
AcDbLine
 10
92.32586209
 20
-218.69815822
 30
0.0
 11
92.45832583
 21
-218.74345071
 31
0.0
  0
LINE
  5
376
100
AcDbEntity
  8
LAYER0001
  6
CONTINUOUS
 62
       7
100
AcDbLine
 10
92.45832583
 20
-218.74345071
 30
0.0
 11
92.59112891
 21
-218.78437477
 31
0.0
  0
LINE
  5
377
100
AcDbEntity
  8
LAYER0001
  6
CONTINUOUS
 62
       7
100
AcDbLine
 10
92.59112891
 20
-218.78437477
 30
0.0
 11
92.72426682
 21
-218.82098857
 31
0.0
  0
LINE
  5
378
100
AcDbEntity
  8
LAYER0001
  6
CONTINUOUS
 62
       7
100
AcDbLine
 10
92.72426682
 20
-218.82098857
 30
0.0
 11
92.85771215
 21
-218.85364491
 31
0.0
  0
LINE
  5
379
100
AcDbEntity
  8
LAYER0001
  6
CONTINUOUS
 62
       7
100
AcDbLine
 10
92.85771215
 20
-218.85364491
 30
0.0
 11
92.99143696
 21
-218.88270354
 31
0.0
  0
LINE
  5
37A
100
AcDbEntity
  8
LAYER0001
  6
CONTINUOUS
 62
       7
100
AcDbLine
 10
92.99143696
 20
-218.88270354
 30
0.0
 11
93.1254133
 21
-218.90852425
 31
0.0
  0
LINE
  5
37B
100
AcDbEntity
  8
LAYER0001
  6
CONTINUOUS
 62
       7
100
AcDbLine
 10
93.1254133
 20
-218.90852425
 30
0.0
 11
93.25961322
 21
-218.9314668
 31
0.0
  0
LINE
  5
37C
100
AcDbEntity
  8
LAYER0001
  6
CONTINUOUS
 62
       7
100
AcDbLine
 10
93.25961322
 20
-218.9314668
 30
0.0
 11
93.39400877
 21
-218.95189096
 31
0.0
  0
LINE
  5
37D
100
AcDbEntity
  8
LAYER0001
  6
CONTINUOUS
 62
       7
100
AcDbLine
 10
93.39400877
 20
-218.95189096
 30
0.0
 11
93.528572
 21
-218.9701565
 31
0.0
  0
LINE
  5
37E
100
AcDbEntity
  8
LAYER0001
  6
CONTINUOUS
 62
       7
100
AcDbLine
 10
93.528572
 20
-218.9701565
 30
0.0
 11
93.66327497
 21
-218.98662319
 31
0.0
  0
LINE
  5
37F
100
AcDbEntity
  8
LAYER0001
  6
CONTINUOUS
 62
       7
100
AcDbLine
 10
93.66327497
 20
-218.98662319
 30
0.0
 11
93.79808974
 21
-219.0016508
 31
0.0
  0
LINE
  5
380
100
AcDbEntity
  8
LAYER0001
  6
CONTINUOUS
 62
       7
100
AcDbLine
 10
93.79808974
 20
-219.0016508
 30
0.0
 11
93.93298834
 21
-219.0155991
 31
0.0
  0
LINE
  5
381
100
AcDbEntity
  8
LAYER0001
  6
CONTINUOUS
 62
       7
100
AcDbLine
 10
93.93298834
 20
-219.0155991
 30
0.0
 11
94.06794284
 21
-219.02882786
 31
0.0
  0
LINE
  5
382
100
AcDbEntity
  8
LAYER0001
  6
CONTINUOUS
 62
       7
100
AcDbLine
 10
94.06794284
 20
-219.02882786
 30
0.0
 11
94.20292529
 21
-219.04169685
 31
0.0
  0
ENDBLK
  5
383
100
AcDbEntity
  8
0
100
AcDbBlockEnd
  0
BLOCK
  5
384
100
AcDbEntity
  8
0
100
AcDbBlockBegin
  2
GROUP_29
 70
       0
 10
0.0
 20
0.0
 30
0.0
  3
GROUP_29
  1

  0
LINE
  5
385
100
AcDbEntity
  8
LAYER0001
  6
CONTINUOUS
 62
       7
100
AcDbLine
 10
104.16221789
 20
-211.541704
 30
0.0
 11
103.89242211
 21
-211.5606137
 31
0.0
  0
LINE
  5
386
100
AcDbEntity
  8
LAYER0001
  6
CONTINUOUS
 62
       7
100
AcDbLine
 10
103.89242211
 20
-211.5606137
 30
0.0
 11
103.62266948
 21
-211.57975036
 31
0.0
  0
LINE
  5
387
100
AcDbEntity
  8
LAYER0001
  6
CONTINUOUS
 62
       7
100
AcDbLine
 10
103.62266948
 20
-211.57975036
 30
0.0
 11
103.35300312
 21
-211.59934097
 31
0.0
  0
LINE
  5
388
100
AcDbEntity
  8
LAYER0001
  6
CONTINUOUS
 62
       7
100
AcDbLine
 10
103.35300312
 20
-211.59934097
 30
0.0
 11
103.08346617
 21
-211.61961249
 31
0.0
  0
LINE
  5
389
100
AcDbEntity
  8
LAYER0001
  6
CONTINUOUS
 62
       7
100
AcDbLine
 10
103.08346617
 20
-211.61961249
 30
0.0
 11
102.81410177
 21
-211.64079189
 31
0.0
  0
LINE
  5
38A
100
AcDbEntity
  8
LAYER0001
  6
CONTINUOUS
 62
       7
100
AcDbLine
 10
102.81410177
 20
-211.64079189
 30
0.0
 11
102.54495305
 21
-211.66310614
 31
0.0
  0
LINE
  5
38B
100
AcDbEntity
  8
LAYER0001
  6
CONTINUOUS
 62
       7
100
AcDbLine
 10
102.54495305
 20
-211.66310614
 30
0.0
 11
102.27606316
 21
-211.68678222
 31
0.0
  0
LINE
  5
38C
100
AcDbEntity
  8
LAYER0001
  6
CONTINUOUS
 62
       7
100
AcDbLine
 10
102.27606316
 20
-211.68678222
 30
0.0
 11
102.00747523
 21
-211.71204709
 31
0.0
  0
LINE
  5
38D
100
AcDbEntity
  8
LAYER0001
  6
CONTINUOUS
 62
       7
100
AcDbLine
 10
102.00747523
 20
-211.71204709
 30
0.0
 11
101.73923239
 21
-211.73912773
 31
0.0
  0
LINE
  5
38E
100
AcDbEntity
  8
LAYER0001
  6
CONTINUOUS
 62
       7
100
AcDbLine
 10
101.73923239
 20
-211.73912773
 30
0.0
 11
101.4713778
 21
-211.7682511
 31
0.0
  0
LINE
  5
38F
100
AcDbEntity
  8
LAYER0001
  6
CONTINUOUS
 62
       7
100
AcDbLine
 10
101.4713778
 20
-211.7682511
 30
0.0
 11
101.20395457
 21
-211.79964418
 31
0.0
  0
LINE
  5
390
100
AcDbEntity
  8
LAYER0001
  6
CONTINUOUS
 62
       7
100
AcDbLine
 10
101.20395457
 20
-211.79964418
 30
0.0
 11
100.93700585
 21
-211.83353393
 31
0.0
  0
LINE
  5
391
100
AcDbEntity
  8
LAYER0001
  6
CONTINUOUS
 62
       7
100
AcDbLine
 10
100.93700585
 20
-211.83353393
 30
0.0
 11
100.67057478
 21
-211.87014733
 31
0.0
  0
LINE
  5
392
100
AcDbEntity
  8
LAYER0001
  6
CONTINUOUS
 62
       7
100
AcDbLine
 10
100.67057478
 20
-211.87014733
 30
0.0
 11
100.40470449
 21
-211.90971134
 31
0.0
  0
LINE
  5
393
100
AcDbEntity
  8
LAYER0001
  6
CONTINUOUS
 62
       7
100
AcDbLine
 10
100.40470449
 20
-211.90971134
 30
0.0
 11
100.13943812
 21
-211.95245295
 31
0.0
  0
LINE
  5
394
100
AcDbEntity
  8
LAYER0001
  6
CONTINUOUS
 62
       7
100
AcDbLine
 10
100.13943812
 20
-211.95245295
 30
0.0
 11
99.87481882
 21
-211.99859911
 31
0.0
  0
LINE
  5
395
100
AcDbEntity
  8
LAYER0001
  6
CONTINUOUS
 62
       7
100
AcDbLine
 10
99.87481882
 20
-211.99859911
 30
0.0
 11
99.6108897
 21
-212.0483768
 31
0.0
  0
LINE
  5
396
100
AcDbEntity
  8
LAYER0001
  6
CONTINUOUS
 62
       7
100
AcDbLine
 10
99.6108897
 20
-212.0483768
 30
0.0
 11
99.34769392
 21
-212.10201299
 31
0.0
  0
LINE
  5
397
100
AcDbEntity
  8
LAYER0001
  6
CONTINUOUS
 62
       7
100
AcDbLine
 10
99.34769392
 20
-212.10201299
 30
0.0
 11
99.08527452
 21
-212.15973416
 31
0.0
  0
LINE
  5
398
100
AcDbEntity
  8
LAYER0001
  6
CONTINUOUS
 62
       7
100
AcDbLine
 10
99.08527452
 20
-212.15973416
 30
0.0
 11
98.82363083
 21
-212.22153686
 31
0.0
  0
LINE
  5
399
100
AcDbEntity
  8
LAYER0001
  6
CONTINUOUS
 62
       7
100
AcDbLine
 10
98.82363083
 20
-212.22153686
 30
0.0
 11
98.56264873
 21
-212.28682052
 31
0.0
  0
LINE
  5
39A
100
AcDbEntity
  8
LAYER0001
  6
CONTINUOUS
 62
       7
100
AcDbLine
 10
98.56264873
 20
-212.28682052
 30
0.0
 11
98.30219589
 21
-212.35488897
 31
0.0
  0
LINE
  5
39B
100
AcDbEntity
  8
LAYER0001
  6
CONTINUOUS
 62
       7
100
AcDbLine
 10
98.30219589
 20
-212.35488897
 30
0.0
 11
98.04214
 21
-212.425046
 31
0.0
  0
LINE
  5
39C
100
AcDbEntity
  8
LAYER0001
  6
CONTINUOUS
 62
       7
100
AcDbLine
 10
98.04214
 20
-212.425046
 30
0.0
 11
97.78234874
 21
-212.49659542
 31
0.0
  0
LINE
  5
39D
100
AcDbEntity
  8
LAYER0001
  6
CONTINUOUS
 62
       7
100
AcDbLine
 10
97.78234874
 20
-212.49659542
 30
0.0
 11
97.5226898
 21
-212.56884104
 31
0.0
  0
ENDBLK
  5
39E
100
AcDbEntity
  8
0
100
AcDbBlockEnd
  0
BLOCK
  5
39F
100
AcDbEntity
  8
0
100
AcDbBlockBegin
  2
GROUP_30
 70
       0
 10
0.0
 20
0.0
 30
0.0
  3
GROUP_30
  1

  0
LINE
  5
3A0
100
AcDbEntity
  8
LAYER0001
  6
CONTINUOUS
 62
       7
100
AcDbLine
 10
97.5226898
 20
-218.01455981
 30
0.0
 11
97.78234874
 21
-218.08680542
 31
0.0
  0
LINE
  5
3A1
100
AcDbEntity
  8
LAYER0001
  6
CONTINUOUS
 62
       7
100
AcDbLine
 10
97.78234874
 20
-218.08680542
 30
0.0
 11
98.04214
 21
-218.15835484
 31
0.0
  0
LINE
  5
3A2
100
AcDbEntity
  8
LAYER0001
  6
CONTINUOUS
 62
       7
100
AcDbLine
 10
98.04214
 20
-218.15835484
 30
0.0
 11
98.30219589
 21
-218.22851187
 31
0.0
  0
LINE
  5
3A3
100
AcDbEntity
  8
LAYER0001
  6
CONTINUOUS
 62
       7
100
AcDbLine
 10
98.30219589
 20
-218.22851187
 30
0.0
 11
98.56264873
 21
-218.29658032
 31
0.0
  0
LINE
  5
3A4
100
AcDbEntity
  8
LAYER0001
  6
CONTINUOUS
 62
       7
100
AcDbLine
 10
98.56264873
 20
-218.29658032
 30
0.0
 11
98.82363083
 21
-218.36186399
 31
0.0
  0
LINE
  5
3A5
100
AcDbEntity
  8
LAYER0001
  6
CONTINUOUS
 62
       7
100
AcDbLine
 10
98.82363083
 20
-218.36186399
 30
0.0
 11
99.08527452
 21
-218.42366668
 31
0.0
  0
LINE
  5
3A6
100
AcDbEntity
  8
LAYER0001
  6
CONTINUOUS
 62
       7
100
AcDbLine
 10
99.08527452
 20
-218.42366668
 30
0.0
 11
99.34769392
 21
-218.48138786
 31
0.0
  0
LINE
  5
3A7
100
AcDbEntity
  8
LAYER0001
  6
CONTINUOUS
 62
       7
100
AcDbLine
 10
99.34769392
 20
-218.48138786
 30
0.0
 11
99.6108897
 21
-218.53502405
 31
0.0
  0
LINE
  5
3A8
100
AcDbEntity
  8
LAYER0001
  6
CONTINUOUS
 62
       7
100
AcDbLine
 10
99.6108897
 20
-218.53502405
 30
0.0
 11
99.87481882
 21
-218.58480174
 31
0.0
  0
LINE
  5
3A9
100
AcDbEntity
  8
LAYER0001
  6
CONTINUOUS
 62
       7
100
AcDbLine
 10
99.87481882
 20
-218.58480174
 30
0.0
 11
100.13943812
 21
-218.6309479
 31
0.0
  0
LINE
  5
3AA
100
AcDbEntity
  8
LAYER0001
  6
CONTINUOUS
 62
       7
100
AcDbLine
 10
100.13943812
 20
-218.6309479
 30
0.0
 11
100.40470449
 21
-218.6736895
 31
0.0
  0
LINE
  5
3AB
100
AcDbEntity
  8
LAYER0001
  6
CONTINUOUS
 62
       7
100
AcDbLine
 10
100.40470449
 20
-218.6736895
 30
0.0
 11
100.67057478
 21
-218.71325352
 31
0.0
  0
LINE
  5
3AC
100
AcDbEntity
  8
LAYER0001
  6
CONTINUOUS
 62
       7
100
AcDbLine
 10
100.67057478
 20
-218.71325352
 30
0.0
 11
100.93700585
 21
-218.74986692
 31
0.0
  0
LINE
  5
3AD
100
AcDbEntity
  8
LAYER0001
  6
CONTINUOUS
 62
       7
100
AcDbLine
 10
100.93700585
 20
-218.74986692
 30
0.0
 11
101.20395457
 21
-218.78375667
 31
0.0
  0
LINE
  5
3AE
100
AcDbEntity
  8
LAYER0001
  6
CONTINUOUS
 62
       7
100
AcDbLine
 10
101.20395457
 20
-218.78375667
 30
0.0
 11
101.4713778
 21
-218.81514975
 31
0.0
  0
LINE
  5
3AF
100
AcDbEntity
  8
LAYER0001
  6
CONTINUOUS
 62
       7
100
AcDbLine
 10
101.4713778
 20
-218.81514975
 30
0.0
 11
101.73923239
 21
-218.84427312
 31
0.0
  0
LINE
  5
3B0
100
AcDbEntity
  8
LAYER0001
  6
CONTINUOUS
 62
       7
100
AcDbLine
 10
101.73923239
 20
-218.84427312
 30
0.0
 11
102.00747523
 21
-218.87135375
 31
0.0
  0
LINE
  5
3B1
100
AcDbEntity
  8
LAYER0001
  6
CONTINUOUS
 62
       7
100
AcDbLine
 10
102.00747523
 20
-218.87135375
 30
0.0
 11
102.27606316
 21
-218.89661862
 31
0.0
  0
LINE
  5
3B2
100
AcDbEntity
  8
LAYER0001
  6
CONTINUOUS
 62
       7
100
AcDbLine
 10
102.27606316
 20
-218.89661862
 30
0.0
 11
102.54495305
 21
-218.9202947
 31
0.0
  0
LINE
  5
3B3
100
AcDbEntity
  8
LAYER0001
  6
CONTINUOUS
 62
       7
100
AcDbLine
 10
102.54495305
 20
-218.9202947
 30
0.0
 11
102.81410177
 21
-218.94260896
 31
0.0
  0
LINE
  5
3B4
100
AcDbEntity
  8
LAYER0001
  6
CONTINUOUS
 62
       7
100
AcDbLine
 10
102.81410177
 20
-218.94260896
 30
0.0
 11
103.08346617
 21
-218.96378836
 31
0.0
  0
LINE
  5
3B5
100
AcDbEntity
  8
LAYER0001
  6
CONTINUOUS
 62
       7
100
AcDbLine
 10
103.08346617
 20
-218.96378836
 30
0.0
 11
103.35300312
 21
-218.98405988
 31
0.0
  0
LINE
  5
3B6
100
AcDbEntity
  8
LAYER0001
  6
CONTINUOUS
 62
       7
100
AcDbLine
 10
103.35300312
 20
-218.98405988
 30
0.0
 11
103.62266948
 21
-219.00365048
 31
0.0
  0
LINE
  5
3B7
100
AcDbEntity
  8
LAYER0001
  6
CONTINUOUS
 62
       7
100
AcDbLine
 10
103.62266948
 20
-219.00365048
 30
0.0
 11
103.89242211
 21
-219.02278715
 31
0.0
  0
LINE
  5
3B8
100
AcDbEntity
  8
LAYER0001
  6
CONTINUOUS
 62
       7
100
AcDbLine
 10
103.89242211
 20
-219.02278715
 30
0.0
 11
104.16221789
 21
-219.04169685
 31
0.0
  0
ENDBLK
  5
3B9
100
AcDbEntity
  8
0
100
AcDbBlockEnd
  0
BLOCK
  5
3BA
100
AcDbEntity
  8
0
100
AcDbBlockBegin
  2
GROUP_31
 70
       0
 10
0.0
 20
0.0
 30
0.0
  3
GROUP_31
  1

  0
LINE
  5
3BB
100
AcDbEntity
  8
LAYER0001
  6
CONTINUOUS
 62
       7
100
AcDbLine
 10
110.80174598
 20
-212.56884104
 30
0.0
 11
110.53911281
 21
-212.50282935
 31
0.0
  0
LINE
  5
3BC
100
AcDbEntity
  8
LAYER0001
  6
CONTINUOUS
 62
       7
100
AcDbLine
 10
110.53911281
 20
-212.50282935
 30
0.0
 11
110.27644924
 21
-212.43707465
 31
0.0
  0
LINE
  5
3BD
100
AcDbEntity
  8
LAYER0001
  6
CONTINUOUS
 62
       7
100
AcDbLine
 10
110.27644924
 20
-212.43707465
 30
0.0
 11
110.01372489
 21
-212.37183393
 31
0.0
  0
LINE
  5
3BE
100
AcDbEntity
  8
LAYER0001
  6
CONTINUOUS
 62
       7
100
AcDbLine
 10
110.01372489
 20
-212.37183393
 30
0.0
 11
109.75090936
 21
-212.30736418
 31
0.0
  0
LINE
  5
3BF
100
AcDbEntity
  8
LAYER0001
  6
CONTINUOUS
 62
       7
100
AcDbLine
 10
109.75090936
 20
-212.30736418
 30
0.0
 11
109.48797226
 21
-212.24392238
 31
0.0
  0
LINE
  5
3C0
100
AcDbEntity
  8
LAYER0001
  6
CONTINUOUS
 62
       7
100
AcDbLine
 10
109.48797226
 20
-212.24392238
 30
0.0
 11
109.22488319
 21
-212.18176553
 31
0.0
  0
LINE
  5
3C1
100
AcDbEntity
  8
LAYER0001
  6
CONTINUOUS
 62
       7
100
AcDbLine
 10
109.22488319
 20
-212.18176553
 30
0.0
 11
108.96161175
 21
-212.12115061
 31
0.0
  0
LINE
  5
3C2
100
AcDbEntity
  8
LAYER0001
  6
CONTINUOUS
 62
       7
100
AcDbLine
 10
108.96161175
 20
-212.12115061
 30
0.0
 11
108.69812757
 21
-212.06233462
 31
0.0
  0
LINE
  5
3C3
100
AcDbEntity
  8
LAYER0001
  6
CONTINUOUS
 62
       7
100
AcDbLine
 10
108.69812757
 20
-212.06233462
 30
0.0
 11
108.43440024
 21
-212.00557454
 31
0.0
  0
LINE
  5
3C4
100
AcDbEntity
  8
LAYER0001
  6
CONTINUOUS
 62
       7
100
AcDbLine
 10
108.43440024
 20
-212.00557454
 30
0.0
 11
108.17039936
 21
-211.95112736
 31
0.0
  0
LINE
  5
3C5
100
AcDbEntity
  8
LAYER0001
  6
CONTINUOUS
 62
       7
100
AcDbLine
 10
108.17039936
 20
-211.95112736
 30
0.0
 11
107.90609456
 21
-211.89925007
 31
0.0
  0
LINE
  5
3C6
100
AcDbEntity
  8
LAYER0001
  6
CONTINUOUS
 62
       7
100
AcDbLine
 10
107.90609456
 20
-211.89925007
 30
0.0
 11
107.64145542
 21
-211.85019967
 31
0.0
  0
LINE
  5
3C7
100
AcDbEntity
  8
LAYER0001
  6
CONTINUOUS
 62
       7
100
AcDbLine
 10
107.64145542
 20
-211.85019967
 30
0.0
 11
107.37645157
 21
-211.80423313
 31
0.0
  0
LINE
  5
3C8
100
AcDbEntity
  8
LAYER0001
  6
CONTINUOUS
 62
       7
100
AcDbLine
 10
107.37645157
 20
-211.80423313
 30
0.0
 11
107.1110526
 21
-211.76160745
 31
0.0
  0
LINE
  5
3C9
100
AcDbEntity
  8
LAYER0001
  6
CONTINUOUS
 62
       7
100
AcDbLine
 10
107.1110526
 20
-211.76160745
 30
0.0
 11
106.84522812
 21
-211.72257962
 31
0.0
  0
LINE
  5
3CA
100
AcDbEntity
  8
LAYER0001
  6
CONTINUOUS
 62
       7
100
AcDbLine
 10
106.84522812
 20
-211.72257962
 30
0.0
 11
106.57894775
 21
-211.68740663
 31
0.0
  0
LINE
  5
3CB
100
AcDbEntity
  8
LAYER0001
  6
CONTINUOUS
 62
       7
100
AcDbLine
 10
106.57894775
 20
-211.68740663
 30
0.0
 11
106.31218107
 21
-211.65634547
 31
0.0
  0
LINE
  5
3CC
100
AcDbEntity
  8
LAYER0001
  6
CONTINUOUS
 62
       7
100
AcDbLine
 10
106.31218107
 20
-211.65634547
 30
0.0
 11
106.04489772
 21
-211.62965311
 31
0.0
  0
LINE
  5
3CD
100
AcDbEntity
  8
LAYER0001
  6
CONTINUOUS
 62
       7
100
AcDbLine
 10
106.04489772
 20
-211.62965311
 30
0.0
 11
105.77706949
 21
-211.60756786
 31
0.0
  0
LINE
  5
3CE
100
AcDbEntity
  8
LAYER0001
  6
CONTINUOUS
 62
       7
100
AcDbLine
 10
105.77706949
 20
-211.60756786
 30
0.0
 11
105.50872318
 21
-211.58986323
 31
0.0
  0
LINE
  5
3CF
100
AcDbEntity
  8
LAYER0001
  6
CONTINUOUS
 62
       7
100
AcDbLine
 10
105.50872318
 20
-211.58986323
 30
0.0
 11
105.23994289
 21
-211.57582805
 31
0.0
  0
LINE
  5
3D0
100
AcDbEntity
  8
LAYER0001
  6
CONTINUOUS
 62
       7
100
AcDbLine
 10
105.23994289
 20
-211.57582805
 30
0.0
 11
104.97081542
 21
-211.56472843
 31
0.0
  0
LINE
  5
3D1
100
AcDbEntity
  8
LAYER0001
  6
CONTINUOUS
 62
       7
100
AcDbLine
 10
104.97081542
 20
-211.56472843
 30
0.0
 11
104.70142757
 21
-211.55583047
 31
0.0
  0
LINE
  5
3D2
100
AcDbEntity
  8
LAYER0001
  6
CONTINUOUS
 62
       7
100
AcDbLine
 10
104.70142757
 20
-211.55583047
 30
0.0
 11
104.43186613
 21
-211.54840029
 31
0.0
  0
LINE
  5
3D3
100
AcDbEntity
  8
LAYER0001
  6
CONTINUOUS
 62
       7
100
AcDbLine
 10
104.43186613
 20
-211.54840029
 30
0.0
 11
104.16221789
 21
-211.541704
 31
0.0
  0
ENDBLK
  5
3D4
100
AcDbEntity
  8
0
100
AcDbBlockEnd
  0
BLOCK
  5
3D5
100
AcDbEntity
  8
0
100
AcDbBlockBegin
  2
GROUP_32
 70
       0
 10
0.0
 20
0.0
 30
0.0
  3
GROUP_32
  1

  0
LINE
  5
3D6
100
AcDbEntity
  8
LAYER0001
  6
CONTINUOUS
 62
       7
100
AcDbLine
 10
104.16221789
 20
-219.04169685
 30
0.0
 11
104.43186613
 21
-219.03500056
 31
0.0
  0
LINE
  5
3D7
100
AcDbEntity
  8
LAYER0001
  6
CONTINUOUS
 62
       7
100
AcDbLine
 10
104.43186613
 20
-219.03500056
 30
0.0
 11
104.70142757
 21
-219.02757038
 31
0.0
  0
LINE
  5
3D8
100
AcDbEntity
  8
LAYER0001
  6
CONTINUOUS
 62
       7
100
AcDbLine
 10
104.70142757
 20
-219.02757038
 30
0.0
 11
104.97081542
 21
-219.01867242
 31
0.0
  0
LINE
  5
3D9
100
AcDbEntity
  8
LAYER0001
  6
CONTINUOUS
 62
       7
100
AcDbLine
 10
104.97081542
 20
-219.01867242
 30
0.0
 11
105.23994289
 21
-219.0075728
 31
0.0
  0
LINE
  5
3DA
100
AcDbEntity
  8
LAYER0001
  6
CONTINUOUS
 62
       7
100
AcDbLine
 10
105.23994289
 20
-219.0075728
 30
0.0
 11
105.50872318
 21
-218.99353761
 31
0.0
  0
LINE
  5
3DB
100
AcDbEntity
  8
LAYER0001
  6
CONTINUOUS
 62
       7
100
AcDbLine
 10
105.50872318
 20
-218.99353761
 30
0.0
 11
105.77706949
 21
-218.97583299
 31
0.0
  0
LINE
  5
3DC
100
AcDbEntity
  8
LAYER0001
  6
CONTINUOUS
 62
       7
100
AcDbLine
 10
105.77706949
 20
-218.97583299
 30
0.0
 11
106.04489772
 21
-218.95374773
 31
0.0
  0
LINE
  5
3DD
100
AcDbEntity
  8
LAYER0001
  6
CONTINUOUS
 62
       7
100
AcDbLine
 10
106.04489772
 20
-218.95374773
 30
0.0
 11
106.31218107
 21
-218.92705538
 31
0.0
  0
LINE
  5
3DE
100
AcDbEntity
  8
LAYER0001
  6
CONTINUOUS
 62
       7
100
AcDbLine
 10
106.31218107
 20
-218.92705538
 30
0.0
 11
106.57894775
 21
-218.89599421
 31
0.0
  0
LINE
  5
3DF
100
AcDbEntity
  8
LAYER0001
  6
CONTINUOUS
 62
       7
100
AcDbLine
 10
106.57894775
 20
-218.89599421
 30
0.0
 11
106.84522812
 21
-218.86082122
 31
0.0
  0
LINE
  5
3E0
100
AcDbEntity
  8
LAYER0001
  6
CONTINUOUS
 62
       7
100
AcDbLine
 10
106.84522812
 20
-218.86082122
 30
0.0
 11
107.1110526
 21
-218.82179339
 31
0.0
  0
LINE
  5
3E1
100
AcDbEntity
  8
LAYER0001
  6
CONTINUOUS
 62
       7
100
AcDbLine
 10
107.1110526
 20
-218.82179339
 30
0.0
 11
107.37645157
 21
-218.77916772
 31
0.0
  0
LINE
  5
3E2
100
AcDbEntity
  8
LAYER0001
  6
CONTINUOUS
 62
       7
100
AcDbLine
 10
107.37645157
 20
-218.77916772
 30
0.0
 11
107.64145542
 21
-218.73320118
 31
0.0
  0
LINE
  5
3E3
100
AcDbEntity
  8
LAYER0001
  6
CONTINUOUS
 62
       7
100
AcDbLine
 10
107.64145542
 20
-218.73320118
 30
0.0
 11
107.90609456
 21
-218.68415077
 31
0.0
  0
LINE
  5
3E4
100
AcDbEntity
  8
LAYER0001
  6
CONTINUOUS
 62
       7
100
AcDbLine
 10
107.90609456
 20
-218.68415077
 30
0.0
 11
108.17039936
 21
-218.63227349
 31
0.0
  0
LINE
  5
3E5
100
AcDbEntity
  8
LAYER0001
  6
CONTINUOUS
 62
       7
100
AcDbLine
 10
108.17039936
 20
-218.63227349
 30
0.0
 11
108.43440024
 21
-218.57782631
 31
0.0
  0
LINE
  5
3E6
100
AcDbEntity
  8
LAYER0001
  6
CONTINUOUS
 62
       7
100
AcDbLine
 10
108.43440024
 20
-218.57782631
 30
0.0
 11
108.69812757
 21
-218.52106623
 31
0.0
  0
LINE
  5
3E7
100
AcDbEntity
  8
LAYER0001
  6
CONTINUOUS
 62
       7
100
AcDbLine
 10
108.69812757
 20
-218.52106623
 30
0.0
 11
108.96161175
 21
-218.46225024
 31
0.0
  0
LINE
  5
3E8
100
AcDbEntity
  8
LAYER0001
  6
CONTINUOUS
 62
       7
100
AcDbLine
 10
108.96161175
 20
-218.46225024
 30
0.0
 11
109.22488319
 21
-218.40163532
 31
0.0
  0
LINE
  5
3E9
100
AcDbEntity
  8
LAYER0001
  6
CONTINUOUS
 62
       7
100
AcDbLine
 10
109.22488319
 20
-218.40163532
 30
0.0
 11
109.48797226
 21
-218.33947847
 31
0.0
  0
LINE
  5
3EA
100
AcDbEntity
  8
LAYER0001
  6
CONTINUOUS
 62
       7
100
AcDbLine
 10
109.48797226
 20
-218.33947847
 30
0.0
 11
109.75090936
 21
-218.27603667
 31
0.0
  0
LINE
  5
3EB
100
AcDbEntity
  8
LAYER0001
  6
CONTINUOUS
 62
       7
100
AcDbLine
 10
109.75090936
 20
-218.27603667
 30
0.0
 11
110.01372489
 21
-218.21156692
 31
0.0
  0
LINE
  5
3EC
100
AcDbEntity
  8
LAYER0001
  6
CONTINUOUS
 62
       7
100
AcDbLine
 10
110.01372489
 20
-218.21156692
 30
0.0
 11
110.27644924
 21
-218.14632619
 31
0.0
  0
LINE
  5
3ED
100
AcDbEntity
  8
LAYER0001
  6
CONTINUOUS
 62
       7
100
AcDbLine
 10
110.27644924
 20
-218.14632619
 30
0.0
 11
110.53911281
 21
-218.08057149
 31
0.0
  0
LINE
  5
3EE
100
AcDbEntity
  8
LAYER0001
  6
CONTINUOUS
 62
       7
100
AcDbLine
 10
110.53911281
 20
-218.08057149
 30
0.0
 11
110.80174598
 21
-218.01455981
 31
0.0
  0
ENDBLK
  5
3EF
100
AcDbEntity
  8
0
100
AcDbBlockEnd
  0
BLOCK
  5
3F0
100
AcDbEntity
  8
0
100
AcDbBlockBegin
  2
GROUP_33
 70
       0
 10
0.0
 20
0.0
 30
0.0
  3
GROUP_33
  1

  0
LINE
  5
3F1
100
AcDbEntity
  8
LAYER0001
  6
CONTINUOUS
 62
       7
100
AcDbLine
 10
114.12151049
 20
-211.541704
 30
0.0
 11
114.00924097
 21
-211.54366392
 31
0.0
  0
LINE
  5
3F2
100
AcDbEntity
  8
LAYER0001
  6
CONTINUOUS
 62
       7
100
AcDbLine
 10
114.00924097
 20
-211.54366392
 30
0.0
 11
113.89696631
 21
-211.54685878
 31
0.0
  0
LINE
  5
3F3
100
AcDbEntity
  8
LAYER0001
  6
CONTINUOUS
 62
       7
100
AcDbLine
 10
113.89696631
 20
-211.54685878
 30
0.0
 11
113.78468434
 21
-211.55237367
 31
0.0
  0
LINE
  5
3F4
100
AcDbEntity
  8
LAYER0001
  6
CONTINUOUS
 62
       7
100
AcDbLine
 10
113.78468434
 20
-211.55237367
 30
0.0
 11
113.67240903
 21
-211.56047591
 31
0.0
  0
LINE
  5
3F5
100
AcDbEntity
  8
LAYER0001
  6
CONTINUOUS
 62
       7
100
AcDbLine
 10
113.67240903
 20
-211.56047591
 30
0.0
 11
113.56015983
 21
-211.57115519
 31
0.0
  0
LINE
  5
3F6
100
AcDbEntity
  8
LAYER0001
  6
CONTINUOUS
 62
       7
100
AcDbLine
 10
113.56015983
 20
-211.57115519
 30
0.0
 11
113.44795617
 21
-211.58440099
 31
0.0
  0
LINE
  5
3F7
100
AcDbEntity
  8
LAYER0001
  6
CONTINUOUS
 62
       7
100
AcDbLine
 10
113.44795617
 20
-211.58440099
 30
0.0
 11
113.33581753
 21
-211.60020281
 31
0.0
  0
LINE
  5
3F8
100
AcDbEntity
  8
LAYER0001
  6
CONTINUOUS
 62
       7
100
AcDbLine
 10
113.33581753
 20
-211.60020281
 30
0.0
 11
113.22376334
 21
-211.61855013
 31
0.0
  0
LINE
  5
3F9
100
AcDbEntity
  8
LAYER0001
  6
CONTINUOUS
 62
       7
100
AcDbLine
 10
113.22376334
 20
-211.61855013
 30
0.0
 11
113.11181306
 21
-211.63943242
 31
0.0
  0
LINE
  5
3FA
100
AcDbEntity
  8
LAYER0001
  6
CONTINUOUS
 62
       7
100
AcDbLine
 10
113.11181306
 20
-211.63943242
 30
0.0
 11
112.99998615
 21
-211.66283917
 31
0.0
  0
LINE
  5
3FB
100
AcDbEntity
  8
LAYER0001
  6
CONTINUOUS
 62
       7
100
AcDbLine
 10
112.99998615
 20
-211.66283917
 30
0.0
 11
112.88830205
 21
-211.68875987
 31
0.0
  0
LINE
  5
3FC
100
AcDbEntity
  8
LAYER0001
  6
CONTINUOUS
 62
       7
100
AcDbLine
 10
112.88830205
 20
-211.68875987
 30
0.0
 11
112.77678021
 21
-211.71718399
 31
0.0
  0
LINE
  5
3FD
100
AcDbEntity
  8
LAYER0001
  6
CONTINUOUS
 62
       7
100
AcDbLine
 10
112.77678021
 20
-211.71718399
 30
0.0
 11
112.6654401
 21
-211.74810103
 31
0.0
  0
LINE
  5
3FE
100
AcDbEntity
  8
LAYER0001
  6
CONTINUOUS
 62
       7
100
AcDbLine
 10
112.6654401
 20
-211.74810103
 30
0.0
 11
112.55430115
 21
-211.78150046
 31
0.0
  0
LINE
  5
3FF
100
AcDbEntity
  8
LAYER0001
  6
CONTINUOUS
 62
       7
100
AcDbLine
 10
112.55430115
 20
-211.78150046
 30
0.0
 11
112.44338283
 21
-211.81737177
 31
0.0
  0
LINE
  5
400
100
AcDbEntity
  8
LAYER0001
  6
CONTINUOUS
 62
       7
100
AcDbLine
 10
112.44338283
 20
-211.81737177
 30
0.0
 11
112.33270457
 21
-211.85570442
 31
0.0
  0
LINE
  5
401
100
AcDbEntity
  8
LAYER0001
  6
CONTINUOUS
 62
       7
100
AcDbLine
 10
112.33270457
 20
-211.85570442
 30
0.0
 11
112.22227799
 21
-211.89645394
 31
0.0
  0
LINE
  5
402
100
AcDbEntity
  8
LAYER0001
  6
CONTINUOUS
 62
       7
100
AcDbLine
 10
112.22227799
 20
-211.89645394
 30
0.0
 11
112.11208973
 21
-211.93946763
 31
0.0
  0
LINE
  5
403
100
AcDbEntity
  8
LAYER0001
  6
CONTINUOUS
 62
       7
100
AcDbLine
 10
112.11208973
 20
-211.93946763
 30
0.0
 11
112.00212144
 21
-211.98457134
 31
0.0
  0
LINE
  5
404
100
AcDbEntity
  8
LAYER0001
  6
CONTINUOUS
 62
       7
100
AcDbLine
 10
112.00212144
 20
-211.98457134
 30
0.0
 11
111.89235479
 21
-212.03159089
 31
0.0
  0
LINE
  5
405
100
AcDbEntity
  8
LAYER0001
  6
CONTINUOUS
 62
       7
100
AcDbLine
 10
111.89235479
 20
-212.03159089
 30
0.0
 11
111.78277147
 21
-212.08035213
 31
0.0
  0
LINE
  5
406
100
AcDbEntity
  8
LAYER0001
  6
CONTINUOUS
 62
       7
100
AcDbLine
 10
111.78277147
 20
-212.08035213
 30
0.0
 11
111.67335312
 21
-212.13068087
 31
0.0
  0
LINE
  5
407
100
AcDbEntity
  8
LAYER0001
  6
CONTINUOUS
 62
       7
100
AcDbLine
 10
111.67335312
 20
-212.13068087
 30
0.0
 11
111.56408143
 21
-212.18240295
 31
0.0
  0
LINE
  5
408
100
AcDbEntity
  8
LAYER0001
  6
CONTINUOUS
 62
       7
100
AcDbLine
 10
111.56408143
 20
-212.18240295
 30
0.0
 11
111.45493805
 21
-212.23534421
 31
0.0
  0
LINE
  5
409
100
AcDbEntity
  8
LAYER0001
  6
CONTINUOUS
 62
       7
100
AcDbLine
 10
111.45493805
 20
-212.23534421
 30
0.0
 11
111.34590467
 21
-212.28933048
 31
0.0
  0
LINE
  5
40A
100
AcDbEntity
  8
LAYER0001
  6
CONTINUOUS
 62
       7
100
AcDbLine
 10
111.34590467
 20
-212.28933048
 30
0.0
 11
111.23696294
 21
-212.34418758
 31
0.0
  0
LINE
  5
40B
100
AcDbEntity
  8
LAYER0001
  6
CONTINUOUS
 62
       7
100
AcDbLine
 10
111.23696294
 20
-212.34418758
 30
0.0
 11
111.12809454
 21
-212.39974136
 31
0.0
  0
LINE
  5
40C
100
AcDbEntity
  8
LAYER0001
  6
CONTINUOUS
 62
       7
100
AcDbLine
 10
111.12809454
 20
-212.39974136
 30
0.0
 11
111.01928113
 21
-212.45581764
 31
0.0
  0
LINE
  5
40D
100
AcDbEntity
  8
LAYER0001
  6
CONTINUOUS
 62
       7
100
AcDbLine
 10
111.01928113
 20
-212.45581764
 30
0.0
 11
110.91050439
 21
-212.51224226
 31
0.0
  0
LINE
  5
40E
100
AcDbEntity
  8
LAYER0001
  6
CONTINUOUS
 62
       7
100
AcDbLine
 10
110.91050439
 20
-212.51224226
 30
0.0
 11
110.80174598
 21
-212.56884104
 31
0.0
  0
ENDBLK
  5
40F
100
AcDbEntity
  8
0
100
AcDbBlockEnd
  0
BLOCK
  5
410
100
AcDbEntity
  8
0
100
AcDbBlockBegin
  2
GROUP_34
 70
       0
 10
0.0
 20
0.0
 30
0.0
  3
GROUP_34
  1

  0
LINE
  5
411
100
AcDbEntity
  8
LAYER0001
  6
CONTINUOUS
 62
       7
100
AcDbLine
 10
110.80174598
 20
-218.01455981
 30
0.0
 11
110.93233134
 21
-218.08403243
 31
0.0
  0
LINE
  5
412
100
AcDbEntity
  8
LAYER0001
  6
CONTINUOUS
 62
       7
100
AcDbLine
 10
110.93233134
 20
-218.08403243
 30
0.0
 11
111.06294517
 21
-218.15313868
 31
0.0
  0
LINE
  5
413
100
AcDbEntity
  8
LAYER0001
  6
CONTINUOUS
 62
       7
100
AcDbLine
 10
111.06294517
 20
-218.15313868
 30
0.0
 11
111.19361592
 21
-218.22151221
 31
0.0
  0
LINE
  5
414
100
AcDbEntity
  8
LAYER0001
  6
CONTINUOUS
 62
       7
100
AcDbLine
 10
111.19361592
 20
-218.22151221
 30
0.0
 11
111.32437205
 21
-218.28878664
 31
0.0
  0
LINE
  5
415
100
AcDbEntity
  8
LAYER0001
  6
CONTINUOUS
 62
       7
100
AcDbLine
 10
111.32437205
 20
-218.28878664
 30
0.0
 11
111.45524202
 21
-218.3545956
 31
0.0
  0
LINE
  5
416
100
AcDbEntity
  8
LAYER0001
  6
CONTINUOUS
 62
       7
100
AcDbLine
 10
111.45524202
 20
-218.3545956
 30
0.0
 11
111.58625429
 21
-218.41857274
 31
0.0
  0
LINE
  5
417
100
AcDbEntity
  8
LAYER0001
  6
CONTINUOUS
 62
       7
100
AcDbLine
 10
111.58625429
 20
-218.41857274
 30
0.0
 11
111.71743733
 21
-218.48035169
 31
0.0
  0
LINE
  5
418
100
AcDbEntity
  8
LAYER0001
  6
CONTINUOUS
 62
       7
100
AcDbLine
 10
111.71743733
 20
-218.48035169
 30
0.0
 11
111.84881959
 21
-218.53956607
 31
0.0
  0
LINE
  5
419
100
AcDbEntity
  8
LAYER0001
  6
CONTINUOUS
 62
       7
100
AcDbLine
 10
111.84881959
 20
-218.53956607
 30
0.0
 11
111.98042954
 21
-218.59584953
 31
0.0
  0
LINE
  5
41A
100
AcDbEntity
  8
LAYER0001
  6
CONTINUOUS
 62
       7
100
AcDbLine
 10
111.98042954
 20
-218.59584953
 30
0.0
 11
112.11229563
 21
-218.64883571
 31
0.0
  0
LINE
  5
41B
100
AcDbEntity
  8
LAYER0001
  6
CONTINUOUS
 62
       7
100
AcDbLine
 10
112.11229563
 20
-218.64883571
 30
0.0
 11
112.24444633
 21
-218.69815822
 31
0.0
  0
LINE
  5
41C
100
AcDbEntity
  8
LAYER0001
  6
CONTINUOUS
 62
       7
100
AcDbLine
 10
112.24444633
 20
-218.69815822
 30
0.0
 11
112.37691009
 21
-218.74345071
 31
0.0
  0
LINE
  5
41D
100
AcDbEntity
  8
LAYER0001
  6
CONTINUOUS
 62
       7
100
AcDbLine
 10
112.37691009
 20
-218.74345071
 30
0.0
 11
112.50971321
 21
-218.78437477
 31
0.0
  0
LINE
  5
41E
100
AcDbEntity
  8
LAYER0001
  6
CONTINUOUS
 62
       7
100
AcDbLine
 10
112.50971321
 20
-218.78437477
 30
0.0
 11
112.64285117
 21
-218.82098858
 31
0.0
  0
LINE
  5
41F
100
AcDbEntity
  8
LAYER0001
  6
CONTINUOUS
 62
       7
100
AcDbLine
 10
112.64285117
 20
-218.82098858
 30
0.0
 11
112.77629656
 21
-218.85364491
 31
0.0
  0
LINE
  5
420
100
AcDbEntity
  8
LAYER0001
  6
CONTINUOUS
 62
       7
100
AcDbLine
 10
112.77629656
 20
-218.85364491
 30
0.0
 11
112.91002143
 21
-218.88270355
 31
0.0
  0
LINE
  5
421
100
AcDbEntity
  8
LAYER0001
  6
CONTINUOUS
 62
       7
100
AcDbLine
 10
112.91002143
 20
-218.88270355
 30
0.0
 11
113.04399783
 21
-218.90852425
 31
0.0
  0
LINE
  5
422
100
AcDbEntity
  8
LAYER0001
  6
CONTINUOUS
 62
       7
100
AcDbLine
 10
113.04399783
 20
-218.90852425
 30
0.0
 11
113.17819782
 21
-218.9314668
 31
0.0
  0
LINE
  5
423
100
AcDbEntity
  8
LAYER0001
  6
CONTINUOUS
 62
       7
100
AcDbLine
 10
113.17819782
 20
-218.9314668
 30
0.0
 11
113.31259344
 21
-218.95189096
 31
0.0
  0
LINE
  5
424
100
AcDbEntity
  8
LAYER0001
  6
CONTINUOUS
 62
       7
100
AcDbLine
 10
113.31259344
 20
-218.95189096
 30
0.0
 11
113.44715676
 21
-218.9701565
 31
0.0
  0
LINE
  5
425
100
AcDbEntity
  8
LAYER0001
  6
CONTINUOUS
 62
       7
100
AcDbLine
 10
113.44715676
 20
-218.9701565
 30
0.0
 11
113.58185981
 21
-218.98662319
 31
0.0
  0
LINE
  5
426
100
AcDbEntity
  8
LAYER0001
  6
CONTINUOUS
 62
       7
100
AcDbLine
 10
113.58185981
 20
-218.98662319
 30
0.0
 11
113.71667466
 21
-219.0016508
 31
0.0
  0
LINE
  5
427
100
AcDbEntity
  8
LAYER0001
  6
CONTINUOUS
 62
       7
100
AcDbLine
 10
113.71667466
 20
-219.0016508
 30
0.0
 11
113.85157336
 21
-219.0155991
 31
0.0
  0
LINE
  5
428
100
AcDbEntity
  8
LAYER0001
  6
CONTINUOUS
 62
       7
100
AcDbLine
 10
113.85157336
 20
-219.0155991
 30
0.0
 11
113.98652795
 21
-219.02882786
 31
0.0
  0
LINE
  5
429
100
AcDbEntity
  8
LAYER0001
  6
CONTINUOUS
 62
       7
100
AcDbLine
 10
113.98652795
 20
-219.02882786
 30
0.0
 11
114.12151049
 21
-219.04169685
 31
0.0
  0
ENDBLK
  5
42A
100
AcDbEntity
  8
0
100
AcDbBlockEnd
  0
BLOCK
  5
42B
100
AcDbEntity
  8
0
100
AcDbBlockBegin
  2
GROUP_35
 70
       0
 10
0.0
 20
0.0
 30
0.0
  3
GROUP_35
  1

  0
LINE
  5
42C
100
AcDbEntity
  8
LAYER0001
  6
CONTINUOUS
 62
       7
100
AcDbLine
 10
117.44127406
 20
-212.56884104
 30
0.0
 11
117.31068841
 21
-212.4993719
 31
0.0
  0
LINE
  5
42D
100
AcDbEntity
  8
LAYER0001
  6
CONTINUOUS
 62
       7
100
AcDbLine
 10
117.31068841
 20
-212.4993719
 30
0.0
 11
117.1800743
 21
-212.43026908
 31
0.0
  0
LINE
  5
42E
100
AcDbEntity
  8
LAYER0001
  6
CONTINUOUS
 62
       7
100
AcDbLine
 10
117.1800743
 20
-212.43026908
 30
0.0
 11
117.04940328
 21
-212.36189891
 31
0.0
  0
LINE
  5
42F
100
AcDbEntity
  8
LAYER0001
  6
CONTINUOUS
 62
       7
100
AcDbLine
 10
117.04940328
 20
-212.36189891
 30
0.0
 11
116.91864689
 21
-212.29462769
 31
0.0
  0
LINE
  5
430
100
AcDbEntity
  8
LAYER0001
  6
CONTINUOUS
 62
       7
100
AcDbLine
 10
116.91864689
 20
-212.29462769
 30
0.0
 11
116.78777667
 21
-212.22882176
 31
0.0
  0
LINE
  5
431
100
AcDbEntity
  8
LAYER0001
  6
CONTINUOUS
 62
       7
100
AcDbLine
 10
116.78777667
 20
-212.22882176
 30
0.0
 11
116.65676417
 21
-212.16484744
 31
0.0
  0
LINE
  5
432
100
AcDbEntity
  8
LAYER0001
  6
CONTINUOUS
 62
       7
100
AcDbLine
 10
116.65676417
 20
-212.16484744
 30
0.0
 11
116.52558094
 21
-212.10307104
 31
0.0
  0
LINE
  5
433
100
AcDbEntity
  8
LAYER0001
  6
CONTINUOUS
 62
       7
100
AcDbLine
 10
116.52558094
 20
-212.10307104
 30
0.0
 11
116.3941985
 21
-212.04385889
 31
0.0
  0
LINE
  5
434
100
AcDbEntity
  8
LAYER0001
  6
CONTINUOUS
 62
       7
100
AcDbLine
 10
116.3941985
 20
-212.04385889
 30
0.0
 11
116.26258842
 21
-211.9875773
 31
0.0
  0
LINE
  5
435
100
AcDbEntity
  8
LAYER0001
  6
CONTINUOUS
 62
       7
100
AcDbLine
 10
116.26258842
 20
-211.9875773
 30
0.0
 11
116.13072223
 21
-211.93459261
 31
0.0
  0
LINE
  5
436
100
AcDbEntity
  8
LAYER0001
  6
CONTINUOUS
 62
       7
100
AcDbLine
 10
116.13072223
 20
-211.93459261
 30
0.0
 11
115.99857147
 21
-211.88527112
 31
0.0
  0
LINE
  5
437
100
AcDbEntity
  8
LAYER0001
  6
CONTINUOUS
 62
       7
100
AcDbLine
 10
115.99857147
 20
-211.88527112
 30
0.0
 11
115.8661077
 21
-211.83997917
 31
0.0
  0
LINE
  5
438
100
AcDbEntity
  8
LAYER0001
  6
CONTINUOUS
 62
       7
100
AcDbLine
 10
115.8661077
 20
-211.83997917
 30
0.0
 11
115.73330461
 21
-211.79905511
 31
0.0
  0
LINE
  5
439
100
AcDbEntity
  8
LAYER0001
  6
CONTINUOUS
 62
       7
100
AcDbLine
 10
115.73330461
 20
-211.79905511
 30
0.0
 11
115.60016674
 21
-211.76244078
 31
0.0
  0
LINE
  5
43A
100
AcDbEntity
  8
LAYER0001
  6
CONTINUOUS
 62
       7
100
AcDbLine
 10
115.60016674
 20
-211.76244078
 30
0.0
 11
115.46672149
 21
-211.72978342
 31
0.0
  0
LINE
  5
43B
100
AcDbEntity
  8
LAYER0001
  6
CONTINUOUS
 62
       7
100
AcDbLine
 10
115.46672149
 20
-211.72978342
 30
0.0
 11
115.33299679
 21
-211.70072331
 31
0.0
  0
LINE
  5
43C
100
AcDbEntity
  8
LAYER0001
  6
CONTINUOUS
 62
       7
100
AcDbLine
 10
115.33299679
 20
-211.70072331
 30
0.0
 11
115.1990206
 21
-211.67490073
 31
0.0
  0
LINE
  5
43D
100
AcDbEntity
  8
LAYER0001
  6
CONTINUOUS
 62
       7
100
AcDbLine
 10
115.1990206
 20
-211.67490073
 30
0.0
 11
115.06482086
 21
-211.65195595
 31
0.0
  0
LINE
  5
43E
100
AcDbEntity
  8
LAYER0001
  6
CONTINUOUS
 62
       7
100
AcDbLine
 10
115.06482086
 20
-211.65195595
 30
0.0
 11
114.93042551
 21
-211.63152924
 31
0.0
  0
LINE
  5
43F
100
AcDbEntity
  8
LAYER0001
  6
CONTINUOUS
 62
       7
100
AcDbLine
 10
114.93042551
 20
-211.63152924
 30
0.0
 11
114.79586249
 21
-211.61326089
 31
0.0
  0
LINE
  5
440
100
AcDbEntity
  8
LAYER0001
  6
CONTINUOUS
 62
       7
100
AcDbLine
 10
114.79586249
 20
-211.61326089
 30
0.0
 11
114.66115975
 21
-211.59679116
 31
0.0
  0
LINE
  5
441
100
AcDbEntity
  8
LAYER0001
  6
CONTINUOUS
 62
       7
100
AcDbLine
 10
114.66115975
 20
-211.59679116
 30
0.0
 11
114.52634524
 21
-211.58176033
 31
0.0
  0
LINE
  5
442
100
AcDbEntity
  8
LAYER0001
  6
CONTINUOUS
 62
       7
100
AcDbLine
 10
114.52634524
 20
-211.58176033
 30
0.0
 11
114.3914469
 21
-211.56780868
 31
0.0
  0
LINE
  5
443
100
AcDbEntity
  8
LAYER0001
  6
CONTINUOUS
 62
       7
100
AcDbLine
 10
114.3914469
 20
-211.56780868
 30
0.0
 11
114.25649266
 21
-211.55457648
 31
0.0
  0
LINE
  5
444
100
AcDbEntity
  8
LAYER0001
  6
CONTINUOUS
 62
       7
100
AcDbLine
 10
114.25649266
 20
-211.55457648
 30
0.0
 11
114.12151049
 21
-211.541704
 31
0.0
  0
ENDBLK
  5
445
100
AcDbEntity
  8
0
100
AcDbBlockEnd
  0
BLOCK
  5
446
100
AcDbEntity
  8
0
100
AcDbBlockBegin
  2
GROUP_36
 70
       0
 10
0.0
 20
0.0
 30
0.0
  3
GROUP_36
  1

  0
LINE
  5
447
100
AcDbEntity
  8
LAYER0001
  6
CONTINUOUS
 62
       7
100
AcDbLine
 10
114.12151049
 20
-219.04169685
 30
0.0
 11
114.23377965
 21
-219.03973693
 31
0.0
  0
LINE
  5
448
100
AcDbEntity
  8
LAYER0001
  6
CONTINUOUS
 62
       7
100
AcDbLine
 10
114.23377965
 20
-219.03973693
 30
0.0
 11
114.34605398
 21
-219.03654206
 31
0.0
  0
LINE
  5
449
100
AcDbEntity
  8
LAYER0001
  6
CONTINUOUS
 62
       7
100
AcDbLine
 10
114.34605398
 20
-219.03654206
 30
0.0
 11
114.45833568
 21
-219.03102716
 31
0.0
  0
LINE
  5
44A
100
AcDbEntity
  8
LAYER0001
  6
CONTINUOUS
 62
       7
100
AcDbLine
 10
114.45833568
 20
-219.03102716
 30
0.0
 11
114.5706108
 21
-219.02292492
 31
0.0
  0
LINE
  5
44B
100
AcDbEntity
  8
LAYER0001
  6
CONTINUOUS
 62
       7
100
AcDbLine
 10
114.5706108
 20
-219.02292492
 30
0.0
 11
114.68285987
 21
-219.01224563
 31
0.0
  0
LINE
  5
44C
100
AcDbEntity
  8
LAYER0001
  6
CONTINUOUS
 62
       7
100
AcDbLine
 10
114.68285987
 20
-219.01224563
 30
0.0
 11
114.79506344
 21
-218.99899982
 31
0.0
  0
LINE
  5
44D
100
AcDbEntity
  8
LAYER0001
  6
CONTINUOUS
 62
       7
100
AcDbLine
 10
114.79506344
 20
-218.99899982
 30
0.0
 11
114.90720205
 21
-218.983198
 31
0.0
  0
LINE
  5
44E
100
AcDbEntity
  8
LAYER0001
  6
CONTINUOUS
 62
       7
100
AcDbLine
 10
114.90720205
 20
-218.983198
 30
0.0
 11
115.01925624
 21
-218.96485068
 31
0.0
  0
LINE
  5
44F
100
AcDbEntity
  8
LAYER0001
  6
CONTINUOUS
 62
       7
100
AcDbLine
 10
115.01925624
 20
-218.96485068
 30
0.0
 11
115.13120656
 21
-218.94396838
 31
0.0
  0
LINE
  5
450
100
AcDbEntity
  8
LAYER0001
  6
CONTINUOUS
 62
       7
100
AcDbLine
 10
115.13120656
 20
-218.94396838
 30
0.0
 11
115.24303353
 21
-218.92056162
 31
0.0
  0
LINE
  5
451
100
AcDbEntity
  8
LAYER0001
  6
CONTINUOUS
 62
       7
100
AcDbLine
 10
115.24303353
 20
-218.92056162
 30
0.0
 11
115.35471772
 21
-218.89464092
 31
0.0
  0
LINE
  5
452
100
AcDbEntity
  8
LAYER0001
  6
CONTINUOUS
 62
       7
100
AcDbLine
 10
115.35471772
 20
-218.89464092
 30
0.0
 11
115.46623965
 21
-218.86621679
 31
0.0
  0
LINE
  5
453
100
AcDbEntity
  8
LAYER0001
  6
CONTINUOUS
 62
       7
100
AcDbLine
 10
115.46623965
 20
-218.86621679
 30
0.0
 11
115.57757987
 21
-218.83529975
 31
0.0
  0
LINE
  5
454
100
AcDbEntity
  8
LAYER0001
  6
CONTINUOUS
 62
       7
100
AcDbLine
 10
115.57757987
 20
-218.83529975
 30
0.0
 11
115.68871892
 21
-218.80190032
 31
0.0
  0
LINE
  5
455
100
AcDbEntity
  8
LAYER0001
  6
CONTINUOUS
 62
       7
100
AcDbLine
 10
115.68871892
 20
-218.80190032
 30
0.0
 11
115.79963734
 21
-218.76602901
 31
0.0
  0
LINE
  5
456
100
AcDbEntity
  8
LAYER0001
  6
CONTINUOUS
 62
       7
100
AcDbLine
 10
115.79963734
 20
-218.76602901
 30
0.0
 11
115.91031568
 21
-218.72769635
 31
0.0
  0
LINE
  5
457
100
AcDbEntity
  8
LAYER0001
  6
CONTINUOUS
 62
       7
100
AcDbLine
 10
115.91031568
 20
-218.72769635
 30
0.0
 11
116.02074232
 21
-218.68694684
 31
0.0
  0
LINE
  5
458
100
AcDbEntity
  8
LAYER0001
  6
CONTINUOUS
 62
       7
100
AcDbLine
 10
116.02074232
 20
-218.68694684
 30
0.0
 11
116.13093064
 21
-218.64393314
 31
0.0
  0
LINE
  5
459
100
AcDbEntity
  8
LAYER0001
  6
CONTINUOUS
 62
       7
100
AcDbLine
 10
116.13093064
 20
-218.64393314
 30
0.0
 11
116.24089896
 21
-218.59882944
 31
0.0
  0
LINE
  5
45A
100
AcDbEntity
  8
LAYER0001
  6
CONTINUOUS
 62
       7
100
AcDbLine
 10
116.24089896
 20
-218.59882944
 30
0.0
 11
116.35066562
 21
-218.55180989
 31
0.0
  0
LINE
  5
45B
100
AcDbEntity
  8
LAYER0001
  6
CONTINUOUS
 62
       7
100
AcDbLine
 10
116.35066562
 20
-218.55180989
 30
0.0
 11
116.46024895
 21
-218.50304866
 31
0.0
  0
LINE
  5
45C
100
AcDbEntity
  8
LAYER0001
  6
CONTINUOUS
 62
       7
100
AcDbLine
 10
116.46024895
 20
-218.50304866
 30
0.0
 11
116.56966728
 21
-218.45271992
 31
0.0
  0
LINE
  5
45D
100
AcDbEntity
  8
LAYER0001
  6
CONTINUOUS
 62
       7
100
AcDbLine
 10
116.56966728
 20
-218.45271992
 30
0.0
 11
116.67893895
 21
-218.40099784
 31
0.0
  0
LINE
  5
45E
100
AcDbEntity
  8
LAYER0001
  6
CONTINUOUS
 62
       7
100
AcDbLine
 10
116.67893895
 20
-218.40099784
 30
0.0
 11
116.7880823
 21
-218.34805659
 31
0.0
  0
LINE
  5
45F
100
AcDbEntity
  8
LAYER0001
  6
CONTINUOUS
 62
       7
100
AcDbLine
 10
116.7880823
 20
-218.34805659
 30
0.0
 11
116.89711564
 21
-218.29407033
 31
0.0
  0
LINE
  5
460
100
AcDbEntity
  8
LAYER0001
  6
CONTINUOUS
 62
       7
100
AcDbLine
 10
116.89711564
 20
-218.29407033
 30
0.0
 11
117.00605732
 21
-218.23921323
 31
0.0
  0
LINE
  5
461
100
AcDbEntity
  8
LAYER0001
  6
CONTINUOUS
 62
       7
100
AcDbLine
 10
117.00605732
 20
-218.23921323
 30
0.0
 11
117.11492567
 21
-218.18365946
 31
0.0
  0
LINE
  5
462
100
AcDbEntity
  8
LAYER0001
  6
CONTINUOUS
 62
       7
100
AcDbLine
 10
117.11492567
 20
-218.18365946
 30
0.0
 11
117.22373903
 21
-218.12758319
 31
0.0
  0
LINE
  5
463
100
AcDbEntity
  8
LAYER0001
  6
CONTINUOUS
 62
       7
100
AcDbLine
 10
117.22373903
 20
-218.12758319
 30
0.0
 11
117.33251571
 21
-218.07115858
 31
0.0
  0
LINE
  5
464
100
AcDbEntity
  8
LAYER0001
  6
CONTINUOUS
 62
       7
100
AcDbLine
 10
117.33251571
 20
-218.07115858
 30
0.0
 11
117.44127406
 21
-218.01455981
 31
0.0
  0
ENDBLK
  5
465
100
AcDbEntity
  8
0
100
AcDbBlockEnd
  0
ENDSEC
  0
SECTION
  2
ENTITIES
  0
LINE
  5
466
100
AcDbEntity
  8
LAYER0001
  6
CENTER
 62
       7
100
AcDbLine
 10
-167.28166214
 20
270.39543349
 30
0.0
 11
-167.28166214
 21
-229.90727454
 31
0.0
  0
LINE
  5
467
100
AcDbEntity
  8
LAYER0001
  6
CENTER
 62
       7
100
AcDbLine
 10
104.16221789
 20
277.64170533
 30
0.0
 11
104.16221789
 21
-277.64170152
 31
0.0
  0
LINE
  5
468
100
AcDbEntity
  8
LAYER0001
  6
CENTER
 62
       7
100
AcDbLine
 10
-309.40467698
 20
270.39543349
 30
0.0
 11
-309.40467698
 21
-229.90727454
 31
0.0
  0
LINE
  5
469
100
AcDbEntity
  8
LAYER0001
  6
CENTER
 62
       7
100
AcDbLine
 10
265.05823344
 20
276.56258054
 30
0.0
 11
265.05823344
 21
-261.64351584
 31
0.0
  0
LINE
  5
46A
100
AcDbEntity
  8
LAYER0001
  6
CONTINUOUS
 62
       7
100
AcDbLine
 10
-300.75467677
 20
-171.8879717
 30
0.0
 11
-300.75467677
 21
47.6120261
 31
0.0
  0
LINE
  5
46B
100
AcDbEntity
  8
LAYER0001
  6
CONTINUOUS
 62
       7
100
AcDbLine
 10
-318.05467719
 20
47.6120261
 30
0.0
 11
-318.05467719
 21
-171.8879717
 31
0.0
  0
LINE
  5
46C
100
AcDbEntity
  8
LAYER0001
  6
CONTINUOUS
 62
       7
100
AcDbLine
 10
-262.40991262
 20
-224.58801442
 30
0.0
 11
-262.52161545
 21
-218.18850213
 31
0.0
  0
LINE
  5
46D
100
AcDbEntity
  8
LAYER0001
  6
CONTINUOUS
 62
       7
100
AcDbLine
 10
-356.28773851
 20
-218.18850213
 30
0.0
 11
-356.39944134
 21
-224.58801442
 31
0.0
  0
LINE
  5
46E
100
AcDbEntity
  8
LAYER0001
  6
CONTINUOUS
 62
       7
100
AcDbLine
 10
-356.39944134
 20
-224.58801442
 30
0.0
 11
-356.10977766
 21
-224.8879748
 31
0.0
  0
LINE
  5
46F
100
AcDbEntity
  8
LAYER0001
  6
CONTINUOUS
 62
       7
100
AcDbLine
 10
-262.69957629
 20
-224.8879748
 30
0.0
 11
-262.40991262
 21
-224.58801442
 31
0.0
  0
LINE
  5
470
100
AcDbEntity
  8
LAYER0001
  6
CONTINUOUS
 62
       7
100
AcDbLine
 10
-264.34699983
 20
-216.23102197
 30
0.0
 11
-285.05562385
 21
-214.41925278
 31
0.0
  0
LINE
  5
471
100
AcDbEntity
  8
LAYER0001
  6
CONTINUOUS
 62
       7
100
AcDbLine
 10
-333.75373011
 20
-214.41925278
 30
0.0
 11
-354.46235413
 21
-216.23102197
 31
0.0
  0
LINE
  5
472
100
AcDbEntity
  8
LAYER0001
  6
CONTINUOUS
 62
       7
100
AcDbLine
 10
-294.17036214
 20
-204.98067909
 30
0.0
 11
-295.82171721
 21
-173.47093695
 31
0.0
  0
LINE
  5
473
100
AcDbEntity
  8
LAYER0001
  6
CONTINUOUS
 62
       7
100
AcDbLine
 10
-322.98763675
 20
-173.47093695
 30
0.0
 11
-324.63899181
 21
-204.98067909
 31
0.0
  0
LINE
  5
474
100
AcDbEntity
  8
LAYER0001
  6
CONTINUOUS
 62
       7
100
AcDbLine
 10
-295.82171721
 20
-173.47093695
 30
0.0
 11
-297.40467687
 21
-171.8879717
 31
0.0
  0
LINE
  5
475
100
AcDbEntity
  8
LAYER0001
  6
CONTINUOUS
 62
       7
100
AcDbLine
 10
-321.40467708
 20
-171.8879717
 30
0.0
 11
-322.98763675
 21
-173.47093695
 31
0.0
  0
LINE
  5
476
100
AcDbEntity
  8
LAYER0001
  6
CONTINUOUS
 62
       7
100
AcDbLine
 10
-279.40467677
 20
158.91203624
 30
0.0
 11
-279.4046779
 21
189.61203192
 31
0.0
  0
LINE
  5
477
100
AcDbEntity
  8
LAYER0001
  6
CONTINUOUS
 62
       7
100
AcDbLine
 10
-339.40467431
 20
157.61202667
 30
0.0
 11
-279.4046779
 21
157.61202667
 31
0.0
  0
LINE
  5
478
100
AcDbEntity
  8
LAYER0001
  6
CONTINUOUS
 62
       7
100
AcDbLine
 10
-290.86297385
 20
69.75847271
 30
0.0
 11
-289.61013886
 21
71.01130769
 31
0.0
  0
LINE
  5
479
100
AcDbEntity
  8
LAYER0001
  6
CONTINUOUS
 62
       7
100
AcDbLine
 10
-279.40467677
 20
93.6120261
 30
0.0
 11
-339.40467543
 21
93.6120261
 31
0.0
  0
LINE
  5
47A
100
AcDbEntity
  8
LAYER0001
  6
CONTINUOUS
 62
       7
100
AcDbLine
 10
-291.21652724
 20
69.6120261
 30
0.0
 11
-327.5928263
 21
69.6120261
 31
0.0
  0
LINE
  5
47B
100
AcDbEntity
  8
LAYER0001
  6
CONTINUOUS
 62
       7
100
AcDbLine
 10
-279.40467677
 20
126.912031
 30
0.0
 11
-279.4046779
 21
157.61202667
 31
0.0
  0
LINE
  5
47C
100
AcDbEntity
  8
LAYER0001
  6
CONTINUOUS
 62
       7
100
AcDbLine
 10
-339.40467543
 20
94.91202575
 30
0.0
 11
-279.40467677
 21
94.91202575
 31
0.0
  0
LINE
  5
47D
100
AcDbEntity
  8
LAYER0001
  6
CONTINUOUS
 62
       7
100
AcDbLine
 10
-329.11223187
 20
73.6120261
 30
0.0
 11
-329.39682369
 21
73.3121289
 31
0.0
  0
LINE
  5
47E
100
AcDbEntity
  8
LAYER0001
  6
CONTINUOUS
 62
       7
100
AcDbLine
 10
-339.40467431
 20
125.61202143
 30
0.0
 11
-279.4046779
 21
125.61202143
 31
0.0
  0
LINE
  5
47F
100
AcDbEntity
  8
LAYER0001
  6
CONTINUOUS
 62
       7
100
AcDbLine
 10
-339.40467431
 20
125.61202143
 30
0.0
 11
-339.40467543
 21
94.91202575
 31
0.0
  0
LINE
  5
480
100
AcDbEntity
  8
LAYER0001
  6
CONTINUOUS
 62
       7
100
AcDbLine
 10
-339.40467543
 20
126.912031
 30
0.0
 11
-279.40467677
 21
126.912031
 31
0.0
  0
LINE
  5
481
100
AcDbEntity
  8
LAYER0001
  6
CONTINUOUS
 62
       7
100
AcDbLine
 10
-297.38782575
 20
48.09457635
 30
0.0
 11
-296.737526
 21
66.71672459
 31
0.0
  0
LINE
  5
482
100
AcDbEntity
  8
LAYER0001
  6
CONTINUOUS
 62
       7
100
AcDbLine
 10
-279.40467677
 20
94.91202575
 30
0.0
 11
-279.4046779
 21
125.61202143
 31
0.0
  0
LINE
  5
483
100
AcDbEntity
  8
LAYER0001
  6
CONTINUOUS
 62
       7
100
AcDbLine
 10
-297.88752116
 20
47.6120261
 30
0.0
 11
-309.40467677
 21
47.6120261
 31
0.0
  0
LINE
  5
484
100
AcDbEntity
  8
LAYER0001
  6
CONTINUOUS
 62
       7
100
AcDbLine
 10
-279.40468031
 20
222.91203183
 30
0.0
 11
-279.40467862
 21
253.61197477
 31
0.0
  0
LINE
  5
485
100
AcDbEntity
  8
LAYER0001
  6
CONTINUOUS
 62
       7
100
AcDbLine
 10
-279.40467677
 20
91.44479593
 30
0.0
 11
-279.40467677
 21
93.6120261
 31
0.0
  0
LINE
  5
486
100
AcDbEntity
  8
LAYER0001
  6
CONTINUOUS
 62
       7
100
AcDbLine
 10
-329.19921468
 20
71.01130769
 30
0.0
 11
-327.94637969
 21
69.75847271
 31
0.0
  0
LINE
  5
487
100
AcDbEntity
  8
LAYER0001
  6
CONTINUOUS
 62
       7
100
AcDbLine
 10
-339.40467543
 20
158.91203624
 30
0.0
 11
-279.40467677
 21
158.91203624
 31
0.0
  0
LINE
  5
488
100
AcDbEntity
  8
LAYER0001
  6
CONTINUOUS
 62
       7
100
AcDbLine
 10
-339.40467431
 20
221.61202226
 30
0.0
 11
-339.40467543
 21
190.91202659
 31
0.0
  0
LINE
  5
489
100
AcDbEntity
  8
LAYER0001
  6
CONTINUOUS
 62
       7
100
AcDbLine
 10
-279.40467855
 20
254.912022
 30
0.0
 11
-339.40467721
 21
254.91204001
 31
0.0
  0
LINE
  5
48A
100
AcDbEntity
  8
LAYER0001
  6
CONTINUOUS
 62
       7
100
AcDbLine
 10
-289.41252986
 20
73.3121289
 30
0.0
 11
-309.40467677
 21
73.3121289
 31
0.0
  0
LINE
  5
48B
100
AcDbEntity
  8
LAYER0001
  6
CONTINUOUS
 62
       7
100
AcDbLine
 10
-339.40467784
 20
253.61201384
 30
0.0
 11
-339.4046926
 21
222.91203183
 31
0.0
  0
LINE
  5
48C
100
AcDbEntity
  8
LAYER0001
  6
CONTINUOUS
 62
       7
100
AcDbLine
 10
-301.37720711
 20
265.19707445
 30
0.0
 11
-317.4321451
 21
265.19707445
 31
0.0
  0
LINE
  5
48D
100
AcDbEntity
  8
LAYER0001
  6
CONTINUOUS
 62
       7
100
AcDbLine
 10
-289.40467677
 20
73.6120261
 30
0.0
 11
-309.40467677
 21
73.6120261
 31
0.0
  0
LINE
  5
48E
100
AcDbEntity
  8
LAYER0001
  6
CONTINUOUS
 62
       7
100
AcDbLine
 10
-329.39682369
 20
73.3121289
 30
0.0
 11
-329.34548995
 21
71.35177261
 31
0.0
  0
LINE
  5
48F
100
AcDbEntity
  8
LAYER0001
  6
CONTINUOUS
 62
       7
100
AcDbLine
 10
-339.40467543
 20
222.91203183
 30
0.0
 11
-279.40468031
 21
222.91203183
 31
0.0
  0
LINE
  5
490
100
AcDbEntity
  8
LAYER0001
  6
CONTINUOUS
 62
       7
100
AcDbLine
 10
-322.07182754
 20
66.71672459
 30
0.0
 11
-321.4215278
 21
48.09457635
 31
0.0
  0
LINE
  5
491
100
AcDbEntity
  8
LAYER0001
  6
CONTINUOUS
 62
       7
100
AcDbLine
 10
-339.40467431
 20
221.61202226
 30
0.0
 11
-279.4046779
 21
221.61202226
 31
0.0
  0
LINE
  5
492
100
AcDbEntity
  8
LAYER0001
  6
CONTINUOUS
 62
       7
100
AcDbLine
 10
-339.40467401
 20
261.56263747
 30
0.0
 11
-339.40467721
 21
254.91204001
 31
0.0
  0
LINE
  5
493
100
AcDbEntity
  8
LAYER0001
  6
CONTINUOUS
 62
       7
100
AcDbLine
 10
-339.40467543
 20
190.91202659
 30
0.0
 11
-279.40467677
 21
190.91202659
 31
0.0
  0
LINE
  5
494
100
AcDbEntity
  8
LAYER0001
  6
CONTINUOUS
 62
       7
100
AcDbLine
 10
-309.40467677
 20
47.6120261
 30
0.0
 11
-320.92183238
 21
47.6120261
 31
0.0
  0
LINE
  5
495
100
AcDbEntity
  8
LAYER0001
  6
CONTINUOUS
 62
       7
100
AcDbLine
 10
-279.40467677
 20
190.91202659
 30
0.0
 11
-279.4046779
 21
221.61202226
 31
0.0
  0
LINE
  5
496
100
AcDbEntity
  8
LAYER0001
  6
CONTINUOUS
 62
       7
100
AcDbLine
 10
-339.40467784
 20
253.61201384
 30
0.0
 11
-279.40467862
 21
253.61197477
 31
0.0
  0
LINE
  5
497
100
AcDbEntity
  8
LAYER0001
  6
CONTINUOUS
 62
       7
100
AcDbLine
 10
-289.46386359
 20
71.35177261
 30
0.0
 11
-289.41252986
 21
73.3121289
 31
0.0
  0
LINE
  5
498
100
AcDbEntity
  8
LAYER0001
  6
CONTINUOUS
 62
       7
100
AcDbLine
 10
-339.40467431
 20
189.61203192
 30
0.0
 11
-279.4046779
 21
189.61203192
 31
0.0
  0
LINE
  5
499
100
AcDbEntity
  8
LAYER0001
  6
CONTINUOUS
 62
       7
100
AcDbLine
 10
-309.40467677
 20
73.3121289
 30
0.0
 11
-329.39682369
 21
73.3121289
 31
0.0
  0
LINE
  5
49A
100
AcDbEntity
  8
LAYER0001
  6
CONTINUOUS
 62
       7
100
AcDbLine
 10
-339.40467431
 20
189.61203192
 30
0.0
 11
-339.40467543
 21
158.91203624
 31
0.0
  0
LINE
  5
49B
100
AcDbEntity
  8
LAYER0001
  6
CONTINUOUS
 62
       7
100
AcDbLine
 10
-279.40467855
 20
254.912022
 30
0.0
 11
-279.40467819
 21
261.56263694
 31
0.0
  0
LINE
  5
49C
100
AcDbEntity
  8
LAYER0001
  6
CONTINUOUS
 62
       7
100
AcDbLine
 10
-289.41252986
 20
73.3121289
 30
0.0
 11
-289.69712167
 21
73.6120261
 31
0.0
  0
LINE
  5
49D
100
AcDbEntity
  8
LAYER0001
  6
CONTINUOUS
 62
       7
100
AcDbLine
 10
-339.40467431
 20
157.61202667
 30
0.0
 11
-339.40467543
 21
126.912031
 31
0.0
  0
LINE
  5
49E
100
AcDbEntity
  8
LAYER0001
  6
CONTINUOUS
 62
       7
100
AcDbLine
 10
-339.40467543
 20
93.6120261
 30
0.0
 11
-339.40467677
 21
91.44479593
 31
0.0
  0
LINE
  5
49F
100
AcDbEntity
  8
LAYER0001
  6
CONTINUOUS
 62
       7
100
AcDbLine
 10
-309.40467677
 20
73.6120261
 30
0.0
 11
-329.40467677
 21
73.6120261
 31
0.0
  0
LINE
  5
4A0
100
AcDbEntity
  8
LAYER0001
  6
CONTINUOUS
 62
       7
100
AcDbLine
 10
-137.28166193
 20
158.91203624
 30
0.0
 11
-137.28166306
 21
189.61203192
 31
0.0
  0
LINE
  5
4A1
100
AcDbEntity
  8
LAYER0001
  6
CONTINUOUS
 62
       7
100
AcDbLine
 10
-197.28165947
 20
157.61202667
 30
0.0
 11
-137.28166306
 21
157.61202667
 31
0.0
  0
LINE
  5
4A2
100
AcDbEntity
  8
LAYER0001
  6
CONTINUOUS
 62
       7
100
AcDbLine
 10
-148.73995901
 20
69.75847271
 30
0.0
 11
-147.48712402
 21
71.01130769
 31
0.0
  0
LINE
  5
4A3
100
AcDbEntity
  8
LAYER0001
  6
CONTINUOUS
 62
       7
100
AcDbLine
 10
-137.28166193
 20
93.6120261
 30
0.0
 11
-197.28166059
 21
93.6120261
 31
0.0
  0
LINE
  5
4A4
100
AcDbEntity
  8
LAYER0001
  6
CONTINUOUS
 62
       7
100
AcDbLine
 10
-149.0935124
 20
69.6120261
 30
0.0
 11
-185.46981146
 21
69.6120261
 31
0.0
  0
LINE
  5
4A5
100
AcDbEntity
  8
LAYER0001
  6
CONTINUOUS
 62
       7
100
AcDbLine
 10
-137.28166193
 20
126.912031
 30
0.0
 11
-137.28166306
 21
157.61202667
 31
0.0
  0
LINE
  5
4A6
100
AcDbEntity
  8
LAYER0001
  6
CONTINUOUS
 62
       7
100
AcDbLine
 10
-197.28166059
 20
94.91202575
 30
0.0
 11
-137.28166193
 21
94.91202575
 31
0.0
  0
LINE
  5
4A7
100
AcDbEntity
  8
LAYER0001
  6
CONTINUOUS
 62
       7
100
AcDbLine
 10
-186.98921703
 20
73.6120261
 30
0.0
 11
-187.27380885
 21
73.3121289
 31
0.0
  0
LINE
  5
4A8
100
AcDbEntity
  8
LAYER0001
  6
CONTINUOUS
 62
       7
100
AcDbLine
 10
-197.28165947
 20
125.61202143
 30
0.0
 11
-137.28166306
 21
125.61202143
 31
0.0
  0
LINE
  5
4A9
100
AcDbEntity
  8
LAYER0001
  6
CONTINUOUS
 62
       7
100
AcDbLine
 10
-197.28165947
 20
125.61202143
 30
0.0
 11
-197.28166059
 21
94.91202575
 31
0.0
  0
LINE
  5
4AA
100
AcDbEntity
  8
LAYER0001
  6
CONTINUOUS
 62
       7
100
AcDbLine
 10
-197.28166059
 20
126.912031
 30
0.0
 11
-137.28166193
 21
126.912031
 31
0.0
  0
LINE
  5
4AB
100
AcDbEntity
  8
LAYER0001
  6
CONTINUOUS
 62
       7
100
AcDbLine
 10
-155.26481091
 20
48.09457635
 30
0.0
 11
-154.61451116
 21
66.71672459
 31
0.0
  0
LINE
  5
4AC
100
AcDbEntity
  8
LAYER0001
  6
CONTINUOUS
 62
       7
100
AcDbLine
 10
-137.28166193
 20
94.91202575
 30
0.0
 11
-137.28166306
 21
125.61202143
 31
0.0
  0
LINE
  5
4AD
100
AcDbEntity
  8
LAYER0001
  6
CONTINUOUS
 62
       7
100
AcDbLine
 10
-155.76450632
 20
47.6120261
 30
0.0
 11
-167.28166193
 21
47.6120261
 31
0.0
  0
LINE
  5
4AE
100
AcDbEntity
  8
LAYER0001
  6
CONTINUOUS
 62
       7
100
AcDbLine
 10
-137.28166547
 20
222.91203183
 30
0.0
 11
-137.28166378
 21
253.61197477
 31
0.0
  0
LINE
  5
4AF
100
AcDbEntity
  8
LAYER0001
  6
CONTINUOUS
 62
       7
100
AcDbLine
 10
-137.28166193
 20
91.44479593
 30
0.0
 11
-137.28166193
 21
93.6120261
 31
0.0
  0
LINE
  5
4B0
100
AcDbEntity
  8
LAYER0001
  6
CONTINUOUS
 62
       7
100
AcDbLine
 10
-187.07619984
 20
71.01130769
 30
0.0
 11
-185.82336486
 21
69.75847271
 31
0.0
  0
LINE
  5
4B1
100
AcDbEntity
  8
LAYER0001
  6
CONTINUOUS
 62
       7
100
AcDbLine
 10
-197.28166059
 20
158.91203624
 30
0.0
 11
-137.28166193
 21
158.91203624
 31
0.0
  0
LINE
  5
4B2
100
AcDbEntity
  8
LAYER0001
  6
CONTINUOUS
 62
       7
100
AcDbLine
 10
-197.28165947
 20
221.61202226
 30
0.0
 11
-197.28166059
 21
190.91202659
 31
0.0
  0
LINE
  5
4B3
100
AcDbEntity
  8
LAYER0001
  6
CONTINUOUS
 62
       7
100
AcDbLine
 10
-137.28166371
 20
254.912022
 30
0.0
 11
-197.28166237
 21
254.91204001
 31
0.0
  0
LINE
  5
4B4
100
AcDbEntity
  8
LAYER0001
  6
CONTINUOUS
 62
       7
100
AcDbLine
 10
-147.28951502
 20
73.3121289
 30
0.0
 11
-167.28166193
 21
73.3121289
 31
0.0
  0
LINE
  5
4B5
100
AcDbEntity
  8
LAYER0001
  6
CONTINUOUS
 62
       7
100
AcDbLine
 10
-197.281663
 20
253.61201384
 30
0.0
 11
-197.28167776
 21
222.91203183
 31
0.0
  0
LINE
  5
4B6
100
AcDbEntity
  8
LAYER0001
  6
CONTINUOUS
 62
       7
100
AcDbLine
 10
-159.25419227
 20
265.19707445
 30
0.0
 11
-175.30913026
 21
265.19707445
 31
0.0
  0
LINE
  5
4B7
100
AcDbEntity
  8
LAYER0001
  6
CONTINUOUS
 62
       7
100
AcDbLine
 10
-147.28166193
 20
73.6120261
 30
0.0
 11
-167.28166193
 21
73.6120261
 31
0.0
  0
LINE
  5
4B8
100
AcDbEntity
  8
LAYER0001
  6
CONTINUOUS
 62
       7
100
AcDbLine
 10
-187.27380885
 20
73.3121289
 30
0.0
 11
-187.22247511
 21
71.35177261
 31
0.0
  0
LINE
  5
4B9
100
AcDbEntity
  8
LAYER0001
  6
CONTINUOUS
 62
       7
100
AcDbLine
 10
-197.28166059
 20
222.91203183
 30
0.0
 11
-137.28166547
 21
222.91203183
 31
0.0
  0
LINE
  5
4BA
100
AcDbEntity
  8
LAYER0001
  6
CONTINUOUS
 62
       7
100
AcDbLine
 10
-179.9488127
 20
66.71672459
 30
0.0
 11
-179.29851296
 21
48.09457635
 31
0.0
  0
LINE
  5
4BB
100
AcDbEntity
  8
LAYER0001
  6
CONTINUOUS
 62
       7
100
AcDbLine
 10
-197.28165947
 20
221.61202226
 30
0.0
 11
-137.28166306
 21
221.61202226
 31
0.0
  0
LINE
  5
4BC
100
AcDbEntity
  8
LAYER0001
  6
CONTINUOUS
 62
       7
100
AcDbLine
 10
-197.28165917
 20
261.56263747
 30
0.0
 11
-197.28166237
 21
254.91204001
 31
0.0
  0
LINE
  5
4BD
100
AcDbEntity
  8
LAYER0001
  6
CONTINUOUS
 62
       7
100
AcDbLine
 10
-197.28166059
 20
190.91202659
 30
0.0
 11
-137.28166193
 21
190.91202659
 31
0.0
  0
LINE
  5
4BE
100
AcDbEntity
  8
LAYER0001
  6
CONTINUOUS
 62
       7
100
AcDbLine
 10
-167.28166193
 20
47.6120261
 30
0.0
 11
-178.79881754
 21
47.6120261
 31
0.0
  0
LINE
  5
4BF
100
AcDbEntity
  8
LAYER0001
  6
CONTINUOUS
 62
       7
100
AcDbLine
 10
-137.28166193
 20
190.91202659
 30
0.0
 11
-137.28166306
 21
221.61202226
 31
0.0
  0
LINE
  5
4C0
100
AcDbEntity
  8
LAYER0001
  6
CONTINUOUS
 62
       7
100
AcDbLine
 10
-197.281663
 20
253.61201384
 30
0.0
 11
-137.28166378
 21
253.61197477
 31
0.0
  0
LINE
  5
4C1
100
AcDbEntity
  8
LAYER0001
  6
CONTINUOUS
 62
       7
100
AcDbLine
 10
-147.34084875
 20
71.35177261
 30
0.0
 11
-147.28951502
 21
73.3121289
 31
0.0
  0
LINE
  5
4C2
100
AcDbEntity
  8
LAYER0001
  6
CONTINUOUS
 62
       7
100
AcDbLine
 10
-197.28165947
 20
189.61203192
 30
0.0
 11
-137.28166306
 21
189.61203192
 31
0.0
  0
LINE
  5
4C3
100
AcDbEntity
  8
LAYER0001
  6
CONTINUOUS
 62
       7
100
AcDbLine
 10
-167.28166193
 20
73.3121289
 30
0.0
 11
-187.27380885
 21
73.3121289
 31
0.0
  0
LINE
  5
4C4
100
AcDbEntity
  8
LAYER0001
  6
CONTINUOUS
 62
       7
100
AcDbLine
 10
-197.28165947
 20
189.61203192
 30
0.0
 11
-197.28166059
 21
158.91203624
 31
0.0
  0
LINE
  5
4C5
100
AcDbEntity
  8
LAYER0001
  6
CONTINUOUS
 62
       7
100
AcDbLine
 10
-137.28166371
 20
254.912022
 30
0.0
 11
-137.28166335
 21
261.56263694
 31
0.0
  0
LINE
  5
4C6
100
AcDbEntity
  8
LAYER0001
  6
CONTINUOUS
 62
       7
100
AcDbLine
 10
-147.28951502
 20
73.3121289
 30
0.0
 11
-147.57410683
 21
73.6120261
 31
0.0
  0
LINE
  5
4C7
100
AcDbEntity
  8
LAYER0001
  6
CONTINUOUS
 62
       7
100
AcDbLine
 10
-197.28165947
 20
157.61202667
 30
0.0
 11
-197.28166059
 21
126.912031
 31
0.0
  0
LINE
  5
4C8
100
AcDbEntity
  8
LAYER0001
  6
CONTINUOUS
 62
       7
100
AcDbLine
 10
-197.28166059
 20
93.6120261
 30
0.0
 11
-197.28166193
 21
91.44479593
 31
0.0
  0
LINE
  5
4C9
100
AcDbEntity
  8
LAYER0001
  6
CONTINUOUS
 62
       7
100
AcDbLine
 10
-167.28166193
 20
73.6120261
 30
0.0
 11
-187.28166193
 21
73.6120261
 31
0.0
  0
LINE
  5
4CA
100
AcDbEntity
  8
LAYER0001
  6
CONTINUOUS
 62
       7
100
AcDbLine
 10
134.16221809
 20
166.15830809
 30
0.0
 11
134.16221697
 21
196.85830376
 31
0.0
  0
LINE
  5
4CB
100
AcDbEntity
  8
LAYER0001
  6
CONTINUOUS
 62
       7
100
AcDbLine
 10
74.16222056
 20
164.85829852
 30
0.0
 11
134.16221697
 21
164.85829852
 31
0.0
  0
LINE
  5
4CC
100
AcDbEntity
  8
LAYER0001
  6
CONTINUOUS
 62
       7
100
AcDbLine
 10
-309.40467698
 20
-224.58801442
 30
0.0
 11
-262.40991262
 21
-224.58801442
 31
0.0
  0
LINE
  5
4CD
100
AcDbEntity
  8
LAYER0001
  6
CONTINUOUS
 62
       7
100
AcDbLine
 10
-356.39944134
 20
-224.58801442
 30
0.0
 11
-309.40467698
 21
-224.58801442
 31
0.0
  0
LINE
  5
4CE
100
AcDbEntity
  8
LAYER0001
  6
CONTINUOUS
 62
       7
100
AcDbLine
 10
-262.69957629
 20
-224.8879748
 30
0.0
 11
-356.10977766
 21
-224.8879748
 31
0.0
  0
LINE
  5
4CF
100
AcDbEntity
  8
LAYER0001
  6
CONTINUOUS
 62
       7
100
AcDbLine
 10
122.70392102
 20
77.00474455
 30
0.0
 11
123.956756
 21
78.25757954
 31
0.0
  0
LINE
  5
4D0
100
AcDbEntity
  8
LAYER0001
  6
CONTINUOUS
 62
       7
100
AcDbLine
 10
134.1622181
 20
100.85829794
 30
0.0
 11
74.16221944
 21
100.85829794
 31
0.0
  0
LINE
  5
4D1
100
AcDbEntity
  8
LAYER0001
  6
CONTINUOUS
 62
       7
100
AcDbLine
 10
122.35036763
 20
76.85829794
 30
0.0
 11
85.97406856
 21
76.85829794
 31
0.0
  0
LINE
  5
4D2
100
AcDbEntity
  8
LAYER0001
  6
CONTINUOUS
 62
       7
100
AcDbLine
 10
134.16221809
 20
134.15830284
 30
0.0
 11
134.16221697
 21
164.85829852
 31
0.0
  0
LINE
  5
4D3
100
AcDbEntity
  8
LAYER0001
  6
CONTINUOUS
 62
       7
100
AcDbLine
 10
74.16221944
 20
102.1582976
 30
0.0
 11
134.16221809
 21
102.1582976
 31
0.0
  0
LINE
  5
4D4
100
AcDbEntity
  8
LAYER0001
  6
CONTINUOUS
 62
       7
100
AcDbLine
 10
84.45466299
 20
80.85829794
 30
0.0
 11
84.17007118
 21
80.55840075
 31
0.0
  0
LINE
  5
4D5
100
AcDbEntity
  8
LAYER0001
  6
CONTINUOUS
 62
       7
100
AcDbLine
 10
74.16222056
 20
132.85829327
 30
0.0
 11
134.16221697
 21
132.85829327
 31
0.0
  0
LINE
  5
4D6
100
AcDbEntity
  8
LAYER0001
  6
CONTINUOUS
 62
       7
100
AcDbLine
 10
74.16222056
 20
132.85829327
 30
0.0
 11
74.16221944
 21
102.1582976
 31
0.0
  0
LINE
  5
4D7
100
AcDbEntity
  8
LAYER0001
  6
CONTINUOUS
 62
       7
100
AcDbLine
 10
74.16221944
 20
134.15830284
 30
0.0
 11
134.16221809
 21
134.15830284
 31
0.0
  0
LINE
  5
4D8
100
AcDbEntity
  8
LAYER0001
  6
CONTINUOUS
 62
       7
100
AcDbLine
 10
116.17906912
 20
55.3408482
 30
0.0
 11
116.82936887
 21
73.96299643
 31
0.0
  0
LINE
  5
4D9
100
AcDbEntity
  8
LAYER0001
  6
CONTINUOUS
 62
       7
100
AcDbLine
 10
134.16221809
 20
102.1582976
 30
0.0
 11
134.16221697
 21
132.85829327
 31
0.0
  0
LINE
  5
4DA
100
AcDbEntity
  8
LAYER0001
  6
CONTINUOUS
 62
       7
100
AcDbLine
 10
115.67937371
 20
54.85829794
 30
0.0
 11
104.16221809
 21
54.85829794
 31
0.0
  0
LINE
  5
4DB
100
AcDbEntity
  8
LAYER0001
  6
CONTINUOUS
 62
       7
100
AcDbLine
 10
134.16221455
 20
230.15830368
 30
0.0
 11
134.16221624
 21
260.85824662
 31
0.0
  0
LINE
  5
4DC
100
AcDbEntity
  8
LAYER0001
  6
CONTINUOUS
 62
       7
100
AcDbLine
 10
134.1622181
 20
98.69106778
 30
0.0
 11
134.1622181
 21
100.85829794
 31
0.0
  0
LINE
  5
4DD
100
AcDbEntity
  8
LAYER0001
  6
CONTINUOUS
 62
       7
100
AcDbLine
 10
-309.40467698
 20
-171.8879717
 30
0.0
 11
-297.40467687
 21
-171.8879717
 31
0.0
  0
LINE
  5
4DE
100
AcDbEntity
  8
LAYER0001
  6
CONTINUOUS
 62
       7
100
AcDbLine
 10
-321.40467708
 20
-171.8879717
 30
0.0
 11
-309.40467698
 21
-171.8879717
 31
0.0
  0
LINE
  5
4DF
100
AcDbEntity
  8
LAYER0001
  6
CONTINUOUS
 62
       7
100
AcDbLine
 10
84.36768019
 20
78.25757954
 30
0.0
 11
85.62051517
 21
77.00474455
 31
0.0
  0
LINE
  5
4E0
100
AcDbEntity
  8
LAYER0001
  6
CONTINUOUS
 62
       7
100
AcDbLine
 10
74.16221944
 20
166.15830809
 30
0.0
 11
134.16221809
 21
166.15830809
 31
0.0
  0
LINE
  5
4E1
100
AcDbEntity
  8
LAYER0001
  6
CONTINUOUS
 62
       7
100
AcDbLine
 10
74.16222056
 20
228.85829411
 30
0.0
 11
74.16221944
 21
198.15829843
 31
0.0
  0
LINE
  5
4E2
100
AcDbEntity
  8
LAYER0001
  6
CONTINUOUS
 62
       7
100
AcDbLine
 10
134.16221631
 20
262.15829384
 30
0.0
 11
74.16221765
 21
262.15831185
 31
0.0
  0
LINE
  5
4E3
100
AcDbEntity
  8
LAYER0001
  6
CONTINUOUS
 62
       7
100
AcDbLine
 10
124.15436501
 20
80.55840075
 30
0.0
 11
104.16221809
 21
80.55840075
 31
0.0
  0
LINE
  5
4E4
100
AcDbEntity
  8
LAYER0001
  6
CONTINUOUS
 62
       7
100
AcDbLine
 10
74.16221703
 20
260.85828568
 30
0.0
 11
74.16220227
 21
230.15830368
 31
0.0
  0
LINE
  5
4E5
100
AcDbEntity
  8
LAYER0001
  6
CONTINUOUS
 62
       7
100
AcDbLine
 10
112.18968776
 20
272.44334629
 30
0.0
 11
96.13474977
 21
272.44334629
 31
0.0
  0
LINE
  5
4E6
100
AcDbEntity
  8
LAYER0001
  6
CONTINUOUS
 62
       7
100
AcDbLine
 10
124.1622181
 20
80.85829794
 30
0.0
 11
104.1622181
 21
80.85829794
 31
0.0
  0
LINE
  5
4E7
100
AcDbEntity
  8
LAYER0001
  6
CONTINUOUS
 62
       7
100
AcDbLine
 10
84.17007118
 20
80.55840075
 30
0.0
 11
84.22140492
 21
78.59804445
 31
0.0
  0
LINE
  5
4E8
100
AcDbEntity
  8
LAYER0001
  6
CONTINUOUS
 62
       7
100
AcDbLine
 10
74.16221944
 20
230.15830368
 30
0.0
 11
134.16221455
 21
230.15830368
 31
0.0
  0
LINE
  5
4E9
100
AcDbEntity
  8
LAYER0001
  6
CONTINUOUS
 62
       7
100
AcDbLine
 10
91.49506732
 20
73.96299643
 30
0.0
 11
92.14536707
 21
55.3408482
 31
0.0
  0
LINE
  5
4EA
100
AcDbEntity
  8
LAYER0001
  6
CONTINUOUS
 62
       7
100
AcDbLine
 10
74.16222056
 20
228.85829411
 30
0.0
 11
134.16221697
 21
228.85829411
 31
0.0
  0
LINE
  5
4EB
100
AcDbEntity
  8
LAYER0001
  6
CONTINUOUS
 62
       7
100
AcDbLine
 10
74.16222085
 20
268.80890932
 30
0.0
 11
74.16221765
 21
262.15831185
 31
0.0
  0
LINE
  5
4EC
100
AcDbEntity
  8
LAYER0001
  6
CONTINUOUS
 62
       7
100
AcDbLine
 10
74.16221944
 20
198.15829843
 30
0.0
 11
134.16221809
 21
198.15829843
 31
0.0
  0
LINE
  5
4ED
100
AcDbEntity
  8
LAYER0001
  6
CONTINUOUS
 62
       7
100
AcDbLine
 10
279.05823387
 20
-220.64169413
 30
0.0
 11
279.05823387
 21
-219.04169685
 31
0.0
  0
LINE
  5
4EE
100
AcDbEntity
  8
LAYER0001
  6
CONTINUOUS
 62
       7
100
AcDbLine
 10
251.05823301
 20
-219.04169685
 30
0.0
 11
251.05823301
 21
-220.64169413
 31
0.0
  0
LINE
  5
4EF
100
AcDbEntity
  8
LAYER0001
  6
CONTINUOUS
 62
       7
100
AcDbLine
 10
279.05823387
 20
-225.24171239
 30
0.0
 11
279.05823387
 21
-223.64171511
 31
0.0
  0
LINE
  5
4F0
100
AcDbEntity
  8
LAYER0001
  6
CONTINUOUS
 62
       7
100
AcDbLine
 10
251.05823301
 20
-223.64171511
 30
0.0
 11
251.05823301
 21
-225.24171239
 31
0.0
  0
LINE
  5
4F1
100
AcDbEntity
  8
LAYER0001
  6
CONTINUOUS
 62
       7
100
AcDbLine
 10
273.70823365
 20
-206.141702
 30
0.0
 11
273.70823365
 21
54.85829794
 31
0.0
  0
LINE
  5
4F2
100
AcDbEntity
  8
LAYER0001
  6
CONTINUOUS
 62
       7
100
AcDbLine
 10
256.40823323
 20
54.85829794
 30
0.0
 11
256.40823323
 21
-206.141702
 31
0.0
  0
LINE
  5
4F3
100
AcDbEntity
  8
LAYER0001
  6
CONTINUOUS
 62
       7
100
AcDbLine
 10
256.40823323
 20
-206.141702
 30
0.0
 11
257.38403997
 21
-207.11751944
 31
0.0
  0
LINE
  5
4F4
100
AcDbEntity
  8
LAYER0001
  6
CONTINUOUS
 62
       7
100
AcDbLine
 10
272.73242692
 20
-207.11751944
 30
0.0
 11
273.70823365
 21
-206.141702
 31
0.0
  0
LINE
  5
4F5
100
AcDbEntity
  8
LAYER0001
  6
CONTINUOUS
 62
       7
100
AcDbLine
 10
273.5582339
 20
-210.89171535
 30
0.0
 11
272.7582334
 21
-210.1417101
 31
0.0
  0
LINE
  5
4F6
100
AcDbEntity
  8
LAYER0001
  6
CONTINUOUS
 62
       7
100
AcDbLine
 10
257.35823348
 20
-210.1417101
 30
0.0
 11
256.55823298
 21
-210.89171535
 31
0.0
  0
LINE
  5
4F7
100
AcDbEntity
  8
LAYER0001
  6
CONTINUOUS
 62
       7
100
AcDbLine
 10
273.55823395
 20
-233.39169389
 30
0.0
 11
272.86490014
 21
-232.74170524
 31
0.0
  0
LINE
  5
4F8
100
AcDbEntity
  8
LAYER0001
  6
CONTINUOUS
 62
       7
100
AcDbLine
 10
257.25156678
 20
-232.74170524
 30
0.0
 11
256.55823298
 21
-233.39169389
 31
0.0
  0
LINE
  5
4F9
100
AcDbEntity
  8
LAYER0001
  6
CONTINUOUS
 62
       7
100
AcDbLine
 10
256.55823298
 20
-239.39170605
 30
0.0
 11
257.35823348
 21
-240.1417113
 31
0.0
  0
LINE
  5
4FA
100
AcDbEntity
  8
LAYER0001
  6
CONTINUOUS
 62
       7
100
AcDbLine
 10
272.75823344
 20
-240.14171129
 30
0.0
 11
273.55823395
 21
-239.39170605
 31
0.0
  0
LINE
  5
4FB
100
AcDbEntity
  8
LAYER0001
  6
CONTINUOUS
 62
       7
100
AcDbLine
 10
256.55823298
 20
-234.89170438
 30
0.0
 11
257.35823348
 21
-235.64170963
 31
0.0
  0
LINE
  5
4FC
100
AcDbEntity
  8
LAYER0001
  6
CONTINUOUS
 62
       7
100
AcDbLine
 10
272.75823344
 20
-235.64170963
 30
0.0
 11
273.55823395
 21
-234.89170438
 31
0.0
  0
LINE
  5
4FD
100
AcDbEntity
  8
LAYER0001
  6
CONTINUOUS
 62
       7
100
AcDbLine
 10
273.55823395
 20
-236.39171487
 30
0.0
 11
272.75823344
 21
-235.64170963
 31
0.0
  0
LINE
  5
4FE
100
AcDbEntity
  8
LAYER0001
  6
CONTINUOUS
 62
       7
100
AcDbLine
 10
257.35823348
 20
-235.64170963
 30
0.0
 11
256.55823298
 21
-236.39171487
 31
0.0
  0
LINE
  5
4FF
100
AcDbEntity
  8
LAYER0001
  6
CONTINUOUS
 62
       7
100
AcDbLine
 10
256.55823298
 20
-236.39171487
 30
0.0
 11
257.35823348
 21
-237.14169031
 31
0.0
  0
LINE
  5
500
100
AcDbEntity
  8
LAYER0001
  6
CONTINUOUS
 62
       7
100
AcDbLine
 10
272.75823344
 20
-237.14169031
 30
0.0
 11
273.55823395
 21
-236.39171487
 31
0.0
  0
LINE
  5
501
100
AcDbEntity
  8
LAYER0001
  6
CONTINUOUS
 62
       7
100
AcDbLine
 10
256.55823298
 20
-243.89170772
 30
0.0
 11
257.35823348
 21
-244.64171296
 31
0.0
  0
LINE
  5
502
100
AcDbEntity
  8
LAYER0001
  6
CONTINUOUS
 62
       7
100
AcDbLine
 10
272.75823344
 20
-244.64171296
 30
0.0
 11
273.55823395
 21
-243.89170772
 31
0.0
  0
LINE
  5
503
100
AcDbEntity
  8
LAYER0001
  6
CONTINUOUS
 62
       7
100
AcDbLine
 10
256.55823298
 20
-233.39169389
 30
0.0
 11
257.35823348
 21
-234.14169914
 31
0.0
  0
LINE
  5
504
100
AcDbEntity
  8
LAYER0001
  6
CONTINUOUS
 62
       7
100
AcDbLine
 10
272.75823344
 20
-234.14169914
 30
0.0
 11
273.55823395
 21
-233.39169389
 31
0.0
  0
LINE
  5
505
100
AcDbEntity
  8
LAYER0001
  6
CONTINUOUS
 62
       7
100
AcDbLine
 10
273.55823395
 20
-234.89170438
 30
0.0
 11
272.75823344
 21
-234.14169914
 31
0.0
  0
LINE
  5
506
100
AcDbEntity
  8
LAYER0001
  6
CONTINUOUS
 62
       7
100
AcDbLine
 10
257.35823348
 20
-234.14169914
 30
0.0
 11
256.55823298
 21
-234.89170438
 31
0.0
  0
LINE
  5
507
100
AcDbEntity
  8
LAYER0001
  6
CONTINUOUS
 62
       7
100
AcDbLine
 10
273.55823395
 20
-237.89169556
 30
0.0
 11
272.75823344
 21
-237.14169031
 31
0.0
  0
LINE
  5
508
100
AcDbEntity
  8
LAYER0001
  6
CONTINUOUS
 62
       7
100
AcDbLine
 10
257.35823348
 20
-237.14169031
 30
0.0
 11
256.55823298
 21
-237.89169556
 31
0.0
  0
LINE
  5
509
100
AcDbEntity
  8
LAYER0001
  6
CONTINUOUS
 62
       7
100
AcDbLine
 10
273.55823395
 20
-239.39170605
 30
0.0
 11
272.75823344
 21
-238.6417008
 31
0.0
  0
LINE
  5
50A
100
AcDbEntity
  8
LAYER0001
  6
CONTINUOUS
 62
       7
100
AcDbLine
 10
257.35823348
 20
-238.6417008
 30
0.0
 11
256.55823298
 21
-239.39170605
 31
0.0
  0
LINE
  5
50B
100
AcDbEntity
  8
LAYER0001
  6
CONTINUOUS
 62
       7
100
AcDbLine
 10
273.5582339
 20
-207.89169437
 30
0.0
 11
272.73242692
 21
-207.11751944
 31
0.0
  0
LINE
  5
50C
100
AcDbEntity
  8
LAYER0001
  6
CONTINUOUS
 62
       7
100
AcDbLine
 10
257.38403997
 20
-207.11751944
 30
0.0
 11
256.55823298
 21
-207.89169437
 31
0.0
  0
LINE
  5
50D
100
AcDbEntity
  8
LAYER0001
  6
CONTINUOUS
 62
       7
100
AcDbLine
 10
273.55823395
 20
-240.89168674
 30
0.0
 11
272.75823344
 21
-240.14171129
 31
0.0
  0
LINE
  5
50E
100
AcDbEntity
  8
LAYER0001
  6
CONTINUOUS
 62
       7
100
AcDbLine
 10
257.35823348
 20
-240.1417113
 30
0.0
 11
256.55823298
 21
-240.89168674
 31
0.0
  0
LINE
  5
50F
100
AcDbEntity
  8
LAYER0001
  6
CONTINUOUS
 62
       7
100
AcDbLine
 10
273.55823395
 20
-243.89170772
 30
0.0
 11
272.75823344
 21
-243.14170247
 31
0.0
  0
LINE
  5
510
100
AcDbEntity
  8
LAYER0001
  6
CONTINUOUS
 62
       7
100
AcDbLine
 10
257.35823348
 20
-243.14170247
 30
0.0
 11
256.55823298
 21
-243.89170772
 31
0.0
  0
LINE
  5
511
100
AcDbEntity
  8
LAYER0001
  6
CONTINUOUS
 62
       7
100
AcDbLine
 10
256.55823298
 20
-240.89168674
 30
0.0
 11
257.35823348
 21
-241.64169198
 31
0.0
  0
LINE
  5
512
100
AcDbEntity
  8
LAYER0001
  6
CONTINUOUS
 62
       7
100
AcDbLine
 10
272.75823344
 20
-241.64169198
 30
0.0
 11
273.55823395
 21
-240.89168674
 31
0.0
  0
LINE
  5
513
100
AcDbEntity
  8
LAYER0001
  6
CONTINUOUS
 62
       7
100
AcDbLine
 10
256.55823298
 20
-210.89171535
 30
0.0
 11
257.25156678
 21
-211.541704
 31
0.0
  0
LINE
  5
514
100
AcDbEntity
  8
LAYER0001
  6
CONTINUOUS
 62
       7
100
AcDbLine
 10
272.8649001
 20
-211.541704
 30
0.0
 11
273.5582339
 21
-210.89171535
 31
0.0
  0
LINE
  5
515
100
AcDbEntity
  8
LAYER0001
  6
CONTINUOUS
 62
       7
100
AcDbLine
 10
273.55823395
 20
-242.39169723
 30
0.0
 11
272.75823344
 21
-241.64169198
 31
0.0
  0
LINE
  5
516
100
AcDbEntity
  8
LAYER0001
  6
CONTINUOUS
 62
       7
100
AcDbLine
 10
257.35823348
 20
-241.64169198
 30
0.0
 11
256.55823298
 21
-242.39169723
 31
0.0
  0
LINE
  5
517
100
AcDbEntity
  8
LAYER0001
  6
CONTINUOUS
 62
       7
100
AcDbLine
 10
273.55823395
 20
-246.8916989
 30
0.0
 11
272.75823344
 21
-246.14169365
 31
0.0
  0
LINE
  5
518
100
AcDbEntity
  8
LAYER0001
  6
CONTINUOUS
 62
       7
100
AcDbLine
 10
257.35823348
 20
-246.14169365
 30
0.0
 11
256.55823298
 21
-246.8916989
 31
0.0
  0
LINE
  5
519
100
AcDbEntity
  8
LAYER0001
  6
CONTINUOUS
 62
       7
100
AcDbLine
 10
256.55823298
 20
-209.39170486
 30
0.0
 11
257.35823348
 21
-210.1417101
 31
0.0
  0
LINE
  5
51A
100
AcDbEntity
  8
LAYER0001
  6
CONTINUOUS
 62
       7
100
AcDbLine
 10
272.7582334
 20
-210.1417101
 30
0.0
 11
273.5582339
 21
-209.39170486
 31
0.0
  0
LINE
  5
51B
100
AcDbEntity
  8
LAYER0001
  6
CONTINUOUS
 62
       7
100
AcDbLine
 10
256.55823298
 20
-237.89169556
 30
0.0
 11
257.35823348
 21
-238.6417008
 31
0.0
  0
LINE
  5
51C
100
AcDbEntity
  8
LAYER0001
  6
CONTINUOUS
 62
       7
100
AcDbLine
 10
272.75823344
 20
-238.6417008
 30
0.0
 11
273.55823395
 21
-237.89169556
 31
0.0
  0
LINE
  5
51D
100
AcDbEntity
  8
LAYER0001
  6
CONTINUOUS
 62
       7
100
AcDbLine
 10
273.5582339
 20
-209.39170486
 30
0.0
 11
272.7582334
 21
-208.64169961
 31
0.0
  0
LINE
  5
51E
100
AcDbEntity
  8
LAYER0001
  6
CONTINUOUS
 62
       7
100
AcDbLine
 10
257.35823348
 20
-208.64169961
 30
0.0
 11
256.55823298
 21
-209.39170486
 31
0.0
  0
LINE
  5
51F
100
AcDbEntity
  8
LAYER0001
  6
CONTINUOUS
 62
       7
100
AcDbLine
 10
256.55823298
 20
-207.89169437
 30
0.0
 11
257.35823348
 21
-208.64169961
 31
0.0
  0
LINE
  5
520
100
AcDbEntity
  8
LAYER0001
  6
CONTINUOUS
 62
       7
100
AcDbLine
 10
272.7582334
 20
-208.64169961
 30
0.0
 11
273.5582339
 21
-207.89169437
 31
0.0
  0
LINE
  5
521
100
AcDbEntity
  8
LAYER0001
  6
CONTINUOUS
 62
       7
100
AcDbLine
 10
256.55823298
 20
-248.39170939
 30
0.0
 11
257.35823348
 21
-249.14171463
 31
0.0
  0
LINE
  5
522
100
AcDbEntity
  8
LAYER0001
  6
CONTINUOUS
 62
       7
100
AcDbLine
 10
272.75823344
 20
-249.14171463
 30
0.0
 11
273.55823395
 21
-248.39170939
 31
0.0
  0
LINE
  5
523
100
AcDbEntity
  8
LAYER0001
  6
CONTINUOUS
 62
       7
100
AcDbLine
 10
256.55823298
 20
-246.8916989
 30
0.0
 11
257.35823348
 21
-247.64170414
 31
0.0
  0
LINE
  5
524
100
AcDbEntity
  8
LAYER0001
  6
CONTINUOUS
 62
       7
100
AcDbLine
 10
272.75823344
 20
-247.64170414
 30
0.0
 11
273.55823395
 21
-246.8916989
 31
0.0
  0
LINE
  5
525
100
AcDbEntity
  8
LAYER0001
  6
CONTINUOUS
 62
       7
100
AcDbLine
 10
273.55823395
 20
-245.39168841
 30
0.0
 11
272.75823344
 21
-244.64171296
 31
0.0
  0
LINE
  5
526
100
AcDbEntity
  8
LAYER0001
  6
CONTINUOUS
 62
       7
100
AcDbLine
 10
257.35823348
 20
-244.64171296
 30
0.0
 11
256.55823298
 21
-245.39168841
 31
0.0
  0
LINE
  5
527
100
AcDbEntity
  8
LAYER0001
  6
CONTINUOUS
 62
       7
100
AcDbLine
 10
273.55823395
 20
-248.39170939
 30
0.0
 11
272.75823344
 21
-247.64170414
 31
0.0
  0
LINE
  5
528
100
AcDbEntity
  8
LAYER0001
  6
CONTINUOUS
 62
       7
100
AcDbLine
 10
257.35823348
 20
-247.64170414
 30
0.0
 11
256.55823298
 21
-248.39170939
 31
0.0
  0
LINE
  5
529
100
AcDbEntity
  8
LAYER0001
  6
CONTINUOUS
 62
       7
100
AcDbLine
 10
256.55823298
 20
-242.39169723
 30
0.0
 11
257.35823348
 21
-243.14170247
 31
0.0
  0
LINE
  5
52A
100
AcDbEntity
  8
LAYER0001
  6
CONTINUOUS
 62
       7
100
AcDbLine
 10
272.75823344
 20
-243.14170247
 30
0.0
 11
273.55823395
 21
-242.39169723
 31
0.0
  0
LINE
  5
52B
100
AcDbEntity
  8
LAYER0001
  6
CONTINUOUS
 62
       7
100
AcDbLine
 10
256.55823298
 20
-245.39168841
 30
0.0
 11
257.35823348
 21
-246.14169365
 31
0.0
  0
LINE
  5
52C
100
AcDbEntity
  8
LAYER0001
  6
CONTINUOUS
 62
       7
100
AcDbLine
 10
272.75823344
 20
-246.14169365
 30
0.0
 11
273.55823395
 21
-245.39168841
 31
0.0
  0
LINE
  5
52D
100
AcDbEntity
  8
LAYER0001
  6
CONTINUOUS
 62
       7
100
AcDbLine
 10
272.75823344
 20
-250.14170176
 30
0.0
 11
272.75823344
 21
-249.14171463
 31
0.0
  0
LINE
  5
52E
100
AcDbEntity
  8
LAYER0001
  6
CONTINUOUS
 62
       7
100
AcDbLine
 10
257.35823348
 20
-249.14171463
 30
0.0
 11
257.35823348
 21
-250.14170176
 31
0.0
  0
LINE
  5
52F
100
AcDbEntity
  8
LAYER0001
  6
CONTINUOUS
 62
       7
100
AcDbLine
 10
258.10823361
 20
-250.64169532
 30
0.0
 11
258.19347616
 21
-250.87591177
 31
0.0
  0
LINE
  5
530
100
AcDbEntity
  8
LAYER0001
  6
CONTINUOUS
 62
       7
100
AcDbLine
 10
271.92299072
 20
-250.87591177
 30
0.0
 11
272.00823328
 21
-250.64169532
 31
0.0
  0
LINE
  5
531
100
AcDbEntity
  8
LAYER0001
  6
CONTINUOUS
 62
       7
100
AcDbLine
 10
104.16221809
 20
54.85829794
 30
0.0
 11
92.64506248
 21
54.85829794
 31
0.0
  0
LINE
  5
532
100
AcDbEntity
  8
LAYER0001
  6
CONTINUOUS
 62
       7
100
AcDbLine
 10
134.16221809
 20
198.15829843
 30
0.0
 11
134.16221697
 21
228.85829411
 31
0.0
  0
LINE
  5
533
100
AcDbEntity
  8
LAYER0001
  6
CONTINUOUS
 62
       7
100
AcDbLine
 10
74.16221703
 20
260.85828568
 30
0.0
 11
134.16221624
 21
260.85824662
 31
0.0
  0
LINE
  5
534
100
AcDbEntity
  8
LAYER0001
  6
CONTINUOUS
 62
       7
100
AcDbLine
 10
124.10303127
 20
78.59804445
 30
0.0
 11
124.15436501
 21
80.55840075
 31
0.0
  0
LINE
  5
535
100
AcDbEntity
  8
LAYER0001
  6
CONTINUOUS
 62
       7
100
AcDbLine
 10
74.16222056
 20
196.85830376
 30
0.0
 11
134.16221697
 21
196.85830376
 31
0.0
  0
LINE
  5
536
100
AcDbEntity
  8
LAYER0001
  6
CONTINUOUS
 62
       7
100
AcDbLine
 10
104.16221809
 20
80.55840075
 30
0.0
 11
84.17007118
 21
80.55840075
 31
0.0
  0
LINE
  5
537
100
AcDbEntity
  8
LAYER0001
  6
CONTINUOUS
 62
       7
100
AcDbLine
 10
74.16222056
 20
196.85830376
 30
0.0
 11
74.16221944
 21
166.15830809
 31
0.0
  0
LINE
  5
538
100
AcDbEntity
  8
LAYER0001
  6
CONTINUOUS
 62
       7
100
AcDbLine
 10
134.16221631
 20
262.15829384
 30
0.0
 11
134.16221668
 21
268.80890878
 31
0.0
  0
LINE
  5
539
100
AcDbEntity
  8
LAYER0001
  6
CONTINUOUS
 62
       7
100
AcDbLine
 10
124.15436501
 20
80.55840075
 30
0.0
 11
123.8697732
 21
80.85829794
 31
0.0
  0
LINE
  5
53A
100
AcDbEntity
  8
LAYER0001
  6
CONTINUOUS
 62
       7
100
AcDbLine
 10
74.16222056
 20
164.85829852
 30
0.0
 11
74.16221944
 21
134.15830284
 31
0.0
  0
LINE
  5
53B
100
AcDbEntity
  8
LAYER0001
  6
CONTINUOUS
 62
       7
100
AcDbLine
 10
74.16221944
 20
100.85829794
 30
0.0
 11
74.16221809
 21
98.69106778
 31
0.0
  0
LINE
  5
53C
100
AcDbEntity
  8
LAYER0001
  6
CONTINUOUS
 62
       7
100
AcDbLine
 10
104.1622181
 20
80.85829794
 30
0.0
 11
84.16221809
 21
80.85829794
 31
0.0
  0
LINE
  5
53D
100
AcDbEntity
  8
LAYER0001
  6
CONTINUOUS
 62
       7
100
AcDbLine
 10
295.05823365
 20
166.15830809
 30
0.0
 11
295.05823252
 21
196.85830376
 31
0.0
  0
LINE
  5
53E
100
AcDbEntity
  8
LAYER0001
  6
CONTINUOUS
 62
       7
100
AcDbLine
 10
235.05823611
 20
164.85829852
 30
0.0
 11
295.05823252
 21
164.85829852
 31
0.0
  0
LINE
  5
53F
100
AcDbEntity
  8
LAYER0001
  6
CONTINUOUS
 62
       7
100
AcDbLine
 10
283.59993657
 20
77.00474455
 30
0.0
 11
284.85277156
 21
78.25757954
 31
0.0
  0
LINE
  5
540
100
AcDbEntity
  8
LAYER0001
  6
CONTINUOUS
 62
       7
100
AcDbLine
 10
295.05823365
 20
100.85829794
 30
0.0
 11
235.05823499
 21
100.85829794
 31
0.0
  0
LINE
  5
541
100
AcDbEntity
  8
LAYER0001
  6
CONTINUOUS
 62
       7
100
AcDbLine
 10
283.24638318
 20
76.85829794
 30
0.0
 11
246.87008412
 21
76.85829794
 31
0.0
  0
LINE
  5
542
100
AcDbEntity
  8
LAYER0001
  6
CONTINUOUS
 62
       7
100
AcDbLine
 10
295.05823365
 20
134.15830284
 30
0.0
 11
295.05823252
 21
164.85829852
 31
0.0
  0
LINE
  5
543
100
AcDbEntity
  8
LAYER0001
  6
CONTINUOUS
 62
       7
100
AcDbLine
 10
235.05823499
 20
102.1582976
 30
0.0
 11
295.05823365
 21
102.1582976
 31
0.0
  0
LINE
  5
544
100
AcDbEntity
  8
LAYER0001
  6
CONTINUOUS
 62
       7
100
AcDbLine
 10
245.35067855
 20
80.85829794
 30
0.0
 11
245.06608673
 21
80.55840075
 31
0.0
  0
LINE
  5
545
100
AcDbEntity
  8
LAYER0001
  6
CONTINUOUS
 62
       7
100
AcDbLine
 10
235.05823611
 20
132.85829327
 30
0.0
 11
295.05823252
 21
132.85829327
 31
0.0
  0
LINE
  5
546
100
AcDbEntity
  8
LAYER0001
  6
CONTINUOUS
 62
       7
100
AcDbLine
 10
235.05823611
 20
132.85829327
 30
0.0
 11
235.05823499
 21
102.1582976
 31
0.0
  0
LINE
  5
547
100
AcDbEntity
  8
LAYER0001
  6
CONTINUOUS
 62
       7
100
AcDbLine
 10
235.05823499
 20
134.15830284
 30
0.0
 11
295.05823365
 21
134.15830284
 31
0.0
  0
LINE
  5
548
100
AcDbEntity
  8
LAYER0001
  6
CONTINUOUS
 62
       7
100
AcDbLine
 10
277.07508468
 20
55.3408482
 30
0.0
 11
277.72538442
 21
73.96299643
 31
0.0
  0
LINE
  5
549
100
AcDbEntity
  8
LAYER0001
  6
CONTINUOUS
 62
       7
100
AcDbLine
 10
295.05823365
 20
102.1582976
 30
0.0
 11
295.05823252
 21
132.85829327
 31
0.0
  0
LINE
  5
54A
100
AcDbEntity
  8
LAYER0001
  6
CONTINUOUS
 62
       7
100
AcDbLine
 10
276.57538926
 20
54.85829794
 30
0.0
 11
265.05823365
 21
54.85829794
 31
0.0
  0
LINE
  5
54B
100
AcDbEntity
  8
LAYER0001
  6
CONTINUOUS
 62
       7
100
AcDbLine
 10
295.05823011
 20
230.15830368
 30
0.0
 11
295.0582318
 21
260.85824662
 31
0.0
  0
LINE
  5
54C
100
AcDbEntity
  8
LAYER0001
  6
CONTINUOUS
 62
       7
100
AcDbLine
 10
295.05823365
 20
98.69106778
 30
0.0
 11
295.05823365
 21
100.85829794
 31
0.0
  0
LINE
  5
54D
100
AcDbEntity
  8
LAYER0001
  6
CONTINUOUS
 62
       7
100
AcDbLine
 10
245.26369574
 20
78.25757954
 30
0.0
 11
246.51653073
 21
77.00474455
 31
0.0
  0
LINE
  5
54E
100
AcDbEntity
  8
LAYER0001
  6
CONTINUOUS
 62
       7
100
AcDbLine
 10
235.05823499
 20
166.15830809
 30
0.0
 11
295.05823365
 21
166.15830809
 31
0.0
  0
LINE
  5
54F
100
AcDbEntity
  8
LAYER0001
  6
CONTINUOUS
 62
       7
100
AcDbLine
 10
235.05823611
 20
228.85829411
 30
0.0
 11
235.05823499
 21
198.15829843
 31
0.0
  0
LINE
  5
550
100
AcDbEntity
  8
LAYER0001
  6
CONTINUOUS
 62
       7
100
AcDbLine
 10
295.05823187
 20
262.15829384
 30
0.0
 11
235.05823321
 21
262.15831185
 31
0.0
  0
LINE
  5
551
100
AcDbEntity
  8
LAYER0001
  6
CONTINUOUS
 62
       7
100
AcDbLine
 10
285.05038056
 20
80.55840075
 30
0.0
 11
265.05823365
 21
80.55840075
 31
0.0
  0
LINE
  5
552
100
AcDbEntity
  8
LAYER0001
  6
CONTINUOUS
 62
       7
100
AcDbLine
 10
235.05823258
 20
260.85828568
 30
0.0
 11
235.05821782
 21
230.15830368
 31
0.0
  0
LINE
  5
553
100
AcDbEntity
  8
LAYER0001
  6
CONTINUOUS
 62
       7
100
AcDbLine
 10
273.08570331
 20
272.44334629
 30
0.0
 11
257.03076533
 21
272.44334629
 31
0.0
  0
LINE
  5
554
100
AcDbEntity
  8
LAYER0001
  6
CONTINUOUS
 62
       7
100
AcDbLine
 10
285.05823365
 20
80.85829794
 30
0.0
 11
265.05823365
 21
80.85829794
 31
0.0
  0
LINE
  5
555
100
AcDbEntity
  8
LAYER0001
  6
CONTINUOUS
 62
       7
100
AcDbLine
 10
245.06608673
 20
80.55840075
 30
0.0
 11
245.11742047
 21
78.59804445
 31
0.0
  0
LINE
  5
556
100
AcDbEntity
  8
LAYER0001
  6
CONTINUOUS
 62
       7
100
AcDbLine
 10
235.05823499
 20
230.15830368
 30
0.0
 11
295.05823011
 21
230.15830368
 31
0.0
  0
LINE
  5
557
100
AcDbEntity
  8
LAYER0001
  6
CONTINUOUS
 62
       7
100
AcDbLine
 10
252.39108288
 20
73.96299643
 30
0.0
 11
253.04138262
 21
55.3408482
 31
0.0
  0
LINE
  5
558
100
AcDbEntity
  8
LAYER0001
  6
CONTINUOUS
 62
       7
100
AcDbLine
 10
235.05823611
 20
228.85829411
 30
0.0
 11
295.05823252
 21
228.85829411
 31
0.0
  0
LINE
  5
559
100
AcDbEntity
  8
LAYER0001
  6
CONTINUOUS
 62
       7
100
AcDbLine
 10
235.05823641
 20
268.80890932
 30
0.0
 11
235.05823321
 21
262.15831185
 31
0.0
  0
LINE
  5
55A
100
AcDbEntity
  8
LAYER0001
  6
CONTINUOUS
 62
       7
100
AcDbLine
 10
235.05823499
 20
198.15829843
 30
0.0
 11
295.05823365
 21
198.15829843
 31
0.0
  0
LINE
  5
55B
100
AcDbEntity
  8
LAYER0001
  6
CONTINUOUS
 62
       7
100
AcDbLine
 10
265.05823365
 20
54.85829794
 30
0.0
 11
253.54107804
 21
54.85829794
 31
0.0
  0
LINE
  5
55C
100
AcDbEntity
  8
LAYER0001
  6
CONTINUOUS
 62
       7
100
AcDbLine
 10
295.05823365
 20
198.15829843
 30
0.0
 11
295.05823252
 21
228.85829411
 31
0.0
  0
LINE
  5
55D
100
AcDbEntity
  8
LAYER0001
  6
CONTINUOUS
 62
       7
100
AcDbLine
 10
235.05823258
 20
260.85828568
 30
0.0
 11
295.0582318
 21
260.85824662
 31
0.0
  0
LINE
  5
55E
100
AcDbEntity
  8
LAYER0001
  6
CONTINUOUS
 62
       7
100
AcDbLine
 10
284.99904683
 20
78.59804445
 30
0.0
 11
285.05038056
 21
80.55840075
 31
0.0
  0
LINE
  5
55F
100
AcDbEntity
  8
LAYER0001
  6
CONTINUOUS
 62
       7
100
AcDbLine
 10
235.05823611
 20
196.85830376
 30
0.0
 11
295.05823252
 21
196.85830376
 31
0.0
  0
LINE
  5
560
100
AcDbEntity
  8
LAYER0001
  6
CONTINUOUS
 62
       7
100
AcDbLine
 10
265.05823365
 20
80.55840075
 30
0.0
 11
245.06608673
 21
80.55840075
 31
0.0
  0
LINE
  5
561
100
AcDbEntity
  8
LAYER0001
  6
CONTINUOUS
 62
       7
100
AcDbLine
 10
235.05823611
 20
196.85830376
 30
0.0
 11
235.05823499
 21
166.15830809
 31
0.0
  0
LINE
  5
562
100
AcDbEntity
  8
LAYER0001
  6
CONTINUOUS
 62
       7
100
AcDbLine
 10
295.05823187
 20
262.15829384
 30
0.0
 11
295.05823223
 21
268.80890878
 31
0.0
  0
LINE
  5
563
100
AcDbEntity
  8
LAYER0001
  6
CONTINUOUS
 62
       7
100
AcDbLine
 10
279.55823672
 20
-223.64171881
 30
0.0
 11
279.55823672
 21
-220.64169782
 31
0.0
  0
LINE
  5
564
100
AcDbEntity
  8
LAYER0001
  6
CONTINUOUS
 62
       7
100
AcDbLine
 10
235.05823411
 20
-277.64170533
 30
0.0
 11
238.05823644
 21
-277.64170533
 31
0.0
  0
LINE
  5
565
100
AcDbEntity
  8
LAYER0001
  6
CONTINUOUS
 62
       7
100
AcDbLine
 10
270.80823345
 20
-232.74170524
 30
0.0
 11
259.30823343
 21
-232.74170524
 31
0.0
  0
LINE
  5
566
100
AcDbEntity
  8
LAYER0001
  6
CONTINUOUS
 62
       7
100
AcDbLine
 10
276.55823346
 20
-226.26884943
 30
0.0
 11
276.55823346
 21
-231.7145682
 31
0.0
  0
LINE
  5
567
100
AcDbEntity
  8
LAYER0001
  6
CONTINUOUS
 62
       7
100
AcDbLine
 10
265.05823344
 20
-226.26884943
 30
0.0
 11
265.05823344
 21
-231.7145682
 31
0.0
  0
LINE
  5
568
100
AcDbEntity
  8
LAYER0001
  6
CONTINUOUS
 62
       7
100
AcDbLine
 10
253.55823342
 20
-226.26884943
 30
0.0
 11
253.55823342
 21
-231.7145682
 31
0.0
  0
LINE
  5
569
100
AcDbEntity
  8
LAYER0001
  6
CONTINUOUS
 62
       7
100
AcDbLine
 10
276.55823346
 20
-232.74170524
 30
0.0
 11
270.80823345
 21
-232.74170524
 31
0.0
  0
LINE
  5
56A
100
AcDbEntity
  8
LAYER0001
  6
CONTINUOUS
 62
       7
100
AcDbLine
 10
259.30823343
 20
-232.74170524
 30
0.0
 11
253.55823342
 21
-232.74170524
 31
0.0
  0
LINE
  5
56B
100
AcDbEntity
  8
LAYER0001
  6
CONTINUOUS
 62
       7
100
AcDbLine
 10
276.55823346
 20
-212.56884104
 30
0.0
 11
276.55823346
 21
-218.01455981
 31
0.0
  0
LINE
  5
56C
100
AcDbEntity
  8
LAYER0001
  6
CONTINUOUS
 62
       7
100
AcDbLine
 10
265.05823344
 20
-212.56884104
 30
0.0
 11
265.05823344
 21
-218.01455981
 31
0.0
  0
LINE
  5
56D
100
AcDbEntity
  8
LAYER0001
  6
CONTINUOUS
 62
       7
100
AcDbLine
 10
253.55823342
 20
-212.56884104
 30
0.0
 11
253.55823342
 21
-218.01455981
 31
0.0
  0
LINE
  5
56E
100
AcDbEntity
  8
LAYER0001
  6
CONTINUOUS
 62
       7
100
AcDbLine
 10
270.80823345
 20
-211.541704
 30
0.0
 11
259.30823343
 21
-211.541704
 31
0.0
  0
LINE
  5
56F
100
AcDbEntity
  8
LAYER0001
  6
CONTINUOUS
 62
       7
100
AcDbLine
 10
259.30823343
 20
-211.541704
 30
0.0
 11
253.55823342
 21
-211.541704
 31
0.0
  0
LINE
  5
570
100
AcDbEntity
  8
LAYER0001
  6
CONTINUOUS
 62
       7
100
AcDbLine
 10
276.55823346
 20
-211.541704
 30
0.0
 11
270.80823345
 21
-211.541704
 31
0.0
  0
LINE
  5
571
100
AcDbEntity
  8
LAYER0001
  6
CONTINUOUS
 62
       7
100
AcDbLine
 10
265.05823344
 20
-219.04169685
 30
0.0
 11
279.05823387
 21
-219.04169685
 31
0.0
  0
LINE
  5
572
100
AcDbEntity
  8
LAYER0001
  6
CONTINUOUS
 62
       7
100
AcDbLine
 10
251.05823301
 20
-219.04169685
 30
0.0
 11
265.05823344
 21
-219.04169685
 31
0.0
  0
LINE
  5
573
100
AcDbEntity
  8
LAYER0001
  6
CONTINUOUS
 62
       7
100
AcDbLine
 10
265.05823344
 20
-225.24171239
 30
0.0
 11
279.05823387
 21
-225.24171239
 31
0.0
  0
LINE
  5
574
100
AcDbEntity
  8
LAYER0001
  6
CONTINUOUS
 62
       7
100
AcDbLine
 10
251.05823301
 20
-225.24171239
 30
0.0
 11
265.05823344
 21
-225.24171239
 31
0.0
  0
LINE
  5
575
100
AcDbEntity
  8
LAYER0001
  6
CONTINUOUS
 62
       7
100
AcDbLine
 10
265.05823344
 20
-206.141702
 30
0.0
 11
273.70823365
 21
-206.141702
 31
0.0
  0
LINE
  5
576
100
AcDbEntity
  8
LAYER0001
  6
CONTINUOUS
 62
       7
100
AcDbLine
 10
256.40823323
 20
-206.141702
 30
0.0
 11
265.05823344
 21
-206.141702
 31
0.0
  0
LINE
  5
577
100
AcDbEntity
  8
LAYER0001
  6
CONTINUOUS
 62
       7
100
AcDbLine
 10
272.25823346
 20
-250.6417015
 30
0.0
 11
257.85823346
 21
-250.6417015
 31
0.0
  0
LINE
  5
578
100
AcDbEntity
  8
LAYER0001
  6
CONTINUOUS
 62
       7
100
AcDbLine
 10
271.82902167
 20
-250.9417153
 30
0.0
 11
258.28744522
 21
-250.9417153
 31
0.0
  0
LINE
  5
579
100
AcDbEntity
  8
LAYER0001
  6
CONTINUOUS
 62
       7
100
AcDbLine
 10
285.05038056
 20
80.55840075
 30
0.0
 11
284.76578875
 21
80.85829794
 31
0.0
  0
LINE
  5
57A
100
AcDbEntity
  8
LAYER0001
  6
CONTINUOUS
 62
       7
100
AcDbLine
 10
235.05823611
 20
164.85829852
 30
0.0
 11
235.05823499
 21
134.15830284
 31
0.0
  0
LINE
  5
57B
100
AcDbEntity
  8
LAYER0001
  6
CONTINUOUS
 62
       7
100
AcDbLine
 10
235.05823499
 20
100.85829794
 30
0.0
 11
235.05823365
 21
98.69106778
 31
0.0
  0
LINE
  5
57C
100
AcDbEntity
  8
LAYER0001
  6
CONTINUOUS
 62
       7
100
AcDbLine
 10
265.05823365
 20
80.85829794
 30
0.0
 11
245.05823365
 21
80.85829794
 31
0.0
  0
LINE
  5
57D
100
AcDbEntity
  8
LAYER0001
  6
CONTINUOUS
 62
       7
100
AcDbLine
 10
238.05823644
 20
-268.59616405
 30
0.0
 11
238.05823644
 21
-270.52929169
 31
0.0
  0
LINE
  5
57E
100
AcDbEntity
  8
LAYER0001
  6
CONTINUOUS
 62
       7
100
AcDbLine
 10
235.05823411
 20
-270.52929169
 30
0.0
 11
235.05823411
 21
-268.59616405
 31
0.0
  0
LINE
  5
57F
100
AcDbEntity
  8
LAYER0001
  6
CONTINUOUS
 62
       7
100
AcDbLine
 10
270.51268845
 20
-220.64169782
 30
0.0
 11
272.4458268
 21
-220.64169782
 31
0.0
  0
LINE
  5
580
100
AcDbEntity
  8
LAYER0001
  6
CONTINUOUS
 62
       7
100
AcDbLine
 10
272.4458268
 20
-223.64171881
 30
0.0
 11
270.51268845
 21
-223.64171881
 31
0.0
  0
LINE
  5
581
100
AcDbEntity
  8
LAYER0001
  6
CONTINUOUS
 62
       7
100
AcDbLine
 10
270.51268845
 20
-220.64169782
 30
0.0
 11
243.05823726
 21
-220.64169782
 31
0.0
  0
LINE
  5
582
100
AcDbEntity
  8
LAYER0001
  6
CONTINUOUS
 62
       7
100
AcDbLine
 10
270.51268845
 20
-223.64171881
 30
0.0
 11
243.05823726
 21
-223.64171881
 31
0.0
  0
LINE
  5
583
100
AcDbEntity
  8
LAYER0001
  6
CONTINUOUS
 62
       7
100
AcDbLine
 10
238.05823714
 20
-228.64170152
 30
0.0
 11
238.05823644
 21
-268.59616405
 31
0.0
  0
LINE
  5
584
100
AcDbEntity
  8
LAYER0001
  6
CONTINUOUS
 62
       7
100
AcDbLine
 10
235.05823344
 20
-228.64170152
 30
0.0
 11
235.05823411
 21
-268.59616405
 31
0.0
  0
LINE
  5
585
100
AcDbEntity
  8
LAYER0001
  6
CONTINUOUS
 62
       7
100
AcDbLine
 10
279.55823672
 20
-220.64169782
 30
0.0
 11
272.4458268
 21
-220.64169782
 31
0.0
  0
LINE
  5
586
100
AcDbEntity
  8
LAYER0001
  6
CONTINUOUS
 62
       7
100
AcDbLine
 10
272.4458268
 20
-223.64171881
 30
0.0
 11
279.55823672
 21
-223.64171881
 31
0.0
  0
LINE
  5
587
100
AcDbEntity
  8
LAYER0001
  6
CONTINUOUS
 62
       7
100
AcDbLine
 10
238.05823644
 20
-277.64170533
 30
0.0
 11
238.05823644
 21
-270.52929169
 31
0.0
  0
LINE
  5
588
100
AcDbEntity
  8
LAYER0001
  6
CONTINUOUS
 62
       7
100
AcDbLine
 10
235.05823411
 20
-270.52929169
 30
0.0
 11
235.05823411
 21
-277.64170533
 31
0.0
  0
LINE
  5
589
100
AcDbEntity
  8
LAYER0001
  6
CONTINUOUS
 62
       7
100
AcDbLine
 10
-158.63166193
 20
-171.8879717
 30
0.0
 11
-158.63166193
 21
47.6120261
 31
0.0
  0
LINE
  5
58A
100
AcDbEntity
  8
LAYER0001
  6
CONTINUOUS
 62
       7
100
AcDbLine
 10
-175.93166235
 20
47.6120261
 30
0.0
 11
-175.93166235
 21
-171.8879717
 31
0.0
  0
LINE
  5
58B
100
AcDbEntity
  8
LAYER0001
  6
CONTINUOUS
 62
       7
100
AcDbLine
 10
-120.28689778
 20
-224.58801442
 30
0.0
 11
-120.39860061
 21
-218.18850213
 31
0.0
  0
LINE
  5
58C
100
AcDbEntity
  8
LAYER0001
  6
CONTINUOUS
 62
       7
100
AcDbLine
 10
-214.16472367
 20
-218.18850213
 30
0.0
 11
-214.2764265
 21
-224.58801442
 31
0.0
  0
LINE
  5
58D
100
AcDbEntity
  8
LAYER0001
  6
CONTINUOUS
 62
       7
100
AcDbLine
 10
-214.2764265
 20
-224.58801442
 30
0.0
 11
-213.98676282
 21
-224.8879748
 31
0.0
  0
LINE
  5
58E
100
AcDbEntity
  8
LAYER0001
  6
CONTINUOUS
 62
       7
100
AcDbLine
 10
-120.57656145
 20
-224.8879748
 30
0.0
 11
-120.28689778
 21
-224.58801442
 31
0.0
  0
LINE
  5
58F
100
AcDbEntity
  8
LAYER0001
  6
CONTINUOUS
 62
       7
100
AcDbLine
 10
-122.22398499
 20
-216.23102197
 30
0.0
 11
-142.93260901
 21
-214.41925278
 31
0.0
  0
LINE
  5
590
100
AcDbEntity
  8
LAYER0001
  6
CONTINUOUS
 62
       7
100
AcDbLine
 10
-191.63071527
 20
-214.41925278
 30
0.0
 11
-212.33933929
 21
-216.23102197
 31
0.0
  0
LINE
  5
591
100
AcDbEntity
  8
LAYER0001
  6
CONTINUOUS
 62
       7
100
AcDbLine
 10
-152.04734762
 20
-204.9806788
 30
0.0
 11
-153.69870269
 21
-173.47093666
 31
0.0
  0
LINE
  5
592
100
AcDbEntity
  8
LAYER0001
  6
CONTINUOUS
 62
       7
100
AcDbLine
 10
-180.86462223
 20
-173.47093666
 30
0.0
 11
-182.51597696
 21
-204.98066505
 31
0.0
  0
LINE
  5
593
100
AcDbEntity
  8
LAYER0001
  6
CONTINUOUS
 62
       7
100
AcDbLine
 10
-153.69870269
 20
-173.47093666
 30
0.0
 11
-155.28166236
 21
-171.88797141
 31
0.0
  0
LINE
  5
594
100
AcDbEntity
  8
LAYER0001
  6
CONTINUOUS
 62
       7
100
AcDbLine
 10
-179.28166256
 20
-171.88797141
 30
0.0
 11
-180.86462223
 21
-173.47093666
 31
0.0
  0
LINE
  5
595
100
AcDbEntity
  8
LAYER0001
  6
CONTINUOUS
 62
       7
100
AcDbLine
 10
-214.2764265
 20
-224.58801442
 30
0.0
 11
-120.28689778
 21
-224.58801442
 31
0.0
  0
LINE
  5
596
100
AcDbEntity
  8
LAYER0001
  6
CONTINUOUS
 62
       7
100
AcDbLine
 10
-120.57656145
 20
-224.8879748
 30
0.0
 11
-213.98676282
 21
-224.8879748
 31
0.0
  0
LINE
  5
597
100
AcDbEntity
  8
LAYER0001
  6
CONTINUOUS
 62
       7
100
AcDbLine
 10
-179.28166256
 20
-171.88797141
 30
0.0
 11
-155.28166236
 21
-171.88797141
 31
0.0
  0
LINE
  5
598
100
AcDbEntity
  8
LAYER0001
  6
CONTINUOUS
 62
       7
100
AcDbLine
 10
90.88316171
 20
-218.01455981
 30
0.0
 11
92.66221787
 21
-219.04169685
 31
0.0
  0
LINE
  5
599
100
AcDbEntity
  8
LAYER0001
  6
CONTINUOUS
 62
       7
100
AcDbLine
 10
92.66221787
 20
-211.541704
 30
0.0
 11
90.88316171
 21
-212.56884104
 31
0.0
  0
LINE
  5
59A
100
AcDbEntity
  8
LAYER0001
  6
CONTINUOUS
 62
       7
100
AcDbLine
 10
117.44127406
 20
-212.56884104
 30
0.0
 11
115.66221791
 21
-211.541704
 31
0.0
  0
LINE
  5
59B
100
AcDbEntity
  8
LAYER0001
  6
CONTINUOUS
 62
       7
100
AcDbLine
 10
115.66221791
 20
-219.04169685
 30
0.0
 11
117.44127406
 21
-218.01455981
 31
0.0
  0
LINE
  5
59C
100
AcDbEntity
  8
LAYER0001
  6
CONTINUOUS
 62
       7
100
AcDbLine
 10
118.16221832
 20
-220.64169413
 30
0.0
 11
118.16221832
 21
-219.04169685
 31
0.0
  0
LINE
  5
59D
100
AcDbEntity
  8
LAYER0001
  6
CONTINUOUS
 62
       7
100
AcDbLine
 10
90.16221746
 20
-219.04169685
 30
0.0
 11
90.16221746
 21
-220.64169413
 31
0.0
  0
LINE
  5
59E
100
AcDbEntity
  8
LAYER0001
  6
CONTINUOUS
 62
       7
100
AcDbLine
 10
95.51221768
 20
-206.141702
 30
0.0
 11
96.48802441
 21
-207.11751944
 31
0.0
  0
LINE
  5
59F
100
AcDbEntity
  8
LAYER0001
  6
CONTINUOUS
 62
       7
100
AcDbLine
 10
111.83641136
 20
-207.11751944
 30
0.0
 11
112.81221809
 21
-206.141702
 31
0.0
  0
LINE
  5
5A0
100
AcDbEntity
  8
LAYER0001
  6
CONTINUOUS
 62
       7
100
AcDbLine
 10
112.81221809
 20
-206.141702
 30
0.0
 11
112.81221809
 21
54.85829794
 31
0.0
  0
LINE
  5
5A1
100
AcDbEntity
  8
LAYER0001
  6
CONTINUOUS
 62
       7
100
AcDbLine
 10
95.51221768
 20
54.85829794
 30
0.0
 11
95.51221768
 21
-206.141702
 31
0.0
  0
LINE
  5
5A2
100
AcDbEntity
  8
LAYER0001
  6
CONTINUOUS
 62
       7
100
AcDbLine
 10
112.66221835
 20
-207.89169437
 30
0.0
 11
111.83641136
 21
-207.11751944
 31
0.0
  0
LINE
  5
5A3
100
AcDbEntity
  8
LAYER0001
  6
CONTINUOUS
 62
       7
100
AcDbLine
 10
96.48802441
 20
-207.11751944
 30
0.0
 11
95.66221743
 21
-207.89169437
 31
0.0
  0
LINE
  5
5A4
100
AcDbEntity
  8
LAYER0001
  6
CONTINUOUS
 62
       7
100
AcDbLine
 10
95.66221743
 20
-207.89169437
 30
0.0
 11
96.46221793
 21
-208.64169961
 31
0.0
  0
LINE
  5
5A5
100
AcDbEntity
  8
LAYER0001
  6
CONTINUOUS
 62
       7
100
AcDbLine
 10
111.86221785
 20
-208.64169961
 30
0.0
 11
112.66221835
 21
-207.89169437
 31
0.0
  0
LINE
  5
5A6
100
AcDbEntity
  8
LAYER0001
  6
CONTINUOUS
 62
       7
100
AcDbLine
 10
95.66221743
 20
-209.39170486
 30
0.0
 11
96.46221793
 21
-210.1417101
 31
0.0
  0
LINE
  5
5A7
100
AcDbEntity
  8
LAYER0001
  6
CONTINUOUS
 62
       7
100
AcDbLine
 10
111.86221785
 20
-210.1417101
 30
0.0
 11
112.66221835
 21
-209.39170486
 31
0.0
  0
LINE
  5
5A8
100
AcDbEntity
  8
LAYER0001
  6
CONTINUOUS
 62
       7
100
AcDbLine
 10
112.66221835
 20
-209.39170486
 30
0.0
 11
111.86221785
 21
-208.64169961
 31
0.0
  0
LINE
  5
5A9
100
AcDbEntity
  8
LAYER0001
  6
CONTINUOUS
 62
       7
100
AcDbLine
 10
96.46221793
 20
-208.64169961
 30
0.0
 11
95.66221743
 21
-209.39170486
 31
0.0
  0
LINE
  5
5AA
100
AcDbEntity
  8
LAYER0001
  6
CONTINUOUS
 62
       7
100
AcDbLine
 10
112.66221835
 20
-210.89171535
 30
0.0
 11
111.86221785
 21
-210.1417101
 31
0.0
  0
LINE
  5
5AB
100
AcDbEntity
  8
LAYER0001
  6
CONTINUOUS
 62
       7
100
AcDbLine
 10
96.46221793
 20
-210.1417101
 30
0.0
 11
95.66221743
 21
-210.89171535
 31
0.0
  0
LINE
  5
5AC
100
AcDbEntity
  8
LAYER0001
  6
CONTINUOUS
 62
       7
100
AcDbLine
 10
95.66221743
 20
-210.89171535
 30
0.0
 11
96.35555123
 21
-211.541704
 31
0.0
  0
LINE
  5
5AD
100
AcDbEntity
  8
LAYER0001
  6
CONTINUOUS
 62
       7
100
AcDbLine
 10
111.96888455
 20
-211.541704
 30
0.0
 11
112.66221835
 21
-210.89171535
 31
0.0
  0
LINE
  5
5AE
100
AcDbEntity
  8
LAYER0001
  6
CONTINUOUS
 62
       7
100
AcDbLine
 10
97.5226898
 20
-212.56884104
 30
0.0
 11
97.5226898
 21
-218.01455981
 31
0.0
  0
LINE
  5
5AF
100
AcDbEntity
  8
LAYER0001
  6
CONTINUOUS
 62
       7
100
AcDbLine
 10
90.88316171
 20
-212.56884104
 30
0.0
 11
90.88316171
 21
-218.01455981
 31
0.0
  0
LINE
  5
5B0
100
AcDbEntity
  8
LAYER0001
  6
CONTINUOUS
 62
       7
100
AcDbLine
 10
104.16221789
 20
-211.541704
 30
0.0
 11
94.20292529
 21
-211.541704
 31
0.0
  0
LINE
  5
5B1
100
AcDbEntity
  8
LAYER0001
  6
CONTINUOUS
 62
       7
100
AcDbLine
 10
110.80174598
 20
-212.56884104
 30
0.0
 11
110.80174598
 21
-218.01455981
 31
0.0
  0
LINE
  5
5B2
100
AcDbEntity
  8
LAYER0001
  6
CONTINUOUS
 62
       7
100
AcDbLine
 10
114.12151049
 20
-211.541704
 30
0.0
 11
104.16221789
 21
-211.541704
 31
0.0
  0
LINE
  5
5B3
100
AcDbEntity
  8
LAYER0001
  6
CONTINUOUS
 62
       7
100
AcDbLine
 10
117.44127406
 20
-212.56884104
 30
0.0
 11
117.44127406
 21
-218.01455981
 31
0.0
  0
LINE
  5
5B4
100
AcDbEntity
  8
LAYER0001
  6
CONTINUOUS
 62
       7
100
AcDbLine
 10
94.20292529
 20
-211.541704
 30
0.0
 11
92.66221787
 21
-211.541704
 31
0.0
  0
LINE
  5
5B5
100
AcDbEntity
  8
LAYER0001
  6
CONTINUOUS
 62
       7
100
AcDbLine
 10
115.66221791
 20
-211.541704
 30
0.0
 11
114.12151049
 21
-211.541704
 31
0.0
  0
LINE
  5
5B6
100
AcDbEntity
  8
LAYER0001
  6
CONTINUOUS
 62
       7
100
AcDbLine
 10
90.16221746
 20
-219.04169685
 30
0.0
 11
118.16221832
 21
-219.04169685
 31
0.0
  0
LINE
  5
5B7
100
AcDbEntity
  8
LAYER0001
  6
CONTINUOUS
 62
       7
100
AcDbLine
 10
95.51221768
 20
-206.141702
 30
0.0
 11
112.81221809
 21
-206.141702
 31
0.0
  0
LINE
  5
5B8
100
AcDbEntity
  8
LAYER0001
  6
CONTINUOUS
 62
       7
100
AcDbLine
 10
120.16221865
 20
-228.64171034
 30
0.0
 11
120.16221865
 21
-268.59616405
 31
0.0
  0
LINE
  5
5B9
100
AcDbEntity
  8
LAYER0001
  6
CONTINUOUS
 62
       7
100
AcDbLine
 10
88.16221713
 20
-228.64171034
 30
0.0
 11
88.16221713
 21
-268.59616405
 31
0.0
  0
LINE
  5
5BA
100
AcDbEntity
  8
LAYER0001
  6
CONTINUOUS
 62
       7
100
AcDbLine
 10
88.16221713
 20
-220.64169413
 30
0.0
 11
120.16221865
 21
-220.64169413
 31
0.0
  0
LINE
  5
5BB
100
AcDbEntity
  8
LAYER0001
  6
CONTINUOUS
 62
       7
100
AcDbLine
 10
120.16221865
 20
-220.64169413
 30
0.0
 11
120.16221865
 21
-228.64171034
 31
0.0
  0
LINE
  5
5BC
100
AcDbEntity
  8
LAYER0001
  6
CONTINUOUS
 62
       7
100
AcDbLine
 10
88.16221713
 20
-220.64169413
 30
0.0
 11
88.16221713
 21
-228.64171034
 31
0.0
  0
ARC
  5
5BD
100
AcDbEntity
  8
LAYER0001
  6
CONTINUOUS
 62
       7
100
AcDbCircle
 10
-354.28804259
 20
-218.22341198
 30
0.0
 40
2.00000062
100
AcDbArc
 50
95.0
 51
178.99985587
  0
ARC
  5
5BE
100
AcDbEntity
  8
LAYER0001
  6
CONTINUOUS
 62
       7
100
AcDbCircle
 10
-264.52131137
 20
-218.22341198
 30
0.0
 40
2.00000062
100
AcDbArc
 50
1.00014413
 51
85.0
  0
ARC
  5
5BF
100
AcDbEntity
  8
LAYER0001
  6
CONTINUOUS
 62
       7
100
AcDbCircle
 10
-284.18406646
 20
-204.45730515
 30
0.0
 40
10.00000064
100
AcDbArc
 50
183.0
 51
265.00000057
  0
ARC
  5
5C0
100
AcDbEntity
  8
LAYER0001
  6
CONTINUOUS
 62
       7
100
AcDbCircle
 10
-334.62528749
 20
-204.45730515
 30
0.0
 40
10.00000064
100
AcDbArc
 50
274.99999943
 51
357.0
  0
ARC
  5
5C1
100
AcDbEntity
  8
LAYER0001
  6
CONTINUOUS
 62
       7
100
AcDbCircle
 10
-291.21652724
 20
70.1120261
 30
0.0
 40
0.5
100
AcDbArc
 50
270.0
 51
315.0
  0
ARC
  5
5C2
100
AcDbEntity
  8
LAYER0001
  6
CONTINUOUS
 62
       7
100
AcDbCircle
 10
-281.1546761
 20
94.26202933
 30
0.0
 40
0.75
100
AcDbArc
 50
299.92643487
 51
420.07356513
  0
ARC
  5
5C3
100
AcDbEntity
  8
LAYER0001
  6
CONTINUOUS
 62
       7
100
AcDbCircle
 10
-309.4046761
 20
115.41202933
 30
0.0
 40
150.0
100
AcDbArc
 50
78.77683982
 51
86.93226718
  0
ARC
  5
5C4
100
AcDbEntity
  8
LAYER0001
  6
CONTINUOUS
 62
       7
100
AcDbCircle
 10
-268.91382202
 20
72.9997586
 30
0.0
 40
20.5
100
AcDbArc
 50
123.02731871
 51
178.28850921
  0
ARC
  5
5C5
100
AcDbEntity
  8
LAYER0001
  6
CONTINUOUS
 62
       7
100
AcDbCircle
 10
-281.1546761
 20
158.26203457
 30
0.0
 40
0.75
100
AcDbArc
 50
299.92643487
 51
420.07356513
  0
ARC
  5
5C6
100
AcDbEntity
  8
LAYER0001
  6
CONTINUOUS
 62
       7
100
AcDbCircle
 10
-338.40467401
 20
261.56263699
 30
0.0
 40
1.0
100
AcDbArc
 50
101.22316019
 51
179.99997245
  0
ARC
  5
5C7
100
AcDbEntity
  8
LAYER0001
  6
CONTINUOUS
 62
       7
100
AcDbCircle
 10
-289.96369225
 20
71.36486108
 30
0.0
 40
0.5
100
AcDbArc
 50
314.99999999
 51
358.5
  0
ARC
  5
5C8
100
AcDbEntity
  8
LAYER0001
  6
CONTINUOUS
 62
       7
100
AcDbCircle
 10
-280.40467819
 20
261.56263699
 30
0.0
 40
1.0
100
AcDbArc
 50
359.99999685
 51
438.77683981
  0
ARC
  5
5C9
100
AcDbEntity
  8
LAYER0001
  6
CONTINUOUS
 62
       7
100
AcDbCircle
 10
-293.73935352
 20
66.6120261
 30
0.0
 40
3.0
100
AcDbArc
 50
90.0
 51
178.0
  0
ARC
  5
5CA
100
AcDbEntity
  8
LAYER0001
  6
CONTINUOUS
 62
       7
100
AcDbCircle
 10
-281.1546761
 20
254.26203541
 30
0.0
 40
0.75
100
AcDbArc
 50
299.92643487
 51
420.07356513
  0
ARC
  5
5CB
100
AcDbEntity
  8
LAYER0001
  6
CONTINUOUS
 62
       7
100
AcDbCircle
 10
-281.1546761
 20
126.26202933
 30
0.0
 40
0.75
100
AcDbArc
 50
299.92643487
 51
420.07356513
  0
ARC
  5
5CC
100
AcDbEntity
  8
LAYER0001
  6
CONTINUOUS
 62
       7
100
AcDbCircle
 10
-337.6546761
 20
158.26203457
 30
0.0
 40
0.75
100
AcDbArc
 50
119.92643487
 51
240.07356513
  0
ARC
  5
5CD
100
AcDbEntity
  8
LAYER0001
  6
CONTINUOUS
 62
       7
100
AcDbCircle
 10
-316.0046761
 20
264.96646758
 30
0.0
 40
0.3
100
AcDbArc
 50
92.52688548
 51
129.7636413
  0
ARC
  5
5CE
100
AcDbEntity
  8
LAYER0001
  6
CONTINUOUS
 62
       7
100
AcDbCircle
 10
-327.5928263
 20
70.1120261
 30
0.0
 40
0.5
100
AcDbArc
 50
225.0
 51
270.0
  0
ARC
  5
5CF
100
AcDbEntity
  8
LAYER0001
  6
CONTINUOUS
 62
       7
100
AcDbCircle
 10
-309.4046761
 20
115.41202933
 30
0.0
 40
150.0
100
AcDbArc
 50
93.06773282
 51
101.22316018
  0
ARC
  5
5D0
100
AcDbEntity
  8
LAYER0001
  6
CONTINUOUS
 62
       7
100
AcDbCircle
 10
-320.92183238
 20
48.1120261
 30
0.0
 40
0.5
100
AcDbArc
 50
182.00000001
 51
270.0
  0
ARC
  5
5D1
100
AcDbEntity
  8
LAYER0001
  6
CONTINUOUS
 62
       7
100
AcDbCircle
 10
-280.90467677
 20
91.44479593
 30
0.0
 40
1.5
100
AcDbArc
 50
303.02731871
 51
360.0
  0
ARC
  5
5D2
100
AcDbEntity
  8
LAYER0001
  6
CONTINUOUS
 62
       7
100
AcDbCircle
 10
-337.6546761
 20
190.26203982
 30
0.0
 40
0.75
100
AcDbArc
 50
119.92643487
 51
240.07356513
  0
ARC
  5
5D3
100
AcDbEntity
  8
LAYER0001
  6
CONTINUOUS
 62
       7
100
AcDbCircle
 10
-337.6546761
 20
222.26203016
 30
0.0
 40
0.75
100
AcDbArc
 50
119.92643487
 51
240.07356513
  0
ARC
  5
5D4
100
AcDbEntity
  8
LAYER0001
  6
CONTINUOUS
 62
       7
100
AcDbCircle
 10
-337.6546761
 20
126.26202933
 30
0.0
 40
0.75
100
AcDbArc
 50
119.92643487
 51
240.07356513
  0
ARC
  5
5D5
100
AcDbEntity
  8
LAYER0001
  6
CONTINUOUS
 62
       7
100
AcDbCircle
 10
-325.07000002
 20
66.6120261
 30
0.0
 40
3.0
100
AcDbArc
 50
2.0
 51
90.0
  0
ARC
  5
5D6
100
AcDbEntity
  8
LAYER0001
  6
CONTINUOUS
 62
       7
100
AcDbCircle
 10
-302.8046761
 20
264.96646758
 30
0.0
 40
0.3
100
AcDbArc
 50
50.2363587
 51
87.47311452
  0
ARC
  5
5D7
100
AcDbEntity
  8
LAYER0001
  6
CONTINUOUS
 62
       7
100
AcDbCircle
 10
-281.1546761
 20
222.26203016
 30
0.0
 40
0.75
100
AcDbArc
 50
299.92643487
 51
420.07356513
  0
ARC
  5
5D8
100
AcDbEntity
  8
LAYER0001
  6
CONTINUOUS
 62
       7
100
AcDbCircle
 10
-349.89553152
 20
72.9997586
 30
0.0
 40
20.5
100
AcDbArc
 50
1.71149079
 51
56.97268129
  0
ARC
  5
5D9
100
AcDbEntity
  8
LAYER0001
  6
CONTINUOUS
 62
       7
100
AcDbCircle
 10
-328.84566129
 20
71.36486108
 30
0.0
 40
0.5
100
AcDbArc
 50
181.49999999
 51
225.0
  0
ARC
  5
5DA
100
AcDbEntity
  8
LAYER0001
  6
CONTINUOUS
 62
       7
100
AcDbCircle
 10
-309.4046761
 20
115.41202933
 30
0.0
 40
150.0
100
AcDbArc
 50
87.4731145
 51
92.5268855
  0
ARC
  5
5DB
100
AcDbEntity
  8
LAYER0001
  6
CONTINUOUS
 62
       7
100
AcDbCircle
 10
-281.1546761
 20
190.26203982
 30
0.0
 40
0.75
100
AcDbArc
 50
299.92643487
 51
420.07356513
  0
ARC
  5
5DC
100
AcDbEntity
  8
LAYER0001
  6
CONTINUOUS
 62
       7
100
AcDbCircle
 10
-337.90467677
 20
91.44479593
 30
0.0
 40
1.5
100
AcDbArc
 50
180.0
 51
236.97268129
  0
ARC
  5
5DD
100
AcDbEntity
  8
LAYER0001
  6
CONTINUOUS
 62
       7
100
AcDbCircle
 10
-297.88752116
 20
48.1120261
 30
0.0
 40
0.5
100
AcDbArc
 50
270.0
 51
357.99999999
  0
ARC
  5
5DE
100
AcDbEntity
  8
LAYER0001
  6
CONTINUOUS
 62
       7
100
AcDbCircle
 10
-337.6546761
 20
254.26203541
 30
0.0
 40
0.75
100
AcDbArc
 50
119.92643487
 51
240.07356513
  0
ARC
  5
5DF
100
AcDbEntity
  8
LAYER0001
  6
CONTINUOUS
 62
       7
100
AcDbCircle
 10
-337.6546761
 20
94.26202933
 30
0.0
 40
0.75
100
AcDbArc
 50
119.92643487
 51
240.07356513
  0
ARC
  5
5E0
100
AcDbEntity
  8
LAYER0001
  6
CONTINUOUS
 62
       7
100
AcDbCircle
 10
-149.0935124
 20
70.1120261
 30
0.0
 40
0.5
100
AcDbArc
 50
270.0
 51
315.0
  0
ARC
  5
5E1
100
AcDbEntity
  8
LAYER0001
  6
CONTINUOUS
 62
       7
100
AcDbCircle
 10
-139.03166126
 20
94.26202933
 30
0.0
 40
0.75
100
AcDbArc
 50
299.92643487
 51
420.07356513
  0
ARC
  5
5E2
100
AcDbEntity
  8
LAYER0001
  6
CONTINUOUS
 62
       7
100
AcDbCircle
 10
-167.28166126
 20
115.41202933
 30
0.0
 40
150.0
100
AcDbArc
 50
78.77683982
 51
86.93226718
  0
ARC
  5
5E3
100
AcDbEntity
  8
LAYER0001
  6
CONTINUOUS
 62
       7
100
AcDbCircle
 10
-126.79080718
 20
72.9997586
 30
0.0
 40
20.5
100
AcDbArc
 50
123.02731871
 51
178.28850921
  0
ARC
  5
5E4
100
AcDbEntity
  8
LAYER0001
  6
CONTINUOUS
 62
       7
100
AcDbCircle
 10
-139.03166126
 20
158.26203457
 30
0.0
 40
0.75
100
AcDbArc
 50
299.92643487
 51
420.07356513
  0
ARC
  5
5E5
100
AcDbEntity
  8
LAYER0001
  6
CONTINUOUS
 62
       7
100
AcDbCircle
 10
-196.28165917
 20
261.56263699
 30
0.0
 40
1.0
100
AcDbArc
 50
101.22316019
 51
179.99997245
  0
ARC
  5
5E6
100
AcDbEntity
  8
LAYER0001
  6
CONTINUOUS
 62
       7
100
AcDbCircle
 10
-147.84067741
 20
71.36486108
 30
0.0
 40
0.5
100
AcDbArc
 50
314.99999999
 51
358.5
  0
ARC
  5
5E7
100
AcDbEntity
  8
LAYER0001
  6
CONTINUOUS
 62
       7
100
AcDbCircle
 10
-138.28166335
 20
261.56263699
 30
0.0
 40
1.0
100
AcDbArc
 50
359.99999685
 51
438.77683981
  0
ARC
  5
5E8
100
AcDbEntity
  8
LAYER0001
  6
CONTINUOUS
 62
       7
100
AcDbCircle
 10
-151.61633868
 20
66.6120261
 30
0.0
 40
3.0
100
AcDbArc
 50
90.0
 51
178.0
  0
ARC
  5
5E9
100
AcDbEntity
  8
LAYER0001
  6
CONTINUOUS
 62
       7
100
AcDbCircle
 10
-139.03166126
 20
254.26203541
 30
0.0
 40
0.75
100
AcDbArc
 50
299.92643487
 51
420.07356513
  0
ARC
  5
5EA
100
AcDbEntity
  8
LAYER0001
  6
CONTINUOUS
 62
       7
100
AcDbCircle
 10
-139.03166126
 20
126.26202933
 30
0.0
 40
0.75
100
AcDbArc
 50
299.92643487
 51
420.07356513
  0
ARC
  5
5EB
100
AcDbEntity
  8
LAYER0001
  6
CONTINUOUS
 62
       7
100
AcDbCircle
 10
-195.53166126
 20
158.26203457
 30
0.0
 40
0.75
100
AcDbArc
 50
119.92643487
 51
240.07356513
  0
ARC
  5
5EC
100
AcDbEntity
  8
LAYER0001
  6
CONTINUOUS
 62
       7
100
AcDbCircle
 10
-173.88166126
 20
264.96646758
 30
0.0
 40
0.3
100
AcDbArc
 50
92.52688548
 51
129.7636413
  0
ARC
  5
5ED
100
AcDbEntity
  8
LAYER0001
  6
CONTINUOUS
 62
       7
100
AcDbCircle
 10
-185.46981146
 20
70.1120261
 30
0.0
 40
0.5
100
AcDbArc
 50
225.0
 51
270.0
  0
ARC
  5
5EE
100
AcDbEntity
  8
LAYER0001
  6
CONTINUOUS
 62
       7
100
AcDbCircle
 10
-167.28166126
 20
115.41202933
 30
0.0
 40
150.0
100
AcDbArc
 50
93.06773282
 51
101.22316018
  0
ARC
  5
5EF
100
AcDbEntity
  8
LAYER0001
  6
CONTINUOUS
 62
       7
100
AcDbCircle
 10
-178.79881754
 20
48.1120261
 30
0.0
 40
0.5
100
AcDbArc
 50
182.00000001
 51
270.0
  0
ARC
  5
5F0
100
AcDbEntity
  8
LAYER0001
  6
CONTINUOUS
 62
       7
100
AcDbCircle
 10
-138.78166193
 20
91.44479593
 30
0.0
 40
1.5
100
AcDbArc
 50
303.02731871
 51
360.0
  0
ARC
  5
5F1
100
AcDbEntity
  8
LAYER0001
  6
CONTINUOUS
 62
       7
100
AcDbCircle
 10
-195.53166126
 20
190.26203982
 30
0.0
 40
0.75
100
AcDbArc
 50
119.92643487
 51
240.07356513
  0
ARC
  5
5F2
100
AcDbEntity
  8
LAYER0001
  6
CONTINUOUS
 62
       7
100
AcDbCircle
 10
-195.53166126
 20
222.26203016
 30
0.0
 40
0.75
100
AcDbArc
 50
119.92643487
 51
240.07356513
  0
ARC
  5
5F3
100
AcDbEntity
  8
LAYER0001
  6
CONTINUOUS
 62
       7
100
AcDbCircle
 10
-195.53166126
 20
126.26202933
 30
0.0
 40
0.75
100
AcDbArc
 50
119.92643487
 51
240.07356513
  0
ARC
  5
5F4
100
AcDbEntity
  8
LAYER0001
  6
CONTINUOUS
 62
       7
100
AcDbCircle
 10
-182.94698519
 20
66.6120261
 30
0.0
 40
3.0
100
AcDbArc
 50
2.0
 51
90.0
  0
ARC
  5
5F5
100
AcDbEntity
  8
LAYER0001
  6
CONTINUOUS
 62
       7
100
AcDbCircle
 10
-160.68166126
 20
264.96646758
 30
0.0
 40
0.3
100
AcDbArc
 50
50.2363587
 51
87.47311452
  0
ARC
  5
5F6
100
AcDbEntity
  8
LAYER0001
  6
CONTINUOUS
 62
       7
100
AcDbCircle
 10
-139.03166126
 20
222.26203016
 30
0.0
 40
0.75
100
AcDbArc
 50
299.92643487
 51
420.07356513
  0
ARC
  5
5F7
100
AcDbEntity
  8
LAYER0001
  6
CONTINUOUS
 62
       7
100
AcDbCircle
 10
-207.77251668
 20
72.9997586
 30
0.0
 40
20.5
100
AcDbArc
 50
1.71149079
 51
56.97268129
  0
ARC
  5
5F8
100
AcDbEntity
  8
LAYER0001
  6
CONTINUOUS
 62
       7
100
AcDbCircle
 10
-186.72264645
 20
71.36486108
 30
0.0
 40
0.5
100
AcDbArc
 50
181.49999999
 51
225.0
  0
ARC
  5
5F9
100
AcDbEntity
  8
LAYER0001
  6
CONTINUOUS
 62
       7
100
AcDbCircle
 10
-167.28166126
 20
115.41202933
 30
0.0
 40
150.0
100
AcDbArc
 50
87.4731145
 51
92.5268855
  0
ARC
  5
5FA
100
AcDbEntity
  8
LAYER0001
  6
CONTINUOUS
 62
       7
100
AcDbCircle
 10
-139.03166126
 20
190.26203982
 30
0.0
 40
0.75
100
AcDbArc
 50
299.92643487
 51
420.07356513
  0
ARC
  5
5FB
100
AcDbEntity
  8
LAYER0001
  6
CONTINUOUS
 62
       7
100
AcDbCircle
 10
-195.78166193
 20
91.44479593
 30
0.0
 40
1.5
100
AcDbArc
 50
180.0
 51
236.97268129
  0
ARC
  5
5FC
100
AcDbEntity
  8
LAYER0001
  6
CONTINUOUS
 62
       7
100
AcDbCircle
 10
-155.76450632
 20
48.1120261
 30
0.0
 40
0.5
100
AcDbArc
 50
270.0
 51
357.99999999
  0
ARC
  5
5FD
100
AcDbEntity
  8
LAYER0001
  6
CONTINUOUS
 62
       7
100
AcDbCircle
 10
-195.53166126
 20
254.26203541
 30
0.0
 40
0.75
100
AcDbArc
 50
119.92643487
 51
240.07356513
  0
ARC
  5
5FE
100
AcDbEntity
  8
LAYER0001
  6
CONTINUOUS
 62
       7
100
AcDbCircle
 10
-195.53166126
 20
94.26202933
 30
0.0
 40
0.75
100
AcDbArc
 50
119.92643487
 51
240.07356513
  0
ARC
  5
5FF
100
AcDbEntity
  8
LAYER0001
  6
CONTINUOUS
 62
       7
100
AcDbCircle
 10
122.35036763
 20
77.35829794
 30
0.0
 40
0.5
100
AcDbArc
 50
270.0
 51
315.0
  0
ARC
  5
600
100
AcDbEntity
  8
LAYER0001
  6
CONTINUOUS
 62
       7
100
AcDbCircle
 10
132.41221877
 20
101.50830117
 30
0.0
 40
0.75
100
AcDbArc
 50
299.92643487
 51
420.07356513
  0
ARC
  5
601
100
AcDbEntity
  8
LAYER0001
  6
CONTINUOUS
 62
       7
100
AcDbCircle
 10
104.16221877
 20
122.65830117
 30
0.0
 40
150.0
100
AcDbArc
 50
78.77683982
 51
86.93226718
  0
ARC
  5
602
100
AcDbEntity
  8
LAYER0001
  6
CONTINUOUS
 62
       7
100
AcDbCircle
 10
144.65307285
 20
80.24603044
 30
0.0
 40
20.5
100
AcDbArc
 50
123.02731871
 51
178.28850921
  0
ARC
  5
603
100
AcDbEntity
  8
LAYER0001
  6
CONTINUOUS
 62
       7
100
AcDbCircle
 10
132.41221877
 20
165.50830642
 30
0.0
 40
0.75
100
AcDbArc
 50
299.92643487
 51
420.07356513
  0
ARC
  5
604
100
AcDbEntity
  8
LAYER0001
  6
CONTINUOUS
 62
       7
100
AcDbCircle
 10
75.16222085
 20
268.80890884
 30
0.0
 40
1.0
100
AcDbArc
 50
101.22316019
 51
179.99997245
  0
ARC
  5
605
100
AcDbEntity
  8
LAYER0001
  6
CONTINUOUS
 62
       7
100
AcDbCircle
 10
123.60320261
 20
78.61113293
 30
0.0
 40
0.5
100
AcDbArc
 50
314.99999999
 51
358.5
  0
ARC
  5
606
100
AcDbEntity
  8
LAYER0001
  6
CONTINUOUS
 62
       7
100
AcDbCircle
 10
133.16221668
 20
268.80890884
 30
0.0
 40
1.0
100
AcDbArc
 50
359.99999685
 51
438.77683981
  0
ARC
  5
607
100
AcDbEntity
  8
LAYER0001
  6
CONTINUOUS
 62
       7
100
AcDbCircle
 10
119.82754135
 20
73.85829794
 30
0.0
 40
3.0
100
AcDbArc
 50
90.0
 51
178.0
  0
ARC
  5
608
100
AcDbEntity
  8
LAYER0001
  6
CONTINUOUS
 62
       7
100
AcDbCircle
 10
132.41221877
 20
261.50830725
 30
0.0
 40
0.75
100
AcDbArc
 50
299.92643487
 51
420.07356513
  0
ARC
  5
609
100
AcDbEntity
  8
LAYER0001
  6
CONTINUOUS
 62
       7
100
AcDbCircle
 10
132.41221877
 20
133.50830117
 30
0.0
 40
0.75
100
AcDbArc
 50
299.92643487
 51
420.07356513
  0
ARC
  5
60A
100
AcDbEntity
  8
LAYER0001
  6
CONTINUOUS
 62
       7
100
AcDbCircle
 10
75.91221877
 20
165.50830642
 30
0.0
 40
0.75
100
AcDbArc
 50
119.92643487
 51
240.07356513
  0
ARC
  5
60B
100
AcDbEntity
  8
LAYER0001
  6
CONTINUOUS
 62
       7
100
AcDbCircle
 10
97.56221877
 20
272.21273942
 30
0.0
 40
0.3
100
AcDbArc
 50
92.52688548
 51
129.7636413
  0
ARC
  5
60C
100
AcDbEntity
  8
LAYER0001
  6
CONTINUOUS
 62
       7
100
AcDbCircle
 10
85.97406856
 20
77.35829794
 30
0.0
 40
0.5
100
AcDbArc
 50
225.0
 51
270.0
  0
ARC
  5
60D
100
AcDbEntity
  8
LAYER0001
  6
CONTINUOUS
 62
       7
100
AcDbCircle
 10
104.16221877
 20
122.65830117
 30
0.0
 40
150.0
100
AcDbArc
 50
93.06773282
 51
101.22316018
  0
ARC
  5
60E
100
AcDbEntity
  8
LAYER0001
  6
CONTINUOUS
 62
       7
100
AcDbCircle
 10
92.64506248
 20
55.35829794
 30
0.0
 40
0.5
100
AcDbArc
 50
182.00000001
 51
270.0
  0
ARC
  5
60F
100
AcDbEntity
  8
LAYER0001
  6
CONTINUOUS
 62
       7
100
AcDbCircle
 10
132.6622181
 20
98.69106778
 30
0.0
 40
1.5
100
AcDbArc
 50
303.02731871
 51
360.0
  0
ARC
  5
610
100
AcDbEntity
  8
LAYER0001
  6
CONTINUOUS
 62
       7
100
AcDbCircle
 10
75.91221877
 20
197.50831166
 30
0.0
 40
0.75
100
AcDbArc
 50
119.92643487
 51
240.07356513
  0
ARC
  5
611
100
AcDbEntity
  8
LAYER0001
  6
CONTINUOUS
 62
       7
100
AcDbCircle
 10
75.91221877
 20
229.50830201
 30
0.0
 40
0.75
100
AcDbArc
 50
119.92643487
 51
240.07356513
  0
ARC
  5
612
100
AcDbEntity
  8
LAYER0001
  6
CONTINUOUS
 62
       7
100
AcDbCircle
 10
75.91221877
 20
133.50830117
 30
0.0
 40
0.75
100
AcDbArc
 50
119.92643487
 51
240.07356513
  0
ARC
  5
613
100
AcDbEntity
  8
LAYER0001
  6
CONTINUOUS
 62
       7
100
AcDbCircle
 10
88.49689484
 20
73.85829794
 30
0.0
 40
3.0
100
AcDbArc
 50
2.0
 51
90.0
  0
ARC
  5
614
100
AcDbEntity
  8
LAYER0001
  6
CONTINUOUS
 62
       7
100
AcDbCircle
 10
110.76221877
 20
272.21273942
 30
0.0
 40
0.3
100
AcDbArc
 50
50.2363587
 51
87.47311452
  0
ARC
  5
615
100
AcDbEntity
  8
LAYER0001
  6
CONTINUOUS
 62
       7
100
AcDbCircle
 10
132.41221877
 20
229.50830201
 30
0.0
 40
0.75
100
AcDbArc
 50
299.92643487
 51
420.07356513
  0
ARC
  5
616
100
AcDbEntity
  8
LAYER0001
  6
CONTINUOUS
 62
       7
100
AcDbCircle
 10
63.67136334
 20
80.24603044
 30
0.0
 40
20.5
100
AcDbArc
 50
1.71149079
 51
56.97268129
  0
ARC
  5
617
100
AcDbEntity
  8
LAYER0001
  6
CONTINUOUS
 62
       7
100
AcDbCircle
 10
84.72123358
 20
78.61113293
 30
0.0
 40
0.5
100
AcDbArc
 50
181.49999999
 51
225.0
  0
ARC
  5
618
100
AcDbEntity
  8
LAYER0001
  6
CONTINUOUS
 62
       7
100
AcDbCircle
 10
104.16221877
 20
122.65830117
 30
0.0
 40
150.0
100
AcDbArc
 50
87.4731145
 51
92.5268855
  0
ARC
  5
619
100
AcDbEntity
  8
LAYER0001
  6
CONTINUOUS
 62
       7
100
AcDbCircle
 10
132.41221877
 20
197.50831166
 30
0.0
 40
0.75
100
AcDbArc
 50
299.92643487
 51
420.07356513
  0
ARC
  5
61A
100
AcDbEntity
  8
LAYER0001
  6
CONTINUOUS
 62
       7
100
AcDbCircle
 10
75.66221809
 20
98.69106778
 30
0.0
 40
1.5
100
AcDbArc
 50
180.0
 51
236.97268129
  0
ARC
  5
61B
100
AcDbEntity
  8
LAYER0001
  6
CONTINUOUS
 62
       7
100
AcDbCircle
 10
115.67937371
 20
55.35829794
 30
0.0
 40
0.5
100
AcDbArc
 50
270.0
 51
357.99999999
  0
ARC
  5
61C
100
AcDbEntity
  8
LAYER0001
  6
CONTINUOUS
 62
       7
100
AcDbCircle
 10
75.91221877
 20
261.50830725
 30
0.0
 40
0.75
100
AcDbArc
 50
119.92643487
 51
240.07356513
  0
ARC
  5
61D
100
AcDbEntity
  8
LAYER0001
  6
CONTINUOUS
 62
       7
100
AcDbCircle
 10
75.91221877
 20
101.50830117
 30
0.0
 40
0.75
100
AcDbArc
 50
119.92643487
 51
240.07356513
  0
ARC
  5
61E
100
AcDbEntity
  8
LAYER0001
  6
CONTINUOUS
 62
       7
100
AcDbCircle
 10
283.24638318
 20
77.35829794
 30
0.0
 40
0.5
100
AcDbArc
 50
270.0
 51
315.0
  0
ARC
  5
61F
100
AcDbEntity
  8
LAYER0001
  6
CONTINUOUS
 62
       7
100
AcDbCircle
 10
293.30823432
 20
101.50830117
 30
0.0
 40
0.75
100
AcDbArc
 50
299.92643487
 51
420.07356513
  0
ARC
  5
620
100
AcDbEntity
  8
LAYER0001
  6
CONTINUOUS
 62
       7
100
AcDbCircle
 10
265.05823432
 20
122.65830117
 30
0.0
 40
150.0
100
AcDbArc
 50
78.77683982
 51
86.93226718
  0
ARC
  5
621
100
AcDbEntity
  8
LAYER0001
  6
CONTINUOUS
 62
       7
100
AcDbCircle
 10
305.5490884
 20
80.24603044
 30
0.0
 40
20.5
100
AcDbArc
 50
123.02731871
 51
178.28850921
  0
ARC
  5
622
100
AcDbEntity
  8
LAYER0001
  6
CONTINUOUS
 62
       7
100
AcDbCircle
 10
293.30823432
 20
165.50830642
 30
0.0
 40
0.75
100
AcDbArc
 50
299.92643487
 51
420.07356513
  0
ARC
  5
623
100
AcDbEntity
  8
LAYER0001
  6
CONTINUOUS
 62
       7
100
AcDbCircle
 10
236.05823641
 20
268.80890884
 30
0.0
 40
1.0
100
AcDbArc
 50
101.22316019
 51
179.99997245
  0
ARC
  5
624
100
AcDbEntity
  8
LAYER0001
  6
CONTINUOUS
 62
       7
100
AcDbCircle
 10
284.49921817
 20
78.61113293
 30
0.0
 40
0.5
100
AcDbArc
 50
314.99999999
 51
358.5
  0
ARC
  5
625
100
AcDbEntity
  8
LAYER0001
  6
CONTINUOUS
 62
       7
100
AcDbCircle
 10
294.05823223
 20
268.80890884
 30
0.0
 40
1.0
100
AcDbArc
 50
359.99999685
 51
438.77683981
  0
ARC
  5
626
100
AcDbEntity
  8
LAYER0001
  6
CONTINUOUS
 62
       7
100
AcDbCircle
 10
280.7235569
 20
73.85829794
 30
0.0
 40
3.0
100
AcDbArc
 50
90.0
 51
178.0
  0
ARC
  5
627
100
AcDbEntity
  8
LAYER0001
  6
CONTINUOUS
 62
       7
100
AcDbCircle
 10
293.30823432
 20
261.50830725
 30
0.0
 40
0.75
100
AcDbArc
 50
299.92643487
 51
420.07356513
  0
ARC
  5
628
100
AcDbEntity
  8
LAYER0001
  6
CONTINUOUS
 62
       7
100
AcDbCircle
 10
293.30823432
 20
133.50830117
 30
0.0
 40
0.75
100
AcDbArc
 50
299.92643487
 51
420.07356513
  0
ARC
  5
629
100
AcDbEntity
  8
LAYER0001
  6
CONTINUOUS
 62
       7
100
AcDbCircle
 10
236.80823432
 20
165.50830642
 30
0.0
 40
0.75
100
AcDbArc
 50
119.92643487
 51
240.07356513
  0
ARC
  5
62A
100
AcDbEntity
  8
LAYER0001
  6
CONTINUOUS
 62
       7
100
AcDbCircle
 10
258.45823432
 20
272.21273942
 30
0.0
 40
0.3
100
AcDbArc
 50
92.52688548
 51
129.7636413
  0
ARC
  5
62B
100
AcDbEntity
  8
LAYER0001
  6
CONTINUOUS
 62
       7
100
AcDbCircle
 10
246.87008412
 20
77.35829794
 30
0.0
 40
0.5
100
AcDbArc
 50
225.0
 51
270.0
  0
ARC
  5
62C
100
AcDbEntity
  8
LAYER0001
  6
CONTINUOUS
 62
       7
100
AcDbCircle
 10
265.05823432
 20
122.65830117
 30
0.0
 40
150.0
100
AcDbArc
 50
93.06773282
 51
101.22316018
  0
ARC
  5
62D
100
AcDbEntity
  8
LAYER0001
  6
CONTINUOUS
 62
       7
100
AcDbCircle
 10
253.54107804
 20
55.35829794
 30
0.0
 40
0.5
100
AcDbArc
 50
182.00000001
 51
270.0
  0
ARC
  5
62E
100
AcDbEntity
  8
LAYER0001
  6
CONTINUOUS
 62
       7
100
AcDbCircle
 10
293.55823365
 20
98.69106778
 30
0.0
 40
1.5
100
AcDbArc
 50
303.02731871
 51
360.0
  0
ARC
  5
62F
100
AcDbEntity
  8
LAYER0001
  6
CONTINUOUS
 62
       7
100
AcDbCircle
 10
236.80823432
 20
197.50831166
 30
0.0
 40
0.75
100
AcDbArc
 50
119.92643487
 51
240.07356513
  0
ARC
  5
630
100
AcDbEntity
  8
LAYER0001
  6
CONTINUOUS
 62
       7
100
AcDbCircle
 10
236.80823432
 20
229.50830201
 30
0.0
 40
0.75
100
AcDbArc
 50
119.92643487
 51
240.07356513
  0
ARC
  5
631
100
AcDbEntity
  8
LAYER0001
  6
CONTINUOUS
 62
       7
100
AcDbCircle
 10
236.80823432
 20
133.50830117
 30
0.0
 40
0.75
100
AcDbArc
 50
119.92643487
 51
240.07356513
  0
ARC
  5
632
100
AcDbEntity
  8
LAYER0001
  6
CONTINUOUS
 62
       7
100
AcDbCircle
 10
249.3929104
 20
73.85829794
 30
0.0
 40
3.0
100
AcDbArc
 50
2.0
 51
90.0
  0
ARC
  5
633
100
AcDbEntity
  8
LAYER0001
  6
CONTINUOUS
 62
       7
100
AcDbCircle
 10
271.65823432
 20
272.21273942
 30
0.0
 40
0.3
100
AcDbArc
 50
50.2363587
 51
87.47311452
  0
ARC
  5
634
100
AcDbEntity
  8
LAYER0001
  6
CONTINUOUS
 62
       7
100
AcDbCircle
 10
293.30823432
 20
229.50830201
 30
0.0
 40
0.75
100
AcDbArc
 50
299.92643487
 51
420.07356513
  0
ARC
  5
635
100
AcDbEntity
  8
LAYER0001
  6
CONTINUOUS
 62
       7
100
AcDbCircle
 10
224.5673789
 20
80.24603044
 30
0.0
 40
20.5
100
AcDbArc
 50
1.71149079
 51
56.97268129
  0
ARC
  5
636
100
AcDbEntity
  8
LAYER0001
  6
CONTINUOUS
 62
       7
100
AcDbCircle
 10
245.61724913
 20
78.61113293
 30
0.0
 40
0.5
100
AcDbArc
 50
181.49999999
 51
225.0
  0
ARC
  5
637
100
AcDbEntity
  8
LAYER0001
  6
CONTINUOUS
 62
       7
100
AcDbCircle
 10
265.05823432
 20
122.65830117
 30
0.0
 40
150.0
100
AcDbArc
 50
87.4731145
 51
92.5268855
  0
ARC
  5
638
100
AcDbEntity
  8
LAYER0001
  6
CONTINUOUS
 62
       7
100
AcDbCircle
 10
293.30823432
 20
197.50831166
 30
0.0
 40
0.75
100
AcDbArc
 50
299.92643487
 51
420.07356513
  0
ARC
  5
639
100
AcDbEntity
  8
LAYER0001
  6
CONTINUOUS
 62
       7
100
AcDbCircle
 10
236.55823365
 20
98.69106778
 30
0.0
 40
1.5
100
AcDbArc
 50
180.0
 51
236.97268129
  0
ARC
  5
63A
100
AcDbEntity
  8
LAYER0001
  6
CONTINUOUS
 62
       7
100
AcDbCircle
 10
276.57538926
 20
55.35829794
 30
0.0
 40
0.5
100
AcDbArc
 50
270.0
 51
357.99999999
  0
ARC
  5
63B
100
AcDbEntity
  8
LAYER0001
  6
CONTINUOUS
 62
       7
100
AcDbCircle
 10
236.80823432
 20
261.50830725
 30
0.0
 40
0.75
100
AcDbArc
 50
119.92643487
 51
240.07356513
  0
ARC
  5
63C
100
AcDbEntity
  8
LAYER0001
  6
CONTINUOUS
 62
       7
100
AcDbCircle
 10
236.80823432
 20
101.50830117
 30
0.0
 40
0.75
100
AcDbArc
 50
119.92643487
 51
240.07356513
  0
ARC
  5
63D
100
AcDbEntity
  8
LAYER0001
  6
CONTINUOUS
 62
       7
100
AcDbCircle
 10
272.25823346
 20
-250.14170152
 30
0.0
 40
0.49999998
100
AcDbArc
 50
270.0
 51
359.99997268
  0
ARC
  5
63E
100
AcDbEntity
  8
LAYER0001
  6
CONTINUOUS
 62
       7
100
AcDbCircle
 10
257.85823346
 20
-250.14170152
 30
0.0
 40
0.49999998
100
AcDbArc
 50
180.00002732
 51
270.0
  0
ARC
  5
63F
100
AcDbEntity
  8
LAYER0001
  6
CONTINUOUS
 62
       7
100
AcDbCircle
 10
271.82902162
 20
-250.84170152
 30
0.0
 40
0.10000267
100
AcDbArc
 50
270.0
 51
339.99553297
  0
ARC
  5
640
100
AcDbEntity
  8
LAYER0001
  6
CONTINUOUS
 62
       7
100
AcDbCircle
 10
258.28744527
 20
-250.84170152
 30
0.0
 40
0.10000267
100
AcDbArc
 50
200.00446705
 51
270.0
  0
ARC
  5
641
100
AcDbEntity
  8
LAYER0001
  6
CONTINUOUS
 62
       7
100
AcDbCircle
 10
243.05823714
 20
-228.64170152
 30
0.0
 40
5.0
100
AcDbArc
 50
90.0
 51
180.0
  0
ARC
  5
642
100
AcDbEntity
  8
LAYER0001
  6
CONTINUOUS
 62
       7
100
AcDbCircle
 10
243.05823714
 20
-228.64170152
 30
0.0
 40
8.0000037
100
AcDbArc
 50
89.99999915
 51
180.0
  0
ARC
  5
643
100
AcDbEntity
  8
LAYER0001
  6
CONTINUOUS
 62
       7
100
AcDbCircle
 10
-212.16502775
 20
-218.22341198
 30
0.0
 40
2.00000062
100
AcDbArc
 50
95.0
 51
178.99985587
  0
ARC
  5
644
100
AcDbEntity
  8
LAYER0001
  6
CONTINUOUS
 62
       7
100
AcDbCircle
 10
-122.39829653
 20
-218.22341198
 30
0.0
 40
2.00000062
100
AcDbArc
 50
1.00014413
 51
85.0
  0
ARC
  5
645
100
AcDbEntity
  8
LAYER0001
  6
CONTINUOUS
 62
       7
100
AcDbCircle
 10
-142.06105162
 20
-204.45730515
 30
0.0
 40
10.00000064
100
AcDbArc
 50
183.0
 51
265.00000057
  0
ARC
  5
646
100
AcDbEntity
  8
LAYER0001
  6
CONTINUOUS
 62
       7
100
AcDbCircle
 10
-192.50227263
 20
-204.45730547
 30
0.0
 40
10.00000032
100
AcDbArc
 50
274.99999944
 51
357.0
  0
ARC
  5
647
100
AcDbEntity
  8
LAYER0001
  6
CONTINUOUS
 62
       7
100
AcDbCircle
 10
117.16221789
 20
-268.59615267
 30
0.0
 40
3.0
100
AcDbArc
 50
319.8808331
 51
360.0
  0
ARC
  5
648
100
AcDbEntity
  8
LAYER0001
  6
CONTINUOUS
 62
       7
100
AcDbCircle
 10
104.16221789
 20
-257.64170152
 30
0.0
 40
20.0
100
AcDbArc
 50
220.1191669
 51
319.8808331
  0
CIRCLE
  5
649
100
AcDbEntity
  8
LAYER0001
  6
CONTINUOUS
 62
       7
100
AcDbCircle
 10
104.16221789
 20
-247.64170152
 30
0.0
 40
4.5
  0
CIRCLE
  5
64A
100
AcDbEntity
  8
LAYER0001
  6
CONTINUOUS
 62
       7
100
AcDbCircle
 10
104.16221789
 20
-267.64170152
 30
0.0
 40
4.5
  0
ARC
  5
64B
100
AcDbEntity
  8
LAYER0001
  6
CONTINUOUS
 62
       7
100
AcDbCircle
 10
91.16221789
 20
-268.59615267
 30
0.0
 40
3.0
100
AcDbArc
 50
180.0
 51
220.1191669
  0
INSERT
  5
64C
100
AcDbEntity
  8
LAYER0001
  6
CONTINUOUS
100
AcDbBlockReference
  2
GROUP_1
 10
0.0
 20
0.0
 30
0.0
  0
INSERT
  5
64D
100
AcDbEntity
  8
LAYER0001
  6
CONTINUOUS
100
AcDbBlockReference
  2
GROUP_2
 10
0.0
 20
0.0
 30
0.0
  0
INSERT
  5
64E
100
AcDbEntity
  8
LAYER0001
  6
CONTINUOUS
100
AcDbBlockReference
  2
GROUP_3
 10
0.0
 20
0.0
 30
0.0
  0
INSERT
  5
64F
100
AcDbEntity
  8
LAYER0001
  6
CONTINUOUS
100
AcDbBlockReference
  2
GROUP_4
 10
0.0
 20
0.0
 30
0.0
  0
INSERT
  5
650
100
AcDbEntity
  8
LAYER0001
  6
CONTINUOUS
100
AcDbBlockReference
  2
GROUP_5
 10
0.0
 20
0.0
 30
0.0
  0
INSERT
  5
651
100
AcDbEntity
  8
LAYER0001
  6
CONTINUOUS
100
AcDbBlockReference
  2
GROUP_6
 10
0.0
 20
0.0
 30
0.0
  0
INSERT
  5
652
100
AcDbEntity
  8
LAYER0001
  6
CONTINUOUS
100
AcDbBlockReference
  2
GROUP_7
 10
0.0
 20
0.0
 30
0.0
  0
INSERT
  5
653
100
AcDbEntity
  8
LAYER0001
  6
CONTINUOUS
100
AcDbBlockReference
  2
GROUP_8
 10
0.0
 20
0.0
 30
0.0
  0
INSERT
  5
654
100
AcDbEntity
  8
LAYER0001
  6
CONTINUOUS
100
AcDbBlockReference
  2
GROUP_9
 10
0.0
 20
0.0
 30
0.0
  0
INSERT
  5
655
100
AcDbEntity
  8
LAYER0001
  6
CONTINUOUS
100
AcDbBlockReference
  2
GROUP_10
 10
0.0
 20
0.0
 30
0.0
  0
INSERT
  5
656
100
AcDbEntity
  8
LAYER0001
  6
CONTINUOUS
100
AcDbBlockReference
  2
GROUP_11
 10
0.0
 20
0.0
 30
0.0
  0
INSERT
  5
657
100
AcDbEntity
  8
LAYER0001
  6
CONTINUOUS
100
AcDbBlockReference
  2
GROUP_12
 10
0.0
 20
0.0
 30
0.0
  0
INSERT
  5
658
100
AcDbEntity
  8
LAYER0001
  6
CONTINUOUS
100
AcDbBlockReference
  2
GROUP_13
 10
0.0
 20
0.0
 30
0.0
  0
INSERT
  5
659
100
AcDbEntity
  8
LAYER0001
  6
CONTINUOUS
100
AcDbBlockReference
  2
GROUP_14
 10
0.0
 20
0.0
 30
0.0
  0
INSERT
  5
65A
100
AcDbEntity
  8
LAYER0001
  6
CONTINUOUS
100
AcDbBlockReference
  2
GROUP_15
 10
0.0
 20
0.0
 30
0.0
  0
INSERT
  5
65B
100
AcDbEntity
  8
LAYER0001
  6
CONTINUOUS
100
AcDbBlockReference
  2
GROUP_16
 10
0.0
 20
0.0
 30
0.0
  0
INSERT
  5
65C
100
AcDbEntity
  8
LAYER0001
  6
CONTINUOUS
100
AcDbBlockReference
  2
GROUP_17
 10
0.0
 20
0.0
 30
0.0
  0
INSERT
  5
65D
100
AcDbEntity
  8
LAYER0001
  6
CONTINUOUS
100
AcDbBlockReference
  2
GROUP_18
 10
0.0
 20
0.0
 30
0.0
  0
INSERT
  5
65E
100
AcDbEntity
  8
LAYER0001
  6
CONTINUOUS
100
AcDbBlockReference
  2
GROUP_19
 10
0.0
 20
0.0
 30
0.0
  0
INSERT
  5
65F
100
AcDbEntity
  8
LAYER0001
  6
CONTINUOUS
100
AcDbBlockReference
  2
GROUP_20
 10
0.0
 20
0.0
 30
0.0
  0
INSERT
  5
660
100
AcDbEntity
  8
LAYER0001
  6
CONTINUOUS
100
AcDbBlockReference
  2
GROUP_21
 10
0.0
 20
0.0
 30
0.0
  0
INSERT
  5
661
100
AcDbEntity
  8
LAYER0001
  6
CONTINUOUS
100
AcDbBlockReference
  2
GROUP_22
 10
0.0
 20
0.0
 30
0.0
  0
INSERT
  5
662
100
AcDbEntity
  8
LAYER0001
  6
CONTINUOUS
100
AcDbBlockReference
  2
GROUP_23
 10
0.0
 20
0.0
 30
0.0
  0
INSERT
  5
663
100
AcDbEntity
  8
LAYER0001
  6
CONTINUOUS
100
AcDbBlockReference
  2
GROUP_24
 10
0.0
 20
0.0
 30
0.0
  0
INSERT
  5
664
100
AcDbEntity
  8
LAYER0001
  6
CONTINUOUS
100
AcDbBlockReference
  2
GROUP_25
 10
0.0
 20
0.0
 30
0.0
  0
INSERT
  5
665
100
AcDbEntity
  8
LAYER0001
  6
CONTINUOUS
100
AcDbBlockReference
  2
GROUP_26
 10
0.0
 20
0.0
 30
0.0
  0
INSERT
  5
666
100
AcDbEntity
  8
LAYER0001
  6
CONTINUOUS
100
AcDbBlockReference
  2
GROUP_27
 10
0.0
 20
0.0
 30
0.0
  0
INSERT
  5
667
100
AcDbEntity
  8
LAYER0001
  6
CONTINUOUS
100
AcDbBlockReference
  2
GROUP_28
 10
0.0
 20
0.0
 30
0.0
  0
INSERT
  5
668
100
AcDbEntity
  8
LAYER0001
  6
CONTINUOUS
100
AcDbBlockReference
  2
GROUP_29
 10
0.0
 20
0.0
 30
0.0
  0
INSERT
  5
669
100
AcDbEntity
  8
LAYER0001
  6
CONTINUOUS
100
AcDbBlockReference
  2
GROUP_30
 10
0.0
 20
0.0
 30
0.0
  0
INSERT
  5
66A
100
AcDbEntity
  8
LAYER0001
  6
CONTINUOUS
100
AcDbBlockReference
  2
GROUP_31
 10
0.0
 20
0.0
 30
0.0
  0
INSERT
  5
66B
100
AcDbEntity
  8
LAYER0001
  6
CONTINUOUS
100
AcDbBlockReference
  2
GROUP_32
 10
0.0
 20
0.0
 30
0.0
  0
INSERT
  5
66C
100
AcDbEntity
  8
LAYER0001
  6
CONTINUOUS
100
AcDbBlockReference
  2
GROUP_33
 10
0.0
 20
0.0
 30
0.0
  0
INSERT
  5
66D
100
AcDbEntity
  8
LAYER0001
  6
CONTINUOUS
100
AcDbBlockReference
  2
GROUP_34
 10
0.0
 20
0.0
 30
0.0
  0
INSERT
  5
66E
100
AcDbEntity
  8
LAYER0001
  6
CONTINUOUS
100
AcDbBlockReference
  2
GROUP_35
 10
0.0
 20
0.0
 30
0.0
  0
INSERT
  5
66F
100
AcDbEntity
  8
LAYER0001
  6
CONTINUOUS
100
AcDbBlockReference
  2
GROUP_36
 10
0.0
 20
0.0
 30
0.0
  0
TEXT
  5
670
100
AcDbEntity
  8
LAYER0001
 62
       7
100
AcDbText
 10
320.5489359
 20
-269.52175975
 30
0.0
 40
9.525
  1
000
 72
       5
 11
349.1239359
 21
-269.52175975
 31
0.0
100
AcDbText
  0
TEXT
  5
671
100
AcDbEntity
  8
LAYER0001
 62
       7
100
AcDbText
 10
-138.81927244
 20
-242.99988727
 30
0.0
 40
6.35
  1
Lamp 5 Layers shown
 72
       5
 11
-18.16927244
 21
-242.99988727
 31
0.0
100
AcDbText
  0
TEXT
  5
672
100
AcDbEntity
  8
LAYER0001
 62
       7
100
AcDbText
 10
295.8204413
 20
-246.35247997
 30
0.0
 40
6.35
  1
Lamp 5 Layers shown
 72
       5
 11
416.4704413
 21
-246.35247997
 31
0.0
100
AcDbText
  0
ENDSEC
  0
SECTION
  2
OBJECTS
  0
DICTIONARY
  5
19
100
AcDbDictionary
  3
ACAD_GROUP
350
1A
  3
ACAD_MLINESTYLE
350
1B
  0
DICTIONARY
  5
1A
102
{ACAD_REACTORS
330
19
102
}
100
AcDbDictionary
  0
DICTIONARY
  5
1B
102
{ACAD_REACTORS
330
19
102
}
100
AcDbDictionary
  3
STANDARD
350
1C
  0
MLINESTYLE
  5
1C
102
{ACAD_REACTORS
330
1B
102
}
100
AcDbMlineStyle
  2
STANDARD
 70
       0
  3

 62
       0
 51
90.0
 52
90.0
 71
       2
 49
0.5
 62
     256
  6
BYLAYER
 49
-0.5
 62
     256
  6
BYLAYER
  0
ENDSEC
  0
EOF

