  0
SECTION
  2
HEADER
  9
$ACADVER
  1
AC1014
  9
$ACADMAINTVER
 70
       0
  9
$DWGCODEPAGE
  3
ANSI_932
  9
$INSBASE
 10
0.0
 20
0.0
 30
0.0
  9
$EXTMIN
 10
-208.84728562
 20
-266.17843882
 30
0.0
  9
$EXTMAX
 10
190.34988987
 20
266.17843882
 30
0.0
  9
$LIMMIN
 10
-221.32219735
 20
-282.81459125
  9
$LIMMAX
 10
202.8248016
 20
282.81459125
  9
$ORTHOMODE
 70
       0
  9
$REGENMODE
 70
       1
  9
$FILLMODE
 70
       1
  9
$QTEXTMODE
 70
       0
  9
$MIRRTEXT
 70
       1
  9
$DRAGMODE
 70
       2
  9
$LTSCALE
 40
1.0
  9
$OSMODE
 70
       0
  9
$ATTMODE
 70
       1
  9
$TEXTSIZE
 40
0.2
  9
$TRACEWID
 40
0.05
  9
$TEXTSTYLE
  7
STANDARD
  9
$CLAYER
  8
0
  9
$CELTYPE
  6
CONTINUOUS
  9
$CECOLOR
 62
     256
  9
$CELTSCALE
 40
1.0
  9
$DELOBJ
 70
       1
  9
$DISPSILH
 70
       0
  9
$DIMSCALE
 40
1.0
  9
$DIMASZ
 40
0.18
  9
$DIMEXO
 40
0.0625
  9
$DIMDLI
 40
0.38
  9
$DIMRND
 40
0.0
  9
$DIMDLE
 40
0.0
  9
$DIMEXE
 40
0.18
  9
$DIMTP
 40
0.0
  9
$DIMTM
 40
0.0
  9
$DIMTXT
 40
0.18
  9
$DIMCEN
 40
0.09
  9
$DIMTSZ
 40
0.0
  9
$DIMTOL
 70
       0
  9
$DIMLIM
 70
       0
  9
$DIMTIH
 70
       1
  9
$DIMTOH
 70
       1
  9
$DIMSE1
 70
       0
  9
$DIMSE2
 70
       0
  9
$DIMTAD
 70
       0
  9
$DIMZIN
 70
       0
  9
$DIMBLK
  1

  9
$DIMASO
 70
       1
  9
$DIMSHO
 70
       1
  9
$DIMPOST
  1

  9
$DIMAPOST
  1

  9
$DIMALT
 70
       0
  9
$DIMALTD
 70
       2
  9
$DIMALTF
 40
25.4
  9
$DIMLFAC
 40
1.0
  9
$DIMTOFL
 70
       0
  9
$DIMTVP
 40
0.0
  9
$DIMTIX
 70
       0
  9
$DIMSOXD
 70
       0
  9
$DIMSAH
 70
       0
  9
$DIMBLK1
  1

  9
$DIMBLK2
  1

  9
$DIMSTYLE
  2
STANDARD
  9
$DIMCLRD
 70
       0
  9
$DIMCLRE
 70
       0
  9
$DIMCLRT
 70
       0
  9
$DIMTFAC
 40
1.0
  9
$DIMGAP
 40
0.09
  9
$DIMJUST
 70
       0
  9
$DIMSD1
 70
       0
  9
$DIMSD2
 70
       0
  9
$DIMTOLJ
 70
       1
  9
$DIMTZIN
 70
       0
  9
$DIMALTZ
 70
       0
  9
$DIMALTTZ
 70
       0
  9
$DIMFIT
 70
       3
  9
$DIMUPT
 70
       0
  9
$DIMUNIT
 70
       2
  9
$DIMDEC
 70
       4
  9
$DIMTDEC
 70
       4
  9
$DIMALTU
 70
       2
  9
$DIMALTTD
 70
       2
  9
$DIMTXSTY
  7
STANDARD
  9
$DIMAUNIT
 70
       0
  9
$LUNITS
 70
       2
  9
$LUPREC
 70
       4
  9
$SKETCHINC
 40
0.1
  9
$FILLETRAD
 40
0.0
  9
$AUNITS
 70
       0
  9
$AUPREC
 70
       0
  9
$MENU
  1
acad
  9
$ELEVATION
 40
0.0
  9
$PELEVATION
 40
0.0
  9
$THICKNESS
 40
0.0
  9
$LIMCHECK
 70
       0
  9
$BLIPMODE
 70
       1
  9
$CHAMFERA
 40
0.0
  9
$CHAMFERB
 40
0.0
  9
$CHAMFERC
 40
0.0
  9
$CHAMFERD
 40
0.0
  9
$SKPOLY
 70
       0
  9
$TDCREATE
 40
0.000000000
  9
$TDUPDATE
 40
0.000000000
  9
$TDINDWG
 40
0.0000000000
  9
$TDUSRTIMER
 40
0.0000000000
  9
$USRTIMER
 70
       1
  9
$ANGBASE
 50
0.0
  9
$ANGDIR
 70
       0
  9
$PDMODE
 70
       0
  9
$PDSIZE
 40
1.0
  9
$PLINEWID
 40
0.0
  9
$COORDS
 70
       1
  9
$SPLFRAME
 70
       0
  9
$SPLINETYPE
 70
       6
  9
$SPLINESEGS
 70
       8
  9
$ATTDIA
 70
       0
  9
$ATTREQ
 70
       1
  9
$HANDLING
 70
       1
  9
$HANDSEED
  5
52E
  9
$SURFTAB1
 70
       6
  9
$SURFTAB2
 70
       6
  9
$SURFTYPE
 70
       6
  9
$SURFU
 70
       6
  9
$SURFV
 70
       6
  9
$UCSNAME
  2

  9
$UCSORG
 10
0.0
 20
0.0
 30
0.0
  9
$UCSXDIR
 10
1.0
 20
0.0
 30
0.0
  9
$UCSYDIR
 10
0.0
 20
1.0
 30
0.0
  9
$PUCSNAME
  2

  9
$PUCSORG
 10
0.0
 20
0.0
 30
0.0
  9
$PUCSXDIR
 10
1.0
 20
0.0
 30
0.0
  9
$PUCSYDIR
 10
0.0
 20
1.0
 30
0.0
  9
$USERI1
 70
       0
  9
$USERI2
 70
       0
  9
$USERI3
 70
       0
  9
$USERI4
 70
       0
  9
$USERI5
 70
       0
  9
$USERR1
 40
0.0
  9
$USERR2
 40
0.0
  9
$USERR3
 40
0.0
  9
$USERR4
 40
0.0
  9
$USERR5
 40
0.0
  9
$WORLDVIEW
 70
       1
  9
$SHADEDGE
 70
       3
  9
$SHADEDIF
 70
      70
  9
$TILEMODE
 70
       1
  9
$MAXACTVP
 70
      16
  9
$PINSBASE
 10
0.0
 20
0.0
 30
0.0
  9
$PLIMCHECK
 70
       0
  9
$PEXTMIN
 10
1.00000000E+20
 20
1.00000000E+20
 30
1.00000000E+20
  9
$PEXTMAX
 10
-1.00000000E+20
 20
-1.00000000E+20
 30
-1.00000000E+20
  9
$PLIMMIN
 10
0.0
 20
0.0
  9
$PLIMMAX
 10
12.0
 20
9.0
  9
$UNITMODE
 70
       0
  9
$VISRETAIN
 70
       0
  9
$PLINEGEN
 70
       1
  9
$PSLTSCALE
 70
       0
  9
$TREEDEPTH
 70
    3020
  9
$PICKSTYLE
 70
       1
  9
$CMLSTYLE
  2
STANDARD
  9
$CMLJUST
 70
       0
  9
$CMLSCALE
 40
1.0
  9
$PROXYGRAPHICS
 70
       0
  9
$MEASUREMENT
 70
       0
  0
ENDSEC
  0
SECTION
  2
CLASSES
  0
CLASS
  1
LWPOLYLINE
  2
AcDbPolyline
  3
"AutoCAD"
 90
        0
280
       0
281
       1
  0
CLASS
  1
IMAGE
  2
AcDbRasterImage
  3
ISM
 90
      127
280
       0
281
       1
  0
CLASS
  1
OLE2FRAME
  2
AcDbOle2Frame
  3
""
 90
        0
280
       0
281
       1
  0
CLASS
  1
HATCH
  2
AcDbHatch
  3
"ACAD_SEDONA"
 90
        0
280
       0
281
       1
  0
CLASS
  1
DICTIONARYVAR
  2
AcDbDictionaryVar
  3
"AutoCAD"
 90
        0
280
       0
281
       0
  0
CLASS
  1
RASTERVARIABLES
  2
AcDbRasterVariables
  3
ISM
 90
        0
280
       0
281
       0
  0
CLASS
  1
IMAGEDEF
  2
AcDbRasterImageDef
  3
ISM
 90
        0
280
       0
281
       0
  0
CLASS
  1
IMAGEDEF_REACTOR
  2
AcDbRasterImageDefReactor
  3
ISM
 90
        1
280
       0
281
       0
  0
CLASS
  1
IDBUFFER
  2
AcDbIdBuffer
  3
"Acad"
 90
        0
280
       0
281
       0
  0
CLASS
  1
SPATIAL_FILTER
  2
AcDbSpatialFilter
  3
"Acad"
 90
        0
280
       0
281
       0
  0
CLASS
  1
XRECORD
  2
AcDbXrecord
  3
"<Built In>"
 90
        0
280
       0
281
       0
  0
CLASS
  1
SORTENTSTABLE
  2
AcDbSortentsTable
  3
"AutoCAD"
 90
        0
280
       0
281
       0
  0
CLASS
  1
LAYER_INDEX
  2
AcDbLayerIndex
  3
"Acad"
 90
        0
280
       0
281
       0
  0
CLASS
  1
SPATIAL_INDEX
  2
AcDbSpatialIndex
  3
"Acad"
 90
        0
280
       0
281
       0
  0
CLASS
  1
OBJECT_PTR
  2
CAseDLPNTableRecord
  3
"ASE-LPNTableRecord"
 90
        1
280
       0
281
       0
  0
CLASS
  1
LAYOUT
  2
AcDbLayout
  3
"AutoCAD 2000"
 90
        1
280
       0
281
       0
  0
CLASS
  1
PLOTSETTINGS
  2
AcDbPlotSettings
  3
"AutoCAD 2000"
 90
        1
280
       0
281
       0
  0
CLASS
  1
ACDBDICTIONARYWDFLT
  2
AcDbDictionaryWithDefault
  3
"AutoCAD 2000"
 90
        1
280
       0
281
       0
  0
CLASS
  1
ACDBPLACEHOLDER
  2
AcDbPlaceHolder
  3
"AutoCAD 2000"
 90
        1
280
       0
281
       0
  0
CLASS
  1
VBA_PROJECT
  2
AcDbVbaProject
  3
"acadvba"
 90
        1
280
       0
281
       0
  0
CLASS
  1
WIPEOUT
  2
AcDbWipeout
  3
WipeOut|AutoCAD Express Tool|expresstools@autodesk.com
 90
      127
280
       0
281
       1
  0
CLASS
  1
WIPEOUTVARIABLES
  2
AcDbWipeoutVariables
  3
WipeOut|AutoCAD Express Tool|expresstools@autodesk.com
 90
        0
280
       0
281
       0
  0
CLASS
  1
RTEXT
  2
RText
  3
RText|AutoCAD Express Tool|expresstools@autodesk.com
 90
        0
280
       0
281
       1
  0
CLASS
  1
ARCALIGNEDTEXT
  2
AcDbArcAlignedText
  3
ATEXT|AutoCAD Express Tool|expresstools@autodesk.com
 90
        0
280
       0
281
       1
  0
ENDSEC
  0
SECTION
  2
TABLES
  0
TABLE
  2
VPORT
  5
7
100
AcDbSymbolTable
 70
       1
  0
VPORT
  5
15
100
AcDbSymbolTableRecord
100
AcDbViewportTableRecord
  2
*ACTIVE
 70
       0
 10
0.0
 20
0.0
 11
1.0
 21
1.0
 12
-9.24869788
 22
0.0
 13
0.0
 23
0.0
 14
1.0
 24
1.0
 15
0.0
 25
0.0
 16
0.0
 26
0.0
 36
1.0
 17
0.0
 27
0.0
 37
0.0
 40
565.6291825
 41
0.7498676
 42
50.0
 43
0.0
 44
0.0
 50
0.0
 51
0.0
 71
       0
 72
     100
 73
       1
 74
       1
 75
       0
 76
       0
 77
       0
 78
       0
  0
ENDTAB
  0
TABLE
  2
LTYPE
  5
4
100
AcDbSymbolTable
 70
      30
  0
LTYPE
  5
11
100
AcDbSymbolTableRecord
100
AcDbLinetypeTableRecord
  2
BYBLOCK
 70
      64
  3

 72
      65
 73
       0
 40
0.0
  0
LTYPE
  5
12
100
AcDbSymbolTableRecord
100
AcDbLinetypeTableRecord
  2
BYLAYER
 70
      64
  3

 72
      65
 73
       0
 40
0.0
  0
LTYPE
  5
13
100
AcDbSymbolTableRecord
100
AcDbLinetypeTableRecord
  2
CONTINUOUS
 70
      64
  3
Solid line
 72
      65
 73
       0
 40
0.0
  0
LTYPE
  5
1D
100
AcDbSymbolTableRecord
100
AcDbLinetypeTableRecord
  2
HIDDENX2
 70
      64
  3
CADPAC LINETYPE
 72
      65
 73
       2
 40
30.10569929
 49
22.57927447
 74
       0
 49
-7.52642482
 74
       0
  0
LTYPE
  5
1E
100
AcDbSymbolTableRecord
100
AcDbLinetypeTableRecord
  2
HIDDEN
 70
      64
  3
CADPAC LINETYPE
 72
      65
 73
       2
 40
22.57927447
 49
15.05284964
 74
       0
 49
-7.52642482
 74
       0
  0
LTYPE
  5
1F
100
AcDbSymbolTableRecord
100
AcDbLinetypeTableRecord
  2
HIDDEN2
 70
      64
  3
CADPAC LINETYPE
 72
      65
 73
       2
 40
18.81606205
 49
11.28963723
 74
       0
 49
-7.52642482
 74
       0
  0
LTYPE
  5
20
100
AcDbSymbolTableRecord
100
AcDbLinetypeTableRecord
  2
DASHED
 70
      64
  3
CADPAC LINETYPE
 72
      65
 73
       2
 40
22.57927447
 49
15.05284964
 74
       0
 49
-7.52642482
 74
       0
  0
LTYPE
  5
21
100
AcDbSymbolTableRecord
100
AcDbLinetypeTableRecord
  2
DASHED2
 70
      64
  3
CADPAC LINETYPE
 72
      65
 73
       2
 40
16.93445585
 49
11.28963723
 74
       0
 49
-5.64481862
 74
       0
  0
LTYPE
  5
22
100
AcDbSymbolTableRecord
100
AcDbLinetypeTableRecord
  2
DASHEDX2
 70
      64
  3
CADPAC LINETYPE
 72
      65
 73
       2
 40
33.8689117
 49
22.57927447
 74
       0
 49
-11.28963723
 74
       0
  0
LTYPE
  5
23
100
AcDbSymbolTableRecord
100
AcDbLinetypeTableRecord
  2
DOTX2
 70
      64
  3
CADPAC LINETYPE
 72
      65
 73
       2
 40
9.40803103
 49
0.0
 74
       0
 49
-9.40803103
 74
       0
  0
LTYPE
  5
24
100
AcDbSymbolTableRecord
100
AcDbLinetypeTableRecord
  2
DOT
 70
      64
  3
CADPAC LINETYPE
 72
      65
 73
       2
 40
7.52642482
 49
0.0
 74
       0
 49
-7.52642482
 74
       0
  0
LTYPE
  5
25
100
AcDbSymbolTableRecord
100
AcDbLinetypeTableRecord
  2
DOT2
 70
      64
  3
CADPAC LINETYPE
 72
      65
 73
       2
 40
5.64481862
 49
0.0
 74
       0
 49
-5.64481862
 74
       0
  0
LTYPE
  5
26
100
AcDbSymbolTableRecord
100
AcDbLinetypeTableRecord
  2
CENTERX2
 70
      64
  3
CADPAC LINETYPE
 72
      65
 73
       4
 40
45.15854893
 49
18.81606205
 74
       0
 49
-9.40803103
 74
       0
 49
7.52642482
 74
       0
 49
-9.40803103
 74
       0
  0
LTYPE
  5
27
100
AcDbSymbolTableRecord
100
AcDbLinetypeTableRecord
  2
CENTER
 70
      64
  3
CADPAC LINETYPE
 72
      65
 73
       4
 40
34.62155418
 49
15.05284964
 74
       0
 49
-7.52642482
 74
       0
 49
4.51585489
 74
       0
 49
-7.52642482
 74
       0
  0
LTYPE
  5
28
100
AcDbSymbolTableRecord
100
AcDbLinetypeTableRecord
  2
CENTER2
 70
      64
  3
CADPAC LINETYPE
 72
      65
 73
       4
 40
24.08455943
 49
11.28963723
 74
       0
 49
-5.64481862
 74
       0
 49
1.50528496
 74
       0
 49
-5.64481862
 74
       0
  0
LTYPE
  5
29
100
AcDbSymbolTableRecord
100
AcDbLinetypeTableRecord
  2
DASHDOTX2
 70
      64
  3
CADPAC LINETYPE
 72
      65
 73
       4
 40
37.63212411
 49
18.81606205
 74
       0
 49
-9.40803103
 74
       0
 49
0.0
 74
       0
 49
-9.40803103
 74
       0
  0
LTYPE
  5
2A
100
AcDbSymbolTableRecord
100
AcDbLinetypeTableRecord
  2
DASHDOT
 70
      64
  3
CADPAC LINETYPE
 72
      65
 73
       4
 40
30.10569929
 49
15.05284964
 74
       0
 49
-7.52642482
 74
       0
 49
0.0
 74
       0
 49
-7.52642482
 74
       0
  0
LTYPE
  5
2B
100
AcDbSymbolTableRecord
100
AcDbLinetypeTableRecord
  2
DASHDOT2
 70
      64
  3
CADPAC LINETYPE
 72
      65
 73
       4
 40
22.57927447
 49
11.28963723
 74
       0
 49
-5.64481862
 74
       0
 49
0.0
 74
       0
 49
-5.64481862
 74
       0
  0
LTYPE
  5
2C
100
AcDbSymbolTableRecord
100
AcDbLinetypeTableRecord
  2
DIVIDEX2
 70
      64
  3
CADPAC LINETYPE
 72
      65
 73
       6
 40
47.04015514
 49
18.81606205
 74
       0
 49
-9.40803103
 74
       0
 49
0.0
 74
       0
 49
-9.40803103
 74
       0
 49
0.0
 74
       0
 49
-9.40803103
 74
       0
  0
LTYPE
  5
2D
100
AcDbSymbolTableRecord
100
AcDbLinetypeTableRecord
  2
DIVIDE
 70
      64
  3
CADPAC LINETYPE
 72
      65
 73
       6
 40
37.63212411
 49
15.05284964
 74
       0
 49
-7.52642482
 74
       0
 49
0.0
 74
       0
 49
-7.52642482
 74
       0
 49
0.0
 74
       0
 49
-7.52642482
 74
       0
  0
LTYPE
  5
2E
100
AcDbSymbolTableRecord
100
AcDbLinetypeTableRecord
  2
DIVIDE2
 70
      64
  3
CADPAC LINETYPE
 72
      65
 73
       6
 40
28.22409308
 49
11.28963723
 74
       0
 49
-5.64481862
 74
       0
 49
0.0
 74
       0
 49
-5.64481862
 74
       0
 49
0.0
 74
       0
 49
-5.64481862
 74
       0
  0
LTYPE
  5
2F
100
AcDbSymbolTableRecord
100
AcDbLinetypeTableRecord
  2
BORDERX2
 70
      64
  3
CADPAC LINETYPE
 72
      65
 73
       6
 40
65.85621719
 49
18.81606205
 74
       0
 49
-9.40803103
 74
       0
 49
18.81606205
 74
       0
 49
-9.40803103
 74
       0
 49
0.0
 74
       0
 49
-9.40803103
 74
       0
  0
LTYPE
  5
30
100
AcDbSymbolTableRecord
100
AcDbLinetypeTableRecord
  2
BORDER
 70
      64
  3
CADPAC LINETYPE
 72
      65
 73
       6
 40
52.68497375
 49
15.05284964
 74
       0
 49
-7.52642482
 74
       0
 49
15.05284964
 74
       0
 49
-7.52642482
 74
       0
 49
0.0
 74
       0
 49
-7.52642482
 74
       0
  0
LTYPE
  5
31
100
AcDbSymbolTableRecord
100
AcDbLinetypeTableRecord
  2
BORDER2
 70
      64
  3
CADPAC LINETYPE
 72
      65
 73
       6
 40
39.51373031
 49
11.28963723
 74
       0
 49
-5.64481862
 74
       0
 49
11.28963723
 74
       0
 49
-5.64481862
 74
       0
 49
0.0
 74
       0
 49
-5.64481862
 74
       0
  0
LTYPE
  5
32
100
AcDbSymbolTableRecord
100
AcDbLinetypeTableRecord
  2
PHANTOMX2
 70
      64
  3
CADPAC LINETYPE
 72
      65
 73
       6
 40
56.44818616
 49
18.81606205
 74
       0
 49
-7.52642482
 74
       0
 49
7.52642482
 74
       0
 49
-7.52642482
 74
       0
 49
7.52642482
 74
       0
 49
-7.52642482
 74
       0
  0
LTYPE
  5
33
100
AcDbSymbolTableRecord
100
AcDbLinetypeTableRecord
  2
PHANTOM
 70
      64
  3
CADPAC LINETYPE
 72
      65
 73
       6
 40
46.6638339
 49
15.05284964
 74
       0
 49
-7.52642482
 74
       0
 49
4.51585489
 74
       0
 49
-7.52642482
 74
       0
 49
4.51585489
 74
       0
 49
-7.52642482
 74
       0
  0
LTYPE
  5
34
100
AcDbSymbolTableRecord
100
AcDbLinetypeTableRecord
  2
PHANTOM2
 70
      64
  3
CADPAC LINETYPE
 72
      65
 73
       6
 40
39.89005156
 49
11.28963723
 74
       0
 49
-7.52642482
 74
       0
 49
3.01056993
 74
       0
 49
-7.52642482
 74
       0
 49
3.01056993
 74
       0
 49
-7.52642482
 74
       0
  0
LTYPE
  5
35
100
AcDbSymbolTableRecord
100
AcDbLinetypeTableRecord
  2
ACAD_ISO06W100
 70
      64
  3
CADPAC LINETYPE
 72
      65
 73
       8
 40
50.80336755
 49
18.81606205
 74
       0
 49
-9.40803103
 74
       0
 49
0.0
 74
       0
 49
-7.52642482
 74
       0
 49
0.0
 74
       0
 49
-7.52642482
 74
       0
 49
0.0
 74
       0
 49
-7.52642482
 74
       0
  0
LTYPE
  5
36
100
AcDbSymbolTableRecord
100
AcDbLinetypeTableRecord
  2
ACAD_ISO13W100
 70
      64
  3
CADPAC LINETYPE
 72
      65
 73
       8
 40
60.21139857
 49
15.05284964
 74
       0
 49
-7.52642482
 74
       0
 49
15.05284964
 74
       0
 49
-7.52642482
 74
       0
 49
0.0
 74
       0
 49
-7.52642482
 74
       0
 49
0.0
 74
       0
 49
-7.52642482
 74
       0
  0
LTYPE
  5
37
100
AcDbSymbolTableRecord
100
AcDbLinetypeTableRecord
  2
ACAD_ISO14W100
 70
      64
  3
CADPAC LINETYPE
 72
      65
 73
       8
 40
45.15854893
 49
15.05284964
 74
       0
 49
-7.52642482
 74
       0
 49
0.0
 74
       0
 49
-7.52642482
 74
       0
 49
0.0
 74
       0
 49
-7.52642482
 74
       0
 49
0.0
 74
       0
 49
-7.52642482
 74
       0
  0
ENDTAB
  0
TABLE
  2
LAYER
  5
2
100
AcDbSymbolTable
 70
       3
  0
LAYER
  5
14
100
AcDbSymbolTableRecord
100
AcDbLayerTableRecord
  2
0
 70
       0
 62
       7
  6
CONTINUOUS
  0
LAYER
  5
38
100
AcDbSymbolTableRecord
100
AcDbLayerTableRecord
  2
LAYER0002
 70
       0
 62
       7
  6
CONTINUOUS
  0
LAYER
  5
39
100
AcDbSymbolTableRecord
100
AcDbLayerTableRecord
  2
LAYER0003
 70
       0
 62
       7
  6
CONTINUOUS
  0
ENDTAB
  0
TABLE
  2
STYLE
  5
3
100
AcDbSymbolTable
 70
       1
  0
STYLE
  5
17
100
AcDbSymbolTableRecord
100
AcDbTextStyleTableRecord
  2
STANDARD
 70
       0
 40
0.0
 41
1.0
 50
0.0
 71
       0
 42
17.19791667
  3
txt.shx
  4
bigfont.shx
  0
ENDTAB
  0
TABLE
  2
VIEW
  5
5
100
AcDbSymbolTable
 70
       1
  0
VIEW
  5
3A
100
AcDbSymbolTableRecord
100
AcDbViewTableRecord
  2
QQQQ
 70
       0
 40
565.6291825
 10
-9.24869788
 20
0.0
 41
424.14699895
 11
0.0
 21
0.0
 31
1.0
 12
100.0
 22
100.0
 32
0.0
 42
50.0
 43
0.0
 44
0.0
 50
0.0
 71
       0
  0
ENDTAB
  0
TABLE
  2
UCS
  5
6
100
AcDbSymbolTable
 70
       0
  0
ENDTAB
  0
TABLE
  2
APPID
  5
8
100
AcDbSymbolTable
 70
       1
  0
APPID
  5
16
100
AcDbSymbolTableRecord
100
AcDbRegAppTableRecord
  2
ACAD
 70
       0
  0
ENDTAB
  0
TABLE
  2
DIMSTYLE
  5
9
100
AcDbSymbolTable
 70
       1
  0
DIMSTYLE
105
18
100
AcDbSymbolTableRecord
100
AcDbDimStyleTableRecord
  2
STANDARD
 70
       0
  3

  4

  5

  6

  7

 40
1.0
 41
0.18
 42
0.0625
 43
0.38
 44
0.18
 45
0.0
 46
0.0
 47
0.0
 48
0.0
 71
       0
 72
       0
 73
       1
 74
       1
 75
       0
 76
       0
 77
       0
 78
       0
140
0.18
141
0.09
142
0.0
143
25.4
144
1.0
145
0.0
146
1.0
147
0.09
170
       0
171
       2
172
       0
173
       0
174
       0
175
       0
176
       0
177
       0
178
       0
270
       2
271
       4
272
       4
273
       2
274
       2
275
       0
280
       0
281
       0
282
       0
283
       1
284
       0
285
       0
286
       0
287
       0
288
       0
340
17
  0
ENDTAB
  0
TABLE
  2
BLOCK_RECORD
  5
1
100
AcDbSymbolTable
 70
       4
  0
BLOCK_RECORD
  5
A
100
AcDbSymbolTableRecord
100
AcDbBlockTableRecord
  2
*MODEL_SPACE
  0
BLOCK_RECORD
  5
B
100
AcDbSymbolTableRecord
100
AcDbBlockTableRecord
  2
*PAPER_SPACE
  0
BLOCK_RECORD
  5
3B
100
AcDbSymbolTableRecord
100
AcDbBlockTableRecord
  2
GROUP_1
  0
BLOCK_RECORD
  5
3C
100
AcDbSymbolTableRecord
100
AcDbBlockTableRecord
  2
GROUP_2
  0
BLOCK_RECORD
  5
3D
100
AcDbSymbolTableRecord
100
AcDbBlockTableRecord
  2
GROUP_3
  0
BLOCK_RECORD
  5
3E
100
AcDbSymbolTableRecord
100
AcDbBlockTableRecord
  2
GROUP_4
  0
ENDTAB
  0
ENDSEC
  0
SECTION
  2
BLOCKS
  0
BLOCK
  5
D
100
AcDbEntity
  8
0
100
AcDbBlockBegin
  2
*MODEL_SPACE
 70
       0
 10
0.0
 20
0.0
 30
0.0
  3
*MODEL_SPACE
  1

  0
ENDBLK
  5
E
100
AcDbEntity
  8
0
100
AcDbBlockEnd
  0
BLOCK
  5
F
100
AcDbEntity
 67
       1
  8
0
100
AcDbBlockBegin
  2
*PAPER_SPACE
 70
       0
 10
0.0
 20
0.0
 30
0.0
  3
*PAPER_SPACE
  1

  0
ENDBLK
  5
10
100
AcDbEntity
 67
       1
  8
0
100
AcDbBlockEnd
  0
BLOCK
  5
3F
100
AcDbEntity
  8
0
100
AcDbBlockBegin
  2
GROUP_1
 70
       0
 10
0.0
 20
0.0
 30
0.0
  3
GROUP_1
  1

  0
LINE
  5
40
100
AcDbEntity
  8
LAYER0003
  6
CONTINUOUS
 62
       7
100
AcDbLine
 10
-131.12041707
 20
-222.76173302
 30
0.0
 11
-131.12319582
 21
-222.64450757
 31
0.0
  0
LINE
  5
41
100
AcDbEntity
  8
LAYER0003
  6
CONTINUOUS
 62
       7
100
AcDbLine
 10
-131.12319582
 20
-222.64450757
 30
0.0
 11
-131.12630998
 21
-222.52732116
 31
0.0
  0
LINE
  5
42
100
AcDbEntity
  8
LAYER0003
  6
CONTINUOUS
 62
       7
100
AcDbLine
 10
-131.12630998
 20
-222.52732116
 30
0.0
 11
-131.13009495
 21
-222.41021281
 31
0.0
  0
LINE
  5
43
100
AcDbEntity
  8
LAYER0003
  6
CONTINUOUS
 62
       7
100
AcDbLine
 10
-131.13009495
 20
-222.41021281
 30
0.0
 11
-131.13488615
 21
-222.29322156
 31
0.0
  0
LINE
  5
44
100
AcDbEntity
  8
LAYER0003
  6
CONTINUOUS
 62
       7
100
AcDbLine
 10
-131.13488615
 20
-222.29322156
 30
0.0
 11
-131.14101898
 21
-222.17638643
 31
0.0
  0
LINE
  5
45
100
AcDbEntity
  8
LAYER0003
  6
CONTINUOUS
 62
       7
100
AcDbLine
 10
-131.14101898
 20
-222.17638643
 30
0.0
 11
-131.14882885
 21
-222.05974646
 31
0.0
  0
LINE
  5
46
100
AcDbEntity
  8
LAYER0003
  6
CONTINUOUS
 62
       7
100
AcDbLine
 10
-131.14882885
 20
-222.05974646
 30
0.0
 11
-131.15861036
 21
-221.94333593
 31
0.0
  0
LINE
  5
47
100
AcDbEntity
  8
LAYER0003
  6
CONTINUOUS
 62
       7
100
AcDbLine
 10
-131.15861036
 20
-221.94333593
 30
0.0
 11
-131.17037431
 21
-221.82715609
 31
0.0
  0
LINE
  5
48
100
AcDbEntity
  8
LAYER0003
  6
CONTINUOUS
 62
       7
100
AcDbLine
 10
-131.17037431
 20
-221.82715609
 30
0.0
 11
-131.18401099
 21
-221.71119419
 31
0.0
  0
LINE
  5
49
100
AcDbEntity
  8
LAYER0003
  6
CONTINUOUS
 62
       7
100
AcDbLine
 10
-131.18401099
 20
-221.71119419
 30
0.0
 11
-131.19941023
 21
-221.5954374
 31
0.0
  0
LINE
  5
4A
100
AcDbEntity
  8
LAYER0003
  6
CONTINUOUS
 62
       7
100
AcDbLine
 10
-131.19941023
 20
-221.5954374
 30
0.0
 11
-131.21646187
 21
-221.4798729
 31
0.0
  0
LINE
  5
4B
100
AcDbEntity
  8
LAYER0003
  6
CONTINUOUS
 62
       7
100
AcDbLine
 10
-131.21646187
 20
-221.4798729
 30
0.0
 11
-131.23505575
 21
-221.36448787
 31
0.0
  0
LINE
  5
4C
100
AcDbEntity
  8
LAYER0003
  6
CONTINUOUS
 62
       7
100
AcDbLine
 10
-131.23505575
 20
-221.36448787
 30
0.0
 11
-131.25508172
 21
-221.24926949
 31
0.0
  0
LINE
  5
4D
100
AcDbEntity
  8
LAYER0003
  6
CONTINUOUS
 62
       7
100
AcDbLine
 10
-131.25508172
 20
-221.24926949
 30
0.0
 11
-131.27642961
 21
-221.13420495
 31
0.0
  0
LINE
  5
4E
100
AcDbEntity
  8
LAYER0003
  6
CONTINUOUS
 62
       7
100
AcDbLine
 10
-131.27642961
 20
-221.13420495
 30
0.0
 11
-131.29898926
 21
-221.01928142
 31
0.0
  0
LINE
  5
4F
100
AcDbEntity
  8
LAYER0003
  6
CONTINUOUS
 62
       7
100
AcDbLine
 10
-131.29898926
 20
-221.01928142
 30
0.0
 11
-131.32265051
 21
-220.90448608
 31
0.0
  0
LINE
  5
50
100
AcDbEntity
  8
LAYER0003
  6
CONTINUOUS
 62
       7
100
AcDbLine
 10
-131.32265051
 20
-220.90448608
 30
0.0
 11
-131.3473032
 21
-220.78980612
 31
0.0
  0
LINE
  5
51
100
AcDbEntity
  8
LAYER0003
  6
CONTINUOUS
 62
       7
100
AcDbLine
 10
-131.3473032
 20
-220.78980612
 30
0.0
 11
-131.37283717
 21
-220.67522872
 31
0.0
  0
LINE
  5
52
100
AcDbEntity
  8
LAYER0003
  6
CONTINUOUS
 62
       7
100
AcDbLine
 10
-131.37283717
 20
-220.67522872
 30
0.0
 11
-131.39914227
 21
-220.56074104
 31
0.0
  0
LINE
  5
53
100
AcDbEntity
  8
LAYER0003
  6
CONTINUOUS
 62
       7
100
AcDbLine
 10
-131.39914227
 20
-220.56074104
 30
0.0
 11
-131.42610833
 21
-220.44633029
 31
0.0
  0
LINE
  5
54
100
AcDbEntity
  8
LAYER0003
  6
CONTINUOUS
 62
       7
100
AcDbLine
 10
-131.42610833
 20
-220.44633029
 30
0.0
 11
-131.45362518
 21
-220.33198363
 31
0.0
  0
LINE
  5
55
100
AcDbEntity
  8
LAYER0003
  6
CONTINUOUS
 62
       7
100
AcDbLine
 10
-131.45362518
 20
-220.33198363
 30
0.0
 11
-131.48158268
 21
-220.21768825
 31
0.0
  0
LINE
  5
56
100
AcDbEntity
  8
LAYER0003
  6
CONTINUOUS
 62
       7
100
AcDbLine
 10
-131.48158268
 20
-220.21768825
 30
0.0
 11
-131.50987066
 21
-220.10343133
 31
0.0
  0
LINE
  5
57
100
AcDbEntity
  8
LAYER0003
  6
CONTINUOUS
 62
       7
100
AcDbLine
 10
-131.50987066
 20
-220.10343133
 30
0.0
 11
-131.53837896
 21
-219.98920005
 31
0.0
  0
LINE
  5
58
100
AcDbEntity
  8
LAYER0003
  6
CONTINUOUS
 62
       7
100
AcDbLine
 10
-131.53837896
 20
-219.98920005
 30
0.0
 11
-131.56699742
 21
-219.87498159
 31
0.0
  0
ENDBLK
  5
59
100
AcDbEntity
  8
0
100
AcDbBlockEnd
  0
BLOCK
  5
5A
100
AcDbEntity
  8
0
100
AcDbBlockBegin
  2
GROUP_2
 70
       0
 10
0.0
 20
0.0
 30
0.0
  3
GROUP_2
  1

  0
LINE
  5
5B
100
AcDbEntity
  8
LAYER0003
  6
CONTINUOUS
 62
       7
100
AcDbLine
 10
-131.12041707
 20
-222.76173302
 30
0.0
 11
-131.12319582
 21
-222.87895847
 31
0.0
  0
LINE
  5
5C
100
AcDbEntity
  8
LAYER0003
  6
CONTINUOUS
 62
       7
100
AcDbLine
 10
-131.12319582
 20
-222.87895847
 30
0.0
 11
-131.12630998
 21
-222.99614488
 31
0.0
  0
LINE
  5
5D
100
AcDbEntity
  8
LAYER0003
  6
CONTINUOUS
 62
       7
100
AcDbLine
 10
-131.12630998
 20
-222.99614488
 30
0.0
 11
-131.13009495
 21
-223.11325323
 31
0.0
  0
LINE
  5
5E
100
AcDbEntity
  8
LAYER0003
  6
CONTINUOUS
 62
       7
100
AcDbLine
 10
-131.13009495
 20
-223.11325323
 30
0.0
 11
-131.13488615
 21
-223.23024448
 31
0.0
  0
LINE
  5
5F
100
AcDbEntity
  8
LAYER0003
  6
CONTINUOUS
 62
       7
100
AcDbLine
 10
-131.13488615
 20
-223.23024448
 30
0.0
 11
-131.14101898
 21
-223.34707961
 31
0.0
  0
LINE
  5
60
100
AcDbEntity
  8
LAYER0003
  6
CONTINUOUS
 62
       7
100
AcDbLine
 10
-131.14101898
 20
-223.34707961
 30
0.0
 11
-131.14882885
 21
-223.46371958
 31
0.0
  0
LINE
  5
61
100
AcDbEntity
  8
LAYER0003
  6
CONTINUOUS
 62
       7
100
AcDbLine
 10
-131.14882885
 20
-223.46371958
 30
0.0
 11
-131.15861036
 21
-223.58013011
 31
0.0
  0
LINE
  5
62
100
AcDbEntity
  8
LAYER0003
  6
CONTINUOUS
 62
       7
100
AcDbLine
 10
-131.15861036
 20
-223.58013011
 30
0.0
 11
-131.17037431
 21
-223.69630995
 31
0.0
  0
LINE
  5
63
100
AcDbEntity
  8
LAYER0003
  6
CONTINUOUS
 62
       7
100
AcDbLine
 10
-131.17037431
 20
-223.69630995
 30
0.0
 11
-131.18401099
 21
-223.81227185
 31
0.0
  0
LINE
  5
64
100
AcDbEntity
  8
LAYER0003
  6
CONTINUOUS
 62
       7
100
AcDbLine
 10
-131.18401099
 20
-223.81227185
 30
0.0
 11
-131.19941023
 21
-223.92802864
 31
0.0
  0
LINE
  5
65
100
AcDbEntity
  8
LAYER0003
  6
CONTINUOUS
 62
       7
100
AcDbLine
 10
-131.19941023
 20
-223.92802864
 30
0.0
 11
-131.21646187
 21
-224.04359314
 31
0.0
  0
LINE
  5
66
100
AcDbEntity
  8
LAYER0003
  6
CONTINUOUS
 62
       7
100
AcDbLine
 10
-131.21646187
 20
-224.04359314
 30
0.0
 11
-131.23505575
 21
-224.15897817
 31
0.0
  0
LINE
  5
67
100
AcDbEntity
  8
LAYER0003
  6
CONTINUOUS
 62
       7
100
AcDbLine
 10
-131.23505575
 20
-224.15897817
 30
0.0
 11
-131.25508172
 21
-224.27419655
 31
0.0
  0
LINE
  5
68
100
AcDbEntity
  8
LAYER0003
  6
CONTINUOUS
 62
       7
100
AcDbLine
 10
-131.25508172
 20
-224.27419655
 30
0.0
 11
-131.27642961
 21
-224.38926109
 31
0.0
  0
LINE
  5
69
100
AcDbEntity
  8
LAYER0003
  6
CONTINUOUS
 62
       7
100
AcDbLine
 10
-131.27642961
 20
-224.38926109
 30
0.0
 11
-131.29898926
 21
-224.50418462
 31
0.0
  0
LINE
  5
6A
100
AcDbEntity
  8
LAYER0003
  6
CONTINUOUS
 62
       7
100
AcDbLine
 10
-131.29898926
 20
-224.50418462
 30
0.0
 11
-131.32265051
 21
-224.61897996
 31
0.0
  0
LINE
  5
6B
100
AcDbEntity
  8
LAYER0003
  6
CONTINUOUS
 62
       7
100
AcDbLine
 10
-131.32265051
 20
-224.61897996
 30
0.0
 11
-131.3473032
 21
-224.73365992
 31
0.0
  0
LINE
  5
6C
100
AcDbEntity
  8
LAYER0003
  6
CONTINUOUS
 62
       7
100
AcDbLine
 10
-131.3473032
 20
-224.73365992
 30
0.0
 11
-131.37283717
 21
-224.84823732
 31
0.0
  0
LINE
  5
6D
100
AcDbEntity
  8
LAYER0003
  6
CONTINUOUS
 62
       7
100
AcDbLine
 10
-131.37283717
 20
-224.84823732
 30
0.0
 11
-131.39914227
 21
-224.962725
 31
0.0
  0
LINE
  5
6E
100
AcDbEntity
  8
LAYER0003
  6
CONTINUOUS
 62
       7
100
AcDbLine
 10
-131.39914227
 20
-224.962725
 30
0.0
 11
-131.42610833
 21
-225.07713575
 31
0.0
  0
LINE
  5
6F
100
AcDbEntity
  8
LAYER0003
  6
CONTINUOUS
 62
       7
100
AcDbLine
 10
-131.42610833
 20
-225.07713575
 30
0.0
 11
-131.45362518
 21
-225.19148241
 31
0.0
  0
LINE
  5
70
100
AcDbEntity
  8
LAYER0003
  6
CONTINUOUS
 62
       7
100
AcDbLine
 10
-131.45362518
 20
-225.19148241
 30
0.0
 11
-131.48158268
 21
-225.30577779
 31
0.0
  0
LINE
  5
71
100
AcDbEntity
  8
LAYER0003
  6
CONTINUOUS
 62
       7
100
AcDbLine
 10
-131.48158268
 20
-225.30577779
 30
0.0
 11
-131.50987066
 21
-225.42003471
 31
0.0
  0
LINE
  5
72
100
AcDbEntity
  8
LAYER0003
  6
CONTINUOUS
 62
       7
100
AcDbLine
 10
-131.50987066
 20
-225.42003471
 30
0.0
 11
-131.53837896
 21
-225.53426599
 31
0.0
  0
LINE
  5
73
100
AcDbEntity
  8
LAYER0003
  6
CONTINUOUS
 62
       7
100
AcDbLine
 10
-131.53837896
 20
-225.53426599
 30
0.0
 11
-131.56699742
 21
-225.64848445
 31
0.0
  0
ENDBLK
  5
74
100
AcDbEntity
  8
0
100
AcDbBlockEnd
  0
BLOCK
  5
75
100
AcDbEntity
  8
0
100
AcDbBlockBegin
  2
GROUP_3
 70
       0
 10
0.0
 20
0.0
 30
0.0
  3
GROUP_3
  1

  0
LINE
  5
76
100
AcDbEntity
  8
LAYER0003
  6
CONTINUOUS
 62
       7
100
AcDbLine
 10
-131.12041707
 20
-218.43160599
 30
0.0
 11
-131.12138091
 21
-218.37312566
 31
0.0
  0
LINE
  5
77
100
AcDbEntity
  8
LAYER0003
  6
CONTINUOUS
 62
       7
100
AcDbLine
 10
-131.12138091
 20
-218.37312566
 30
0.0
 11
-131.12355341
 21
-218.31469864
 31
0.0
  0
LINE
  5
78
100
AcDbEntity
  8
LAYER0003
  6
CONTINUOUS
 62
       7
100
AcDbLine
 10
-131.12355341
 20
-218.31469864
 30
0.0
 11
-131.12773681
 21
-218.25636031
 31
0.0
  0
LINE
  5
79
100
AcDbEntity
  8
LAYER0003
  6
CONTINUOUS
 62
       7
100
AcDbLine
 10
-131.12773681
 20
-218.25636031
 30
0.0
 11
-131.13393312
 21
-218.19811075
 31
0.0
  0
LINE
  5
7A
100
AcDbEntity
  8
LAYER0003
  6
CONTINUOUS
 62
       7
100
AcDbLine
 10
-131.13393312
 20
-218.19811075
 30
0.0
 11
-131.14205083
 21
-218.13994592
 31
0.0
  0
LINE
  5
7B
100
AcDbEntity
  8
LAYER0003
  6
CONTINUOUS
 62
       7
100
AcDbLine
 10
-131.14205083
 20
-218.13994592
 30
0.0
 11
-131.15199846
 21
-218.0818618
 31
0.0
  0
LINE
  5
7C
100
AcDbEntity
  8
LAYER0003
  6
CONTINUOUS
 62
       7
100
AcDbLine
 10
-131.15199846
 20
-218.0818618
 30
0.0
 11
-131.1636845
 21
-218.02385434
 31
0.0
  0
LINE
  5
7D
100
AcDbEntity
  8
LAYER0003
  6
CONTINUOUS
 62
       7
100
AcDbLine
 10
-131.1636845
 20
-218.02385434
 30
0.0
 11
-131.17701746
 21
-217.96591952
 31
0.0
  0
LINE
  5
7E
100
AcDbEntity
  8
LAYER0003
  6
CONTINUOUS
 62
       7
100
AcDbLine
 10
-131.17701746
 20
-217.96591952
 30
0.0
 11
-131.19190585
 21
-217.90805329
 31
0.0
  0
LINE
  5
7F
100
AcDbEntity
  8
LAYER0003
  6
CONTINUOUS
 62
       7
100
AcDbLine
 10
-131.19190585
 20
-217.90805329
 30
0.0
 11
-131.20825816
 21
-217.85025162
 31
0.0
  0
LINE
  5
80
100
AcDbEntity
  8
LAYER0003
  6
CONTINUOUS
 62
       7
100
AcDbLine
 10
-131.20825816
 20
-217.85025162
 30
0.0
 11
-131.22598291
 21
-217.79251048
 31
0.0
  0
LINE
  5
81
100
AcDbEntity
  8
LAYER0003
  6
CONTINUOUS
 62
       7
100
AcDbLine
 10
-131.22598291
 20
-217.79251048
 30
0.0
 11
-131.2449886
 21
-217.73482583
 31
0.0
  0
LINE
  5
82
100
AcDbEntity
  8
LAYER0003
  6
CONTINUOUS
 62
       7
100
AcDbLine
 10
-131.2449886
 20
-217.73482583
 30
0.0
 11
-131.26518373
 21
-217.67719364
 31
0.0
  0
LINE
  5
83
100
AcDbEntity
  8
LAYER0003
  6
CONTINUOUS
 62
       7
100
AcDbLine
 10
-131.26518373
 20
-217.67719364
 30
0.0
 11
-131.28647681
 21
-217.61960987
 31
0.0
  0
LINE
  5
84
100
AcDbEntity
  8
LAYER0003
  6
CONTINUOUS
 62
       7
100
AcDbLine
 10
-131.28647681
 20
-217.61960987
 30
0.0
 11
-131.30877633
 21
-217.56207049
 31
0.0
  0
LINE
  5
85
100
AcDbEntity
  8
LAYER0003
  6
CONTINUOUS
 62
       7
100
AcDbLine
 10
-131.30877633
 20
-217.56207049
 30
0.0
 11
-131.33199082
 21
-217.50457145
 31
0.0
  0
LINE
  5
86
100
AcDbEntity
  8
LAYER0003
  6
CONTINUOUS
 62
       7
100
AcDbLine
 10
-131.33199082
 20
-217.50457145
 30
0.0
 11
-131.35602876
 21
-217.44710873
 31
0.0
  0
LINE
  5
87
100
AcDbEntity
  8
LAYER0003
  6
CONTINUOUS
 62
       7
100
AcDbLine
 10
-131.35602876
 20
-217.44710873
 30
0.0
 11
-131.38079867
 21
-217.3896783
 31
0.0
  0
LINE
  5
88
100
AcDbEntity
  8
LAYER0003
  6
CONTINUOUS
 62
       7
100
AcDbLine
 10
-131.38079867
 20
-217.3896783
 30
0.0
 11
-131.40620905
 21
-217.33227611
 31
0.0
  0
LINE
  5
89
100
AcDbEntity
  8
LAYER0003
  6
CONTINUOUS
 62
       7
100
AcDbLine
 10
-131.40620905
 20
-217.33227611
 30
0.0
 11
-131.4321684
 21
-217.27489813
 31
0.0
  0
LINE
  5
8A
100
AcDbEntity
  8
LAYER0003
  6
CONTINUOUS
 62
       7
100
AcDbLine
 10
-131.4321684
 20
-217.27489813
 30
0.0
 11
-131.45858523
 21
-217.21754032
 31
0.0
  0
LINE
  5
8B
100
AcDbEntity
  8
LAYER0003
  6
CONTINUOUS
 62
       7
100
AcDbLine
 10
-131.45858523
 20
-217.21754032
 30
0.0
 11
-131.48536805
 21
-217.16019866
 31
0.0
  0
LINE
  5
8C
100
AcDbEntity
  8
LAYER0003
  6
CONTINUOUS
 62
       7
100
AcDbLine
 10
-131.48536805
 20
-217.16019866
 30
0.0
 11
-131.51242534
 21
-217.1028691
 31
0.0
  0
LINE
  5
8D
100
AcDbEntity
  8
LAYER0003
  6
CONTINUOUS
 62
       7
100
AcDbLine
 10
-131.51242534
 20
-217.1028691
 30
0.0
 11
-131.53966563
 21
-217.04554761
 31
0.0
  0
LINE
  5
8E
100
AcDbEntity
  8
LAYER0003
  6
CONTINUOUS
 62
       7
100
AcDbLine
 10
-131.53966563
 20
-217.04554761
 30
0.0
 11
-131.56699742
 21
-216.98823015
 31
0.0
  0
ENDBLK
  5
8F
100
AcDbEntity
  8
0
100
AcDbBlockEnd
  0
BLOCK
  5
90
100
AcDbEntity
  8
0
100
AcDbBlockBegin
  2
GROUP_4
 70
       0
 10
0.0
 20
0.0
 30
0.0
  3
GROUP_4
  1

  0
LINE
  5
91
100
AcDbEntity
  8
LAYER0003
  6
CONTINUOUS
 62
       7
100
AcDbLine
 10
-131.12041707
 20
-227.09186005
 30
0.0
 11
-131.12138091
 21
-227.15034038
 31
0.0
  0
LINE
  5
92
100
AcDbEntity
  8
LAYER0003
  6
CONTINUOUS
 62
       7
100
AcDbLine
 10
-131.12138091
 20
-227.15034038
 30
0.0
 11
-131.12355341
 21
-227.2087674
 31
0.0
  0
LINE
  5
93
100
AcDbEntity
  8
LAYER0003
  6
CONTINUOUS
 62
       7
100
AcDbLine
 10
-131.12355341
 20
-227.2087674
 30
0.0
 11
-131.12773681
 21
-227.26710573
 31
0.0
  0
LINE
  5
94
100
AcDbEntity
  8
LAYER0003
  6
CONTINUOUS
 62
       7
100
AcDbLine
 10
-131.12773681
 20
-227.26710573
 30
0.0
 11
-131.13393312
 21
-227.32535529
 31
0.0
  0
LINE
  5
95
100
AcDbEntity
  8
LAYER0003
  6
CONTINUOUS
 62
       7
100
AcDbLine
 10
-131.13393312
 20
-227.32535529
 30
0.0
 11
-131.14205083
 21
-227.38352012
 31
0.0
  0
LINE
  5
96
100
AcDbEntity
  8
LAYER0003
  6
CONTINUOUS
 62
       7
100
AcDbLine
 10
-131.14205083
 20
-227.38352012
 30
0.0
 11
-131.15199846
 21
-227.44160424
 31
0.0
  0
LINE
  5
97
100
AcDbEntity
  8
LAYER0003
  6
CONTINUOUS
 62
       7
100
AcDbLine
 10
-131.15199846
 20
-227.44160424
 30
0.0
 11
-131.1636845
 21
-227.4996117
 31
0.0
  0
LINE
  5
98
100
AcDbEntity
  8
LAYER0003
  6
CONTINUOUS
 62
       7
100
AcDbLine
 10
-131.1636845
 20
-227.4996117
 30
0.0
 11
-131.17701746
 21
-227.55754652
 31
0.0
  0
LINE
  5
99
100
AcDbEntity
  8
LAYER0003
  6
CONTINUOUS
 62
       7
100
AcDbLine
 10
-131.17701746
 20
-227.55754652
 30
0.0
 11
-131.19190585
 21
-227.61541275
 31
0.0
  0
LINE
  5
9A
100
AcDbEntity
  8
LAYER0003
  6
CONTINUOUS
 62
       7
100
AcDbLine
 10
-131.19190585
 20
-227.61541275
 30
0.0
 11
-131.20825816
 21
-227.67321442
 31
0.0
  0
LINE
  5
9B
100
AcDbEntity
  8
LAYER0003
  6
CONTINUOUS
 62
       7
100
AcDbLine
 10
-131.20825816
 20
-227.67321442
 30
0.0
 11
-131.22598291
 21
-227.73095556
 31
0.0
  0
LINE
  5
9C
100
AcDbEntity
  8
LAYER0003
  6
CONTINUOUS
 62
       7
100
AcDbLine
 10
-131.22598291
 20
-227.73095556
 30
0.0
 11
-131.2449886
 21
-227.78864021
 31
0.0
  0
LINE
  5
9D
100
AcDbEntity
  8
LAYER0003
  6
CONTINUOUS
 62
       7
100
AcDbLine
 10
-131.2449886
 20
-227.78864021
 30
0.0
 11
-131.26518373
 21
-227.8462724
 31
0.0
  0
LINE
  5
9E
100
AcDbEntity
  8
LAYER0003
  6
CONTINUOUS
 62
       7
100
AcDbLine
 10
-131.26518373
 20
-227.8462724
 30
0.0
 11
-131.28647681
 21
-227.90385617
 31
0.0
  0
LINE
  5
9F
100
AcDbEntity
  8
LAYER0003
  6
CONTINUOUS
 62
       7
100
AcDbLine
 10
-131.28647681
 20
-227.90385617
 30
0.0
 11
-131.30877633
 21
-227.96139555
 31
0.0
  0
LINE
  5
A0
100
AcDbEntity
  8
LAYER0003
  6
CONTINUOUS
 62
       7
100
AcDbLine
 10
-131.30877633
 20
-227.96139555
 30
0.0
 11
-131.33199082
 21
-228.01889459
 31
0.0
  0
LINE
  5
A1
100
AcDbEntity
  8
LAYER0003
  6
CONTINUOUS
 62
       7
100
AcDbLine
 10
-131.33199082
 20
-228.01889459
 30
0.0
 11
-131.35602876
 21
-228.07635731
 31
0.0
  0
LINE
  5
A2
100
AcDbEntity
  8
LAYER0003
  6
CONTINUOUS
 62
       7
100
AcDbLine
 10
-131.35602876
 20
-228.07635731
 30
0.0
 11
-131.38079867
 21
-228.13378774
 31
0.0
  0
LINE
  5
A3
100
AcDbEntity
  8
LAYER0003
  6
CONTINUOUS
 62
       7
100
AcDbLine
 10
-131.38079867
 20
-228.13378774
 30
0.0
 11
-131.40620905
 21
-228.19118993
 31
0.0
  0
LINE
  5
A4
100
AcDbEntity
  8
LAYER0003
  6
CONTINUOUS
 62
       7
100
AcDbLine
 10
-131.40620905
 20
-228.19118993
 30
0.0
 11
-131.4321684
 21
-228.24856791
 31
0.0
  0
LINE
  5
A5
100
AcDbEntity
  8
LAYER0003
  6
CONTINUOUS
 62
       7
100
AcDbLine
 10
-131.4321684
 20
-228.24856791
 30
0.0
 11
-131.45858523
 21
-228.30592572
 31
0.0
  0
LINE
  5
A6
100
AcDbEntity
  8
LAYER0003
  6
CONTINUOUS
 62
       7
100
AcDbLine
 10
-131.45858523
 20
-228.30592572
 30
0.0
 11
-131.48536805
 21
-228.36326738
 31
0.0
  0
LINE
  5
A7
100
AcDbEntity
  8
LAYER0003
  6
CONTINUOUS
 62
       7
100
AcDbLine
 10
-131.48536805
 20
-228.36326738
 30
0.0
 11
-131.51242534
 21
-228.42059694
 31
0.0
  0
LINE
  5
A8
100
AcDbEntity
  8
LAYER0003
  6
CONTINUOUS
 62
       7
100
AcDbLine
 10
-131.51242534
 20
-228.42059694
 30
0.0
 11
-131.53966563
 21
-228.47791843
 31
0.0
  0
LINE
  5
A9
100
AcDbEntity
  8
LAYER0003
  6
CONTINUOUS
 62
       7
100
AcDbLine
 10
-131.53966563
 20
-228.47791843
 30
0.0
 11
-131.56699742
 21
-228.53523589
 31
0.0
  0
ENDBLK
  5
AA
100
AcDbEntity
  8
0
100
AcDbBlockEnd
  0
ENDSEC
  0
SECTION
  2
ENTITIES
  0
LINE
  5
AB
100
AcDbEntity
  8
LAYER0002
  6
CONTINUOUS
 62
       7
100
AcDbLine
 10
-166.17041628
 20
-111.06554257
 30
0.0
 11
-166.17041628
 21
-110.3655426
 31
0.0
  0
LINE
  5
AC
100
AcDbEntity
  8
LAYER0002
  6
CONTINUOUS
 62
       7
100
AcDbLine
 10
-173.17041743
 20
-114.86554252
 30
0.0
 11
-173.17041743
 21
-119.86554241
 31
0.0
  0
LINE
  5
AD
100
AcDbEntity
  8
LAYER0002
  6
CONTINUOUS
 62
       7
100
AcDbLine
 10
-166.17041628
 20
-110.3655426
 30
0.0
 11
-176.17041605
 21
-110.3655426
 31
0.0
  0
LINE
  5
AE
100
AcDbEntity
  8
LAYER0002
  6
CONTINUOUS
 62
       7
100
AcDbLine
 10
-171.1704171
 20
-114.55293525
 30
0.0
 11
-171.1704171
 21
-111.06554257
 31
0.0
  0
LINE
  5
AF
100
AcDbEntity
  8
LAYER0002
  6
CONTINUOUS
 62
       7
100
AcDbLine
 10
-174.67041674
 20
-114.86554252
 30
0.0
 11
-174.67041674
 21
-111.06554257
 31
0.0
  0
LINE
  5
B0
100
AcDbEntity
  8
LAYER0002
  6
CONTINUOUS
 62
       7
100
AcDbLine
 10
-173.17041743
 20
-119.86554241
 30
0.0
 11
-169.17041676
 21
-119.86554241
 31
0.0
  0
LINE
  5
B1
100
AcDbEntity
  8
LAYER0002
  6
CONTINUOUS
 62
       7
100
AcDbLine
 10
-176.17041605
 20
-110.3655426
 30
0.0
 11
-176.17041605
 21
-111.06554257
 31
0.0
  0
LINE
  5
B2
100
AcDbEntity
  8
LAYER0002
  6
CONTINUOUS
 62
       7
100
AcDbLine
 10
-169.17041676
 20
-119.86554241
 30
0.0
 11
-169.17041676
 21
-114.86554252
 31
0.0
  0
LINE
  5
B3
100
AcDbEntity
  8
LAYER0002
  6
CONTINUOUS
 62
       7
100
AcDbLine
 10
-166.17041628
 20
-111.06554257
 30
0.0
 11
-176.17041605
 21
-111.06554257
 31
0.0
  0
LINE
  5
B4
100
AcDbEntity
  8
LAYER0002
  6
CONTINUOUS
 62
       7
100
AcDbLine
 10
-167.67041652
 20
-114.86554252
 30
0.0
 11
-167.67041652
 21
-111.06554257
 31
0.0
  0
LINE
  5
B5
100
AcDbEntity
  8
LAYER0002
  6
CONTINUOUS
 62
       7
100
AcDbLine
 10
-167.67041652
 20
-114.86554252
 30
0.0
 11
-174.67041674
 21
-114.86554252
 31
0.0
  0
LINE
  5
B6
100
AcDbEntity
  8
LAYER0002
  6
CONTINUOUS
 62
       7
100
AcDbLine
 10
-147.55086938
 20
-111.06554257
 30
0.0
 11
-147.55086938
 21
-110.3655426
 31
0.0
  0
LINE
  5
B7
100
AcDbEntity
  8
LAYER0002
  6
CONTINUOUS
 62
       7
100
AcDbLine
 10
-154.55087053
 20
-114.86554252
 30
0.0
 11
-154.55087053
 21
-119.86554241
 31
0.0
  0
LINE
  5
B8
100
AcDbEntity
  8
LAYER0002
  6
CONTINUOUS
 62
       7
100
AcDbLine
 10
-147.55086938
 20
-110.3655426
 30
0.0
 11
-157.55086916
 21
-110.3655426
 31
0.0
  0
LINE
  5
B9
100
AcDbEntity
  8
LAYER0002
  6
CONTINUOUS
 62
       7
100
AcDbLine
 10
-152.5508702
 20
-114.55293525
 30
0.0
 11
-152.5508702
 21
-111.06554257
 31
0.0
  0
LINE
  5
BA
100
AcDbEntity
  8
LAYER0002
  6
CONTINUOUS
 62
       7
100
AcDbLine
 10
-156.05086984
 20
-114.86554252
 30
0.0
 11
-156.05086984
 21
-111.06554257
 31
0.0
  0
LINE
  5
BB
100
AcDbEntity
  8
LAYER0002
  6
CONTINUOUS
 62
       7
100
AcDbLine
 10
-154.55087053
 20
-119.86554241
 30
0.0
 11
-150.55086987
 21
-119.86554241
 31
0.0
  0
LINE
  5
BC
100
AcDbEntity
  8
LAYER0002
  6
CONTINUOUS
 62
       7
100
AcDbLine
 10
-157.55086916
 20
-110.3655426
 30
0.0
 11
-157.55086916
 21
-111.06554257
 31
0.0
  0
LINE
  5
BD
100
AcDbEntity
  8
LAYER0002
  6
CONTINUOUS
 62
       7
100
AcDbLine
 10
-150.55086987
 20
-119.86554241
 30
0.0
 11
-150.55086987
 21
-114.86554252
 31
0.0
  0
LINE
  5
BE
100
AcDbEntity
  8
LAYER0002
  6
CONTINUOUS
 62
       7
100
AcDbLine
 10
-147.55086938
 20
-111.06554257
 30
0.0
 11
-157.55086916
 21
-111.06554257
 31
0.0
  0
LINE
  5
BF
100
AcDbEntity
  8
LAYER0002
  6
CONTINUOUS
 62
       7
100
AcDbLine
 10
-149.05086962
 20
-114.86554252
 30
0.0
 11
-149.05086962
 21
-111.06554257
 31
0.0
  0
LINE
  5
C0
100
AcDbEntity
  8
LAYER0002
  6
CONTINUOUS
 62
       7
100
AcDbLine
 10
-149.05086962
 20
-114.86554252
 30
0.0
 11
-156.05086984
 21
-114.86554252
 31
0.0
  0
LINE
  5
C1
100
AcDbEntity
  8
LAYER0003
  6
CONTINUOUS
 62
       7
100
AcDbLine
 10
-141.37041719
 20
-28.36554231
 30
0.0
 11
-141.37041719
 21
-27.8296444
 31
0.0
  0
LINE
  5
C2
100
AcDbEntity
  8
LAYER0003
  6
CONTINUOUS
 62
       7
100
AcDbLine
 10
-141.72768185
 20
-28.98434283
 30
0.0
 11
-141.37041719
 21
-27.8296444
 31
0.0
  0
LINE
  5
C3
100
AcDbEntity
  8
LAYER0003
  6
CONTINUOUS
 62
       7
100
AcDbLine
 10
-141.72768185
 20
-26.67494597
 30
0.0
 11
-142.17963965
 21
-26.67493852
 31
0.0
  0
LINE
  5
C4
100
AcDbEntity
  8
LAYER0003
  6
CONTINUOUS
 62
       7
100
AcDbLine
 10
-141.37041719
 20
-28.36554231
 30
0.0
 11
-141.72768185
 21
-28.98434283
 31
0.0
  0
LINE
  5
C5
100
AcDbEntity
  8
LAYER0003
  6
CONTINUOUS
 62
       7
100
AcDbLine
 10
-129.47041506
 20
-18.86554541
 30
0.0
 11
-129.82041726
 21
-18.86554541
 31
0.0
  0
LINE
  5
C6
100
AcDbEntity
  8
LAYER0003
  6
CONTINUOUS
 62
       7
100
AcDbLine
 10
-129.82041726
 20
-29.86554535
 30
0.0
 11
-129.47041506
 21
-29.86554535
 31
0.0
  0
LINE
  5
C7
100
AcDbEntity
  8
LAYER0003
  6
CONTINUOUS
 62
       7
100
AcDbLine
 10
-131.12041691
 20
-27.54053952
 30
0.0
 11
-129.82041726
 21
-27.54053952
 31
0.0
  0
LINE
  5
C8
100
AcDbEntity
  8
LAYER0003
  6
CONTINUOUS
 62
       7
100
AcDbLine
 10
-129.82041726
 20
-21.19054379
 30
0.0
 11
-131.12041691
 21
-21.19054379
 31
0.0
  0
LINE
  5
C9
100
AcDbEntity
  8
LAYER0003
  6
CONTINUOUS
 62
       7
100
AcDbLine
 10
-115.370419
 20
-24.36554117
 30
0.0
 11
-115.370419
 21
-18.2655427
 31
0.0
  0
LINE
  5
CA
100
AcDbEntity
  8
LAYER0003
  6
CONTINUOUS
 62
       7
100
AcDbLine
 10
-129.47041506
 20
-30.86553992
 30
0.0
 11
-121.87041678
 21
-30.86553992
 31
0.0
  0
LINE
  5
CB
100
AcDbEntity
  8
LAYER0003
  6
CONTINUOUS
 62
       7
100
AcDbLine
 10
-115.8704158
 20
-18.2655427
 30
0.0
 11
-115.87041685
 21
-8.01010794
 31
0.0
  0
LINE
  5
CC
100
AcDbEntity
  8
LAYER0003
  6
CONTINUOUS
 62
       7
100
AcDbLine
 10
-127.87041685
 20
-8.01010794
 30
0.0
 11
-127.87041777
 21
-18.2655427
 31
0.0
  0
LINE
  5
CD
100
AcDbEntity
  8
LAYER0003
  6
CONTINUOUS
 62
       7
100
AcDbLine
 10
-116.09539925
 20
1.47368562
 30
0.0
 11
-116.34514072
 21
6.73445581
 31
0.0
  0
LINE
  5
CE
100
AcDbEntity
  8
LAYER0003
  6
CONTINUOUS
 62
       7
100
AcDbLine
 10
-127.39569285
 20
6.73445581
 30
0.0
 11
-127.64543446
 21
1.47368562
 31
0.0
  0
LINE
  5
CF
100
AcDbEntity
  8
LAYER0003
  6
CONTINUOUS
 62
       7
100
AcDbLine
 10
-116.3926121
 20
7.73445783
 30
0.0
 11
-116.46382102
 21
9.23446087
 31
0.0
  0
LINE
  5
D0
100
AcDbEntity
  8
LAYER0003
  6
CONTINUOUS
 62
       7
100
AcDbLine
 10
-127.27701256
 20
9.23446087
 30
0.0
 11
-127.34822148
 21
7.73445783
 31
0.0
  0
LINE
  5
D1
100
AcDbEntity
  8
LAYER0003
  6
CONTINUOUS
 62
       7
100
AcDbLine
 10
-116.5112924
 20
10.23445545
 30
0.0
 11
-116.58250132
 21
11.73445849
 31
0.0
  0
LINE
  5
D2
100
AcDbEntity
  8
LAYER0003
  6
CONTINUOUS
 62
       7
100
AcDbLine
 10
-127.15833226
 20
11.73445849
 30
0.0
 11
-127.22954118
 21
10.23445545
 31
0.0
  0
LINE
  5
D3
100
AcDbEntity
  8
LAYER0003
  6
CONTINUOUS
 62
       7
100
AcDbLine
 10
-116.62997642
 20
12.73446052
 30
0.0
 11
-118.37041714
 21
49.39667402
 31
0.0
  0
LINE
  5
D4
100
AcDbEntity
  8
LAYER0003
  6
CONTINUOUS
 62
       7
100
AcDbLine
 10
-125.37041642
 20
49.39667402
 30
0.0
 11
-127.11085716
 21
12.73446052
 31
0.0
  0
LINE
  5
D5
100
AcDbEntity
  8
LAYER0003
  6
CONTINUOUS
 62
       7
100
AcDbLine
 10
-116.84570426
 20
6.73445581
 30
0.0
 11
-116.89317562
 21
7.73445783
 31
0.0
  0
LINE
  5
D6
100
AcDbEntity
  8
LAYER0003
  6
CONTINUOUS
 62
       7
100
AcDbLine
 10
-126.84765794
 20
7.73445783
 30
0.0
 11
-126.89512932
 21
6.73445581
 31
0.0
  0
LINE
  5
D7
100
AcDbEntity
  8
LAYER0003
  6
CONTINUOUS
 62
       7
100
AcDbLine
 10
-116.96438455
 20
9.23446087
 30
0.0
 11
-117.01185593
 21
10.23445545
 31
0.0
  0
LINE
  5
D8
100
AcDbEntity
  8
LAYER0003
  6
CONTINUOUS
 62
       7
100
AcDbLine
 10
-126.72897765
 20
10.23445545
 30
0.0
 11
-126.77644901
 21
9.23446087
 31
0.0
  0
LINE
  5
D9
100
AcDbEntity
  8
LAYER0003
  6
CONTINUOUS
 62
       7
100
AcDbLine
 10
-117.08306485
 20
11.73445849
 30
0.0
 11
-117.13053623
 21
12.73446052
 31
0.0
  0
LINE
  5
DA
100
AcDbEntity
  8
LAYER0003
  6
CONTINUOUS
 62
       7
100
AcDbLine
 10
-126.61029735
 20
12.73446052
 30
0.0
 11
-126.65776873
 21
11.73445849
 31
0.0
  0
LINE
  5
DB
100
AcDbEntity
  8
LAYER0003
  6
CONTINUOUS
 62
       7
100
AcDbLine
 10
-194.78996249
 20
-110.3655426
 30
0.0
 11
-194.78996249
 21
-111.06554257
 31
0.0
  0
LINE
  5
DC
100
AcDbEntity
  8
LAYER0003
  6
CONTINUOUS
 62
       7
100
AcDbLine
 10
-184.78996271
 20
-111.06554257
 30
0.0
 11
-184.78996271
 21
-110.3655426
 31
0.0
  0
LINE
  5
DD
100
AcDbEntity
  8
LAYER0003
  6
CONTINUOUS
 62
       7
100
AcDbLine
 10
-141.37041719
 20
-20.365541
 30
0.0
 11
-141.72768185
 21
-19.74674048
 31
0.0
  0
LINE
  5
DE
100
AcDbEntity
  8
LAYER0003
  6
CONTINUOUS
 62
       7
100
AcDbLine
 10
-141.17041752
 20
-16.41843946
 30
0.0
 11
-141.17041752
 21
40.63446341
 31
0.0
  0
LINE
  5
DF
100
AcDbEntity
  8
LAYER0003
  6
CONTINUOUS
 62
       7
100
AcDbLine
 10
-141.17041753
 20
-84.86554319
 30
0.0
 11
-141.17041753
 21
-32.25739779
 31
0.0
  0
LINE
  5
E0
100
AcDbEntity
  8
LAYER0003
  6
CONTINUOUS
 62
       7
100
AcDbLine
 10
-201.17041619
 20
40.63446341
 30
0.0
 11
-201.17041619
 21
-84.86554319
 31
0.0
  0
LINE
  5
E1
100
AcDbEntity
  8
LAYER0003
  6
CONTINUOUS
 62
       7
100
AcDbLine
 10
-191.78996386
 20
-109.36554255
 30
0.0
 11
-191.78996386
 21
-110.3655426
 31
0.0
  0
LINE
  5
E2
100
AcDbEntity
  8
LAYER0003
  6
CONTINUOUS
 62
       7
100
AcDbLine
 10
-191.78996386
 20
-114.86554252
 30
0.0
 11
-191.78996386
 21
-119.86554241
 31
0.0
  0
LINE
  5
E3
100
AcDbEntity
  8
LAYER0003
  6
CONTINUOUS
 62
       7
100
AcDbLine
 10
-187.7899632
 20
-119.86554241
 30
0.0
 11
-187.7899632
 21
-114.86554252
 31
0.0
  0
LINE
  5
E4
100
AcDbEntity
  8
LAYER0003
  6
CONTINUOUS
 62
       7
100
AcDbLine
 10
-187.7899632
 20
-110.3655426
 30
0.0
 11
-187.7899632
 21
-109.36554255
 31
0.0
  0
LINE
  5
E5
100
AcDbEntity
  8
LAYER0003
  6
CONTINUOUS
 62
       7
100
AcDbLine
 10
-154.55087052
 20
-109.36554255
 30
0.0
 11
-154.55087052
 21
-110.3655426
 31
0.0
  0
LINE
  5
E6
100
AcDbEntity
  8
LAYER0003
  6
CONTINUOUS
 62
       7
100
AcDbLine
 10
-150.55086987
 20
-110.3655426
 30
0.0
 11
-150.55086987
 21
-109.36554255
 31
0.0
  0
LINE
  5
E7
100
AcDbEntity
  8
LAYER0003
  6
CONTINUOUS
 62
       7
100
AcDbLine
 10
-173.17041696
 20
-109.36554255
 30
0.0
 11
-173.17041696
 21
-110.3655426
 31
0.0
  0
LINE
  5
E8
100
AcDbEntity
  8
LAYER0003
  6
CONTINUOUS
 62
       7
100
AcDbLine
 10
-169.17041676
 20
-110.3655426
 30
0.0
 11
-169.17041676
 21
-109.36554255
 31
0.0
  0
LINE
  5
E9
100
AcDbEntity
  8
LAYER0003
  6
CONTINUOUS
 62
       7
100
AcDbLine
 10
-141.17041753
 20
-109.36554255
 30
0.0
 11
-141.17041753
 21
-84.86554319
 31
0.0
  0
LINE
  5
EA
100
AcDbEntity
  8
LAYER0003
  6
CONTINUOUS
 62
       7
100
AcDbLine
 10
-201.17041619
 20
-84.86554319
 30
0.0
 11
-201.17041619
 21
-109.36554255
 31
0.0
  0
LINE
  5
EB
100
AcDbEntity
  8
LAYER0003
  6
CONTINUOUS
 62
       7
100
AcDbLine
 10
-141.17041753
 20
231.93446813
 30
0.0
 11
-201.17041619
 21
231.93446813
 31
0.0
  0
LINE
  5
EC
100
AcDbEntity
  8
LAYER0003
  6
CONTINUOUS
 62
       7
100
AcDbLine
 10
-171.17041686
 20
135.9344524
 30
0.0
 11
-141.17041753
 21
135.9344524
 31
0.0
  0
LINE
  5
ED
100
AcDbEntity
  8
LAYER0003
  6
CONTINUOUS
 62
       7
100
AcDbLine
 10
-201.17041619
 20
135.9344524
 30
0.0
 11
-171.17041686
 21
135.9344524
 31
0.0
  0
LINE
  5
EE
100
AcDbEntity
  8
LAYER0003
  6
CONTINUOUS
 62
       7
100
AcDbLine
 10
-171.17041686
 20
166.63445054
 30
0.0
 11
-141.17041753
 21
166.63445054
 31
0.0
  0
LINE
  5
EF
100
AcDbEntity
  8
LAYER0003
  6
CONTINUOUS
 62
       7
100
AcDbLine
 10
-201.17041619
 20
166.63445054
 30
0.0
 11
-171.17041686
 21
166.63445054
 31
0.0
  0
LINE
  5
F0
100
AcDbEntity
  8
LAYER0003
  6
CONTINUOUS
 62
       7
100
AcDbLine
 10
-171.17041686
 20
199.93446289
 30
0.0
 11
-141.17041753
 21
199.93446289
 31
0.0
  0
LINE
  5
F1
100
AcDbEntity
  8
LAYER0003
  6
CONTINUOUS
 62
       7
100
AcDbLine
 10
-201.17041619
 20
199.93446289
 30
0.0
 11
-171.17041686
 21
199.93446289
 31
0.0
  0
LINE
  5
F2
100
AcDbEntity
  8
LAYER0003
  6
CONTINUOUS
 62
       7
100
AcDbLine
 10
-171.17041686
 20
230.63446103
 30
0.0
 11
-141.17041753
 21
230.63446103
 31
0.0
  0
LINE
  5
F3
100
AcDbEntity
  8
LAYER0003
  6
CONTINUOUS
 62
       7
100
AcDbLine
 10
-201.17041619
 20
230.63446103
 30
0.0
 11
-171.17041686
 21
230.63446103
 31
0.0
  0
LINE
  5
F4
100
AcDbEntity
  8
LAYER0003
  6
CONTINUOUS
 62
       7
100
AcDbLine
 10
-171.17041686
 20
102.63445495
 30
0.0
 11
-141.17041753
 21
102.63445495
 31
0.0
  0
LINE
  5
F5
100
AcDbEntity
  8
LAYER0003
  6
CONTINUOUS
 62
       7
100
AcDbLine
 10
-201.17041619
 20
102.63445495
 30
0.0
 11
-171.17041686
 21
102.63445495
 31
0.0
  0
LINE
  5
F6
100
AcDbEntity
  8
LAYER0003
  6
CONTINUOUS
 62
       7
100
AcDbLine
 10
-171.17041686
 20
71.93445681
 30
0.0
 11
-141.17041753
 21
71.93445681
 31
0.0
  0
LINE
  5
F7
100
AcDbEntity
  8
LAYER0003
  6
CONTINUOUS
 62
       7
100
AcDbLine
 10
-201.17041619
 20
71.93445681
 30
0.0
 11
-171.17041686
 21
71.93445681
 31
0.0
  0
LINE
  5
F8
100
AcDbEntity
  8
LAYER0003
  6
CONTINUOUS
 62
       7
100
AcDbLine
 10
-171.17041686
 20
198.63445578
 30
0.0
 11
-141.17041753
 21
198.63445578
 31
0.0
  0
LINE
  5
F9
100
AcDbEntity
  8
LAYER0003
  6
CONTINUOUS
 62
       7
100
AcDbLine
 10
-201.17041619
 20
198.63445578
 30
0.0
 11
-171.17041686
 21
198.63445578
 31
0.0
  0
LINE
  5
FA
100
AcDbEntity
  8
LAYER0003
  6
CONTINUOUS
 62
       7
100
AcDbLine
 10
-171.17041686
 20
167.93445764
 30
0.0
 11
-141.17041753
 21
167.93445764
 31
0.0
  0
LINE
  5
FB
100
AcDbEntity
  8
LAYER0003
  6
CONTINUOUS
 62
       7
100
AcDbLine
 10
-201.17041619
 20
167.93445764
 30
0.0
 11
-171.17041686
 21
167.93445764
 31
0.0
  0
LINE
  5
FC
100
AcDbEntity
  8
LAYER0003
  6
CONTINUOUS
 62
       7
100
AcDbLine
 10
-171.17041686
 20
134.63446019
 30
0.0
 11
-141.17041753
 21
134.63446019
 31
0.0
  0
LINE
  5
FD
100
AcDbEntity
  8
LAYER0003
  6
CONTINUOUS
 62
       7
100
AcDbLine
 10
-201.17041619
 20
134.63446019
 30
0.0
 11
-171.17041686
 21
134.63446019
 31
0.0
  0
LINE
  5
FE
100
AcDbEntity
  8
LAYER0003
  6
CONTINUOUS
 62
       7
100
AcDbLine
 10
-171.17041686
 20
103.93446205
 30
0.0
 11
-141.17041753
 21
103.93446205
 31
0.0
  0
LINE
  5
FF
100
AcDbEntity
  8
LAYER0003
  6
CONTINUOUS
 62
       7
100
AcDbLine
 10
-201.17041619
 20
103.93446205
 30
0.0
 11
-171.17041686
 21
103.93446205
 31
0.0
  0
LINE
  5
100
100
AcDbEntity
  8
LAYER0003
  6
CONTINUOUS
 62
       7
100
AcDbLine
 10
-187.67640518
 20
58.38445841
 30
0.0
 11
-154.66442855
 21
58.38445841
 31
0.0
  0
LINE
  5
101
100
AcDbEntity
  8
LAYER0003
  6
CONTINUOUS
 62
       7
100
AcDbLine
 10
-189.10960631
 20
46.2344539
 30
0.0
 11
-189.10960631
 21
56.63445113
 31
0.0
  0
LINE
  5
102
100
AcDbEntity
  8
LAYER0003
  6
CONTINUOUS
 62
       7
100
AcDbLine
 10
-187.67640518
 20
44.48446153
 30
0.0
 11
-154.66442855
 21
44.48446153
 31
0.0
  0
LINE
  5
103
100
AcDbEntity
  8
LAYER0003
  6
CONTINUOUS
 62
       7
100
AcDbLine
 10
-153.2312274
 20
46.2344539
 30
0.0
 11
-153.2312274
 21
56.63445113
 31
0.0
  0
LINE
  5
104
100
AcDbEntity
  8
LAYER0003
  6
CONTINUOUS
 62
       7
100
AcDbLine
 10
-141.17041752
 20
40.63446341
 30
0.0
 11
-201.17041619
 21
40.63446341
 31
0.0
  0
LINE
  5
105
100
AcDbEntity
  8
LAYER0003
  6
CONTINUOUS
 62
       7
100
AcDbLine
 10
-141.17041753
 20
70.63446461
 30
0.0
 11
-201.17041619
 21
70.63446461
 31
0.0
  0
LINE
  5
106
100
AcDbEntity
  8
LAYER0003
  6
CONTINUOUS
 62
       7
100
AcDbLine
 10
-139.47041668
 20
-24.36554165
 30
0.0
 11
-139.47041668
 21
-29.36554434
 31
0.0
  0
LINE
  5
107
100
AcDbEntity
  8
LAYER0003
  6
CONTINUOUS
 62
       7
100
AcDbLine
 10
-131.56699726
 20
-29.36554434
 30
0.0
 11
-139.47041668
 21
-29.36554434
 31
0.0
  0
LINE
  5
108
100
AcDbEntity
  8
LAYER0003
  6
CONTINUOUS
 62
       7
100
AcDbLine
 10
-131.12041691
 20
-21.86554404
 30
0.0
 11
-131.12041691
 21
-26.86553927
 31
0.0
  0
LINE
  5
109
100
AcDbEntity
  8
LAYER0003
  6
CONTINUOUS
 62
       7
100
AcDbLine
 10
-131.56699726
 20
-19.36553897
 30
0.0
 11
-139.47041668
 21
-19.36553897
 31
0.0
  0
LINE
  5
10A
100
AcDbEntity
  8
LAYER0003
  6
CONTINUOUS
 62
       7
100
AcDbLine
 10
-139.47041668
 20
-19.36553897
 30
0.0
 11
-139.47041668
 21
-24.36554165
 31
0.0
  0
LINE
  5
10B
100
AcDbEntity
  8
LAYER0003
  6
CONTINUOUS
 62
       7
100
AcDbLine
 10
-129.82041726
 20
-18.86554541
 30
0.0
 11
-129.82041726
 21
-29.86554535
 31
0.0
  0
LINE
  5
10C
100
AcDbEntity
  8
LAYER0003
  6
CONTINUOUS
 62
       7
100
AcDbLine
 10
-131.12041691
 20
-26.86553927
 30
0.0
 11
-131.12041691
 21
-29.36554434
 31
0.0
  0
LINE
  5
10D
100
AcDbEntity
  8
LAYER0003
  6
CONTINUOUS
 62
       7
100
AcDbLine
 10
-131.12041691
 20
-19.36553897
 30
0.0
 11
-131.12041691
 21
-21.86554404
 31
0.0
  0
LINE
  5
10E
100
AcDbEntity
  8
LAYER0003
  6
CONTINUOUS
 62
       7
100
AcDbLine
 10
-121.87041678
 20
-18.2655427
 30
0.0
 11
-115.370419
 21
-18.2655427
 31
0.0
  0
LINE
  5
10F
100
AcDbEntity
  8
LAYER0003
  6
CONTINUOUS
 62
       7
100
AcDbLine
 10
-129.47041506
 20
-18.2655427
 30
0.0
 11
-121.87041678
 21
-18.2655427
 31
0.0
  0
LINE
  5
110
100
AcDbEntity
  8
LAYER0003
  6
CONTINUOUS
 62
       7
100
AcDbLine
 10
-129.47041506
 20
-18.2655427
 30
0.0
 11
-129.47041506
 21
-24.36554165
 31
0.0
  0
LINE
  5
111
100
AcDbEntity
  8
LAYER0003
  6
CONTINUOUS
 62
       7
100
AcDbLine
 10
-129.47041506
 20
-24.36554165
 30
0.0
 11
-129.47041506
 21
-30.86553992
 31
0.0
  0
LINE
  5
112
100
AcDbEntity
  8
LAYER0003
  6
CONTINUOUS
 62
       7
100
AcDbLine
 10
-116.34514072
 20
6.73445581
 30
0.0
 11
-127.39569285
 21
6.73445581
 31
0.0
  0
LINE
  5
113
100
AcDbEntity
  8
LAYER0003
  6
CONTINUOUS
 62
       7
100
AcDbLine
 10
-116.3926121
 20
7.73445783
 30
0.0
 11
-127.34822148
 21
7.73445783
 31
0.0
  0
LINE
  5
114
100
AcDbEntity
  8
LAYER0003
  6
CONTINUOUS
 62
       7
100
AcDbLine
 10
-116.46382102
 20
9.23446087
 30
0.0
 11
-127.27701256
 21
9.23446087
 31
0.0
  0
LINE
  5
115
100
AcDbEntity
  8
LAYER0003
  6
CONTINUOUS
 62
       7
100
AcDbLine
 10
-116.58250132
 20
11.73445849
 30
0.0
 11
-127.15833226
 21
11.73445849
 31
0.0
  0
LINE
  5
116
100
AcDbEntity
  8
LAYER0003
  6
CONTINUOUS
 62
       7
100
AcDbLine
 10
-116.5112924
 20
10.23445545
 30
0.0
 11
-127.22954118
 21
10.23445545
 31
0.0
  0
LINE
  5
117
100
AcDbEntity
  8
LAYER0003
  6
CONTINUOUS
 62
       7
100
AcDbLine
 10
-116.62997642
 20
12.73446052
 30
0.0
 11
-127.11085716
 21
12.73446052
 31
0.0
  0
LINE
  5
118
100
AcDbEntity
  8
LAYER0003
  6
CONTINUOUS
 62
       7
100
AcDbLine
 10
-184.78996271
 20
-110.3655426
 30
0.0
 11
-194.78996249
 21
-110.3655426
 31
0.0
  0
LINE
  5
119
100
AcDbEntity
  8
LAYER0003
  6
CONTINUOUS
 62
       7
100
AcDbLine
 10
-184.78996271
 20
-111.06554257
 30
0.0
 11
-194.78996249
 21
-111.06554257
 31
0.0
  0
LINE
  5
11A
100
AcDbEntity
  8
LAYER0003
  6
CONTINUOUS
 62
       7
100
AcDbLine
 10
-189.78996353
 20
-114.55293525
 30
0.0
 11
-189.78996353
 21
-111.06554257
 31
0.0
  0
LINE
  5
11B
100
AcDbEntity
  8
LAYER0003
  6
CONTINUOUS
 62
       7
100
AcDbLine
 10
-186.28996295
 20
-114.86554252
 30
0.0
 11
-186.28996295
 21
-111.06554257
 31
0.0
  0
LINE
  5
11C
100
AcDbEntity
  8
LAYER0003
  6
CONTINUOUS
 62
       7
100
AcDbLine
 10
-193.28996317
 20
-114.86554252
 30
0.0
 11
-193.28996317
 21
-111.06554257
 31
0.0
  0
LINE
  5
11D
100
AcDbEntity
  8
LAYER0003
  6
CONTINUOUS
 62
       7
100
AcDbLine
 10
-186.28996295
 20
-114.86554252
 30
0.0
 11
-193.28996317
 21
-114.86554252
 31
0.0
  0
LINE
  5
11E
100
AcDbEntity
  8
LAYER0003
  6
CONTINUOUS
 62
       7
100
AcDbLine
 10
-201.17041619
 20
-107.36554245
 30
0.0
 11
-141.17041753
 21
-107.36554245
 31
0.0
  0
LINE
  5
11F
100
AcDbEntity
  8
LAYER0003
  6
CONTINUOUS
 62
       7
100
AcDbLine
 10
-201.17041619
 20
-109.36554255
 30
0.0
 11
-141.17041753
 21
-109.36554255
 31
0.0
  0
LINE
  5
120
100
AcDbEntity
  8
LAYER0003
  6
CONTINUOUS
 62
       7
100
AcDbLine
 10
-183.92041662
 20
-32.36554296
 30
0.0
 11
-183.92041662
 21
15.63445745
 31
0.0
  0
LINE
  5
121
100
AcDbEntity
  8
LAYER0003
  6
CONTINUOUS
 62
       7
100
AcDbLine
 10
-158.4204171
 20
15.63445745
 30
0.0
 11
-158.4204171
 21
-32.36554296
 31
0.0
  0
LINE
  5
122
100
AcDbEntity
  8
LAYER0003
  6
CONTINUOUS
 62
       7
100
AcDbLine
 10
-141.37041719
 20
-24.36554165
 30
0.0
 11
-141.37041719
 21
-27.8296444
 31
0.0
  0
LINE
  5
123
100
AcDbEntity
  8
LAYER0003
  6
CONTINUOUS
 62
       7
100
AcDbLine
 10
-141.37041719
 20
-24.36554165
 30
0.0
 11
-141.37041719
 21
-20.90143891
 31
0.0
  0
LINE
  5
124
100
AcDbEntity
  8
LAYER0003
  6
CONTINUOUS
 62
       7
100
AcDbLine
 10
-141.72768185
 20
-22.05614479
 30
0.0
 11
-142.17963965
 21
-22.05614479
 31
0.0
  0
LINE
  5
125
100
AcDbEntity
  8
LAYER0003
  6
CONTINUOUS
 62
       7
100
AcDbLine
 10
-141.72768185
 20
-19.74674048
 30
0.0
 11
-141.37041719
 21
-20.90143891
 31
0.0
  0
LINE
  5
126
100
AcDbEntity
  8
LAYER0003
  6
CONTINUOUS
 62
       7
100
AcDbLine
 10
-141.37041719
 20
-20.365541
 30
0.0
 11
-141.37041719
 21
-20.90143891
 31
0.0
  0
LINE
  5
127
100
AcDbEntity
  8
LAYER0003
  6
CONTINUOUS
 62
       7
100
AcDbLine
 10
-191.78996386
 20
-119.86554241
 30
0.0
 11
-187.7899632
 21
-119.86554241
 31
0.0
  0
LINE
  5
128
100
AcDbEntity
  8
LAYER0003
  6
CONTINUOUS
 62
       7
100
AcDbLine
 10
-201.17041619
 20
-84.86554319
 30
0.0
 11
-141.17041753
 21
-84.86554319
 31
0.0
  0
LINE
  5
129
100
AcDbEntity
  8
LAYER0003
  6
CONTINUOUS
 62
       7
100
AcDbLine
 10
-183.76483825
 20
-91.36554332
 30
0.0
 11
-158.57599547
 21
-91.36554332
 31
0.0
  0
LINE
  5
12A
100
AcDbEntity
  8
LAYER0003
  6
CONTINUOUS
 62
       7
100
AcDbLine
 10
-185.12428144
 20
-92.36554162
 30
0.0
 11
-185.12428144
 21
-98.86554269
 31
0.0
  0
LINE
  5
12B
100
AcDbEntity
  8
LAYER0003
  6
CONTINUOUS
 62
       7
100
AcDbLine
 10
-158.57599547
 20
-99.86554285
 30
0.0
 11
-183.76483825
 21
-99.86554285
 31
0.0
  0
LINE
  5
12C
100
AcDbEntity
  8
LAYER0003
  6
CONTINUOUS
 62
       7
100
AcDbLine
 10
-157.21655228
 20
-92.36554162
 30
0.0
 11
-157.21655228
 21
-98.86554269
 31
0.0
  0
LINE
  5
12D
100
AcDbEntity
  8
LAYER0003
  6
CONTINUOUS
 62
       7
100
AcDbLine
 10
-184.40514395
 20
-94.91554288
 30
0.0
 11
-184.40514395
 21
-96.31554236
 31
0.0
  0
LINE
  5
12E
100
AcDbEntity
  8
LAYER0003
  6
CONTINUOUS
 62
       7
100
AcDbLine
 10
-157.93568978
 20
-94.91554288
 30
0.0
 11
-157.93568978
 21
-96.31554236
 31
0.0
  0
LINE
  5
12F
100
AcDbEntity
  8
LAYER0003
  6
CONTINUOUS
 62
       7
100
AcDbLine
 10
-184.40514395
 20
-96.31554236
 30
0.0
 11
-157.93568978
 21
-96.31554236
 31
0.0
  0
LINE
  5
130
100
AcDbEntity
  8
LAYER0003
  6
CONTINUOUS
 62
       7
100
AcDbLine
 10
-184.40514395
 20
-94.91554288
 30
0.0
 11
-157.93568978
 21
-94.91554288
 31
0.0
  0
LINE
  5
131
100
AcDbEntity
  8
LAYER0003
  6
CONTINUOUS
 62
       7
100
AcDbLine
 10
-162.6704164
 20
-99.86554285
 30
0.0
 11
-162.6704164
 21
-96.31554236
 31
0.0
  0
LINE
  5
132
100
AcDbEntity
  8
LAYER0003
  6
CONTINUOUS
 62
       7
100
AcDbLine
 10
-162.6704164
 20
-94.91554288
 30
0.0
 11
-162.6704164
 21
-91.36554332
 31
0.0
  0
LINE
  5
133
100
AcDbEntity
  8
LAYER0003
  6
CONTINUOUS
 62
       7
100
AcDbLine
 10
-179.67041732
 20
-91.36554332
 30
0.0
 11
-179.67041732
 21
-94.91554288
 31
0.0
  0
LINE
  5
134
100
AcDbEntity
  8
LAYER0003
  6
CONTINUOUS
 62
       7
100
AcDbLine
 10
-179.67041732
 20
-96.31554236
 30
0.0
 11
-179.67041732
 21
-99.86554285
 31
0.0
  0
LINE
  5
135
100
AcDbEntity
  8
LAYER0003
  6
CONTINUOUS
 62
       7
100
AcDbLine
 10
56.02244049
 20
40.63446341
 30
0.0
 11
56.02244049
 21
238.78506484
 31
0.0
  0
LINE
  5
136
100
AcDbEntity
  8
LAYER0003
  6
CONTINUOUS
 62
       7
100
AcDbLine
 10
-3.97755818
 20
238.78506484
 30
0.0
 11
-3.97755818
 21
40.63446341
 31
0.0
  0
LINE
  5
137
100
AcDbEntity
  8
LAYER0003
  6
CONTINUOUS
 62
       7
100
AcDbLine
 10
32.02244116
 20
-18.2655427
 30
0.0
 11
32.02244116
 21
-8.01010794
 31
0.0
  0
LINE
  5
138
100
AcDbEntity
  8
LAYER0003
  6
CONTINUOUS
 62
       7
100
AcDbLine
 10
20.02244116
 20
-8.01010794
 30
0.0
 11
20.02244116
 21
-18.2655427
 31
0.0
  0
LINE
  5
139
100
AcDbEntity
  8
LAYER0003
  6
CONTINUOUS
 62
       7
100
AcDbLine
 10
31.79745876
 20
1.47368562
 30
0.0
 11
31.54771768
 21
6.73445581
 31
0.0
  0
LINE
  5
13A
100
AcDbEntity
  8
LAYER0003
  6
CONTINUOUS
 62
       7
100
AcDbLine
 10
20.49716462
 20
6.73445581
 30
0.0
 11
20.24742355
 21
1.47368562
 31
0.0
  0
LINE
  5
13B
100
AcDbEntity
  8
LAYER0003
  6
CONTINUOUS
 62
       7
100
AcDbLine
 10
31.50024491
 20
7.73445783
 30
0.0
 11
31.42903645
 21
9.23446087
 31
0.0
  0
LINE
  5
13C
100
AcDbEntity
  8
LAYER0003
  6
CONTINUOUS
 62
       7
100
AcDbLine
 10
20.61584586
 20
9.23446087
 30
0.0
 11
20.54463739
 21
7.73445783
 31
0.0
  0
LINE
  5
13D
100
AcDbEntity
  8
LAYER0003
  6
CONTINUOUS
 62
       7
100
AcDbLine
 10
31.38156415
 20
10.23445545
 30
0.0
 11
31.31035569
 21
11.73445849
 31
0.0
  0
LINE
  5
13E
100
AcDbEntity
  8
LAYER0003
  6
CONTINUOUS
 62
       7
100
AcDbLine
 10
20.73452662
 20
11.73445849
 30
0.0
 11
20.66331817
 21
10.23445545
 31
0.0
  0
LINE
  5
13F
100
AcDbEntity
  8
LAYER0003
  6
CONTINUOUS
 62
       7
100
AcDbLine
 10
31.26288338
 20
12.73446052
 30
0.0
 11
29.52244126
 21
49.39667402
 31
0.0
  0
LINE
  5
140
100
AcDbEntity
  8
LAYER0003
  6
CONTINUOUS
 62
       7
100
AcDbLine
 10
22.52244104
 20
49.39667402
 30
0.0
 11
20.78199892
 21
12.73446052
 31
0.0
  0
LINE
  5
141
100
AcDbEntity
  8
LAYER0003
  6
CONTINUOUS
 62
       7
100
AcDbLine
 10
31.04715415
 20
6.73445581
 30
0.0
 11
30.99968185
 21
7.73445783
 31
0.0
  0
LINE
  5
142
100
AcDbEntity
  8
LAYER0003
  6
CONTINUOUS
 62
       7
100
AcDbLine
 10
21.04520046
 20
7.73445783
 30
0.0
 11
20.99772815
 21
6.73445581
 31
0.0
  0
LINE
  5
143
100
AcDbEntity
  8
LAYER0003
  6
CONTINUOUS
 62
       7
100
AcDbLine
 10
30.9284734
 20
9.23446087
 30
0.0
 11
30.88100108
 21
10.23445545
 31
0.0
  0
LINE
  5
144
100
AcDbEntity
  8
LAYER0003
  6
CONTINUOUS
 62
       7
100
AcDbLine
 10
21.16388122
 20
10.23445545
 30
0.0
 11
21.11640893
 21
9.23446087
 31
0.0
  0
LINE
  5
145
100
AcDbEntity
  8
LAYER0003
  6
CONTINUOUS
 62
       7
100
AcDbLine
 10
30.80979262
 20
11.73445849
 30
0.0
 11
30.76232033
 21
12.73446052
 31
0.0
  0
LINE
  5
146
100
AcDbEntity
  8
LAYER0003
  6
CONTINUOUS
 62
       7
100
AcDbLine
 10
21.28256199
 20
12.73446052
 30
0.0
 11
21.23508968
 21
11.73445849
 31
0.0
  0
LINE
  5
147
100
AcDbEntity
  8
LAYER0003
  6
CONTINUOUS
 62
       7
100
AcDbLine
 10
-3.59573041
 20
28.3844574
 30
0.0
 11
-3.72755962
 21
28.3844574
 31
0.0
  0
LINE
  5
148
100
AcDbEntity
  8
LAYER0003
  6
CONTINUOUS
 62
       7
100
AcDbLine
 10
-3.72755945
 20
-45.11554259
 30
0.0
 11
-3.59573003
 21
-45.11554259
 31
0.0
  0
LINE
  5
149
100
AcDbEntity
  8
LAYER0003
  6
CONTINUOUS
 62
       7
100
AcDbLine
 10
-5.37755765
 20
-43.24887426
 30
0.0
 11
-4.12755885
 21
-44.91554255
 31
0.0
  0
LINE
  5
14A
100
AcDbEntity
  8
LAYER0003
  6
CONTINUOUS
 62
       7
100
AcDbLine
 10
-4.12755885
 20
28.18445745
 30
0.0
 11
-5.37755765
 21
26.51778875
 31
0.0
  0
LINE
  5
14B
100
AcDbEntity
  8
LAYER0003
  6
CONTINUOUS
 62
       7
100
AcDbLine
 10
56.02244049
 20
-84.86554319
 30
0.0
 11
56.02244049
 21
40.63446341
 31
0.0
  0
LINE
  5
14C
100
AcDbEntity
  8
LAYER0003
  6
CONTINUOUS
 62
       7
100
AcDbLine
 10
-3.97755818
 20
-46.40386732
 30
0.0
 11
-3.97755818
 21
-84.86554319
 31
0.0
  0
LINE
  5
14D
100
AcDbEntity
  8
LAYER0003
  6
CONTINUOUS
 62
       7
100
AcDbLine
 10
-3.97755818
 20
40.63446341
 30
0.0
 11
-3.97755818
 21
29.67278181
 31
0.0
  0
LINE
  5
14E
100
AcDbEntity
  8
LAYER0003
  6
CONTINUOUS
 62
       7
100
AcDbLine
 10
45.52244156
 20
-109.36554255
 30
0.0
 11
45.52244156
 21
-119.86554241
 31
0.0
  0
LINE
  5
14F
100
AcDbEntity
  8
LAYER0003
  6
CONTINUOUS
 62
       7
100
AcDbLine
 10
49.52244035
 20
-119.86554241
 30
0.0
 11
49.52244035
 21
-109.36554255
 31
0.0
  0
LINE
  5
150
100
AcDbEntity
  8
LAYER0003
  6
CONTINUOUS
 62
       7
100
AcDbLine
 10
13.27244139
 20
-109.36554255
 30
0.0
 11
13.27244139
 21
-119.86554241
 31
0.0
  0
LINE
  5
151
100
AcDbEntity
  8
LAYER0003
  6
CONTINUOUS
 62
       7
100
AcDbLine
 10
17.27244112
 20
-119.86554241
 30
0.0
 11
17.27244112
 21
-109.36554255
 31
0.0
  0
LINE
  5
152
100
AcDbEntity
  8
LAYER0003
  6
CONTINUOUS
 62
       7
100
AcDbLine
 10
56.02244049
 20
-109.36554255
 30
0.0
 11
56.02244049
 21
-84.86554319
 31
0.0
  0
LINE
  5
153
100
AcDbEntity
  8
LAYER0003
  6
CONTINUOUS
 62
       7
100
AcDbLine
 10
-3.97755818
 20
-99.86554285
 30
0.0
 11
-3.97755818
 21
-109.36554255
 31
0.0
  0
LINE
  5
154
100
AcDbEntity
  8
LAYER0003
  6
CONTINUOUS
 62
       7
100
AcDbLine
 10
-3.97755818
 20
-84.86554319
 30
0.0
 11
-3.97755818
 21
-91.36554332
 31
0.0
  0
LINE
  5
155
100
AcDbEntity
  8
LAYER0003
  6
CONTINUOUS
 62
       7
100
AcDbLine
 10
-3.47755903
 20
-94.91554288
 30
0.0
 11
-3.47755903
 21
-96.31554236
 31
0.0
  0
LINE
  5
156
100
AcDbEntity
  8
LAYER0003
  6
CONTINUOUS
 62
       7
100
AcDbLine
 10
-1.09493599
 20
-91.36554332
 30
0.0
 11
-1.09493599
 21
-94.91554288
 31
0.0
  0
LINE
  5
157
100
AcDbEntity
  8
LAYER0003
  6
CONTINUOUS
 62
       7
100
AcDbLine
 10
-1.09493599
 20
-96.31554236
 30
0.0
 11
-1.09493599
 21
-99.86554285
 31
0.0
  0
LINE
  5
158
100
AcDbEntity
  8
LAYER0003
  6
CONTINUOUS
 62
       7
100
AcDbLine
 10
56.02244048
 20
231.93446813
 30
0.0
 11
-3.97755818
 21
231.93446813
 31
0.0
  0
LINE
  5
159
100
AcDbEntity
  8
LAYER0003
  6
CONTINUOUS
 62
       7
100
AcDbLine
 10
-3.97755818
 20
103.93446205
 30
0.0
 11
56.02244048
 21
103.93446205
 31
0.0
  0
LINE
  5
15A
100
AcDbEntity
  8
LAYER0003
  6
CONTINUOUS
 62
       7
100
AcDbLine
 10
-3.97755818
 20
134.63446019
 30
0.0
 11
56.02244048
 21
134.63446019
 31
0.0
  0
LINE
  5
15B
100
AcDbEntity
  8
LAYER0003
  6
CONTINUOUS
 62
       7
100
AcDbLine
 10
-3.97755818
 20
71.93445681
 30
0.0
 11
56.02244048
 21
71.93445681
 31
0.0
  0
LINE
  5
15C
100
AcDbEntity
  8
LAYER0003
  6
CONTINUOUS
 62
       7
100
AcDbLine
 10
-3.97755818
 20
102.63445495
 30
0.0
 11
56.02244048
 21
102.63445495
 31
0.0
  0
LINE
  5
15D
100
AcDbEntity
  8
LAYER0003
  6
CONTINUOUS
 62
       7
100
AcDbLine
 10
-3.97755818
 20
135.9344524
 30
0.0
 11
56.02244048
 21
135.9344524
 31
0.0
  0
LINE
  5
15E
100
AcDbEntity
  8
LAYER0003
  6
CONTINUOUS
 62
       7
100
AcDbLine
 10
-3.97755818
 20
166.63445054
 30
0.0
 11
56.02244048
 21
166.63445054
 31
0.0
  0
LINE
  5
15F
100
AcDbEntity
  8
LAYER0003
  6
CONTINUOUS
 62
       7
100
AcDbLine
 10
-3.97755818
 20
198.63445578
 30
0.0
 11
56.02244048
 21
198.63445578
 31
0.0
  0
LINE
  5
160
100
AcDbEntity
  8
LAYER0003
  6
CONTINUOUS
 62
       7
100
AcDbLine
 10
-3.97755818
 20
167.93445764
 30
0.0
 11
56.02244048
 21
167.93445764
 31
0.0
  0
LINE
  5
161
100
AcDbEntity
  8
LAYER0003
  6
CONTINUOUS
 62
       7
100
AcDbLine
 10
-3.97755818
 20
199.93446289
 30
0.0
 11
56.02244048
 21
199.93446289
 31
0.0
  0
LINE
  5
162
100
AcDbEntity
  8
LAYER0003
  6
CONTINUOUS
 62
       7
100
AcDbLine
 10
-3.97755818
 20
230.63446103
 30
0.0
 11
56.02244048
 21
230.63446103
 31
0.0
  0
LINE
  5
163
100
AcDbEntity
  8
LAYER0003
  6
CONTINUOUS
 62
       7
100
AcDbLine
 10
-3.97755818
 20
58.38445841
 30
0.0
 11
0.97144528
 21
58.38445841
 31
0.0
  0
LINE
  5
164
100
AcDbEntity
  8
LAYER0003
  6
CONTINUOUS
 62
       7
100
AcDbLine
 10
-3.97755818
 20
44.48446153
 30
0.0
 11
0.97144528
 21
44.48446153
 31
0.0
  0
LINE
  5
165
100
AcDbEntity
  8
LAYER0003
  6
CONTINUOUS
 62
       7
100
AcDbLine
 10
1.97695329
 20
46.2344539
 30
0.0
 11
1.97695329
 21
56.63445113
 31
0.0
  0
LINE
  5
166
100
AcDbEntity
  8
LAYER0003
  6
CONTINUOUS
 62
       7
100
AcDbLine
 10
56.02244049
 20
40.63446341
 30
0.0
 11
29.93840393
 21
40.63446341
 31
0.0
  0
LINE
  5
167
100
AcDbEntity
  8
LAYER0003
  6
CONTINUOUS
 62
       7
100
AcDbLine
 10
22.10647839
 20
40.63446341
 30
0.0
 11
-3.97755818
 21
40.63446341
 31
0.0
  0
LINE
  5
168
100
AcDbEntity
  8
LAYER0003
  6
CONTINUOUS
 62
       7
100
AcDbLine
 10
56.02244048
 20
70.63446461
 30
0.0
 11
-3.97755818
 21
70.63446461
 31
0.0
  0
LINE
  5
169
100
AcDbEntity
  8
LAYER0003
  6
CONTINUOUS
 62
       7
100
AcDbLine
 10
32.5224413
 20
-24.36554165
 30
0.0
 11
32.5224413
 21
-18.2655427
 31
0.0
  0
LINE
  5
16A
100
AcDbEntity
  8
LAYER0003
  6
CONTINUOUS
 62
       7
100
AcDbLine
 10
19.52244102
 20
-18.2655427
 30
0.0
 11
19.52244102
 21
-24.36554165
 31
0.0
  0
LINE
  5
16B
100
AcDbEntity
  8
LAYER0003
  6
CONTINUOUS
 62
       7
100
AcDbLine
 10
19.52244102
 20
-18.2655427
 30
0.0
 11
32.5224413
 21
-18.2655427
 31
0.0
  0
LINE
  5
16C
100
AcDbEntity
  8
LAYER0003
  6
CONTINUOUS
 62
       7
100
AcDbLine
 10
31.54771768
 20
6.73445581
 30
0.0
 11
20.49716462
 21
6.73445581
 31
0.0
  0
LINE
  5
16D
100
AcDbEntity
  8
LAYER0003
  6
CONTINUOUS
 62
       7
100
AcDbLine
 10
31.50024491
 20
7.73445783
 30
0.0
 11
20.54463739
 21
7.73445783
 31
0.0
  0
LINE
  5
16E
100
AcDbEntity
  8
LAYER0003
  6
CONTINUOUS
 62
       7
100
AcDbLine
 10
31.42903645
 20
9.23446087
 30
0.0
 11
20.61584586
 21
9.23446087
 31
0.0
  0
LINE
  5
16F
100
AcDbEntity
  8
LAYER0003
  6
CONTINUOUS
 62
       7
100
AcDbLine
 10
31.31035569
 20
11.73445849
 30
0.0
 11
20.73452662
 21
11.73445849
 31
0.0
  0
LINE
  5
170
100
AcDbEntity
  8
LAYER0003
  6
CONTINUOUS
 62
       7
100
AcDbLine
 10
31.38156415
 20
10.23445545
 30
0.0
 11
20.66331817
 21
10.23445545
 31
0.0
  0
LINE
  5
171
100
AcDbEntity
  8
LAYER0003
  6
CONTINUOUS
 62
       7
100
AcDbLine
 10
31.26288338
 20
12.73446052
 30
0.0
 11
20.78199892
 21
12.73446052
 31
0.0
  0
LINE
  5
172
100
AcDbEntity
  8
LAYER0003
  6
CONTINUOUS
 62
       7
100
AcDbLine
 10
-3.97755818
 20
-109.36554255
 30
0.0
 11
56.02244049
 21
-109.36554255
 31
0.0
  0
LINE
  5
173
100
AcDbEntity
  8
LAYER0003
  6
CONTINUOUS
 62
       7
100
AcDbLine
 10
-3.97755818
 20
-107.36554245
 30
0.0
 11
56.02244048
 21
-107.36554245
 31
0.0
  0
LINE
  5
174
100
AcDbEntity
  8
LAYER0003
  6
CONTINUOUS
 62
       7
100
AcDbLine
 10
-5.47755934
 20
-43.11553842
 30
0.0
 11
-5.47755934
 21
26.38445287
 31
0.0
  0
LINE
  5
175
100
AcDbEntity
  8
LAYER0003
  6
CONTINUOUS
 62
       7
100
AcDbLine
 10
-1.01457031
 20
19.67536925
 30
0.0
 11
-1.01457031
 21
-36.40646221
 31
0.0
  0
LINE
  5
176
100
AcDbEntity
  8
LAYER0003
  6
CONTINUOUS
 62
       7
100
AcDbLine
 10
45.52244156
 20
-119.86554241
 30
0.0
 11
49.52244035
 21
-119.86554241
 31
0.0
  0
LINE
  5
177
100
AcDbEntity
  8
LAYER0003
  6
CONTINUOUS
 62
       7
100
AcDbLine
 10
13.27244139
 20
-119.86554241
 30
0.0
 11
17.27244112
 21
-119.86554241
 31
0.0
  0
LINE
  5
178
100
AcDbEntity
  8
LAYER0003
  6
CONTINUOUS
 62
       7
100
AcDbLine
 10
-3.97755818
 20
-91.36554332
 30
0.0
 11
-1.20586396
 21
-91.36554332
 31
0.0
  0
LINE
  5
179
100
AcDbEntity
  8
LAYER0003
  6
CONTINUOUS
 62
       7
100
AcDbLine
 10
-1.20586396
 20
-99.86554285
 30
0.0
 11
-3.97755818
 21
-99.86554285
 31
0.0
  0
LINE
  5
17A
100
AcDbEntity
  8
LAYER0003
  6
CONTINUOUS
 62
       7
100
AcDbLine
 10
-0.53484977
 20
-92.36554162
 30
0.0
 11
-0.53484977
 21
-98.86554269
 31
0.0
  0
LINE
  5
17B
100
AcDbEntity
  8
LAYER0003
  6
CONTINUOUS
 62
       7
100
AcDbLine
 10
-3.97755818
 20
-84.86554319
 30
0.0
 11
56.02244049
 21
-84.86554319
 31
0.0
  0
LINE
  5
17C
100
AcDbEntity
  8
LAYER0003
  6
CONTINUOUS
 62
       7
100
AcDbLine
 10
-3.47755903
 20
-96.31554236
 30
0.0
 11
-0.53484977
 21
-96.31554236
 31
0.0
  0
LINE
  5
17D
100
AcDbEntity
  8
LAYER0003
  6
CONTINUOUS
 62
       7
100
AcDbLine
 10
-3.47755903
 20
-94.91554288
 30
0.0
 11
-0.53484977
 21
-94.91554288
 31
0.0
  0
LINE
  5
17E
100
AcDbEntity
  8
LAYER0003
  6
CONTINUOUS
 62
       7
100
AcDbLine
 10
-183.92041662
 20
-193.01173234
 30
0.0
 11
-183.92041662
 21
-195.60593323
 31
0.0
  0
LINE
  5
17F
100
AcDbEntity
  8
LAYER0003
  6
CONTINUOUS
 62
       7
100
AcDbLine
 10
-158.42041577
 20
-193.01173236
 30
0.0
 11
-158.42041577
 21
-195.60593325
 31
0.0
  0
LINE
  5
180
100
AcDbEntity
  8
LAYER0003
  6
CONTINUOUS
 62
       7
100
AcDbLine
 10
-158.62041573
 20
-192.61173312
 30
0.0
 11
-160.28708257
 21
-191.36173431
 31
0.0
  0
LINE
  5
181
100
AcDbEntity
  8
LAYER0003
  6
CONTINUOUS
 62
       7
100
AcDbLine
 10
-182.05374983
 20
-191.36173431
 30
0.0
 11
-183.72041667
 21
-192.61173312
 31
0.0
  0
LINE
  5
182
100
AcDbEntity
  8
LAYER0003
  6
CONTINUOUS
 62
       7
100
AcDbLine
 10
-181.75374987
 20
-191.26173402
 30
0.0
 11
-160.58708253
 21
-191.26173402
 31
0.0
  0
LINE
  5
183
100
AcDbEntity
  8
LAYER0003
  6
CONTINUOUS
 62
       7
100
AcDbLine
 10
-172.67041687
 20
52.18445776
 30
0.0
 11
-169.67041684
 21
52.18445776
 31
0.0
  0
LINE
  5
184
100
AcDbEntity
  8
LAYER0003
  6
CONTINUOUS
 62
       7
100
AcDbLine
 10
-172.67041687
 20
50.68446217
 30
0.0
 11
-169.67041684
 21
50.68446217
 31
0.0
  0
LINE
  5
185
100
AcDbEntity
  8
LAYER0003
  6
CONTINUOUS
 62
       7
100
AcDbLine
 10
-172.67041687
 20
50.68446217
 30
0.0
 11
-172.67041687
 21
52.18445776
 31
0.0
  0
LINE
  5
186
100
AcDbEntity
  8
LAYER0003
  6
CONTINUOUS
 62
       7
100
AcDbLine
 10
-169.67041684
 20
50.68446217
 30
0.0
 11
-169.67041684
 21
52.18445776
 31
0.0
  0
LINE
  5
187
100
AcDbEntity
  8
LAYER0003
  6
CONTINUOUS
 62
       7
100
AcDbLine
 10
-165.7051189
 20
50.68446217
 30
0.0
 11
-168.67841814
 21
50.68446217
 31
0.0
  0
LINE
  5
188
100
AcDbEntity
  8
LAYER0003
  6
CONTINUOUS
 62
       7
100
AcDbLine
 10
-168.68508269
 20
50.68446217
 30
0.0
 11
-165.71178345
 21
50.68446217
 31
0.0
  0
LINE
  5
189
100
AcDbEntity
  8
LAYER0003
  6
CONTINUOUS
 62
       7
100
AcDbLine
 10
-173.65575104
 20
52.18445776
 30
0.0
 11
-176.62905028
 21
52.18445776
 31
0.0
  0
LINE
  5
18A
100
AcDbEntity
  8
LAYER0003
  6
CONTINUOUS
 62
       7
100
AcDbLine
 10
-168.68508269
 20
50.68446217
 30
0.0
 11
-168.68508269
 21
52.18445776
 31
0.0
  0
LINE
  5
18B
100
AcDbEntity
  8
LAYER0003
  6
CONTINUOUS
 62
       7
100
AcDbLine
 10
-176.63571481
 20
52.18445776
 30
0.0
 11
-173.66241558
 21
52.18445776
 31
0.0
  0
LINE
  5
18C
100
AcDbEntity
  8
LAYER0003
  6
CONTINUOUS
 62
       7
100
AcDbLine
 10
-165.7051189
 20
52.18445776
 30
0.0
 11
-168.67841814
 21
52.18445776
 31
0.0
  0
LINE
  5
18D
100
AcDbEntity
  8
LAYER0003
  6
CONTINUOUS
 62
       7
100
AcDbLine
 10
-168.68508269
 20
52.18445776
 30
0.0
 11
-165.71178345
 21
52.18445776
 31
0.0
  0
LINE
  5
18E
100
AcDbEntity
  8
LAYER0003
  6
CONTINUOUS
 62
       7
100
AcDbLine
 10
-176.63571481
 20
50.68446217
 30
0.0
 11
-173.66241558
 21
50.68446217
 31
0.0
  0
LINE
  5
18F
100
AcDbEntity
  8
LAYER0003
  6
CONTINUOUS
 62
       7
100
AcDbLine
 10
-173.65575104
 20
50.68446217
 30
0.0
 11
-176.62905028
 21
50.68446217
 31
0.0
  0
LINE
  5
190
100
AcDbEntity
  8
LAYER0003
  6
CONTINUOUS
 62
       7
100
AcDbLine
 10
-173.65575104
 20
50.68446217
 30
0.0
 11
-173.65575104
 21
52.18445776
 31
0.0
  0
LINE
  5
191
100
AcDbEntity
  8
LAYER0003
  6
CONTINUOUS
 62
       7
100
AcDbLine
 10
-165.71178345
 20
50.68446217
 30
0.0
 11
-165.71178345
 21
52.18445776
 31
0.0
  0
LINE
  5
192
100
AcDbEntity
  8
LAYER0003
  6
CONTINUOUS
 62
       7
100
AcDbLine
 10
-176.63571481
 20
50.68446217
 30
0.0
 11
-176.63571481
 21
52.18445776
 31
0.0
  0
LINE
  5
193
100
AcDbEntity
  8
LAYER0003
  6
CONTINUOUS
 62
       7
100
AcDbLine
 10
-177.59684531
 20
50.68446217
 30
0.0
 11
-180.49051763
 21
50.68446217
 31
0.0
  0
LINE
  5
194
100
AcDbEntity
  8
LAYER0003
  6
CONTINUOUS
 62
       7
100
AcDbLine
 10
-180.5037275
 20
50.68446217
 30
0.0
 11
-177.61005565
 21
50.68446217
 31
0.0
  0
LINE
  5
195
100
AcDbEntity
  8
LAYER0003
  6
CONTINUOUS
 62
       7
100
AcDbLine
 10
-177.59684531
 20
50.68446217
 30
0.0
 11
-177.59684531
 21
52.18445776
 31
0.0
  0
LINE
  5
196
100
AcDbEntity
  8
LAYER0003
  6
CONTINUOUS
 62
       7
100
AcDbLine
 10
-180.5037275
 20
52.18445776
 30
0.0
 11
-177.61005565
 21
52.18445776
 31
0.0
  0
LINE
  5
197
100
AcDbEntity
  8
LAYER0003
  6
CONTINUOUS
 62
       7
100
AcDbLine
 10
-177.59684531
 20
52.18445776
 30
0.0
 11
-180.49051763
 21
52.18445776
 31
0.0
  0
LINE
  5
198
100
AcDbEntity
  8
LAYER0003
  6
CONTINUOUS
 62
       7
100
AcDbLine
 10
-164.74398842
 20
52.18445776
 30
0.0
 11
-161.85031608
 21
52.18445776
 31
0.0
  0
LINE
  5
199
100
AcDbEntity
  8
LAYER0003
  6
CONTINUOUS
 62
       7
100
AcDbLine
 10
-164.74398842
 20
50.68446217
 30
0.0
 11
-161.85031608
 21
50.68446217
 31
0.0
  0
LINE
  5
19A
100
AcDbEntity
  8
LAYER0003
  6
CONTINUOUS
 62
       7
100
AcDbLine
 10
-161.83710621
 20
50.68446217
 30
0.0
 11
-164.73077807
 21
50.68446217
 31
0.0
  0
LINE
  5
19B
100
AcDbEntity
  8
LAYER0003
  6
CONTINUOUS
 62
       7
100
AcDbLine
 10
-161.83710621
 20
52.18445776
 30
0.0
 11
-164.73077807
 21
52.18445776
 31
0.0
  0
LINE
  5
19C
100
AcDbEntity
  8
LAYER0003
  6
CONTINUOUS
 62
       7
100
AcDbLine
 10
-164.74398842
 20
50.68446217
 30
0.0
 11
-164.74398842
 21
52.18445776
 31
0.0
  0
LINE
  5
19D
100
AcDbEntity
  8
LAYER0003
  6
CONTINUOUS
 62
       7
100
AcDbLine
 10
-180.5037275
 20
50.68446217
 30
0.0
 11
-180.5037275
 21
52.18445776
 31
0.0
  0
LINE
  5
19E
100
AcDbEntity
  8
LAYER0003
  6
CONTINUOUS
 62
       7
100
AcDbLine
 10
-161.83710621
 20
50.68446217
 30
0.0
 11
-161.83710621
 21
52.18445776
 31
0.0
  0
LINE
  5
19F
100
AcDbEntity
  8
LAYER0003
  6
CONTINUOUS
 62
       7
100
AcDbLine
 10
-160.91728826
 20
52.18445776
 30
0.0
 11
-158.15475175
 21
52.18445776
 31
0.0
  0
LINE
  5
1A0
100
AcDbEntity
  8
LAYER0003
  6
CONTINUOUS
 62
       7
100
AcDbLine
 10
-181.42354546
 20
50.68446217
 30
0.0
 11
-184.18608198
 21
50.68446217
 31
0.0
  0
LINE
  5
1A1
100
AcDbEntity
  8
LAYER0003
  6
CONTINUOUS
 62
       7
100
AcDbLine
 10
-160.91728826
 20
50.68446217
 30
0.0
 11
-158.15475175
 21
50.68446217
 31
0.0
  0
LINE
  5
1A2
100
AcDbEntity
  8
LAYER0003
  6
CONTINUOUS
 62
       7
100
AcDbLine
 10
-181.42354546
 20
52.18445776
 30
0.0
 11
-184.18608198
 21
52.18445776
 31
0.0
  0
LINE
  5
1A3
100
AcDbEntity
  8
LAYER0003
  6
CONTINUOUS
 62
       7
100
AcDbLine
 10
-181.42354546
 20
50.68446217
 30
0.0
 11
-181.42354546
 21
52.18445776
 31
0.0
  0
LINE
  5
1A4
100
AcDbEntity
  8
LAYER0003
  6
CONTINUOUS
 62
       7
100
AcDbLine
 10
-158.1352303
 20
50.68446217
 30
0.0
 11
-160.89776681
 21
50.68446217
 31
0.0
  0
LINE
  5
1A5
100
AcDbEntity
  8
LAYER0003
  6
CONTINUOUS
 62
       7
100
AcDbLine
 10
-158.1352303
 20
52.18445776
 30
0.0
 11
-160.89776681
 21
52.18445776
 31
0.0
  0
LINE
  5
1A6
100
AcDbEntity
  8
LAYER0003
  6
CONTINUOUS
 62
       7
100
AcDbLine
 10
-184.20560343
 20
52.18445776
 30
0.0
 11
-181.44306691
 21
52.18445776
 31
0.0
  0
LINE
  5
1A7
100
AcDbEntity
  8
LAYER0003
  6
CONTINUOUS
 62
       7
100
AcDbLine
 10
-184.20560343
 20
50.68446217
 30
0.0
 11
-181.44306691
 21
50.68446217
 31
0.0
  0
LINE
  5
1A8
100
AcDbEntity
  8
LAYER0003
  6
CONTINUOUS
 62
       7
100
AcDbLine
 10
-160.91728826
 20
50.68446217
 30
0.0
 11
-160.91728826
 21
52.18445776
 31
0.0
  0
LINE
  5
1A9
100
AcDbEntity
  8
LAYER0003
  6
CONTINUOUS
 62
       7
100
AcDbLine
 10
-184.20560343
 20
50.68446217
 30
0.0
 11
-184.20560343
 21
52.18445776
 31
0.0
  0
LINE
  5
1AA
100
AcDbEntity
  8
LAYER0003
  6
CONTINUOUS
 62
       7
100
AcDbLine
 10
-158.1352303
 20
50.68446217
 30
0.0
 11
-158.1352303
 21
52.18445776
 31
0.0
  0
LINE
  5
1AB
100
AcDbEntity
  8
LAYER0003
  6
CONTINUOUS
 62
       7
100
AcDbLine
 10
-201.17041619
 20
238.78506484
 30
0.0
 11
-201.17041619
 21
40.63446341
 31
0.0
  0
LINE
  5
1AC
100
AcDbEntity
  8
LAYER0003
  6
CONTINUOUS
 62
       7
100
AcDbLine
 10
-141.17041752
 20
238.78506484
 30
0.0
 11
-141.17041752
 21
40.63446341
 31
0.0
  0
LINE
  5
1AD
100
AcDbEntity
  8
LAYER0003
  6
CONTINUOUS
 62
       7
100
AcDbLine
 10
-141.37041719
 20
-21.19054379
 30
0.0
 11
-139.47041668
 21
-21.19054379
 31
0.0
  0
LINE
  5
1AE
100
AcDbEntity
  8
LAYER0003
  6
CONTINUOUS
 62
       7
100
AcDbLine
 10
-141.37041719
 20
-27.54053952
 30
0.0
 11
-139.47041668
 21
-27.54053952
 31
0.0
  0
LINE
  5
1AF
100
AcDbEntity
  8
LAYER0003
  6
CONTINUOUS
 62
       7
100
AcDbLine
 10
-141.72768185
 20
-19.74674048
 30
0.0
 11
-141.89595501
 21
-19.74674048
 31
0.0
  0
LINE
  5
1B0
100
AcDbEntity
  8
LAYER0003
  6
CONTINUOUS
 62
       7
100
AcDbLine
 10
-141.72768185
 20
-28.98434283
 30
0.0
 11
-141.89607783
 21
-28.98434283
 31
0.0
  0
LINE
  5
1B1
100
AcDbEntity
  8
LAYER0003
  6
CONTINUOUS
 62
       7
100
AcDbLine
 10
-139.47041668
 20
-24.36554165
 30
0.0
 11
-131.12041691
 21
-24.36554165
 31
0.0
  0
LINE
  5
1B2
100
AcDbEntity
  8
LAYER0003
  6
CONTINUOUS
 62
       7
100
AcDbLine
 10
-142.27143267
 20
-24.61767675
 30
0.0
 11
-142.27421579
 21
-24.53400831
 31
0.0
  0
LINE
  5
1B3
100
AcDbEntity
  8
LAYER0003
  6
CONTINUOUS
 62
       7
100
AcDbLine
 10
-142.27421579
 20
-24.53400831
 30
0.0
 11
-142.27659009
 21
-24.45022463
 31
0.0
  0
LINE
  5
1B4
100
AcDbEntity
  8
LAYER0003
  6
CONTINUOUS
 62
       7
100
AcDbLine
 10
-142.27659009
 20
-24.45022463
 30
0.0
 11
-142.27835155
 21
-24.36627687
 31
0.0
  0
LINE
  5
1B5
100
AcDbEntity
  8
LAYER0003
  6
CONTINUOUS
 62
       7
100
AcDbLine
 10
-142.27835155
 20
-24.36627687
 30
0.0
 11
-142.27951615
 21
-24.28218746
 31
0.0
  0
LINE
  5
1B6
100
AcDbEntity
  8
LAYER0003
  6
CONTINUOUS
 62
       7
100
AcDbLine
 10
-142.27951615
 20
-24.28218746
 30
0.0
 11
-142.28011063
 21
-24.19798234
 31
0.0
  0
LINE
  5
1B7
100
AcDbEntity
  8
LAYER0003
  6
CONTINUOUS
 62
       7
100
AcDbLine
 10
-142.28011063
 20
-24.19798234
 30
0.0
 11
-142.28016179
 21
-24.11368746
 31
0.0
  0
LINE
  5
1B8
100
AcDbEntity
  8
LAYER0003
  6
CONTINUOUS
 62
       7
100
AcDbLine
 10
-142.28016179
 20
-24.11368746
 30
0.0
 11
-142.27969636
 21
-24.02932877
 31
0.0
  0
LINE
  5
1B9
100
AcDbEntity
  8
LAYER0003
  6
CONTINUOUS
 62
       7
100
AcDbLine
 10
-142.27969636
 20
-24.02932877
 30
0.0
 11
-142.27874113
 21
-23.94493222
 31
0.0
  0
LINE
  5
1BA
100
AcDbEntity
  8
LAYER0003
  6
CONTINUOUS
 62
       7
100
AcDbLine
 10
-142.27874113
 20
-23.94493222
 30
0.0
 11
-142.27732286
 21
-23.86052373
 31
0.0
  0
LINE
  5
1BB
100
AcDbEntity
  8
LAYER0003
  6
CONTINUOUS
 62
       7
100
AcDbLine
 10
-142.27732286
 20
-23.86052373
 30
0.0
 11
-142.27546831
 21
-23.77612927
 31
0.0
  0
LINE
  5
1BC
100
AcDbEntity
  8
LAYER0003
  6
CONTINUOUS
 62
       7
100
AcDbLine
 10
-142.27546831
 20
-23.77612927
 30
0.0
 11
-142.27320426
 21
-23.69177478
 31
0.0
  0
LINE
  5
1BD
100
AcDbEntity
  8
LAYER0003
  6
CONTINUOUS
 62
       7
100
AcDbLine
 10
-142.27320426
 20
-23.69177478
 30
0.0
 11
-142.27055747
 21
-23.6074862
 31
0.0
  0
LINE
  5
1BE
100
AcDbEntity
  8
LAYER0003
  6
CONTINUOUS
 62
       7
100
AcDbLine
 10
-142.27055747
 20
-23.6074862
 30
0.0
 11
-142.26755472
 21
-23.52328947
 31
0.0
  0
LINE
  5
1BF
100
AcDbEntity
  8
LAYER0003
  6
CONTINUOUS
 62
       7
100
AcDbLine
 10
-142.26755472
 20
-23.52328947
 30
0.0
 11
-142.26422276
 21
-23.43921054
 31
0.0
  0
LINE
  5
1C0
100
AcDbEntity
  8
LAYER0003
  6
CONTINUOUS
 62
       7
100
AcDbLine
 10
-142.26422276
 20
-23.43921054
 30
0.0
 11
-142.26058835
 21
-23.35527536
 31
0.0
  0
LINE
  5
1C1
100
AcDbEntity
  8
LAYER0003
  6
CONTINUOUS
 62
       7
100
AcDbLine
 10
-142.26058835
 20
-23.35527536
 30
0.0
 11
-142.25667829
 21
-23.27150988
 31
0.0
  0
LINE
  5
1C2
100
AcDbEntity
  8
LAYER0003
  6
CONTINUOUS
 62
       7
100
AcDbLine
 10
-142.25667829
 20
-23.27150988
 30
0.0
 11
-142.25251931
 21
-23.18794003
 31
0.0
  0
LINE
  5
1C3
100
AcDbEntity
  8
LAYER0003
  6
CONTINUOUS
 62
       7
100
AcDbLine
 10
-142.25251931
 20
-23.18794003
 30
0.0
 11
-142.24813822
 21
-23.10459176
 31
0.0
  0
LINE
  5
1C4
100
AcDbEntity
  8
LAYER0003
  6
CONTINUOUS
 62
       7
100
AcDbLine
 10
-142.24813822
 20
-23.10459176
 30
0.0
 11
-142.24356174
 21
-23.02149101
 31
0.0
  0
LINE
  5
1C5
100
AcDbEntity
  8
LAYER0003
  6
CONTINUOUS
 62
       7
100
AcDbLine
 10
-142.24356174
 20
-23.02149101
 30
0.0
 11
-142.23881658
 21
-22.93866335
 31
0.0
  0
LINE
  5
1C6
100
AcDbEntity
  8
LAYER0003
  6
CONTINUOUS
 62
       7
100
AcDbLine
 10
-142.23881658
 20
-22.93866335
 30
0.0
 11
-142.23392475
 21
-22.85611366
 31
0.0
  0
LINE
  5
1C7
100
AcDbEntity
  8
LAYER0003
  6
CONTINUOUS
 62
       7
100
AcDbLine
 10
-142.23392475
 20
-22.85611366
 30
0.0
 11
-142.22890144
 21
-22.77381635
 31
0.0
  0
LINE
  5
1C8
100
AcDbEntity
  8
LAYER0003
  6
CONTINUOUS
 62
       7
100
AcDbLine
 10
-142.22890144
 20
-22.77381635
 30
0.0
 11
-142.22376122
 21
-22.69174338
 31
0.0
  0
LINE
  5
1C9
100
AcDbEntity
  8
LAYER0003
  6
CONTINUOUS
 62
       7
100
AcDbLine
 10
-142.22376122
 20
-22.69174338
 30
0.0
 11
-142.21851873
 21
-22.60986671
 31
0.0
  0
LINE
  5
1CA
100
AcDbEntity
  8
LAYER0003
  6
CONTINUOUS
 62
       7
100
AcDbLine
 10
-142.21851873
 20
-22.60986671
 30
0.0
 11
-142.21318859
 21
-22.5281583
 31
0.0
  0
LINE
  5
1CB
100
AcDbEntity
  8
LAYER0003
  6
CONTINUOUS
 62
       7
100
AcDbLine
 10
-142.21318859
 20
-22.5281583
 30
0.0
 11
-142.20778538
 21
-22.4465901
 31
0.0
  0
LINE
  5
1CC
100
AcDbEntity
  8
LAYER0003
  6
CONTINUOUS
 62
       7
100
AcDbLine
 10
-142.20778538
 20
-22.4465901
 30
0.0
 11
-142.20232373
 21
-22.36513406
 31
0.0
  0
LINE
  5
1CD
100
AcDbEntity
  8
LAYER0003
  6
CONTINUOUS
 62
       7
100
AcDbLine
 10
-142.20232373
 20
-22.36513406
 30
0.0
 11
-142.19681824
 21
-22.28376216
 31
0.0
  0
LINE
  5
1CE
100
AcDbEntity
  8
LAYER0003
  6
CONTINUOUS
 62
       7
100
AcDbLine
 10
-142.19681824
 20
-22.28376216
 30
0.0
 11
-142.19128353
 21
-22.20244634
 31
0.0
  0
LINE
  5
1CF
100
AcDbEntity
  8
LAYER0003
  6
CONTINUOUS
 62
       7
100
AcDbLine
 10
-142.19128353
 20
-22.20244634
 30
0.0
 11
-142.18573422
 21
-22.12115856
 31
0.0
  0
LINE
  5
1D0
100
AcDbEntity
  8
LAYER0003
  6
CONTINUOUS
 62
       7
100
AcDbLine
 10
-141.19566784
 20
-32.206308
 30
0.0
 11
-141.20128189
 21
-32.18534052
 31
0.0
  0
LINE
  5
1D1
100
AcDbEntity
  8
LAYER0003
  6
CONTINUOUS
 62
       7
100
AcDbLine
 10
-141.20128189
 20
-32.18534052
 30
0.0
 11
-141.20849238
 21
-32.15838174
 31
0.0
  0
LINE
  5
1D2
100
AcDbEntity
  8
LAYER0003
  6
CONTINUOUS
 62
       7
100
AcDbLine
 10
-141.20849238
 20
-32.15838174
 30
0.0
 11
-141.21718909
 21
-32.12583612
 31
0.0
  0
LINE
  5
1D3
100
AcDbEntity
  8
LAYER0003
  6
CONTINUOUS
 62
       7
100
AcDbLine
 10
-141.21718909
 20
-32.12583612
 30
0.0
 11
-141.22726817
 21
-32.0880755
 31
0.0
  0
LINE
  5
1D4
100
AcDbEntity
  8
LAYER0003
  6
CONTINUOUS
 62
       7
100
AcDbLine
 10
-141.22726817
 20
-32.0880755
 30
0.0
 11
-141.2386742
 21
-32.04522064
 31
0.0
  0
LINE
  5
1D5
100
AcDbEntity
  8
LAYER0003
  6
CONTINUOUS
 62
       7
100
AcDbLine
 10
-141.2386742
 20
-32.04522064
 30
0.0
 11
-141.25137435
 21
-31.99727582
 31
0.0
  0
LINE
  5
1D6
100
AcDbEntity
  8
LAYER0003
  6
CONTINUOUS
 62
       7
100
AcDbLine
 10
-141.25137435
 20
-31.99727582
 30
0.0
 11
-141.26533588
 21
-31.94424467
 31
0.0
  0
LINE
  5
1D7
100
AcDbEntity
  8
LAYER0003
  6
CONTINUOUS
 62
       7
100
AcDbLine
 10
-141.26533588
 20
-31.94424467
 30
0.0
 11
-141.28052606
 21
-31.88613084
 31
0.0
  0
LINE
  5
1D8
100
AcDbEntity
  8
LAYER0003
  6
CONTINUOUS
 62
       7
100
AcDbLine
 10
-141.28052606
 20
-31.88613084
 30
0.0
 11
-141.29691215
 21
-31.82293795
 31
0.0
  0
LINE
  5
1D9
100
AcDbEntity
  8
LAYER0003
  6
CONTINUOUS
 62
       7
100
AcDbLine
 10
-141.29691215
 20
-31.82293795
 30
0.0
 11
-141.31446145
 21
-31.75466965
 31
0.0
  0
LINE
  5
1DA
100
AcDbEntity
  8
LAYER0003
  6
CONTINUOUS
 62
       7
100
AcDbLine
 10
-141.31446145
 20
-31.75466965
 30
0.0
 11
-141.33314081
 21
-31.68133045
 31
0.0
  0
LINE
  5
1DB
100
AcDbEntity
  8
LAYER0003
  6
CONTINUOUS
 62
       7
100
AcDbLine
 10
-141.33314081
 20
-31.68133045
 30
0.0
 11
-141.3529062
 21
-31.60295068
 31
0.0
  0
LINE
  5
1DC
100
AcDbEntity
  8
LAYER0003
  6
CONTINUOUS
 62
       7
100
AcDbLine
 10
-141.3529062
 20
-31.60295068
 30
0.0
 11
-141.37370099
 21
-31.51959013
 31
0.0
  0
LINE
  5
1DD
100
AcDbEntity
  8
LAYER0003
  6
CONTINUOUS
 62
       7
100
AcDbLine
 10
-141.37370099
 20
-31.51959013
 30
0.0
 11
-141.39546795
 21
-31.43131016
 31
0.0
  0
LINE
  5
1DE
100
AcDbEntity
  8
LAYER0003
  6
CONTINUOUS
 62
       7
100
AcDbLine
 10
-141.39546795
 20
-31.43131016
 30
0.0
 11
-141.41814978
 21
-31.33817214
 31
0.0
  0
LINE
  5
1DF
100
AcDbEntity
  8
LAYER0003
  6
CONTINUOUS
 62
       7
100
AcDbLine
 10
-141.41814978
 20
-31.33817214
 30
0.0
 11
-141.44168922
 21
-31.24023745
 31
0.0
  0
LINE
  5
1E0
100
AcDbEntity
  8
LAYER0003
  6
CONTINUOUS
 62
       7
100
AcDbLine
 10
-141.44168922
 20
-31.24023745
 30
0.0
 11
-141.46602901
 21
-31.13756746
 31
0.0
  0
LINE
  5
1E1
100
AcDbEntity
  8
LAYER0003
  6
CONTINUOUS
 62
       7
100
AcDbLine
 10
-141.46602901
 20
-31.13756746
 30
0.0
 11
-141.49111188
 21
-31.03022354
 31
0.0
  0
LINE
  5
1E2
100
AcDbEntity
  8
LAYER0003
  6
CONTINUOUS
 62
       7
100
AcDbLine
 10
-141.49111188
 20
-31.03022354
 30
0.0
 11
-141.51687819
 21
-30.9182704
 31
0.0
  0
LINE
  5
1E3
100
AcDbEntity
  8
LAYER0003
  6
CONTINUOUS
 62
       7
100
AcDbLine
 10
-141.51687819
 20
-30.9182704
 30
0.0
 11
-141.54325648
 21
-30.80178943
 31
0.0
  0
LINE
  5
1E4
100
AcDbEntity
  8
LAYER0003
  6
CONTINUOUS
 62
       7
100
AcDbLine
 10
-141.54325648
 20
-30.80178943
 30
0.0
 11
-141.57017157
 21
-30.68086727
 31
0.0
  0
LINE
  5
1E5
100
AcDbEntity
  8
LAYER0003
  6
CONTINUOUS
 62
       7
100
AcDbLine
 10
-141.57017157
 20
-30.68086727
 30
0.0
 11
-141.59754826
 21
-30.55559054
 31
0.0
  0
LINE
  5
1E6
100
AcDbEntity
  8
LAYER0003
  6
CONTINUOUS
 62
       7
100
AcDbLine
 10
-141.59754826
 20
-30.55559054
 30
0.0
 11
-141.62531138
 21
-30.42604587
 31
0.0
  0
LINE
  5
1E7
100
AcDbEntity
  8
LAYER0003
  6
CONTINUOUS
 62
       7
100
AcDbLine
 10
-141.62531138
 20
-30.42604587
 30
0.0
 11
-141.65338576
 21
-30.2923199
 31
0.0
  0
LINE
  5
1E8
100
AcDbEntity
  8
LAYER0003
  6
CONTINUOUS
 62
       7
100
AcDbLine
 10
-141.65338576
 20
-30.2923199
 30
0.0
 11
-141.68169619
 21
-30.15449925
 31
0.0
  0
LINE
  5
1E9
100
AcDbEntity
  8
LAYER0003
  6
CONTINUOUS
 62
       7
100
AcDbLine
 10
-141.68169619
 20
-30.15449925
 30
0.0
 11
-141.71016745
 21
-30.01267058
 31
0.0
  0
LINE
  5
1EA
100
AcDbEntity
  8
LAYER0003
  6
CONTINUOUS
 62
       7
100
AcDbLine
 10
-141.71016745
 20
-30.01267058
 30
0.0
 11
-141.73872207
 21
-29.86692154
 31
0.0
  0
LINE
  5
1EB
100
AcDbEntity
  8
LAYER0003
  6
CONTINUOUS
 62
       7
100
AcDbLine
 10
-141.73872207
 20
-29.86692154
 30
0.0
 11
-141.76727939
 21
-29.71734122
 31
0.0
  0
LINE
  5
1EC
100
AcDbEntity
  8
LAYER0003
  6
CONTINUOUS
 62
       7
100
AcDbLine
 10
-141.76727939
 20
-29.71734122
 30
0.0
 11
-141.79575852
 21
-29.56401878
 31
0.0
  0
LINE
  5
1ED
100
AcDbEntity
  8
LAYER0003
  6
CONTINUOUS
 62
       7
100
AcDbLine
 10
-141.79575852
 20
-29.56401878
 30
0.0
 11
-141.82407859
 21
-29.4070434
 31
0.0
  0
LINE
  5
1EE
100
AcDbEntity
  8
LAYER0003
  6
CONTINUOUS
 62
       7
100
AcDbLine
 10
-141.82407859
 20
-29.4070434
 30
0.0
 11
-141.8521587
 21
-29.24650428
 31
0.0
  0
LINE
  5
1EF
100
AcDbEntity
  8
LAYER0003
  6
CONTINUOUS
 62
       7
100
AcDbLine
 10
-141.8521587
 20
-29.24650428
 30
0.0
 11
-141.87991797
 21
-29.08249057
 31
0.0
  0
LINE
  5
1F0
100
AcDbEntity
  8
LAYER0003
  6
CONTINUOUS
 62
       7
100
AcDbLine
 10
-141.87991797
 20
-29.08249057
 30
0.0
 11
-141.9072755
 21
-28.91509148
 31
0.0
  0
LINE
  5
1F1
100
AcDbEntity
  8
LAYER0003
  6
CONTINUOUS
 62
       7
100
AcDbLine
 10
-141.9072755
 20
-28.91509148
 30
0.0
 11
-141.93415252
 21
-28.74439855
 31
0.0
  0
LINE
  5
1F2
100
AcDbEntity
  8
LAYER0003
  6
CONTINUOUS
 62
       7
100
AcDbLine
 10
-141.93415252
 20
-28.74439855
 30
0.0
 11
-141.96048656
 21
-28.57052205
 31
0.0
  0
LINE
  5
1F3
100
AcDbEntity
  8
LAYER0003
  6
CONTINUOUS
 62
       7
100
AcDbLine
 10
-141.96048656
 20
-28.57052205
 30
0.0
 11
-141.98622289
 21
-28.39358105
 31
0.0
  0
LINE
  5
1F4
100
AcDbEntity
  8
LAYER0003
  6
CONTINUOUS
 62
       7
100
AcDbLine
 10
-141.98622289
 20
-28.39358105
 30
0.0
 11
-142.01130683
 21
-28.21369467
 31
0.0
  0
LINE
  5
1F5
100
AcDbEntity
  8
LAYER0003
  6
CONTINUOUS
 62
       7
100
AcDbLine
 10
-142.01130683
 20
-28.21369467
 30
0.0
 11
-142.03568367
 21
-28.03098204
 31
0.0
  0
LINE
  5
1F6
100
AcDbEntity
  8
LAYER0003
  6
CONTINUOUS
 62
       7
100
AcDbLine
 10
-142.03568367
 20
-28.03098204
 30
0.0
 11
-142.05929872
 21
-27.84556228
 31
0.0
  0
LINE
  5
1F7
100
AcDbEntity
  8
LAYER0003
  6
CONTINUOUS
 62
       7
100
AcDbLine
 10
-142.05929872
 20
-27.84556228
 30
0.0
 11
-142.08209728
 21
-27.65755451
 31
0.0
  0
LINE
  5
1F8
100
AcDbEntity
  8
LAYER0003
  6
CONTINUOUS
 62
       7
100
AcDbLine
 10
-142.08209728
 20
-27.65755451
 30
0.0
 11
-142.10402451
 21
-27.46707787
 31
0.0
  0
LINE
  5
1F9
100
AcDbEntity
  8
LAYER0003
  6
CONTINUOUS
 62
       7
100
AcDbLine
 10
-142.10402451
 20
-27.46707787
 30
0.0
 11
-142.12500093
 21
-27.27425527
 31
0.0
  0
LINE
  5
1FA
100
AcDbEntity
  8
LAYER0003
  6
CONTINUOUS
 62
       7
100
AcDbLine
 10
-142.12500093
 20
-27.27425527
 30
0.0
 11
-142.14489658
 21
-27.07921729
 31
0.0
  0
LINE
  5
1FB
100
AcDbEntity
  8
LAYER0003
  6
CONTINUOUS
 62
       7
100
AcDbLine
 10
-142.14489658
 20
-27.07921729
 30
0.0
 11
-142.16357537
 21
-26.88209546
 31
0.0
  0
LINE
  5
1FC
100
AcDbEntity
  8
LAYER0003
  6
CONTINUOUS
 62
       7
100
AcDbLine
 10
-142.16357537
 20
-26.88209546
 30
0.0
 11
-142.18090113
 21
-26.68302132
 31
0.0
  0
LINE
  5
1FD
100
AcDbEntity
  8
LAYER0003
  6
CONTINUOUS
 62
       7
100
AcDbLine
 10
-142.18090113
 20
-26.68302132
 30
0.0
 11
-142.19673774
 21
-26.48212639
 31
0.0
  0
LINE
  5
1FE
100
AcDbEntity
  8
LAYER0003
  6
CONTINUOUS
 62
       7
100
AcDbLine
 10
-142.19673774
 20
-26.48212639
 30
0.0
 11
-142.21094906
 21
-26.27954221
 31
0.0
  0
LINE
  5
1FF
100
AcDbEntity
  8
LAYER0003
  6
CONTINUOUS
 62
       7
100
AcDbLine
 10
-142.21094906
 20
-26.27954221
 30
0.0
 11
-142.22339897
 21
-26.07540032
 31
0.0
  0
LINE
  5
200
100
AcDbEntity
  8
LAYER0003
  6
CONTINUOUS
 62
       7
100
AcDbLine
 10
-142.22339897
 20
-26.07540032
 30
0.0
 11
-142.23398091
 21
-25.86983748
 31
0.0
  0
LINE
  5
201
100
AcDbEntity
  8
LAYER0003
  6
CONTINUOUS
 62
       7
100
AcDbLine
 10
-142.23398091
 20
-25.86983748
 30
0.0
 11
-142.24284661
 21
-25.66303627
 31
0.0
  0
LINE
  5
202
100
AcDbEntity
  8
LAYER0003
  6
CONTINUOUS
 62
       7
100
AcDbLine
 10
-142.24284661
 20
-25.66303627
 30
0.0
 11
-142.25028117
 21
-25.45520293
 31
0.0
  0
LINE
  5
203
100
AcDbEntity
  8
LAYER0003
  6
CONTINUOUS
 62
       7
100
AcDbLine
 10
-142.25028117
 20
-25.45520293
 30
0.0
 11
-142.25657084
 21
-25.24654388
 31
0.0
  0
LINE
  5
204
100
AcDbEntity
  8
LAYER0003
  6
CONTINUOUS
 62
       7
100
AcDbLine
 10
-142.25657084
 20
-25.24654388
 30
0.0
 11
-142.26200182
 21
-25.03726555
 31
0.0
  0
LINE
  5
205
100
AcDbEntity
  8
LAYER0003
  6
CONTINUOUS
 62
       7
100
AcDbLine
 10
-142.26200182
 20
-25.03726555
 30
0.0
 11
-142.26686036
 21
-24.82757436
 31
0.0
  0
LINE
  5
206
100
AcDbEntity
  8
LAYER0003
  6
CONTINUOUS
 62
       7
100
AcDbLine
 10
-142.26686036
 20
-24.82757436
 30
0.0
 11
-142.27143267
 21
-24.61767675
 31
0.0
  0
LINE
  5
207
100
AcDbEntity
  8
LAYER0003
  6
CONTINUOUS
 62
       7
100
AcDbLine
 10
-142.18573422
 20
-22.12115856
 30
0.0
 11
-142.1716485
 21
-21.96295719
 31
0.0
  0
LINE
  5
208
100
AcDbEntity
  8
LAYER0003
  6
CONTINUOUS
 62
       7
100
AcDbLine
 10
-142.1716485
 20
-21.96295719
 30
0.0
 11
-142.15738871
 21
-21.80508888
 31
0.0
  0
LINE
  5
209
100
AcDbEntity
  8
LAYER0003
  6
CONTINUOUS
 62
       7
100
AcDbLine
 10
-142.15738871
 20
-21.80508888
 30
0.0
 11
-142.1427808
 21
-21.64788667
 31
0.0
  0
LINE
  5
20A
100
AcDbEntity
  8
LAYER0003
  6
CONTINUOUS
 62
       7
100
AcDbLine
 10
-142.1427808
 20
-21.64788667
 30
0.0
 11
-142.12765072
 21
-21.49168361
 31
0.0
  0
LINE
  5
20B
100
AcDbEntity
  8
LAYER0003
  6
CONTINUOUS
 62
       7
100
AcDbLine
 10
-142.12765072
 20
-21.49168361
 30
0.0
 11
-142.11182485
 21
-21.33681219
 31
0.0
  0
LINE
  5
20C
100
AcDbEntity
  8
LAYER0003
  6
CONTINUOUS
 62
       7
100
AcDbLine
 10
-142.11182485
 20
-21.33681219
 30
0.0
 11
-142.09519869
 21
-21.18351811
 31
0.0
  0
LINE
  5
20D
100
AcDbEntity
  8
LAYER0003
  6
CONTINUOUS
 62
       7
100
AcDbLine
 10
-142.09519869
 20
-21.18351811
 30
0.0
 11
-142.07781042
 21
-21.03186784
 31
0.0
  0
LINE
  5
20E
100
AcDbEntity
  8
LAYER0003
  6
CONTINUOUS
 62
       7
100
AcDbLine
 10
-142.07781042
 20
-21.03186784
 30
0.0
 11
-142.05971591
 21
-20.88190567
 31
0.0
  0
LINE
  5
20F
100
AcDbEntity
  8
LAYER0003
  6
CONTINUOUS
 62
       7
100
AcDbLine
 10
-142.05971591
 20
-20.88190567
 30
0.0
 11
-142.040971
 21
-20.7336759
 31
0.0
  0
LINE
  5
210
100
AcDbEntity
  8
LAYER0003
  6
CONTINUOUS
 62
       7
100
AcDbLine
 10
-142.040971
 20
-20.7336759
 30
0.0
 11
-142.02163155
 21
-20.58722283
 31
0.0
  0
LINE
  5
211
100
AcDbEntity
  8
LAYER0003
  6
CONTINUOUS
 62
       7
100
AcDbLine
 10
-142.02163155
 20
-20.58722283
 30
0.0
 11
-142.00175339
 21
-20.44259075
 31
0.0
  0
LINE
  5
212
100
AcDbEntity
  8
LAYER0003
  6
CONTINUOUS
 62
       7
100
AcDbLine
 10
-142.00175339
 20
-20.44259075
 30
0.0
 11
-141.98139241
 21
-20.29982395
 31
0.0
  0
LINE
  5
213
100
AcDbEntity
  8
LAYER0003
  6
CONTINUOUS
 62
       7
100
AcDbLine
 10
-141.98139241
 20
-20.29982395
 30
0.0
 11
-141.96060443
 21
-20.15896673
 31
0.0
  0
LINE
  5
214
100
AcDbEntity
  8
LAYER0003
  6
CONTINUOUS
 62
       7
100
AcDbLine
 10
-141.96060443
 20
-20.15896673
 30
0.0
 11
-141.93944532
 21
-20.02006338
 31
0.0
  0
LINE
  5
215
100
AcDbEntity
  8
LAYER0003
  6
CONTINUOUS
 62
       7
100
AcDbLine
 10
-141.93944532
 20
-20.02006338
 30
0.0
 11
-141.91796779
 21
-19.88315884
 31
0.0
  0
LINE
  5
216
100
AcDbEntity
  8
LAYER0003
  6
CONTINUOUS
 62
       7
100
AcDbLine
 10
-141.91796779
 20
-19.88315884
 30
0.0
 11
-141.89621029
 21
-19.74830103
 31
0.0
  0
LINE
  5
217
100
AcDbEntity
  8
LAYER0003
  6
CONTINUOUS
 62
       7
100
AcDbLine
 10
-141.89621029
 20
-19.74830103
 30
0.0
 11
-141.87420706
 21
-19.61553871
 31
0.0
  0
LINE
  5
218
100
AcDbEntity
  8
LAYER0003
  6
CONTINUOUS
 62
       7
100
AcDbLine
 10
-141.87420706
 20
-19.61553871
 30
0.0
 11
-141.85199239
 21
-19.48492066
 31
0.0
  0
LINE
  5
219
100
AcDbEntity
  8
LAYER0003
  6
CONTINUOUS
 62
       7
100
AcDbLine
 10
-141.85199239
 20
-19.48492066
 30
0.0
 11
-141.82960057
 21
-19.35649563
 31
0.0
  0
LINE
  5
21A
100
AcDbEntity
  8
LAYER0003
  6
CONTINUOUS
 62
       7
100
AcDbLine
 10
-141.82960057
 20
-19.35649563
 30
0.0
 11
-141.8070659
 21
-19.23031239
 31
0.0
  0
LINE
  5
21B
100
AcDbEntity
  8
LAYER0003
  6
CONTINUOUS
 62
       7
100
AcDbLine
 10
-141.8070659
 20
-19.23031239
 30
0.0
 11
-141.78442263
 21
-19.10641971
 31
0.0
  0
LINE
  5
21C
100
AcDbEntity
  8
LAYER0003
  6
CONTINUOUS
 62
       7
100
AcDbLine
 10
-141.78442263
 20
-19.10641971
 30
0.0
 11
-141.76170503
 21
-18.98486636
 31
0.0
  0
LINE
  5
21D
100
AcDbEntity
  8
LAYER0003
  6
CONTINUOUS
 62
       7
100
AcDbLine
 10
-141.76170503
 20
-18.98486636
 30
0.0
 11
-141.73894744
 21
-18.8657011
 31
0.0
  0
LINE
  5
21E
100
AcDbEntity
  8
LAYER0003
  6
CONTINUOUS
 62
       7
100
AcDbLine
 10
-141.73894744
 20
-18.8657011
 30
0.0
 11
-141.71618423
 21
-18.74897267
 31
0.0
  0
LINE
  5
21F
100
AcDbEntity
  8
LAYER0003
  6
CONTINUOUS
 62
       7
100
AcDbLine
 10
-141.71618423
 20
-18.74897267
 30
0.0
 11
-141.69345284
 21
-18.63472893
 31
0.0
  0
LINE
  5
220
100
AcDbEntity
  8
LAYER0003
  6
CONTINUOUS
 62
       7
100
AcDbLine
 10
-141.69345284
 20
-18.63472893
 30
0.0
 11
-141.67079363
 21
-18.52301695
 31
0.0
  0
LINE
  5
221
100
AcDbEntity
  8
LAYER0003
  6
CONTINUOUS
 62
       7
100
AcDbLine
 10
-141.67079363
 20
-18.52301695
 30
0.0
 11
-141.64824707
 21
-18.41388373
 31
0.0
  0
LINE
  5
222
100
AcDbEntity
  8
LAYER0003
  6
CONTINUOUS
 62
       7
100
AcDbLine
 10
-141.64824707
 20
-18.41388373
 30
0.0
 11
-141.62585366
 21
-18.30737631
 31
0.0
  0
LINE
  5
223
100
AcDbEntity
  8
LAYER0003
  6
CONTINUOUS
 62
       7
100
AcDbLine
 10
-141.62585366
 20
-18.30737631
 30
0.0
 11
-141.60365385
 21
-18.2035417
 31
0.0
  0
LINE
  5
224
100
AcDbEntity
  8
LAYER0003
  6
CONTINUOUS
 62
       7
100
AcDbLine
 10
-141.60365385
 20
-18.2035417
 30
0.0
 11
-141.58168812
 21
-18.10242691
 31
0.0
  0
LINE
  5
225
100
AcDbEntity
  8
LAYER0003
  6
CONTINUOUS
 62
       7
100
AcDbLine
 10
-141.58168812
 20
-18.10242691
 30
0.0
 11
-141.55999696
 21
-18.00407896
 31
0.0
  0
LINE
  5
226
100
AcDbEntity
  8
LAYER0003
  6
CONTINUOUS
 62
       7
100
AcDbLine
 10
-141.55999696
 20
-18.00407896
 30
0.0
 11
-141.53862084
 21
-17.90854488
 31
0.0
  0
LINE
  5
227
100
AcDbEntity
  8
LAYER0003
  6
CONTINUOUS
 62
       7
100
AcDbLine
 10
-141.53862084
 20
-17.90854488
 30
0.0
 11
-141.51760025
 21
-17.81587168
 31
0.0
  0
LINE
  5
228
100
AcDbEntity
  8
LAYER0003
  6
CONTINUOUS
 62
       7
100
AcDbLine
 10
-141.51760025
 20
-17.81587168
 30
0.0
 11
-141.49697354
 21
-17.72610222
 31
0.0
  0
LINE
  5
229
100
AcDbEntity
  8
LAYER0003
  6
CONTINUOUS
 62
       7
100
AcDbLine
 10
-141.49697354
 20
-17.72610222
 30
0.0
 11
-141.47677125
 21
-17.63926388
 31
0.0
  0
LINE
  5
22A
100
AcDbEntity
  8
LAYER0003
  6
CONTINUOUS
 62
       7
100
AcDbLine
 10
-141.47677125
 20
-17.63926388
 30
0.0
 11
-141.45702208
 21
-17.55538038
 31
0.0
  0
LINE
  5
22B
100
AcDbEntity
  8
LAYER0003
  6
CONTINUOUS
 62
       7
100
AcDbLine
 10
-141.45702208
 20
-17.55538038
 30
0.0
 11
-141.43775473
 21
-17.47447547
 31
0.0
  0
LINE
  5
22C
100
AcDbEntity
  8
LAYER0003
  6
CONTINUOUS
 62
       7
100
AcDbLine
 10
-141.43775473
 20
-17.47447547
 30
0.0
 11
-141.41899789
 21
-17.39657287
 31
0.0
  0
LINE
  5
22D
100
AcDbEntity
  8
LAYER0003
  6
CONTINUOUS
 62
       7
100
AcDbLine
 10
-141.41899789
 20
-17.39657287
 30
0.0
 11
-141.40078025
 21
-17.32169634
 31
0.0
  0
LINE
  5
22E
100
AcDbEntity
  8
LAYER0003
  6
CONTINUOUS
 62
       7
100
AcDbLine
 10
-141.40078025
 20
-17.32169634
 30
0.0
 11
-141.38313054
 21
-17.24986959
 31
0.0
  0
LINE
  5
22F
100
AcDbEntity
  8
LAYER0003
  6
CONTINUOUS
 62
       7
100
AcDbLine
 10
-141.38313054
 20
-17.24986959
 30
0.0
 11
-141.36607743
 21
-17.18111639
 31
0.0
  0
LINE
  5
230
100
AcDbEntity
  8
LAYER0003
  6
CONTINUOUS
 62
       7
100
AcDbLine
 10
-141.36607743
 20
-17.18111639
 30
0.0
 11
-141.34964961
 21
-17.11546045
 31
0.0
  0
LINE
  5
231
100
AcDbEntity
  8
LAYER0003
  6
CONTINUOUS
 62
       7
100
AcDbLine
 10
-141.34964961
 20
-17.11546045
 30
0.0
 11
-141.33387578
 21
-17.05292584
 31
0.0
  0
LINE
  5
232
100
AcDbEntity
  8
LAYER0003
  6
CONTINUOUS
 62
       7
100
AcDbLine
 10
-141.33387578
 20
-17.05292584
 30
0.0
 11
-141.31878383
 21
-16.99354559
 31
0.0
  0
LINE
  5
233
100
AcDbEntity
  8
LAYER0003
  6
CONTINUOUS
 62
       7
100
AcDbLine
 10
-141.31878383
 20
-16.99354559
 30
0.0
 11
-141.30440084
 21
-16.93736267
 31
0.0
  0
LINE
  5
234
100
AcDbEntity
  8
LAYER0003
  6
CONTINUOUS
 62
       7
100
AcDbLine
 10
-141.30440084
 20
-16.93736267
 30
0.0
 11
-141.29075383
 21
-16.88442056
 31
0.0
  0
LINE
  5
235
100
AcDbEntity
  8
LAYER0003
  6
CONTINUOUS
 62
       7
100
AcDbLine
 10
-141.29075383
 20
-16.88442056
 30
0.0
 11
-141.27786986
 21
-16.83476276
 31
0.0
  0
LINE
  5
236
100
AcDbEntity
  8
LAYER0003
  6
CONTINUOUS
 62
       7
100
AcDbLine
 10
-141.27786986
 20
-16.83476276
 30
0.0
 11
-141.26577592
 21
-16.78843276
 31
0.0
  0
LINE
  5
237
100
AcDbEntity
  8
LAYER0003
  6
CONTINUOUS
 62
       7
100
AcDbLine
 10
-141.26577592
 20
-16.78843276
 30
0.0
 11
-141.25449906
 21
-16.74547403
 31
0.0
  0
LINE
  5
238
100
AcDbEntity
  8
LAYER0003
  6
CONTINUOUS
 62
       7
100
AcDbLine
 10
-141.25449906
 20
-16.74547403
 30
0.0
 11
-141.24406631
 21
-16.70593008
 31
0.0
  0
LINE
  5
239
100
AcDbEntity
  8
LAYER0003
  6
CONTINUOUS
 62
       7
100
AcDbLine
 10
-141.24406631
 20
-16.70593008
 30
0.0
 11
-141.23450469
 21
-16.66984438
 31
0.0
  0
LINE
  5
23A
100
AcDbEntity
  8
LAYER0003
  6
CONTINUOUS
 62
       7
100
AcDbLine
 10
-141.23450469
 20
-16.66984438
 30
0.0
 11
-141.22584124
 21
-16.63726043
 31
0.0
  0
LINE
  5
23B
100
AcDbEntity
  8
LAYER0003
  6
CONTINUOUS
 62
       7
100
AcDbLine
 10
-141.22584124
 20
-16.63726043
 30
0.0
 11
-141.21809598
 21
-16.60820294
 31
0.0
  0
LINE
  5
23C
100
AcDbEntity
  8
LAYER0003
  6
CONTINUOUS
 62
       7
100
AcDbLine
 10
-141.21809598
 20
-16.60820294
 30
0.0
 11
-141.21125557
 21
-16.58260709
 31
0.0
  0
LINE
  5
23D
100
AcDbEntity
  8
LAYER0003
  6
CONTINUOUS
 62
       7
100
AcDbLine
 10
-141.21125557
 20
-16.58260709
 30
0.0
 11
-141.20529671
 21
-16.56038136
 31
0.0
  0
LINE
  5
23E
100
AcDbEntity
  8
LAYER0003
  6
CONTINUOUS
 62
       7
100
AcDbLine
 10
-141.20529671
 20
-16.56038136
 30
0.0
 11
-141.20019612
 21
-16.54143426
 31
0.0
  0
LINE
  5
23F
100
AcDbEntity
  8
LAYER0003
  6
CONTINUOUS
 62
       7
100
AcDbLine
 10
-141.20019612
 20
-16.54143426
 30
0.0
 11
-141.19593128
 21
-16.5256771
 31
0.0
  0
LINE
  5
240
100
AcDbEntity
  8
LAYER0003
  6
CONTINUOUS
 62
       7
100
AcDbLine
 10
-141.19593128
 20
-16.5256771
 30
0.0
 11
-141.19259721
 21
-16.51343646
 31
0.0
  0
LINE
  5
241
100
AcDbEntity
  8
LAYER0003
  6
CONTINUOUS
 62
       7
100
AcDbLine
 10
-141.19259721
 20
-16.51343646
 30
0.0
 11
-141.19052914
 21
-16.50588765
 31
0.0
  0
LINE
  5
242
100
AcDbEntity
  8
LAYER0003
  6
CONTINUOUS
 62
       7
100
AcDbLine
 10
-141.19052914
 20
-16.50588765
 30
0.0
 11
-141.18982443
 21
-16.50333883
 31
0.0
  0
LINE
  5
243
100
AcDbEntity
  8
LAYER0003
  6
CONTINUOUS
 62
       7
100
AcDbLine
 10
-154.66442855
 20
58.38445841
 30
0.0
 11
-154.60725605
 21
58.37765766
 31
0.0
  0
LINE
  5
244
100
AcDbEntity
  8
LAYER0003
  6
CONTINUOUS
 62
       7
100
AcDbLine
 10
-154.60725605
 20
58.37765766
 30
0.0
 11
-154.55018143
 21
58.37047203
 31
0.0
  0
LINE
  5
245
100
AcDbEntity
  8
LAYER0003
  6
CONTINUOUS
 62
       7
100
AcDbLine
 10
-154.55018143
 20
58.37047203
 30
0.0
 11
-154.49330257
 21
58.36251665
 31
0.0
  0
LINE
  5
246
100
AcDbEntity
  8
LAYER0003
  6
CONTINUOUS
 62
       7
100
AcDbLine
 10
-154.49330257
 20
58.36251665
 30
0.0
 11
-154.43671733
 21
58.35340663
 31
0.0
  0
LINE
  5
247
100
AcDbEntity
  8
LAYER0003
  6
CONTINUOUS
 62
       7
100
AcDbLine
 10
-154.43671733
 20
58.35340663
 30
0.0
 11
-154.38052363
 21
58.3427571
 31
0.0
  0
LINE
  5
248
100
AcDbEntity
  8
LAYER0003
  6
CONTINUOUS
 62
       7
100
AcDbLine
 10
-154.38052363
 20
58.3427571
 30
0.0
 11
-154.32481931
 21
58.33018317
 31
0.0
  0
LINE
  5
249
100
AcDbEntity
  8
LAYER0003
  6
CONTINUOUS
 62
       7
100
AcDbLine
 10
-154.32481931
 20
58.33018317
 30
0.0
 11
-154.26970226
 21
58.31529997
 31
0.0
  0
LINE
  5
24A
100
AcDbEntity
  8
LAYER0003
  6
CONTINUOUS
 62
       7
100
AcDbLine
 10
-154.26970226
 20
58.31529997
 30
0.0
 11
-154.21527038
 21
58.29772262
 31
0.0
  0
LINE
  5
24B
100
AcDbEntity
  8
LAYER0003
  6
CONTINUOUS
 62
       7
100
AcDbLine
 10
-154.21527038
 20
58.29772262
 30
0.0
 11
-154.16162122
 21
58.27707279
 31
0.0
  0
LINE
  5
24C
100
AcDbEntity
  8
LAYER0003
  6
CONTINUOUS
 62
       7
100
AcDbLine
 10
-154.16162122
 20
58.27707279
 30
0.0
 11
-154.10884205
 21
58.25320378
 31
0.0
  0
LINE
  5
24D
100
AcDbEntity
  8
LAYER0003
  6
CONTINUOUS
 62
       7
100
AcDbLine
 10
-154.10884205
 20
58.25320378
 30
0.0
 11
-154.05700725
 21
58.2262571
 31
0.0
  0
LINE
  5
24E
100
AcDbEntity
  8
LAYER0003
  6
CONTINUOUS
 62
       7
100
AcDbLine
 10
-154.05700725
 20
58.2262571
 30
0.0
 11
-154.00619038
 21
58.19639229
 31
0.0
  0
LINE
  5
24F
100
AcDbEntity
  8
LAYER0003
  6
CONTINUOUS
 62
       7
100
AcDbLine
 10
-154.00619038
 20
58.19639229
 30
0.0
 11
-153.95646503
 21
58.16376889
 31
0.0
  0
LINE
  5
250
100
AcDbEntity
  8
LAYER0003
  6
CONTINUOUS
 62
       7
100
AcDbLine
 10
-153.95646503
 20
58.16376889
 30
0.0
 11
-153.90790477
 21
58.12854645
 31
0.0
  0
LINE
  5
251
100
AcDbEntity
  8
LAYER0003
  6
CONTINUOUS
 62
       7
100
AcDbLine
 10
-153.90790477
 20
58.12854645
 30
0.0
 11
-153.86058317
 21
58.09088453
 31
0.0
  0
LINE
  5
252
100
AcDbEntity
  8
LAYER0003
  6
CONTINUOUS
 62
       7
100
AcDbLine
 10
-153.86058317
 20
58.09088453
 30
0.0
 11
-153.81457381
 21
58.05094265
 31
0.0
  0
LINE
  5
253
100
AcDbEntity
  8
LAYER0003
  6
CONTINUOUS
 62
       7
100
AcDbLine
 10
-153.81457381
 20
58.05094265
 30
0.0
 11
-153.76995025
 21
58.00888037
 31
0.0
  0
LINE
  5
254
100
AcDbEntity
  8
LAYER0003
  6
CONTINUOUS
 62
       7
100
AcDbLine
 10
-153.76995025
 20
58.00888037
 30
0.0
 11
-153.72678234
 21
57.96484662
 31
0.0
  0
LINE
  5
255
100
AcDbEntity
  8
LAYER0003
  6
CONTINUOUS
 62
       7
100
AcDbLine
 10
-153.72678234
 20
57.96484662
 30
0.0
 11
-153.68511484
 21
57.91891957
 31
0.0
  0
LINE
  5
256
100
AcDbEntity
  8
LAYER0003
  6
CONTINUOUS
 62
       7
100
AcDbLine
 10
-153.68511484
 20
57.91891957
 30
0.0
 11
-153.64498228
 21
57.87114844
 31
0.0
  0
LINE
  5
257
100
AcDbEntity
  8
LAYER0003
  6
CONTINUOUS
 62
       7
100
AcDbLine
 10
-153.64498228
 20
57.87114844
 30
0.0
 11
-153.60641916
 21
57.82158238
 31
0.0
  0
LINE
  5
258
100
AcDbEntity
  8
LAYER0003
  6
CONTINUOUS
 62
       7
100
AcDbLine
 10
-153.60641916
 20
57.82158238
 30
0.0
 11
-153.56946003
 21
57.7702705
 31
0.0
  0
LINE
  5
259
100
AcDbEntity
  8
LAYER0003
  6
CONTINUOUS
 62
       7
100
AcDbLine
 10
-153.56946003
 20
57.7702705
 30
0.0
 11
-153.53413934
 21
57.71726197
 31
0.0
  0
LINE
  5
25A
100
AcDbEntity
  8
LAYER0003
  6
CONTINUOUS
 62
       7
100
AcDbLine
 10
-153.53413934
 20
57.71726197
 30
0.0
 11
-153.50049164
 21
57.66260589
 31
0.0
  0
LINE
  5
25B
100
AcDbEntity
  8
LAYER0003
  6
CONTINUOUS
 62
       7
100
AcDbLine
 10
-153.50049164
 20
57.66260589
 30
0.0
 11
-153.4685514
 21
57.60635143
 31
0.0
  0
LINE
  5
25C
100
AcDbEntity
  8
LAYER0003
  6
CONTINUOUS
 62
       7
100
AcDbLine
 10
-153.4685514
 20
57.60635143
 30
0.0
 11
-153.43835333
 21
57.54854788
 31
0.0
  0
LINE
  5
25D
100
AcDbEntity
  8
LAYER0003
  6
CONTINUOUS
 62
       7
100
AcDbLine
 10
-153.43835333
 20
57.54854788
 30
0.0
 11
-153.40995214
 21
57.48926493
 31
0.0
  0
LINE
  5
25E
100
AcDbEntity
  8
LAYER0003
  6
CONTINUOUS
 62
       7
100
AcDbLine
 10
-153.40995214
 20
57.48926493
 30
0.0
 11
-153.38344094
 21
57.4286112
 31
0.0
  0
LINE
  5
25F
100
AcDbEntity
  8
LAYER0003
  6
CONTINUOUS
 62
       7
100
AcDbLine
 10
-153.38344094
 20
57.4286112
 30
0.0
 11
-153.35891707
 21
57.36669969
 31
0.0
  0
LINE
  5
260
100
AcDbEntity
  8
LAYER0003
  6
CONTINUOUS
 62
       7
100
AcDbLine
 10
-153.35891707
 20
57.36669969
 30
0.0
 11
-153.33647796
 21
57.30364341
 31
0.0
  0
LINE
  5
261
100
AcDbEntity
  8
LAYER0003
  6
CONTINUOUS
 62
       7
100
AcDbLine
 10
-153.33647796
 20
57.30364341
 30
0.0
 11
-153.31622098
 21
57.23955535
 31
0.0
  0
LINE
  5
262
100
AcDbEntity
  8
LAYER0003
  6
CONTINUOUS
 62
       7
100
AcDbLine
 10
-153.31622098
 20
57.23955535
 30
0.0
 11
-153.29824354
 21
57.17454853
 31
0.0
  0
LINE
  5
263
100
AcDbEntity
  8
LAYER0003
  6
CONTINUOUS
 62
       7
100
AcDbLine
 10
-153.29824354
 20
57.17454853
 30
0.0
 11
-153.28264302
 21
57.10873594
 31
0.0
  0
LINE
  5
264
100
AcDbEntity
  8
LAYER0003
  6
CONTINUOUS
 62
       7
100
AcDbLine
 10
-153.28264302
 20
57.10873594
 30
0.0
 11
-153.26951681
 21
57.0422306
 31
0.0
  0
LINE
  5
265
100
AcDbEntity
  8
LAYER0003
  6
CONTINUOUS
 62
       7
100
AcDbLine
 10
-153.26951681
 20
57.0422306
 30
0.0
 11
-153.25893366
 21
56.97514461
 31
0.0
  0
LINE
  5
266
100
AcDbEntity
  8
LAYER0003
  6
CONTINUOUS
 62
       7
100
AcDbLine
 10
-153.25893366
 20
56.97514461
 30
0.0
 11
-153.25064056
 21
56.90758006
 31
0.0
  0
LINE
  5
267
100
AcDbEntity
  8
LAYER0003
  6
CONTINUOUS
 62
       7
100
AcDbLine
 10
-153.25064056
 20
56.90758006
 30
0.0
 11
-153.24418204
 21
56.83963275
 31
0.0
  0
LINE
  5
268
100
AcDbEntity
  8
LAYER0003
  6
CONTINUOUS
 62
       7
100
AcDbLine
 10
-153.24418204
 20
56.83963275
 30
0.0
 11
-153.23909943
 21
56.77139836
 31
0.0
  0
LINE
  5
269
100
AcDbEntity
  8
LAYER0003
  6
CONTINUOUS
 62
       7
100
AcDbLine
 10
-153.23909943
 20
56.77139836
 30
0.0
 11
-153.23493409
 21
56.70297259
 31
0.0
  0
LINE
  5
26A
100
AcDbEntity
  8
LAYER0003
  6
CONTINUOUS
 62
       7
100
AcDbLine
 10
-153.23493409
 20
56.70297259
 30
0.0
 11
-153.2312274
 21
56.63445113
 31
0.0
  0
LINE
  5
26B
100
AcDbEntity
  8
LAYER0003
  6
CONTINUOUS
 62
       7
100
AcDbLine
 10
-189.10960631
 20
56.63445113
 30
0.0
 11
-189.10414271
 21
56.70318613
 31
0.0
  0
LINE
  5
26C
100
AcDbEntity
  8
LAYER0003
  6
CONTINUOUS
 62
       7
100
AcDbLine
 10
-189.10414271
 20
56.70318613
 30
0.0
 11
-189.09836896
 21
56.77181713
 31
0.0
  0
LINE
  5
26D
100
AcDbEntity
  8
LAYER0003
  6
CONTINUOUS
 62
       7
100
AcDbLine
 10
-189.09836896
 20
56.77181713
 30
0.0
 11
-189.09197493
 21
56.84024015
 31
0.0
  0
LINE
  5
26E
100
AcDbEntity
  8
LAYER0003
  6
CONTINUOUS
 62
       7
100
AcDbLine
 10
-189.09197493
 20
56.84024015
 30
0.0
 11
-189.08465048
 21
56.90835119
 31
0.0
  0
LINE
  5
26F
100
AcDbEntity
  8
LAYER0003
  6
CONTINUOUS
 62
       7
100
AcDbLine
 10
-189.08465048
 20
56.90835119
 30
0.0
 11
-189.07608546
 21
56.97604627
 31
0.0
  0
LINE
  5
270
100
AcDbEntity
  8
LAYER0003
  6
CONTINUOUS
 62
       7
100
AcDbLine
 10
-189.07608546
 20
56.97604627
 30
0.0
 11
-189.06596973
 21
57.04322139
 31
0.0
  0
LINE
  5
271
100
AcDbEntity
  8
LAYER0003
  6
CONTINUOUS
 62
       7
100
AcDbLine
 10
-189.06596973
 20
57.04322139
 30
0.0
 11
-189.05399316
 21
57.10977255
 31
0.0
  0
LINE
  5
272
100
AcDbEntity
  8
LAYER0003
  6
CONTINUOUS
 62
       7
100
AcDbLine
 10
-189.05399316
 20
57.10977255
 30
0.0
 11
-189.03984559
 21
57.17559577
 31
0.0
  0
LINE
  5
273
100
AcDbEntity
  8
LAYER0003
  6
CONTINUOUS
 62
       7
100
AcDbLine
 10
-189.03984559
 20
57.17559577
 30
0.0
 11
-189.02322206
 21
57.24058711
 31
0.0
  0
LINE
  5
274
100
AcDbEntity
  8
LAYER0003
  6
CONTINUOUS
 62
       7
100
AcDbLine
 10
-189.02322206
 20
57.24058711
 30
0.0
 11
-189.00400183
 21
57.30464458
 31
0.0
  0
LINE
  5
275
100
AcDbEntity
  8
LAYER0003
  6
CONTINUOUS
 62
       7
100
AcDbLine
 10
-189.00400183
 20
57.30464458
 30
0.0
 11
-188.98229395
 21
57.36766866
 31
0.0
  0
LINE
  5
276
100
AcDbEntity
  8
LAYER0003
  6
CONTINUOUS
 62
       7
100
AcDbLine
 10
-188.98229395
 20
57.36766866
 30
0.0
 11
-188.95822195
 21
57.42955995
 31
0.0
  0
LINE
  5
277
100
AcDbEntity
  8
LAYER0003
  6
CONTINUOUS
 62
       7
100
AcDbLine
 10
-188.95822195
 20
57.42955995
 30
0.0
 11
-188.93190937
 21
57.49021906
 31
0.0
  0
LINE
  5
278
100
AcDbEntity
  8
LAYER0003
  6
CONTINUOUS
 62
       7
100
AcDbLine
 10
-188.93190937
 20
57.49021906
 30
0.0
 11
-188.90347973
 21
57.54954661
 31
0.0
  0
LINE
  5
279
100
AcDbEntity
  8
LAYER0003
  6
CONTINUOUS
 62
       7
100
AcDbLine
 10
-188.90347973
 20
57.54954661
 30
0.0
 11
-188.87305657
 21
57.60744322
 31
0.0
  0
LINE
  5
27A
100
AcDbEntity
  8
LAYER0003
  6
CONTINUOUS
 62
       7
100
AcDbLine
 10
-188.87305657
 20
57.60744322
 30
0.0
 11
-188.8407634
 21
57.6638095
 31
0.0
  0
LINE
  5
27B
100
AcDbEntity
  8
LAYER0003
  6
CONTINUOUS
 62
       7
100
AcDbLine
 10
-188.8407634
 20
57.6638095
 30
0.0
 11
-188.80672377
 21
57.71854605
 31
0.0
  0
LINE
  5
27C
100
AcDbEntity
  8
LAYER0003
  6
CONTINUOUS
 62
       7
100
AcDbLine
 10
-188.80672377
 20
57.71854605
 30
0.0
 11
-188.77105279
 21
57.77155839
 31
0.0
  0
LINE
  5
27D
100
AcDbEntity
  8
LAYER0003
  6
CONTINUOUS
 62
       7
100
AcDbLine
 10
-188.77105279
 20
57.77155839
 30
0.0
 11
-188.73380922
 21
57.82278478
 31
0.0
  0
LINE
  5
27E
100
AcDbEntity
  8
LAYER0003
  6
CONTINUOUS
 62
       7
100
AcDbLine
 10
-188.73380922
 20
57.82278478
 30
0.0
 11
-188.69502863
 21
57.87217695
 31
0.0
  0
LINE
  5
27F
100
AcDbEntity
  8
LAYER0003
  6
CONTINUOUS
 62
       7
100
AcDbLine
 10
-188.69502863
 20
57.87217695
 30
0.0
 11
-188.65474659
 21
57.91968668
 31
0.0
  0
LINE
  5
280
100
AcDbEntity
  8
LAYER0003
  6
CONTINUOUS
 62
       7
100
AcDbLine
 10
-188.65474659
 20
57.91968668
 30
0.0
 11
-188.61299858
 21
57.96526574
 31
0.0
  0
LINE
  5
281
100
AcDbEntity
  8
LAYER0003
  6
CONTINUOUS
 62
       7
100
AcDbLine
 10
-188.61299858
 20
57.96526574
 30
0.0
 11
-188.56982011
 21
58.00886591
 31
0.0
  0
LINE
  5
282
100
AcDbEntity
  8
LAYER0003
  6
CONTINUOUS
 62
       7
100
AcDbLine
 10
-188.56982011
 20
58.00886591
 30
0.0
 11
-188.52524675
 21
58.05043897
 31
0.0
  0
LINE
  5
283
100
AcDbEntity
  8
LAYER0003
  6
CONTINUOUS
 62
       7
100
AcDbLine
 10
-188.52524675
 20
58.05043897
 30
0.0
 11
-188.47931397
 21
58.08993667
 31
0.0
  0
LINE
  5
284
100
AcDbEntity
  8
LAYER0003
  6
CONTINUOUS
 62
       7
100
AcDbLine
 10
-188.47931397
 20
58.08993667
 30
0.0
 11
-188.43205746
 21
58.12731062
 31
0.0
  0
LINE
  5
285
100
AcDbEntity
  8
LAYER0003
  6
CONTINUOUS
 62
       7
100
AcDbLine
 10
-188.43205746
 20
58.12731062
 30
0.0
 11
-188.38352892
 21
58.16248816
 31
0.0
  0
LINE
  5
286
100
AcDbEntity
  8
LAYER0003
  6
CONTINUOUS
 62
       7
100
AcDbLine
 10
-188.38352892
 20
58.16248816
 30
0.0
 11
-188.33381155
 21
58.19534925
 31
0.0
  0
LINE
  5
287
100
AcDbEntity
  8
LAYER0003
  6
CONTINUOUS
 62
       7
100
AcDbLine
 10
-188.33381155
 20
58.19534925
 30
0.0
 11
-188.2829922
 21
58.22576837
 31
0.0
  0
LINE
  5
288
100
AcDbEntity
  8
LAYER0003
  6
CONTINUOUS
 62
       7
100
AcDbLine
 10
-188.2829922
 20
58.22576837
 30
0.0
 11
-188.23115771
 21
58.25361999
 31
0.0
  0
LINE
  5
289
100
AcDbEntity
  8
LAYER0003
  6
CONTINUOUS
 62
       7
100
AcDbLine
 10
-188.23115771
 20
58.25361999
 30
0.0
 11
-188.17839491
 21
58.27877859
 31
0.0
  0
LINE
  5
28A
100
AcDbEntity
  8
LAYER0003
  6
CONTINUOUS
 62
       7
100
AcDbLine
 10
-188.17839491
 20
58.27877859
 30
0.0
 11
-188.12479063
 21
58.30111863
 31
0.0
  0
LINE
  5
28B
100
AcDbEntity
  8
LAYER0003
  6
CONTINUOUS
 62
       7
100
AcDbLine
 10
-188.12479063
 20
58.30111863
 30
0.0
 11
-188.07043173
 21
58.3205146
 31
0.0
  0
LINE
  5
28C
100
AcDbEntity
  8
LAYER0003
  6
CONTINUOUS
 62
       7
100
AcDbLine
 10
-188.07043173
 20
58.3205146
 30
0.0
 11
-188.01540503
 21
58.33684097
 31
0.0
  0
LINE
  5
28D
100
AcDbEntity
  8
LAYER0003
  6
CONTINUOUS
 62
       7
100
AcDbLine
 10
-188.01540503
 20
58.33684097
 30
0.0
 11
-187.95979791
 21
58.35000701
 31
0.0
  0
LINE
  5
28E
100
AcDbEntity
  8
LAYER0003
  6
CONTINUOUS
 62
       7
100
AcDbLine
 10
-187.95979791
 20
58.35000701
 30
0.0
 11
-187.90370381
 21
58.36032272
 31
0.0
  0
LINE
  5
28F
100
AcDbEntity
  8
LAYER0003
  6
CONTINUOUS
 62
       7
100
AcDbLine
 10
-187.90370381
 20
58.36032272
 30
0.0
 11
-187.84722008
 21
58.36835481
 31
0.0
  0
LINE
  5
290
100
AcDbEntity
  8
LAYER0003
  6
CONTINUOUS
 62
       7
100
AcDbLine
 10
-187.84722008
 20
58.36835481
 30
0.0
 11
-187.79044413
 21
58.37467418
 31
0.0
  0
LINE
  5
291
100
AcDbEntity
  8
LAYER0003
  6
CONTINUOUS
 62
       7
100
AcDbLine
 10
-187.79044413
 20
58.37467418
 30
0.0
 11
-187.73347336
 21
58.37985175
 31
0.0
  0
LINE
  5
292
100
AcDbEntity
  8
LAYER0003
  6
CONTINUOUS
 62
       7
100
AcDbLine
 10
-187.73347336
 20
58.37985175
 30
0.0
 11
-187.67640518
 21
58.38445841
 31
0.0
  0
LINE
  5
293
100
AcDbEntity
  8
LAYER0003
  6
CONTINUOUS
 62
       7
100
AcDbLine
 10
-187.67640518
 20
44.48446153
 30
0.0
 11
-187.73357749
 21
44.49126218
 31
0.0
  0
LINE
  5
294
100
AcDbEntity
  8
LAYER0003
  6
CONTINUOUS
 62
       7
100
AcDbLine
 10
-187.73357749
 20
44.49126218
 30
0.0
 11
-187.79065192
 21
44.49844771
 31
0.0
  0
LINE
  5
295
100
AcDbEntity
  8
LAYER0003
  6
CONTINUOUS
 62
       7
100
AcDbLine
 10
-187.79065192
 20
44.49844771
 30
0.0
 11
-187.84753058
 21
44.50640299
 31
0.0
  0
LINE
  5
296
100
AcDbEntity
  8
LAYER0003
  6
CONTINUOUS
 62
       7
100
AcDbLine
 10
-187.84753058
 20
44.50640299
 30
0.0
 11
-187.90411559
 21
44.51551292
 31
0.0
  0
LINE
  5
297
100
AcDbEntity
  8
LAYER0003
  6
CONTINUOUS
 62
       7
100
AcDbLine
 10
-187.90411559
 20
44.51551292
 30
0.0
 11
-187.96030907
 21
44.52616236
 31
0.0
  0
LINE
  5
298
100
AcDbEntity
  8
LAYER0003
  6
CONTINUOUS
 62
       7
100
AcDbLine
 10
-187.96030907
 20
44.52616236
 30
0.0
 11
-188.01601314
 21
44.53873619
 31
0.0
  0
LINE
  5
299
100
AcDbEntity
  8
LAYER0003
  6
CONTINUOUS
 62
       7
100
AcDbLine
 10
-188.01601314
 20
44.53873619
 30
0.0
 11
-188.07112991
 21
44.5536193
 31
0.0
  0
LINE
  5
29A
100
AcDbEntity
  8
LAYER0003
  6
CONTINUOUS
 62
       7
100
AcDbLine
 10
-188.07112991
 20
44.5536193
 30
0.0
 11
-188.1255615
 21
44.57119657
 31
0.0
  0
LINE
  5
29B
100
AcDbEntity
  8
LAYER0003
  6
CONTINUOUS
 62
       7
100
AcDbLine
 10
-188.1255615
 20
44.57119657
 30
0.0
 11
-188.1792103
 21
44.59184631
 31
0.0
  0
LINE
  5
29C
100
AcDbEntity
  8
LAYER0003
  6
CONTINUOUS
 62
       7
100
AcDbLine
 10
-188.1792103
 20
44.59184631
 30
0.0
 11
-188.23198911
 21
44.61571525
 31
0.0
  0
LINE
  5
29D
100
AcDbEntity
  8
LAYER0003
  6
CONTINUOUS
 62
       7
100
AcDbLine
 10
-188.23198911
 20
44.61571525
 30
0.0
 11
-188.28382356
 21
44.64266184
 31
0.0
  0
LINE
  5
29E
100
AcDbEntity
  8
LAYER0003
  6
CONTINUOUS
 62
       7
100
AcDbLine
 10
-188.28382356
 20
44.64266184
 30
0.0
 11
-188.33464011
 21
44.67252653
 31
0.0
  0
LINE
  5
29F
100
AcDbEntity
  8
LAYER0003
  6
CONTINUOUS
 62
       7
100
AcDbLine
 10
-188.33464011
 20
44.67252653
 30
0.0
 11
-188.38436519
 21
44.70514974
 31
0.0
  0
LINE
  5
2A0
100
AcDbEntity
  8
LAYER0003
  6
CONTINUOUS
 62
       7
100
AcDbLine
 10
-188.38436519
 20
44.70514974
 30
0.0
 11
-188.43292528
 21
44.7403719
 31
0.0
  0
LINE
  5
2A1
100
AcDbEntity
  8
LAYER0003
  6
CONTINUOUS
 62
       7
100
AcDbLine
 10
-188.43292528
 20
44.7403719
 30
0.0
 11
-188.48024682
 21
44.77803345
 31
0.0
  0
LINE
  5
2A2
100
AcDbEntity
  8
LAYER0003
  6
CONTINUOUS
 62
       7
100
AcDbLine
 10
-188.48024682
 20
44.77803345
 30
0.0
 11
-188.52625626
 21
44.8179748
 31
0.0
  0
LINE
  5
2A3
100
AcDbEntity
  8
LAYER0003
  6
CONTINUOUS
 62
       7
100
AcDbLine
 10
-188.52625626
 20
44.8179748
 30
0.0
 11
-188.57088007
 21
44.86003639
 31
0.0
  0
LINE
  5
2A4
100
AcDbEntity
  8
LAYER0003
  6
CONTINUOUS
 62
       7
100
AcDbLine
 10
-188.57088007
 20
44.86003639
 30
0.0
 11
-188.61404843
 21
44.90406927
 31
0.0
  0
LINE
  5
2A5
100
AcDbEntity
  8
LAYER0003
  6
CONTINUOUS
 62
       7
100
AcDbLine
 10
-188.61404843
 20
44.90406927
 30
0.0
 11
-188.65571655
 21
44.94999529
 31
0.0
  0
LINE
  5
2A6
100
AcDbEntity
  8
LAYER0003
  6
CONTINUOUS
 62
       7
100
AcDbLine
 10
-188.65571655
 20
44.94999529
 30
0.0
 11
-188.69584981
 21
44.99776529
 31
0.0
  0
LINE
  5
2A7
100
AcDbEntity
  8
LAYER0003
  6
CONTINUOUS
 62
       7
100
AcDbLine
 10
-188.69584981
 20
44.99776529
 30
0.0
 11
-188.73441366
 21
45.04733017
 31
0.0
  0
LINE
  5
2A8
100
AcDbEntity
  8
LAYER0003
  6
CONTINUOUS
 62
       7
100
AcDbLine
 10
-188.73441366
 20
45.04733017
 30
0.0
 11
-188.77137354
 21
45.09864086
 31
0.0
  0
LINE
  5
2A9
100
AcDbEntity
  8
LAYER0003
  6
CONTINUOUS
 62
       7
100
AcDbLine
 10
-188.77137354
 20
45.09864086
 30
0.0
 11
-188.80669488
 21
45.15164827
 31
0.0
  0
LINE
  5
2AA
100
AcDbEntity
  8
LAYER0003
  6
CONTINUOUS
 62
       7
100
AcDbLine
 10
-188.80669488
 20
45.15164827
 30
0.0
 11
-188.8403431
 21
45.20630332
 31
0.0
  0
LINE
  5
2AB
100
AcDbEntity
  8
LAYER0003
  6
CONTINUOUS
 62
       7
100
AcDbLine
 10
-188.8403431
 20
45.20630332
 30
0.0
 11
-188.87228366
 21
45.26255692
 31
0.0
  0
LINE
  5
2AC
100
AcDbEntity
  8
LAYER0003
  6
CONTINUOUS
 62
       7
100
AcDbLine
 10
-188.87228366
 20
45.26255692
 30
0.0
 11
-188.90248182
 21
45.32035982
 31
0.0
  0
LINE
  5
2AD
100
AcDbEntity
  8
LAYER0003
  6
CONTINUOUS
 62
       7
100
AcDbLine
 10
-188.90248182
 20
45.32035982
 30
0.0
 11
-188.93088281
 21
45.37964234
 31
0.0
  0
LINE
  5
2AE
100
AcDbEntity
  8
LAYER0003
  6
CONTINUOUS
 62
       7
100
AcDbLine
 10
-188.93088281
 20
45.37964234
 30
0.0
 11
-188.95739362
 21
45.44029583
 31
0.0
  0
LINE
  5
2AF
100
AcDbEntity
  8
LAYER0003
  6
CONTINUOUS
 62
       7
100
AcDbLine
 10
-188.95739362
 20
45.44029583
 30
0.0
 11
-188.98191694
 21
45.50220725
 31
0.0
  0
LINE
  5
2B0
100
AcDbEntity
  8
LAYER0003
  6
CONTINUOUS
 62
       7
100
AcDbLine
 10
-188.98191694
 20
45.50220725
 30
0.0
 11
-189.00435545
 21
45.56526355
 31
0.0
  0
LINE
  5
2B1
100
AcDbEntity
  8
LAYER0003
  6
CONTINUOUS
 62
       7
100
AcDbLine
 10
-189.00435545
 20
45.56526355
 30
0.0
 11
-189.02461181
 21
45.62935168
 31
0.0
  0
LINE
  5
2B2
100
AcDbEntity
  8
LAYER0003
  6
CONTINUOUS
 62
       7
100
AcDbLine
 10
-189.02461181
 20
45.62935168
 30
0.0
 11
-189.0425887
 21
45.69435859
 31
0.0
  0
LINE
  5
2B3
100
AcDbEntity
  8
LAYER0003
  6
CONTINUOUS
 62
       7
100
AcDbLine
 10
-189.0425887
 20
45.69435859
 30
0.0
 11
-189.05818882
 21
45.76017123
 31
0.0
  0
LINE
  5
2B4
100
AcDbEntity
  8
LAYER0003
  6
CONTINUOUS
 62
       7
100
AcDbLine
 10
-189.05818882
 20
45.76017123
 30
0.0
 11
-189.07131482
 21
45.82667656
 31
0.0
  0
LINE
  5
2B5
100
AcDbEntity
  8
LAYER0003
  6
CONTINUOUS
 62
       7
100
AcDbLine
 10
-189.07131482
 20
45.82667656
 30
0.0
 11
-189.081898
 21
45.89376242
 31
0.0
  0
LINE
  5
2B6
100
AcDbEntity
  8
LAYER0003
  6
CONTINUOUS
 62
       7
100
AcDbLine
 10
-189.081898
 20
45.89376242
 30
0.0
 11
-189.0901913
 21
45.96132671
 31
0.0
  0
LINE
  5
2B7
100
AcDbEntity
  8
LAYER0003
  6
CONTINUOUS
 62
       7
100
AcDbLine
 10
-189.0901913
 20
45.96132671
 30
0.0
 11
-189.09665018
 21
46.02927367
 31
0.0
  0
LINE
  5
2B8
100
AcDbEntity
  8
LAYER0003
  6
CONTINUOUS
 62
       7
100
AcDbLine
 10
-189.09665018
 20
46.02927367
 30
0.0
 11
-189.10173322
 21
46.09750764
 31
0.0
  0
LINE
  5
2B9
100
AcDbEntity
  8
LAYER0003
  6
CONTINUOUS
 62
       7
100
AcDbLine
 10
-189.10173322
 20
46.09750764
 30
0.0
 11
-189.10589907
 21
46.16593293
 31
0.0
  0
LINE
  5
2BA
100
AcDbEntity
  8
LAYER0003
  6
CONTINUOUS
 62
       7
100
AcDbLine
 10
-189.10589907
 20
46.16593293
 30
0.0
 11
-189.10960631
 21
46.2344539
 31
0.0
  0
LINE
  5
2BB
100
AcDbEntity
  8
LAYER0003
  6
CONTINUOUS
 62
       7
100
AcDbLine
 10
-153.2312274
 20
46.2344539
 30
0.0
 11
-153.23669135
 21
46.1657193
 31
0.0
  0
LINE
  5
2BC
100
AcDbEntity
  8
LAYER0003
  6
CONTINUOUS
 62
       7
100
AcDbLine
 10
-153.23669135
 20
46.1657193
 30
0.0
 11
-153.24246542
 21
46.0970887
 31
0.0
  0
LINE
  5
2BD
100
AcDbEntity
  8
LAYER0003
  6
CONTINUOUS
 62
       7
100
AcDbLine
 10
-153.24246542
 20
46.0970887
 30
0.0
 11
-153.24885979
 21
46.02866607
 31
0.0
  0
LINE
  5
2BE
100
AcDbEntity
  8
LAYER0003
  6
CONTINUOUS
 62
       7
100
AcDbLine
 10
-153.24885979
 20
46.02866607
 30
0.0
 11
-153.25618458
 21
45.96055541
 31
0.0
  0
LINE
  5
2BF
100
AcDbEntity
  8
LAYER0003
  6
CONTINUOUS
 62
       7
100
AcDbLine
 10
-153.25618458
 20
45.96055541
 30
0.0
 11
-153.26474996
 21
45.8928607
 31
0.0
  0
LINE
  5
2C0
100
AcDbEntity
  8
LAYER0003
  6
CONTINUOUS
 62
       7
100
AcDbLine
 10
-153.26474996
 20
45.8928607
 30
0.0
 11
-153.27486605
 21
45.82568595
 31
0.0
  0
LINE
  5
2C1
100
AcDbEntity
  8
LAYER0003
  6
CONTINUOUS
 62
       7
100
AcDbLine
 10
-153.27486605
 20
45.82568595
 30
0.0
 11
-153.28684299
 21
45.75913512
 31
0.0
  0
LINE
  5
2C2
100
AcDbEntity
  8
LAYER0003
  6
CONTINUOUS
 62
       7
100
AcDbLine
 10
-153.28684299
 20
45.75913512
 30
0.0
 11
-153.30099095
 21
45.69331223
 31
0.0
  0
LINE
  5
2C3
100
AcDbEntity
  8
LAYER0003
  6
CONTINUOUS
 62
       7
100
AcDbLine
 10
-153.30099095
 20
45.69331223
 30
0.0
 11
-153.31761487
 21
45.62832119
 31
0.0
  0
LINE
  5
2C4
100
AcDbEntity
  8
LAYER0003
  6
CONTINUOUS
 62
       7
100
AcDbLine
 10
-153.31761487
 20
45.62832119
 30
0.0
 11
-153.33683545
 21
45.564264
 31
0.0
  0
LINE
  5
2C5
100
AcDbEntity
  8
LAYER0003
  6
CONTINUOUS
 62
       7
100
AcDbLine
 10
-153.33683545
 20
45.564264
 30
0.0
 11
-153.35854365
 21
45.50124022
 31
0.0
  0
LINE
  5
2C6
100
AcDbEntity
  8
LAYER0003
  6
CONTINUOUS
 62
       7
100
AcDbLine
 10
-153.35854365
 20
45.50124022
 30
0.0
 11
-153.38261591
 21
45.43934925
 31
0.0
  0
LINE
  5
2C7
100
AcDbEntity
  8
LAYER0003
  6
CONTINUOUS
 62
       7
100
AcDbLine
 10
-153.38261591
 20
45.43934925
 30
0.0
 11
-153.40892873
 21
45.3786905
 31
0.0
  0
LINE
  5
2C8
100
AcDbEntity
  8
LAYER0003
  6
CONTINUOUS
 62
       7
100
AcDbLine
 10
-153.40892873
 20
45.3786905
 30
0.0
 11
-153.43735857
 21
45.31936337
 31
0.0
  0
LINE
  5
2C9
100
AcDbEntity
  8
LAYER0003
  6
CONTINUOUS
 62
       7
100
AcDbLine
 10
-153.43735857
 20
45.31936337
 30
0.0
 11
-153.46778193
 21
45.26146728
 31
0.0
  0
LINE
  5
2CA
100
AcDbEntity
  8
LAYER0003
  6
CONTINUOUS
 62
       7
100
AcDbLine
 10
-153.46778193
 20
45.26146728
 30
0.0
 11
-153.50007529
 21
45.20510163
 31
0.0
  0
LINE
  5
2CB
100
AcDbEntity
  8
LAYER0003
  6
CONTINUOUS
 62
       7
100
AcDbLine
 10
-153.50007529
 20
45.20510163
 30
0.0
 11
-153.53411511
 21
45.15036583
 31
0.0
  0
LINE
  5
2CC
100
AcDbEntity
  8
LAYER0003
  6
CONTINUOUS
 62
       7
100
AcDbLine
 10
-153.53411511
 20
45.15036583
 30
0.0
 11
-153.56978629
 21
45.09735437
 31
0.0
  0
LINE
  5
2CD
100
AcDbEntity
  8
LAYER0003
  6
CONTINUOUS
 62
       7
100
AcDbLine
 10
-153.56978629
 20
45.09735437
 30
0.0
 11
-153.60703008
 21
45.04612895
 31
0.0
  0
LINE
  5
2CE
100
AcDbEntity
  8
LAYER0003
  6
CONTINUOUS
 62
       7
100
AcDbLine
 10
-153.60703008
 20
45.04612895
 30
0.0
 11
-153.64581084
 21
44.99673773
 31
0.0
  0
LINE
  5
2CF
100
AcDbEntity
  8
LAYER0003
  6
CONTINUOUS
 62
       7
100
AcDbLine
 10
-153.64581084
 20
44.99673773
 30
0.0
 11
-153.68609306
 21
44.94922886
 31
0.0
  0
LINE
  5
2D0
100
AcDbEntity
  8
LAYER0003
  6
CONTINUOUS
 62
       7
100
AcDbLine
 10
-153.68609306
 20
44.94922886
 30
0.0
 11
-153.72784116
 21
44.90365047
 31
0.0
  0
LINE
  5
2D1
100
AcDbEntity
  8
LAYER0003
  6
CONTINUOUS
 62
       7
100
AcDbLine
 10
-153.72784116
 20
44.90365047
 30
0.0
 11
-153.77101963
 21
44.86005072
 31
0.0
  0
LINE
  5
2D2
100
AcDbEntity
  8
LAYER0003
  6
CONTINUOUS
 62
       7
100
AcDbLine
 10
-153.77101963
 20
44.86005072
 30
0.0
 11
-153.81559291
 21
44.81847774
 31
0.0
  0
LINE
  5
2D3
100
AcDbEntity
  8
LAYER0003
  6
CONTINUOUS
 62
       7
100
AcDbLine
 10
-153.81559291
 20
44.81847774
 30
0.0
 11
-153.86152545
 21
44.77897966
 31
0.0
  0
LINE
  5
2D4
100
AcDbEntity
  8
LAYER0003
  6
CONTINUOUS
 62
       7
100
AcDbLine
 10
-153.86152545
 20
44.77897966
 30
0.0
 11
-153.90878159
 21
44.74160484
 31
0.0
  0
LINE
  5
2D5
100
AcDbEntity
  8
LAYER0003
  6
CONTINUOUS
 62
       7
100
AcDbLine
 10
-153.90878159
 20
44.74160484
 30
0.0
 11
-153.95730959
 21
44.70642591
 31
0.0
  0
LINE
  5
2D6
100
AcDbEntity
  8
LAYER0003
  6
CONTINUOUS
 62
       7
100
AcDbLine
 10
-153.95730959
 20
44.70642591
 30
0.0
 11
-154.0070263
 21
44.67356309
 31
0.0
  0
LINE
  5
2D7
100
AcDbEntity
  8
LAYER0003
  6
CONTINUOUS
 62
       7
100
AcDbLine
 10
-154.0070263
 20
44.67356309
 30
0.0
 11
-154.0578449
 21
44.64314207
 31
0.0
  0
LINE
  5
2D8
100
AcDbEntity
  8
LAYER0003
  6
CONTINUOUS
 62
       7
100
AcDbLine
 10
-154.0578449
 20
44.64314207
 30
0.0
 11
-154.10967863
 21
44.61528857
 31
0.0
  0
LINE
  5
2D9
100
AcDbEntity
  8
LAYER0003
  6
CONTINUOUS
 62
       7
100
AcDbLine
 10
-154.10967863
 20
44.61528857
 30
0.0
 11
-154.16244066
 21
44.5901283
 31
0.0
  0
LINE
  5
2DA
100
AcDbEntity
  8
LAYER0003
  6
CONTINUOUS
 62
       7
100
AcDbLine
 10
-154.16244066
 20
44.5901283
 30
0.0
 11
-154.21604422
 21
44.56778696
 31
0.0
  0
LINE
  5
2DB
100
AcDbEntity
  8
LAYER0003
  6
CONTINUOUS
 62
       7
100
AcDbLine
 10
-154.21604422
 20
44.56778696
 30
0.0
 11
-154.2704025
 21
44.54839025
 31
0.0
  0
LINE
  5
2DC
100
AcDbEntity
  8
LAYER0003
  6
CONTINUOUS
 62
       7
100
AcDbLine
 10
-154.2704025
 20
44.54839025
 30
0.0
 11
-154.32542869
 21
44.53206389
 31
0.0
  0
LINE
  5
2DD
100
AcDbEntity
  8
LAYER0003
  6
CONTINUOUS
 62
       7
100
AcDbLine
 10
-154.32542869
 20
44.53206389
 30
0.0
 11
-154.38103551
 21
44.51889877
 31
0.0
  0
LINE
  5
2DE
100
AcDbEntity
  8
LAYER0003
  6
CONTINUOUS
 62
       7
100
AcDbLine
 10
-154.38103551
 20
44.51889877
 30
0.0
 11
-154.43712946
 21
44.50858485
 31
0.0
  0
LINE
  5
2DF
100
AcDbEntity
  8
LAYER0003
  6
CONTINUOUS
 62
       7
100
AcDbLine
 10
-154.43712946
 20
44.50858485
 30
0.0
 11
-154.49361319
 21
44.50055524
 31
0.0
  0
LINE
  5
2E0
100
AcDbEntity
  8
LAYER0003
  6
CONTINUOUS
 62
       7
100
AcDbLine
 10
-154.49361319
 20
44.50055524
 30
0.0
 11
-154.55038924
 21
44.49423887
 31
0.0
  0
LINE
  5
2E1
100
AcDbEntity
  8
LAYER0003
  6
CONTINUOUS
 62
       7
100
AcDbLine
 10
-154.55038924
 20
44.49423887
 30
0.0
 11
-154.60736017
 21
44.48906466
 31
0.0
  0
LINE
  5
2E2
100
AcDbEntity
  8
LAYER0003
  6
CONTINUOUS
 62
       7
100
AcDbLine
 10
-154.60736017
 20
44.48906466
 30
0.0
 11
-154.66442855
 21
44.48446153
 31
0.0
  0
LINE
  5
2E3
100
AcDbEntity
  8
LAYER0003
  6
CONTINUOUS
 62
       7
100
AcDbLine
 10
-141.37041719
 20
-27.8296444
 30
0.0
 11
-141.37118843
 21
-27.78285782
 31
0.0
  0
LINE
  5
2E4
100
AcDbEntity
  8
LAYER0003
  6
CONTINUOUS
 62
       7
100
AcDbLine
 10
-141.37118843
 20
-27.78285782
 30
0.0
 11
-141.37292675
 21
-27.73611404
 31
0.0
  0
LINE
  5
2E5
100
AcDbEntity
  8
LAYER0003
  6
CONTINUOUS
 62
       7
100
AcDbLine
 10
-141.37292675
 20
-27.73611404
 30
0.0
 11
-141.37627386
 21
-27.68944147
 31
0.0
  0
LINE
  5
2E6
100
AcDbEntity
  8
LAYER0003
  6
CONTINUOUS
 62
       7
100
AcDbLine
 10
-141.37627386
 20
-27.68944147
 30
0.0
 11
-141.38123123
 21
-27.64284016
 31
0.0
  0
LINE
  5
2E7
100
AcDbEntity
  8
LAYER0003
  6
CONTINUOUS
 62
       7
100
AcDbLine
 10
-141.38123123
 20
-27.64284016
 30
0.0
 11
-141.38772567
 21
-27.59630688
 31
0.0
  0
LINE
  5
2E8
100
AcDbEntity
  8
LAYER0003
  6
CONTINUOUS
 62
       7
100
AcDbLine
 10
-141.38772567
 20
-27.59630688
 30
0.0
 11
-141.395684
 21
-27.54983839
 31
0.0
  0
LINE
  5
2E9
100
AcDbEntity
  8
LAYER0003
  6
CONTINUOUS
 62
       7
100
AcDbLine
 10
-141.395684
 20
-27.54983839
 30
0.0
 11
-141.40503302
 21
-27.50343145
 31
0.0
  0
LINE
  5
2EA
100
AcDbEntity
  8
LAYER0003
  6
CONTINUOUS
 62
       7
100
AcDbLine
 10
-141.40503302
 20
-27.50343145
 30
0.0
 11
-141.41569952
 21
-27.45708282
 31
0.0
  0
LINE
  5
2EB
100
AcDbEntity
  8
LAYER0003
  6
CONTINUOUS
 62
       7
100
AcDbLine
 10
-141.41569952
 20
-27.45708282
 30
0.0
 11
-141.42761035
 21
-27.41078926
 31
0.0
  0
LINE
  5
2EC
100
AcDbEntity
  8
LAYER0003
  6
CONTINUOUS
 62
       7
100
AcDbLine
 10
-141.42761035
 20
-27.41078926
 30
0.0
 11
-141.44069227
 21
-27.36454753
 31
0.0
  0
LINE
  5
2ED
100
AcDbEntity
  8
LAYER0003
  6
CONTINUOUS
 62
       7
100
AcDbLine
 10
-141.44069227
 20
-27.36454753
 30
0.0
 11
-141.4548721
 21
-27.3183544
 31
0.0
  0
LINE
  5
2EE
100
AcDbEntity
  8
LAYER0003
  6
CONTINUOUS
 62
       7
100
AcDbLine
 10
-141.4548721
 20
-27.3183544
 30
0.0
 11
-141.47007666
 21
-27.27220661
 31
0.0
  0
LINE
  5
2EF
100
AcDbEntity
  8
LAYER0003
  6
CONTINUOUS
 62
       7
100
AcDbLine
 10
-141.47007666
 20
-27.27220661
 30
0.0
 11
-141.48623272
 21
-27.22610094
 31
0.0
  0
LINE
  5
2F0
100
AcDbEntity
  8
LAYER0003
  6
CONTINUOUS
 62
       7
100
AcDbLine
 10
-141.48623272
 20
-27.22610094
 30
0.0
 11
-141.50326714
 21
-27.18003414
 31
0.0
  0
LINE
  5
2F1
100
AcDbEntity
  8
LAYER0003
  6
CONTINUOUS
 62
       7
100
AcDbLine
 10
-141.50326714
 20
-27.18003414
 30
0.0
 11
-141.52110668
 21
-27.13400298
 31
0.0
  0
LINE
  5
2F2
100
AcDbEntity
  8
LAYER0003
  6
CONTINUOUS
 62
       7
100
AcDbLine
 10
-141.52110668
 20
-27.13400298
 30
0.0
 11
-141.53967816
 21
-27.08800421
 31
0.0
  0
LINE
  5
2F3
100
AcDbEntity
  8
LAYER0003
  6
CONTINUOUS
 62
       7
100
AcDbLine
 10
-141.53967816
 20
-27.08800421
 30
0.0
 11
-141.55890839
 21
-27.04203459
 31
0.0
  0
LINE
  5
2F4
100
AcDbEntity
  8
LAYER0003
  6
CONTINUOUS
 62
       7
100
AcDbLine
 10
-141.55890839
 20
-27.04203459
 30
0.0
 11
-141.57872418
 21
-26.99609089
 31
0.0
  0
LINE
  5
2F5
100
AcDbEntity
  8
LAYER0003
  6
CONTINUOUS
 62
       7
100
AcDbLine
 10
-141.57872418
 20
-26.99609089
 30
0.0
 11
-141.59905232
 21
-26.95016987
 31
0.0
  0
LINE
  5
2F6
100
AcDbEntity
  8
LAYER0003
  6
CONTINUOUS
 62
       7
100
AcDbLine
 10
-141.59905232
 20
-26.95016987
 30
0.0
 11
-141.61981963
 21
-26.90426828
 31
0.0
  0
LINE
  5
2F7
100
AcDbEntity
  8
LAYER0003
  6
CONTINUOUS
 62
       7
100
AcDbLine
 10
-141.61981963
 20
-26.90426828
 30
0.0
 11
-141.64095291
 21
-26.85838289
 31
0.0
  0
LINE
  5
2F8
100
AcDbEntity
  8
LAYER0003
  6
CONTINUOUS
 62
       7
100
AcDbLine
 10
-141.64095291
 20
-26.85838289
 30
0.0
 11
-141.66237896
 21
-26.81251046
 31
0.0
  0
LINE
  5
2F9
100
AcDbEntity
  8
LAYER0003
  6
CONTINUOUS
 62
       7
100
AcDbLine
 10
-141.66237896
 20
-26.81251046
 30
0.0
 11
-141.68402459
 21
-26.76664775
 31
0.0
  0
LINE
  5
2FA
100
AcDbEntity
  8
LAYER0003
  6
CONTINUOUS
 62
       7
100
AcDbLine
 10
-141.68402459
 20
-26.76664775
 30
0.0
 11
-141.70581663
 21
-26.72079151
 31
0.0
  0
LINE
  5
2FB
100
AcDbEntity
  8
LAYER0003
  6
CONTINUOUS
 62
       7
100
AcDbLine
 10
-141.70581663
 20
-26.72079151
 30
0.0
 11
-141.72768185
 21
-26.67494597
 31
0.0
  0
LINE
  5
2FC
100
AcDbEntity
  8
LAYER0003
  6
CONTINUOUS
 62
       7
100
AcDbLine
 10
-131.12041691
 20
-29.36554434
 30
0.0
 11
-131.12319566
 21
-29.36554434
 31
0.0
  0
LINE
  5
2FD
100
AcDbEntity
  8
LAYER0003
  6
CONTINUOUS
 62
       7
100
AcDbLine
 10
-131.12319566
 20
-29.36554434
 30
0.0
 11
-131.12630982
 21
-29.36554434
 31
0.0
  0
LINE
  5
2FE
100
AcDbEntity
  8
LAYER0003
  6
CONTINUOUS
 62
       7
100
AcDbLine
 10
-131.12630982
 20
-29.36554434
 30
0.0
 11
-131.13009479
 21
-29.36554434
 31
0.0
  0
LINE
  5
2FF
100
AcDbEntity
  8
LAYER0003
  6
CONTINUOUS
 62
       7
100
AcDbLine
 10
-131.13009479
 20
-29.36554434
 30
0.0
 11
-131.13488599
 21
-29.36554434
 31
0.0
  0
LINE
  5
300
100
AcDbEntity
  8
LAYER0003
  6
CONTINUOUS
 62
       7
100
AcDbLine
 10
-131.13488599
 20
-29.36554434
 30
0.0
 11
-131.14101882
 21
-29.36554434
 31
0.0
  0
LINE
  5
301
100
AcDbEntity
  8
LAYER0003
  6
CONTINUOUS
 62
       7
100
AcDbLine
 10
-131.14101882
 20
-29.36554434
 30
0.0
 11
-131.14882869
 21
-29.36554434
 31
0.0
  0
LINE
  5
302
100
AcDbEntity
  8
LAYER0003
  6
CONTINUOUS
 62
       7
100
AcDbLine
 10
-131.14882869
 20
-29.36554434
 30
0.0
 11
-131.1586102
 21
-29.36554434
 31
0.0
  0
LINE
  5
303
100
AcDbEntity
  8
LAYER0003
  6
CONTINUOUS
 62
       7
100
AcDbLine
 10
-131.1586102
 20
-29.36554434
 30
0.0
 11
-131.17037414
 21
-29.36554434
 31
0.0
  0
LINE
  5
304
100
AcDbEntity
  8
LAYER0003
  6
CONTINUOUS
 62
       7
100
AcDbLine
 10
-131.17037414
 20
-29.36554434
 30
0.0
 11
-131.18401082
 21
-29.36554434
 31
0.0
  0
LINE
  5
305
100
AcDbEntity
  8
LAYER0003
  6
CONTINUOUS
 62
       7
100
AcDbLine
 10
-131.18401082
 20
-29.36554434
 30
0.0
 11
-131.19941007
 21
-29.36554434
 31
0.0
  0
LINE
  5
306
100
AcDbEntity
  8
LAYER0003
  6
CONTINUOUS
 62
       7
100
AcDbLine
 10
-131.19941007
 20
-29.36554434
 30
0.0
 11
-131.2164617
 21
-29.36554434
 31
0.0
  0
LINE
  5
307
100
AcDbEntity
  8
LAYER0003
  6
CONTINUOUS
 62
       7
100
AcDbLine
 10
-131.2164617
 20
-29.36554434
 30
0.0
 11
-131.23505559
 21
-29.36554434
 31
0.0
  0
LINE
  5
308
100
AcDbEntity
  8
LAYER0003
  6
CONTINUOUS
 62
       7
100
AcDbLine
 10
-131.23505559
 20
-29.36554434
 30
0.0
 11
-131.25508156
 21
-29.36554434
 31
0.0
  0
LINE
  5
309
100
AcDbEntity
  8
LAYER0003
  6
CONTINUOUS
 62
       7
100
AcDbLine
 10
-131.25508156
 20
-29.36554434
 30
0.0
 11
-131.27642945
 21
-29.36554434
 31
0.0
  0
LINE
  5
30A
100
AcDbEntity
  8
LAYER0003
  6
CONTINUOUS
 62
       7
100
AcDbLine
 10
-131.27642945
 20
-29.36554434
 30
0.0
 11
-131.29898909
 21
-29.36554434
 31
0.0
  0
LINE
  5
30B
100
AcDbEntity
  8
LAYER0003
  6
CONTINUOUS
 62
       7
100
AcDbLine
 10
-131.29898909
 20
-29.36554434
 30
0.0
 11
-131.32265035
 21
-29.36554434
 31
0.0
  0
LINE
  5
30C
100
AcDbEntity
  8
LAYER0003
  6
CONTINUOUS
 62
       7
100
AcDbLine
 10
-131.32265035
 20
-29.36554434
 30
0.0
 11
-131.34730303
 21
-29.36554434
 31
0.0
  0
LINE
  5
30D
100
AcDbEntity
  8
LAYER0003
  6
CONTINUOUS
 62
       7
100
AcDbLine
 10
-131.34730303
 20
-29.36554434
 30
0.0
 11
-131.37283701
 21
-29.36554434
 31
0.0
  0
LINE
  5
30E
100
AcDbEntity
  8
LAYER0003
  6
CONTINUOUS
 62
       7
100
AcDbLine
 10
-131.37283701
 20
-29.36554434
 30
0.0
 11
-131.39914211
 21
-29.36554434
 31
0.0
  0
LINE
  5
30F
100
AcDbEntity
  8
LAYER0003
  6
CONTINUOUS
 62
       7
100
AcDbLine
 10
-131.39914211
 20
-29.36554434
 30
0.0
 11
-131.42610817
 21
-29.36554434
 31
0.0
  0
LINE
  5
310
100
AcDbEntity
  8
LAYER0003
  6
CONTINUOUS
 62
       7
100
AcDbLine
 10
-131.42610817
 20
-29.36554434
 30
0.0
 11
-131.45362502
 21
-29.36554434
 31
0.0
  0
LINE
  5
311
100
AcDbEntity
  8
LAYER0003
  6
CONTINUOUS
 62
       7
100
AcDbLine
 10
-131.45362502
 20
-29.36554434
 30
0.0
 11
-131.48158252
 21
-29.36554434
 31
0.0
  0
LINE
  5
312
100
AcDbEntity
  8
LAYER0003
  6
CONTINUOUS
 62
       7
100
AcDbLine
 10
-131.48158252
 20
-29.36554434
 30
0.0
 11
-131.50987049
 21
-29.36554434
 31
0.0
  0
LINE
  5
313
100
AcDbEntity
  8
LAYER0003
  6
CONTINUOUS
 62
       7
100
AcDbLine
 10
-131.50987049
 20
-29.36554434
 30
0.0
 11
-131.53837879
 21
-29.36554434
 31
0.0
  0
LINE
  5
314
100
AcDbEntity
  8
LAYER0003
  6
CONTINUOUS
 62
       7
100
AcDbLine
 10
-131.53837879
 20
-29.36554434
 30
0.0
 11
-131.56699726
 21
-29.36554434
 31
0.0
  0
LINE
  5
315
100
AcDbEntity
  8
LAYER0003
  6
CONTINUOUS
 62
       7
100
AcDbLine
 10
-131.56699726
 20
-19.36553897
 30
0.0
 11
-131.53837879
 21
-19.36553897
 31
0.0
  0
LINE
  5
316
100
AcDbEntity
  8
LAYER0003
  6
CONTINUOUS
 62
       7
100
AcDbLine
 10
-131.53837879
 20
-19.36553897
 30
0.0
 11
-131.50987049
 21
-19.36553897
 31
0.0
  0
LINE
  5
317
100
AcDbEntity
  8
LAYER0003
  6
CONTINUOUS
 62
       7
100
AcDbLine
 10
-131.50987049
 20
-19.36553897
 30
0.0
 11
-131.48158252
 21
-19.36553897
 31
0.0
  0
LINE
  5
318
100
AcDbEntity
  8
LAYER0003
  6
CONTINUOUS
 62
       7
100
AcDbLine
 10
-131.48158252
 20
-19.36553897
 30
0.0
 11
-131.45362502
 21
-19.36553897
 31
0.0
  0
LINE
  5
319
100
AcDbEntity
  8
LAYER0003
  6
CONTINUOUS
 62
       7
100
AcDbLine
 10
-131.45362502
 20
-19.36553897
 30
0.0
 11
-131.42610817
 21
-19.36553897
 31
0.0
  0
LINE
  5
31A
100
AcDbEntity
  8
LAYER0003
  6
CONTINUOUS
 62
       7
100
AcDbLine
 10
-131.42610817
 20
-19.36553897
 30
0.0
 11
-131.39914211
 21
-19.36553897
 31
0.0
  0
LINE
  5
31B
100
AcDbEntity
  8
LAYER0003
  6
CONTINUOUS
 62
       7
100
AcDbLine
 10
-131.39914211
 20
-19.36553897
 30
0.0
 11
-131.37283701
 21
-19.36553897
 31
0.0
  0
LINE
  5
31C
100
AcDbEntity
  8
LAYER0003
  6
CONTINUOUS
 62
       7
100
AcDbLine
 10
-131.37283701
 20
-19.36553897
 30
0.0
 11
-131.34730303
 21
-19.36553897
 31
0.0
  0
LINE
  5
31D
100
AcDbEntity
  8
LAYER0003
  6
CONTINUOUS
 62
       7
100
AcDbLine
 10
-131.34730303
 20
-19.36553897
 30
0.0
 11
-131.32265035
 21
-19.36553897
 31
0.0
  0
LINE
  5
31E
100
AcDbEntity
  8
LAYER0003
  6
CONTINUOUS
 62
       7
100
AcDbLine
 10
-131.32265035
 20
-19.36553897
 30
0.0
 11
-131.29898909
 21
-19.36553897
 31
0.0
  0
LINE
  5
31F
100
AcDbEntity
  8
LAYER0003
  6
CONTINUOUS
 62
       7
100
AcDbLine
 10
-131.29898909
 20
-19.36553897
 30
0.0
 11
-131.27642945
 21
-19.36553897
 31
0.0
  0
LINE
  5
320
100
AcDbEntity
  8
LAYER0003
  6
CONTINUOUS
 62
       7
100
AcDbLine
 10
-131.27642945
 20
-19.36553897
 30
0.0
 11
-131.25508156
 21
-19.36553897
 31
0.0
  0
LINE
  5
321
100
AcDbEntity
  8
LAYER0003
  6
CONTINUOUS
 62
       7
100
AcDbLine
 10
-131.25508156
 20
-19.36553897
 30
0.0
 11
-131.23505559
 21
-19.36553897
 31
0.0
  0
LINE
  5
322
100
AcDbEntity
  8
LAYER0003
  6
CONTINUOUS
 62
       7
100
AcDbLine
 10
-131.23505559
 20
-19.36553897
 30
0.0
 11
-131.2164617
 21
-19.36553897
 31
0.0
  0
LINE
  5
323
100
AcDbEntity
  8
LAYER0003
  6
CONTINUOUS
 62
       7
100
AcDbLine
 10
-131.2164617
 20
-19.36553897
 30
0.0
 11
-131.19941007
 21
-19.36553897
 31
0.0
  0
LINE
  5
324
100
AcDbEntity
  8
LAYER0003
  6
CONTINUOUS
 62
       7
100
AcDbLine
 10
-131.19941007
 20
-19.36553897
 30
0.0
 11
-131.18401082
 21
-19.36553897
 31
0.0
  0
LINE
  5
325
100
AcDbEntity
  8
LAYER0003
  6
CONTINUOUS
 62
       7
100
AcDbLine
 10
-131.18401082
 20
-19.36553897
 30
0.0
 11
-131.17037414
 21
-19.36553897
 31
0.0
  0
LINE
  5
326
100
AcDbEntity
  8
LAYER0003
  6
CONTINUOUS
 62
       7
100
AcDbLine
 10
-131.17037414
 20
-19.36553897
 30
0.0
 11
-131.1586102
 21
-19.36553897
 31
0.0
  0
LINE
  5
327
100
AcDbEntity
  8
LAYER0003
  6
CONTINUOUS
 62
       7
100
AcDbLine
 10
-131.1586102
 20
-19.36553897
 30
0.0
 11
-131.14882869
 21
-19.36553897
 31
0.0
  0
LINE
  5
328
100
AcDbEntity
  8
LAYER0003
  6
CONTINUOUS
 62
       7
100
AcDbLine
 10
-131.14882869
 20
-19.36553897
 30
0.0
 11
-131.14101882
 21
-19.36553897
 31
0.0
  0
LINE
  5
329
100
AcDbEntity
  8
LAYER0003
  6
CONTINUOUS
 62
       7
100
AcDbLine
 10
-131.14101882
 20
-19.36553897
 30
0.0
 11
-131.13488599
 21
-19.36553897
 31
0.0
  0
LINE
  5
32A
100
AcDbEntity
  8
LAYER0003
  6
CONTINUOUS
 62
       7
100
AcDbLine
 10
-131.13488599
 20
-19.36553897
 30
0.0
 11
-131.13009479
 21
-19.36553897
 31
0.0
  0
LINE
  5
32B
100
AcDbEntity
  8
LAYER0003
  6
CONTINUOUS
 62
       7
100
AcDbLine
 10
-131.13009479
 20
-19.36553897
 30
0.0
 11
-131.12630982
 21
-19.36553897
 31
0.0
  0
LINE
  5
32C
100
AcDbEntity
  8
LAYER0003
  6
CONTINUOUS
 62
       7
100
AcDbLine
 10
-131.12630982
 20
-19.36553897
 30
0.0
 11
-131.12319566
 21
-19.36553897
 31
0.0
  0
LINE
  5
32D
100
AcDbEntity
  8
LAYER0003
  6
CONTINUOUS
 62
       7
100
AcDbLine
 10
-131.12319566
 20
-19.36553897
 30
0.0
 11
-131.12041691
 21
-19.36553897
 31
0.0
  0
LINE
  5
32E
100
AcDbEntity
  8
LAYER0003
  6
CONTINUOUS
 62
       7
100
AcDbLine
 10
-141.37041719
 20
-24.36554165
 30
0.0
 11
-141.37709636
 21
-24.45937701
 31
0.0
  0
LINE
  5
32F
100
AcDbEntity
  8
LAYER0003
  6
CONTINUOUS
 62
       7
100
AcDbLine
 10
-141.37709636
 20
-24.45937701
 30
0.0
 11
-141.38385293
 21
-24.55319752
 31
0.0
  0
LINE
  5
330
100
AcDbEntity
  8
LAYER0003
  6
CONTINUOUS
 62
       7
100
AcDbLine
 10
-141.38385293
 20
-24.55319752
 30
0.0
 11
-141.39076431
 21
-24.64698835
 31
0.0
  0
LINE
  5
331
100
AcDbEntity
  8
LAYER0003
  6
CONTINUOUS
 62
       7
100
AcDbLine
 10
-141.39076431
 20
-24.64698835
 30
0.0
 11
-141.39790791
 21
-24.74073467
 31
0.0
  0
LINE
  5
332
100
AcDbEntity
  8
LAYER0003
  6
CONTINUOUS
 62
       7
100
AcDbLine
 10
-141.39790791
 20
-24.74073467
 30
0.0
 11
-141.40536114
 21
-24.83442163
 31
0.0
  0
LINE
  5
333
100
AcDbEntity
  8
LAYER0003
  6
CONTINUOUS
 62
       7
100
AcDbLine
 10
-141.40536114
 20
-24.83442163
 30
0.0
 11
-141.4132014
 21
-24.92803439
 31
0.0
  0
LINE
  5
334
100
AcDbEntity
  8
LAYER0003
  6
CONTINUOUS
 62
       7
100
AcDbLine
 10
-141.4132014
 20
-24.92803439
 30
0.0
 11
-141.4215061
 21
-25.02155811
 31
0.0
  0
LINE
  5
335
100
AcDbEntity
  8
LAYER0003
  6
CONTINUOUS
 62
       7
100
AcDbLine
 10
-141.4215061
 20
-25.02155811
 30
0.0
 11
-141.43035264
 21
-25.11497796
 31
0.0
  0
LINE
  5
336
100
AcDbEntity
  8
LAYER0003
  6
CONTINUOUS
 62
       7
100
AcDbLine
 10
-141.43035264
 20
-25.11497796
 30
0.0
 11
-141.43981844
 21
-25.20827909
 31
0.0
  0
LINE
  5
337
100
AcDbEntity
  8
LAYER0003
  6
CONTINUOUS
 62
       7
100
AcDbLine
 10
-141.43981844
 20
-25.20827909
 30
0.0
 11
-141.44998089
 21
-25.30144666
 31
0.0
  0
LINE
  5
338
100
AcDbEntity
  8
LAYER0003
  6
CONTINUOUS
 62
       7
100
AcDbLine
 10
-141.44998089
 20
-25.30144666
 30
0.0
 11
-141.4609174
 21
-25.39446584
 31
0.0
  0
LINE
  5
339
100
AcDbEntity
  8
LAYER0003
  6
CONTINUOUS
 62
       7
100
AcDbLine
 10
-141.4609174
 20
-25.39446584
 30
0.0
 11
-141.4727054
 21
-25.48732178
 31
0.0
  0
LINE
  5
33A
100
AcDbEntity
  8
LAYER0003
  6
CONTINUOUS
 62
       7
100
AcDbLine
 10
-141.4727054
 20
-25.48732178
 30
0.0
 11
-141.48542227
 21
-25.57999965
 31
0.0
  0
LINE
  5
33B
100
AcDbEntity
  8
LAYER0003
  6
CONTINUOUS
 62
       7
100
AcDbLine
 10
-141.48542227
 20
-25.57999965
 30
0.0
 11
-141.49914542
 21
-25.67248461
 31
0.0
  0
LINE
  5
33C
100
AcDbEntity
  8
LAYER0003
  6
CONTINUOUS
 62
       7
100
AcDbLine
 10
-141.49914542
 20
-25.67248461
 30
0.0
 11
-141.51395226
 21
-25.76476181
 31
0.0
  0
LINE
  5
33D
100
AcDbEntity
  8
LAYER0003
  6
CONTINUOUS
 62
       7
100
AcDbLine
 10
-141.51395226
 20
-25.76476181
 30
0.0
 11
-141.52992018
 21
-25.85681642
 31
0.0
  0
LINE
  5
33E
100
AcDbEntity
  8
LAYER0003
  6
CONTINUOUS
 62
       7
100
AcDbLine
 10
-141.52992018
 20
-25.85681642
 30
0.0
 11
-141.54712664
 21
-25.94863359
 31
0.0
  0
LINE
  5
33F
100
AcDbEntity
  8
LAYER0003
  6
CONTINUOUS
 62
       7
100
AcDbLine
 10
-141.54712664
 20
-25.94863359
 30
0.0
 11
-141.56564899
 21
-26.0401985
 31
0.0
  0
LINE
  5
340
100
AcDbEntity
  8
LAYER0003
  6
CONTINUOUS
 62
       7
100
AcDbLine
 10
-141.56564899
 20
-26.0401985
 30
0.0
 11
-141.58556464
 21
-26.13149629
 31
0.0
  0
LINE
  5
341
100
AcDbEntity
  8
LAYER0003
  6
CONTINUOUS
 62
       7
100
AcDbLine
 10
-141.58556464
 20
-26.13149629
 30
0.0
 11
-141.60691915
 21
-26.22251824
 31
0.0
  0
LINE
  5
342
100
AcDbEntity
  8
LAYER0003
  6
CONTINUOUS
 62
       7
100
AcDbLine
 10
-141.60691915
 20
-26.22251824
 30
0.0
 11
-141.62954535
 21
-26.3132964
 31
0.0
  0
LINE
  5
343
100
AcDbEntity
  8
LAYER0003
  6
CONTINUOUS
 62
       7
100
AcDbLine
 10
-141.62954535
 20
-26.3132964
 30
0.0
 11
-141.6531891
 21
-26.40387949
 31
0.0
  0
LINE
  5
344
100
AcDbEntity
  8
LAYER0003
  6
CONTINUOUS
 62
       7
100
AcDbLine
 10
-141.6531891
 20
-26.40387949
 30
0.0
 11
-141.67759603
 21
-26.49431626
 31
0.0
  0
LINE
  5
345
100
AcDbEntity
  8
LAYER0003
  6
CONTINUOUS
 62
       7
100
AcDbLine
 10
-141.67759603
 20
-26.49431626
 30
0.0
 11
-141.70251173
 21
-26.5846555
 31
0.0
  0
LINE
  5
346
100
AcDbEntity
  8
LAYER0003
  6
CONTINUOUS
 62
       7
100
AcDbLine
 10
-141.70251173
 20
-26.5846555
 30
0.0
 11
-141.72768185
 21
-26.67494597
 31
0.0
  0
LINE
  5
347
100
AcDbEntity
  8
LAYER0003
  6
CONTINUOUS
 62
       7
100
AcDbLine
 10
-141.72768185
 20
-22.05614479
 30
0.0
 11
-141.70477517
 21
-22.14751507
 31
0.0
  0
LINE
  5
348
100
AcDbEntity
  8
LAYER0003
  6
CONTINUOUS
 62
       7
100
AcDbLine
 10
-141.70477517
 20
-22.14751507
 30
0.0
 11
-141.68195685
 21
-22.23889566
 31
0.0
  0
LINE
  5
349
100
AcDbEntity
  8
LAYER0003
  6
CONTINUOUS
 62
       7
100
AcDbLine
 10
-141.68195685
 20
-22.23889566
 30
0.0
 11
-141.65931523
 21
-22.33029688
 31
0.0
  0
LINE
  5
34A
100
AcDbEntity
  8
LAYER0003
  6
CONTINUOUS
 62
       7
100
AcDbLine
 10
-141.65931523
 20
-22.33029688
 30
0.0
 11
-141.63693867
 21
-22.42172903
 31
0.0
  0
LINE
  5
34B
100
AcDbEntity
  8
LAYER0003
  6
CONTINUOUS
 62
       7
100
AcDbLine
 10
-141.63693867
 20
-22.42172903
 30
0.0
 11
-141.61491551
 21
-22.51320243
 31
0.0
  0
LINE
  5
34C
100
AcDbEntity
  8
LAYER0003
  6
CONTINUOUS
 62
       7
100
AcDbLine
 10
-141.61491551
 20
-22.51320243
 30
0.0
 11
-141.59333412
 21
-22.60472738
 31
0.0
  0
LINE
  5
34D
100
AcDbEntity
  8
LAYER0003
  6
CONTINUOUS
 62
       7
100
AcDbLine
 10
-141.59333412
 20
-22.60472738
 30
0.0
 11
-141.57228283
 21
-22.69631421
 31
0.0
  0
LINE
  5
34E
100
AcDbEntity
  8
LAYER0003
  6
CONTINUOUS
 62
       7
100
AcDbLine
 10
-141.57228283
 20
-22.69631421
 30
0.0
 11
-141.55185
 21
-22.78797322
 31
0.0
  0
LINE
  5
34F
100
AcDbEntity
  8
LAYER0003
  6
CONTINUOUS
 62
       7
100
AcDbLine
 10
-141.55185
 20
-22.78797322
 30
0.0
 11
-141.53212399
 21
-22.87971472
 31
0.0
  0
LINE
  5
350
100
AcDbEntity
  8
LAYER0003
  6
CONTINUOUS
 62
       7
100
AcDbLine
 10
-141.53212399
 20
-22.87971472
 30
0.0
 11
-141.51319314
 21
-22.97154902
 31
0.0
  0
LINE
  5
351
100
AcDbEntity
  8
LAYER0003
  6
CONTINUOUS
 62
       7
100
AcDbLine
 10
-141.51319314
 20
-22.97154902
 30
0.0
 11
-141.49514581
 21
-23.06348644
 31
0.0
  0
LINE
  5
352
100
AcDbEntity
  8
LAYER0003
  6
CONTINUOUS
 62
       7
100
AcDbLine
 10
-141.49514581
 20
-23.06348644
 30
0.0
 11
-141.47807035
 21
-23.15553729
 31
0.0
  0
LINE
  5
353
100
AcDbEntity
  8
LAYER0003
  6
CONTINUOUS
 62
       7
100
AcDbLine
 10
-141.47807035
 20
-23.15553729
 30
0.0
 11
-141.46205511
 21
-23.24771188
 31
0.0
  0
LINE
  5
354
100
AcDbEntity
  8
LAYER0003
  6
CONTINUOUS
 62
       7
100
AcDbLine
 10
-141.46205511
 20
-23.24771188
 30
0.0
 11
-141.44718844
 21
-23.34002052
 31
0.0
  0
LINE
  5
355
100
AcDbEntity
  8
LAYER0003
  6
CONTINUOUS
 62
       7
100
AcDbLine
 10
-141.44718844
 20
-23.34002052
 30
0.0
 11
-141.43355868
 21
-23.43247352
 31
0.0
  0
LINE
  5
356
100
AcDbEntity
  8
LAYER0003
  6
CONTINUOUS
 62
       7
100
AcDbLine
 10
-141.43355868
 20
-23.43247352
 30
0.0
 11
-141.42125421
 21
-23.52508119
 31
0.0
  0
LINE
  5
357
100
AcDbEntity
  8
LAYER0003
  6
CONTINUOUS
 62
       7
100
AcDbLine
 10
-141.42125421
 20
-23.52508119
 30
0.0
 11
-141.41036337
 21
-23.61785386
 31
0.0
  0
LINE
  5
358
100
AcDbEntity
  8
LAYER0003
  6
CONTINUOUS
 62
       7
100
AcDbLine
 10
-141.41036337
 20
-23.61785386
 30
0.0
 11
-141.4009745
 21
-23.71080182
 31
0.0
  0
LINE
  5
359
100
AcDbEntity
  8
LAYER0003
  6
CONTINUOUS
 62
       7
100
AcDbLine
 10
-141.4009745
 20
-23.71080182
 30
0.0
 11
-141.39317519
 21
-23.8039353
 31
0.0
  0
LINE
  5
35A
100
AcDbEntity
  8
LAYER0003
  6
CONTINUOUS
 62
       7
100
AcDbLine
 10
-141.39317519
 20
-23.8039353
 30
0.0
 11
-141.38694484
 21
-23.89725189
 31
0.0
  0
LINE
  5
35B
100
AcDbEntity
  8
LAYER0003
  6
CONTINUOUS
 62
       7
100
AcDbLine
 10
-141.38694484
 20
-23.89725189
 30
0.0
 11
-141.38204395
 21
-23.99072365
 31
0.0
  0
LINE
  5
35C
100
AcDbEntity
  8
LAYER0003
  6
CONTINUOUS
 62
       7
100
AcDbLine
 10
-141.38204395
 20
-23.99072365
 30
0.0
 11
-141.37820663
 21
-24.08431953
 31
0.0
  0
LINE
  5
35D
100
AcDbEntity
  8
LAYER0003
  6
CONTINUOUS
 62
       7
100
AcDbLine
 10
-141.37820663
 20
-24.08431953
 30
0.0
 11
-141.37516699
 21
-24.17800852
 31
0.0
  0
LINE
  5
35E
100
AcDbEntity
  8
LAYER0003
  6
CONTINUOUS
 62
       7
100
AcDbLine
 10
-141.37516699
 20
-24.17800852
 30
0.0
 11
-141.37265915
 21
-24.27175957
 31
0.0
  0
LINE
  5
35F
100
AcDbEntity
  8
LAYER0003
  6
CONTINUOUS
 62
       7
100
AcDbLine
 10
-141.37265915
 20
-24.27175957
 30
0.0
 11
-141.37041719
 21
-24.36554165
 31
0.0
  0
LINE
  5
360
100
AcDbEntity
  8
LAYER0003
  6
CONTINUOUS
 62
       7
100
AcDbLine
 10
-141.37041719
 20
-20.90143891
 30
0.0
 11
-141.37118843
 21
-20.94822549
 31
0.0
  0
LINE
  5
361
100
AcDbEntity
  8
LAYER0003
  6
CONTINUOUS
 62
       7
100
AcDbLine
 10
-141.37118843
 20
-20.94822549
 30
0.0
 11
-141.37292675
 21
-20.99496926
 31
0.0
  0
LINE
  5
362
100
AcDbEntity
  8
LAYER0003
  6
CONTINUOUS
 62
       7
100
AcDbLine
 10
-141.37292675
 20
-20.99496926
 30
0.0
 11
-141.37627386
 21
-21.04164184
 31
0.0
  0
LINE
  5
363
100
AcDbEntity
  8
LAYER0003
  6
CONTINUOUS
 62
       7
100
AcDbLine
 10
-141.37627386
 20
-21.04164184
 30
0.0
 11
-141.38123123
 21
-21.08824315
 31
0.0
  0
LINE
  5
364
100
AcDbEntity
  8
LAYER0003
  6
CONTINUOUS
 62
       7
100
AcDbLine
 10
-141.38123123
 20
-21.08824315
 30
0.0
 11
-141.38772567
 21
-21.13477642
 31
0.0
  0
LINE
  5
365
100
AcDbEntity
  8
LAYER0003
  6
CONTINUOUS
 62
       7
100
AcDbLine
 10
-141.38772567
 20
-21.13477642
 30
0.0
 11
-141.395684
 21
-21.18124491
 31
0.0
  0
LINE
  5
366
100
AcDbEntity
  8
LAYER0003
  6
CONTINUOUS
 62
       7
100
AcDbLine
 10
-141.395684
 20
-21.18124491
 30
0.0
 11
-141.40503302
 21
-21.22765186
 31
0.0
  0
LINE
  5
367
100
AcDbEntity
  8
LAYER0003
  6
CONTINUOUS
 62
       7
100
AcDbLine
 10
-141.40503302
 20
-21.22765186
 30
0.0
 11
-141.41569952
 21
-21.27400049
 31
0.0
  0
LINE
  5
368
100
AcDbEntity
  8
LAYER0003
  6
CONTINUOUS
 62
       7
100
AcDbLine
 10
-141.41569952
 20
-21.27400049
 30
0.0
 11
-141.42761035
 21
-21.32029405
 31
0.0
  0
LINE
  5
369
100
AcDbEntity
  8
LAYER0003
  6
CONTINUOUS
 62
       7
100
AcDbLine
 10
-141.42761035
 20
-21.32029405
 30
0.0
 11
-141.44069227
 21
-21.36653577
 31
0.0
  0
LINE
  5
36A
100
AcDbEntity
  8
LAYER0003
  6
CONTINUOUS
 62
       7
100
AcDbLine
 10
-141.44069227
 20
-21.36653577
 30
0.0
 11
-141.4548721
 21
-21.41272891
 31
0.0
  0
LINE
  5
36B
100
AcDbEntity
  8
LAYER0003
  6
CONTINUOUS
 62
       7
100
AcDbLine
 10
-141.4548721
 20
-21.41272891
 30
0.0
 11
-141.47007666
 21
-21.4588767
 31
0.0
  0
LINE
  5
36C
100
AcDbEntity
  8
LAYER0003
  6
CONTINUOUS
 62
       7
100
AcDbLine
 10
-141.47007666
 20
-21.4588767
 30
0.0
 11
-141.48623272
 21
-21.50498237
 31
0.0
  0
LINE
  5
36D
100
AcDbEntity
  8
LAYER0003
  6
CONTINUOUS
 62
       7
100
AcDbLine
 10
-141.48623272
 20
-21.50498237
 30
0.0
 11
-141.50326714
 21
-21.55104917
 31
0.0
  0
LINE
  5
36E
100
AcDbEntity
  8
LAYER0003
  6
CONTINUOUS
 62
       7
100
AcDbLine
 10
-141.50326714
 20
-21.55104917
 30
0.0
 11
-141.52110668
 21
-21.59708033
 31
0.0
  0
LINE
  5
36F
100
AcDbEntity
  8
LAYER0003
  6
CONTINUOUS
 62
       7
100
AcDbLine
 10
-141.52110668
 20
-21.59708033
 30
0.0
 11
-141.53967816
 21
-21.6430791
 31
0.0
  0
LINE
  5
370
100
AcDbEntity
  8
LAYER0003
  6
CONTINUOUS
 62
       7
100
AcDbLine
 10
-141.53967816
 20
-21.6430791
 30
0.0
 11
-141.55890839
 21
-21.68904872
 31
0.0
  0
LINE
  5
371
100
AcDbEntity
  8
LAYER0003
  6
CONTINUOUS
 62
       7
100
AcDbLine
 10
-141.55890839
 20
-21.68904872
 30
0.0
 11
-141.57872418
 21
-21.73499242
 31
0.0
  0
LINE
  5
372
100
AcDbEntity
  8
LAYER0003
  6
CONTINUOUS
 62
       7
100
AcDbLine
 10
-141.57872418
 20
-21.73499242
 30
0.0
 11
-141.59905232
 21
-21.78091344
 31
0.0
  0
LINE
  5
373
100
AcDbEntity
  8
LAYER0003
  6
CONTINUOUS
 62
       7
100
AcDbLine
 10
-141.59905232
 20
-21.78091344
 30
0.0
 11
-141.61981963
 21
-21.82681503
 31
0.0
  0
LINE
  5
374
100
AcDbEntity
  8
LAYER0003
  6
CONTINUOUS
 62
       7
100
AcDbLine
 10
-141.61981963
 20
-21.82681503
 30
0.0
 11
-141.64095291
 21
-21.87270042
 31
0.0
  0
LINE
  5
375
100
AcDbEntity
  8
LAYER0003
  6
CONTINUOUS
 62
       7
100
AcDbLine
 10
-141.64095291
 20
-21.87270042
 30
0.0
 11
-141.66237896
 21
-21.91857285
 31
0.0
  0
LINE
  5
376
100
AcDbEntity
  8
LAYER0003
  6
CONTINUOUS
 62
       7
100
AcDbLine
 10
-141.66237896
 20
-21.91857285
 30
0.0
 11
-141.68402459
 21
-21.96443556
 31
0.0
  0
LINE
  5
377
100
AcDbEntity
  8
LAYER0003
  6
CONTINUOUS
 62
       7
100
AcDbLine
 10
-141.68402459
 20
-21.96443556
 30
0.0
 11
-141.70581663
 21
-22.0102918
 31
0.0
  0
LINE
  5
378
100
AcDbEntity
  8
LAYER0003
  6
CONTINUOUS
 62
       7
100
AcDbLine
 10
-141.70581663
 20
-22.0102918
 30
0.0
 11
-141.72768185
 21
-22.05614479
 31
0.0
  0
LINE
  5
379
100
AcDbEntity
  8
LAYER0003
  6
CONTINUOUS
 62
       7
100
AcDbLine
 10
-158.57599547
 20
-91.36554332
 30
0.0
 11
-158.53059025
 21
-91.36982717
 31
0.0
  0
LINE
  5
37A
100
AcDbEntity
  8
LAYER0003
  6
CONTINUOUS
 62
       7
100
AcDbLine
 10
-158.53059025
 20
-91.36982717
 30
0.0
 11
-158.48521324
 21
-91.37421522
 31
0.0
  0
LINE
  5
37B
100
AcDbEntity
  8
LAYER0003
  6
CONTINUOUS
 62
       7
100
AcDbLine
 10
-158.48521324
 20
-91.37421522
 30
0.0
 11
-158.43989266
 21
-91.37881165
 31
0.0
  0
LINE
  5
37C
100
AcDbEntity
  8
LAYER0003
  6
CONTINUOUS
 62
       7
100
AcDbLine
 10
-158.43989266
 20
-91.37881165
 30
0.0
 11
-158.39465671
 21
-91.38372066
 31
0.0
  0
LINE
  5
37D
100
AcDbEntity
  8
LAYER0003
  6
CONTINUOUS
 62
       7
100
AcDbLine
 10
-158.39465671
 20
-91.38372066
 30
0.0
 11
-158.3495336
 21
-91.38904645
 31
0.0
  0
LINE
  5
37E
100
AcDbEntity
  8
LAYER0003
  6
CONTINUOUS
 62
       7
100
AcDbLine
 10
-158.3495336
 20
-91.38904645
 30
0.0
 11
-158.30455156
 21
-91.39489321
 31
0.0
  0
LINE
  5
37F
100
AcDbEntity
  8
LAYER0003
  6
CONTINUOUS
 62
       7
100
AcDbLine
 10
-158.30455156
 20
-91.39489321
 30
0.0
 11
-158.25973878
 21
-91.40136513
 31
0.0
  0
LINE
  5
380
100
AcDbEntity
  8
LAYER0003
  6
CONTINUOUS
 62
       7
100
AcDbLine
 10
-158.25973878
 20
-91.40136513
 30
0.0
 11
-158.21512351
 21
-91.40856641
 31
0.0
  0
LINE
  5
381
100
AcDbEntity
  8
LAYER0003
  6
CONTINUOUS
 62
       7
100
AcDbLine
 10
-158.21512351
 20
-91.40856641
 30
0.0
 11
-158.17073391
 21
-91.41660124
 31
0.0
  0
LINE
  5
382
100
AcDbEntity
  8
LAYER0003
  6
CONTINUOUS
 62
       7
100
AcDbLine
 10
-158.17073391
 20
-91.41660124
 30
0.0
 11
-158.12659823
 21
-91.42557382
 31
0.0
  0
LINE
  5
383
100
AcDbEntity
  8
LAYER0003
  6
CONTINUOUS
 62
       7
100
AcDbLine
 10
-158.12659823
 20
-91.42557382
 30
0.0
 11
-158.08274467
 21
-91.43558834
 31
0.0
  0
LINE
  5
384
100
AcDbEntity
  8
LAYER0003
  6
CONTINUOUS
 62
       7
100
AcDbLine
 10
-158.08274467
 20
-91.43558834
 30
0.0
 11
-158.03920143
 21
-91.44674899
 31
0.0
  0
LINE
  5
385
100
AcDbEntity
  8
LAYER0003
  6
CONTINUOUS
 62
       7
100
AcDbLine
 10
-158.03920143
 20
-91.44674899
 30
0.0
 11
-157.99599674
 21
-91.45915996
 31
0.0
  0
LINE
  5
386
100
AcDbEntity
  8
LAYER0003
  6
CONTINUOUS
 62
       7
100
AcDbLine
 10
-157.99599674
 20
-91.45915996
 30
0.0
 11
-157.95315881
 21
-91.47292546
 31
0.0
  0
LINE
  5
387
100
AcDbEntity
  8
LAYER0003
  6
CONTINUOUS
 62
       7
100
AcDbLine
 10
-157.95315881
 20
-91.47292546
 30
0.0
 11
-157.91071584
 21
-91.48814967
 31
0.0
  0
LINE
  5
388
100
AcDbEntity
  8
LAYER0003
  6
CONTINUOUS
 62
       7
100
AcDbLine
 10
-157.91071584
 20
-91.48814967
 30
0.0
 11
-157.86869738
 21
-91.50493328
 31
0.0
  0
LINE
  5
389
100
AcDbEntity
  8
LAYER0003
  6
CONTINUOUS
 62
       7
100
AcDbLine
 10
-157.86869738
 20
-91.50493328
 30
0.0
 11
-157.82715593
 21
-91.52331667
 31
0.0
  0
LINE
  5
38A
100
AcDbEntity
  8
LAYER0003
  6
CONTINUOUS
 62
       7
100
AcDbLine
 10
-157.82715593
 20
-91.52331667
 30
0.0
 11
-157.78616323
 21
-91.54328957
 31
0.0
  0
LINE
  5
38B
100
AcDbEntity
  8
LAYER0003
  6
CONTINUOUS
 62
       7
100
AcDbLine
 10
-157.78616323
 20
-91.54328957
 30
0.0
 11
-157.74579165
 21
-91.5648401
 31
0.0
  0
LINE
  5
38C
100
AcDbEntity
  8
LAYER0003
  6
CONTINUOUS
 62
       7
100
AcDbLine
 10
-157.74579165
 20
-91.5648401
 30
0.0
 11
-157.70611355
 21
-91.5879564
 31
0.0
  0
LINE
  5
38D
100
AcDbEntity
  8
LAYER0003
  6
CONTINUOUS
 62
       7
100
AcDbLine
 10
-157.70611355
 20
-91.5879564
 30
0.0
 11
-157.6672013
 21
-91.61262661
 31
0.0
  0
LINE
  5
38E
100
AcDbEntity
  8
LAYER0003
  6
CONTINUOUS
 62
       7
100
AcDbLine
 10
-157.6672013
 20
-91.61262661
 30
0.0
 11
-157.62912724
 21
-91.63883886
 31
0.0
  0
LINE
  5
38F
100
AcDbEntity
  8
LAYER0003
  6
CONTINUOUS
 62
       7
100
AcDbLine
 10
-157.62912724
 20
-91.63883886
 30
0.0
 11
-157.59196375
 21
-91.66658129
 31
0.0
  0
LINE
  5
390
100
AcDbEntity
  8
LAYER0003
  6
CONTINUOUS
 62
       7
100
AcDbLine
 10
-157.59196375
 20
-91.66658129
 30
0.0
 11
-157.55578318
 21
-91.69584204
 31
0.0
  0
LINE
  5
391
100
AcDbEntity
  8
LAYER0003
  6
CONTINUOUS
 62
       7
100
AcDbLine
 10
-157.55578318
 20
-91.69584204
 30
0.0
 11
-157.52066172
 21
-91.72661276
 31
0.0
  0
LINE
  5
392
100
AcDbEntity
  8
LAYER0003
  6
CONTINUOUS
 62
       7
100
AcDbLine
 10
-157.52066172
 20
-91.72661276
 30
0.0
 11
-157.48670313
 21
-91.75891043
 31
0.0
  0
LINE
  5
393
100
AcDbEntity
  8
LAYER0003
  6
CONTINUOUS
 62
       7
100
AcDbLine
 10
-157.48670313
 20
-91.75891043
 30
0.0
 11
-157.45402327
 21
-91.79276317
 31
0.0
  0
LINE
  5
394
100
AcDbEntity
  8
LAYER0003
  6
CONTINUOUS
 62
       7
100
AcDbLine
 10
-157.45402327
 20
-91.79276317
 30
0.0
 11
-157.42273804
 21
-91.82819913
 31
0.0
  0
LINE
  5
395
100
AcDbEntity
  8
LAYER0003
  6
CONTINUOUS
 62
       7
100
AcDbLine
 10
-157.42273804
 20
-91.82819913
 30
0.0
 11
-157.39296334
 21
-91.86524645
 31
0.0
  0
LINE
  5
396
100
AcDbEntity
  8
LAYER0003
  6
CONTINUOUS
 62
       7
100
AcDbLine
 10
-157.39296334
 20
-91.86524645
 30
0.0
 11
-157.36481508
 21
-91.9039333
 31
0.0
  0
LINE
  5
397
100
AcDbEntity
  8
LAYER0003
  6
CONTINUOUS
 62
       7
100
AcDbLine
 10
-157.36481508
 20
-91.9039333
 30
0.0
 11
-157.33840921
 21
-91.94428782
 31
0.0
  0
LINE
  5
398
100
AcDbEntity
  8
LAYER0003
  6
CONTINUOUS
 62
       7
100
AcDbLine
 10
-157.33840921
 20
-91.94428782
 30
0.0
 11
-157.31391251
 21
-91.98630466
 31
0.0
  0
LINE
  5
399
100
AcDbEntity
  8
LAYER0003
  6
CONTINUOUS
 62
       7
100
AcDbLine
 10
-157.31391251
 20
-91.98630466
 30
0.0
 11
-157.29165784
 21
-92.02986931
 31
0.0
  0
LINE
  5
39A
100
AcDbEntity
  8
LAYER0003
  6
CONTINUOUS
 62
       7
100
AcDbLine
 10
-157.29165784
 20
-92.02986931
 30
0.0
 11
-157.2720119
 21
-92.07484499
 31
0.0
  0
LINE
  5
39B
100
AcDbEntity
  8
LAYER0003
  6
CONTINUOUS
 62
       7
100
AcDbLine
 10
-157.2720119
 20
-92.07484499
 30
0.0
 11
-157.2553413
 21
-92.12109496
 31
0.0
  0
LINE
  5
39C
100
AcDbEntity
  8
LAYER0003
  6
CONTINUOUS
 62
       7
100
AcDbLine
 10
-157.2553413
 20
-92.12109496
 30
0.0
 11
-157.24201273
 21
-92.16848246
 31
0.0
  0
LINE
  5
39D
100
AcDbEntity
  8
LAYER0003
  6
CONTINUOUS
 62
       7
100
AcDbLine
 10
-157.24201273
 20
-92.16848246
 30
0.0
 11
-157.23224738
 21
-92.21685798
 31
0.0
  0
LINE
  5
39E
100
AcDbEntity
  8
LAYER0003
  6
CONTINUOUS
 62
       7
100
AcDbLine
 10
-157.23224738
 20
-92.21685798
 30
0.0
 11
-157.22539633
 21
-92.26599571
 31
0.0
  0
LINE
  5
39F
100
AcDbEntity
  8
LAYER0003
  6
CONTINUOUS
 62
       7
100
AcDbLine
 10
-157.22539633
 20
-92.26599571
 30
0.0
 11
-157.22048851
 21
-92.31564162
 31
0.0
  0
LINE
  5
3A0
100
AcDbEntity
  8
LAYER0003
  6
CONTINUOUS
 62
       7
100
AcDbLine
 10
-157.22048851
 20
-92.31564162
 30
0.0
 11
-157.21655228
 21
-92.36554162
 31
0.0
  0
LINE
  5
3A1
100
AcDbEntity
  8
LAYER0003
  6
CONTINUOUS
 62
       7
100
AcDbLine
 10
-185.12428144
 20
-92.36554162
 30
0.0
 11
-185.11908008
 21
-92.31551659
 31
0.0
  0
LINE
  5
3A2
100
AcDbEntity
  8
LAYER0003
  6
CONTINUOUS
 62
       7
100
AcDbLine
 10
-185.11908008
 20
-92.31551659
 30
0.0
 11
-185.11317115
 21
-92.26574127
 31
0.0
  0
LINE
  5
3A3
100
AcDbEntity
  8
LAYER0003
  6
CONTINUOUS
 62
       7
100
AcDbLine
 10
-185.11317115
 20
-92.26574127
 30
0.0
 11
-185.10584712
 21
-92.21646539
 31
0.0
  0
LINE
  5
3A4
100
AcDbEntity
  8
LAYER0003
  6
CONTINUOUS
 62
       7
100
AcDbLine
 10
-185.10584712
 20
-92.21646539
 30
0.0
 11
-185.09640041
 21
-92.16793866
 31
0.0
  0
LINE
  5
3A5
100
AcDbEntity
  8
LAYER0003
  6
CONTINUOUS
 62
       7
100
AcDbLine
 10
-185.09640041
 20
-92.16793866
 30
0.0
 11
-185.08412345
 21
-92.12041082
 31
0.0
  0
LINE
  5
3A6
100
AcDbEntity
  8
LAYER0003
  6
CONTINUOUS
 62
       7
100
AcDbLine
 10
-185.08412345
 20
-92.12041082
 30
0.0
 11
-185.06840496
 21
-92.07411678
 31
0.0
  0
LINE
  5
3A7
100
AcDbEntity
  8
LAYER0003
  6
CONTINUOUS
 62
       7
100
AcDbLine
 10
-185.06840496
 20
-92.07411678
 30
0.0
 11
-185.04933563
 21
-92.02918364
 31
0.0
  0
LINE
  5
3A8
100
AcDbEntity
  8
LAYER0003
  6
CONTINUOUS
 62
       7
100
AcDbLine
 10
-185.04933563
 20
-92.02918364
 30
0.0
 11
-185.02731706
 21
-91.98569074
 31
0.0
  0
LINE
  5
3A9
100
AcDbEntity
  8
LAYER0003
  6
CONTINUOUS
 62
       7
100
AcDbLine
 10
-185.02731706
 20
-91.98569074
 30
0.0
 11
-185.00275226
 21
-91.94371718
 31
0.0
  0
LINE
  5
3AA
100
AcDbEntity
  8
LAYER0003
  6
CONTINUOUS
 62
       7
100
AcDbLine
 10
-185.00275226
 20
-91.94371718
 30
0.0
 11
-184.97604422
 21
-91.90334209
 31
0.0
  0
LINE
  5
3AB
100
AcDbEntity
  8
LAYER0003
  6
CONTINUOUS
 62
       7
100
AcDbLine
 10
-184.97604422
 20
-91.90334209
 30
0.0
 11
-184.94758283
 21
-91.86463969
 31
0.0
  0
LINE
  5
3AC
100
AcDbEntity
  8
LAYER0003
  6
CONTINUOUS
 62
       7
100
AcDbLine
 10
-184.94758283
 20
-91.86463969
 30
0.0
 11
-184.91758668
 21
-91.82762026
 31
0.0
  0
LINE
  5
3AD
100
AcDbEntity
  8
LAYER0003
  6
CONTINUOUS
 62
       7
100
AcDbLine
 10
-184.91758668
 20
-91.82762026
 30
0.0
 11
-184.88615399
 21
-91.79224911
 31
0.0
  0
LINE
  5
3AE
100
AcDbEntity
  8
LAYER0003
  6
CONTINUOUS
 62
       7
100
AcDbLine
 10
-184.88615399
 20
-91.79224911
 30
0.0
 11
-184.8533805
 21
-91.75849064
 31
0.0
  0
LINE
  5
3AF
100
AcDbEntity
  8
LAYER0003
  6
CONTINUOUS
 62
       7
100
AcDbLine
 10
-184.8533805
 20
-91.75849064
 30
0.0
 11
-184.81936194
 21
-91.72630925
 31
0.0
  0
LINE
  5
3B0
100
AcDbEntity
  8
LAYER0003
  6
CONTINUOUS
 62
       7
100
AcDbLine
 10
-184.81936194
 20
-91.72630925
 30
0.0
 11
-184.78419401
 21
-91.69566934
 31
0.0
  0
LINE
  5
3B1
100
AcDbEntity
  8
LAYER0003
  6
CONTINUOUS
 62
       7
100
AcDbLine
 10
-184.78419401
 20
-91.69566934
 30
0.0
 11
-184.74797249
 21
-91.66653529
 31
0.0
  0
LINE
  5
3B2
100
AcDbEntity
  8
LAYER0003
  6
CONTINUOUS
 62
       7
100
AcDbLine
 10
-184.74797249
 20
-91.66653529
 30
0.0
 11
-184.71079302
 21
-91.63887158
 31
0.0
  0
LINE
  5
3B3
100
AcDbEntity
  8
LAYER0003
  6
CONTINUOUS
 62
       7
100
AcDbLine
 10
-184.71079302
 20
-91.63887158
 30
0.0
 11
-184.67273994
 21
-91.61265326
 31
0.0
  0
LINE
  5
3B4
100
AcDbEntity
  8
LAYER0003
  6
CONTINUOUS
 62
       7
100
AcDbLine
 10
-184.67273994
 20
-91.61265326
 30
0.0
 11
-184.63387314
 21
-91.58787838
 31
0.0
  0
LINE
  5
3B5
100
AcDbEntity
  8
LAYER0003
  6
CONTINUOUS
 62
       7
100
AcDbLine
 10
-184.63387314
 20
-91.58787838
 30
0.0
 11
-184.59424929
 21
-91.56454795
 31
0.0
  0
LINE
  5
3B6
100
AcDbEntity
  8
LAYER0003
  6
CONTINUOUS
 62
       7
100
AcDbLine
 10
-184.59424929
 20
-91.56454795
 30
0.0
 11
-184.55392509
 21
-91.54266301
 31
0.0
  0
LINE
  5
3B7
100
AcDbEntity
  8
LAYER0003
  6
CONTINUOUS
 62
       7
100
AcDbLine
 10
-184.55392509
 20
-91.54266301
 30
0.0
 11
-184.5129572
 21
-91.52222457
 31
0.0
  0
LINE
  5
3B8
100
AcDbEntity
  8
LAYER0003
  6
CONTINUOUS
 62
       7
100
AcDbLine
 10
-184.5129572
 20
-91.52222457
 30
0.0
 11
-184.47140233
 21
-91.50323367
 31
0.0
  0
LINE
  5
3B9
100
AcDbEntity
  8
LAYER0003
  6
CONTINUOUS
 62
       7
100
AcDbLine
 10
-184.47140233
 20
-91.50323367
 30
0.0
 11
-184.42931714
 21
-91.48569133
 31
0.0
  0
LINE
  5
3BA
100
AcDbEntity
  8
LAYER0003
  6
CONTINUOUS
 62
       7
100
AcDbLine
 10
-184.42931714
 20
-91.48569133
 30
0.0
 11
-184.38675831
 21
-91.46959858
 31
0.0
  0
LINE
  5
3BB
100
AcDbEntity
  8
LAYER0003
  6
CONTINUOUS
 62
       7
100
AcDbLine
 10
-184.38675831
 20
-91.46959858
 30
0.0
 11
-184.34378255
 21
-91.45495645
 31
0.0
  0
LINE
  5
3BC
100
AcDbEntity
  8
LAYER0003
  6
CONTINUOUS
 62
       7
100
AcDbLine
 10
-184.34378255
 20
-91.45495645
 30
0.0
 11
-184.3004465
 21
-91.44176595
 31
0.0
  0
LINE
  5
3BD
100
AcDbEntity
  8
LAYER0003
  6
CONTINUOUS
 62
       7
100
AcDbLine
 10
-184.3004465
 20
-91.44176595
 30
0.0
 11
-184.25680663
 21
-91.43002707
 31
0.0
  0
LINE
  5
3BE
100
AcDbEntity
  8
LAYER0003
  6
CONTINUOUS
 62
       7
100
AcDbLine
 10
-184.25680663
 20
-91.43002707
 30
0.0
 11
-184.21290633
 21
-91.41968932
 31
0.0
  0
LINE
  5
3BF
100
AcDbEntity
  8
LAYER0003
  6
CONTINUOUS
 62
       7
100
AcDbLine
 10
-184.21290633
 20
-91.41968932
 30
0.0
 11
-184.16877057
 21
-91.4106303
 31
0.0
  0
LINE
  5
3C0
100
AcDbEntity
  8
LAYER0003
  6
CONTINUOUS
 62
       7
100
AcDbLine
 10
-184.16877057
 20
-91.4106303
 30
0.0
 11
-184.1244229
 21
-91.40272215
 31
0.0
  0
LINE
  5
3C1
100
AcDbEntity
  8
LAYER0003
  6
CONTINUOUS
 62
       7
100
AcDbLine
 10
-184.1244229
 20
-91.40272215
 30
0.0
 11
-184.07988687
 21
-91.395837
 31
0.0
  0
LINE
  5
3C2
100
AcDbEntity
  8
LAYER0003
  6
CONTINUOUS
 62
       7
100
AcDbLine
 10
-184.07988687
 20
-91.395837
 30
0.0
 11
-184.03518602
 21
-91.38984697
 31
0.0
  0
LINE
  5
3C3
100
AcDbEntity
  8
LAYER0003
  6
CONTINUOUS
 62
       7
100
AcDbLine
 10
-184.03518602
 20
-91.38984697
 30
0.0
 11
-183.99034389
 21
-91.38462418
 31
0.0
  0
LINE
  5
3C4
100
AcDbEntity
  8
LAYER0003
  6
CONTINUOUS
 62
       7
100
AcDbLine
 10
-183.99034389
 20
-91.38462418
 30
0.0
 11
-183.94538404
 21
-91.38004076
 31
0.0
  0
LINE
  5
3C5
100
AcDbEntity
  8
LAYER0003
  6
CONTINUOUS
 62
       7
100
AcDbLine
 10
-183.94538404
 20
-91.38004076
 30
0.0
 11
-183.90033
 21
-91.37596884
 31
0.0
  0
LINE
  5
3C6
100
AcDbEntity
  8
LAYER0003
  6
CONTINUOUS
 62
       7
100
AcDbLine
 10
-183.90033
 20
-91.37596884
 30
0.0
 11
-183.85520533
 21
-91.37228055
 31
0.0
  0
LINE
  5
3C7
100
AcDbEntity
  8
LAYER0003
  6
CONTINUOUS
 62
       7
100
AcDbLine
 10
-183.85520533
 20
-91.37228055
 30
0.0
 11
-183.81003356
 21
-91.368848
 31
0.0
  0
LINE
  5
3C8
100
AcDbEntity
  8
LAYER0003
  6
CONTINUOUS
 62
       7
100
AcDbLine
 10
-183.81003356
 20
-91.368848
 30
0.0
 11
-183.76483825
 21
-91.36554332
 31
0.0
  0
LINE
  5
3C9
100
AcDbEntity
  8
LAYER0003
  6
CONTINUOUS
 62
       7
100
AcDbLine
 10
-183.76483825
 20
-99.86554285
 30
0.0
 11
-183.81024347
 21
-99.86125886
 31
0.0
  0
LINE
  5
3CA
100
AcDbEntity
  8
LAYER0003
  6
CONTINUOUS
 62
       7
100
AcDbLine
 10
-183.81024347
 20
-99.86125886
 30
0.0
 11
-183.85562048
 21
-99.85687066
 31
0.0
  0
LINE
  5
3CB
100
AcDbEntity
  8
LAYER0003
  6
CONTINUOUS
 62
       7
100
AcDbLine
 10
-183.85562048
 20
-99.85687066
 30
0.0
 11
-183.90094105
 21
-99.85227409
 31
0.0
  0
LINE
  5
3CC
100
AcDbEntity
  8
LAYER0003
  6
CONTINUOUS
 62
       7
100
AcDbLine
 10
-183.90094105
 20
-99.85227409
 30
0.0
 11
-183.94617699
 21
-99.84736493
 31
0.0
  0
LINE
  5
3CD
100
AcDbEntity
  8
LAYER0003
  6
CONTINUOUS
 62
       7
100
AcDbLine
 10
-183.94617699
 20
-99.84736493
 30
0.0
 11
-183.9913001
 21
-99.842039
 31
0.0
  0
LINE
  5
3CE
100
AcDbEntity
  8
LAYER0003
  6
CONTINUOUS
 62
       7
100
AcDbLine
 10
-183.9913001
 20
-99.842039
 30
0.0
 11
-184.03628214
 21
-99.8361921
 31
0.0
  0
LINE
  5
3CF
100
AcDbEntity
  8
LAYER0003
  6
CONTINUOUS
 62
       7
100
AcDbLine
 10
-184.03628214
 20
-99.8361921
 30
0.0
 11
-184.0810949
 21
-99.82972005
 31
0.0
  0
LINE
  5
3D0
100
AcDbEntity
  8
LAYER0003
  6
CONTINUOUS
 62
       7
100
AcDbLine
 10
-184.0810949
 20
-99.82972005
 30
0.0
 11
-184.12571018
 21
-99.82251864
 31
0.0
  0
LINE
  5
3D1
100
AcDbEntity
  8
LAYER0003
  6
CONTINUOUS
 62
       7
100
AcDbLine
 10
-184.12571018
 20
-99.82251864
 30
0.0
 11
-184.17009976
 21
-99.81448369
 31
0.0
  0
LINE
  5
3D2
100
AcDbEntity
  8
LAYER0003
  6
CONTINUOUS
 62
       7
100
AcDbLine
 10
-184.17009976
 20
-99.81448369
 30
0.0
 11
-184.21423543
 21
-99.805511
 31
0.0
  0
LINE
  5
3D3
100
AcDbEntity
  8
LAYER0003
  6
CONTINUOUS
 62
       7
100
AcDbLine
 10
-184.21423543
 20
-99.805511
 30
0.0
 11
-184.258089
 21
-99.79549638
 31
0.0
  0
LINE
  5
3D4
100
AcDbEntity
  8
LAYER0003
  6
CONTINUOUS
 62
       7
100
AcDbLine
 10
-184.258089
 20
-99.79549638
 30
0.0
 11
-184.30163222
 21
-99.78433563
 31
0.0
  0
LINE
  5
3D5
100
AcDbEntity
  8
LAYER0003
  6
CONTINUOUS
 62
       7
100
AcDbLine
 10
-184.30163222
 20
-99.78433563
 30
0.0
 11
-184.34483691
 21
-99.77192457
 31
0.0
  0
LINE
  5
3D6
100
AcDbEntity
  8
LAYER0003
  6
CONTINUOUS
 62
       7
100
AcDbLine
 10
-184.34483691
 20
-99.77192457
 30
0.0
 11
-184.38767482
 21
-99.75815899
 31
0.0
  0
LINE
  5
3D7
100
AcDbEntity
  8
LAYER0003
  6
CONTINUOUS
 62
       7
100
AcDbLine
 10
-184.38767482
 20
-99.75815899
 30
0.0
 11
-184.43011779
 21
-99.74293471
 31
0.0
  0
LINE
  5
3D8
100
AcDbEntity
  8
LAYER0003
  6
CONTINUOUS
 62
       7
100
AcDbLine
 10
-184.43011779
 20
-99.74293471
 30
0.0
 11
-184.47213623
 21
-99.72615104
 31
0.0
  0
LINE
  5
3D9
100
AcDbEntity
  8
LAYER0003
  6
CONTINUOUS
 62
       7
100
AcDbLine
 10
-184.47213623
 20
-99.72615104
 30
0.0
 11
-184.51367767
 21
-99.7077676
 31
0.0
  0
LINE
  5
3DA
100
AcDbEntity
  8
LAYER0003
  6
CONTINUOUS
 62
       7
100
AcDbLine
 10
-184.51367767
 20
-99.7077676
 30
0.0
 11
-184.55467034
 21
-99.68779468
 31
0.0
  0
LINE
  5
3DB
100
AcDbEntity
  8
LAYER0003
  6
CONTINUOUS
 62
       7
100
AcDbLine
 10
-184.55467034
 20
-99.68779468
 30
0.0
 11
-184.59504192
 21
-99.66624413
 31
0.0
  0
LINE
  5
3DC
100
AcDbEntity
  8
LAYER0003
  6
CONTINUOUS
 62
       7
100
AcDbLine
 10
-184.59504192
 20
-99.66624413
 30
0.0
 11
-184.63472001
 21
-99.64312782
 31
0.0
  0
LINE
  5
3DD
100
AcDbEntity
  8
LAYER0003
  6
CONTINUOUS
 62
       7
100
AcDbLine
 10
-184.63472001
 20
-99.64312782
 30
0.0
 11
-184.67363229
 21
-99.61845761
 31
0.0
  0
LINE
  5
3DE
100
AcDbEntity
  8
LAYER0003
  6
CONTINUOUS
 62
       7
100
AcDbLine
 10
-184.67363229
 20
-99.61845761
 30
0.0
 11
-184.71170637
 21
-99.59224538
 31
0.0
  0
LINE
  5
3DF
100
AcDbEntity
  8
LAYER0003
  6
CONTINUOUS
 62
       7
100
AcDbLine
 10
-184.71170637
 20
-99.59224538
 30
0.0
 11
-184.7488699
 21
-99.56450298
 31
0.0
  0
LINE
  5
3E0
100
AcDbEntity
  8
LAYER0003
  6
CONTINUOUS
 62
       7
100
AcDbLine
 10
-184.7488699
 20
-99.56450298
 30
0.0
 11
-184.78505052
 21
-99.53524227
 31
0.0
  0
LINE
  5
3E1
100
AcDbEntity
  8
LAYER0003
  6
CONTINUOUS
 62
       7
100
AcDbLine
 10
-184.78505052
 20
-99.53524227
 30
0.0
 11
-184.82017205
 21
-99.50447162
 31
0.0
  0
LINE
  5
3E2
100
AcDbEntity
  8
LAYER0003
  6
CONTINUOUS
 62
       7
100
AcDbLine
 10
-184.82017205
 20
-99.50447162
 30
0.0
 11
-184.85413072
 21
-99.47217401
 31
0.0
  0
LINE
  5
3E3
100
AcDbEntity
  8
LAYER0003
  6
CONTINUOUS
 62
       7
100
AcDbLine
 10
-184.85413072
 20
-99.47217401
 30
0.0
 11
-184.88681067
 21
-99.43832134
 31
0.0
  0
LINE
  5
3E4
100
AcDbEntity
  8
LAYER0003
  6
CONTINUOUS
 62
       7
100
AcDbLine
 10
-184.88681067
 20
-99.43832134
 30
0.0
 11
-184.91809597
 21
-99.40288544
 31
0.0
  0
LINE
  5
3E5
100
AcDbEntity
  8
LAYER0003
  6
CONTINUOUS
 62
       7
100
AcDbLine
 10
-184.91809597
 20
-99.40288544
 30
0.0
 11
-184.94787072
 21
-99.36583816
 31
0.0
  0
LINE
  5
3E6
100
AcDbEntity
  8
LAYER0003
  6
CONTINUOUS
 62
       7
100
AcDbLine
 10
-184.94787072
 20
-99.36583816
 30
0.0
 11
-184.97601901
 21
-99.32715134
 31
0.0
  0
LINE
  5
3E7
100
AcDbEntity
  8
LAYER0003
  6
CONTINUOUS
 62
       7
100
AcDbLine
 10
-184.97601901
 20
-99.32715134
 30
0.0
 11
-185.00242489
 21
-99.28679683
 31
0.0
  0
LINE
  5
3E8
100
AcDbEntity
  8
LAYER0003
  6
CONTINUOUS
 62
       7
100
AcDbLine
 10
-185.00242489
 20
-99.28679683
 30
0.0
 11
-185.02692154
 21
-99.24477995
 31
0.0
  0
LINE
  5
3E9
100
AcDbEntity
  8
LAYER0003
  6
CONTINUOUS
 62
       7
100
AcDbLine
 10
-185.02692154
 20
-99.24477995
 30
0.0
 11
-185.04917612
 21
-99.20121525
 31
0.0
  0
LINE
  5
3EA
100
AcDbEntity
  8
LAYER0003
  6
CONTINUOUS
 62
       7
100
AcDbLine
 10
-185.04917612
 20
-99.20121525
 30
0.0
 11
-185.06882198
 21
-99.15623949
 31
0.0
  0
LINE
  5
3EB
100
AcDbEntity
  8
LAYER0003
  6
CONTINUOUS
 62
       7
100
AcDbLine
 10
-185.06882198
 20
-99.15623949
 30
0.0
 11
-185.08549248
 21
-99.10998945
 31
0.0
  0
LINE
  5
3EC
100
AcDbEntity
  8
LAYER0003
  6
CONTINUOUS
 62
       7
100
AcDbLine
 10
-185.08549248
 20
-99.10998945
 30
0.0
 11
-185.09882098
 21
-99.0626019
 31
0.0
  0
LINE
  5
3ED
100
AcDbEntity
  8
LAYER0003
  6
CONTINUOUS
 62
       7
100
AcDbLine
 10
-185.09882098
 20
-99.0626019
 30
0.0
 11
-185.10858631
 21
-99.01422635
 31
0.0
  0
LINE
  5
3EE
100
AcDbEntity
  8
LAYER0003
  6
CONTINUOUS
 62
       7
100
AcDbLine
 10
-185.10858631
 20
-99.01422635
 30
0.0
 11
-185.11543734
 21
-98.9650886
 31
0.0
  0
LINE
  5
3EF
100
AcDbEntity
  8
LAYER0003
  6
CONTINUOUS
 62
       7
100
AcDbLine
 10
-185.11543734
 20
-98.9650886
 30
0.0
 11
-185.12034519
 21
-98.91544269
 31
0.0
  0
LINE
  5
3F0
100
AcDbEntity
  8
LAYER0003
  6
CONTINUOUS
 62
       7
100
AcDbLine
 10
-185.12034519
 20
-98.91544269
 30
0.0
 11
-185.12428144
 21
-98.86554269
 31
0.0
  0
LINE
  5
3F1
100
AcDbEntity
  8
LAYER0003
  6
CONTINUOUS
 62
       7
100
AcDbLine
 10
-157.21655228
 20
-98.86554269
 30
0.0
 11
-157.22175361
 21
-98.91556775
 31
0.0
  0
LINE
  5
3F2
100
AcDbEntity
  8
LAYER0003
  6
CONTINUOUS
 62
       7
100
AcDbLine
 10
-157.22175361
 20
-98.91556775
 30
0.0
 11
-157.22766249
 21
-98.96534308
 31
0.0
  0
LINE
  5
3F3
100
AcDbEntity
  8
LAYER0003
  6
CONTINUOUS
 62
       7
100
AcDbLine
 10
-157.22766249
 20
-98.96534308
 30
0.0
 11
-157.23498647
 21
-99.01461899
 31
0.0
  0
LINE
  5
3F4
100
AcDbEntity
  8
LAYER0003
  6
CONTINUOUS
 62
       7
100
AcDbLine
 10
-157.23498647
 20
-99.01461899
 30
0.0
 11
-157.24443314
 21
-99.06314574
 31
0.0
  0
LINE
  5
3F5
100
AcDbEntity
  8
LAYER0003
  6
CONTINUOUS
 62
       7
100
AcDbLine
 10
-157.24443314
 20
-99.06314574
 30
0.0
 11
-157.25671003
 21
-99.11067362
 31
0.0
  0
LINE
  5
3F6
100
AcDbEntity
  8
LAYER0003
  6
CONTINUOUS
 62
       7
100
AcDbLine
 10
-157.25671003
 20
-99.11067362
 30
0.0
 11
-157.27242846
 21
-99.15696771
 31
0.0
  0
LINE
  5
3F7
100
AcDbEntity
  8
LAYER0003
  6
CONTINUOUS
 62
       7
100
AcDbLine
 10
-157.27242846
 20
-99.15696771
 30
0.0
 11
-157.29149772
 21
-99.20190089
 31
0.0
  0
LINE
  5
3F8
100
AcDbEntity
  8
LAYER0003
  6
CONTINUOUS
 62
       7
100
AcDbLine
 10
-157.29149772
 20
-99.20190089
 30
0.0
 11
-157.31351624
 21
-99.24539384
 31
0.0
  0
LINE
  5
3F9
100
AcDbEntity
  8
LAYER0003
  6
CONTINUOUS
 62
       7
100
AcDbLine
 10
-157.31351624
 20
-99.24539384
 30
0.0
 11
-157.33808102
 21
-99.28736744
 31
0.0
  0
LINE
  5
3FA
100
AcDbEntity
  8
LAYER0003
  6
CONTINUOUS
 62
       7
100
AcDbLine
 10
-157.33808102
 20
-99.28736744
 30
0.0
 11
-157.36478906
 21
-99.32774255
 31
0.0
  0
LINE
  5
3FB
100
AcDbEntity
  8
LAYER0003
  6
CONTINUOUS
 62
       7
100
AcDbLine
 10
-157.36478906
 20
-99.32774255
 30
0.0
 11
-157.39325046
 21
-99.36644494
 31
0.0
  0
LINE
  5
3FC
100
AcDbEntity
  8
LAYER0003
  6
CONTINUOUS
 62
       7
100
AcDbLine
 10
-157.39325046
 20
-99.36644494
 30
0.0
 11
-157.42324665
 21
-99.40346435
 31
0.0
  0
LINE
  5
3FD
100
AcDbEntity
  8
LAYER0003
  6
CONTINUOUS
 62
       7
100
AcDbLine
 10
-157.42324665
 20
-99.40346435
 30
0.0
 11
-157.45467938
 21
-99.43883547
 31
0.0
  0
LINE
  5
3FE
100
AcDbEntity
  8
LAYER0003
  6
CONTINUOUS
 62
       7
100
AcDbLine
 10
-157.45467938
 20
-99.43883547
 30
0.0
 11
-157.48745293
 21
-99.47259388
 31
0.0
  0
LINE
  5
3FF
100
AcDbEntity
  8
LAYER0003
  6
CONTINUOUS
 62
       7
100
AcDbLine
 10
-157.48745293
 20
-99.47259388
 30
0.0
 11
-157.52147157
 21
-99.50477521
 31
0.0
  0
LINE
  5
400
100
AcDbEntity
  8
LAYER0003
  6
CONTINUOUS
 62
       7
100
AcDbLine
 10
-157.52147157
 20
-99.50477521
 30
0.0
 11
-157.55663955
 21
-99.53541505
 31
0.0
  0
LINE
  5
401
100
AcDbEntity
  8
LAYER0003
  6
CONTINUOUS
 62
       7
100
AcDbLine
 10
-157.55663955
 20
-99.53541505
 30
0.0
 11
-157.59286114
 21
-99.56454903
 31
0.0
  0
LINE
  5
402
100
AcDbEntity
  8
LAYER0003
  6
CONTINUOUS
 62
       7
100
AcDbLine
 10
-157.59286114
 20
-99.56454903
 30
0.0
 11
-157.63004067
 21
-99.59221269
 31
0.0
  0
LINE
  5
403
100
AcDbEntity
  8
LAYER0003
  6
CONTINUOUS
 62
       7
100
AcDbLine
 10
-157.63004067
 20
-99.59221269
 30
0.0
 11
-157.66809379
 21
-99.61843095
 31
0.0
  0
LINE
  5
404
100
AcDbEntity
  8
LAYER0003
  6
CONTINUOUS
 62
       7
100
AcDbLine
 10
-157.66809379
 20
-99.61843095
 30
0.0
 11
-157.70696062
 21
-99.64320579
 31
0.0
  0
LINE
  5
405
100
AcDbEntity
  8
LAYER0003
  6
CONTINUOUS
 62
       7
100
AcDbLine
 10
-157.70696062
 20
-99.64320579
 30
0.0
 11
-157.74658448
 21
-99.66653619
 31
0.0
  0
LINE
  5
406
100
AcDbEntity
  8
LAYER0003
  6
CONTINUOUS
 62
       7
100
AcDbLine
 10
-157.74658448
 20
-99.66653619
 30
0.0
 11
-157.78690872
 21
-99.68842111
 31
0.0
  0
LINE
  5
407
100
AcDbEntity
  8
LAYER0003
  6
CONTINUOUS
 62
       7
100
AcDbLine
 10
-157.78690872
 20
-99.68842111
 30
0.0
 11
-157.8278766
 21
-99.70885953
 31
0.0
  0
LINE
  5
408
100
AcDbEntity
  8
LAYER0003
  6
CONTINUOUS
 62
       7
100
AcDbLine
 10
-157.8278766
 20
-99.70885953
 30
0.0
 11
-157.86943149
 21
-99.72785044
 31
0.0
  0
LINE
  5
409
100
AcDbEntity
  8
LAYER0003
  6
CONTINUOUS
 62
       7
100
AcDbLine
 10
-157.86943149
 20
-99.72785044
 30
0.0
 11
-157.91151667
 21
-99.74539279
 31
0.0
  0
LINE
  5
40A
100
AcDbEntity
  8
LAYER0003
  6
CONTINUOUS
 62
       7
100
AcDbLine
 10
-157.91151667
 20
-99.74539279
 30
0.0
 11
-157.9540755
 21
-99.76148558
 31
0.0
  0
LINE
  5
40B
100
AcDbEntity
  8
LAYER0003
  6
CONTINUOUS
 62
       7
100
AcDbLine
 10
-157.9540755
 20
-99.76148558
 30
0.0
 11
-157.99705125
 21
-99.77612776
 31
0.0
  0
LINE
  5
40C
100
AcDbEntity
  8
LAYER0003
  6
CONTINUOUS
 62
       7
100
AcDbLine
 10
-157.99705125
 20
-99.77612776
 30
0.0
 11
-158.04038728
 21
-99.78931833
 31
0.0
  0
LINE
  5
40D
100
AcDbEntity
  8
LAYER0003
  6
CONTINUOUS
 62
       7
100
AcDbLine
 10
-158.04038728
 20
-99.78931833
 30
0.0
 11
-158.08402716
 21
-99.80105729
 31
0.0
  0
LINE
  5
40E
100
AcDbEntity
  8
LAYER0003
  6
CONTINUOUS
 62
       7
100
AcDbLine
 10
-158.08402716
 20
-99.80105729
 30
0.0
 11
-158.12792745
 21
-99.81139515
 31
0.0
  0
LINE
  5
40F
100
AcDbEntity
  8
LAYER0003
  6
CONTINUOUS
 62
       7
100
AcDbLine
 10
-158.12792745
 20
-99.81139515
 30
0.0
 11
-158.1720632
 21
-99.82045429
 31
0.0
  0
LINE
  5
410
100
AcDbEntity
  8
LAYER0003
  6
CONTINUOUS
 62
       7
100
AcDbLine
 10
-158.1720632
 20
-99.82045429
 30
0.0
 11
-158.21641086
 21
-99.82836257
 31
0.0
  0
LINE
  5
411
100
AcDbEntity
  8
LAYER0003
  6
CONTINUOUS
 62
       7
100
AcDbLine
 10
-158.21641086
 20
-99.82836257
 30
0.0
 11
-158.26094689
 21
-99.83524788
 31
0.0
  0
LINE
  5
412
100
AcDbEntity
  8
LAYER0003
  6
CONTINUOUS
 62
       7
100
AcDbLine
 10
-158.26094689
 20
-99.83524788
 30
0.0
 11
-158.30564774
 21
-99.84123807
 31
0.0
  0
LINE
  5
413
100
AcDbEntity
  8
LAYER0003
  6
CONTINUOUS
 62
       7
100
AcDbLine
 10
-158.30564774
 20
-99.84123807
 30
0.0
 11
-158.35048985
 21
-99.84646104
 31
0.0
  0
LINE
  5
414
100
AcDbEntity
  8
LAYER0003
  6
CONTINUOUS
 62
       7
100
AcDbLine
 10
-158.35048985
 20
-99.84646104
 30
0.0
 11
-158.39544969
 21
-99.85104463
 31
0.0
  0
LINE
  5
415
100
AcDbEntity
  8
LAYER0003
  6
CONTINUOUS
 62
       7
100
AcDbLine
 10
-158.39544969
 20
-99.85104463
 30
0.0
 11
-158.44050374
 21
-99.85511674
 31
0.0
  0
LINE
  5
416
100
AcDbEntity
  8
LAYER0003
  6
CONTINUOUS
 62
       7
100
AcDbLine
 10
-158.44050374
 20
-99.85511674
 30
0.0
 11
-158.4856284
 21
-99.85880523
 31
0.0
  0
LINE
  5
417
100
AcDbEntity
  8
LAYER0003
  6
CONTINUOUS
 62
       7
100
AcDbLine
 10
-158.4856284
 20
-99.85880523
 30
0.0
 11
-158.53080016
 21
-99.86223798
 31
0.0
  0
LINE
  5
418
100
AcDbEntity
  8
LAYER0003
  6
CONTINUOUS
 62
       7
100
AcDbLine
 10
-158.53080016
 20
-99.86223798
 30
0.0
 11
-158.57599547
 21
-99.86554285
 31
0.0
  0
LINE
  5
419
100
AcDbEntity
  8
LAYER0003
  6
CONTINUOUS
 62
       7
100
AcDbLine
 10
0.97144528
 20
58.38445841
 30
0.0
 11
1.00960484
 21
58.37765766
 31
0.0
  0
LINE
  5
41A
100
AcDbEntity
  8
LAYER0003
  6
CONTINUOUS
 62
       7
100
AcDbLine
 10
1.00960484
 20
58.37765766
 30
0.0
 11
1.04772396
 21
58.37047203
 31
0.0
  0
LINE
  5
41B
100
AcDbEntity
  8
LAYER0003
  6
CONTINUOUS
 62
       7
100
AcDbLine
 10
1.04772396
 20
58.37047203
 30
0.0
 11
1.0857622
 21
58.36251665
 31
0.0
  0
LINE
  5
41C
100
AcDbEntity
  8
LAYER0003
  6
CONTINUOUS
 62
       7
100
AcDbLine
 10
1.0857622
 20
58.36251665
 30
0.0
 11
1.12367913
 21
58.35340663
 31
0.0
  0
LINE
  5
41D
100
AcDbEntity
  8
LAYER0003
  6
CONTINUOUS
 62
       7
100
AcDbLine
 10
1.12367913
 20
58.35340663
 30
0.0
 11
1.16143427
 21
58.3427571
 31
0.0
  0
LINE
  5
41E
100
AcDbEntity
  8
LAYER0003
  6
CONTINUOUS
 62
       7
100
AcDbLine
 10
1.16143427
 20
58.3427571
 30
0.0
 11
1.1989872
 21
58.33018317
 31
0.0
  0
LINE
  5
41F
100
AcDbEntity
  8
LAYER0003
  6
CONTINUOUS
 62
       7
100
AcDbLine
 10
1.1989872
 20
58.33018317
 30
0.0
 11
1.2362975
 21
58.31529997
 31
0.0
  0
LINE
  5
420
100
AcDbEntity
  8
LAYER0003
  6
CONTINUOUS
 62
       7
100
AcDbLine
 10
1.2362975
 20
58.31529997
 30
0.0
 11
1.2733247
 21
58.29772262
 31
0.0
  0
LINE
  5
421
100
AcDbEntity
  8
LAYER0003
  6
CONTINUOUS
 62
       7
100
AcDbLine
 10
1.2733247
 20
58.29772262
 30
0.0
 11
1.31002802
 21
58.27707279
 31
0.0
  0
LINE
  5
422
100
AcDbEntity
  8
LAYER0003
  6
CONTINUOUS
 62
       7
100
AcDbLine
 10
1.31002802
 20
58.27707279
 30
0.0
 11
1.34635432
 21
58.25320378
 31
0.0
  0
LINE
  5
423
100
AcDbEntity
  8
LAYER0003
  6
CONTINUOUS
 62
       7
100
AcDbLine
 10
1.34635432
 20
58.25320378
 30
0.0
 11
1.38223509
 21
58.2262571
 31
0.0
  0
LINE
  5
424
100
AcDbEntity
  8
LAYER0003
  6
CONTINUOUS
 62
       7
100
AcDbLine
 10
1.38223509
 20
58.2262571
 30
0.0
 11
1.41760086
 21
58.19639229
 31
0.0
  0
LINE
  5
425
100
AcDbEntity
  8
LAYER0003
  6
CONTINUOUS
 62
       7
100
AcDbLine
 10
1.41760086
 20
58.19639229
 30
0.0
 11
1.45238217
 21
58.16376889
 31
0.0
  0
LINE
  5
426
100
AcDbEntity
  8
LAYER0003
  6
CONTINUOUS
 62
       7
100
AcDbLine
 10
1.45238217
 20
58.16376889
 30
0.0
 11
1.48650952
 21
58.12854645
 31
0.0
  0
LINE
  5
427
100
AcDbEntity
  8
LAYER0003
  6
CONTINUOUS
 62
       7
100
AcDbLine
 10
1.48650952
 20
58.12854645
 30
0.0
 11
1.51991345
 21
58.09088453
 31
0.0
  0
LINE
  5
428
100
AcDbEntity
  8
LAYER0003
  6
CONTINUOUS
 62
       7
100
AcDbLine
 10
1.51991345
 20
58.09088453
 30
0.0
 11
1.5525245
 21
58.05094265
 31
0.0
  0
LINE
  5
429
100
AcDbEntity
  8
LAYER0003
  6
CONTINUOUS
 62
       7
100
AcDbLine
 10
1.5525245
 20
58.05094265
 30
0.0
 11
1.5842732
 21
58.00888037
 31
0.0
  0
LINE
  5
42A
100
AcDbEntity
  8
LAYER0003
  6
CONTINUOUS
 62
       7
100
AcDbLine
 10
1.5842732
 20
58.00888037
 30
0.0
 11
1.61509347
 21
57.96484662
 31
0.0
  0
LINE
  5
42B
100
AcDbEntity
  8
LAYER0003
  6
CONTINUOUS
 62
       7
100
AcDbLine
 10
1.61509347
 20
57.96484662
 30
0.0
 11
1.64494191
 21
57.91891957
 31
0.0
  0
LINE
  5
42C
100
AcDbEntity
  8
LAYER0003
  6
CONTINUOUS
 62
       7
100
AcDbLine
 10
1.64494191
 20
57.91891957
 30
0.0
 11
1.67378439
 21
57.87114844
 31
0.0
  0
LINE
  5
42D
100
AcDbEntity
  8
LAYER0003
  6
CONTINUOUS
 62
       7
100
AcDbLine
 10
1.67378439
 20
57.87114844
 30
0.0
 11
1.70158682
 21
57.82158238
 31
0.0
  0
LINE
  5
42E
100
AcDbEntity
  8
LAYER0003
  6
CONTINUOUS
 62
       7
100
AcDbLine
 10
1.70158682
 20
57.82158238
 30
0.0
 11
1.7283151
 21
57.7702705
 31
0.0
  0
LINE
  5
42F
100
AcDbEntity
  8
LAYER0003
  6
CONTINUOUS
 62
       7
100
AcDbLine
 10
1.7283151
 20
57.7702705
 30
0.0
 11
1.75393511
 21
57.71726197
 31
0.0
  0
LINE
  5
430
100
AcDbEntity
  8
LAYER0003
  6
CONTINUOUS
 62
       7
100
AcDbLine
 10
1.75393511
 20
57.71726197
 30
0.0
 11
1.77841276
 21
57.66260589
 31
0.0
  0
LINE
  5
431
100
AcDbEntity
  8
LAYER0003
  6
CONTINUOUS
 62
       7
100
AcDbLine
 10
1.77841276
 20
57.66260589
 30
0.0
 11
1.80171396
 21
57.60635143
 31
0.0
  0
LINE
  5
432
100
AcDbEntity
  8
LAYER0003
  6
CONTINUOUS
 62
       7
100
AcDbLine
 10
1.80171396
 20
57.60635143
 30
0.0
 11
1.82380448
 21
57.54854788
 31
0.0
  0
LINE
  5
433
100
AcDbEntity
  8
LAYER0003
  6
CONTINUOUS
 62
       7
100
AcDbLine
 10
1.82380448
 20
57.54854788
 30
0.0
 11
1.84463502
 21
57.48926493
 31
0.0
  0
LINE
  5
434
100
AcDbEntity
  8
LAYER0003
  6
CONTINUOUS
 62
       7
100
AcDbLine
 10
1.84463502
 20
57.48926493
 30
0.0
 11
1.86412759
 21
57.4286112
 31
0.0
  0
LINE
  5
435
100
AcDbEntity
  8
LAYER0003
  6
CONTINUOUS
 62
       7
100
AcDbLine
 10
1.86412759
 20
57.4286112
 30
0.0
 11
1.88220091
 21
57.36669969
 31
0.0
  0
LINE
  5
436
100
AcDbEntity
  8
LAYER0003
  6
CONTINUOUS
 62
       7
100
AcDbLine
 10
1.88220091
 20
57.36669969
 30
0.0
 11
1.89877374
 21
57.30364341
 31
0.0
  0
LINE
  5
437
100
AcDbEntity
  8
LAYER0003
  6
CONTINUOUS
 62
       7
100
AcDbLine
 10
1.89877374
 20
57.30364341
 30
0.0
 11
1.91376478
 21
57.23955535
 31
0.0
  0
LINE
  5
438
100
AcDbEntity
  8
LAYER0003
  6
CONTINUOUS
 62
       7
100
AcDbLine
 10
1.91376478
 20
57.23955535
 30
0.0
 11
1.92709281
 21
57.17454853
 31
0.0
  0
LINE
  5
439
100
AcDbEntity
  8
LAYER0003
  6
CONTINUOUS
 62
       7
100
AcDbLine
 10
1.92709281
 20
57.17454853
 30
0.0
 11
1.93867653
 21
57.10873594
 31
0.0
  0
LINE
  5
43A
100
AcDbEntity
  8
LAYER0003
  6
CONTINUOUS
 62
       7
100
AcDbLine
 10
1.93867653
 20
57.10873594
 30
0.0
 11
1.94843472
 21
57.0422306
 31
0.0
  0
LINE
  5
43B
100
AcDbEntity
  8
LAYER0003
  6
CONTINUOUS
 62
       7
100
AcDbLine
 10
1.94843472
 20
57.0422306
 30
0.0
 11
1.95630779
 21
56.97514461
 31
0.0
  0
LINE
  5
43C
100
AcDbEntity
  8
LAYER0003
  6
CONTINUOUS
 62
       7
100
AcDbLine
 10
1.95630779
 20
56.97514461
 30
0.0
 11
1.96248037
 21
56.90758006
 31
0.0
  0
LINE
  5
43D
100
AcDbEntity
  8
LAYER0003
  6
CONTINUOUS
 62
       7
100
AcDbLine
 10
1.96248037
 20
56.90758006
 30
0.0
 11
1.96729063
 21
56.83963275
 31
0.0
  0
LINE
  5
43E
100
AcDbEntity
  8
LAYER0003
  6
CONTINUOUS
 62
       7
100
AcDbLine
 10
1.96729063
 20
56.83963275
 30
0.0
 11
1.97107915
 21
56.77139836
 31
0.0
  0
LINE
  5
43F
100
AcDbEntity
  8
LAYER0003
  6
CONTINUOUS
 62
       7
100
AcDbLine
 10
1.97107915
 20
56.77139836
 30
0.0
 11
1.97418651
 21
56.70297259
 31
0.0
  0
LINE
  5
440
100
AcDbEntity
  8
LAYER0003
  6
CONTINUOUS
 62
       7
100
AcDbLine
 10
1.97418651
 20
56.70297259
 30
0.0
 11
1.97695329
 21
56.63445113
 31
0.0
  0
LINE
  5
441
100
AcDbEntity
  8
LAYER0003
  6
CONTINUOUS
 62
       7
100
AcDbLine
 10
1.97695329
 20
46.2344539
 30
0.0
 11
1.97286445
 21
46.1657193
 31
0.0
  0
LINE
  5
442
100
AcDbEntity
  8
LAYER0003
  6
CONTINUOUS
 62
       7
100
AcDbLine
 10
1.97286445
 20
46.1657193
 30
0.0
 11
1.96854719
 21
46.0970887
 31
0.0
  0
LINE
  5
443
100
AcDbEntity
  8
LAYER0003
  6
CONTINUOUS
 62
       7
100
AcDbLine
 10
1.96854719
 20
46.0970887
 30
0.0
 11
1.96377314
 21
46.02866607
 31
0.0
  0
LINE
  5
444
100
AcDbEntity
  8
LAYER0003
  6
CONTINUOUS
 62
       7
100
AcDbLine
 10
1.96377314
 20
46.02866607
 30
0.0
 11
1.9583139
 21
45.96055541
 31
0.0
  0
LINE
  5
445
100
AcDbEntity
  8
LAYER0003
  6
CONTINUOUS
 62
       7
100
AcDbLine
 10
1.9583139
 20
45.96055541
 30
0.0
 11
1.95194107
 21
45.8928607
 31
0.0
  0
LINE
  5
446
100
AcDbEntity
  8
LAYER0003
  6
CONTINUOUS
 62
       7
100
AcDbLine
 10
1.95194107
 20
45.8928607
 30
0.0
 11
1.94442625
 21
45.82568595
 31
0.0
  0
LINE
  5
447
100
AcDbEntity
  8
LAYER0003
  6
CONTINUOUS
 62
       7
100
AcDbLine
 10
1.94442625
 20
45.82568595
 30
0.0
 11
1.93554104
 21
45.75913512
 31
0.0
  0
LINE
  5
448
100
AcDbEntity
  8
LAYER0003
  6
CONTINUOUS
 62
       7
100
AcDbLine
 10
1.93554104
 20
45.75913512
 30
0.0
 11
1.92505706
 21
45.69331223
 31
0.0
  0
LINE
  5
449
100
AcDbEntity
  8
LAYER0003
  6
CONTINUOUS
 62
       7
100
AcDbLine
 10
1.92505706
 20
45.69331223
 30
0.0
 11
1.91274982
 21
45.62832119
 31
0.0
  0
LINE
  5
44A
100
AcDbEntity
  8
LAYER0003
  6
CONTINUOUS
 62
       7
100
AcDbLine
 10
1.91274982
 20
45.62832119
 30
0.0
 11
1.89853545
 21
45.564264
 31
0.0
  0
LINE
  5
44B
100
AcDbEntity
  8
LAYER0003
  6
CONTINUOUS
 62
       7
100
AcDbLine
 10
1.89853545
 20
45.564264
 30
0.0
 11
1.88250529
 21
45.50124022
 31
0.0
  0
LINE
  5
44C
100
AcDbEntity
  8
LAYER0003
  6
CONTINUOUS
 62
       7
100
AcDbLine
 10
1.88250529
 20
45.50124022
 30
0.0
 11
1.86476172
 21
45.43934925
 31
0.0
  0
LINE
  5
44D
100
AcDbEntity
  8
LAYER0003
  6
CONTINUOUS
 62
       7
100
AcDbLine
 10
1.86476172
 20
45.43934925
 30
0.0
 11
1.8454071
 21
45.3786905
 31
0.0
  0
LINE
  5
44E
100
AcDbEntity
  8
LAYER0003
  6
CONTINUOUS
 62
       7
100
AcDbLine
 10
1.8454071
 20
45.3786905
 30
0.0
 11
1.82454381
 21
45.31936337
 31
0.0
  0
LINE
  5
44F
100
AcDbEntity
  8
LAYER0003
  6
CONTINUOUS
 62
       7
100
AcDbLine
 10
1.82454381
 20
45.31936337
 30
0.0
 11
1.8022742
 21
45.26146728
 31
0.0
  0
LINE
  5
450
100
AcDbEntity
  8
LAYER0003
  6
CONTINUOUS
 62
       7
100
AcDbLine
 10
1.8022742
 20
45.26146728
 30
0.0
 11
1.77870066
 21
45.20510163
 31
0.0
  0
LINE
  5
451
100
AcDbEntity
  8
LAYER0003
  6
CONTINUOUS
 62
       7
100
AcDbLine
 10
1.77870066
 20
45.20510163
 30
0.0
 11
1.75392553
 21
45.15036583
 31
0.0
  0
LINE
  5
452
100
AcDbEntity
  8
LAYER0003
  6
CONTINUOUS
 62
       7
100
AcDbLine
 10
1.75392553
 20
45.15036583
 30
0.0
 11
1.72804476
 21
45.09735437
 31
0.0
  0
LINE
  5
453
100
AcDbEntity
  8
LAYER0003
  6
CONTINUOUS
 62
       7
100
AcDbLine
 10
1.72804476
 20
45.09735437
 30
0.0
 11
1.70111096
 21
45.04612895
 31
0.0
  0
LINE
  5
454
100
AcDbEntity
  8
LAYER0003
  6
CONTINUOUS
 62
       7
100
AcDbLine
 10
1.70111096
 20
45.04612895
 30
0.0
 11
1.67315898
 21
44.99673773
 31
0.0
  0
LINE
  5
455
100
AcDbEntity
  8
LAYER0003
  6
CONTINUOUS
 62
       7
100
AcDbLine
 10
1.67315898
 20
44.99673773
 30
0.0
 11
1.64422364
 21
44.94922886
 31
0.0
  0
LINE
  5
456
100
AcDbEntity
  8
LAYER0003
  6
CONTINUOUS
 62
       7
100
AcDbLine
 10
1.64422364
 20
44.94922886
 30
0.0
 11
1.61433973
 21
44.90365047
 31
0.0
  0
LINE
  5
457
100
AcDbEntity
  8
LAYER0003
  6
CONTINUOUS
 62
       7
100
AcDbLine
 10
1.61433973
 20
44.90365047
 30
0.0
 11
1.58354205
 21
44.86005072
 31
0.0
  0
LINE
  5
458
100
AcDbEntity
  8
LAYER0003
  6
CONTINUOUS
 62
       7
100
AcDbLine
 10
1.58354205
 20
44.86005072
 30
0.0
 11
1.55186539
 21
44.81847774
 31
0.0
  0
LINE
  5
459
100
AcDbEntity
  8
LAYER0003
  6
CONTINUOUS
 62
       7
100
AcDbLine
 10
1.55186539
 20
44.81847774
 30
0.0
 11
1.51934457
 21
44.77897966
 31
0.0
  0
LINE
  5
45A
100
AcDbEntity
  8
LAYER0003
  6
CONTINUOUS
 62
       7
100
AcDbLine
 10
1.51934457
 20
44.77897966
 30
0.0
 11
1.48601448
 21
44.74160484
 31
0.0
  0
LINE
  5
45B
100
AcDbEntity
  8
LAYER0003
  6
CONTINUOUS
 62
       7
100
AcDbLine
 10
1.48601448
 20
44.74160484
 30
0.0
 11
1.45192239
 21
44.70642591
 31
0.0
  0
LINE
  5
45C
100
AcDbEntity
  8
LAYER0003
  6
CONTINUOUS
 62
       7
100
AcDbLine
 10
1.45192239
 20
44.70642591
 30
0.0
 11
1.41713975
 21
44.67356309
 31
0.0
  0
LINE
  5
45D
100
AcDbEntity
  8
LAYER0003
  6
CONTINUOUS
 62
       7
100
AcDbLine
 10
1.41713975
 20
44.67356309
 30
0.0
 11
1.38174086
 21
44.64314207
 31
0.0
  0
LINE
  5
45E
100
AcDbEntity
  8
LAYER0003
  6
CONTINUOUS
 62
       7
100
AcDbLine
 10
1.38174086
 20
44.64314207
 30
0.0
 11
1.34579992
 21
44.61528857
 31
0.0
  0
LINE
  5
45F
100
AcDbEntity
  8
LAYER0003
  6
CONTINUOUS
 62
       7
100
AcDbLine
 10
1.34579992
 20
44.61528857
 30
0.0
 11
1.30939125
 21
44.5901283
 31
0.0
  0
LINE
  5
460
100
AcDbEntity
  8
LAYER0003
  6
CONTINUOUS
 62
       7
100
AcDbLine
 10
1.30939125
 20
44.5901283
 30
0.0
 11
1.27258909
 21
44.56778696
 31
0.0
  0
LINE
  5
461
100
AcDbEntity
  8
LAYER0003
  6
CONTINUOUS
 62
       7
100
AcDbLine
 10
1.27258909
 20
44.56778696
 30
0.0
 11
1.23546772
 21
44.54839025
 31
0.0
  0
LINE
  5
462
100
AcDbEntity
  8
LAYER0003
  6
CONTINUOUS
 62
       7
100
AcDbLine
 10
1.23546772
 20
44.54839025
 30
0.0
 11
1.19810136
 21
44.53206389
 31
0.0
  0
LINE
  5
463
100
AcDbEntity
  8
LAYER0003
  6
CONTINUOUS
 62
       7
100
AcDbLine
 10
1.19810136
 20
44.53206389
 30
0.0
 11
1.16056188
 21
44.51889877
 31
0.0
  0
LINE
  5
464
100
AcDbEntity
  8
LAYER0003
  6
CONTINUOUS
 62
       7
100
AcDbLine
 10
1.16056188
 20
44.51889877
 30
0.0
 11
1.12289323
 21
44.50858485
 31
0.0
  0
LINE
  5
465
100
AcDbEntity
  8
LAYER0003
  6
CONTINUOUS
 62
       7
100
AcDbLine
 10
1.12289323
 20
44.50858485
 30
0.0
 11
1.08512146
 21
44.50055524
 31
0.0
  0
LINE
  5
466
100
AcDbEntity
  8
LAYER0003
  6
CONTINUOUS
 62
       7
100
AcDbLine
 10
1.08512146
 20
44.50055524
 30
0.0
 11
1.04727237
 21
44.49423887
 31
0.0
  0
LINE
  5
467
100
AcDbEntity
  8
LAYER0003
  6
CONTINUOUS
 62
       7
100
AcDbLine
 10
1.04727237
 20
44.49423887
 30
0.0
 11
1.00937171
 21
44.48906466
 31
0.0
  0
LINE
  5
468
100
AcDbEntity
  8
LAYER0003
  6
CONTINUOUS
 62
       7
100
AcDbLine
 10
1.00937171
 20
44.48906466
 30
0.0
 11
0.97144528
 21
44.48446153
 31
0.0
  0
LINE
  5
469
100
AcDbEntity
  8
LAYER0003
  6
CONTINUOUS
 62
       7
100
AcDbLine
 10
-1.20586396
 20
-91.36554332
 30
0.0
 11
-1.18444735
 21
-91.36982717
 31
0.0
  0
LINE
  5
46A
100
AcDbEntity
  8
LAYER0003
  6
CONTINUOUS
 62
       7
100
AcDbLine
 10
-1.18444735
 20
-91.36982717
 30
0.0
 11
-1.163037
 21
-91.37421522
 31
0.0
  0
LINE
  5
46B
100
AcDbEntity
  8
LAYER0003
  6
CONTINUOUS
 62
       7
100
AcDbLine
 10
-1.163037
 20
-91.37421522
 30
0.0
 11
-1.14163917
 21
-91.37881165
 31
0.0
  0
LINE
  5
46C
100
AcDbEntity
  8
LAYER0003
  6
CONTINUOUS
 62
       7
100
AcDbLine
 10
-1.14163917
 20
-91.37881165
 30
0.0
 11
-1.12026011
 21
-91.38372066
 31
0.0
  0
LINE
  5
46D
100
AcDbEntity
  8
LAYER0003
  6
CONTINUOUS
 62
       7
100
AcDbLine
 10
-1.12026011
 20
-91.38372066
 30
0.0
 11
-1.09890607
 21
-91.38904645
 31
0.0
  0
LINE
  5
46E
100
AcDbEntity
  8
LAYER0003
  6
CONTINUOUS
 62
       7
100
AcDbLine
 10
-1.09890607
 20
-91.38904645
 30
0.0
 11
-1.07758331
 21
-91.39489321
 31
0.0
  0
LINE
  5
46F
100
AcDbEntity
  8
LAYER0003
  6
CONTINUOUS
 62
       7
100
AcDbLine
 10
-1.07758331
 20
-91.39489321
 30
0.0
 11
-1.0562981
 21
-91.40136513
 31
0.0
  0
LINE
  5
470
100
AcDbEntity
  8
LAYER0003
  6
CONTINUOUS
 62
       7
100
AcDbLine
 10
-1.0562981
 20
-91.40136513
 30
0.0
 11
-1.03505668
 21
-91.40856641
 31
0.0
  0
LINE
  5
471
100
AcDbEntity
  8
LAYER0003
  6
CONTINUOUS
 62
       7
100
AcDbLine
 10
-1.03505668
 20
-91.40856641
 30
0.0
 11
-1.01386531
 21
-91.41660124
 31
0.0
  0
LINE
  5
472
100
AcDbEntity
  8
LAYER0003
  6
CONTINUOUS
 62
       7
100
AcDbLine
 10
-1.01386531
 20
-91.41660124
 30
0.0
 11
-0.99273025
 21
-91.42557382
 31
0.0
  0
LINE
  5
473
100
AcDbEntity
  8
LAYER0003
  6
CONTINUOUS
 62
       7
100
AcDbLine
 10
-0.99273025
 20
-91.42557382
 30
0.0
 11
-0.97165776
 21
-91.43558834
 31
0.0
  0
LINE
  5
474
100
AcDbEntity
  8
LAYER0003
  6
CONTINUOUS
 62
       7
100
AcDbLine
 10
-0.97165776
 20
-91.43558834
 30
0.0
 11
-0.9506541
 21
-91.44674899
 31
0.0
  0
LINE
  5
475
100
AcDbEntity
  8
LAYER0003
  6
CONTINUOUS
 62
       7
100
AcDbLine
 10
-0.9506541
 20
-91.44674899
 30
0.0
 11
-0.92972551
 21
-91.45915996
 31
0.0
  0
LINE
  5
476
100
AcDbEntity
  8
LAYER0003
  6
CONTINUOUS
 62
       7
100
AcDbLine
 10
-0.92972551
 20
-91.45915996
 30
0.0
 11
-0.90887826
 21
-91.47292546
 31
0.0
  0
LINE
  5
477
100
AcDbEntity
  8
LAYER0003
  6
CONTINUOUS
 62
       7
100
AcDbLine
 10
-0.90887826
 20
-91.47292546
 30
0.0
 11
-0.88811859
 21
-91.48814967
 31
0.0
  0
LINE
  5
478
100
AcDbEntity
  8
LAYER0003
  6
CONTINUOUS
 62
       7
100
AcDbLine
 10
-0.88811859
 20
-91.48814967
 30
0.0
 11
-0.86745396
 21
-91.50493328
 31
0.0
  0
LINE
  5
479
100
AcDbEntity
  8
LAYER0003
  6
CONTINUOUS
 62
       7
100
AcDbLine
 10
-0.86745396
 20
-91.50493328
 30
0.0
 11
-0.84691211
 21
-91.52331667
 31
0.0
  0
LINE
  5
47A
100
AcDbEntity
  8
LAYER0003
  6
CONTINUOUS
 62
       7
100
AcDbLine
 10
-0.84691211
 20
-91.52331667
 30
0.0
 11
-0.82653777
 21
-91.54328957
 31
0.0
  0
LINE
  5
47B
100
AcDbEntity
  8
LAYER0003
  6
CONTINUOUS
 62
       7
100
AcDbLine
 10
-0.82653777
 20
-91.54328957
 30
0.0
 11
-0.80637626
 21
-91.5648401
 31
0.0
  0
LINE
  5
47C
100
AcDbEntity
  8
LAYER0003
  6
CONTINUOUS
 62
       7
100
AcDbLine
 10
-0.80637626
 20
-91.5648401
 30
0.0
 11
-0.78647292
 21
-91.5879564
 31
0.0
  0
LINE
  5
47D
100
AcDbEntity
  8
LAYER0003
  6
CONTINUOUS
 62
       7
100
AcDbLine
 10
-0.78647292
 20
-91.5879564
 30
0.0
 11
-0.76687303
 21
-91.61262661
 31
0.0
  0
LINE
  5
47E
100
AcDbEntity
  8
LAYER0003
  6
CONTINUOUS
 62
       7
100
AcDbLine
 10
-0.76687303
 20
-91.61262661
 30
0.0
 11
-0.74762189
 21
-91.63883886
 31
0.0
  0
LINE
  5
47F
100
AcDbEntity
  8
LAYER0003
  6
CONTINUOUS
 62
       7
100
AcDbLine
 10
-0.74762189
 20
-91.63883886
 30
0.0
 11
-0.72876483
 21
-91.66658129
 31
0.0
  0
LINE
  5
480
100
AcDbEntity
  8
LAYER0003
  6
CONTINUOUS
 62
       7
100
AcDbLine
 10
-0.72876483
 20
-91.66658129
 30
0.0
 11
-0.71034713
 21
-91.69584204
 31
0.0
  0
LINE
  5
481
100
AcDbEntity
  8
LAYER0003
  6
CONTINUOUS
 62
       7
100
AcDbLine
 10
-0.71034713
 20
-91.69584204
 30
0.0
 11
-0.69241577
 21
-91.72661276
 31
0.0
  0
LINE
  5
482
100
AcDbEntity
  8
LAYER0003
  6
CONTINUOUS
 62
       7
100
AcDbLine
 10
-0.69241577
 20
-91.72661276
 30
0.0
 11
-0.67502961
 21
-91.75891043
 31
0.0
  0
LINE
  5
483
100
AcDbEntity
  8
LAYER0003
  6
CONTINUOUS
 62
       7
100
AcDbLine
 10
-0.67502961
 20
-91.75891043
 30
0.0
 11
-0.65825275
 21
-91.79276317
 31
0.0
  0
LINE
  5
484
100
AcDbEntity
  8
LAYER0003
  6
CONTINUOUS
 62
       7
100
AcDbLine
 10
-0.65825275
 20
-91.79276317
 30
0.0
 11
-0.64214931
 21
-91.82819913
 31
0.0
  0
LINE
  5
485
100
AcDbEntity
  8
LAYER0003
  6
CONTINUOUS
 62
       7
100
AcDbLine
 10
-0.64214931
 20
-91.82819913
 30
0.0
 11
-0.6267834
 21
-91.86524645
 31
0.0
  0
LINE
  5
486
100
AcDbEntity
  8
LAYER0003
  6
CONTINUOUS
 62
       7
100
AcDbLine
 10
-0.6267834
 20
-91.86524645
 30
0.0
 11
-0.61221912
 21
-91.9039333
 31
0.0
  0
LINE
  5
487
100
AcDbEntity
  8
LAYER0003
  6
CONTINUOUS
 62
       7
100
AcDbLine
 10
-0.61221912
 20
-91.9039333
 30
0.0
 11
-0.59852059
 21
-91.94428782
 31
0.0
  0
LINE
  5
488
100
AcDbEntity
  8
LAYER0003
  6
CONTINUOUS
 62
       7
100
AcDbLine
 10
-0.59852059
 20
-91.94428782
 30
0.0
 11
-0.58577959
 21
-91.98630466
 31
0.0
  0
LINE
  5
489
100
AcDbEntity
  8
LAYER0003
  6
CONTINUOUS
 62
       7
100
AcDbLine
 10
-0.58577959
 20
-91.98630466
 30
0.0
 11
-0.5741779
 21
-92.02986931
 31
0.0
  0
LINE
  5
48A
100
AcDbEntity
  8
LAYER0003
  6
CONTINUOUS
 62
       7
100
AcDbLine
 10
-0.5741779
 20
-92.02986931
 30
0.0
 11
-0.5639157
 21
-92.07484499
 31
0.0
  0
LINE
  5
48B
100
AcDbEntity
  8
LAYER0003
  6
CONTINUOUS
 62
       7
100
AcDbLine
 10
-0.5639157
 20
-92.07484499
 30
0.0
 11
-0.55519313
 21
-92.12109496
 31
0.0
  0
LINE
  5
48C
100
AcDbEntity
  8
LAYER0003
  6
CONTINUOUS
 62
       7
100
AcDbLine
 10
-0.55519313
 20
-92.12109496
 30
0.0
 11
-0.5482104
 21
-92.16848246
 31
0.0
  0
LINE
  5
48D
100
AcDbEntity
  8
LAYER0003
  6
CONTINUOUS
 62
       7
100
AcDbLine
 10
-0.5482104
 20
-92.16848246
 30
0.0
 11
-0.5430906
 21
-92.21685798
 31
0.0
  0
LINE
  5
48E
100
AcDbEntity
  8
LAYER0003
  6
CONTINUOUS
 62
       7
100
AcDbLine
 10
-0.5430906
 20
-92.21685798
 30
0.0
 11
-0.53949612
 21
-92.26599571
 31
0.0
  0
LINE
  5
48F
100
AcDbEntity
  8
LAYER0003
  6
CONTINUOUS
 62
       7
100
AcDbLine
 10
-0.53949612
 20
-92.26599571
 30
0.0
 11
-0.53691867
 21
-92.31564162
 31
0.0
  0
LINE
  5
490
100
AcDbEntity
  8
LAYER0003
  6
CONTINUOUS
 62
       7
100
AcDbLine
 10
-0.53691867
 20
-92.31564162
 30
0.0
 11
-0.53484977
 21
-92.36554162
 31
0.0
  0
LINE
  5
491
100
AcDbEntity
  8
LAYER0003
  6
CONTINUOUS
 62
       7
100
AcDbLine
 10
-0.53484977
 20
-98.86554269
 30
0.0
 11
-0.53758632
 21
-98.91556775
 31
0.0
  0
LINE
  5
492
100
AcDbEntity
  8
LAYER0003
  6
CONTINUOUS
 62
       7
100
AcDbLine
 10
-0.53758632
 20
-98.91556775
 30
0.0
 11
-0.54069175
 21
-98.96534308
 31
0.0
  0
LINE
  5
493
100
AcDbEntity
  8
LAYER0003
  6
CONTINUOUS
 62
       7
100
AcDbLine
 10
-0.54069175
 20
-98.96534308
 30
0.0
 11
-0.54453497
 21
-99.01461899
 31
0.0
  0
LINE
  5
494
100
AcDbEntity
  8
LAYER0003
  6
CONTINUOUS
 62
       7
100
AcDbLine
 10
-0.54453497
 20
-99.01461899
 30
0.0
 11
-0.54948489
 21
-99.06314574
 31
0.0
  0
LINE
  5
495
100
AcDbEntity
  8
LAYER0003
  6
CONTINUOUS
 62
       7
100
AcDbLine
 10
-0.54948489
 20
-99.06314574
 30
0.0
 11
-0.55591041
 21
-99.11067362
 31
0.0
  0
LINE
  5
496
100
AcDbEntity
  8
LAYER0003
  6
CONTINUOUS
 62
       7
100
AcDbLine
 10
-0.55591041
 20
-99.11067362
 30
0.0
 11
-0.5641294
 21
-99.15696771
 31
0.0
  0
LINE
  5
497
100
AcDbEntity
  8
LAYER0003
  6
CONTINUOUS
 62
       7
100
AcDbLine
 10
-0.5641294
 20
-99.15696771
 30
0.0
 11
-0.57408786
 21
-99.20190089
 31
0.0
  0
LINE
  5
498
100
AcDbEntity
  8
LAYER0003
  6
CONTINUOUS
 62
       7
100
AcDbLine
 10
-0.57408786
 20
-99.20190089
 30
0.0
 11
-0.58556706
 21
-99.24539384
 31
0.0
  0
LINE
  5
499
100
AcDbEntity
  8
LAYER0003
  6
CONTINUOUS
 62
       7
100
AcDbLine
 10
-0.58556706
 20
-99.24539384
 30
0.0
 11
-0.59834754
 21
-99.28736744
 31
0.0
  0
LINE
  5
49A
100
AcDbEntity
  8
LAYER0003
  6
CONTINUOUS
 62
       7
100
AcDbLine
 10
-0.59834754
 20
-99.28736744
 30
0.0
 11
-0.61220981
 21
-99.32774255
 31
0.0
  0
LINE
  5
49B
100
AcDbEntity
  8
LAYER0003
  6
CONTINUOUS
 62
       7
100
AcDbLine
 10
-0.61220981
 20
-99.32774255
 30
0.0
 11
-0.62694148
 21
-99.36644494
 31
0.0
  0
LINE
  5
49C
100
AcDbEntity
  8
LAYER0003
  6
CONTINUOUS
 62
       7
100
AcDbLine
 10
-0.62694148
 20
-99.36644494
 30
0.0
 11
-0.64242276
 21
-99.40346435
 31
0.0
  0
LINE
  5
49D
100
AcDbEntity
  8
LAYER0003
  6
CONTINUOUS
 62
       7
100
AcDbLine
 10
-0.64242276
 20
-99.40346435
 30
0.0
 11
-0.65859891
 21
-99.43883547
 31
0.0
  0
LINE
  5
49E
100
AcDbEntity
  8
LAYER0003
  6
CONTINUOUS
 62
       7
100
AcDbLine
 10
-0.65859891
 20
-99.43883547
 30
0.0
 11
-0.67541655
 21
-99.47259388
 31
0.0
  0
LINE
  5
49F
100
AcDbEntity
  8
LAYER0003
  6
CONTINUOUS
 62
       7
100
AcDbLine
 10
-0.67541655
 20
-99.47259388
 30
0.0
 11
-0.69282228
 21
-99.50477521
 31
0.0
  0
LINE
  5
4A0
100
AcDbEntity
  8
LAYER0003
  6
CONTINUOUS
 62
       7
100
AcDbLine
 10
-0.69282228
 20
-99.50477521
 30
0.0
 11
-0.71076272
 21
-99.53541505
 31
0.0
  0
LINE
  5
4A1
100
AcDbEntity
  8
LAYER0003
  6
CONTINUOUS
 62
       7
100
AcDbLine
 10
-0.71076272
 20
-99.53541505
 30
0.0
 11
-0.72918447
 21
-99.56454903
 31
0.0
  0
LINE
  5
4A2
100
AcDbEntity
  8
LAYER0003
  6
CONTINUOUS
 62
       7
100
AcDbLine
 10
-0.72918447
 20
-99.56454903
 30
0.0
 11
-0.74803418
 21
-99.59221269
 31
0.0
  0
LINE
  5
4A3
100
AcDbEntity
  8
LAYER0003
  6
CONTINUOUS
 62
       7
100
AcDbLine
 10
-0.74803418
 20
-99.59221269
 30
0.0
 11
-0.76726402
 21
-99.61843095
 31
0.0
  0
LINE
  5
4A4
100
AcDbEntity
  8
LAYER0003
  6
CONTINUOUS
 62
       7
100
AcDbLine
 10
-0.76726402
 20
-99.61843095
 30
0.0
 11
-0.7868381
 21
-99.64320579
 31
0.0
  0
LINE
  5
4A5
100
AcDbEntity
  8
LAYER0003
  6
CONTINUOUS
 62
       7
100
AcDbLine
 10
-0.7868381
 20
-99.64320579
 30
0.0
 11
-0.80672211
 21
-99.66653619
 31
0.0
  0
LINE
  5
4A6
100
AcDbEntity
  8
LAYER0003
  6
CONTINUOUS
 62
       7
100
AcDbLine
 10
-0.80672211
 20
-99.66653619
 30
0.0
 11
-0.82688173
 21
-99.68842111
 31
0.0
  0
LINE
  5
4A7
100
AcDbEntity
  8
LAYER0003
  6
CONTINUOUS
 62
       7
100
AcDbLine
 10
-0.82688173
 20
-99.68842111
 30
0.0
 11
-0.84728264
 21
-99.70885953
 31
0.0
  0
LINE
  5
4A8
100
AcDbEntity
  8
LAYER0003
  6
CONTINUOUS
 62
       7
100
AcDbLine
 10
-0.84728264
 20
-99.70885953
 30
0.0
 11
-0.86789052
 21
-99.72785044
 31
0.0
  0
LINE
  5
4A9
100
AcDbEntity
  8
LAYER0003
  6
CONTINUOUS
 62
       7
100
AcDbLine
 10
-0.86789052
 20
-99.72785044
 30
0.0
 11
-0.88867104
 21
-99.74539279
 31
0.0
  0
LINE
  5
4AA
100
AcDbEntity
  8
LAYER0003
  6
CONTINUOUS
 62
       7
100
AcDbLine
 10
-0.88867104
 20
-99.74539279
 30
0.0
 11
-0.9095899
 21
-99.76148558
 31
0.0
  0
LINE
  5
4AB
100
AcDbEntity
  8
LAYER0003
  6
CONTINUOUS
 62
       7
100
AcDbLine
 10
-0.9095899
 20
-99.76148558
 30
0.0
 11
-0.93061276
 21
-99.77612776
 31
0.0
  0
LINE
  5
4AC
100
AcDbEntity
  8
LAYER0003
  6
CONTINUOUS
 62
       7
100
AcDbLine
 10
-0.93061276
 20
-99.77612776
 30
0.0
 11
-0.95170531
 21
-99.78931833
 31
0.0
  0
LINE
  5
4AD
100
AcDbEntity
  8
LAYER0003
  6
CONTINUOUS
 62
       7
100
AcDbLine
 10
-0.95170531
 20
-99.78931833
 30
0.0
 11
-0.97283352
 21
-99.80105729
 31
0.0
  0
LINE
  5
4AE
100
AcDbEntity
  8
LAYER0003
  6
CONTINUOUS
 62
       7
100
AcDbLine
 10
-0.97283352
 20
-99.80105729
 30
0.0
 11
-0.99397627
 21
-99.81139515
 31
0.0
  0
LINE
  5
4AF
100
AcDbEntity
  8
LAYER0003
  6
CONTINUOUS
 62
       7
100
AcDbLine
 10
-0.99397627
 20
-99.81139515
 30
0.0
 11
-1.01513097
 21
-99.82045429
 31
0.0
  0
LINE
  5
4B0
100
AcDbEntity
  8
LAYER0003
  6
CONTINUOUS
 62
       7
100
AcDbLine
 10
-1.01513097
 20
-99.82045429
 30
0.0
 11
-1.03629644
 21
-99.82836257
 31
0.0
  0
LINE
  5
4B1
100
AcDbEntity
  8
LAYER0003
  6
CONTINUOUS
 62
       7
100
AcDbLine
 10
-1.03629644
 20
-99.82836257
 30
0.0
 11
-1.05747146
 21
-99.83524788
 31
0.0
  0
LINE
  5
4B2
100
AcDbEntity
  8
LAYER0003
  6
CONTINUOUS
 62
       7
100
AcDbLine
 10
-1.05747146
 20
-99.83524788
 30
0.0
 11
-1.07865485
 21
-99.84123807
 31
0.0
  0
LINE
  5
4B3
100
AcDbEntity
  8
LAYER0003
  6
CONTINUOUS
 62
       7
100
AcDbLine
 10
-1.07865485
 20
-99.84123807
 30
0.0
 11
-1.09984542
 21
-99.84646104
 31
0.0
  0
LINE
  5
4B4
100
AcDbEntity
  8
LAYER0003
  6
CONTINUOUS
 62
       7
100
AcDbLine
 10
-1.09984542
 20
-99.84646104
 30
0.0
 11
-1.12104195
 21
-99.85104463
 31
0.0
  0
LINE
  5
4B5
100
AcDbEntity
  8
LAYER0003
  6
CONTINUOUS
 62
       7
100
AcDbLine
 10
-1.12104195
 20
-99.85104463
 30
0.0
 11
-1.14224327
 21
-99.85511674
 31
0.0
  0
LINE
  5
4B6
100
AcDbEntity
  8
LAYER0003
  6
CONTINUOUS
 62
       7
100
AcDbLine
 10
-1.14224327
 20
-99.85511674
 30
0.0
 11
-1.16344818
 21
-99.85880523
 31
0.0
  0
LINE
  5
4B7
100
AcDbEntity
  8
LAYER0003
  6
CONTINUOUS
 62
       7
100
AcDbLine
 10
-1.16344818
 20
-99.85880523
 30
0.0
 11
-1.18465547
 21
-99.86223798
 31
0.0
  0
LINE
  5
4B8
100
AcDbEntity
  8
LAYER0003
  6
CONTINUOUS
 62
       7
100
AcDbLine
 10
-1.18465547
 20
-99.86223798
 30
0.0
 11
-1.20586396
 21
-99.86554285
 31
0.0
  0
LINE
  5
4B9
100
AcDbEntity
  8
LAYER0003
  6
CONTINUOUS
 62
       7
100
AcDbLine
 10
-188.74363938
 20
-198.44750085
 30
0.0
 11
-188.73811428
 21
-198.44349523
 31
0.0
  0
LINE
  5
4BA
100
AcDbEntity
  8
LAYER0003
  6
CONTINUOUS
 62
       7
100
AcDbLine
 10
-188.73811428
 20
-198.44349523
 30
0.0
 11
-188.73227561
 21
-198.43926593
 31
0.0
  0
LINE
  5
4BB
100
AcDbEntity
  8
LAYER0003
  6
CONTINUOUS
 62
       7
100
AcDbLine
 10
-188.73227561
 20
-198.43926593
 30
0.0
 11
-188.72580981
 21
-198.43458926
 31
0.0
  0
LINE
  5
4BC
100
AcDbEntity
  8
LAYER0003
  6
CONTINUOUS
 62
       7
100
AcDbLine
 10
-188.72580981
 20
-198.43458926
 30
0.0
 11
-188.71840329
 21
-198.42924155
 31
0.0
  0
LINE
  5
4BD
100
AcDbEntity
  8
LAYER0003
  6
CONTINUOUS
 62
       7
100
AcDbLine
 10
-188.71840329
 20
-198.42924155
 30
0.0
 11
-188.70974253
 21
-198.42299912
 31
0.0
  0
LINE
  5
4BE
100
AcDbEntity
  8
LAYER0003
  6
CONTINUOUS
 62
       7
100
AcDbLine
 10
-188.70974253
 20
-198.42299912
 30
0.0
 11
-188.69951392
 21
-198.41563827
 31
0.0
  0
LINE
  5
4BF
100
AcDbEntity
  8
LAYER0003
  6
CONTINUOUS
 62
       7
100
AcDbLine
 10
-188.69951392
 20
-198.41563827
 30
0.0
 11
-188.68740391
 21
-198.40693534
 31
0.0
  0
LINE
  5
4C0
100
AcDbEntity
  8
LAYER0003
  6
CONTINUOUS
 62
       7
100
AcDbLine
 10
-188.68740391
 20
-198.40693534
 30
0.0
 11
-188.67309892
 21
-198.39666664
 31
0.0
  0
LINE
  5
4C1
100
AcDbEntity
  8
LAYER0003
  6
CONTINUOUS
 62
       7
100
AcDbLine
 10
-188.67309892
 20
-198.39666664
 30
0.0
 11
-188.65629066
 21
-198.38461236
 31
0.0
  0
LINE
  5
4C2
100
AcDbEntity
  8
LAYER0003
  6
CONTINUOUS
 62
       7
100
AcDbLine
 10
-188.65629066
 20
-198.38461236
 30
0.0
 11
-188.63685713
 21
-198.37069043
 31
0.0
  0
LINE
  5
4C3
100
AcDbEntity
  8
LAYER0003
  6
CONTINUOUS
 62
       7
100
AcDbLine
 10
-188.63685713
 20
-198.37069043
 30
0.0
 11
-188.61490878
 21
-198.35499055
 31
0.0
  0
LINE
  5
4C4
100
AcDbEntity
  8
LAYER0003
  6
CONTINUOUS
 62
       7
100
AcDbLine
 10
-188.61490878
 20
-198.35499055
 30
0.0
 11
-188.59057069
 21
-198.33761322
 31
0.0
  0
LINE
  5
4C5
100
AcDbEntity
  8
LAYER0003
  6
CONTINUOUS
 62
       7
100
AcDbLine
 10
-188.59057069
 20
-198.33761322
 30
0.0
 11
-188.5639679
 21
-198.31865894
 31
0.0
  0
LINE
  5
4C6
100
AcDbEntity
  8
LAYER0003
  6
CONTINUOUS
 62
       7
100
AcDbLine
 10
-188.5639679
 20
-198.31865894
 30
0.0
 11
-188.53522548
 21
-198.2982282
 31
0.0
  0
LINE
  5
4C7
100
AcDbEntity
  8
LAYER0003
  6
CONTINUOUS
 62
       7
100
AcDbLine
 10
-188.53522548
 20
-198.2982282
 30
0.0
 11
-188.50446847
 21
-198.27642151
 31
0.0
  0
LINE
  5
4C8
100
AcDbEntity
  8
LAYER0003
  6
CONTINUOUS
 62
       7
100
AcDbLine
 10
-188.50446847
 20
-198.27642151
 30
0.0
 11
-188.47182192
 21
-198.25333935
 31
0.0
  0
LINE
  5
4C9
100
AcDbEntity
  8
LAYER0003
  6
CONTINUOUS
 62
       7
100
AcDbLine
 10
-188.47182192
 20
-198.25333935
 30
0.0
 11
-188.43741093
 21
-198.22908222
 31
0.0
  0
LINE
  5
4CA
100
AcDbEntity
  8
LAYER0003
  6
CONTINUOUS
 62
       7
100
AcDbLine
 10
-188.43741093
 20
-198.22908222
 30
0.0
 11
-188.40135199
 21
-198.20374429
 31
0.0
  0
LINE
  5
4CB
100
AcDbEntity
  8
LAYER0003
  6
CONTINUOUS
 62
       7
100
AcDbLine
 10
-188.40135199
 20
-198.20374429
 30
0.0
 11
-188.3637047
 21
-198.17737729
 31
0.0
  0
LINE
  5
4CC
100
AcDbEntity
  8
LAYER0003
  6
CONTINUOUS
 62
       7
100
AcDbLine
 10
-188.3637047
 20
-198.17737729
 30
0.0
 11
-188.32450518
 21
-198.15001552
 31
0.0
  0
LINE
  5
4CD
100
AcDbEntity
  8
LAYER0003
  6
CONTINUOUS
 62
       7
100
AcDbLine
 10
-188.32450518
 20
-198.15001552
 30
0.0
 11
-188.28378951
 21
-198.12169322
 31
0.0
  0
LINE
  5
4CE
100
AcDbEntity
  8
LAYER0003
  6
CONTINUOUS
 62
       7
100
AcDbLine
 10
-188.28378951
 20
-198.12169322
 30
0.0
 11
-188.24159375
 21
-198.09244465
 31
0.0
  0
LINE
  5
4CF
100
AcDbEntity
  8
LAYER0003
  6
CONTINUOUS
 62
       7
100
AcDbLine
 10
-188.24159375
 20
-198.09244465
 30
0.0
 11
-188.19795398
 21
-198.06230405
 31
0.0
  0
LINE
  5
4D0
100
AcDbEntity
  8
LAYER0003
  6
CONTINUOUS
 62
       7
100
AcDbLine
 10
-188.19795398
 20
-198.06230405
 30
0.0
 11
-188.15290626
 21
-198.03130566
 31
0.0
  0
LINE
  5
4D1
100
AcDbEntity
  8
LAYER0003
  6
CONTINUOUS
 62
       7
100
AcDbLine
 10
-188.15290626
 20
-198.03130566
 30
0.0
 11
-188.10648666
 21
-197.99948374
 31
0.0
  0
LINE
  5
4D2
100
AcDbEntity
  8
LAYER0003
  6
CONTINUOUS
 62
       7
100
AcDbLine
 10
-188.10648666
 20
-197.99948374
 30
0.0
 11
-188.0587314
 21
-197.96687263
 31
0.0
  0
LINE
  5
4D3
100
AcDbEntity
  8
LAYER0003
  6
CONTINUOUS
 62
       7
100
AcDbLine
 10
-188.0587314
 20
-197.96687263
 30
0.0
 11
-188.00969291
 21
-197.9335188
 31
0.0
  0
LINE
  5
4D4
100
AcDbEntity
  8
LAYER0003
  6
CONTINUOUS
 62
       7
100
AcDbLine
 10
-188.00969291
 20
-197.9335188
 30
0.0
 11
-187.95945542
 21
-197.89949247
 31
0.0
  0
LINE
  5
4D5
100
AcDbEntity
  8
LAYER0003
  6
CONTINUOUS
 62
       7
100
AcDbLine
 10
-187.95945542
 20
-197.89949247
 30
0.0
 11
-187.90810685
 21
-197.86486659
 31
0.0
  0
LINE
  5
4D6
100
AcDbEntity
  8
LAYER0003
  6
CONTINUOUS
 62
       7
100
AcDbLine
 10
-187.90810685
 20
-197.86486659
 30
0.0
 11
-187.85573511
 21
-197.82971412
 31
0.0
  0
LINE
  5
4D7
100
AcDbEntity
  8
LAYER0003
  6
CONTINUOUS
 62
       7
100
AcDbLine
 10
-187.85573511
 20
-197.82971412
 30
0.0
 11
-187.80242811
 21
-197.794108
 31
0.0
  0
LINE
  5
4D8
100
AcDbEntity
  8
LAYER0003
  6
CONTINUOUS
 62
       7
100
AcDbLine
 10
-187.80242811
 20
-197.794108
 30
0.0
 11
-187.74827376
 21
-197.75812121
 31
0.0
  0
LINE
  5
4D9
100
AcDbEntity
  8
LAYER0003
  6
CONTINUOUS
 62
       7
100
AcDbLine
 10
-187.74827376
 20
-197.75812121
 30
0.0
 11
-187.69335996
 21
-197.72182668
 31
0.0
  0
LINE
  5
4DA
100
AcDbEntity
  8
LAYER0003
  6
CONTINUOUS
 62
       7
100
AcDbLine
 10
-187.69335996
 20
-197.72182668
 30
0.0
 11
-187.63777463
 21
-197.68529738
 31
0.0
  0
LINE
  5
4DB
100
AcDbEntity
  8
LAYER0003
  6
CONTINUOUS
 62
       7
100
AcDbLine
 10
-187.63777463
 20
-197.68529738
 30
0.0
 11
-187.58160619
 21
-197.64860384
 31
0.0
  0
LINE
  5
4DC
100
AcDbEntity
  8
LAYER0003
  6
CONTINUOUS
 62
       7
100
AcDbLine
 10
-187.58160619
 20
-197.64860384
 30
0.0
 11
-187.52494871
 21
-197.61178856
 31
0.0
  0
LINE
  5
4DD
100
AcDbEntity
  8
LAYER0003
  6
CONTINUOUS
 62
       7
100
AcDbLine
 10
-187.52494871
 20
-197.61178856
 30
0.0
 11
-187.46789998
 21
-197.57487614
 31
0.0
  0
LINE
  5
4DE
100
AcDbEntity
  8
LAYER0003
  6
CONTINUOUS
 62
       7
100
AcDbLine
 10
-187.46789998
 20
-197.57487614
 30
0.0
 11
-187.41055779
 21
-197.53789085
 31
0.0
  0
LINE
  5
4DF
100
AcDbEntity
  8
LAYER0003
  6
CONTINUOUS
 62
       7
100
AcDbLine
 10
-187.41055779
 20
-197.53789085
 30
0.0
 11
-187.35301998
 21
-197.50085698
 31
0.0
  0
LINE
  5
4E0
100
AcDbEntity
  8
LAYER0003
  6
CONTINUOUS
 62
       7
100
AcDbLine
 10
-187.35301998
 20
-197.50085698
 30
0.0
 11
-187.29538435
 21
-197.46379883
 31
0.0
  0
LINE
  5
4E1
100
AcDbEntity
  8
LAYER0003
  6
CONTINUOUS
 62
       7
100
AcDbLine
 10
-3.97755818
 20
-46.40386732
 30
0.0
 11
-1.01457031
 21
-36.40646221
 31
0.0
  0
LINE
  5
4E2
100
AcDbEntity
  8
LAYER0003
  6
CONTINUOUS
 62
       7
100
AcDbLine
 10
-3.97755818
 20
29.67278181
 30
0.0
 11
-1.01457031
 21
19.67536925
 31
0.0
  0
LINE
  5
4E3
100
AcDbEntity
  8
LAYER0003
  6
CONTINUOUS
 62
       7
100
AcDbLine
 10
-131.12041707
 20
-227.76173291
 30
0.0
 11
-131.56699742
 21
-228.53523589
 31
0.0
  0
LINE
  5
4E4
100
AcDbEntity
  8
LAYER0003
  6
CONTINUOUS
 62
       7
100
AcDbLine
 10
-131.56699742
 20
-225.64848445
 30
0.0
 11
-131.12041707
 21
-227.09186005
 31
0.0
  0
LINE
  5
4E5
100
AcDbEntity
  8
LAYER0003
  6
CONTINUOUS
 62
       7
100
AcDbLine
 10
-131.56699742
 20
-228.53523589
 30
0.0
 11
-139.47041686
 21
-228.53523589
 31
0.0
  0
LINE
  5
4E6
100
AcDbEntity
  8
LAYER0003
  6
CONTINUOUS
 62
       7
100
AcDbLine
 10
-131.56699742
 20
-225.64848445
 30
0.0
 11
-139.47041686
 21
-225.64848445
 31
0.0
  0
LINE
  5
4E7
100
AcDbEntity
  8
LAYER0003
  6
CONTINUOUS
 62
       7
100
AcDbLine
 10
-141.33890055
 20
-225.93673298
 30
0.0
 11
-139.47041686
 21
-225.93673298
 31
0.0
  0
LINE
  5
4E8
100
AcDbEntity
  8
LAYER0003
  6
CONTINUOUS
 62
       7
100
AcDbLine
 10
-129.47041522
 20
-217.26173305
 30
0.0
 11
-129.82041742
 21
-217.26173305
 31
0.0
  0
LINE
  5
4E9
100
AcDbEntity
  8
LAYER0003
  6
CONTINUOUS
 62
       7
100
AcDbLine
 10
-129.82041742
 20
-228.26173299
 30
0.0
 11
-129.47041522
 21
-228.26173299
 31
0.0
  0
LINE
  5
4EA
100
AcDbEntity
  8
LAYER0003
  6
CONTINUOUS
 62
       7
100
AcDbLine
 10
-131.12041707
 20
-225.93673298
 30
0.0
 11
-129.82041742
 21
-225.93673298
 31
0.0
  0
LINE
  5
4EB
100
AcDbEntity
  8
LAYER0003
  6
CONTINUOUS
 62
       7
100
AcDbLine
 10
-129.82041742
 20
-219.58673306
 30
0.0
 11
-131.12041707
 21
-219.58673306
 31
0.0
  0
LINE
  5
4EC
100
AcDbEntity
  8
LAYER0003
  6
CONTINUOUS
 62
       7
100
AcDbLine
 10
-131.12041707
 20
-217.76173313
 30
0.0
 11
-131.56699742
 21
-216.98823015
 31
0.0
  0
LINE
  5
4ED
100
AcDbEntity
  8
LAYER0003
  6
CONTINUOUS
 62
       7
100
AcDbLine
 10
-129.82041742
 20
-217.26173305
 30
0.0
 11
-129.82041742
 21
-228.26173299
 31
0.0
  0
LINE
  5
4EE
100
AcDbEntity
  8
LAYER0003
  6
CONTINUOUS
 62
       7
100
AcDbLine
 10
-131.56699742
 20
-219.87498159
 30
0.0
 11
-139.47041686
 21
-219.87498159
 31
0.0
  0
LINE
  5
4EF
100
AcDbEntity
  8
LAYER0003
  6
CONTINUOUS
 62
       7
100
AcDbLine
 10
-131.56699742
 20
-219.87498159
 30
0.0
 11
-131.12041707
 21
-218.43160599
 31
0.0
  0
LINE
  5
4F0
100
AcDbEntity
  8
LAYER0003
  6
CONTINUOUS
 62
       7
100
AcDbLine
 10
-131.12041707
 20
-218.43160599
 30
0.0
 11
-131.12041707
 21
-227.76173291
 31
0.0
  0
LINE
  5
4F1
100
AcDbEntity
  8
LAYER0003
  6
CONTINUOUS
 62
       7
100
AcDbLine
 10
-131.56699742
 20
-216.98823015
 30
0.0
 11
-139.47041686
 21
-216.98823015
 31
0.0
  0
LINE
  5
4F2
100
AcDbEntity
  8
LAYER0003
  6
CONTINUOUS
 62
       7
100
AcDbLine
 10
-139.47041686
 20
-216.98823015
 30
0.0
 11
-139.47041686
 21
-228.53523589
 31
0.0
  0
LINE
  5
4F3
100
AcDbEntity
  8
LAYER0003
  6
CONTINUOUS
 62
       7
100
AcDbLine
 10
-131.12041707
 20
-217.76173313
 30
0.0
 11
-131.12041707
 21
-218.43160599
 31
0.0
  0
LINE
  5
4F4
100
AcDbEntity
  8
LAYER0003
  6
CONTINUOUS
 62
       7
100
AcDbLine
 10
-129.47041522
 20
-229.26173315
 30
0.0
 11
-121.87041695
 21
-229.26173315
 31
0.0
  0
LINE
  5
4F5
100
AcDbEntity
  8
LAYER0003
  6
CONTINUOUS
 62
       7
100
AcDbLine
 10
-129.47041522
 20
-216.26173289
 30
0.0
 11
-129.47041522
 21
-229.26173315
 31
0.0
  0
LINE
  5
4F6
100
AcDbEntity
  8
LAYER0003
  6
CONTINUOUS
 62
       7
100
AcDbLine
 10
-129.47041522
 20
-216.26173289
 30
0.0
 11
-121.87041695
 21
-216.26173289
 31
0.0
  0
LINE
  5
4F7
100
AcDbEntity
  8
LAYER0003
  6
CONTINUOUS
 62
       7
100
AcDbLine
 10
-141.33890055
 20
-219.58673306
 30
0.0
 11
-139.47041686
 21
-219.58673306
 31
0.0
  0
ARC
  5
4F8
100
AcDbEntity
  8
LAYER0003
  6
CONTINUOUS
 62
       7
100
AcDbCircle
 10
-171.17041685
 20
92.63445745
 30
0.0
 40
150.00000001
100
AcDbArc
 50
78.77683926
 51
101.22316074
  0
ARC
  5
4F9
100
AcDbEntity
  8
LAYER0003
  6
CONTINUOUS
 62
       7
100
AcDbCircle
 10
-121.87041685
 20
-24.36554207
 30
0.0
 40
6.49999785
100
AcDbArc
 50
270.00000062
 51
360.00000793
  0
ARC
  5
4FA
100
AcDbEntity
  8
LAYER0003
  6
CONTINUOUS
 62
       7
100
AcDbCircle
 10
72.12958315
 20
-8.01010794
 30
0.0
 40
200.0
100
AcDbArc
 50
177.28207406
 51
180.0
  0
ARC
  5
4FB
100
AcDbEntity
  8
LAYER0003
  6
CONTINUOUS
 62
       7
100
AcDbCircle
 10
-315.87041684
 20
-8.01010794
 30
0.0
 40
199.99999999
100
AcDbArc
 50
0.0
 51
2.71792594
  0
ARC
  5
4FC
100
AcDbEntity
  8
LAYER0003
  6
CONTINUOUS
 62
       7
100
AcDbCircle
 10
-121.87041678
 20
49.23051583
 30
0.0
 40
3.5039415
100
AcDbArc
 50
2.71800617
 51
177.28199383
  0
ARC
  5
4FD
100
AcDbEntity
  8
LAYER0003
  6
CONTINUOUS
 62
       7
100
AcDbCircle
 10
-171.17041686
 20
15.63445745
 30
0.0
 40
12.74999976
100
AcDbArc
 50
0.0
 51
180.0
  0
ARC
  5
4FE
100
AcDbEntity
  8
LAYER0003
  6
CONTINUOUS
 62
       7
100
AcDbCircle
 10
-171.17041686
 20
-32.36554255
 30
0.0
 40
12.74999976
100
AcDbArc
 50
180.00000184
 51
359.99999816
  0
ARC
  5
4FF
100
AcDbEntity
  8
LAYER0003
  6
CONTINUOUS
 62
       7
100
AcDbCircle
 10
26.02244116
 20
92.63445745
 30
0.0
 40
150.00000001
100
AcDbArc
 50
78.77683926
 51
101.22316074
  0
ARC
  5
500
100
AcDbEntity
  8
LAYER0003
  6
CONTINUOUS
 62
       7
100
AcDbCircle
 10
220.02244116
 20
-8.01010794
 30
0.0
 40
200.0
100
AcDbArc
 50
177.28207406
 51
180.0
  0
ARC
  5
501
100
AcDbEntity
  8
LAYER0003
  6
CONTINUOUS
 62
       7
100
AcDbCircle
 10
-167.97755883
 20
-8.01010794
 30
0.0
 40
199.99999999
100
AcDbArc
 50
0.0
 51
2.71792594
  0
ARC
  5
502
100
AcDbEntity
  8
LAYER0003
  6
CONTINUOUS
 62
       7
100
AcDbCircle
 10
26.02244115
 20
49.23051583
 30
0.0
 40
3.50394197
100
AcDbArc
 50
2.71800581
 51
177.28199419
  0
ARC
  5
503
100
AcDbEntity
  8
LAYER0003
  6
CONTINUOUS
 62
       7
100
AcDbCircle
 10
-3.72755894
 20
27.88445752
 30
0.0
 40
0.49999988
100
AcDbArc
 50
90.00007792
 51
143.13010258
  0
ARC
  5
504
100
AcDbEntity
  8
LAYER0003
  6
CONTINUOUS
 62
       7
100
AcDbCircle
 10
-3.72755877
 20
-44.6155425
 30
0.0
 40
0.50000009
100
AcDbArc
 50
216.86989673
 51
269.99992208
  0
ARC
  5
505
100
AcDbEntity
  8
LAYER0003
  6
CONTINUOUS
 62
       7
100
AcDbCircle
 10
-4.97755808
 20
-42.9488753
 30
0.0
 40
0.49999904
100
AcDbArc
 50
180.0
 51
216.86983187
  0
ARC
  5
506
100
AcDbEntity
  8
LAYER0003
  6
CONTINUOUS
 62
       7
100
AcDbCircle
 10
-4.97755797
 20
26.21779014
 30
0.0
 40
0.49999891
100
AcDbArc
 50
143.13020778
 51
180.0
  0
ARC
  5
507
100
AcDbEntity
  8
LAYER0003
  6
CONTINUOUS
 62
       7
100
AcDbCircle
 10
26.02244116
 20
-24.36554255
 30
0.0
 40
6.50000014
100
AcDbArc
 50
179.99999207
 51
360.00000793
  0
CIRCLE
  5
508
100
AcDbEntity
  8
LAYER0003
  6
CONTINUOUS
 62
       7
100
AcDbCircle
 10
-171.17041686
 20
-222.76173302
 30
0.0
 40
15.5
  0
CIRCLE
  5
509
100
AcDbEntity
  8
LAYER0003
  6
CONTINUOUS
 62
       7
100
AcDbCircle
 10
-171.17041686
 20
-222.76173302
 30
0.0
 40
30.0
  0
ARC
  5
50A
100
AcDbEntity
  8
LAYER0003
  6
CONTINUOUS
 62
       7
100
AcDbCircle
 10
-183.42041674
 20
-193.01173302
 30
0.0
 40
0.49999988
100
AcDbArc
 50
126.8698981
 51
179.99992208
  0
ARC
  5
50B
100
AcDbEntity
  8
LAYER0003
  6
CONTINUOUS
 62
       7
100
AcDbCircle
 10
-158.92041566
 20
-193.01173304
 30
0.0
 40
0.49999989
100
AcDbArc
 50
0.00007792
 51
53.13010258
  0
ARC
  5
50C
100
AcDbEntity
  8
LAYER0003
  6
CONTINUOUS
 62
       7
100
AcDbCircle
 10
-160.58708287
 20
-191.76173374
 30
0.0
 40
0.49999972
100
AcDbArc
 50
53.13003566
 51
89.99996104
  0
ARC
  5
50D
100
AcDbEntity
  8
LAYER0003
  6
CONTINUOUS
 62
       7
100
AcDbCircle
 10
-181.75374954
 20
-191.76173374
 30
0.0
 40
0.49999972
100
AcDbArc
 50
90.00003782
 51
126.86996342
  0
CIRCLE
  5
50E
100
AcDbEntity
  8
LAYER0003
  6
CONTINUOUS
 62
       7
100
AcDbCircle
 10
-152.55087067
 20
-212.01173302
 30
0.0
 40
2.0
  0
CIRCLE
  5
50F
100
AcDbEntity
  8
LAYER0003
  6
CONTINUOUS
 62
       7
100
AcDbCircle
 10
-189.78996304
 20
-212.01173302
 30
0.0
 40
2.0
  0
CIRCLE
  5
510
100
AcDbEntity
  8
LAYER0003
  6
CONTINUOUS
 62
       7
100
AcDbCircle
 10
-171.17041686
 20
-244.26173302
 30
0.0
 40
2.0
  0
ARC
  5
511
100
AcDbEntity
  8
LAYER0003
  6
CONTINUOUS
 62
       7
100
AcDbCircle
 10
-200.17041618
 20
238.78506484
 30
0.0
 40
1.00000001
100
AcDbArc
 50
101.22316083
 51
180.0
  0
ARC
  5
512
100
AcDbEntity
  8
LAYER0003
  6
CONTINUOUS
 62
       7
100
AcDbCircle
 10
-142.17041752
 20
238.78506484
 30
0.0
 40
1.0
100
AcDbArc
 50
0.0
 51
78.77683917
  0
ARC
  5
513
100
AcDbEntity
  8
LAYER0003
  6
CONTINUOUS
 62
       7
100
AcDbCircle
 10
-2.97755817
 20
238.78506484
 30
0.0
 40
1.00000001
100
AcDbArc
 50
101.22316083
 51
180.0
  0
ARC
  5
514
100
AcDbEntity
  8
LAYER0003
  6
CONTINUOUS
 62
       7
100
AcDbCircle
 10
55.02244049
 20
238.78506484
 30
0.0
 40
1.0
100
AcDbArc
 50
0.0
 51
78.77683917
  0
ARC
  5
515
100
AcDbEntity
  8
LAYER0003
  6
CONTINUOUS
 62
       7
100
AcDbCircle
 10
-121.87041702
 20
-222.76173302
 30
0.0
 40
6.50000013
100
AcDbArc
 50
270.00000062
 51
449.99999938
  0
LINE
  5
516
100
AcDbEntity
  8
LAYER0003
  6
CENTERX2
 62
       7
100
AcDbLine
 10
-171.17041686
 20
-132.76557636
 30
0.0
 11
-171.17041686
 21
255.94080656
 31
0.0
  0
LINE
  5
517
100
AcDbEntity
  8
LAYER0003
  6
CENTERX2
 62
       7
100
AcDbLine
 10
-189.78996303
 20
-124.86554255
 30
0.0
 11
-189.78996303
 21
-105.06482449
 31
0.0
  0
LINE
  5
518
100
AcDbEntity
  8
LAYER0003
  6
CENTERX2
 62
       7
100
AcDbLine
 10
-152.55087068
 20
-124.86554255
 30
0.0
 11
-152.55087068
 21
-104.3814598
 31
0.0
  0
LINE
  5
519
100
AcDbEntity
  8
LAYER0003
  6
CENTERX2
 62
       7
100
AcDbLine
 10
26.02244116
 20
248.8605683
 30
0.0
 11
26.02244116
 21
-129.04509743
 31
0.0
  0
LINE
  5
51A
100
AcDbEntity
  8
LAYER0003
  6
CENTERX2
 62
       7
100
AcDbLine
 10
15.27244116
 20
-124.86554255
 30
0.0
 11
15.27244116
 21
-104.78006948
 31
0.0
  0
LINE
  5
51B
100
AcDbEntity
  8
LAYER0003
  6
CENTERX2
 62
       7
100
AcDbLine
 10
47.52244115
 20
-124.86554255
 30
0.0
 11
47.52244115
 21
-104.22252241
 31
0.0
  0
LINE
  5
51C
100
AcDbEntity
  8
LAYER0003
  6
CENTERX2
 62
       7
100
AcDbLine
 10
-171.17041686
 20
-222.76173302
 30
0.0
 11
-152.55087067
 21
-212.01173302
 31
0.0
  0
LINE
  5
51D
100
AcDbEntity
  8
LAYER0003
  6
CENTERX2
 62
       7
100
AcDbLine
 10
-171.17041686
 20
-222.76173302
 30
0.0
 11
-189.78996304
 21
-212.01173302
 31
0.0
  0
LINE
  5
51E
100
AcDbEntity
  8
LAYER0003
  6
CENTERX2
 62
       7
100
AcDbLine
 10
-171.17041686
 20
-222.76173302
 30
0.0
 11
-137.31301702
 21
-222.76173302
 31
0.0
  0
LINE
  5
51F
100
AcDbEntity
  8
LAYER0003
  6
CENTERX2
 62
       7
100
AcDbLine
 10
-171.17041686
 20
-222.76173302
 30
0.0
 11
-171.17041686
 21
-255.94080656
 31
0.0
  0
LINE
  5
520
100
AcDbEntity
  8
LAYER0003
  6
CENTERX2
 62
       7
100
AcDbLine
 10
-152.55087068
 20
-215.90480373
 30
0.0
 11
-152.55087068
 21
-207.91717718
 31
0.0
  0
LINE
  5
521
100
AcDbEntity
  8
LAYER0003
  6
CENTERX2
 62
       7
100
AcDbLine
 10
-156.37293114
 20
-212.01173302
 30
0.0
 11
-148.54505712
 21
-212.01173302
 31
0.0
  0
LINE
  5
522
100
AcDbEntity
  8
LAYER0003
  6
CENTERX2
 62
       7
100
AcDbLine
 10
-189.78996303
 20
-216.22430879
 30
0.0
 11
-189.78996303
 21
-208.23668225
 31
0.0
  0
LINE
  5
523
100
AcDbEntity
  8
LAYER0003
  6
CENTERX2
 62
       7
100
AcDbLine
 10
-185.76739682
 20
-212.01173302
 30
0.0
 11
-194.15440468
 21
-212.01173302
 31
0.0
  0
LINE
  5
524
100
AcDbEntity
  8
LAYER0003
  6
CENTERX2
 62
       7
100
AcDbLine
 10
-176.42187376
 20
-244.26173302
 30
0.0
 11
-167.3159795
 21
-244.26173302
 31
0.0
  0
LINE
  5
525
100
AcDbEntity
  8
LAYER0003
  6
CENTERX2
 62
       7
100
AcDbLine
 10
-62.5918766
 20
-24.36554165
 30
0.0
 11
108.62213887
 21
-24.36554165
 31
0.0
  0
CIRCLE
  5
526
100
AcDbEntity
  8
LAYER0003
  6
CENTERX2
 62
       7
100
AcDbCircle
 10
-171.17041686
 20
-222.76173302
 30
0.0
 40
21.5
  0
CIRCLE
  5
527
100
AcDbEntity
  8
LAYER0003
  6
PHANTOM
 62
       7
100
AcDbCircle
 10
26.02244116
 20
-24.36554255
 30
0.0
 40
77.09999999
  0
INSERT
  5
528
100
AcDbEntity
  8
0
  6
CONTINUOUS
100
AcDbBlockReference
  2
GROUP_1
 10
0.0
 20
0.0
 30
0.0
  0
INSERT
  5
529
100
AcDbEntity
  8
0
  6
CONTINUOUS
100
AcDbBlockReference
  2
GROUP_2
 10
0.0
 20
0.0
 30
0.0
  0
INSERT
  5
52A
100
AcDbEntity
  8
0
  6
CONTINUOUS
100
AcDbBlockReference
  2
GROUP_3
 10
0.0
 20
0.0
 30
0.0
  0
INSERT
  5
52B
100
AcDbEntity
  8
0
  6
CONTINUOUS
100
AcDbBlockReference
  2
GROUP_4
 10
0.0
 20
0.0
 30
0.0
  0
TEXT
  5
52C
100
AcDbEntity
  8
LAYER0003
 62
       7
100
AcDbText
 10
179.67302111
 20
-227.61516378
 30
0.0
 40
17.19791667
  1
000
 72
       5
 11
231.26677112
 21
-227.61516378
 31
0.0
100
AcDbText
  0
TEXT
  5
52D
100
AcDbEntity
  8
LAYER0003
 62
       7
100
AcDbText
 10
99.12959147
 20
-103.85230415
 30
0.0
 40
7.9375
  1
Lamp 5 Layers shown
 72
       5
 11
249.94209147
 21
-103.85230415
 31
0.0
100
AcDbText
  0
ENDSEC
  0
SECTION
  2
OBJECTS
  0
DICTIONARY
  5
19
100
AcDbDictionary
  3
ACAD_GROUP
350
1A
  3
ACAD_MLINESTYLE
350
1B
  0
DICTIONARY
  5
1A
102
{ACAD_REACTORS
330
19
102
}
100
AcDbDictionary
  0
DICTIONARY
  5
1B
102
{ACAD_REACTORS
330
19
102
}
100
AcDbDictionary
  3
STANDARD
350
1C
  0
MLINESTYLE
  5
1C
102
{ACAD_REACTORS
330
1B
102
}
100
AcDbMlineStyle
  2
STANDARD
 70
       0
  3

 62
       0
 51
90.0
 52
90.0
 71
       2
 49
0.5
 62
     256
  6
BYLAYER
 49
-0.5
 62
     256
  6
BYLAYER
  0
ENDSEC
  0
EOF
