  0
SECTION
  2
HEADER
  9
$ACADVER
  1
AC1014
  9
$ACADMAINTVER
 70
       0
  9
$DWGCODEPAGE
  3
ANSI_932
  9
$INSBASE
 10
0.0
 20
0.0
 30
0.0
  9
$EXTMIN
 10
-247.73944911
 20
-219.0427434
 30
0.0
  9
$EXTMAX
 10
253.76410279
 20
212.56646042
 30
0.0
  9
$LIMMIN
 10
-263.4114351
 20
-232.53053102
  9
$LIMMAX
 10
269.43608878
 20
226.05424804
  9
$ORTHOMODE
 70
       0
  9
$REGENMODE
 70
       1
  9
$FILLMODE
 70
       1
  9
$QTEXTMODE
 70
       0
  9
$MIRRTEXT
 70
       1
  9
$DRAGMODE
 70
       2
  9
$LTSCALE
 40
1.0
  9
$OSMODE
 70
       0
  9
$ATTMODE
 70
       1
  9
$TEXTSIZE
 40
0.2
  9
$TRACEWID
 40
0.05
  9
$TEXTSTYLE
  7
STANDARD
  9
$CLAYER
  8
0
  9
$CELTYPE
  6
CONTINUOUS
  9
$CECOLOR
 62
     256
  9
$CELTSCALE
 40
1.0
  9
$DELOBJ
 70
       1
  9
$DISPSILH
 70
       0
  9
$DIMSCALE
 40
1.0
  9
$DIMASZ
 40
0.18
  9
$DIMEXO
 40
0.0625
  9
$DIMDLI
 40
0.38
  9
$DIMRND
 40
0.0
  9
$DIMDLE
 40
0.0
  9
$DIMEXE
 40
0.18
  9
$DIMTP
 40
0.0
  9
$DIMTM
 40
0.0
  9
$DIMTXT
 40
0.18
  9
$DIMCEN
 40
0.09
  9
$DIMTSZ
 40
0.0
  9
$DIMTOL
 70
       0
  9
$DIMLIM
 70
       0
  9
$DIMTIH
 70
       1
  9
$DIMTOH
 70
       1
  9
$DIMSE1
 70
       0
  9
$DIMSE2
 70
       0
  9
$DIMTAD
 70
       0
  9
$DIMZIN
 70
       0
  9
$DIMBLK
  1

  9
$DIMASO
 70
       1
  9
$DIMSHO
 70
       1
  9
$DIMPOST
  1

  9
$DIMAPOST
  1

  9
$DIMALT
 70
       0
  9
$DIMALTD
 70
       2
  9
$DIMALTF
 40
25.4
  9
$DIMLFAC
 40
1.0
  9
$DIMTOFL
 70
       0
  9
$DIMTVP
 40
0.0
  9
$DIMTIX
 70
       0
  9
$DIMSOXD
 70
       0
  9
$DIMSAH
 70
       0
  9
$DIMBLK1
  1

  9
$DIMBLK2
  1

  9
$DIMSTYLE
  2
STANDARD
  9
$DIMCLRD
 70
       0
  9
$DIMCLRE
 70
       0
  9
$DIMCLRT
 70
       0
  9
$DIMTFAC
 40
1.0
  9
$DIMGAP
 40
0.09
  9
$DIMJUST
 70
       0
  9
$DIMSD1
 70
       0
  9
$DIMSD2
 70
       0
  9
$DIMTOLJ
 70
       1
  9
$DIMTZIN
 70
       0
  9
$DIMALTZ
 70
       0
  9
$DIMALTTZ
 70
       0
  9
$DIMFIT
 70
       3
  9
$DIMUPT
 70
       0
  9
$DIMUNIT
 70
       2
  9
$DIMDEC
 70
       4
  9
$DIMTDEC
 70
       4
  9
$DIMALTU
 70
       2
  9
$DIMALTTD
 70
       2
  9
$DIMTXSTY
  7
STANDARD
  9
$DIMAUNIT
 70
       0
  9
$LUNITS
 70
       2
  9
$LUPREC
 70
       4
  9
$SKETCHINC
 40
0.1
  9
$FILLETRAD
 40
0.0
  9
$AUNITS
 70
       0
  9
$AUPREC
 70
       0
  9
$MENU
  1
acad
  9
$ELEVATION
 40
0.0
  9
$PELEVATION
 40
0.0
  9
$THICKNESS
 40
0.0
  9
$LIMCHECK
 70
       0
  9
$BLIPMODE
 70
       1
  9
$CHAMFERA
 40
0.0
  9
$CHAMFERB
 40
0.0
  9
$CHAMFERC
 40
0.0
  9
$CHAMFERD
 40
0.0
  9
$SKPOLY
 70
       0
  9
$TDCREATE
 40
0.000000000
  9
$TDUPDATE
 40
0.000000000
  9
$TDINDWG
 40
0.0000000000
  9
$TDUSRTIMER
 40
0.0000000000
  9
$USRTIMER
 70
       1
  9
$ANGBASE
 50
0.0
  9
$ANGDIR
 70
       0
  9
$PDMODE
 70
       0
  9
$PDSIZE
 40
1.0
  9
$PLINEWID
 40
0.0
  9
$COORDS
 70
       1
  9
$SPLFRAME
 70
       0
  9
$SPLINETYPE
 70
       6
  9
$SPLINESEGS
 70
       8
  9
$ATTDIA
 70
       0
  9
$ATTREQ
 70
       1
  9
$HANDLING
 70
       1
  9
$HANDSEED
  5
36B
  9
$SURFTAB1
 70
       6
  9
$SURFTAB2
 70
       6
  9
$SURFTYPE
 70
       6
  9
$SURFU
 70
       6
  9
$SURFV
 70
       6
  9
$UCSNAME
  2

  9
$UCSORG
 10
0.0
 20
0.0
 30
0.0
  9
$UCSXDIR
 10
1.0
 20
0.0
 30
0.0
  9
$UCSYDIR
 10
0.0
 20
1.0
 30
0.0
  9
$PUCSNAME
  2

  9
$PUCSORG
 10
0.0
 20
0.0
 30
0.0
  9
$PUCSXDIR
 10
1.0
 20
0.0
 30
0.0
  9
$PUCSYDIR
 10
0.0
 20
1.0
 30
0.0
  9
$USERI1
 70
       0
  9
$USERI2
 70
       0
  9
$USERI3
 70
       0
  9
$USERI4
 70
       0
  9
$USERI5
 70
       0
  9
$USERR1
 40
0.0
  9
$USERR2
 40
0.0
  9
$USERR3
 40
0.0
  9
$USERR4
 40
0.0
  9
$USERR5
 40
0.0
  9
$WORLDVIEW
 70
       1
  9
$SHADEDGE
 70
       3
  9
$SHADEDIF
 70
      70
  9
$TILEMODE
 70
       1
  9
$MAXACTVP
 70
      16
  9
$PINSBASE
 10
0.0
 20
0.0
 30
0.0
  9
$PLIMCHECK
 70
       0
  9
$PEXTMIN
 10
1.00000000E+20
 20
1.00000000E+20
 30
1.00000000E+20
  9
$PEXTMAX
 10
-1.00000000E+20
 20
-1.00000000E+20
 30
-1.00000000E+20
  9
$PLIMMIN
 10
0.0
 20
0.0
  9
$PLIMMAX
 10
12.0
 20
9.0
  9
$UNITMODE
 70
       0
  9
$VISRETAIN
 70
       0
  9
$PLINEGEN
 70
       1
  9
$PSLTSCALE
 70
       0
  9
$TREEDEPTH
 70
    3020
  9
$PICKSTYLE
 70
       1
  9
$CMLSTYLE
  2
STANDARD
  9
$CMLJUST
 70
       0
  9
$CMLSCALE
 40
1.0
  9
$PROXYGRAPHICS
 70
       0
  9
$MEASUREMENT
 70
       0
  0
ENDSEC
  0
SECTION
  2
CLASSES
  0
CLASS
  1
LWPOLYLINE
  2
AcDbPolyline
  3
"AutoCAD"
 90
        0
280
       0
281
       1
  0
CLASS
  1
IMAGE
  2
AcDbRasterImage
  3
ISM
 90
      127
280
       0
281
       1
  0
CLASS
  1
OLE2FRAME
  2
AcDbOle2Frame
  3
""
 90
        0
280
       0
281
       1
  0
CLASS
  1
HATCH
  2
AcDbHatch
  3
"ACAD_SEDONA"
 90
        0
280
       0
281
       1
  0
CLASS
  1
DICTIONARYVAR
  2
AcDbDictionaryVar
  3
"AutoCAD"
 90
        0
280
       0
281
       0
  0
CLASS
  1
RASTERVARIABLES
  2
AcDbRasterVariables
  3
ISM
 90
        0
280
       0
281
       0
  0
CLASS
  1
IMAGEDEF
  2
AcDbRasterImageDef
  3
ISM
 90
        0
280
       0
281
       0
  0
CLASS
  1
IMAGEDEF_REACTOR
  2
AcDbRasterImageDefReactor
  3
ISM
 90
        1
280
       0
281
       0
  0
CLASS
  1
IDBUFFER
  2
AcDbIdBuffer
  3
"Acad"
 90
        0
280
       0
281
       0
  0
CLASS
  1
SPATIAL_FILTER
  2
AcDbSpatialFilter
  3
"Acad"
 90
        0
280
       0
281
       0
  0
CLASS
  1
XRECORD
  2
AcDbXrecord
  3
"<Built In>"
 90
        0
280
       0
281
       0
  0
CLASS
  1
SORTENTSTABLE
  2
AcDbSortentsTable
  3
"AutoCAD"
 90
        0
280
       0
281
       0
  0
CLASS
  1
LAYER_INDEX
  2
AcDbLayerIndex
  3
"Acad"
 90
        0
280
       0
281
       0
  0
CLASS
  1
SPATIAL_INDEX
  2
AcDbSpatialIndex
  3
"Acad"
 90
        0
280
       0
281
       0
  0
CLASS
  1
OBJECT_PTR
  2
CAseDLPNTableRecord
  3
"ASE-LPNTableRecord"
 90
        1
280
       0
281
       0
  0
CLASS
  1
LAYOUT
  2
AcDbLayout
  3
"AutoCAD 2000"
 90
        1
280
       0
281
       0
  0
CLASS
  1
PLOTSETTINGS
  2
AcDbPlotSettings
  3
"AutoCAD 2000"
 90
        1
280
       0
281
       0
  0
CLASS
  1
ACDBDICTIONARYWDFLT
  2
AcDbDictionaryWithDefault
  3
"AutoCAD 2000"
 90
        1
280
       0
281
       0
  0
CLASS
  1
ACDBPLACEHOLDER
  2
AcDbPlaceHolder
  3
"AutoCAD 2000"
 90
        1
280
       0
281
       0
  0
CLASS
  1
VBA_PROJECT
  2
AcDbVbaProject
  3
"acadvba"
 90
        1
280
       0
281
       0
  0
CLASS
  1
WIPEOUT
  2
AcDbWipeout
  3
WipeOut|AutoCAD Express Tool|expresstools@autodesk.com
 90
      127
280
       0
281
       1
  0
CLASS
  1
WIPEOUTVARIABLES
  2
AcDbWipeoutVariables
  3
WipeOut|AutoCAD Express Tool|expresstools@autodesk.com
 90
        0
280
       0
281
       0
  0
CLASS
  1
RTEXT
  2
RText
  3
RText|AutoCAD Express Tool|expresstools@autodesk.com
 90
        0
280
       0
281
       1
  0
CLASS
  1
ARCALIGNEDTEXT
  2
AcDbArcAlignedText
  3
ATEXT|AutoCAD Express Tool|expresstools@autodesk.com
 90
        0
280
       0
281
       1
  0
ENDSEC
  0
SECTION
  2
TABLES
  0
TABLE
  2
VPORT
  5
7
100
AcDbSymbolTable
 70
       1
  0
VPORT
  5
15
100
AcDbSymbolTableRecord
100
AcDbViewportTableRecord
  2
*ACTIVE
 70
       0
 10
0.0
 20
0.0
 11
1.0
 21
1.0
 12
3.01232684
 22
-3.23814149
 13
0.0
 23
0.0
 14
1.0
 24
1.0
 15
0.0
 25
0.0
 16
0.0
 26
0.0
 36
1.0
 17
0.0
 27
0.0
 37
0.0
 40
458.58477906
 41
1.16193897
 42
50.0
 43
0.0
 44
0.0
 50
0.0
 51
0.0
 71
       0
 72
     100
 73
       1
 74
       1
 75
       0
 76
       0
 77
       0
 78
       0
  0
ENDTAB
  0
TABLE
  2
LTYPE
  5
4
100
AcDbSymbolTable
 70
      30
  0
LTYPE
  5
11
100
AcDbSymbolTableRecord
100
AcDbLinetypeTableRecord
  2
BYBLOCK
 70
      64
  3

 72
      65
 73
       0
 40
0.0
  0
LTYPE
  5
12
100
AcDbSymbolTableRecord
100
AcDbLinetypeTableRecord
  2
BYLAYER
 70
      64
  3

 72
      65
 73
       0
 40
0.0
  0
LTYPE
  5
13
100
AcDbSymbolTableRecord
100
AcDbLinetypeTableRecord
  2
CONTINUOUS
 70
      64
  3
Solid line
 72
      65
 73
       0
 40
0.0
  0
LTYPE
  5
1D
100
AcDbSymbolTableRecord
100
AcDbLinetypeTableRecord
  2
HIDDENX2
 70
      64
  3
CADPAC LINETYPE
 72
      65
 73
       2
 40
24.64979584
 49
18.48734688
 74
       0
 49
-6.16244896
 74
       0
  0
LTYPE
  5
1E
100
AcDbSymbolTableRecord
100
AcDbLinetypeTableRecord
  2
HIDDEN
 70
      64
  3
CADPAC LINETYPE
 72
      65
 73
       2
 40
18.48734688
 49
12.32489792
 74
       0
 49
-6.16244896
 74
       0
  0
LTYPE
  5
1F
100
AcDbSymbolTableRecord
100
AcDbLinetypeTableRecord
  2
HIDDEN2
 70
      64
  3
CADPAC LINETYPE
 72
      65
 73
       2
 40
15.4061224
 49
9.24367344
 74
       0
 49
-6.16244896
 74
       0
  0
LTYPE
  5
20
100
AcDbSymbolTableRecord
100
AcDbLinetypeTableRecord
  2
DASHED
 70
      64
  3
CADPAC LINETYPE
 72
      65
 73
       2
 40
18.48734688
 49
12.32489792
 74
       0
 49
-6.16244896
 74
       0
  0
LTYPE
  5
21
100
AcDbSymbolTableRecord
100
AcDbLinetypeTableRecord
  2
DASHED2
 70
      64
  3
CADPAC LINETYPE
 72
      65
 73
       2
 40
13.86551016
 49
9.24367344
 74
       0
 49
-4.62183672
 74
       0
  0
LTYPE
  5
22
100
AcDbSymbolTableRecord
100
AcDbLinetypeTableRecord
  2
DASHEDX2
 70
      64
  3
CADPAC LINETYPE
 72
      65
 73
       2
 40
27.73102032
 49
18.48734688
 74
       0
 49
-9.24367344
 74
       0
  0
LTYPE
  5
23
100
AcDbSymbolTableRecord
100
AcDbLinetypeTableRecord
  2
DOTX2
 70
      64
  3
CADPAC LINETYPE
 72
      65
 73
       2
 40
7.7030612
 49
0.0
 74
       0
 49
-7.7030612
 74
       0
  0
LTYPE
  5
24
100
AcDbSymbolTableRecord
100
AcDbLinetypeTableRecord
  2
DOT
 70
      64
  3
CADPAC LINETYPE
 72
      65
 73
       2
 40
6.16244896
 49
0.0
 74
       0
 49
-6.16244896
 74
       0
  0
LTYPE
  5
25
100
AcDbSymbolTableRecord
100
AcDbLinetypeTableRecord
  2
DOT2
 70
      64
  3
CADPAC LINETYPE
 72
      65
 73
       2
 40
4.62183672
 49
0.0
 74
       0
 49
-4.62183672
 74
       0
  0
LTYPE
  5
26
100
AcDbSymbolTableRecord
100
AcDbLinetypeTableRecord
  2
CENTERX2
 70
      64
  3
CADPAC LINETYPE
 72
      65
 73
       4
 40
36.97469376
 49
15.4061224
 74
       0
 49
-7.7030612
 74
       0
 49
6.16244896
 74
       0
 49
-7.7030612
 74
       0
  0
LTYPE
  5
27
100
AcDbSymbolTableRecord
100
AcDbLinetypeTableRecord
  2
CENTER
 70
      64
  3
CADPAC LINETYPE
 72
      65
 73
       4
 40
28.34726522
 49
12.32489792
 74
       0
 49
-6.16244896
 74
       0
 49
3.69746938
 74
       0
 49
-6.16244896
 74
       0
  0
LTYPE
  5
28
100
AcDbSymbolTableRecord
100
AcDbLinetypeTableRecord
  2
CENTER2
 70
      64
  3
CADPAC LINETYPE
 72
      65
 73
       4
 40
19.71983667
 49
9.24367344
 74
       0
 49
-4.62183672
 74
       0
 49
1.23248979
 74
       0
 49
-4.62183672
 74
       0
  0
LTYPE
  5
29
100
AcDbSymbolTableRecord
100
AcDbLinetypeTableRecord
  2
DASHDOTX2
 70
      64
  3
CADPAC LINETYPE
 72
      65
 73
       4
 40
30.8122448
 49
15.4061224
 74
       0
 49
-7.7030612
 74
       0
 49
0.0
 74
       0
 49
-7.7030612
 74
       0
  0
LTYPE
  5
2A
100
AcDbSymbolTableRecord
100
AcDbLinetypeTableRecord
  2
DASHDOT
 70
      64
  3
CADPAC LINETYPE
 72
      65
 73
       4
 40
24.64979584
 49
12.32489792
 74
       0
 49
-6.16244896
 74
       0
 49
0.0
 74
       0
 49
-6.16244896
 74
       0
  0
LTYPE
  5
2B
100
AcDbSymbolTableRecord
100
AcDbLinetypeTableRecord
  2
DASHDOT2
 70
      64
  3
CADPAC LINETYPE
 72
      65
 73
       4
 40
18.48734688
 49
9.24367344
 74
       0
 49
-4.62183672
 74
       0
 49
0.0
 74
       0
 49
-4.62183672
 74
       0
  0
LTYPE
  5
2C
100
AcDbSymbolTableRecord
100
AcDbLinetypeTableRecord
  2
DIVIDEX2
 70
      64
  3
CADPAC LINETYPE
 72
      65
 73
       6
 40
38.515306
 49
15.4061224
 74
       0
 49
-7.7030612
 74
       0
 49
0.0
 74
       0
 49
-7.7030612
 74
       0
 49
0.0
 74
       0
 49
-7.7030612
 74
       0
  0
LTYPE
  5
2D
100
AcDbSymbolTableRecord
100
AcDbLinetypeTableRecord
  2
DIVIDE
 70
      64
  3
CADPAC LINETYPE
 72
      65
 73
       6
 40
30.8122448
 49
12.32489792
 74
       0
 49
-6.16244896
 74
       0
 49
0.0
 74
       0
 49
-6.16244896
 74
       0
 49
0.0
 74
       0
 49
-6.16244896
 74
       0
  0
LTYPE
  5
2E
100
AcDbSymbolTableRecord
100
AcDbLinetypeTableRecord
  2
DIVIDE2
 70
      64
  3
CADPAC LINETYPE
 72
      65
 73
       6
 40
23.1091836
 49
9.24367344
 74
       0
 49
-4.62183672
 74
       0
 49
0.0
 74
       0
 49
-4.62183672
 74
       0
 49
0.0
 74
       0
 49
-4.62183672
 74
       0
  0
LTYPE
  5
2F
100
AcDbSymbolTableRecord
100
AcDbLinetypeTableRecord
  2
BORDERX2
 70
      64
  3
CADPAC LINETYPE
 72
      65
 73
       6
 40
53.9214284
 49
15.4061224
 74
       0
 49
-7.7030612
 74
       0
 49
15.4061224
 74
       0
 49
-7.7030612
 74
       0
 49
0.0
 74
       0
 49
-7.7030612
 74
       0
  0
LTYPE
  5
30
100
AcDbSymbolTableRecord
100
AcDbLinetypeTableRecord
  2
BORDER
 70
      64
  3
CADPAC LINETYPE
 72
      65
 73
       6
 40
43.13714272
 49
12.32489792
 74
       0
 49
-6.16244896
 74
       0
 49
12.32489792
 74
       0
 49
-6.16244896
 74
       0
 49
0.0
 74
       0
 49
-6.16244896
 74
       0
  0
LTYPE
  5
31
100
AcDbSymbolTableRecord
100
AcDbLinetypeTableRecord
  2
BORDER2
 70
      64
  3
CADPAC LINETYPE
 72
      65
 73
       6
 40
32.35285704
 49
9.24367344
 74
       0
 49
-4.62183672
 74
       0
 49
9.24367344
 74
       0
 49
-4.62183672
 74
       0
 49
0.0
 74
       0
 49
-4.62183672
 74
       0
  0
LTYPE
  5
32
100
AcDbSymbolTableRecord
100
AcDbLinetypeTableRecord
  2
PHANTOMX2
 70
      64
  3
CADPAC LINETYPE
 72
      65
 73
       6
 40
46.2183672
 49
15.4061224
 74
       0
 49
-6.16244896
 74
       0
 49
6.16244896
 74
       0
 49
-6.16244896
 74
       0
 49
6.16244896
 74
       0
 49
-6.16244896
 74
       0
  0
LTYPE
  5
33
100
AcDbSymbolTableRecord
100
AcDbLinetypeTableRecord
  2
PHANTOM
 70
      64
  3
CADPAC LINETYPE
 72
      65
 73
       6
 40
38.20718355
 49
12.32489792
 74
       0
 49
-6.16244896
 74
       0
 49
3.69746938
 74
       0
 49
-6.16244896
 74
       0
 49
3.69746938
 74
       0
 49
-6.16244896
 74
       0
  0
LTYPE
  5
34
100
AcDbSymbolTableRecord
100
AcDbLinetypeTableRecord
  2
PHANTOM2
 70
      64
  3
CADPAC LINETYPE
 72
      65
 73
       6
 40
32.66097949
 49
9.24367344
 74
       0
 49
-6.16244896
 74
       0
 49
2.46497958
 74
       0
 49
-6.16244896
 74
       0
 49
2.46497958
 74
       0
 49
-6.16244896
 74
       0
  0
LTYPE
  5
35
100
AcDbSymbolTableRecord
100
AcDbLinetypeTableRecord
  2
ACAD_ISO06W100
 70
      64
  3
CADPAC LINETYPE
 72
      65
 73
       8
 40
41.59653048
 49
15.4061224
 74
       0
 49
-7.7030612
 74
       0
 49
0.0
 74
       0
 49
-6.16244896
 74
       0
 49
0.0
 74
       0
 49
-6.16244896
 74
       0
 49
0.0
 74
       0
 49
-6.16244896
 74
       0
  0
LTYPE
  5
36
100
AcDbSymbolTableRecord
100
AcDbLinetypeTableRecord
  2
ACAD_ISO13W100
 70
      64
  3
CADPAC LINETYPE
 72
      65
 73
       8
 40
49.29959168
 49
12.32489792
 74
       0
 49
-6.16244896
 74
       0
 49
12.32489792
 74
       0
 49
-6.16244896
 74
       0
 49
0.0
 74
       0
 49
-6.16244896
 74
       0
 49
0.0
 74
       0
 49
-6.16244896
 74
       0
  0
LTYPE
  5
37
100
AcDbSymbolTableRecord
100
AcDbLinetypeTableRecord
  2
ACAD_ISO14W100
 70
      64
  3
CADPAC LINETYPE
 72
      65
 73
       8
 40
36.97469376
 49
12.32489792
 74
       0
 49
-6.16244896
 74
       0
 49
0.0
 74
       0
 49
-6.16244896
 74
       0
 49
0.0
 74
       0
 49
-6.16244896
 74
       0
 49
0.0
 74
       0
 49
-6.16244896
 74
       0
  0
ENDTAB
  0
TABLE
  2
LAYER
  5
2
100
AcDbSymbolTable
 70
       2
  0
LAYER
  5
14
100
AcDbSymbolTableRecord
100
AcDbLayerTableRecord
  2
0
 70
       0
 62
       7
  6
CONTINUOUS
  0
LAYER
  5
38
100
AcDbSymbolTableRecord
100
AcDbLayerTableRecord
  2
LAYER0001
 70
       0
 62
       7
  6
CONTINUOUS
  0
ENDTAB
  0
TABLE
  2
STYLE
  5
3
100
AcDbSymbolTable
 70
       1
  0
STYLE
  5
17
100
AcDbSymbolTableRecord
100
AcDbTextStyleTableRecord
  2
STANDARD
 70
       0
 40
0.0
 41
1.0
 50
0.0
 71
       0
 42
10.58333333
  3
txt.shx
  4
bigfont.shx
  0
ENDTAB
  0
TABLE
  2
VIEW
  5
5
100
AcDbSymbolTable
 70
       1
  0
VIEW
  5
39
100
AcDbSymbolTableRecord
100
AcDbViewTableRecord
  2
QQQQ
 70
       0
 40
458.58477906
 10
3.01232684
 20
-3.23814149
 41
532.84752389
 11
0.0
 21
0.0
 31
1.0
 12
100.0
 22
100.0
 32
0.0
 42
50.0
 43
0.0
 44
0.0
 50
0.0
 71
       0
  0
ENDTAB
  0
TABLE
  2
UCS
  5
6
100
AcDbSymbolTable
 70
       0
  0
ENDTAB
  0
TABLE
  2
APPID
  5
8
100
AcDbSymbolTable
 70
       1
  0
APPID
  5
16
100
AcDbSymbolTableRecord
100
AcDbRegAppTableRecord
  2
ACAD
 70
       0
  0
ENDTAB
  0
TABLE
  2
DIMSTYLE
  5
9
100
AcDbSymbolTable
 70
       1
  0
DIMSTYLE
105
18
100
AcDbSymbolTableRecord
100
AcDbDimStyleTableRecord
  2
STANDARD
 70
       0
  3

  4

  5

  6

  7

 40
1.0
 41
0.18
 42
0.0625
 43
0.38
 44
0.18
 45
0.0
 46
0.0
 47
0.0
 48
0.0
 71
       0
 72
       0
 73
       1
 74
       1
 75
       0
 76
       0
 77
       0
 78
       0
140
0.18
141
0.09
142
0.0
143
25.4
144
1.0
145
0.0
146
1.0
147
0.09
170
       0
171
       2
172
       0
173
       0
174
       0
175
       0
176
       0
177
       0
178
       0
270
       2
271
       4
272
       4
273
       2
274
       2
275
       0
280
       0
281
       0
282
       0
283
       1
284
       0
285
       0
286
       0
287
       0
288
       0
340
17
  0
ENDTAB
  0
TABLE
  2
BLOCK_RECORD
  5
1
100
AcDbSymbolTable
 70
       0
  0
BLOCK_RECORD
  5
A
100
AcDbSymbolTableRecord
100
AcDbBlockTableRecord
  2
*MODEL_SPACE
  0
BLOCK_RECORD
  5
B
100
AcDbSymbolTableRecord
100
AcDbBlockTableRecord
  2
*PAPER_SPACE
  0
ENDTAB
  0
ENDSEC
  0
SECTION
  2
BLOCKS
  0
BLOCK
  5
D
100
AcDbEntity
  8
0
100
AcDbBlockBegin
  2
*MODEL_SPACE
 70
       0
 10
0.0
 20
0.0
 30
0.0
  3
*MODEL_SPACE
  1

  0
ENDBLK
  5
E
100
AcDbEntity
  8
0
100
AcDbBlockEnd
  0
BLOCK
  5
F
100
AcDbEntity
 67
       1
  8
0
100
AcDbBlockBegin
  2
*PAPER_SPACE
 70
       0
 10
0.0
 20
0.0
 30
0.0
  3
*PAPER_SPACE
  1

  0
ENDBLK
  5
10
100
AcDbEntity
 67
       1
  8
0
100
AcDbBlockEnd
  0
ENDSEC
  0
SECTION
  2
ENTITIES
  0
LINE
  5
3A
100
AcDbEntity
  8
LAYER0001
  6
CONTINUOUS
 62
       7
100
AcDbLine
 10
-78.14624495
 20
-151.84607517
 30
0.0
 11
-78.14624495
 21
-138.34607016
 31
0.0
  0
LINE
  5
3B
100
AcDbEntity
  8
LAYER0001
  6
CONTINUOUS
 62
       7
100
AcDbLine
 10
-102.14624516
 20
-151.84607517
 30
0.0
 11
-102.14624516
 21
-138.34607016
 31
0.0
  0
LINE
  5
3C
100
AcDbEntity
  8
LAYER0001
  6
CONTINUOUS
 62
       7
100
AcDbLine
 10
-70.64624465
 20
-115.84609162
 30
0.0
 11
-70.64624465
 21
-111.84608351
 31
0.0
  0
LINE
  5
3D
100
AcDbEntity
  8
LAYER0001
  6
CONTINUOUS
 62
       7
100
AcDbLine
 10
-109.64624545
 20
-111.84608351
 30
0.0
 11
-109.64624545
 21
-115.84609162
 31
0.0
  0
LINE
  5
3E
100
AcDbEntity
  8
LAYER0001
  6
CONTINUOUS
 62
       7
100
AcDbLine
 10
-70.64624465
 20
-124.34607159
 30
0.0
 11
-70.64624465
 21
-120.34609329
 31
0.0
  0
LINE
  5
3F
100
AcDbEntity
  8
LAYER0001
  6
CONTINUOUS
 62
       7
100
AcDbLine
 10
-109.64624545
 20
-120.34609329
 30
0.0
 11
-109.64624545
 21
-124.34607159
 31
0.0
  0
LINE
  5
40
100
AcDbEntity
  8
LAYER0001
  6
CONTINUOUS
 62
       7
100
AcDbLine
 10
-78.8962446
 20
-153.84607922
 30
0.0
 11
-78.8962446
 21
-152.8460921
 31
0.0
  0
LINE
  5
41
100
AcDbEntity
  8
LAYER0001
  6
CONTINUOUS
 62
       7
100
AcDbLine
 10
-101.3962455
 20
-152.8460921
 30
0.0
 11
-101.3962455
 21
-153.84607922
 31
0.0
  0
LINE
  5
42
100
AcDbEntity
  8
LAYER0001
  6
CONTINUOUS
 62
       7
100
AcDbLine
 10
-120.13839147
 20
183.85402311
 30
0.0
 11
-119.93816643
 21
176.20770007
 31
0.0
  0
LINE
  5
43
100
AcDbEntity
  8
LAYER0001
  6
CONTINUOUS
 62
       7
100
AcDbLine
 10
-60.35432367
 20
176.20770007
 30
0.0
 11
-60.15409863
 21
183.85402311
 31
0.0
  0
LINE
  5
44
100
AcDbEntity
  8
LAYER0001
  6
CONTINUOUS
 62
       7
100
AcDbLine
 10
-60.15409863
 20
183.85402311
 30
0.0
 11
-60.43869032
 21
184.1539203
 31
0.0
  0
LINE
  5
45
100
AcDbEntity
  8
LAYER0001
  6
CONTINUOUS
 62
       7
100
AcDbLine
 10
-119.85379978
 20
184.1539203
 30
0.0
 11
-120.13839147
 21
183.85402311
 31
0.0
  0
LINE
  5
46
100
AcDbEntity
  8
LAYER0001
  6
CONTINUOUS
 62
       7
100
AcDbLine
 10
-119.93816643
 20
176.20770007
 30
0.0
 11
-117.88438595
 21
174.15392052
 31
0.0
  0
LINE
  5
47
100
AcDbEntity
  8
LAYER0001
  6
CONTINUOUS
 62
       7
100
AcDbLine
 10
-62.40810416
 20
174.15392052
 30
0.0
 11
-60.35432367
 21
176.20770007
 31
0.0
  0
LINE
  5
48
100
AcDbEntity
  8
LAYER0001
  6
CONTINUOUS
 62
       7
100
AcDbLine
 10
-107.67242274
 20
145.15357677
 30
0.0
 11
-106.61900378
 21
144.1539212
 31
0.0
  0
LINE
  5
49
100
AcDbEntity
  8
LAYER0001
  6
CONTINUOUS
 62
       7
100
AcDbLine
 10
-73.673486
 20
144.15392209
 30
0.0
 11
-72.62006703
 21
145.15357766
 31
0.0
  0
LINE
  5
4A
100
AcDbEntity
  8
LAYER0001
  6
CONTINUOUS
 62
       7
100
AcDbLine
 10
-108.30432043
 20
169.28480504
 30
0.0
 11
-107.67242274
 21
145.15357677
 31
0.0
  0
LINE
  5
4B
100
AcDbEntity
  8
LAYER0001
  6
CONTINUOUS
 62
       7
100
AcDbLine
 10
-72.62006703
 20
145.15357766
 30
0.0
 11
-71.98816935
 21
169.28480594
 31
0.0
  0
LINE
  5
4C
100
AcDbEntity
  8
LAYER0001
  6
CONTINUOUS
 62
       7
100
AcDbLine
 10
-102.8462449
 20
-95.84608089
 30
0.0
 11
-101.84624473
 21
-96.84606802
 31
0.0
  0
LINE
  5
4D
100
AcDbEntity
  8
LAYER0001
  6
CONTINUOUS
 62
       7
100
AcDbLine
 10
-78.44624537
 20
-96.84606802
 30
0.0
 11
-77.4462452
 21
-95.84608089
 31
0.0
  0
LINE
  5
4E
100
AcDbEntity
  8
LAYER0001
  6
CONTINUOUS
 62
       7
100
AcDbLine
 10
-77.4462452
 20
-95.84608089
 30
0.0
 11
-77.4462452
 21
144.1539212
 31
0.0
  0
LINE
  5
4F
100
AcDbEntity
  8
LAYER0001
  6
CONTINUOUS
 62
       7
100
AcDbLine
 10
-102.8462449
 20
144.1539212
 30
0.0
 11
-102.8462449
 21
-95.84608089
 31
0.0
  0
LINE
  5
50
100
AcDbEntity
  8
LAYER0001
  6
CONTINUOUS
 62
       7
100
AcDbLine
 10
-78.14624495
 20
-97.84608494
 30
0.0
 11
-79.22874539
 21
-96.84606802
 31
0.0
  0
LINE
  5
51
100
AcDbEntity
  8
LAYER0001
  6
CONTINUOUS
 62
       7
100
AcDbLine
 10
-101.06374471
 20
-96.84606802
 30
0.0
 11
-102.14624516
 21
-97.84608494
 31
0.0
  0
LINE
  5
52
100
AcDbEntity
  8
LAYER0001
  6
CONTINUOUS
 62
       7
100
AcDbLine
 10
-102.14624516
 20
-151.84607517
 30
0.0
 11
-101.06374471
 21
-152.8460921
 31
0.0
  0
LINE
  5
53
100
AcDbEntity
  8
LAYER0001
  6
CONTINUOUS
 62
       7
100
AcDbLine
 10
-79.22874539
 20
-152.8460921
 30
0.0
 11
-78.14624495
 21
-151.84607517
 31
0.0
  0
LINE
  5
54
100
AcDbEntity
  8
LAYER0001
  6
CONTINUOUS
 62
       7
100
AcDbLine
 10
-70.1462455
 20
-120.34609329
 30
0.0
 11
-70.1462455
 21
-115.84609162
 31
0.0
  0
LINE
  5
55
100
AcDbEntity
  8
LAYER0001
  6
CONTINUOUS
 62
       7
100
AcDbLine
 10
-155.14624267
 20
-196.84609186
 30
0.0
 11
-150.64624472
 21
-196.84609186
 31
0.0
  0
LINE
  5
56
100
AcDbEntity
  8
LAYER0001
  6
CONTINUOUS
 62
       7
100
AcDbLine
 10
-81.14624544
 20
-138.34607016
 30
0.0
 11
-99.14624466
 21
-138.34607016
 31
0.0
  0
LINE
  5
57
100
AcDbEntity
  8
LAYER0001
  6
CONTINUOUS
 62
       7
100
AcDbLine
 10
-72.14624583
 20
-125.95378768
 30
0.0
 11
-72.14624583
 21
-136.73838388
 31
0.0
  0
LINE
  5
58
100
AcDbEntity
  8
LAYER0001
  6
CONTINUOUS
 62
       7
100
AcDbLine
 10
-90.14624505
 20
-125.95378768
 30
0.0
 11
-90.14624505
 21
-136.73838388
 31
0.0
  0
LINE
  5
59
100
AcDbEntity
  8
LAYER0001
  6
CONTINUOUS
 62
       7
100
AcDbLine
 10
-108.14624428
 20
-125.95378768
 30
0.0
 11
-108.14624428
 21
-136.73838388
 31
0.0
  0
LINE
  5
5A
100
AcDbEntity
  8
LAYER0001
  6
CONTINUOUS
 62
       7
100
AcDbLine
 10
-72.14624583
 20
-138.34607016
 30
0.0
 11
-81.14624544
 21
-138.34607016
 31
0.0
  0
LINE
  5
5B
100
AcDbEntity
  8
LAYER0001
  6
CONTINUOUS
 62
       7
100
AcDbLine
 10
-99.14624466
 20
-138.34607016
 30
0.0
 11
-108.14624428
 21
-138.34607016
 31
0.0
  0
LINE
  5
5C
100
AcDbEntity
  8
LAYER0001
  6
CONTINUOUS
 62
       7
100
AcDbLine
 10
-72.14624583
 20
-99.45377122
 30
0.0
 11
-72.14624583
 21
-110.23839723
 31
0.0
  0
LINE
  5
5D
100
AcDbEntity
  8
LAYER0001
  6
CONTINUOUS
 62
       7
100
AcDbLine
 10
-90.14624505
 20
-99.45377122
 30
0.0
 11
-90.14624505
 21
-110.23839723
 31
0.0
  0
LINE
  5
5E
100
AcDbEntity
  8
LAYER0001
  6
CONTINUOUS
 62
       7
100
AcDbLine
 10
-108.14624428
 20
-99.45377122
 30
0.0
 11
-108.14624428
 21
-110.23839723
 31
0.0
  0
LINE
  5
5F
100
AcDbEntity
  8
LAYER0001
  6
CONTINUOUS
 62
       7
100
AcDbLine
 10
-81.14624544
 20
-97.84608494
 30
0.0
 11
-99.14624466
 21
-97.84608494
 31
0.0
  0
LINE
  5
60
100
AcDbEntity
  8
LAYER0001
  6
CONTINUOUS
 62
       7
100
AcDbLine
 10
-72.14624583
 20
-97.84608494
 30
0.0
 11
-81.14624544
 21
-97.84608494
 31
0.0
  0
LINE
  5
61
100
AcDbEntity
  8
LAYER0001
  6
CONTINUOUS
 62
       7
100
AcDbLine
 10
-99.14624466
 20
-97.84608494
 30
0.0
 11
-108.14624428
 21
-97.84608494
 31
0.0
  0
LINE
  5
62
100
AcDbEntity
  8
LAYER0001
  6
CONTINUOUS
 62
       7
100
AcDbLine
 10
-90.14624505
 20
-111.84608351
 30
0.0
 11
-70.64624465
 21
-111.84608351
 31
0.0
  0
LINE
  5
63
100
AcDbEntity
  8
LAYER0001
  6
CONTINUOUS
 62
       7
100
AcDbLine
 10
-109.64624545
 20
-111.84608351
 30
0.0
 11
-90.14624505
 21
-111.84608351
 31
0.0
  0
LINE
  5
64
100
AcDbEntity
  8
LAYER0001
  6
CONTINUOUS
 62
       7
100
AcDbLine
 10
-90.14624505
 20
-124.34607159
 30
0.0
 11
-70.64624465
 21
-124.34607159
 31
0.0
  0
LINE
  5
65
100
AcDbEntity
  8
LAYER0001
  6
CONTINUOUS
 62
       7
100
AcDbLine
 10
-109.64624545
 20
-124.34607159
 30
0.0
 11
-90.14624505
 21
-124.34607159
 31
0.0
  0
LINE
  5
66
100
AcDbEntity
  8
LAYER0001
  6
CONTINUOUS
 62
       7
100
AcDbLine
 10
-78.8962446
 20
-152.8460921
 30
0.0
 11
-101.3962455
 21
-152.8460921
 31
0.0
  0
LINE
  5
67
100
AcDbEntity
  8
LAYER0001
  6
CONTINUOUS
 62
       7
100
AcDbLine
 10
-79.89624477
 20
-154.84606635
 30
0.0
 11
-100.39624533
 21
-154.84606635
 31
0.0
  0
LINE
  5
68
100
AcDbEntity
  8
LAYER0001
  6
CONTINUOUS
 62
       7
100
AcDbLine
 10
-90.14624505
 20
176.20770007
 30
0.0
 11
-60.35432367
 21
176.20770007
 31
0.0
  0
LINE
  5
69
100
AcDbEntity
  8
LAYER0001
  6
CONTINUOUS
 62
       7
100
AcDbLine
 10
-119.93816643
 20
176.20770007
 30
0.0
 11
-90.14624505
 21
176.20770007
 31
0.0
  0
LINE
  5
6A
100
AcDbEntity
  8
LAYER0001
  6
CONTINUOUS
 62
       7
100
AcDbLine
 10
-90.14624505
 20
184.1539203
 30
0.0
 11
-60.43869032
 21
184.1539203
 31
0.0
  0
LINE
  5
6B
100
AcDbEntity
  8
LAYER0001
  6
CONTINUOUS
 62
       7
100
AcDbLine
 10
-119.85379978
 20
184.1539203
 30
0.0
 11
-90.14624505
 21
184.1539203
 31
0.0
  0
LINE
  5
6C
100
AcDbEntity
  8
LAYER0001
  6
CONTINUOUS
 62
       7
100
AcDbLine
 10
-90.14624505
 20
174.15392052
 30
0.0
 11
-117.88438595
 21
174.15392052
 31
0.0
  0
LINE
  5
6D
100
AcDbEntity
  8
LAYER0001
  6
CONTINUOUS
 62
       7
100
AcDbLine
 10
-62.40810416
 20
174.15392052
 30
0.0
 11
-90.14624505
 21
174.15392052
 31
0.0
  0
LINE
  5
6E
100
AcDbEntity
  8
LAYER0001
  6
CONTINUOUS
 62
       7
100
AcDbLine
 10
-102.8397452
 20
169.28104151
 30
0.0
 11
-102.83946301
 21
169.28085525
 31
0.0
  0
LINE
  5
6F
100
AcDbEntity
  8
LAYER0001
  6
CONTINUOUS
 62
       7
100
AcDbLine
 10
-73.673486
 20
144.15392209
 30
0.0
 11
-106.6189544
 21
144.15387434
 31
0.0
  0
LINE
  5
70
100
AcDbEntity
  8
LAYER0001
  6
CONTINUOUS
 62
       7
100
AcDbLine
 10
-90.14624505
 20
-96.84606802
 30
0.0
 11
-101.84624473
 21
-96.84606802
 31
0.0
  0
LINE
  5
71
100
AcDbEntity
  8
LAYER0001
  6
CONTINUOUS
 62
       7
100
AcDbLine
 10
-78.44624537
 20
-96.84606802
 30
0.0
 11
-90.14624505
 21
-96.84606802
 31
0.0
  0
LINE
  5
72
100
AcDbEntity
  8
LAYER0001
  6
CONTINUOUS
 62
       7
100
AcDbLine
 10
-90.14624505
 20
-95.84608089
 30
0.0
 11
-77.4462452
 21
-95.84608089
 31
0.0
  0
LINE
  5
73
100
AcDbEntity
  8
LAYER0001
  6
CONTINUOUS
 62
       7
100
AcDbLine
 10
-102.8462449
 20
-95.84608089
 30
0.0
 11
-90.14624505
 21
-95.84608089
 31
0.0
  0
LINE
  5
74
100
AcDbEntity
  8
LAYER0001
  6
CONTINUOUS
 62
       7
100
AcDbLine
 10
-100.12399833
 20
-115.84609162
 30
0.0
 11
-70.1462455
 21
-115.84609162
 31
0.0
  0
LINE
  5
75
100
AcDbEntity
  8
LAYER0001
  6
CONTINUOUS
 62
       7
100
AcDbLine
 10
-70.1462455
 20
-120.34609329
 30
0.0
 11
-100.12399833
 21
-120.34609329
 31
0.0
  0
LINE
  5
76
100
AcDbEntity
  8
LAYER0001
  6
CONTINUOUS
 62
       7
100
AcDbLine
 10
-105.1128745
 20
-115.84609162
 30
0.0
 11
-100.12399833
 21
-115.84609162
 31
0.0
  0
LINE
  5
77
100
AcDbEntity
  8
LAYER0001
  6
CONTINUOUS
 62
       7
100
AcDbLine
 10
-100.12399833
 20
-120.34609329
 30
0.0
 11
-105.1128745
 21
-120.34609329
 31
0.0
  0
LINE
  5
78
100
AcDbEntity
  8
LAYER0001
  6
CONTINUOUS
 62
       7
100
AcDbLine
 10
-155.14624267
 20
-188.84607565
 30
0.0
 11
-155.14624267
 21
-196.84609186
 31
0.0
  0
LINE
  5
79
100
AcDbEntity
  8
LAYER0001
  6
CONTINUOUS
 62
       7
100
AcDbLine
 10
-150.64624472
 20
-188.84607565
 30
0.0
 11
-155.14624267
 21
-188.84607565
 31
0.0
  0
LINE
  5
7A
100
AcDbEntity
  8
LAYER0001
  6
CONTINUOUS
 62
       7
100
AcDbLine
 10
-150.64624472
 20
-196.84609186
 30
0.0
 11
-150.64624472
 21
-188.84607565
 31
0.0
  0
LINE
  5
7B
100
AcDbEntity
  8
LAYER0001
  6
CONTINUOUS
 62
       7
100
AcDbLine
 10
-150.64624472
 20
-129.34606682
 30
0.0
 11
-150.64624472
 21
-188.84607565
 31
0.0
  0
LINE
  5
7C
100
AcDbEntity
  8
LAYER0001
  6
CONTINUOUS
 62
       7
100
AcDbLine
 10
-155.14624267
 20
-129.34606682
 30
0.0
 11
-155.14624267
 21
-188.84607565
 31
0.0
  0
LINE
  5
7D
100
AcDbEntity
  8
LAYER0001
  6
CONTINUOUS
 62
       7
100
AcDbLine
 10
-105.1128745
 20
-115.84609162
 30
0.0
 11
-141.64624511
 21
-115.84609162
 31
0.0
  0
LINE
  5
7E
100
AcDbEntity
  8
LAYER0001
  6
CONTINUOUS
 62
       7
100
AcDbLine
 10
-105.1128745
 20
-120.34609329
 30
0.0
 11
-141.64624511
 21
-120.34609329
 31
0.0
  0
LINE
  5
7F
100
AcDbEntity
  8
LAYER0001
  6
CONTINUOUS
 62
       7
100
AcDbLine
 10
200.80038689
 20
-45.84608387
 30
0.0
 11
200.80038689
 21
144.1539212
 31
0.0
  0
LINE
  5
80
100
AcDbEntity
  8
LAYER0001
  6
CONTINUOUS
 62
       7
100
AcDbLine
 10
175.4003872
 20
144.1539212
 30
0.0
 11
175.4003872
 21
-45.84608387
 31
0.0
  0
LINE
  5
81
100
AcDbEntity
  8
LAYER0001
  6
CONTINUOUS
 62
       7
100
AcDbLine
 10
238.09515003
 20
-115.54613124
 30
0.0
 11
237.94268135
 21
-106.81118976
 31
0.0
  0
LINE
  5
82
100
AcDbEntity
  8
LAYER0001
  6
CONTINUOUS
 62
       7
100
AcDbLine
 10
138.25809274
 20
-106.81118976
 30
0.0
 11
138.10562406
 21
-115.54613124
 31
0.0
  0
LINE
  5
83
100
AcDbEntity
  8
LAYER0001
  6
CONTINUOUS
 62
       7
100
AcDbLine
 10
138.10562406
 20
-115.54613124
 30
0.0
 11
138.39528401
 21
-115.84609162
 31
0.0
  0
LINE
  5
84
100
AcDbEntity
  8
LAYER0001
  6
CONTINUOUS
 62
       7
100
AcDbLine
 10
237.80549008
 20
-115.84609162
 30
0.0
 11
238.09515003
 21
-115.54613124
 31
0.0
  0
LINE
  5
85
100
AcDbEntity
  8
LAYER0001
  6
CONTINUOUS
 62
       7
100
AcDbLine
 10
208.69579602
 20
-95.36945235
 30
0.0
 11
206.18334662
 21
-47.42903422
 31
0.0
  0
LINE
  5
86
100
AcDbEntity
  8
LAYER0001
  6
CONTINUOUS
 62
       7
100
AcDbLine
 10
170.01742747
 20
-47.42903422
 30
0.0
 11
167.50497807
 21
-95.36945235
 31
0.0
  0
LINE
  5
87
100
AcDbEntity
  8
LAYER0001
  6
CONTINUOUS
 62
       7
100
AcDbLine
 10
206.18334662
 20
-47.42903422
 30
0.0
 11
204.60038696
 21
-45.84608387
 31
0.0
  0
LINE
  5
88
100
AcDbEntity
  8
LAYER0001
  6
CONTINUOUS
 62
       7
100
AcDbLine
 10
171.60038713
 20
-45.84608387
 30
0.0
 11
170.01742747
 21
-47.42903422
 31
0.0
  0
LINE
  5
89
100
AcDbEntity
  8
LAYER0001
  6
CONTINUOUS
 62
       7
100
AcDbLine
 10
158.16308379
 20
181.75963696
 30
0.0
 11
158.30846567
 21
176.20770007
 31
0.0
  0
LINE
  5
8A
100
AcDbEntity
  8
LAYER0001
  6
CONTINUOUS
 62
       7
100
AcDbLine
 10
217.89230842
 20
176.20770007
 30
0.0
 11
218.09253346
 21
183.85402311
 31
0.0
  0
LINE
  5
8B
100
AcDbEntity
  8
LAYER0001
  6
CONTINUOUS
 62
       7
100
AcDbLine
 10
218.09253346
 20
183.85402311
 30
0.0
 11
217.80794177
 21
184.1539203
 31
0.0
  0
LINE
  5
8C
100
AcDbEntity
  8
LAYER0001
  6
CONTINUOUS
 62
       7
100
AcDbLine
 10
158.39283232
 20
184.1539203
 30
0.0
 11
158.16308379
 21
181.75963696
 31
0.0
  0
LINE
  5
8D
100
AcDbEntity
  8
LAYER0001
  6
CONTINUOUS
 62
       7
100
AcDbLine
 10
158.30846567
 20
176.20770007
 30
0.0
 11
160.36224615
 21
174.15392052
 31
0.0
  0
LINE
  5
8E
100
AcDbEntity
  8
LAYER0001
  6
CONTINUOUS
 62
       7
100
AcDbLine
 10
215.83852794
 20
174.15392052
 30
0.0
 11
217.89230842
 21
176.20770007
 31
0.0
  0
LINE
  5
8F
100
AcDbEntity
  8
LAYER0001
  6
CONTINUOUS
 62
       7
100
AcDbLine
 10
170.57420936
 20
145.15357677
 30
0.0
 11
171.62762832
 21
144.1539212
 31
0.0
  0
LINE
  5
90
100
AcDbEntity
  8
LAYER0001
  6
CONTINUOUS
 62
       7
100
AcDbLine
 10
204.5731461
 20
144.15392209
 30
0.0
 11
205.62656506
 21
145.15357766
 31
0.0
  0
LINE
  5
91
100
AcDbEntity
  8
LAYER0001
  6
CONTINUOUS
 62
       7
100
AcDbLine
 10
169.94231167
 20
169.28480504
 30
0.0
 11
170.57420936
 21
145.15357677
 31
0.0
  0
LINE
  5
92
100
AcDbEntity
  8
LAYER0001
  6
CONTINUOUS
 62
       7
100
AcDbLine
 10
205.62656506
 20
145.15357766
 30
0.0
 11
206.25846275
 21
169.28480594
 31
0.0
  0
LINE
  5
93
100
AcDbEntity
  8
LAYER0001
  6
CONTINUOUS
 62
       7
100
AcDbLine
 10
237.80549008
 20
-115.84609162
 30
0.0
 11
138.39528401
 21
-115.84609162
 31
0.0
  0
LINE
  5
94
100
AcDbEntity
  8
LAYER0001
  6
CONTINUOUS
 62
       7
100
AcDbLine
 10
140.25778729
 20
-104.8460797
 30
0.0
 11
235.9429868
 21
-104.8460797
 31
0.0
  0
LINE
  5
95
100
AcDbEntity
  8
LAYER0001
  6
CONTINUOUS
 62
       7
100
AcDbLine
 10
171.60038713
 20
-45.84608387
 30
0.0
 11
204.60038696
 21
-45.84608387
 31
0.0
  0
LINE
  5
96
100
AcDbEntity
  8
LAYER0001
  6
CONTINUOUS
 62
       7
100
AcDbLine
 10
188.10038704
 20
176.20770007
 30
0.0
 11
217.89230842
 21
176.20770007
 31
0.0
  0
LINE
  5
97
100
AcDbEntity
  8
LAYER0001
  6
CONTINUOUS
 62
       7
100
AcDbLine
 10
158.30846567
 20
176.20770007
 30
0.0
 11
188.10038704
 21
176.20770007
 31
0.0
  0
LINE
  5
98
100
AcDbEntity
  8
LAYER0001
  6
CONTINUOUS
 62
       7
100
AcDbLine
 10
188.10038704
 20
184.1539203
 30
0.0
 11
217.80794177
 21
184.1539203
 31
0.0
  0
LINE
  5
99
100
AcDbEntity
  8
LAYER0001
  6
CONTINUOUS
 62
       7
100
AcDbLine
 10
158.39283232
 20
184.1539203
 30
0.0
 11
188.10038704
 21
184.1539203
 31
0.0
  0
LINE
  5
9A
100
AcDbEntity
  8
LAYER0001
  6
CONTINUOUS
 62
       7
100
AcDbLine
 10
188.10038704
 20
174.15392052
 30
0.0
 11
160.36224615
 21
174.15392052
 31
0.0
  0
LINE
  5
9B
100
AcDbEntity
  8
LAYER0001
  6
CONTINUOUS
 62
       7
100
AcDbLine
 10
215.83852794
 20
174.15392052
 30
0.0
 11
188.10038704
 21
174.15392052
 31
0.0
  0
LINE
  5
9C
100
AcDbEntity
  8
LAYER0001
  6
CONTINUOUS
 62
       7
100
AcDbLine
 10
204.57309483
 20
144.15387344
 30
0.0
 11
171.62762832
 21
144.1539212
 31
0.0
  0
LINE
  5
9D
100
AcDbEntity
  8
LAYER0001
  6
CONTINUOUS
 62
       7
100
AcDbLine
 10
-238.09515003
 20
-115.84609162
 30
0.0
 11
-238.09515003
 21
-120.34609329
 31
0.0
  0
LINE
  5
9E
100
AcDbEntity
  8
LAYER0001
  6
CONTINUOUS
 62
       7
100
AcDbLine
 10
-198.09515093
 20
-120.34609329
 30
0.0
 11
-198.09515093
 21
-115.84609162
 31
0.0
  0
LINE
  5
9F
100
AcDbEntity
  8
LAYER0001
  6
CONTINUOUS
 62
       7
100
AcDbLine
 10
-234.09515124
 20
-129.34606682
 30
0.0
 11
-234.09515124
 21
-188.84607565
 31
0.0
  0
LINE
  5
A0
100
AcDbEntity
  8
LAYER0001
  6
CONTINUOUS
 62
       7
100
AcDbLine
 10
-202.09514972
 20
-129.34606682
 30
0.0
 11
-202.09514972
 21
-188.84607565
 31
0.0
  0
LINE
  5
A1
100
AcDbEntity
  8
LAYER0001
  6
CONTINUOUS
 62
       7
100
AcDbLine
 10
-234.09515124
 20
-115.84609162
 30
0.0
 11
-202.09514972
 21
-115.84609162
 31
0.0
  0
LINE
  5
A2
100
AcDbEntity
  8
LAYER0001
  6
CONTINUOUS
 62
       7
100
AcDbLine
 10
-202.09514972
 20
-115.84609162
 30
0.0
 11
-202.09514972
 21
-129.34606682
 31
0.0
  0
LINE
  5
A3
100
AcDbEntity
  8
LAYER0001
  6
CONTINUOUS
 62
       7
100
AcDbLine
 10
-234.09515124
 20
-115.84609162
 30
0.0
 11
-234.09515124
 21
-129.34606682
 31
0.0
  0
LINE
  5
A4
100
AcDbEntity
  8
LAYER0001
  6
CONTINUOUS
 62
       7
100
AcDbLine
 10
-234.09515124
 20
-120.34609329
 30
0.0
 11
-235.42848293
 21
-120.34609329
 31
0.0
  0
LINE
  5
A5
100
AcDbEntity
  8
LAYER0001
  6
CONTINUOUS
 62
       7
100
AcDbLine
 10
-235.42848293
 20
-115.84609162
 30
0.0
 11
-234.09515124
 21
-115.84609162
 31
0.0
  0
LINE
  5
A6
100
AcDbEntity
  8
LAYER0001
  6
CONTINUOUS
 62
       7
100
AcDbLine
 10
-200.76181803
 20
-120.34609329
 30
0.0
 11
-202.09514972
 21
-120.34609329
 31
0.0
  0
LINE
  5
A7
100
AcDbEntity
  8
LAYER0001
  6
CONTINUOUS
 62
       7
100
AcDbLine
 10
-202.09514972
 20
-115.84609162
 30
0.0
 11
-200.76181803
 21
-115.84609162
 31
0.0
  0
LINE
  5
A8
100
AcDbEntity
  8
LAYER0001
  6
CONTINUOUS
 62
       7
100
AcDbLine
 10
-235.42848293
 20
-120.34609329
 30
0.0
 11
-238.09515003
 21
-120.34609329
 31
0.0
  0
LINE
  5
A9
100
AcDbEntity
  8
LAYER0001
  6
CONTINUOUS
 62
       7
100
AcDbLine
 10
-198.09515093
 20
-120.34609329
 30
0.0
 11
-200.76181803
 21
-120.34609329
 31
0.0
  0
LINE
  5
AA
100
AcDbEntity
  8
LAYER0001
  6
CONTINUOUS
 62
       7
100
AcDbLine
 10
-200.76181803
 20
-115.84609162
 30
0.0
 11
-198.09515093
 21
-115.84609162
 31
0.0
  0
LINE
  5
AB
100
AcDbEntity
  8
LAYER0001
  6
CONTINUOUS
 62
       7
100
AcDbLine
 10
-238.09515003
 20
-115.84609162
 30
0.0
 11
-235.42848293
 21
-115.84609162
 31
0.0
  0
ARC
  5
AC
100
AcDbEntity
  8
LAYER0001
  6
CONTINUOUS
 62
       7
100
AcDbCircle
 10
-79.89624483
 20
-153.8460797
 30
0.0
 40
1.00000022
100
AcDbArc
 50
270.0
 51
360.00002732
  0
ARC
  5
AD
100
AcDbEntity
  8
LAYER0001
  6
CONTINUOUS
 62
       7
100
AcDbCircle
 10
-100.39624527
 20
-153.8460797
 30
0.0
 40
1.00000022
100
AcDbArc
 50
179.99997268
 51
270.0
  0
ARC
  5
AE
100
AcDbEntity
  8
LAYER0001
  6
CONTINUOUS
 62
       7
100
AcDbCircle
 10
-66.98988272
 20
169.1539212
 30
0.0
 40
5.0
100
AcDbArc
 50
90.0
 51
178.5
  0
ARC
  5
AF
100
AcDbEntity
  8
LAYER0001
  6
CONTINUOUS
 62
       7
100
AcDbCircle
 10
-113.30260705
 20
169.1539203
 30
0.0
 40
5.0
100
AcDbArc
 50
1.5
 51
90.0
  0
ARC
  5
B0
100
AcDbEntity
  8
LAYER0001
  6
CONTINUOUS
 62
       7
100
AcDbCircle
 10
-141.64624505
 20
-129.3460797
 30
0.0
 40
13.5
100
AcDbArc
 50
90.0
 51
180.0
  0
ARC
  5
B1
100
AcDbEntity
  8
LAYER0001
  6
CONTINUOUS
 62
       7
100
AcDbCircle
 10
-141.64624505
 20
-129.3460797
 30
0.0
 40
9.0
100
AcDbArc
 50
90.0
 51
180.0
  0
ARC
  5
B2
100
AcDbEntity
  8
LAYER0001
  6
CONTINUOUS
 62
       7
100
AcDbCircle
 10
140.25778729
 20
-106.8460797
 30
0.0
 40
2.0
100
AcDbArc
 50
90.0
 51
179.0
  0
ARC
  5
B3
100
AcDbEntity
  8
LAYER0001
  6
CONTINUOUS
 62
       7
100
AcDbCircle
 10
235.9429868
 20
-106.8460797
 30
0.0
 40
2.0
100
AcDbArc
 50
1.0
 51
90.0
  0
ARC
  5
B4
100
AcDbEntity
  8
LAYER0001
  6
CONTINUOUS
 62
       7
100
AcDbCircle
 10
218.68209169
 20
-94.8460797
 30
0.0
 40
10.0
100
AcDbArc
 50
183.0
 51
270.0
  0
ARC
  5
B5
100
AcDbEntity
  8
LAYER0001
  6
CONTINUOUS
 62
       7
100
AcDbCircle
 10
157.5186824
 20
-94.8460797
 30
0.0
 40
10.0
100
AcDbArc
 50
270.0
 51
357.0
  0
ARC
  5
B6
100
AcDbEntity
  8
LAYER0001
  6
CONTINUOUS
 62
       7
100
AcDbCircle
 10
211.25674937
 20
169.1539212
 30
0.0
 40
5.0
100
AcDbArc
 50
90.0
 51
178.5
  0
ARC
  5
B7
100
AcDbEntity
  8
LAYER0001
  6
CONTINUOUS
 62
       7
100
AcDbCircle
 10
164.94402504
 20
169.1539203
 30
0.0
 40
5.0
100
AcDbArc
 50
1.5
 51
90.0
  0
CIRCLE
  5
B8
100
AcDbEntity
  8
LAYER0001
  6
CONTINUOUS
 62
       7
100
AcDbCircle
 10
-218.09515048
 20
-146.8460797
 30
0.0
 40
5.5
  0
CIRCLE
  5
B9
100
AcDbEntity
  8
LAYER0001
  6
CONTINUOUS
 62
       7
100
AcDbCircle
 10
-218.09515048
 20
-181.8460797
 30
0.0
 40
5.5
  0
ARC
  5
BA
100
AcDbEntity
  8
LAYER0001
  6
CONTINUOUS
 62
       7
100
AcDbCircle
 10
-218.09515048
 20
-176.8460797
 30
0.0
 40
19.99999818
100
AcDbArc
 50
216.86988705
 51
323.13011295
  0
LINE
  5
BB
100
AcDbEntity
  8
LAYER0001
  6
CONTINUOUS
 62
       7
100
AcDbLine
 10
-81.14624544
 20
-124.34607159
 30
0.0
 11
-81.45061231
 21
-124.34913453
 31
0.0
  0
LINE
  5
BC
100
AcDbEntity
  8
LAYER0001
  6
CONTINUOUS
 62
       7
100
AcDbLine
 10
-81.45061231
 20
-124.34913453
 30
0.0
 11
-81.75499311
 21
-124.35413062
 31
0.0
  0
LINE
  5
BD
100
AcDbEntity
  8
LAYER0001
  6
CONTINUOUS
 62
       7
100
AcDbLine
 10
-81.75499311
 20
-124.35413062
 30
0.0
 11
-82.05939375
 21
-124.36275863
 31
0.0
  0
LINE
  5
BE
100
AcDbEntity
  8
LAYER0001
  6
CONTINUOUS
 62
       7
100
AcDbLine
 10
-82.05939375
 20
-124.36275863
 30
0.0
 11
-82.36377637
 21
-124.37543727
 31
0.0
  0
LINE
  5
BF
100
AcDbEntity
  8
LAYER0001
  6
CONTINUOUS
 62
       7
100
AcDbLine
 10
-82.36377637
 20
-124.37543727
 30
0.0
 11
-82.66808824
 21
-124.39215036
 31
0.0
  0
LINE
  5
C0
100
AcDbEntity
  8
LAYER0001
  6
CONTINUOUS
 62
       7
100
AcDbLine
 10
-82.66808824
 20
-124.39215036
 30
0.0
 11
-82.97227662
 21
-124.41288138
 31
0.0
  0
LINE
  5
C1
100
AcDbEntity
  8
LAYER0001
  6
CONTINUOUS
 62
       7
100
AcDbLine
 10
-82.97227662
 20
-124.41288138
 30
0.0
 11
-83.27628877
 21
-124.43761379
 31
0.0
  0
LINE
  5
C2
100
AcDbEntity
  8
LAYER0001
  6
CONTINUOUS
 62
       7
100
AcDbLine
 10
-83.27628877
 20
-124.43761379
 30
0.0
 11
-83.58007195
 21
-124.46633107
 31
0.0
  0
LINE
  5
C3
100
AcDbEntity
  8
LAYER0001
  6
CONTINUOUS
 62
       7
100
AcDbLine
 10
-83.58007195
 20
-124.46633107
 30
0.0
 11
-83.88357341
 21
-124.49901668
 31
0.0
  0
LINE
  5
C4
100
AcDbEntity
  8
LAYER0001
  6
CONTINUOUS
 62
       7
100
AcDbLine
 10
-83.88357341
 20
-124.49901668
 30
0.0
 11
-84.18674043
 21
-124.5356541
 31
0.0
  0
LINE
  5
C5
100
AcDbEntity
  8
LAYER0001
  6
CONTINUOUS
 62
       7
100
AcDbLine
 10
-84.18674043
 20
-124.5356541
 30
0.0
 11
-84.48952025
 21
-124.5762268
 31
0.0
  0
LINE
  5
C6
100
AcDbEntity
  8
LAYER0001
  6
CONTINUOUS
 62
       7
100
AcDbLine
 10
-84.48952025
 20
-124.5762268
 30
0.0
 11
-84.79186014
 21
-124.62071824
 31
0.0
  0
LINE
  5
C7
100
AcDbEntity
  8
LAYER0001
  6
CONTINUOUS
 62
       7
100
AcDbLine
 10
-84.79186014
 20
-124.62071824
 30
0.0
 11
-85.09370736
 21
-124.6691119
 31
0.0
  0
LINE
  5
C8
100
AcDbEntity
  8
LAYER0001
  6
CONTINUOUS
 62
       7
100
AcDbLine
 10
-85.09370736
 20
-124.6691119
 30
0.0
 11
-85.39500916
 21
-124.72139125
 31
0.0
  0
LINE
  5
C9
100
AcDbEntity
  8
LAYER0001
  6
CONTINUOUS
 62
       7
100
AcDbLine
 10
-85.39500916
 20
-124.72139125
 30
0.0
 11
-85.69571281
 21
-124.77753975
 31
0.0
  0
LINE
  5
CA
100
AcDbEntity
  8
LAYER0001
  6
CONTINUOUS
 62
       7
100
AcDbLine
 10
-85.69571281
 20
-124.77753975
 30
0.0
 11
-85.99576556
 21
-124.83754087
 31
0.0
  0
LINE
  5
CB
100
AcDbEntity
  8
LAYER0001
  6
CONTINUOUS
 62
       7
100
AcDbLine
 10
-85.99576556
 20
-124.83754087
 30
0.0
 11
-86.29513595
 21
-124.90132492
 31
0.0
  0
LINE
  5
CC
100
AcDbEntity
  8
LAYER0001
  6
CONTINUOUS
 62
       7
100
AcDbLine
 10
-86.29513595
 20
-124.90132492
 30
0.0
 11
-86.59386022
 21
-124.96865294
 31
0.0
  0
LINE
  5
CD
100
AcDbEntity
  8
LAYER0001
  6
CONTINUOUS
 62
       7
100
AcDbLine
 10
-86.59386022
 20
-124.96865294
 30
0.0
 11
-86.89198806
 21
-125.03925232
 31
0.0
  0
LINE
  5
CE
100
AcDbEntity
  8
LAYER0001
  6
CONTINUOUS
 62
       7
100
AcDbLine
 10
-86.89198806
 20
-125.03925232
 30
0.0
 11
-87.18956917
 21
-125.11285044
 31
0.0
  0
LINE
  5
CF
100
AcDbEntity
  8
LAYER0001
  6
CONTINUOUS
 62
       7
100
AcDbLine
 10
-87.18956917
 20
-125.11285044
 30
0.0
 11
-87.48665327
 21
-125.18917469
 31
0.0
  0
LINE
  5
D0
100
AcDbEntity
  8
LAYER0001
  6
CONTINUOUS
 62
       7
100
AcDbLine
 10
-87.48665327
 20
-125.18917469
 30
0.0
 11
-87.78329005
 21
-125.26795246
 31
0.0
  0
LINE
  5
D1
100
AcDbEntity
  8
LAYER0001
  6
CONTINUOUS
 62
       7
100
AcDbLine
 10
-87.78329005
 20
-125.26795246
 30
0.0
 11
-88.07952921
 21
-125.34891113
 31
0.0
  0
LINE
  5
D2
100
AcDbEntity
  8
LAYER0001
  6
CONTINUOUS
 62
       7
100
AcDbLine
 10
-88.07952921
 20
-125.34891113
 30
0.0
 11
-88.37542046
 21
-125.4317781
 31
0.0
  0
LINE
  5
D3
100
AcDbEntity
  8
LAYER0001
  6
CONTINUOUS
 62
       7
100
AcDbLine
 10
-88.37542046
 20
-125.4317781
 30
0.0
 11
-88.67101349
 21
-125.51628074
 31
0.0
  0
LINE
  5
D4
100
AcDbEntity
  8
LAYER0001
  6
CONTINUOUS
 62
       7
100
AcDbLine
 10
-88.67101349
 20
-125.51628074
 30
0.0
 11
-88.96635802
 21
-125.60214645
 31
0.0
  0
LINE
  5
D5
100
AcDbEntity
  8
LAYER0001
  6
CONTINUOUS
 62
       7
100
AcDbLine
 10
-88.96635802
 20
-125.60214645
 30
0.0
 11
-89.26150373
 21
-125.68910261
 31
0.0
  0
LINE
  5
D6
100
AcDbEntity
  8
LAYER0001
  6
CONTINUOUS
 62
       7
100
AcDbLine
 10
-89.26150373
 20
-125.68910261
 30
0.0
 11
-89.55650034
 21
-125.77687661
 31
0.0
  0
LINE
  5
D7
100
AcDbEntity
  8
LAYER0001
  6
CONTINUOUS
 62
       7
100
AcDbLine
 10
-89.55650034
 20
-125.77687661
 30
0.0
 11
-89.85139755
 21
-125.86519584
 31
0.0
  0
LINE
  5
D8
100
AcDbEntity
  8
LAYER0001
  6
CONTINUOUS
 62
       7
100
AcDbLine
 10
-89.85139755
 20
-125.86519584
 30
0.0
 11
-90.14624505
 21
-125.95378768
 31
0.0
  0
LINE
  5
D9
100
AcDbEntity
  8
LAYER0001
  6
CONTINUOUS
 62
       7
100
AcDbLine
 10
-90.14624505
 20
-125.95378768
 30
0.0
 11
-90.50026733
 21
-125.84505122
 31
0.0
  0
LINE
  5
DA
100
AcDbEntity
  8
LAYER0001
  6
CONTINUOUS
 62
       7
100
AcDbLine
 10
-90.50026733
 20
-125.84505122
 30
0.0
 11
-90.85436675
 21
-125.73688816
 31
0.0
  0
LINE
  5
DB
100
AcDbEntity
  8
LAYER0001
  6
CONTINUOUS
 62
       7
100
AcDbLine
 10
-90.85436675
 20
-125.73688816
 30
0.0
 11
-91.20862047
 21
-125.62987187
 31
0.0
  0
LINE
  5
DC
100
AcDbEntity
  8
LAYER0001
  6
CONTINUOUS
 62
       7
100
AcDbLine
 10
-91.20862047
 20
-125.62987187
 30
0.0
 11
-91.56310564
 21
-125.52457574
 31
0.0
  0
LINE
  5
DD
100
AcDbEntity
  8
LAYER0001
  6
CONTINUOUS
 62
       7
100
AcDbLine
 10
-91.56310564
 20
-125.52457574
 30
0.0
 11
-91.9178994
 21
-125.42157316
 31
0.0
  0
LINE
  5
DE
100
AcDbEntity
  8
LAYER0001
  6
CONTINUOUS
 62
       7
100
AcDbLine
 10
-91.9178994
 20
-125.42157316
 30
0.0
 11
-92.2730789
 21
-125.32143752
 31
0.0
  0
LINE
  5
DF
100
AcDbEntity
  8
LAYER0001
  6
CONTINUOUS
 62
       7
100
AcDbLine
 10
-92.2730789
 20
-125.32143752
 30
0.0
 11
-92.6287213
 21
-125.2247422
 31
0.0
  0
LINE
  5
E0
100
AcDbEntity
  8
LAYER0001
  6
CONTINUOUS
 62
       7
100
AcDbLine
 10
-92.6287213
 20
-125.2247422
 30
0.0
 11
-92.98490373
 21
-125.1320606
 31
0.0
  0
LINE
  5
E1
100
AcDbEntity
  8
LAYER0001
  6
CONTINUOUS
 62
       7
100
AcDbLine
 10
-92.98490373
 20
-125.1320606
 30
0.0
 11
-93.34170336
 21
-125.04396609
 31
0.0
  0
LINE
  5
E2
100
AcDbEntity
  8
LAYER0001
  6
CONTINUOUS
 62
       7
100
AcDbLine
 10
-93.34170336
 20
-125.04396609
 30
0.0
 11
-93.69919732
 21
-124.96103208
 31
0.0
  0
LINE
  5
E3
100
AcDbEntity
  8
LAYER0001
  6
CONTINUOUS
 62
       7
100
AcDbLine
 10
-93.69919732
 20
-124.96103208
 30
0.0
 11
-94.05746277
 21
-124.88383194
 31
0.0
  0
LINE
  5
E4
100
AcDbEntity
  8
LAYER0001
  6
CONTINUOUS
 62
       7
100
AcDbLine
 10
-94.05746277
 20
-124.88383194
 30
0.0
 11
-94.41657685
 21
-124.81293906
 31
0.0
  0
LINE
  5
E5
100
AcDbEntity
  8
LAYER0001
  6
CONTINUOUS
 62
       7
100
AcDbLine
 10
-94.41657685
 20
-124.81293906
 30
0.0
 11
-94.77661083
 21
-124.74888308
 31
0.0
  0
LINE
  5
E6
100
AcDbEntity
  8
LAYER0001
  6
CONTINUOUS
 62
       7
100
AcDbLine
 10
-94.77661083
 20
-124.74888308
 30
0.0
 11
-95.13755245
 21
-124.69157294
 31
0.0
  0
LINE
  5
E7
100
AcDbEntity
  8
LAYER0001
  6
CONTINUOUS
 62
       7
100
AcDbLine
 10
-95.13755245
 20
-124.69157294
 30
0.0
 11
-95.49932743
 21
-124.64045649
 31
0.0
  0
LINE
  5
E8
100
AcDbEntity
  8
LAYER0001
  6
CONTINUOUS
 62
       7
100
AcDbLine
 10
-95.49932743
 20
-124.64045649
 30
0.0
 11
-95.86186001
 21
-124.59497069
 31
0.0
  0
LINE
  5
E9
100
AcDbEntity
  8
LAYER0001
  6
CONTINUOUS
 62
       7
100
AcDbLine
 10
-95.86186001
 20
-124.59497069
 30
0.0
 11
-96.22507442
 21
-124.55455246
 31
0.0
  0
LINE
  5
EA
100
AcDbEntity
  8
LAYER0001
  6
CONTINUOUS
 62
       7
100
AcDbLine
 10
-96.22507442
 20
-124.55455246
 30
0.0
 11
-96.58889491
 21
-124.51863873
 31
0.0
  0
LINE
  5
EB
100
AcDbEntity
  8
LAYER0001
  6
CONTINUOUS
 62
       7
100
AcDbLine
 10
-96.58889491
 20
-124.51863873
 30
0.0
 11
-96.95324571
 21
-124.48666646
 31
0.0
  0
LINE
  5
EC
100
AcDbEntity
  8
LAYER0001
  6
CONTINUOUS
 62
       7
100
AcDbLine
 10
-96.95324571
 20
-124.48666646
 30
0.0
 11
-97.31805108
 21
-124.45807256
 31
0.0
  0
LINE
  5
ED
100
AcDbEntity
  8
LAYER0001
  6
CONTINUOUS
 62
       7
100
AcDbLine
 10
-97.31805108
 20
-124.45807256
 30
0.0
 11
-97.68323524
 21
-124.43229399
 31
0.0
  0
LINE
  5
EE
100
AcDbEntity
  8
LAYER0001
  6
CONTINUOUS
 62
       7
100
AcDbLine
 10
-97.68323524
 20
-124.43229399
 30
0.0
 11
-98.04872243
 21
-124.40876766
 31
0.0
  0
LINE
  5
EF
100
AcDbEntity
  8
LAYER0001
  6
CONTINUOUS
 62
       7
100
AcDbLine
 10
-98.04872243
 20
-124.40876766
 30
0.0
 11
-98.41443691
 21
-124.38693053
 31
0.0
  0
LINE
  5
F0
100
AcDbEntity
  8
LAYER0001
  6
CONTINUOUS
 62
       7
100
AcDbLine
 10
-98.41443691
 20
-124.38693053
 30
0.0
 11
-98.78030291
 21
-124.36621953
 31
0.0
  0
LINE
  5
F1
100
AcDbEntity
  8
LAYER0001
  6
CONTINUOUS
 62
       7
100
AcDbLine
 10
-98.78030291
 20
-124.36621953
 30
0.0
 11
-99.14624466
 21
-124.34607159
 31
0.0
  0
LINE
  5
F2
100
AcDbEntity
  8
LAYER0001
  6
CONTINUOUS
 62
       7
100
AcDbLine
 10
-99.14624466
 20
-138.34607016
 30
0.0
 11
-98.84187798
 21
-138.34300725
 31
0.0
  0
LINE
  5
F3
100
AcDbEntity
  8
LAYER0001
  6
CONTINUOUS
 62
       7
100
AcDbLine
 10
-98.84187798
 20
-138.34300725
 30
0.0
 11
-98.53749738
 21
-138.33801115
 31
0.0
  0
LINE
  5
F4
100
AcDbEntity
  8
LAYER0001
  6
CONTINUOUS
 62
       7
100
AcDbLine
 10
-98.53749738
 20
-138.33801115
 30
0.0
 11
-98.23309695
 21
-138.32938304
 31
0.0
  0
LINE
  5
F5
100
AcDbEntity
  8
LAYER0001
  6
CONTINUOUS
 62
       7
100
AcDbLine
 10
-98.23309695
 20
-138.32938304
 30
0.0
 11
-97.92871457
 21
-138.31670423
 31
0.0
  0
LINE
  5
F6
100
AcDbEntity
  8
LAYER0001
  6
CONTINUOUS
 62
       7
100
AcDbLine
 10
-97.92871457
 20
-138.31670423
 30
0.0
 11
-97.62440295
 21
-138.29999091
 31
0.0
  0
LINE
  5
F7
100
AcDbEntity
  8
LAYER0001
  6
CONTINUOUS
 62
       7
100
AcDbLine
 10
-97.62440295
 20
-138.29999091
 30
0.0
 11
-97.32021482
 21
-138.27925964
 31
0.0
  0
LINE
  5
F8
100
AcDbEntity
  8
LAYER0001
  6
CONTINUOUS
 62
       7
100
AcDbLine
 10
-97.32021482
 20
-138.27925964
 30
0.0
 11
-97.01620292
 21
-138.25452697
 31
0.0
  0
LINE
  5
F9
100
AcDbEntity
  8
LAYER0001
  6
CONTINUOUS
 62
       7
100
AcDbLine
 10
-97.01620292
 20
-138.25452697
 30
0.0
 11
-96.71241999
 21
-138.22580946
 31
0.0
  0
LINE
  5
FA
100
AcDbEntity
  8
LAYER0001
  6
CONTINUOUS
 62
       7
100
AcDbLine
 10
-96.71241999
 20
-138.22580946
 30
0.0
 11
-96.40891876
 21
-138.19312366
 31
0.0
  0
LINE
  5
FB
100
AcDbEntity
  8
LAYER0001
  6
CONTINUOUS
 62
       7
100
AcDbLine
 10
-96.40891876
 20
-138.19312366
 30
0.0
 11
-96.10575197
 21
-138.15648613
 31
0.0
  0
LINE
  5
FC
100
AcDbEntity
  8
LAYER0001
  6
CONTINUOUS
 62
       7
100
AcDbLine
 10
-96.10575197
 20
-138.15648613
 30
0.0
 11
-95.80297235
 21
-138.11591342
 31
0.0
  0
LINE
  5
FD
100
AcDbEntity
  8
LAYER0001
  6
CONTINUOUS
 62
       7
100
AcDbLine
 10
-95.80297235
 20
-138.11591342
 30
0.0
 11
-95.50063264
 21
-138.07142208
 31
0.0
  0
LINE
  5
FE
100
AcDbEntity
  8
LAYER0001
  6
CONTINUOUS
 62
       7
100
AcDbLine
 10
-95.50063264
 20
-138.07142208
 30
0.0
 11
-95.19878558
 21
-138.02302867
 31
0.0
  0
LINE
  5
FF
100
AcDbEntity
  8
LAYER0001
  6
CONTINUOUS
 62
       7
100
AcDbLine
 10
-95.19878558
 20
-138.02302867
 30
0.0
 11
-94.89748389
 21
-137.97074975
 31
0.0
  0
LINE
  5
100
100
AcDbEntity
  8
LAYER0001
  6
CONTINUOUS
 62
       7
100
AcDbLine
 10
-94.89748389
 20
-137.97074975
 30
0.0
 11
-94.59678032
 21
-137.91460186
 31
0.0
  0
LINE
  5
101
100
AcDbEntity
  8
LAYER0001
  6
CONTINUOUS
 62
       7
100
AcDbLine
 10
-94.59678032
 20
-137.91460186
 30
0.0
 11
-94.2967276
 21
-137.85460159
 31
0.0
  0
LINE
  5
102
100
AcDbEntity
  8
LAYER0001
  6
CONTINUOUS
 62
       7
100
AcDbLine
 10
-94.2967276
 20
-137.85460159
 30
0.0
 11
-93.99735719
 21
-137.79081861
 31
0.0
  0
LINE
  5
103
100
AcDbEntity
  8
LAYER0001
  6
CONTINUOUS
 62
       7
100
AcDbLine
 10
-93.99735719
 20
-137.79081861
 30
0.0
 11
-93.69863286
 21
-137.72349189
 31
0.0
  0
LINE
  5
104
100
AcDbEntity
  8
LAYER0001
  6
CONTINUOUS
 62
       7
100
AcDbLine
 10
-93.69863286
 20
-137.72349189
 30
0.0
 11
-93.40050492
 21
-137.65289402
 31
0.0
  0
LINE
  5
105
100
AcDbEntity
  8
LAYER0001
  6
CONTINUOUS
 62
       7
100
AcDbLine
 10
-93.40050492
 20
-137.65289402
 30
0.0
 11
-93.10292366
 21
-137.57929759
 31
0.0
  0
LINE
  5
106
100
AcDbEntity
  8
LAYER0001
  6
CONTINUOUS
 62
       7
100
AcDbLine
 10
-93.10292366
 20
-137.57929759
 30
0.0
 11
-92.80583939
 21
-137.5029752
 31
0.0
  0
LINE
  5
107
100
AcDbEntity
  8
LAYER0001
  6
CONTINUOUS
 62
       7
100
AcDbLine
 10
-92.80583939
 20
-137.5029752
 30
0.0
 11
-92.50920241
 21
-137.42419945
 31
0.0
  0
LINE
  5
108
100
AcDbEntity
  8
LAYER0001
  6
CONTINUOUS
 62
       7
100
AcDbLine
 10
-92.50920241
 20
-137.42419945
 30
0.0
 11
-92.21296301
 21
-137.34324293
 31
0.0
  0
LINE
  5
109
100
AcDbEntity
  8
LAYER0001
  6
CONTINUOUS
 62
       7
100
AcDbLine
 10
-92.21296301
 20
-137.34324293
 30
0.0
 11
-91.91707151
 21
-137.26037824
 31
0.0
  0
LINE
  5
10A
100
AcDbEntity
  8
LAYER0001
  6
CONTINUOUS
 62
       7
100
AcDbLine
 10
-91.91707151
 20
-137.26037824
 30
0.0
 11
-91.6214782
 21
-137.17587798
 31
0.0
  0
LINE
  5
10B
100
AcDbEntity
  8
LAYER0001
  6
CONTINUOUS
 62
       7
100
AcDbLine
 10
-91.6214782
 20
-137.17587798
 30
0.0
 11
-91.32613337
 21
-137.09001473
 31
0.0
  0
LINE
  5
10C
100
AcDbEntity
  8
LAYER0001
  6
CONTINUOUS
 62
       7
100
AcDbLine
 10
-91.32613337
 20
-137.09001473
 30
0.0
 11
-91.03098735
 21
-137.00306111
 31
0.0
  0
LINE
  5
10D
100
AcDbEntity
  8
LAYER0001
  6
CONTINUOUS
 62
       7
100
AcDbLine
 10
-91.03098735
 20
-137.00306111
 30
0.0
 11
-90.73599042
 21
-136.91528969
 31
0.0
  0
LINE
  5
10E
100
AcDbEntity
  8
LAYER0001
  6
CONTINUOUS
 62
       7
100
AcDbLine
 10
-90.73599042
 20
-136.91528969
 30
0.0
 11
-90.44109289
 21
-136.82697308
 31
0.0
  0
LINE
  5
10F
100
AcDbEntity
  8
LAYER0001
  6
CONTINUOUS
 62
       7
100
AcDbLine
 10
-90.44109289
 20
-136.82697308
 30
0.0
 11
-90.14624505
 21
-136.73838388
 31
0.0
  0
LINE
  5
110
100
AcDbEntity
  8
LAYER0001
  6
CONTINUOUS
 62
       7
100
AcDbLine
 10
-90.14624505
 20
-136.73838388
 30
0.0
 11
-89.7922229
 21
-136.84712089
 31
0.0
  0
LINE
  5
111
100
AcDbEntity
  8
LAYER0001
  6
CONTINUOUS
 62
       7
100
AcDbLine
 10
-89.7922229
 20
-136.84712089
 30
0.0
 11
-89.4381236
 21
-136.95528449
 31
0.0
  0
LINE
  5
112
100
AcDbEntity
  8
LAYER0001
  6
CONTINUOUS
 62
       7
100
AcDbLine
 10
-89.4381236
 20
-136.95528449
 30
0.0
 11
-89.08387
 21
-137.06230127
 31
0.0
  0
LINE
  5
113
100
AcDbEntity
  8
LAYER0001
  6
CONTINUOUS
 62
       7
100
AcDbLine
 10
-89.08387
 20
-137.06230127
 30
0.0
 11
-88.72938495
 21
-137.16759782
 31
0.0
  0
LINE
  5
114
100
AcDbEntity
  8
LAYER0001
  6
CONTINUOUS
 62
       7
100
AcDbLine
 10
-88.72938495
 20
-137.16759782
 30
0.0
 11
-88.3745913
 21
-137.27060073
 31
0.0
  0
LINE
  5
115
100
AcDbEntity
  8
LAYER0001
  6
CONTINUOUS
 62
       7
100
AcDbLine
 10
-88.3745913
 20
-137.27060073
 30
0.0
 11
-88.0194119
 21
-137.37073659
 31
0.0
  0
LINE
  5
116
100
AcDbEntity
  8
LAYER0001
  6
CONTINUOUS
 62
       7
100
AcDbLine
 10
-88.0194119
 20
-137.37073659
 30
0.0
 11
-87.66376959
 21
-137.46743199
 31
0.0
  0
LINE
  5
117
100
AcDbEntity
  8
LAYER0001
  6
CONTINUOUS
 62
       7
100
AcDbLine
 10
-87.66376959
 20
-137.46743199
 30
0.0
 11
-87.30758724
 21
-137.56011352
 31
0.0
  0
LINE
  5
118
100
AcDbEntity
  8
LAYER0001
  6
CONTINUOUS
 62
       7
100
AcDbLine
 10
-87.30758724
 20
-137.56011352
 30
0.0
 11
-86.95078768
 21
-137.64820777
 31
0.0
  0
LINE
  5
119
100
AcDbEntity
  8
LAYER0001
  6
CONTINUOUS
 62
       7
100
AcDbLine
 10
-86.95078768
 20
-137.64820777
 30
0.0
 11
-86.59329377
 21
-137.73114133
 31
0.0
  0
LINE
  5
11A
100
AcDbEntity
  8
LAYER0001
  6
CONTINUOUS
 62
       7
100
AcDbLine
 10
-86.59329377
 20
-137.73114133
 30
0.0
 11
-86.23502836
 21
-137.80834079
 31
0.0
  0
LINE
  5
11B
100
AcDbEntity
  8
LAYER0001
  6
CONTINUOUS
 62
       7
100
AcDbLine
 10
-86.23502836
 20
-137.80834079
 30
0.0
 11
-85.8759143
 21
-137.87923274
 31
0.0
  0
LINE
  5
11C
100
AcDbEntity
  8
LAYER0001
  6
CONTINUOUS
 62
       7
100
AcDbLine
 10
-85.8759143
 20
-137.87923274
 30
0.0
 11
-85.51588032
 21
-137.94328752
 31
0.0
  0
LINE
  5
11D
100
AcDbEntity
  8
LAYER0001
  6
CONTINUOUS
 62
       7
100
AcDbLine
 10
-85.51588032
 20
-137.94328752
 30
0.0
 11
-85.15493867
 21
-138.0005962
 31
0.0
  0
LINE
  5
11E
100
AcDbEntity
  8
LAYER0001
  6
CONTINUOUS
 62
       7
100
AcDbLine
 10
-85.15493867
 20
-138.0005962
 30
0.0
 11
-84.79316366
 21
-138.05171094
 31
0.0
  0
LINE
  5
11F
100
AcDbEntity
  8
LAYER0001
  6
CONTINUOUS
 62
       7
100
AcDbLine
 10
-84.79316366
 20
-138.05171094
 30
0.0
 11
-84.43063103
 21
-138.09719481
 31
0.0
  0
LINE
  5
120
100
AcDbEntity
  8
LAYER0001
  6
CONTINUOUS
 62
       7
100
AcDbLine
 10
-84.43063103
 20
-138.09719481
 30
0.0
 11
-84.06741655
 21
-138.13761091
 31
0.0
  0
LINE
  5
121
100
AcDbEntity
  8
LAYER0001
  6
CONTINUOUS
 62
       7
100
AcDbLine
 10
-84.06741655
 20
-138.13761091
 30
0.0
 11
-83.70359598
 21
-138.17352232
 31
0.0
  0
LINE
  5
122
100
AcDbEntity
  8
LAYER0001
  6
CONTINUOUS
 62
       7
100
AcDbLine
 10
-83.70359598
 20
-138.17352232
 30
0.0
 11
-83.33924508
 21
-138.20549213
 31
0.0
  0
LINE
  5
123
100
AcDbEntity
  8
LAYER0001
  6
CONTINUOUS
 62
       7
100
AcDbLine
 10
-83.33924508
 20
-138.20549213
 30
0.0
 11
-82.97443962
 21
-138.23408343
 31
0.0
  0
LINE
  5
124
100
AcDbEntity
  8
LAYER0001
  6
CONTINUOUS
 62
       7
100
AcDbLine
 10
-82.97443962
 20
-138.23408343
 30
0.0
 11
-82.60925535
 21
-138.25985929
 31
0.0
  0
LINE
  5
125
100
AcDbEntity
  8
LAYER0001
  6
CONTINUOUS
 62
       7
100
AcDbLine
 10
-82.60925535
 20
-138.25985929
 30
0.0
 11
-82.24376804
 21
-138.28338281
 31
0.0
  0
LINE
  5
126
100
AcDbEntity
  8
LAYER0001
  6
CONTINUOUS
 62
       7
100
AcDbLine
 10
-82.24376804
 20
-138.28338281
 30
0.0
 11
-81.87805344
 21
-138.30521707
 31
0.0
  0
LINE
  5
127
100
AcDbEntity
  8
LAYER0001
  6
CONTINUOUS
 62
       7
100
AcDbLine
 10
-81.87805344
 20
-138.30521707
 30
0.0
 11
-81.51218732
 21
-138.32592516
 31
0.0
  0
LINE
  5
128
100
AcDbEntity
  8
LAYER0001
  6
CONTINUOUS
 62
       7
100
AcDbLine
 10
-81.51218732
 20
-138.32592516
 30
0.0
 11
-81.14624544
 21
-138.34607016
 31
0.0
  0
LINE
  5
129
100
AcDbEntity
  8
LAYER0001
  6
CONTINUOUS
 62
       7
100
AcDbLine
 10
-72.14624583
 20
-125.95378768
 30
0.0
 11
-72.50026802
 21
-125.84505122
 31
0.0
  0
LINE
  5
12A
100
AcDbEntity
  8
LAYER0001
  6
CONTINUOUS
 62
       7
100
AcDbLine
 10
-72.50026802
 20
-125.84505122
 30
0.0
 11
-72.85436737
 21
-125.73688814
 31
0.0
  0
LINE
  5
12B
100
AcDbEntity
  8
LAYER0001
  6
CONTINUOUS
 62
       7
100
AcDbLine
 10
-72.85436737
 20
-125.73688814
 30
0.0
 11
-73.20862102
 21
-125.62987184
 31
0.0
  0
LINE
  5
12C
100
AcDbEntity
  8
LAYER0001
  6
CONTINUOUS
 62
       7
100
AcDbLine
 10
-73.20862102
 20
-125.62987184
 30
0.0
 11
-73.56310611
 21
-125.52457571
 31
0.0
  0
LINE
  5
12D
100
AcDbEntity
  8
LAYER0001
  6
CONTINUOUS
 62
       7
100
AcDbLine
 10
-73.56310611
 20
-125.52457571
 30
0.0
 11
-73.9178998
 21
-125.42157312
 31
0.0
  0
LINE
  5
12E
100
AcDbEntity
  8
LAYER0001
  6
CONTINUOUS
 62
       7
100
AcDbLine
 10
-73.9178998
 20
-125.42157312
 30
0.0
 11
-74.27307925
 21
-125.32143748
 31
0.0
  0
LINE
  5
12F
100
AcDbEntity
  8
LAYER0001
  6
CONTINUOUS
 62
       7
100
AcDbLine
 10
-74.27307925
 20
-125.32143748
 30
0.0
 11
-74.62872158
 21
-125.22474216
 31
0.0
  0
LINE
  5
130
100
AcDbEntity
  8
LAYER0001
  6
CONTINUOUS
 62
       7
100
AcDbLine
 10
-74.62872158
 20
-125.22474216
 30
0.0
 11
-74.98490397
 21
-125.13206055
 31
0.0
  0
LINE
  5
131
100
AcDbEntity
  8
LAYER0001
  6
CONTINUOUS
 62
       7
100
AcDbLine
 10
-74.98490397
 20
-125.13206055
 30
0.0
 11
-75.34170355
 21
-125.04396604
 31
0.0
  0
LINE
  5
132
100
AcDbEntity
  8
LAYER0001
  6
CONTINUOUS
 62
       7
100
AcDbLine
 10
-75.34170355
 20
-125.04396604
 30
0.0
 11
-75.69919748
 21
-124.96103202
 31
0.0
  0
LINE
  5
133
100
AcDbEntity
  8
LAYER0001
  6
CONTINUOUS
 62
       7
100
AcDbLine
 10
-75.69919748
 20
-124.96103202
 30
0.0
 11
-76.05746291
 21
-124.88383188
 31
0.0
  0
LINE
  5
134
100
AcDbEntity
  8
LAYER0001
  6
CONTINUOUS
 62
       7
100
AcDbLine
 10
-76.05746291
 20
-124.88383188
 30
0.0
 11
-76.41657698
 21
-124.812939
 31
0.0
  0
LINE
  5
135
100
AcDbEntity
  8
LAYER0001
  6
CONTINUOUS
 62
       7
100
AcDbLine
 10
-76.41657698
 20
-124.812939
 30
0.0
 11
-76.77661096
 21
-124.74888303
 31
0.0
  0
LINE
  5
136
100
AcDbEntity
  8
LAYER0001
  6
CONTINUOUS
 62
       7
100
AcDbLine
 10
-76.77661096
 20
-124.74888303
 30
0.0
 11
-77.1375526
 21
-124.69157289
 31
0.0
  0
LINE
  5
137
100
AcDbEntity
  8
LAYER0001
  6
CONTINUOUS
 62
       7
100
AcDbLine
 10
-77.1375526
 20
-124.69157289
 30
0.0
 11
-77.4993276
 21
-124.64045645
 31
0.0
  0
LINE
  5
138
100
AcDbEntity
  8
LAYER0001
  6
CONTINUOUS
 62
       7
100
AcDbLine
 10
-77.4993276
 20
-124.64045645
 30
0.0
 11
-77.86186021
 21
-124.59497065
 31
0.0
  0
LINE
  5
139
100
AcDbEntity
  8
LAYER0001
  6
CONTINUOUS
 62
       7
100
AcDbLine
 10
-77.86186021
 20
-124.59497065
 30
0.0
 11
-78.22507466
 21
-124.55455242
 31
0.0
  0
LINE
  5
13A
100
AcDbEntity
  8
LAYER0001
  6
CONTINUOUS
 62
       7
100
AcDbLine
 10
-78.22507466
 20
-124.55455242
 30
0.0
 11
-78.5888952
 21
-124.5186387
 31
0.0
  0
LINE
  5
13B
100
AcDbEntity
  8
LAYER0001
  6
CONTINUOUS
 62
       7
100
AcDbLine
 10
-78.5888952
 20
-124.5186387
 30
0.0
 11
-78.95324606
 21
-124.48666643
 31
0.0
  0
LINE
  5
13C
100
AcDbEntity
  8
LAYER0001
  6
CONTINUOUS
 62
       7
100
AcDbLine
 10
-78.95324606
 20
-124.48666643
 30
0.0
 11
-79.31805149
 21
-124.45807254
 31
0.0
  0
LINE
  5
13D
100
AcDbEntity
  8
LAYER0001
  6
CONTINUOUS
 62
       7
100
AcDbLine
 10
-79.31805149
 20
-124.45807254
 30
0.0
 11
-79.68323571
 21
-124.43229396
 31
0.0
  0
LINE
  5
13E
100
AcDbEntity
  8
LAYER0001
  6
CONTINUOUS
 62
       7
100
AcDbLine
 10
-79.68323571
 20
-124.43229396
 30
0.0
 11
-80.04872298
 21
-124.40876765
 31
0.0
  0
LINE
  5
13F
100
AcDbEntity
  8
LAYER0001
  6
CONTINUOUS
 62
       7
100
AcDbLine
 10
-80.04872298
 20
-124.40876765
 30
0.0
 11
-80.41443753
 21
-124.38693052
 31
0.0
  0
LINE
  5
140
100
AcDbEntity
  8
LAYER0001
  6
CONTINUOUS
 62
       7
100
AcDbLine
 10
-80.41443753
 20
-124.38693052
 30
0.0
 11
-80.78030361
 21
-124.36621953
 31
0.0
  0
LINE
  5
141
100
AcDbEntity
  8
LAYER0001
  6
CONTINUOUS
 62
       7
100
AcDbLine
 10
-80.78030361
 20
-124.36621953
 30
0.0
 11
-81.14624544
 21
-124.34607159
 31
0.0
  0
LINE
  5
142
100
AcDbEntity
  8
LAYER0001
  6
CONTINUOUS
 62
       7
100
AcDbLine
 10
-81.14624544
 20
-138.34607016
 30
0.0
 11
-80.84187881
 21
-138.34300726
 31
0.0
  0
LINE
  5
143
100
AcDbEntity
  8
LAYER0001
  6
CONTINUOUS
 62
       7
100
AcDbLine
 10
-80.84187881
 20
-138.34300726
 30
0.0
 11
-80.53749826
 21
-138.33801118
 31
0.0
  0
LINE
  5
144
100
AcDbEntity
  8
LAYER0001
  6
CONTINUOUS
 62
       7
100
AcDbLine
 10
-80.53749826
 20
-138.33801118
 30
0.0
 11
-80.23309786
 21
-138.32938308
 31
0.0
  0
LINE
  5
145
100
AcDbEntity
  8
LAYER0001
  6
CONTINUOUS
 62
       7
100
AcDbLine
 10
-80.23309786
 20
-138.32938308
 30
0.0
 11
-79.92871548
 21
-138.31670427
 31
0.0
  0
LINE
  5
146
100
AcDbEntity
  8
LAYER0001
  6
CONTINUOUS
 62
       7
100
AcDbLine
 10
-79.92871548
 20
-138.31670427
 30
0.0
 11
-79.62440383
 21
-138.29999096
 31
0.0
  0
LINE
  5
147
100
AcDbEntity
  8
LAYER0001
  6
CONTINUOUS
 62
       7
100
AcDbLine
 10
-79.62440383
 20
-138.29999096
 30
0.0
 11
-79.32021566
 21
-138.2792597
 31
0.0
  0
LINE
  5
148
100
AcDbEntity
  8
LAYER0001
  6
CONTINUOUS
 62
       7
100
AcDbLine
 10
-79.32021566
 20
-138.2792597
 30
0.0
 11
-79.0162037
 21
-138.25452704
 31
0.0
  0
LINE
  5
149
100
AcDbEntity
  8
LAYER0001
  6
CONTINUOUS
 62
       7
100
AcDbLine
 10
-79.0162037
 20
-138.25452704
 30
0.0
 11
-78.7124207
 21
-138.22580953
 31
0.0
  0
LINE
  5
14A
100
AcDbEntity
  8
LAYER0001
  6
CONTINUOUS
 62
       7
100
AcDbLine
 10
-78.7124207
 20
-138.22580953
 30
0.0
 11
-78.40891939
 21
-138.19312373
 31
0.0
  0
LINE
  5
14B
100
AcDbEntity
  8
LAYER0001
  6
CONTINUOUS
 62
       7
100
AcDbLine
 10
-78.40891939
 20
-138.19312373
 30
0.0
 11
-78.10575251
 21
-138.1564862
 31
0.0
  0
LINE
  5
14C
100
AcDbEntity
  8
LAYER0001
  6
CONTINUOUS
 62
       7
100
AcDbLine
 10
-78.10575251
 20
-138.1564862
 30
0.0
 11
-77.80297281
 21
-138.11591348
 31
0.0
  0
LINE
  5
14D
100
AcDbEntity
  8
LAYER0001
  6
CONTINUOUS
 62
       7
100
AcDbLine
 10
-77.80297281
 20
-138.11591348
 30
0.0
 11
-77.50063301
 21
-138.07142215
 31
0.0
  0
LINE
  5
14E
100
AcDbEntity
  8
LAYER0001
  6
CONTINUOUS
 62
       7
100
AcDbLine
 10
-77.50063301
 20
-138.07142215
 30
0.0
 11
-77.19878587
 21
-138.02302874
 31
0.0
  0
LINE
  5
14F
100
AcDbEntity
  8
LAYER0001
  6
CONTINUOUS
 62
       7
100
AcDbLine
 10
-77.19878587
 20
-138.02302874
 30
0.0
 11
-76.89748411
 21
-137.97074981
 31
0.0
  0
LINE
  5
150
100
AcDbEntity
  8
LAYER0001
  6
CONTINUOUS
 62
       7
100
AcDbLine
 10
-76.89748411
 20
-137.97074981
 30
0.0
 11
-76.59678048
 21
-137.91460192
 31
0.0
  0
LINE
  5
151
100
AcDbEntity
  8
LAYER0001
  6
CONTINUOUS
 62
       7
100
AcDbLine
 10
-76.59678048
 20
-137.91460192
 30
0.0
 11
-76.2967277
 21
-137.85460164
 31
0.0
  0
LINE
  5
152
100
AcDbEntity
  8
LAYER0001
  6
CONTINUOUS
 62
       7
100
AcDbLine
 10
-76.2967277
 20
-137.85460164
 30
0.0
 11
-75.99735727
 21
-137.79081866
 31
0.0
  0
LINE
  5
153
100
AcDbEntity
  8
LAYER0001
  6
CONTINUOUS
 62
       7
100
AcDbLine
 10
-75.99735727
 20
-137.79081866
 30
0.0
 11
-75.69863293
 21
-137.72349194
 31
0.0
  0
LINE
  5
154
100
AcDbEntity
  8
LAYER0001
  6
CONTINUOUS
 62
       7
100
AcDbLine
 10
-75.69863293
 20
-137.72349194
 30
0.0
 11
-75.400505
 21
-137.65289406
 31
0.0
  0
LINE
  5
155
100
AcDbEntity
  8
LAYER0001
  6
CONTINUOUS
 62
       7
100
AcDbLine
 10
-75.400505
 20
-137.65289406
 30
0.0
 11
-75.10292376
 21
-137.57929763
 31
0.0
  0
LINE
  5
156
100
AcDbEntity
  8
LAYER0001
  6
CONTINUOUS
 62
       7
100
AcDbLine
 10
-75.10292376
 20
-137.57929763
 30
0.0
 11
-74.80583952
 21
-137.50297524
 31
0.0
  0
LINE
  5
157
100
AcDbEntity
  8
LAYER0001
  6
CONTINUOUS
 62
       7
100
AcDbLine
 10
-74.80583952
 20
-137.50297524
 30
0.0
 11
-74.50920258
 21
-137.42419948
 31
0.0
  0
LINE
  5
158
100
AcDbEntity
  8
LAYER0001
  6
CONTINUOUS
 62
       7
100
AcDbLine
 10
-74.50920258
 20
-137.42419948
 30
0.0
 11
-74.21296323
 21
-137.34324296
 31
0.0
  0
LINE
  5
159
100
AcDbEntity
  8
LAYER0001
  6
CONTINUOUS
 62
       7
100
AcDbLine
 10
-74.21296323
 20
-137.34324296
 30
0.0
 11
-73.91707179
 21
-137.26037827
 31
0.0
  0
LINE
  5
15A
100
AcDbEntity
  8
LAYER0001
  6
CONTINUOUS
 62
       7
100
AcDbLine
 10
-73.91707179
 20
-137.26037827
 30
0.0
 11
-73.62147855
 21
-137.175878
 31
0.0
  0
LINE
  5
15B
100
AcDbEntity
  8
LAYER0001
  6
CONTINUOUS
 62
       7
100
AcDbLine
 10
-73.62147855
 20
-137.175878
 30
0.0
 11
-73.3261338
 21
-137.09001475
 31
0.0
  0
LINE
  5
15C
100
AcDbEntity
  8
LAYER0001
  6
CONTINUOUS
 62
       7
100
AcDbLine
 10
-73.3261338
 20
-137.09001475
 30
0.0
 11
-73.03098786
 21
-137.00306112
 31
0.0
  0
LINE
  5
15D
100
AcDbEntity
  8
LAYER0001
  6
CONTINUOUS
 62
       7
100
AcDbLine
 10
-73.03098786
 20
-137.00306112
 30
0.0
 11
-72.73599102
 21
-136.9152897
 31
0.0
  0
LINE
  5
15E
100
AcDbEntity
  8
LAYER0001
  6
CONTINUOUS
 62
       7
100
AcDbLine
 10
-72.73599102
 20
-136.9152897
 30
0.0
 11
-72.44109357
 21
-136.82697309
 31
0.0
  0
LINE
  5
15F
100
AcDbEntity
  8
LAYER0001
  6
CONTINUOUS
 62
       7
100
AcDbLine
 10
-72.44109357
 20
-136.82697309
 30
0.0
 11
-72.14624583
 21
-136.73838388
 31
0.0
  0
LINE
  5
160
100
AcDbEntity
  8
LAYER0001
  6
CONTINUOUS
 62
       7
100
AcDbLine
 10
-99.14624466
 20
-124.34607159
 30
0.0
 11
-99.45061148
 21
-124.34913452
 31
0.0
  0
LINE
  5
161
100
AcDbEntity
  8
LAYER0001
  6
CONTINUOUS
 62
       7
100
AcDbLine
 10
-99.45061148
 20
-124.34913452
 30
0.0
 11
-99.75499223
 21
-124.35413059
 31
0.0
  0
LINE
  5
162
100
AcDbEntity
  8
LAYER0001
  6
CONTINUOUS
 62
       7
100
AcDbLine
 10
-99.75499223
 20
-124.35413059
 30
0.0
 11
-100.05939285
 21
-124.36275859
 31
0.0
  0
LINE
  5
163
100
AcDbEntity
  8
LAYER0001
  6
CONTINUOUS
 62
       7
100
AcDbLine
 10
-100.05939285
 20
-124.36275859
 30
0.0
 11
-100.36377547
 21
-124.37543722
 31
0.0
  0
LINE
  5
164
100
AcDbEntity
  8
LAYER0001
  6
CONTINUOUS
 62
       7
100
AcDbLine
 10
-100.36377547
 20
-124.37543722
 30
0.0
 11
-100.66808736
 21
-124.39215031
 31
0.0
  0
LINE
  5
165
100
AcDbEntity
  8
LAYER0001
  6
CONTINUOUS
 62
       7
100
AcDbLine
 10
-100.66808736
 20
-124.39215031
 30
0.0
 11
-100.97227578
 21
-124.41288132
 31
0.0
  0
LINE
  5
166
100
AcDbEntity
  8
LAYER0001
  6
CONTINUOUS
 62
       7
100
AcDbLine
 10
-100.97227578
 20
-124.41288132
 30
0.0
 11
-101.27628799
 21
-124.43761372
 31
0.0
  0
LINE
  5
167
100
AcDbEntity
  8
LAYER0001
  6
CONTINUOUS
 62
       7
100
AcDbLine
 10
-101.27628799
 20
-124.43761372
 30
0.0
 11
-101.58007124
 21
-124.466331
 31
0.0
  0
LINE
  5
168
100
AcDbEntity
  8
LAYER0001
  6
CONTINUOUS
 62
       7
100
AcDbLine
 10
-101.58007124
 20
-124.466331
 30
0.0
 11
-101.88357279
 21
-124.49901661
 31
0.0
  0
LINE
  5
169
100
AcDbEntity
  8
LAYER0001
  6
CONTINUOUS
 62
       7
100
AcDbLine
 10
-101.88357279
 20
-124.49901661
 30
0.0
 11
-102.18673989
 21
-124.53565403
 31
0.0
  0
LINE
  5
16A
100
AcDbEntity
  8
LAYER0001
  6
CONTINUOUS
 62
       7
100
AcDbLine
 10
-102.18673989
 20
-124.53565403
 30
0.0
 11
-102.4895198
 21
-124.57622673
 31
0.0
  0
LINE
  5
16B
100
AcDbEntity
  8
LAYER0001
  6
CONTINUOUS
 62
       7
100
AcDbLine
 10
-102.4895198
 20
-124.57622673
 30
0.0
 11
-102.79185977
 21
-124.62071817
 31
0.0
  0
LINE
  5
16C
100
AcDbEntity
  8
LAYER0001
  6
CONTINUOUS
 62
       7
100
AcDbLine
 10
-102.79185977
 20
-124.62071817
 30
0.0
 11
-103.09370707
 21
-124.66911183
 31
0.0
  0
LINE
  5
16D
100
AcDbEntity
  8
LAYER0001
  6
CONTINUOUS
 62
       7
100
AcDbLine
 10
-103.09370707
 20
-124.66911183
 30
0.0
 11
-103.39500894
 21
-124.72139119
 31
0.0
  0
LINE
  5
16E
100
AcDbEntity
  8
LAYER0001
  6
CONTINUOUS
 62
       7
100
AcDbLine
 10
-103.39500894
 20
-124.72139119
 30
0.0
 11
-103.69571265
 21
-124.7775397
 31
0.0
  0
LINE
  5
16F
100
AcDbEntity
  8
LAYER0001
  6
CONTINUOUS
 62
       7
100
AcDbLine
 10
-103.69571265
 20
-124.7775397
 30
0.0
 11
-103.99576546
 21
-124.83754081
 31
0.0
  0
LINE
  5
170
100
AcDbEntity
  8
LAYER0001
  6
CONTINUOUS
 62
       7
100
AcDbLine
 10
-103.99576546
 20
-124.83754081
 30
0.0
 11
-104.29513587
 21
-124.90132487
 31
0.0
  0
LINE
  5
171
100
AcDbEntity
  8
LAYER0001
  6
CONTINUOUS
 62
       7
100
AcDbLine
 10
-104.29513587
 20
-124.90132487
 30
0.0
 11
-104.59386015
 21
-124.96865289
 31
0.0
  0
LINE
  5
172
100
AcDbEntity
  8
LAYER0001
  6
CONTINUOUS
 62
       7
100
AcDbLine
 10
-104.59386015
 20
-124.96865289
 30
0.0
 11
-104.89198798
 21
-125.03925227
 31
0.0
  0
LINE
  5
173
100
AcDbEntity
  8
LAYER0001
  6
CONTINUOUS
 62
       7
100
AcDbLine
 10
-104.89198798
 20
-125.03925227
 30
0.0
 11
-105.18956908
 21
-125.1128504
 31
0.0
  0
LINE
  5
174
100
AcDbEntity
  8
LAYER0001
  6
CONTINUOUS
 62
       7
100
AcDbLine
 10
-105.18956908
 20
-125.1128504
 30
0.0
 11
-105.48665315
 21
-125.18917466
 31
0.0
  0
LINE
  5
175
100
AcDbEntity
  8
LAYER0001
  6
CONTINUOUS
 62
       7
100
AcDbLine
 10
-105.48665315
 20
-125.18917466
 30
0.0
 11
-105.78328988
 21
-125.26795243
 31
0.0
  0
LINE
  5
176
100
AcDbEntity
  8
LAYER0001
  6
CONTINUOUS
 62
       7
100
AcDbLine
 10
-105.78328988
 20
-125.26795243
 30
0.0
 11
-106.07952899
 21
-125.34891111
 31
0.0
  0
LINE
  5
177
100
AcDbEntity
  8
LAYER0001
  6
CONTINUOUS
 62
       7
100
AcDbLine
 10
-106.07952899
 20
-125.34891111
 30
0.0
 11
-106.37542017
 21
-125.43177807
 31
0.0
  0
LINE
  5
178
100
AcDbEntity
  8
LAYER0001
  6
CONTINUOUS
 62
       7
100
AcDbLine
 10
-106.37542017
 20
-125.43177807
 30
0.0
 11
-106.67101314
 21
-125.51628072
 31
0.0
  0
LINE
  5
179
100
AcDbEntity
  8
LAYER0001
  6
CONTINUOUS
 62
       7
100
AcDbLine
 10
-106.67101314
 20
-125.51628072
 30
0.0
 11
-106.96635759
 21
-125.60214643
 31
0.0
  0
LINE
  5
17A
100
AcDbEntity
  8
LAYER0001
  6
CONTINUOUS
 62
       7
100
AcDbLine
 10
-106.96635759
 20
-125.60214643
 30
0.0
 11
-107.26150322
 21
-125.6891026
 31
0.0
  0
LINE
  5
17B
100
AcDbEntity
  8
LAYER0001
  6
CONTINUOUS
 62
       7
100
AcDbLine
 10
-107.26150322
 20
-125.6891026
 30
0.0
 11
-107.55649974
 21
-125.7768766
 31
0.0
  0
LINE
  5
17C
100
AcDbEntity
  8
LAYER0001
  6
CONTINUOUS
 62
       7
100
AcDbLine
 10
-107.55649974
 20
-125.7768766
 30
0.0
 11
-107.85139686
 21
-125.86519583
 31
0.0
  0
LINE
  5
17D
100
AcDbEntity
  8
LAYER0001
  6
CONTINUOUS
 62
       7
100
AcDbLine
 10
-107.85139686
 20
-125.86519583
 30
0.0
 11
-108.14624428
 21
-125.95378768
 31
0.0
  0
LINE
  5
17E
100
AcDbEntity
  8
LAYER0001
  6
CONTINUOUS
 62
       7
100
AcDbLine
 10
-108.14624428
 20
-136.73838388
 30
0.0
 11
-107.7922222
 21
-136.8471209
 31
0.0
  0
LINE
  5
17F
100
AcDbEntity
  8
LAYER0001
  6
CONTINUOUS
 62
       7
100
AcDbLine
 10
-107.7922222
 20
-136.8471209
 30
0.0
 11
-107.43812298
 21
-136.9552845
 31
0.0
  0
LINE
  5
180
100
AcDbEntity
  8
LAYER0001
  6
CONTINUOUS
 62
       7
100
AcDbLine
 10
-107.43812298
 20
-136.9552845
 30
0.0
 11
-107.08386946
 21
-137.06230129
 31
0.0
  0
LINE
  5
181
100
AcDbEntity
  8
LAYER0001
  6
CONTINUOUS
 62
       7
100
AcDbLine
 10
-107.08386946
 20
-137.06230129
 30
0.0
 11
-106.72938448
 21
-137.16759784
 31
0.0
  0
LINE
  5
182
100
AcDbEntity
  8
LAYER0001
  6
CONTINUOUS
 62
       7
100
AcDbLine
 10
-106.72938448
 20
-137.16759784
 30
0.0
 11
-106.37459089
 21
-137.27060076
 31
0.0
  0
LINE
  5
183
100
AcDbEntity
  8
LAYER0001
  6
CONTINUOUS
 62
       7
100
AcDbLine
 10
-106.37459089
 20
-137.27060076
 30
0.0
 11
-106.01941155
 21
-137.37073662
 31
0.0
  0
LINE
  5
184
100
AcDbEntity
  8
LAYER0001
  6
CONTINUOUS
 62
       7
100
AcDbLine
 10
-106.01941155
 20
-137.37073662
 30
0.0
 11
-105.6637693
 21
-137.46743203
 31
0.0
  0
LINE
  5
185
100
AcDbEntity
  8
LAYER0001
  6
CONTINUOUS
 62
       7
100
AcDbLine
 10
-105.6637693
 20
-137.46743203
 30
0.0
 11
-105.307587
 21
-137.56011356
 31
0.0
  0
LINE
  5
186
100
AcDbEntity
  8
LAYER0001
  6
CONTINUOUS
 62
       7
100
AcDbLine
 10
-105.307587
 20
-137.56011356
 30
0.0
 11
-104.95078748
 21
-137.64820782
 31
0.0
  0
LINE
  5
187
100
AcDbEntity
  8
LAYER0001
  6
CONTINUOUS
 62
       7
100
AcDbLine
 10
-104.95078748
 20
-137.64820782
 30
0.0
 11
-104.59329361
 21
-137.73114138
 31
0.0
  0
LINE
  5
188
100
AcDbEntity
  8
LAYER0001
  6
CONTINUOUS
 62
       7
100
AcDbLine
 10
-104.59329361
 20
-137.73114138
 30
0.0
 11
-104.23502822
 21
-137.80834084
 31
0.0
  0
LINE
  5
189
100
AcDbEntity
  8
LAYER0001
  6
CONTINUOUS
 62
       7
100
AcDbLine
 10
-104.23502822
 20
-137.80834084
 30
0.0
 11
-103.87591416
 21
-137.87923279
 31
0.0
  0
LINE
  5
18A
100
AcDbEntity
  8
LAYER0001
  6
CONTINUOUS
 62
       7
100
AcDbLine
 10
-103.87591416
 20
-137.87923279
 30
0.0
 11
-103.51588018
 21
-137.94328757
 31
0.0
  0
LINE
  5
18B
100
AcDbEntity
  8
LAYER0001
  6
CONTINUOUS
 62
       7
100
AcDbLine
 10
-103.51588018
 20
-137.94328757
 30
0.0
 11
-103.15493853
 21
-138.00059625
 31
0.0
  0
LINE
  5
18C
100
AcDbEntity
  8
LAYER0001
  6
CONTINUOUS
 62
       7
100
AcDbLine
 10
-103.15493853
 20
-138.00059625
 30
0.0
 11
-102.79316349
 21
-138.05171098
 31
0.0
  0
LINE
  5
18D
100
AcDbEntity
  8
LAYER0001
  6
CONTINUOUS
 62
       7
100
AcDbLine
 10
-102.79316349
 20
-138.05171098
 30
0.0
 11
-102.43063083
 21
-138.09719485
 31
0.0
  0
LINE
  5
18E
100
AcDbEntity
  8
LAYER0001
  6
CONTINUOUS
 62
       7
100
AcDbLine
 10
-102.43063083
 20
-138.09719485
 30
0.0
 11
-102.06741631
 21
-138.13761095
 31
0.0
  0
LINE
  5
18F
100
AcDbEntity
  8
LAYER0001
  6
CONTINUOUS
 62
       7
100
AcDbLine
 10
-102.06741631
 20
-138.13761095
 30
0.0
 11
-101.70359569
 21
-138.17352236
 31
0.0
  0
LINE
  5
190
100
AcDbEntity
  8
LAYER0001
  6
CONTINUOUS
 62
       7
100
AcDbLine
 10
-101.70359569
 20
-138.17352236
 30
0.0
 11
-101.33924474
 21
-138.20549216
 31
0.0
  0
LINE
  5
191
100
AcDbEntity
  8
LAYER0001
  6
CONTINUOUS
 62
       7
100
AcDbLine
 10
-101.33924474
 20
-138.20549216
 30
0.0
 11
-100.97443921
 21
-138.23408345
 31
0.0
  0
LINE
  5
192
100
AcDbEntity
  8
LAYER0001
  6
CONTINUOUS
 62
       7
100
AcDbLine
 10
-100.97443921
 20
-138.23408345
 30
0.0
 11
-100.60925487
 21
-138.25985931
 31
0.0
  0
LINE
  5
193
100
AcDbEntity
  8
LAYER0001
  6
CONTINUOUS
 62
       7
100
AcDbLine
 10
-100.60925487
 20
-138.25985931
 30
0.0
 11
-100.24376749
 21
-138.28338282
 31
0.0
  0
LINE
  5
194
100
AcDbEntity
  8
LAYER0001
  6
CONTINUOUS
 62
       7
100
AcDbLine
 10
-100.24376749
 20
-138.28338282
 30
0.0
 11
-99.87805282
 21
-138.30521708
 31
0.0
  0
LINE
  5
195
100
AcDbEntity
  8
LAYER0001
  6
CONTINUOUS
 62
       7
100
AcDbLine
 10
-99.87805282
 20
-138.30521708
 30
0.0
 11
-99.51218662
 21
-138.32592516
 31
0.0
  0
LINE
  5
196
100
AcDbEntity
  8
LAYER0001
  6
CONTINUOUS
 62
       7
100
AcDbLine
 10
-99.51218662
 20
-138.32592516
 30
0.0
 11
-99.14624466
 21
-138.34607016
 31
0.0
  0
LINE
  5
197
100
AcDbEntity
  8
LAYER0001
  6
CONTINUOUS
 62
       7
100
AcDbLine
 10
-72.14624583
 20
-136.73838388
 30
0.0
 11
-72.14624583
 21
-136.82857392
 31
0.0
  0
LINE
  5
198
100
AcDbEntity
  8
LAYER0001
  6
CONTINUOUS
 62
       7
100
AcDbLine
 10
-72.14624583
 20
-136.82857392
 30
0.0
 11
-72.14624583
 21
-136.91845411
 31
0.0
  0
LINE
  5
199
100
AcDbEntity
  8
LAYER0001
  6
CONTINUOUS
 62
       7
100
AcDbLine
 10
-72.14624583
 20
-136.91845411
 30
0.0
 11
-72.14624583
 21
-137.00771463
 31
0.0
  0
LINE
  5
19A
100
AcDbEntity
  8
LAYER0001
  6
CONTINUOUS
 62
       7
100
AcDbLine
 10
-72.14624583
 20
-137.00771463
 30
0.0
 11
-72.14624583
 21
-137.09604564
 31
0.0
  0
LINE
  5
19B
100
AcDbEntity
  8
LAYER0001
  6
CONTINUOUS
 62
       7
100
AcDbLine
 10
-72.14624583
 20
-137.09604564
 30
0.0
 11
-72.14624583
 21
-137.1831373
 31
0.0
  0
LINE
  5
19C
100
AcDbEntity
  8
LAYER0001
  6
CONTINUOUS
 62
       7
100
AcDbLine
 10
-72.14624583
 20
-137.1831373
 30
0.0
 11
-72.14624583
 21
-137.26867976
 31
0.0
  0
LINE
  5
19D
100
AcDbEntity
  8
LAYER0001
  6
CONTINUOUS
 62
       7
100
AcDbLine
 10
-72.14624583
 20
-137.26867976
 30
0.0
 11
-72.14624583
 21
-137.3523632
 31
0.0
  0
LINE
  5
19E
100
AcDbEntity
  8
LAYER0001
  6
CONTINUOUS
 62
       7
100
AcDbLine
 10
-72.14624583
 20
-137.3523632
 30
0.0
 11
-72.14624583
 21
-137.43387778
 31
0.0
  0
LINE
  5
19F
100
AcDbEntity
  8
LAYER0001
  6
CONTINUOUS
 62
       7
100
AcDbLine
 10
-72.14624583
 20
-137.43387778
 30
0.0
 11
-72.14624583
 21
-137.51291365
 31
0.0
  0
LINE
  5
1A0
100
AcDbEntity
  8
LAYER0001
  6
CONTINUOUS
 62
       7
100
AcDbLine
 10
-72.14624583
 20
-137.51291365
 30
0.0
 11
-72.14624583
 21
-137.58916099
 31
0.0
  0
LINE
  5
1A1
100
AcDbEntity
  8
LAYER0001
  6
CONTINUOUS
 62
       7
100
AcDbLine
 10
-72.14624583
 20
-137.58916099
 30
0.0
 11
-72.14624583
 21
-137.66230995
 31
0.0
  0
LINE
  5
1A2
100
AcDbEntity
  8
LAYER0001
  6
CONTINUOUS
 62
       7
100
AcDbLine
 10
-72.14624583
 20
-137.66230995
 30
0.0
 11
-72.14624583
 21
-137.73209112
 31
0.0
  0
LINE
  5
1A3
100
AcDbEntity
  8
LAYER0001
  6
CONTINUOUS
 62
       7
100
AcDbLine
 10
-72.14624583
 20
-137.73209112
 30
0.0
 11
-72.14624583
 21
-137.79837143
 31
0.0
  0
LINE
  5
1A4
100
AcDbEntity
  8
LAYER0001
  6
CONTINUOUS
 62
       7
100
AcDbLine
 10
-72.14624583
 20
-137.79837143
 30
0.0
 11
-72.14624583
 21
-137.86104654
 31
0.0
  0
LINE
  5
1A5
100
AcDbEntity
  8
LAYER0001
  6
CONTINUOUS
 62
       7
100
AcDbLine
 10
-72.14624583
 20
-137.86104654
 30
0.0
 11
-72.14624583
 21
-137.9200121
 31
0.0
  0
LINE
  5
1A6
100
AcDbEntity
  8
LAYER0001
  6
CONTINUOUS
 62
       7
100
AcDbLine
 10
-72.14624583
 20
-137.9200121
 30
0.0
 11
-72.14624583
 21
-137.97516377
 31
0.0
  0
LINE
  5
1A7
100
AcDbEntity
  8
LAYER0001
  6
CONTINUOUS
 62
       7
100
AcDbLine
 10
-72.14624583
 20
-137.97516377
 30
0.0
 11
-72.14624583
 21
-138.0263972
 31
0.0
  0
LINE
  5
1A8
100
AcDbEntity
  8
LAYER0001
  6
CONTINUOUS
 62
       7
100
AcDbLine
 10
-72.14624583
 20
-138.0263972
 30
0.0
 11
-72.14624583
 21
-138.07360804
 31
0.0
  0
LINE
  5
1A9
100
AcDbEntity
  8
LAYER0001
  6
CONTINUOUS
 62
       7
100
AcDbLine
 10
-72.14624583
 20
-138.07360804
 30
0.0
 11
-72.14624583
 21
-138.11669195
 31
0.0
  0
LINE
  5
1AA
100
AcDbEntity
  8
LAYER0001
  6
CONTINUOUS
 62
       7
100
AcDbLine
 10
-72.14624583
 20
-138.11669195
 30
0.0
 11
-72.14624583
 21
-138.15554459
 31
0.0
  0
LINE
  5
1AB
100
AcDbEntity
  8
LAYER0001
  6
CONTINUOUS
 62
       7
100
AcDbLine
 10
-72.14624583
 20
-138.15554459
 30
0.0
 11
-72.14624583
 21
-138.1900616
 31
0.0
  0
LINE
  5
1AC
100
AcDbEntity
  8
LAYER0001
  6
CONTINUOUS
 62
       7
100
AcDbLine
 10
-72.14624583
 20
-138.1900616
 30
0.0
 11
-72.14624583
 21
-138.22013865
 31
0.0
  0
LINE
  5
1AD
100
AcDbEntity
  8
LAYER0001
  6
CONTINUOUS
 62
       7
100
AcDbLine
 10
-72.14624583
 20
-138.22013865
 30
0.0
 11
-72.14624583
 21
-138.24579027
 31
0.0
  0
LINE
  5
1AE
100
AcDbEntity
  8
LAYER0001
  6
CONTINUOUS
 62
       7
100
AcDbLine
 10
-72.14624583
 20
-138.24579027
 30
0.0
 11
-72.14624583
 21
-138.26747782
 31
0.0
  0
LINE
  5
1AF
100
AcDbEntity
  8
LAYER0001
  6
CONTINUOUS
 62
       7
100
AcDbLine
 10
-72.14624583
 20
-138.26747782
 30
0.0
 11
-72.14624583
 21
-138.2857676
 31
0.0
  0
LINE
  5
1B0
100
AcDbEntity
  8
LAYER0001
  6
CONTINUOUS
 62
       7
100
AcDbLine
 10
-72.14624583
 20
-138.2857676
 30
0.0
 11
-72.14624583
 21
-138.30122589
 31
0.0
  0
LINE
  5
1B1
100
AcDbEntity
  8
LAYER0001
  6
CONTINUOUS
 62
       7
100
AcDbLine
 10
-72.14624583
 20
-138.30122589
 30
0.0
 11
-72.14624583
 21
-138.31441899
 31
0.0
  0
LINE
  5
1B2
100
AcDbEntity
  8
LAYER0001
  6
CONTINUOUS
 62
       7
100
AcDbLine
 10
-72.14624583
 20
-138.31441899
 30
0.0
 11
-72.14624583
 21
-138.32591321
 31
0.0
  0
LINE
  5
1B3
100
AcDbEntity
  8
LAYER0001
  6
CONTINUOUS
 62
       7
100
AcDbLine
 10
-72.14624583
 20
-138.32591321
 30
0.0
 11
-72.14624583
 21
-138.33627483
 31
0.0
  0
LINE
  5
1B4
100
AcDbEntity
  8
LAYER0001
  6
CONTINUOUS
 62
       7
100
AcDbLine
 10
-72.14624583
 20
-138.33627483
 30
0.0
 11
-72.14624583
 21
-138.34607016
 31
0.0
  0
LINE
  5
1B5
100
AcDbEntity
  8
LAYER0001
  6
CONTINUOUS
 62
       7
100
AcDbLine
 10
-108.14624428
 20
-125.95378768
 30
0.0
 11
-108.14624428
 21
-125.86359431
 31
0.0
  0
LINE
  5
1B6
100
AcDbEntity
  8
LAYER0001
  6
CONTINUOUS
 62
       7
100
AcDbLine
 10
-108.14624428
 20
-125.86359431
 30
0.0
 11
-108.14624428
 21
-125.77371082
 31
0.0
  0
LINE
  5
1B7
100
AcDbEntity
  8
LAYER0001
  6
CONTINUOUS
 62
       7
100
AcDbLine
 10
-108.14624428
 20
-125.77371082
 30
0.0
 11
-108.14624428
 21
-125.68444708
 31
0.0
  0
LINE
  5
1B8
100
AcDbEntity
  8
LAYER0001
  6
CONTINUOUS
 62
       7
100
AcDbLine
 10
-108.14624428
 20
-125.68444708
 30
0.0
 11
-108.14624428
 21
-125.59611295
 31
0.0
  0
LINE
  5
1B9
100
AcDbEntity
  8
LAYER0001
  6
CONTINUOUS
 62
       7
100
AcDbLine
 10
-108.14624428
 20
-125.59611295
 30
0.0
 11
-108.14624428
 21
-125.50901831
 31
0.0
  0
LINE
  5
1BA
100
AcDbEntity
  8
LAYER0001
  6
CONTINUOUS
 62
       7
100
AcDbLine
 10
-108.14624428
 20
-125.50901831
 30
0.0
 11
-108.14624428
 21
-125.42347303
 31
0.0
  0
LINE
  5
1BB
100
AcDbEntity
  8
LAYER0001
  6
CONTINUOUS
 62
       7
100
AcDbLine
 10
-108.14624428
 20
-125.42347303
 30
0.0
 11
-108.14624428
 21
-125.33978698
 31
0.0
  0
LINE
  5
1BC
100
AcDbEntity
  8
LAYER0001
  6
CONTINUOUS
 62
       7
100
AcDbLine
 10
-108.14624428
 20
-125.33978698
 30
0.0
 11
-108.14624428
 21
-125.25827004
 31
0.0
  0
LINE
  5
1BD
100
AcDbEntity
  8
LAYER0001
  6
CONTINUOUS
 62
       7
100
AcDbLine
 10
-108.14624428
 20
-125.25827004
 30
0.0
 11
-108.14624428
 21
-125.17923208
 31
0.0
  0
LINE
  5
1BE
100
AcDbEntity
  8
LAYER0001
  6
CONTINUOUS
 62
       7
100
AcDbLine
 10
-108.14624428
 20
-125.17923208
 30
0.0
 11
-108.14624428
 21
-125.10298296
 31
0.0
  0
LINE
  5
1BF
100
AcDbEntity
  8
LAYER0001
  6
CONTINUOUS
 62
       7
100
AcDbLine
 10
-108.14624428
 20
-125.10298296
 30
0.0
 11
-108.14624428
 21
-125.02983257
 31
0.0
  0
LINE
  5
1C0
100
AcDbEntity
  8
LAYER0001
  6
CONTINUOUS
 62
       7
100
AcDbLine
 10
-108.14624428
 20
-125.02983257
 30
0.0
 11
-108.14624428
 21
-124.96005032
 31
0.0
  0
LINE
  5
1C1
100
AcDbEntity
  8
LAYER0001
  6
CONTINUOUS
 62
       7
100
AcDbLine
 10
-108.14624428
 20
-124.96005032
 30
0.0
 11
-108.14624428
 21
-124.89376927
 31
0.0
  0
LINE
  5
1C2
100
AcDbEntity
  8
LAYER0001
  6
CONTINUOUS
 62
       7
100
AcDbLine
 10
-108.14624428
 20
-124.89376927
 30
0.0
 11
-108.14624428
 21
-124.83109371
 31
0.0
  0
LINE
  5
1C3
100
AcDbEntity
  8
LAYER0001
  6
CONTINUOUS
 62
       7
100
AcDbLine
 10
-108.14624428
 20
-124.83109371
 30
0.0
 11
-108.14624428
 21
-124.77212794
 31
0.0
  0
LINE
  5
1C4
100
AcDbEntity
  8
LAYER0001
  6
CONTINUOUS
 62
       7
100
AcDbLine
 10
-108.14624428
 20
-124.77212794
 30
0.0
 11
-108.14624428
 21
-124.71697627
 31
0.0
  0
LINE
  5
1C5
100
AcDbEntity
  8
LAYER0001
  6
CONTINUOUS
 62
       7
100
AcDbLine
 10
-108.14624428
 20
-124.71697627
 30
0.0
 11
-108.14624428
 21
-124.665743
 31
0.0
  0
LINE
  5
1C6
100
AcDbEntity
  8
LAYER0001
  6
CONTINUOUS
 62
       7
100
AcDbLine
 10
-108.14624428
 20
-124.665743
 30
0.0
 11
-108.14624428
 21
-124.61853243
 31
0.0
  0
LINE
  5
1C7
100
AcDbEntity
  8
LAYER0001
  6
CONTINUOUS
 62
       7
100
AcDbLine
 10
-108.14624428
 20
-124.61853243
 30
0.0
 11
-108.14624428
 21
-124.57544886
 31
0.0
  0
LINE
  5
1C8
100
AcDbEntity
  8
LAYER0001
  6
CONTINUOUS
 62
       7
100
AcDbLine
 10
-108.14624428
 20
-124.57544886
 30
0.0
 11
-108.14624428
 21
-124.5365966
 31
0.0
  0
LINE
  5
1C9
100
AcDbEntity
  8
LAYER0001
  6
CONTINUOUS
 62
       7
100
AcDbLine
 10
-108.14624428
 20
-124.5365966
 30
0.0
 11
-108.14624428
 21
-124.50207994
 31
0.0
  0
LINE
  5
1CA
100
AcDbEntity
  8
LAYER0001
  6
CONTINUOUS
 62
       7
100
AcDbLine
 10
-108.14624428
 20
-124.50207994
 30
0.0
 11
-108.14624428
 21
-124.47200319
 31
0.0
  0
LINE
  5
1CB
100
AcDbEntity
  8
LAYER0001
  6
CONTINUOUS
 62
       7
100
AcDbLine
 10
-108.14624428
 20
-124.47200319
 30
0.0
 11
-108.14624428
 21
-124.44635177
 31
0.0
  0
LINE
  5
1CC
100
AcDbEntity
  8
LAYER0001
  6
CONTINUOUS
 62
       7
100
AcDbLine
 10
-108.14624428
 20
-124.44635177
 30
0.0
 11
-108.14624428
 21
-124.42466434
 31
0.0
  0
LINE
  5
1CD
100
AcDbEntity
  8
LAYER0001
  6
CONTINUOUS
 62
       7
100
AcDbLine
 10
-108.14624428
 20
-124.42466434
 30
0.0
 11
-108.14624428
 21
-124.40637461
 31
0.0
  0
LINE
  5
1CE
100
AcDbEntity
  8
LAYER0001
  6
CONTINUOUS
 62
       7
100
AcDbLine
 10
-108.14624428
 20
-124.40637461
 30
0.0
 11
-108.14624428
 21
-124.3909163
 31
0.0
  0
LINE
  5
1CF
100
AcDbEntity
  8
LAYER0001
  6
CONTINUOUS
 62
       7
100
AcDbLine
 10
-108.14624428
 20
-124.3909163
 30
0.0
 11
-108.14624428
 21
-124.37772313
 31
0.0
  0
LINE
  5
1D0
100
AcDbEntity
  8
LAYER0001
  6
CONTINUOUS
 62
       7
100
AcDbLine
 10
-108.14624428
 20
-124.37772313
 30
0.0
 11
-108.14624428
 21
-124.36622881
 31
0.0
  0
LINE
  5
1D1
100
AcDbEntity
  8
LAYER0001
  6
CONTINUOUS
 62
       7
100
AcDbLine
 10
-108.14624428
 20
-124.36622881
 30
0.0
 11
-108.14624428
 21
-124.35586706
 31
0.0
  0
LINE
  5
1D2
100
AcDbEntity
  8
LAYER0001
  6
CONTINUOUS
 62
       7
100
AcDbLine
 10
-108.14624428
 20
-124.35586706
 30
0.0
 11
-108.14624428
 21
-124.34607159
 31
0.0
  0
LINE
  5
1D3
100
AcDbEntity
  8
LAYER0001
  6
CONTINUOUS
 62
       7
100
AcDbLine
 10
-72.14624583
 20
-124.34607159
 30
0.0
 11
-72.14624583
 21
-124.35586298
 31
0.0
  0
LINE
  5
1D4
100
AcDbEntity
  8
LAYER0001
  6
CONTINUOUS
 62
       7
100
AcDbLine
 10
-72.14624583
 20
-124.35586298
 30
0.0
 11
-72.14624583
 21
-124.36622104
 31
0.0
  0
LINE
  5
1D5
100
AcDbEntity
  8
LAYER0001
  6
CONTINUOUS
 62
       7
100
AcDbLine
 10
-72.14624583
 20
-124.36622104
 30
0.0
 11
-72.14624583
 21
-124.37771246
 31
0.0
  0
LINE
  5
1D6
100
AcDbEntity
  8
LAYER0001
  6
CONTINUOUS
 62
       7
100
AcDbLine
 10
-72.14624583
 20
-124.37771246
 30
0.0
 11
-72.14624583
 21
-124.39090389
 31
0.0
  0
LINE
  5
1D7
100
AcDbEntity
  8
LAYER0001
  6
CONTINUOUS
 62
       7
100
AcDbLine
 10
-72.14624583
 20
-124.39090389
 30
0.0
 11
-72.14624583
 21
-124.40636203
 31
0.0
  0
LINE
  5
1D8
100
AcDbEntity
  8
LAYER0001
  6
CONTINUOUS
 62
       7
100
AcDbLine
 10
-72.14624583
 20
-124.40636203
 30
0.0
 11
-72.14624583
 21
-124.42465353
 31
0.0
  0
LINE
  5
1D9
100
AcDbEntity
  8
LAYER0001
  6
CONTINUOUS
 62
       7
100
AcDbLine
 10
-72.14624583
 20
-124.42465353
 30
0.0
 11
-72.14624583
 21
-124.44634509
 31
0.0
  0
LINE
  5
1DA
100
AcDbEntity
  8
LAYER0001
  6
CONTINUOUS
 62
       7
100
AcDbLine
 10
-72.14624583
 20
-124.44634509
 30
0.0
 11
-72.14624583
 21
-124.47200336
 31
0.0
  0
LINE
  5
1DB
100
AcDbEntity
  8
LAYER0001
  6
CONTINUOUS
 62
       7
100
AcDbLine
 10
-72.14624583
 20
-124.47200336
 30
0.0
 11
-72.14624583
 21
-124.50209003
 31
0.0
  0
LINE
  5
1DC
100
AcDbEntity
  8
LAYER0001
  6
CONTINUOUS
 62
       7
100
AcDbLine
 10
-72.14624583
 20
-124.50209003
 30
0.0
 11
-72.14624583
 21
-124.53661969
 31
0.0
  0
LINE
  5
1DD
100
AcDbEntity
  8
LAYER0001
  6
CONTINUOUS
 62
       7
100
AcDbLine
 10
-72.14624583
 20
-124.53661969
 30
0.0
 11
-72.14624583
 21
-124.57548803
 31
0.0
  0
LINE
  5
1DE
100
AcDbEntity
  8
LAYER0001
  6
CONTINUOUS
 62
       7
100
AcDbLine
 10
-72.14624583
 20
-124.57548803
 30
0.0
 11
-72.14624583
 21
-124.61859071
 31
0.0
  0
LINE
  5
1DF
100
AcDbEntity
  8
LAYER0001
  6
CONTINUOUS
 62
       7
100
AcDbLine
 10
-72.14624583
 20
-124.61859071
 30
0.0
 11
-72.14624583
 21
-124.66582341
 31
0.0
  0
LINE
  5
1E0
100
AcDbEntity
  8
LAYER0001
  6
CONTINUOUS
 62
       7
100
AcDbLine
 10
-72.14624583
 20
-124.66582341
 30
0.0
 11
-72.14624583
 21
-124.71708179
 31
0.0
  0
LINE
  5
1E1
100
AcDbEntity
  8
LAYER0001
  6
CONTINUOUS
 62
       7
100
AcDbLine
 10
-72.14624583
 20
-124.71708179
 30
0.0
 11
-72.14624583
 21
-124.77226152
 31
0.0
  0
LINE
  5
1E2
100
AcDbEntity
  8
LAYER0001
  6
CONTINUOUS
 62
       7
100
AcDbLine
 10
-72.14624583
 20
-124.77226152
 30
0.0
 11
-72.14624583
 21
-124.83125827
 31
0.0
  0
LINE
  5
1E3
100
AcDbEntity
  8
LAYER0001
  6
CONTINUOUS
 62
       7
100
AcDbLine
 10
-72.14624583
 20
-124.83125827
 30
0.0
 11
-72.14624583
 21
-124.89396771
 31
0.0
  0
LINE
  5
1E4
100
AcDbEntity
  8
LAYER0001
  6
CONTINUOUS
 62
       7
100
AcDbLine
 10
-72.14624583
 20
-124.89396771
 30
0.0
 11
-72.14624583
 21
-124.96028552
 31
0.0
  0
LINE
  5
1E5
100
AcDbEntity
  8
LAYER0001
  6
CONTINUOUS
 62
       7
100
AcDbLine
 10
-72.14624583
 20
-124.96028552
 30
0.0
 11
-72.14624583
 21
-125.03010735
 31
0.0
  0
LINE
  5
1E6
100
AcDbEntity
  8
LAYER0001
  6
CONTINUOUS
 62
       7
100
AcDbLine
 10
-72.14624583
 20
-125.03010735
 30
0.0
 11
-72.14624583
 21
-125.10329013
 31
0.0
  0
LINE
  5
1E7
100
AcDbEntity
  8
LAYER0001
  6
CONTINUOUS
 62
       7
100
AcDbLine
 10
-72.14624583
 20
-125.10329013
 30
0.0
 11
-72.14624583
 21
-125.17955524
 31
0.0
  0
LINE
  5
1E8
100
AcDbEntity
  8
LAYER0001
  6
CONTINUOUS
 62
       7
100
AcDbLine
 10
-72.14624583
 20
-125.17955524
 30
0.0
 11
-72.14624583
 21
-125.25859445
 31
0.0
  0
LINE
  5
1E9
100
AcDbEntity
  8
LAYER0001
  6
CONTINUOUS
 62
       7
100
AcDbLine
 10
-72.14624583
 20
-125.25859445
 30
0.0
 11
-72.14624583
 21
-125.34009952
 31
0.0
  0
LINE
  5
1EA
100
AcDbEntity
  8
LAYER0001
  6
CONTINUOUS
 62
       7
100
AcDbLine
 10
-72.14624583
 20
-125.34009952
 30
0.0
 11
-72.14624583
 21
-125.42376222
 31
0.0
  0
LINE
  5
1EB
100
AcDbEntity
  8
LAYER0001
  6
CONTINUOUS
 62
       7
100
AcDbLine
 10
-72.14624583
 20
-125.42376222
 30
0.0
 11
-72.14624583
 21
-125.50927433
 31
0.0
  0
LINE
  5
1EC
100
AcDbEntity
  8
LAYER0001
  6
CONTINUOUS
 62
       7
100
AcDbLine
 10
-72.14624583
 20
-125.50927433
 30
0.0
 11
-72.14624583
 21
-125.5963276
 31
0.0
  0
LINE
  5
1ED
100
AcDbEntity
  8
LAYER0001
  6
CONTINUOUS
 62
       7
100
AcDbLine
 10
-72.14624583
 20
-125.5963276
 30
0.0
 11
-72.14624583
 21
-125.6846138
 31
0.0
  0
LINE
  5
1EE
100
AcDbEntity
  8
LAYER0001
  6
CONTINUOUS
 62
       7
100
AcDbLine
 10
-72.14624583
 20
-125.6846138
 30
0.0
 11
-72.14624583
 21
-125.77382471
 31
0.0
  0
LINE
  5
1EF
100
AcDbEntity
  8
LAYER0001
  6
CONTINUOUS
 62
       7
100
AcDbLine
 10
-72.14624583
 20
-125.77382471
 30
0.0
 11
-72.14624583
 21
-125.86365207
 31
0.0
  0
LINE
  5
1F0
100
AcDbEntity
  8
LAYER0001
  6
CONTINUOUS
 62
       7
100
AcDbLine
 10
-72.14624583
 20
-125.86365207
 30
0.0
 11
-72.14624583
 21
-125.95378768
 31
0.0
  0
LINE
  5
1F1
100
AcDbEntity
  8
LAYER0001
  6
CONTINUOUS
 62
       7
100
AcDbLine
 10
-108.14624428
 20
-138.34607016
 30
0.0
 11
-108.14624428
 21
-138.33627804
 31
0.0
  0
LINE
  5
1F2
100
AcDbEntity
  8
LAYER0001
  6
CONTINUOUS
 62
       7
100
AcDbLine
 10
-108.14624428
 20
-138.33627804
 30
0.0
 11
-108.14624428
 21
-138.32591932
 31
0.0
  0
LINE
  5
1F3
100
AcDbEntity
  8
LAYER0001
  6
CONTINUOUS
 62
       7
100
AcDbLine
 10
-108.14624428
 20
-138.32591932
 30
0.0
 11
-108.14624428
 21
-138.31442739
 31
0.0
  0
LINE
  5
1F4
100
AcDbEntity
  8
LAYER0001
  6
CONTINUOUS
 62
       7
100
AcDbLine
 10
-108.14624428
 20
-138.31442739
 30
0.0
 11
-108.14624428
 21
-138.30123565
 31
0.0
  0
LINE
  5
1F5
100
AcDbEntity
  8
LAYER0001
  6
CONTINUOUS
 62
       7
100
AcDbLine
 10
-108.14624428
 20
-138.30123565
 30
0.0
 11
-108.14624428
 21
-138.2857775
 31
0.0
  0
LINE
  5
1F6
100
AcDbEntity
  8
LAYER0001
  6
CONTINUOUS
 62
       7
100
AcDbLine
 10
-108.14624428
 20
-138.2857775
 30
0.0
 11
-108.14624428
 21
-138.26748633
 31
0.0
  0
LINE
  5
1F7
100
AcDbEntity
  8
LAYER0001
  6
CONTINUOUS
 62
       7
100
AcDbLine
 10
-108.14624428
 20
-138.26748633
 30
0.0
 11
-108.14624428
 21
-138.24579554
 31
0.0
  0
LINE
  5
1F8
100
AcDbEntity
  8
LAYER0001
  6
CONTINUOUS
 62
       7
100
AcDbLine
 10
-108.14624428
 20
-138.24579554
 30
0.0
 11
-108.14624428
 21
-138.22013852
 31
0.0
  0
LINE
  5
1F9
100
AcDbEntity
  8
LAYER0001
  6
CONTINUOUS
 62
       7
100
AcDbLine
 10
-108.14624428
 20
-138.22013852
 30
0.0
 11
-108.14624428
 21
-138.19005366
 31
0.0
  0
LINE
  5
1FA
100
AcDbEntity
  8
LAYER0001
  6
CONTINUOUS
 62
       7
100
AcDbLine
 10
-108.14624428
 20
-138.19005366
 30
0.0
 11
-108.14624428
 21
-138.15552627
 31
0.0
  0
LINE
  5
1FB
100
AcDbEntity
  8
LAYER0001
  6
CONTINUOUS
 62
       7
100
AcDbLine
 10
-108.14624428
 20
-138.15552627
 30
0.0
 11
-108.14624428
 21
-138.11666058
 31
0.0
  0
LINE
  5
1FC
100
AcDbEntity
  8
LAYER0001
  6
CONTINUOUS
 62
       7
100
AcDbLine
 10
-108.14624428
 20
-138.11666058
 30
0.0
 11
-108.14624428
 21
-138.07356081
 31
0.0
  0
LINE
  5
1FD
100
AcDbEntity
  8
LAYER0001
  6
CONTINUOUS
 62
       7
100
AcDbLine
 10
-108.14624428
 20
-138.07356081
 30
0.0
 11
-108.14624428
 21
-138.02633121
 31
0.0
  0
LINE
  5
1FE
100
AcDbEntity
  8
LAYER0001
  6
CONTINUOUS
 62
       7
100
AcDbLine
 10
-108.14624428
 20
-138.02633121
 30
0.0
 11
-108.14624428
 21
-137.97507601
 31
0.0
  0
LINE
  5
1FF
100
AcDbEntity
  8
LAYER0001
  6
CONTINUOUS
 62
       7
100
AcDbLine
 10
-108.14624428
 20
-137.97507601
 30
0.0
 11
-108.14624428
 21
-137.91989943
 31
0.0
  0
LINE
  5
200
100
AcDbEntity
  8
LAYER0001
  6
CONTINUOUS
 62
       7
100
AcDbLine
 10
-108.14624428
 20
-137.91989943
 30
0.0
 11
-108.14624428
 21
-137.86090572
 31
0.0
  0
LINE
  5
201
100
AcDbEntity
  8
LAYER0001
  6
CONTINUOUS
 62
       7
100
AcDbLine
 10
-108.14624428
 20
-137.86090572
 30
0.0
 11
-108.14624428
 21
-137.7981991
 31
0.0
  0
LINE
  5
202
100
AcDbEntity
  8
LAYER0001
  6
CONTINUOUS
 62
       7
100
AcDbLine
 10
-108.14624428
 20
-137.7981991
 30
0.0
 11
-108.14624428
 21
-137.7318838
 31
0.0
  0
LINE
  5
203
100
AcDbEntity
  8
LAYER0001
  6
CONTINUOUS
 62
       7
100
AcDbLine
 10
-108.14624428
 20
-137.7318838
 30
0.0
 11
-108.14624428
 21
-137.66206406
 31
0.0
  0
LINE
  5
204
100
AcDbEntity
  8
LAYER0001
  6
CONTINUOUS
 62
       7
100
AcDbLine
 10
-108.14624428
 20
-137.66206406
 30
0.0
 11
-108.14624428
 21
-137.5888829
 31
0.0
  0
LINE
  5
205
100
AcDbEntity
  8
LAYER0001
  6
CONTINUOUS
 62
       7
100
AcDbLine
 10
-108.14624428
 20
-137.5888829
 30
0.0
 11
-108.14624428
 21
-137.51261894
 31
0.0
  0
LINE
  5
206
100
AcDbEntity
  8
LAYER0001
  6
CONTINUOUS
 62
       7
100
AcDbLine
 10
-108.14624428
 20
-137.51261894
 30
0.0
 11
-108.14624428
 21
-137.43358048
 31
0.0
  0
LINE
  5
207
100
AcDbEntity
  8
LAYER0001
  6
CONTINUOUS
 62
       7
100
AcDbLine
 10
-108.14624428
 20
-137.43358048
 30
0.0
 11
-108.14624428
 21
-137.35207579
 31
0.0
  0
LINE
  5
208
100
AcDbEntity
  8
LAYER0001
  6
CONTINUOUS
 62
       7
100
AcDbLine
 10
-108.14624428
 20
-137.35207579
 30
0.0
 11
-108.14624428
 21
-137.26841314
 31
0.0
  0
LINE
  5
209
100
AcDbEntity
  8
LAYER0001
  6
CONTINUOUS
 62
       7
100
AcDbLine
 10
-108.14624428
 20
-137.26841314
 30
0.0
 11
-108.14624428
 21
-137.18290082
 31
0.0
  0
LINE
  5
20A
100
AcDbEntity
  8
LAYER0001
  6
CONTINUOUS
 62
       7
100
AcDbLine
 10
-108.14624428
 20
-137.18290082
 30
0.0
 11
-108.14624428
 21
-137.0958471
 31
0.0
  0
LINE
  5
20B
100
AcDbEntity
  8
LAYER0001
  6
CONTINUOUS
 62
       7
100
AcDbLine
 10
-108.14624428
 20
-137.0958471
 30
0.0
 11
-108.14624428
 21
-137.00756027
 31
0.0
  0
LINE
  5
20C
100
AcDbEntity
  8
LAYER0001
  6
CONTINUOUS
 62
       7
100
AcDbLine
 10
-108.14624428
 20
-137.00756027
 30
0.0
 11
-108.14624428
 21
-136.91834861
 31
0.0
  0
LINE
  5
20D
100
AcDbEntity
  8
LAYER0001
  6
CONTINUOUS
 62
       7
100
AcDbLine
 10
-108.14624428
 20
-136.91834861
 30
0.0
 11
-108.14624428
 21
-136.82852038
 31
0.0
  0
LINE
  5
20E
100
AcDbEntity
  8
LAYER0001
  6
CONTINUOUS
 62
       7
100
AcDbLine
 10
-108.14624428
 20
-136.82852038
 30
0.0
 11
-108.14624428
 21
-136.73838388
 31
0.0
  0
LINE
  5
20F
100
AcDbEntity
  8
LAYER0001
  6
CONTINUOUS
 62
       7
100
AcDbLine
 10
-81.14624544
 20
-97.84608494
 30
0.0
 11
-81.45061212
 21
-97.84914785
 31
0.0
  0
LINE
  5
210
100
AcDbEntity
  8
LAYER0001
  6
CONTINUOUS
 62
       7
100
AcDbLine
 10
-81.45061212
 20
-97.84914785
 30
0.0
 11
-81.75499273
 21
-97.85414395
 31
0.0
  0
LINE
  5
211
100
AcDbEntity
  8
LAYER0001
  6
CONTINUOUS
 62
       7
100
AcDbLine
 10
-81.75499273
 20
-97.85414395
 30
0.0
 11
-82.05939315
 21
-97.86277206
 31
0.0
  0
LINE
  5
212
100
AcDbEntity
  8
LAYER0001
  6
CONTINUOUS
 62
       7
100
AcDbLine
 10
-82.05939315
 20
-97.86277206
 30
0.0
 11
-82.36377553
 21
-97.87545088
 31
0.0
  0
LINE
  5
213
100
AcDbEntity
  8
LAYER0001
  6
CONTINUOUS
 62
       7
100
AcDbLine
 10
-82.36377553
 20
-97.87545088
 30
0.0
 11
-82.66808716
 21
-97.8921642
 31
0.0
  0
LINE
  5
214
100
AcDbEntity
  8
LAYER0001
  6
CONTINUOUS
 62
       7
100
AcDbLine
 10
-82.66808716
 20
-97.8921642
 30
0.0
 11
-82.97227528
 21
-97.91289547
 31
0.0
  0
LINE
  5
215
100
AcDbEntity
  8
LAYER0001
  6
CONTINUOUS
 62
       7
100
AcDbLine
 10
-82.97227528
 20
-97.91289547
 30
0.0
 11
-83.27628718
 21
-97.93762814
 31
0.0
  0
LINE
  5
216
100
AcDbEntity
  8
LAYER0001
  6
CONTINUOUS
 62
       7
100
AcDbLine
 10
-83.27628718
 20
-97.93762814
 30
0.0
 11
-83.58007011
 21
-97.96634565
 31
0.0
  0
LINE
  5
217
100
AcDbEntity
  8
LAYER0001
  6
CONTINUOUS
 62
       7
100
AcDbLine
 10
-83.58007011
 20
-97.96634565
 30
0.0
 11
-83.88357134
 21
-97.99903145
 31
0.0
  0
LINE
  5
218
100
AcDbEntity
  8
LAYER0001
  6
CONTINUOUS
 62
       7
100
AcDbLine
 10
-83.88357134
 20
-97.99903145
 30
0.0
 11
-84.18673813
 21
-98.03566898
 31
0.0
  0
LINE
  5
219
100
AcDbEntity
  8
LAYER0001
  6
CONTINUOUS
 62
       7
100
AcDbLine
 10
-84.18673813
 20
-98.03566898
 30
0.0
 11
-84.48951775
 21
-98.07624169
 31
0.0
  0
LINE
  5
21A
100
AcDbEntity
  8
LAYER0001
  6
CONTINUOUS
 62
       7
100
AcDbLine
 10
-84.48951775
 20
-98.07624169
 30
0.0
 11
-84.79185746
 21
-98.12073303
 31
0.0
  0
LINE
  5
21B
100
AcDbEntity
  8
LAYER0001
  6
CONTINUOUS
 62
       7
100
AcDbLine
 10
-84.79185746
 20
-98.12073303
 30
0.0
 11
-85.09370452
 21
-98.16912643
 31
0.0
  0
LINE
  5
21C
100
AcDbEntity
  8
LAYER0001
  6
CONTINUOUS
 62
       7
100
AcDbLine
 10
-85.09370452
 20
-98.16912643
 30
0.0
 11
-85.39500621
 21
-98.22140536
 31
0.0
  0
LINE
  5
21D
100
AcDbEntity
  8
LAYER0001
  6
CONTINUOUS
 62
       7
100
AcDbLine
 10
-85.39500621
 20
-98.22140536
 30
0.0
 11
-85.69570978
 21
-98.27755325
 31
0.0
  0
LINE
  5
21E
100
AcDbEntity
  8
LAYER0001
  6
CONTINUOUS
 62
       7
100
AcDbLine
 10
-85.69570978
 20
-98.27755325
 30
0.0
 11
-85.99576251
 21
-98.33755352
 31
0.0
  0
LINE
  5
21F
100
AcDbEntity
  8
LAYER0001
  6
CONTINUOUS
 62
       7
100
AcDbLine
 10
-85.99576251
 20
-98.33755352
 30
0.0
 11
-86.29513291
 21
-98.4013365
 31
0.0
  0
LINE
  5
220
100
AcDbEntity
  8
LAYER0001
  6
CONTINUOUS
 62
       7
100
AcDbLine
 10
-86.29513291
 20
-98.4013365
 30
0.0
 11
-86.59385724
 21
-98.46866322
 31
0.0
  0
LINE
  5
221
100
AcDbEntity
  8
LAYER0001
  6
CONTINUOUS
 62
       7
100
AcDbLine
 10
-86.59385724
 20
-98.46866322
 30
0.0
 11
-86.89198518
 21
-98.53926109
 31
0.0
  0
LINE
  5
222
100
AcDbEntity
  8
LAYER0001
  6
CONTINUOUS
 62
       7
100
AcDbLine
 10
-86.89198518
 20
-98.53926109
 30
0.0
 11
-87.18956644
 21
-98.61285752
 31
0.0
  0
LINE
  5
223
100
AcDbEntity
  8
LAYER0001
  6
CONTINUOUS
 62
       7
100
AcDbLine
 10
-87.18956644
 20
-98.61285752
 30
0.0
 11
-87.48665071
 21
-98.6891799
 31
0.0
  0
LINE
  5
224
100
AcDbEntity
  8
LAYER0001
  6
CONTINUOUS
 62
       7
100
AcDbLine
 10
-87.48665071
 20
-98.6891799
 30
0.0
 11
-87.78328769
 21
-98.76795566
 31
0.0
  0
LINE
  5
225
100
AcDbEntity
  8
LAYER0001
  6
CONTINUOUS
 62
       7
100
AcDbLine
 10
-87.78328769
 20
-98.76795566
 30
0.0
 11
-88.07952709
 21
-98.84891217
 31
0.0
  0
LINE
  5
226
100
AcDbEntity
  8
LAYER0001
  6
CONTINUOUS
 62
       7
100
AcDbLine
 10
-88.07952709
 20
-98.84891217
 30
0.0
 11
-88.37541859
 21
-98.93177686
 31
0.0
  0
LINE
  5
227
100
AcDbEntity
  8
LAYER0001
  6
CONTINUOUS
 62
       7
100
AcDbLine
 10
-88.37541859
 20
-98.93177686
 30
0.0
 11
-88.67101191
 21
-99.01627713
 31
0.0
  0
LINE
  5
228
100
AcDbEntity
  8
LAYER0001
  6
CONTINUOUS
 62
       7
100
AcDbLine
 10
-88.67101191
 20
-99.01627713
 30
0.0
 11
-88.96635673
 21
-99.10214037
 31
0.0
  0
LINE
  5
229
100
AcDbEntity
  8
LAYER0001
  6
CONTINUOUS
 62
       7
100
AcDbLine
 10
-88.96635673
 20
-99.10214037
 30
0.0
 11
-89.26150275
 21
-99.189094
 31
0.0
  0
LINE
  5
22A
100
AcDbEntity
  8
LAYER0001
  6
CONTINUOUS
 62
       7
100
AcDbLine
 10
-89.26150275
 20
-99.189094
 30
0.0
 11
-89.55649968
 21
-99.27686541
 31
0.0
  0
LINE
  5
22B
100
AcDbEntity
  8
LAYER0001
  6
CONTINUOUS
 62
       7
100
AcDbLine
 10
-89.55649968
 20
-99.27686541
 30
0.0
 11
-89.85139722
 21
-99.36518202
 31
0.0
  0
LINE
  5
22C
100
AcDbEntity
  8
LAYER0001
  6
CONTINUOUS
 62
       7
100
AcDbLine
 10
-89.85139722
 20
-99.36518202
 30
0.0
 11
-90.14624505
 21
-99.45377122
 31
0.0
  0
LINE
  5
22D
100
AcDbEntity
  8
LAYER0001
  6
CONTINUOUS
 62
       7
100
AcDbLine
 10
-72.14624583
 20
-99.45377122
 30
0.0
 11
-72.5002679
 21
-99.34503421
 31
0.0
  0
LINE
  5
22E
100
AcDbEntity
  8
LAYER0001
  6
CONTINUOUS
 62
       7
100
AcDbLine
 10
-72.5002679
 20
-99.34503421
 30
0.0
 11
-72.85436712
 21
-99.2368706
 31
0.0
  0
LINE
  5
22F
100
AcDbEntity
  8
LAYER0001
  6
CONTINUOUS
 62
       7
100
AcDbLine
 10
-72.85436712
 20
-99.2368706
 30
0.0
 11
-73.20862065
 21
-99.12985382
 31
0.0
  0
LINE
  5
230
100
AcDbEntity
  8
LAYER0001
  6
CONTINUOUS
 62
       7
100
AcDbLine
 10
-73.20862065
 20
-99.12985382
 30
0.0
 11
-73.56310563
 21
-99.02455726
 31
0.0
  0
LINE
  5
231
100
AcDbEntity
  8
LAYER0001
  6
CONTINUOUS
 62
       7
100
AcDbLine
 10
-73.56310563
 20
-99.02455726
 30
0.0
 11
-73.91789921
 21
-98.92155435
 31
0.0
  0
LINE
  5
232
100
AcDbEntity
  8
LAYER0001
  6
CONTINUOUS
 62
       7
100
AcDbLine
 10
-73.91789921
 20
-98.92155435
 30
0.0
 11
-74.27307855
 21
-98.82141848
 31
0.0
  0
LINE
  5
233
100
AcDbEntity
  8
LAYER0001
  6
CONTINUOUS
 62
       7
100
AcDbLine
 10
-74.27307855
 20
-98.82141848
 30
0.0
 11
-74.6287208
 21
-98.72472308
 31
0.0
  0
LINE
  5
234
100
AcDbEntity
  8
LAYER0001
  6
CONTINUOUS
 62
       7
100
AcDbLine
 10
-74.6287208
 20
-98.72472308
 30
0.0
 11
-74.9849031
 21
-98.63204154
 31
0.0
  0
LINE
  5
235
100
AcDbEntity
  8
LAYER0001
  6
CONTINUOUS
 62
       7
100
AcDbLine
 10
-74.9849031
 20
-98.63204154
 30
0.0
 11
-75.34170262
 21
-98.54394729
 31
0.0
  0
LINE
  5
236
100
AcDbEntity
  8
LAYER0001
  6
CONTINUOUS
 62
       7
100
AcDbLine
 10
-75.34170262
 20
-98.54394729
 30
0.0
 11
-75.6991965
 21
-98.46101373
 31
0.0
  0
LINE
  5
237
100
AcDbEntity
  8
LAYER0001
  6
CONTINUOUS
 62
       7
100
AcDbLine
 10
-75.6991965
 20
-98.46101373
 30
0.0
 11
-76.05746189
 21
-98.38381426
 31
0.0
  0
LINE
  5
238
100
AcDbEntity
  8
LAYER0001
  6
CONTINUOUS
 62
       7
100
AcDbLine
 10
-76.05746189
 20
-98.38381426
 30
0.0
 11
-76.41657594
 21
-98.31292231
 31
0.0
  0
LINE
  5
239
100
AcDbEntity
  8
LAYER0001
  6
CONTINUOUS
 62
       7
100
AcDbLine
 10
-76.41657594
 20
-98.31292231
 30
0.0
 11
-76.77660992
 21
-98.24886753
 31
0.0
  0
LINE
  5
23A
100
AcDbEntity
  8
LAYER0001
  6
CONTINUOUS
 62
       7
100
AcDbLine
 10
-76.77660992
 20
-98.24886753
 30
0.0
 11
-77.13755158
 21
-98.19155885
 31
0.0
  0
LINE
  5
23B
100
AcDbEntity
  8
LAYER0001
  6
CONTINUOUS
 62
       7
100
AcDbLine
 10
-77.13755158
 20
-98.19155885
 30
0.0
 11
-77.49932662
 21
-98.14044412
 31
0.0
  0
LINE
  5
23C
100
AcDbEntity
  8
LAYER0001
  6
CONTINUOUS
 62
       7
100
AcDbLine
 10
-77.49932662
 20
-98.14044412
 30
0.0
 11
-77.86185928
 21
-98.09496025
 31
0.0
  0
LINE
  5
23D
100
AcDbEntity
  8
LAYER0001
  6
CONTINUOUS
 62
       7
100
AcDbLine
 10
-77.86185928
 20
-98.09496025
 30
0.0
 11
-78.2250738
 21
-98.05454416
 31
0.0
  0
LINE
  5
23E
100
AcDbEntity
  8
LAYER0001
  6
CONTINUOUS
 62
       7
100
AcDbLine
 10
-78.2250738
 20
-98.05454416
 30
0.0
 11
-78.58889441
 21
-98.01863275
 31
0.0
  0
LINE
  5
23F
100
AcDbEntity
  8
LAYER0001
  6
CONTINUOUS
 62
       7
100
AcDbLine
 10
-78.58889441
 20
-98.01863275
 30
0.0
 11
-78.95324537
 21
-97.98666294
 31
0.0
  0
LINE
  5
240
100
AcDbEntity
  8
LAYER0001
  6
CONTINUOUS
 62
       7
100
AcDbLine
 10
-78.95324537
 20
-97.98666294
 30
0.0
 11
-79.31805089
 21
-97.95807165
 31
0.0
  0
LINE
  5
241
100
AcDbEntity
  8
LAYER0001
  6
CONTINUOUS
 62
       7
100
AcDbLine
 10
-79.31805089
 20
-97.95807165
 30
0.0
 11
-79.68323523
 21
-97.9322958
 31
0.0
  0
LINE
  5
242
100
AcDbEntity
  8
LAYER0001
  6
CONTINUOUS
 62
       7
100
AcDbLine
 10
-79.68323523
 20
-97.9322958
 30
0.0
 11
-80.04872261
 21
-97.90877228
 31
0.0
  0
LINE
  5
243
100
AcDbEntity
  8
LAYER0001
  6
CONTINUOUS
 62
       7
100
AcDbLine
 10
-80.04872261
 20
-97.90877228
 30
0.0
 11
-80.41443729
 21
-97.88693803
 31
0.0
  0
LINE
  5
244
100
AcDbEntity
  8
LAYER0001
  6
CONTINUOUS
 62
       7
100
AcDbLine
 10
-80.41443729
 20
-97.88693803
 30
0.0
 11
-80.78030348
 21
-97.86622994
 31
0.0
  0
LINE
  5
245
100
AcDbEntity
  8
LAYER0001
  6
CONTINUOUS
 62
       7
100
AcDbLine
 10
-80.78030348
 20
-97.86622994
 30
0.0
 11
-81.14624544
 21
-97.84608494
 31
0.0
  0
LINE
  5
246
100
AcDbEntity
  8
LAYER0001
  6
CONTINUOUS
 62
       7
100
AcDbLine
 10
-81.14624544
 20
-111.84608351
 30
0.0
 11
-80.84187881
 21
-111.84302061
 31
0.0
  0
LINE
  5
247
100
AcDbEntity
  8
LAYER0001
  6
CONTINUOUS
 62
       7
100
AcDbLine
 10
-80.84187881
 20
-111.84302061
 30
0.0
 11
-80.53749826
 21
-111.83802453
 31
0.0
  0
LINE
  5
248
100
AcDbEntity
  8
LAYER0001
  6
CONTINUOUS
 62
       7
100
AcDbLine
 10
-80.53749826
 20
-111.83802453
 30
0.0
 11
-80.23309786
 21
-111.82939643
 31
0.0
  0
LINE
  5
249
100
AcDbEntity
  8
LAYER0001
  6
CONTINUOUS
 62
       7
100
AcDbLine
 10
-80.23309786
 20
-111.82939643
 30
0.0
 11
-79.92871548
 21
-111.81671763
 31
0.0
  0
LINE
  5
24A
100
AcDbEntity
  8
LAYER0001
  6
CONTINUOUS
 62
       7
100
AcDbLine
 10
-79.92871548
 20
-111.81671763
 30
0.0
 11
-79.62440383
 21
-111.80000431
 31
0.0
  0
LINE
  5
24B
100
AcDbEntity
  8
LAYER0001
  6
CONTINUOUS
 62
       7
100
AcDbLine
 10
-79.62440383
 20
-111.80000431
 30
0.0
 11
-79.32021566
 21
-111.77927305
 31
0.0
  0
LINE
  5
24C
100
AcDbEntity
  8
LAYER0001
  6
CONTINUOUS
 62
       7
100
AcDbLine
 10
-79.32021566
 20
-111.77927305
 30
0.0
 11
-79.0162037
 21
-111.75454039
 31
0.0
  0
LINE
  5
24D
100
AcDbEntity
  8
LAYER0001
  6
CONTINUOUS
 62
       7
100
AcDbLine
 10
-79.0162037
 20
-111.75454039
 30
0.0
 11
-78.7124207
 21
-111.72582288
 31
0.0
  0
LINE
  5
24E
100
AcDbEntity
  8
LAYER0001
  6
CONTINUOUS
 62
       7
100
AcDbLine
 10
-78.7124207
 20
-111.72582288
 30
0.0
 11
-78.40891939
 21
-111.69313708
 31
0.0
  0
LINE
  5
24F
100
AcDbEntity
  8
LAYER0001
  6
CONTINUOUS
 62
       7
100
AcDbLine
 10
-78.40891939
 20
-111.69313708
 30
0.0
 11
-78.10575251
 21
-111.65649955
 31
0.0
  0
LINE
  5
250
100
AcDbEntity
  8
LAYER0001
  6
CONTINUOUS
 62
       7
100
AcDbLine
 10
-78.10575251
 20
-111.65649955
 30
0.0
 11
-77.80297281
 21
-111.61592684
 31
0.0
  0
LINE
  5
251
100
AcDbEntity
  8
LAYER0001
  6
CONTINUOUS
 62
       7
100
AcDbLine
 10
-77.80297281
 20
-111.61592684
 30
0.0
 11
-77.50063301
 21
-111.5714355
 31
0.0
  0
LINE
  5
252
100
AcDbEntity
  8
LAYER0001
  6
CONTINUOUS
 62
       7
100
AcDbLine
 10
-77.50063301
 20
-111.5714355
 30
0.0
 11
-77.19878587
 21
-111.52304209
 31
0.0
  0
LINE
  5
253
100
AcDbEntity
  8
LAYER0001
  6
CONTINUOUS
 62
       7
100
AcDbLine
 10
-77.19878587
 20
-111.52304209
 30
0.0
 11
-76.89748411
 21
-111.47076316
 31
0.0
  0
LINE
  5
254
100
AcDbEntity
  8
LAYER0001
  6
CONTINUOUS
 62
       7
100
AcDbLine
 10
-76.89748411
 20
-111.47076316
 30
0.0
 11
-76.59678048
 21
-111.41461527
 31
0.0
  0
LINE
  5
255
100
AcDbEntity
  8
LAYER0001
  6
CONTINUOUS
 62
       7
100
AcDbLine
 10
-76.59678048
 20
-111.41461527
 30
0.0
 11
-76.2967277
 21
-111.35461499
 31
0.0
  0
LINE
  5
256
100
AcDbEntity
  8
LAYER0001
  6
CONTINUOUS
 62
       7
100
AcDbLine
 10
-76.2967277
 20
-111.35461499
 30
0.0
 11
-75.99735727
 21
-111.29083201
 31
0.0
  0
LINE
  5
257
100
AcDbEntity
  8
LAYER0001
  6
CONTINUOUS
 62
       7
100
AcDbLine
 10
-75.99735727
 20
-111.29083201
 30
0.0
 11
-75.69863293
 21
-111.22350529
 31
0.0
  0
LINE
  5
258
100
AcDbEntity
  8
LAYER0001
  6
CONTINUOUS
 62
       7
100
AcDbLine
 10
-75.69863293
 20
-111.22350529
 30
0.0
 11
-75.400505
 21
-111.15290741
 31
0.0
  0
LINE
  5
259
100
AcDbEntity
  8
LAYER0001
  6
CONTINUOUS
 62
       7
100
AcDbLine
 10
-75.400505
 20
-111.15290741
 30
0.0
 11
-75.10292376
 21
-111.07931098
 31
0.0
  0
LINE
  5
25A
100
AcDbEntity
  8
LAYER0001
  6
CONTINUOUS
 62
       7
100
AcDbLine
 10
-75.10292376
 20
-111.07931098
 30
0.0
 11
-74.80583952
 21
-111.00298859
 31
0.0
  0
LINE
  5
25B
100
AcDbEntity
  8
LAYER0001
  6
CONTINUOUS
 62
       7
100
AcDbLine
 10
-74.80583952
 20
-111.00298859
 30
0.0
 11
-74.50920258
 21
-110.92421283
 31
0.0
  0
LINE
  5
25C
100
AcDbEntity
  8
LAYER0001
  6
CONTINUOUS
 62
       7
100
AcDbLine
 10
-74.50920258
 20
-110.92421283
 30
0.0
 11
-74.21296323
 21
-110.84325631
 31
0.0
  0
LINE
  5
25D
100
AcDbEntity
  8
LAYER0001
  6
CONTINUOUS
 62
       7
100
AcDbLine
 10
-74.21296323
 20
-110.84325631
 30
0.0
 11
-73.91707179
 21
-110.76039162
 31
0.0
  0
LINE
  5
25E
100
AcDbEntity
  8
LAYER0001
  6
CONTINUOUS
 62
       7
100
AcDbLine
 10
-73.91707179
 20
-110.76039162
 30
0.0
 11
-73.62147855
 21
-110.67589135
 31
0.0
  0
LINE
  5
25F
100
AcDbEntity
  8
LAYER0001
  6
CONTINUOUS
 62
       7
100
AcDbLine
 10
-73.62147855
 20
-110.67589135
 30
0.0
 11
-73.3261338
 21
-110.5900281
 31
0.0
  0
LINE
  5
260
100
AcDbEntity
  8
LAYER0001
  6
CONTINUOUS
 62
       7
100
AcDbLine
 10
-73.3261338
 20
-110.5900281
 30
0.0
 11
-73.03098786
 21
-110.50307447
 31
0.0
  0
LINE
  5
261
100
AcDbEntity
  8
LAYER0001
  6
CONTINUOUS
 62
       7
100
AcDbLine
 10
-73.03098786
 20
-110.50307447
 30
0.0
 11
-72.73599102
 21
-110.41530305
 31
0.0
  0
LINE
  5
262
100
AcDbEntity
  8
LAYER0001
  6
CONTINUOUS
 62
       7
100
AcDbLine
 10
-72.73599102
 20
-110.41530305
 30
0.0
 11
-72.44109357
 21
-110.32698644
 31
0.0
  0
LINE
  5
263
100
AcDbEntity
  8
LAYER0001
  6
CONTINUOUS
 62
       7
100
AcDbLine
 10
-72.44109357
 20
-110.32698644
 30
0.0
 11
-72.14624583
 21
-110.23839723
 31
0.0
  0
LINE
  5
264
100
AcDbEntity
  8
LAYER0001
  6
CONTINUOUS
 62
       7
100
AcDbLine
 10
-90.14624505
 20
-110.23839723
 30
0.0
 11
-89.79222243
 21
-110.34713076
 31
0.0
  0
LINE
  5
265
100
AcDbEntity
  8
LAYER0001
  6
CONTINUOUS
 62
       7
100
AcDbLine
 10
-89.79222243
 20
-110.34713076
 30
0.0
 11
-89.43812267
 21
-110.45529092
 31
0.0
  0
LINE
  5
266
100
AcDbEntity
  8
LAYER0001
  6
CONTINUOUS
 62
       7
100
AcDbLine
 10
-89.43812267
 20
-110.45529092
 30
0.0
 11
-89.08386862
 21
-110.56230435
 31
0.0
  0
LINE
  5
267
100
AcDbEntity
  8
LAYER0001
  6
CONTINUOUS
 62
       7
100
AcDbLine
 10
-89.08386862
 20
-110.56230435
 30
0.0
 11
-88.72938314
 21
-110.66759769
 31
0.0
  0
LINE
  5
268
100
AcDbEntity
  8
LAYER0001
  6
CONTINUOUS
 62
       7
100
AcDbLine
 10
-88.72938314
 20
-110.66759769
 30
0.0
 11
-88.37458908
 21
-110.77059756
 31
0.0
  0
LINE
  5
269
100
AcDbEntity
  8
LAYER0001
  6
CONTINUOUS
 62
       7
100
AcDbLine
 10
-88.37458908
 20
-110.77059756
 30
0.0
 11
-88.0194093
 21
-110.8707306
 31
0.0
  0
LINE
  5
26A
100
AcDbEntity
  8
LAYER0001
  6
CONTINUOUS
 62
       7
100
AcDbLine
 10
-88.0194093
 20
-110.8707306
 30
0.0
 11
-87.66376665
 21
-110.96742346
 31
0.0
  0
LINE
  5
26B
100
AcDbEntity
  8
LAYER0001
  6
CONTINUOUS
 62
       7
100
AcDbLine
 10
-87.66376665
 20
-110.96742346
 30
0.0
 11
-87.307584
 21
-111.06010276
 31
0.0
  0
LINE
  5
26C
100
AcDbEntity
  8
LAYER0001
  6
CONTINUOUS
 62
       7
100
AcDbLine
 10
-87.307584
 20
-111.06010276
 30
0.0
 11
-86.95078419
 21
-111.14819513
 31
0.0
  0
LINE
  5
26D
100
AcDbEntity
  8
LAYER0001
  6
CONTINUOUS
 62
       7
100
AcDbLine
 10
-86.95078419
 20
-111.14819513
 30
0.0
 11
-86.59329008
 21
-111.23112722
 31
0.0
  0
LINE
  5
26E
100
AcDbEntity
  8
LAYER0001
  6
CONTINUOUS
 62
       7
100
AcDbLine
 10
-86.59329008
 20
-111.23112722
 30
0.0
 11
-86.23502453
 21
-111.30832565
 31
0.0
  0
LINE
  5
26F
100
AcDbEntity
  8
LAYER0001
  6
CONTINUOUS
 62
       7
100
AcDbLine
 10
-86.23502453
 20
-111.30832565
 30
0.0
 11
-85.87591039
 21
-111.37921706
 31
0.0
  0
LINE
  5
270
100
AcDbEntity
  8
LAYER0001
  6
CONTINUOUS
 62
       7
100
AcDbLine
 10
-85.87591039
 20
-111.37921706
 30
0.0
 11
-85.51587641
 21
-111.44327184
 31
0.0
  0
LINE
  5
271
100
AcDbEntity
  8
LAYER0001
  6
CONTINUOUS
 62
       7
100
AcDbLine
 10
-85.51587641
 20
-111.44327184
 30
0.0
 11
-85.15493484
 21
-111.50058105
 31
0.0
  0
LINE
  5
272
100
AcDbEntity
  8
LAYER0001
  6
CONTINUOUS
 62
       7
100
AcDbLine
 10
-85.15493484
 20
-111.50058105
 30
0.0
 11
-84.79315996
 21
-111.55169681
 31
0.0
  0
LINE
  5
273
100
AcDbEntity
  8
LAYER0001
  6
CONTINUOUS
 62
       7
100
AcDbLine
 10
-84.79315996
 20
-111.55169681
 30
0.0
 11
-84.43062753
 21
-111.59718216
 31
0.0
  0
LINE
  5
274
100
AcDbEntity
  8
LAYER0001
  6
CONTINUOUS
 62
       7
100
AcDbLine
 10
-84.43062753
 20
-111.59718216
 30
0.0
 11
-84.0674133
 21
-111.63760013
 31
0.0
  0
LINE
  5
275
100
AcDbEntity
  8
LAYER0001
  6
CONTINUOUS
 62
       7
100
AcDbLine
 10
-84.0674133
 20
-111.63760013
 30
0.0
 11
-83.70359304
 21
-111.67351377
 31
0.0
  0
LINE
  5
276
100
AcDbEntity
  8
LAYER0001
  6
CONTINUOUS
 62
       7
100
AcDbLine
 10
-83.70359304
 20
-111.67351377
 30
0.0
 11
-83.33924248
 21
-111.70548613
 31
0.0
  0
LINE
  5
277
100
AcDbEntity
  8
LAYER0001
  6
CONTINUOUS
 62
       7
100
AcDbLine
 10
-83.33924248
 20
-111.70548613
 30
0.0
 11
-82.9744374
 21
-111.73408024
 31
0.0
  0
LINE
  5
278
100
AcDbEntity
  8
LAYER0001
  6
CONTINUOUS
 62
       7
100
AcDbLine
 10
-82.9744374
 20
-111.73408024
 30
0.0
 11
-82.60925354
 21
-111.75985914
 31
0.0
  0
LINE
  5
279
100
AcDbEntity
  8
LAYER0001
  6
CONTINUOUS
 62
       7
100
AcDbLine
 10
-82.60925354
 20
-111.75985914
 30
0.0
 11
-82.24376665
 21
-111.78338588
 31
0.0
  0
LINE
  5
27A
100
AcDbEntity
  8
LAYER0001
  6
CONTINUOUS
 62
       7
100
AcDbLine
 10
-82.24376665
 20
-111.78338588
 30
0.0
 11
-81.87805251
 21
-111.80522349
 31
0.0
  0
LINE
  5
27B
100
AcDbEntity
  8
LAYER0001
  6
CONTINUOUS
 62
       7
100
AcDbLine
 10
-81.87805251
 20
-111.80522349
 30
0.0
 11
-81.51218685
 21
-111.82593502
 31
0.0
  0
LINE
  5
27C
100
AcDbEntity
  8
LAYER0001
  6
CONTINUOUS
 62
       7
100
AcDbLine
 10
-81.51218685
 20
-111.82593502
 30
0.0
 11
-81.14624544
 21
-111.84608351
 31
0.0
  0
LINE
  5
27D
100
AcDbEntity
  8
LAYER0001
  6
CONTINUOUS
 62
       7
100
AcDbLine
 10
-99.14624466
 20
-97.84608494
 30
0.0
 11
-99.45061129
 21
-97.84914784
 31
0.0
  0
LINE
  5
27E
100
AcDbEntity
  8
LAYER0001
  6
CONTINUOUS
 62
       7
100
AcDbLine
 10
-99.45061129
 20
-97.84914784
 30
0.0
 11
-99.75499184
 21
-97.85414393
 31
0.0
  0
LINE
  5
27F
100
AcDbEntity
  8
LAYER0001
  6
CONTINUOUS
 62
       7
100
AcDbLine
 10
-99.75499184
 20
-97.85414393
 30
0.0
 11
-100.05939224
 21
-97.86277203
 31
0.0
  0
LINE
  5
280
100
AcDbEntity
  8
LAYER0001
  6
CONTINUOUS
 62
       7
100
AcDbLine
 10
-100.05939224
 20
-97.86277203
 30
0.0
 11
-100.36377463
 21
-97.87545083
 31
0.0
  0
LINE
  5
281
100
AcDbEntity
  8
LAYER0001
  6
CONTINUOUS
 62
       7
100
AcDbLine
 10
-100.36377463
 20
-97.87545083
 30
0.0
 11
-100.66808628
 21
-97.89216414
 31
0.0
  0
LINE
  5
282
100
AcDbEntity
  8
LAYER0001
  6
CONTINUOUS
 62
       7
100
AcDbLine
 10
-100.66808628
 20
-97.89216414
 30
0.0
 11
-100.97227445
 21
-97.91289541
 31
0.0
  0
LINE
  5
283
100
AcDbEntity
  8
LAYER0001
  6
CONTINUOUS
 62
       7
100
AcDbLine
 10
-100.97227445
 20
-97.91289541
 30
0.0
 11
-101.2762864
 21
-97.93762807
 31
0.0
  0
LINE
  5
284
100
AcDbEntity
  8
LAYER0001
  6
CONTINUOUS
 62
       7
100
AcDbLine
 10
-101.2762864
 20
-97.93762807
 30
0.0
 11
-101.58006941
 21
-97.96634558
 31
0.0
  0
LINE
  5
285
100
AcDbEntity
  8
LAYER0001
  6
CONTINUOUS
 62
       7
100
AcDbLine
 10
-101.58006941
 20
-97.96634558
 30
0.0
 11
-101.88357071
 21
-97.99903138
 31
0.0
  0
LINE
  5
286
100
AcDbEntity
  8
LAYER0001
  6
CONTINUOUS
 62
       7
100
AcDbLine
 10
-101.88357071
 20
-97.99903138
 30
0.0
 11
-102.18673759
 21
-98.03566891
 31
0.0
  0
LINE
  5
287
100
AcDbEntity
  8
LAYER0001
  6
CONTINUOUS
 62
       7
100
AcDbLine
 10
-102.18673759
 20
-98.03566891
 30
0.0
 11
-102.48951729
 21
-98.07624162
 31
0.0
  0
LINE
  5
288
100
AcDbEntity
  8
LAYER0001
  6
CONTINUOUS
 62
       7
100
AcDbLine
 10
-102.48951729
 20
-98.07624162
 30
0.0
 11
-102.79185709
 21
-98.12073296
 31
0.0
  0
LINE
  5
289
100
AcDbEntity
  8
LAYER0001
  6
CONTINUOUS
 62
       7
100
AcDbLine
 10
-102.79185709
 20
-98.12073296
 30
0.0
 11
-103.09370423
 21
-98.16912637
 31
0.0
  0
LINE
  5
28A
100
AcDbEntity
  8
LAYER0001
  6
CONTINUOUS
 62
       7
100
AcDbLine
 10
-103.09370423
 20
-98.16912637
 30
0.0
 11
-103.39500599
 21
-98.2214053
 31
0.0
  0
LINE
  5
28B
100
AcDbEntity
  8
LAYER0001
  6
CONTINUOUS
 62
       7
100
AcDbLine
 10
-103.39500599
 20
-98.2214053
 30
0.0
 11
-103.69570962
 21
-98.27755319
 31
0.0
  0
LINE
  5
28C
100
AcDbEntity
  8
LAYER0001
  6
CONTINUOUS
 62
       7
100
AcDbLine
 10
-103.69570962
 20
-98.27755319
 30
0.0
 11
-103.9957624
 21
-98.33755347
 31
0.0
  0
LINE
  5
28D
100
AcDbEntity
  8
LAYER0001
  6
CONTINUOUS
 62
       7
100
AcDbLine
 10
-103.9957624
 20
-98.33755347
 30
0.0
 11
-104.29513283
 21
-98.40133644
 31
0.0
  0
LINE
  5
28E
100
AcDbEntity
  8
LAYER0001
  6
CONTINUOUS
 62
       7
100
AcDbLine
 10
-104.29513283
 20
-98.40133644
 30
0.0
 11
-104.59385717
 21
-98.46866317
 31
0.0
  0
LINE
  5
28F
100
AcDbEntity
  8
LAYER0001
  6
CONTINUOUS
 62
       7
100
AcDbLine
 10
-104.59385717
 20
-98.46866317
 30
0.0
 11
-104.89198511
 21
-98.53926105
 31
0.0
  0
LINE
  5
290
100
AcDbEntity
  8
LAYER0001
  6
CONTINUOUS
 62
       7
100
AcDbLine
 10
-104.89198511
 20
-98.53926105
 30
0.0
 11
-105.18956635
 21
-98.61285748
 31
0.0
  0
LINE
  5
291
100
AcDbEntity
  8
LAYER0001
  6
CONTINUOUS
 62
       7
100
AcDbLine
 10
-105.18956635
 20
-98.61285748
 30
0.0
 11
-105.48665059
 21
-98.68917987
 31
0.0
  0
LINE
  5
292
100
AcDbEntity
  8
LAYER0001
  6
CONTINUOUS
 62
       7
100
AcDbLine
 10
-105.48665059
 20
-98.68917987
 30
0.0
 11
-105.78328753
 21
-98.76795562
 31
0.0
  0
LINE
  5
293
100
AcDbEntity
  8
LAYER0001
  6
CONTINUOUS
 62
       7
100
AcDbLine
 10
-105.78328753
 20
-98.76795562
 30
0.0
 11
-106.07952687
 21
-98.84891214
 31
0.0
  0
LINE
  5
294
100
AcDbEntity
  8
LAYER0001
  6
CONTINUOUS
 62
       7
100
AcDbLine
 10
-106.07952687
 20
-98.84891214
 30
0.0
 11
-106.37541831
 21
-98.93177684
 31
0.0
  0
LINE
  5
295
100
AcDbEntity
  8
LAYER0001
  6
CONTINUOUS
 62
       7
100
AcDbLine
 10
-106.37541831
 20
-98.93177684
 30
0.0
 11
-106.67101155
 21
-99.01627711
 31
0.0
  0
LINE
  5
296
100
AcDbEntity
  8
LAYER0001
  6
CONTINUOUS
 62
       7
100
AcDbLine
 10
-106.67101155
 20
-99.01627711
 30
0.0
 11
-106.9663563
 21
-99.10214035
 31
0.0
  0
LINE
  5
297
100
AcDbEntity
  8
LAYER0001
  6
CONTINUOUS
 62
       7
100
AcDbLine
 10
-106.9663563
 20
-99.10214035
 30
0.0
 11
-107.26150224
 21
-99.18909399
 31
0.0
  0
LINE
  5
298
100
AcDbEntity
  8
LAYER0001
  6
CONTINUOUS
 62
       7
100
AcDbLine
 10
-107.26150224
 20
-99.18909399
 30
0.0
 11
-107.55649909
 21
-99.27686541
 31
0.0
  0
LINE
  5
299
100
AcDbEntity
  8
LAYER0001
  6
CONTINUOUS
 62
       7
100
AcDbLine
 10
-107.55649909
 20
-99.27686541
 30
0.0
 11
-107.85139653
 21
-99.36518202
 31
0.0
  0
LINE
  5
29A
100
AcDbEntity
  8
LAYER0001
  6
CONTINUOUS
 62
       7
100
AcDbLine
 10
-107.85139653
 20
-99.36518202
 30
0.0
 11
-108.14624428
 21
-99.45377122
 31
0.0
  0
LINE
  5
29B
100
AcDbEntity
  8
LAYER0001
  6
CONTINUOUS
 62
       7
100
AcDbLine
 10
-90.14624505
 20
-99.45377122
 30
0.0
 11
-90.5002672
 21
-99.34503422
 31
0.0
  0
LINE
  5
29C
100
AcDbEntity
  8
LAYER0001
  6
CONTINUOUS
 62
       7
100
AcDbLine
 10
-90.5002672
 20
-99.34503422
 30
0.0
 11
-90.8543665
 21
-99.23687062
 31
0.0
  0
LINE
  5
29D
100
AcDbEntity
  8
LAYER0001
  6
CONTINUOUS
 62
       7
100
AcDbLine
 10
-90.8543665
 20
-99.23687062
 30
0.0
 11
-91.2086201
 21
-99.12985384
 31
0.0
  0
LINE
  5
29E
100
AcDbEntity
  8
LAYER0001
  6
CONTINUOUS
 62
       7
100
AcDbLine
 10
-91.2086201
 20
-99.12985384
 30
0.0
 11
-91.56310515
 21
-99.02455729
 31
0.0
  0
LINE
  5
29F
100
AcDbEntity
  8
LAYER0001
  6
CONTINUOUS
 62
       7
100
AcDbLine
 10
-91.56310515
 20
-99.02455729
 30
0.0
 11
-91.9178988
 21
-98.92155438
 31
0.0
  0
LINE
  5
2A0
100
AcDbEntity
  8
LAYER0001
  6
CONTINUOUS
 62
       7
100
AcDbLine
 10
-91.9178988
 20
-98.92155438
 30
0.0
 11
-92.27307821
 21
-98.82141852
 31
0.0
  0
LINE
  5
2A1
100
AcDbEntity
  8
LAYER0001
  6
CONTINUOUS
 62
       7
100
AcDbLine
 10
-92.27307821
 20
-98.82141852
 30
0.0
 11
-92.62872051
 21
-98.72472312
 31
0.0
  0
LINE
  5
2A2
100
AcDbEntity
  8
LAYER0001
  6
CONTINUOUS
 62
       7
100
AcDbLine
 10
-92.62872051
 20
-98.72472312
 30
0.0
 11
-92.98490286
 21
-98.63204159
 31
0.0
  0
LINE
  5
2A3
100
AcDbEntity
  8
LAYER0001
  6
CONTINUOUS
 62
       7
100
AcDbLine
 10
-92.98490286
 20
-98.63204159
 30
0.0
 11
-93.34170242
 21
-98.54394734
 31
0.0
  0
LINE
  5
2A4
100
AcDbEntity
  8
LAYER0001
  6
CONTINUOUS
 62
       7
100
AcDbLine
 10
-93.34170242
 20
-98.54394734
 30
0.0
 11
-93.69919633
 21
-98.46101378
 31
0.0
  0
LINE
  5
2A5
100
AcDbEntity
  8
LAYER0001
  6
CONTINUOUS
 62
       7
100
AcDbLine
 10
-93.69919633
 20
-98.46101378
 30
0.0
 11
-94.05746174
 21
-98.38381432
 31
0.0
  0
LINE
  5
2A6
100
AcDbEntity
  8
LAYER0001
  6
CONTINUOUS
 62
       7
100
AcDbLine
 10
-94.05746174
 20
-98.38381432
 30
0.0
 11
-94.41657581
 21
-98.31292236
 31
0.0
  0
LINE
  5
2A7
100
AcDbEntity
  8
LAYER0001
  6
CONTINUOUS
 62
       7
100
AcDbLine
 10
-94.41657581
 20
-98.31292236
 30
0.0
 11
-94.77660979
 21
-98.24886758
 31
0.0
  0
LINE
  5
2A8
100
AcDbEntity
  8
LAYER0001
  6
CONTINUOUS
 62
       7
100
AcDbLine
 10
-94.77660979
 20
-98.24886758
 30
0.0
 11
-95.13755143
 21
-98.1915589
 31
0.0
  0
LINE
  5
2A9
100
AcDbEntity
  8
LAYER0001
  6
CONTINUOUS
 62
       7
100
AcDbLine
 10
-95.13755143
 20
-98.1915589
 30
0.0
 11
-95.49932645
 21
-98.14044417
 31
0.0
  0
LINE
  5
2AA
100
AcDbEntity
  8
LAYER0001
  6
CONTINUOUS
 62
       7
100
AcDbLine
 10
-95.49932645
 20
-98.14044417
 30
0.0
 11
-95.86185908
 21
-98.09496029
 31
0.0
  0
LINE
  5
2AB
100
AcDbEntity
  8
LAYER0001
  6
CONTINUOUS
 62
       7
100
AcDbLine
 10
-95.86185908
 20
-98.09496029
 30
0.0
 11
-96.22507355
 21
-98.05454419
 31
0.0
  0
LINE
  5
2AC
100
AcDbEntity
  8
LAYER0001
  6
CONTINUOUS
 62
       7
100
AcDbLine
 10
-96.22507355
 20
-98.05454419
 30
0.0
 11
-96.58889412
 21
-98.01863278
 31
0.0
  0
LINE
  5
2AD
100
AcDbEntity
  8
LAYER0001
  6
CONTINUOUS
 62
       7
100
AcDbLine
 10
-96.58889412
 20
-98.01863278
 30
0.0
 11
-96.95324502
 21
-97.98666297
 31
0.0
  0
LINE
  5
2AE
100
AcDbEntity
  8
LAYER0001
  6
CONTINUOUS
 62
       7
100
AcDbLine
 10
-96.95324502
 20
-97.98666297
 30
0.0
 11
-97.31805048
 21
-97.95807168
 31
0.0
  0
LINE
  5
2AF
100
AcDbEntity
  8
LAYER0001
  6
CONTINUOUS
 62
       7
100
AcDbLine
 10
-97.31805048
 20
-97.95807168
 30
0.0
 11
-97.68323475
 21
-97.93229582
 31
0.0
  0
LINE
  5
2B0
100
AcDbEntity
  8
LAYER0001
  6
CONTINUOUS
 62
       7
100
AcDbLine
 10
-97.68323475
 20
-97.93229582
 30
0.0
 11
-98.04872207
 21
-97.9087723
 31
0.0
  0
LINE
  5
2B1
100
AcDbEntity
  8
LAYER0001
  6
CONTINUOUS
 62
       7
100
AcDbLine
 10
-98.04872207
 20
-97.9087723
 30
0.0
 11
-98.41443666
 21
-97.88693804
 31
0.0
  0
LINE
  5
2B2
100
AcDbEntity
  8
LAYER0001
  6
CONTINUOUS
 62
       7
100
AcDbLine
 10
-98.41443666
 20
-97.88693804
 30
0.0
 11
-98.78030278
 21
-97.86622995
 31
0.0
  0
LINE
  5
2B3
100
AcDbEntity
  8
LAYER0001
  6
CONTINUOUS
 62
       7
100
AcDbLine
 10
-98.78030278
 20
-97.86622995
 30
0.0
 11
-99.14624466
 21
-97.84608494
 31
0.0
  0
LINE
  5
2B4
100
AcDbEntity
  8
LAYER0001
  6
CONTINUOUS
 62
       7
100
AcDbLine
 10
-99.14624466
 20
-111.84608351
 30
0.0
 11
-98.84187798
 21
-111.8430206
 31
0.0
  0
LINE
  5
2B5
100
AcDbEntity
  8
LAYER0001
  6
CONTINUOUS
 62
       7
100
AcDbLine
 10
-98.84187798
 20
-111.8430206
 30
0.0
 11
-98.53749738
 21
-111.8380245
 31
0.0
  0
LINE
  5
2B6
100
AcDbEntity
  8
LAYER0001
  6
CONTINUOUS
 62
       7
100
AcDbLine
 10
-98.53749738
 20
-111.8380245
 30
0.0
 11
-98.23309695
 21
-111.82939639
 31
0.0
  0
LINE
  5
2B7
100
AcDbEntity
  8
LAYER0001
  6
CONTINUOUS
 62
       7
100
AcDbLine
 10
-98.23309695
 20
-111.82939639
 30
0.0
 11
-97.92871457
 21
-111.81671758
 31
0.0
  0
LINE
  5
2B8
100
AcDbEntity
  8
LAYER0001
  6
CONTINUOUS
 62
       7
100
AcDbLine
 10
-97.92871457
 20
-111.81671758
 30
0.0
 11
-97.62440295
 21
-111.80000426
 31
0.0
  0
LINE
  5
2B9
100
AcDbEntity
  8
LAYER0001
  6
CONTINUOUS
 62
       7
100
AcDbLine
 10
-97.62440295
 20
-111.80000426
 30
0.0
 11
-97.32021482
 21
-111.77927299
 31
0.0
  0
LINE
  5
2BA
100
AcDbEntity
  8
LAYER0001
  6
CONTINUOUS
 62
       7
100
AcDbLine
 10
-97.32021482
 20
-111.77927299
 30
0.0
 11
-97.01620292
 21
-111.75454032
 31
0.0
  0
LINE
  5
2BB
100
AcDbEntity
  8
LAYER0001
  6
CONTINUOUS
 62
       7
100
AcDbLine
 10
-97.01620292
 20
-111.75454032
 30
0.0
 11
-96.71241999
 21
-111.72582281
 31
0.0
  0
LINE
  5
2BC
100
AcDbEntity
  8
LAYER0001
  6
CONTINUOUS
 62
       7
100
AcDbLine
 10
-96.71241999
 20
-111.72582281
 30
0.0
 11
-96.40891876
 21
-111.69313701
 31
0.0
  0
LINE
  5
2BD
100
AcDbEntity
  8
LAYER0001
  6
CONTINUOUS
 62
       7
100
AcDbLine
 10
-96.40891876
 20
-111.69313701
 30
0.0
 11
-96.10575197
 21
-111.65649948
 31
0.0
  0
LINE
  5
2BE
100
AcDbEntity
  8
LAYER0001
  6
CONTINUOUS
 62
       7
100
AcDbLine
 10
-96.10575197
 20
-111.65649948
 30
0.0
 11
-95.80297235
 21
-111.61592677
 31
0.0
  0
LINE
  5
2BF
100
AcDbEntity
  8
LAYER0001
  6
CONTINUOUS
 62
       7
100
AcDbLine
 10
-95.80297235
 20
-111.61592677
 30
0.0
 11
-95.50063264
 21
-111.57143543
 31
0.0
  0
LINE
  5
2C0
100
AcDbEntity
  8
LAYER0001
  6
CONTINUOUS
 62
       7
100
AcDbLine
 10
-95.50063264
 20
-111.57143543
 30
0.0
 11
-95.19878558
 21
-111.52304202
 31
0.0
  0
LINE
  5
2C1
100
AcDbEntity
  8
LAYER0001
  6
CONTINUOUS
 62
       7
100
AcDbLine
 10
-95.19878558
 20
-111.52304202
 30
0.0
 11
-94.89748389
 21
-111.4707631
 31
0.0
  0
LINE
  5
2C2
100
AcDbEntity
  8
LAYER0001
  6
CONTINUOUS
 62
       7
100
AcDbLine
 10
-94.89748389
 20
-111.4707631
 30
0.0
 11
-94.59678032
 21
-111.41461521
 31
0.0
  0
LINE
  5
2C3
100
AcDbEntity
  8
LAYER0001
  6
CONTINUOUS
 62
       7
100
AcDbLine
 10
-94.59678032
 20
-111.41461521
 30
0.0
 11
-94.2967276
 21
-111.35461494
 31
0.0
  0
LINE
  5
2C4
100
AcDbEntity
  8
LAYER0001
  6
CONTINUOUS
 62
       7
100
AcDbLine
 10
-94.2967276
 20
-111.35461494
 30
0.0
 11
-93.99735719
 21
-111.29083196
 31
0.0
  0
LINE
  5
2C5
100
AcDbEntity
  8
LAYER0001
  6
CONTINUOUS
 62
       7
100
AcDbLine
 10
-93.99735719
 20
-111.29083196
 30
0.0
 11
-93.69863286
 21
-111.22350524
 31
0.0
  0
LINE
  5
2C6
100
AcDbEntity
  8
LAYER0001
  6
CONTINUOUS
 62
       7
100
AcDbLine
 10
-93.69863286
 20
-111.22350524
 30
0.0
 11
-93.40050492
 21
-111.15290737
 31
0.0
  0
LINE
  5
2C7
100
AcDbEntity
  8
LAYER0001
  6
CONTINUOUS
 62
       7
100
AcDbLine
 10
-93.40050492
 20
-111.15290737
 30
0.0
 11
-93.10292366
 21
-111.07931094
 31
0.0
  0
LINE
  5
2C8
100
AcDbEntity
  8
LAYER0001
  6
CONTINUOUS
 62
       7
100
AcDbLine
 10
-93.10292366
 20
-111.07931094
 30
0.0
 11
-92.80583939
 21
-111.00298855
 31
0.0
  0
LINE
  5
2C9
100
AcDbEntity
  8
LAYER0001
  6
CONTINUOUS
 62
       7
100
AcDbLine
 10
-92.80583939
 20
-111.00298855
 30
0.0
 11
-92.50920241
 21
-110.9242128
 31
0.0
  0
LINE
  5
2CA
100
AcDbEntity
  8
LAYER0001
  6
CONTINUOUS
 62
       7
100
AcDbLine
 10
-92.50920241
 20
-110.9242128
 30
0.0
 11
-92.21296301
 21
-110.84325628
 31
0.0
  0
LINE
  5
2CB
100
AcDbEntity
  8
LAYER0001
  6
CONTINUOUS
 62
       7
100
AcDbLine
 10
-92.21296301
 20
-110.84325628
 30
0.0
 11
-91.91707151
 21
-110.76039159
 31
0.0
  0
LINE
  5
2CC
100
AcDbEntity
  8
LAYER0001
  6
CONTINUOUS
 62
       7
100
AcDbLine
 10
-91.91707151
 20
-110.76039159
 30
0.0
 11
-91.6214782
 21
-110.67589133
 31
0.0
  0
LINE
  5
2CD
100
AcDbEntity
  8
LAYER0001
  6
CONTINUOUS
 62
       7
100
AcDbLine
 10
-91.6214782
 20
-110.67589133
 30
0.0
 11
-91.32613337
 21
-110.59002809
 31
0.0
  0
LINE
  5
2CE
100
AcDbEntity
  8
LAYER0001
  6
CONTINUOUS
 62
       7
100
AcDbLine
 10
-91.32613337
 20
-110.59002809
 30
0.0
 11
-91.03098735
 21
-110.50307446
 31
0.0
  0
LINE
  5
2CF
100
AcDbEntity
  8
LAYER0001
  6
CONTINUOUS
 62
       7
100
AcDbLine
 10
-91.03098735
 20
-110.50307446
 30
0.0
 11
-90.73599042
 21
-110.41530304
 31
0.0
  0
LINE
  5
2D0
100
AcDbEntity
  8
LAYER0001
  6
CONTINUOUS
 62
       7
100
AcDbLine
 10
-90.73599042
 20
-110.41530304
 30
0.0
 11
-90.44109289
 21
-110.32698644
 31
0.0
  0
LINE
  5
2D1
100
AcDbEntity
  8
LAYER0001
  6
CONTINUOUS
 62
       7
100
AcDbLine
 10
-90.44109289
 20
-110.32698644
 30
0.0
 11
-90.14624505
 21
-110.23839723
 31
0.0
  0
LINE
  5
2D2
100
AcDbEntity
  8
LAYER0001
  6
CONTINUOUS
 62
       7
100
AcDbLine
 10
-108.14624428
 20
-110.23839723
 30
0.0
 11
-107.79222174
 21
-110.34713077
 31
0.0
  0
LINE
  5
2D3
100
AcDbEntity
  8
LAYER0001
  6
CONTINUOUS
 62
       7
100
AcDbLine
 10
-107.79222174
 20
-110.34713077
 30
0.0
 11
-107.43812205
 21
-110.45529093
 31
0.0
  0
LINE
  5
2D4
100
AcDbEntity
  8
LAYER0001
  6
CONTINUOUS
 62
       7
100
AcDbLine
 10
-107.43812205
 20
-110.45529093
 30
0.0
 11
-107.08386808
 21
-110.56230437
 31
0.0
  0
LINE
  5
2D5
100
AcDbEntity
  8
LAYER0001
  6
CONTINUOUS
 62
       7
100
AcDbLine
 10
-107.08386808
 20
-110.56230437
 30
0.0
 11
-106.72938266
 21
-110.66759771
 31
0.0
  0
LINE
  5
2D6
100
AcDbEntity
  8
LAYER0001
  6
CONTINUOUS
 62
       7
100
AcDbLine
 10
-106.72938266
 20
-110.66759771
 30
0.0
 11
-106.37458867
 21
-110.77059759
 31
0.0
  0
LINE
  5
2D7
100
AcDbEntity
  8
LAYER0001
  6
CONTINUOUS
 62
       7
100
AcDbLine
 10
-106.37458867
 20
-110.77059759
 30
0.0
 11
-106.01940895
 21
-110.87073064
 31
0.0
  0
LINE
  5
2D8
100
AcDbEntity
  8
LAYER0001
  6
CONTINUOUS
 62
       7
100
AcDbLine
 10
-106.01940895
 20
-110.87073064
 30
0.0
 11
-105.66376636
 21
-110.9674235
 31
0.0
  0
LINE
  5
2D9
100
AcDbEntity
  8
LAYER0001
  6
CONTINUOUS
 62
       7
100
AcDbLine
 10
-105.66376636
 20
-110.9674235
 30
0.0
 11
-105.30758376
 21
-111.0601028
 31
0.0
  0
LINE
  5
2DA
100
AcDbEntity
  8
LAYER0001
  6
CONTINUOUS
 62
       7
100
AcDbLine
 10
-105.30758376
 20
-111.0601028
 30
0.0
 11
-104.95078399
 21
-111.14819518
 31
0.0
  0
LINE
  5
2DB
100
AcDbEntity
  8
LAYER0001
  6
CONTINUOUS
 62
       7
100
AcDbLine
 10
-104.95078399
 20
-111.14819518
 30
0.0
 11
-104.59328991
 21
-111.23112727
 31
0.0
  0
LINE
  5
2DC
100
AcDbEntity
  8
LAYER0001
  6
CONTINUOUS
 62
       7
100
AcDbLine
 10
-104.59328991
 20
-111.23112727
 30
0.0
 11
-104.23502439
 21
-111.3083257
 31
0.0
  0
LINE
  5
2DD
100
AcDbEntity
  8
LAYER0001
  6
CONTINUOUS
 62
       7
100
AcDbLine
 10
-104.23502439
 20
-111.3083257
 30
0.0
 11
-103.87591026
 21
-111.37921711
 31
0.0
  0
LINE
  5
2DE
100
AcDbEntity
  8
LAYER0001
  6
CONTINUOUS
 62
       7
100
AcDbLine
 10
-103.87591026
 20
-111.37921711
 30
0.0
 11
-103.51587628
 21
-111.44327189
 31
0.0
  0
LINE
  5
2DF
100
AcDbEntity
  8
LAYER0001
  6
CONTINUOUS
 62
       7
100
AcDbLine
 10
-103.51587628
 20
-111.44327189
 30
0.0
 11
-103.15493469
 21
-111.5005811
 31
0.0
  0
LINE
  5
2E0
100
AcDbEntity
  8
LAYER0001
  6
CONTINUOUS
 62
       7
100
AcDbLine
 10
-103.15493469
 20
-111.5005811
 30
0.0
 11
-102.79315979
 21
-111.55169685
 31
0.0
  0
LINE
  5
2E1
100
AcDbEntity
  8
LAYER0001
  6
CONTINUOUS
 62
       7
100
AcDbLine
 10
-102.79315979
 20
-111.55169685
 30
0.0
 11
-102.43062733
 21
-111.5971822
 31
0.0
  0
LINE
  5
2E2
100
AcDbEntity
  8
LAYER0001
  6
CONTINUOUS
 62
       7
100
AcDbLine
 10
-102.43062733
 20
-111.5971822
 30
0.0
 11
-102.06741306
 21
-111.63760017
 31
0.0
  0
LINE
  5
2E3
100
AcDbEntity
  8
LAYER0001
  6
CONTINUOUS
 62
       7
100
AcDbLine
 10
-102.06741306
 20
-111.63760017
 30
0.0
 11
-101.70359274
 21
-111.67351381
 31
0.0
  0
LINE
  5
2E4
100
AcDbEntity
  8
LAYER0001
  6
CONTINUOUS
 62
       7
100
AcDbLine
 10
-101.70359274
 20
-111.67351381
 30
0.0
 11
-101.33924213
 21
-111.70548616
 31
0.0
  0
LINE
  5
2E5
100
AcDbEntity
  8
LAYER0001
  6
CONTINUOUS
 62
       7
100
AcDbLine
 10
-101.33924213
 20
-111.70548616
 30
0.0
 11
-100.97443699
 21
-111.73408026
 31
0.0
  0
LINE
  5
2E6
100
AcDbEntity
  8
LAYER0001
  6
CONTINUOUS
 62
       7
100
AcDbLine
 10
-100.97443699
 20
-111.73408026
 30
0.0
 11
-100.60925306
 21
-111.75985916
 31
0.0
  0
LINE
  5
2E7
100
AcDbEntity
  8
LAYER0001
  6
CONTINUOUS
 62
       7
100
AcDbLine
 10
-100.60925306
 20
-111.75985916
 30
0.0
 11
-100.24376611
 21
-111.78338589
 31
0.0
  0
LINE
  5
2E8
100
AcDbEntity
  8
LAYER0001
  6
CONTINUOUS
 62
       7
100
AcDbLine
 10
-100.24376611
 20
-111.78338589
 30
0.0
 11
-99.87805189
 21
-111.8052235
 31
0.0
  0
LINE
  5
2E9
100
AcDbEntity
  8
LAYER0001
  6
CONTINUOUS
 62
       7
100
AcDbLine
 10
-99.87805189
 20
-111.8052235
 30
0.0
 11
-99.51218615
 21
-111.82593503
 31
0.0
  0
LINE
  5
2EA
100
AcDbEntity
  8
LAYER0001
  6
CONTINUOUS
 62
       7
100
AcDbLine
 10
-99.51218615
 20
-111.82593503
 30
0.0
 11
-99.14624466
 21
-111.84608351
 31
0.0
  0
LINE
  5
2EB
100
AcDbEntity
  8
LAYER0001
  6
CONTINUOUS
 62
       7
100
AcDbLine
 10
-72.14624583
 20
-110.23839723
 30
0.0
 11
-72.14624583
 21
-110.32858727
 31
0.0
  0
LINE
  5
2EC
100
AcDbEntity
  8
LAYER0001
  6
CONTINUOUS
 62
       7
100
AcDbLine
 10
-72.14624583
 20
-110.32858727
 30
0.0
 11
-72.14624583
 21
-110.41846746
 31
0.0
  0
LINE
  5
2ED
100
AcDbEntity
  8
LAYER0001
  6
CONTINUOUS
 62
       7
100
AcDbLine
 10
-72.14624583
 20
-110.41846746
 30
0.0
 11
-72.14624583
 21
-110.50772798
 31
0.0
  0
LINE
  5
2EE
100
AcDbEntity
  8
LAYER0001
  6
CONTINUOUS
 62
       7
100
AcDbLine
 10
-72.14624583
 20
-110.50772798
 30
0.0
 11
-72.14624583
 21
-110.59605899
 31
0.0
  0
LINE
  5
2EF
100
AcDbEntity
  8
LAYER0001
  6
CONTINUOUS
 62
       7
100
AcDbLine
 10
-72.14624583
 20
-110.59605899
 30
0.0
 11
-72.14624583
 21
-110.68315065
 31
0.0
  0
LINE
  5
2F0
100
AcDbEntity
  8
LAYER0001
  6
CONTINUOUS
 62
       7
100
AcDbLine
 10
-72.14624583
 20
-110.68315065
 30
0.0
 11
-72.14624583
 21
-110.76869312
 31
0.0
  0
LINE
  5
2F1
100
AcDbEntity
  8
LAYER0001
  6
CONTINUOUS
 62
       7
100
AcDbLine
 10
-72.14624583
 20
-110.76869312
 30
0.0
 11
-72.14624583
 21
-110.85237656
 31
0.0
  0
LINE
  5
2F2
100
AcDbEntity
  8
LAYER0001
  6
CONTINUOUS
 62
       7
100
AcDbLine
 10
-72.14624583
 20
-110.85237656
 30
0.0
 11
-72.14624583
 21
-110.93389113
 31
0.0
  0
LINE
  5
2F3
100
AcDbEntity
  8
LAYER0001
  6
CONTINUOUS
 62
       7
100
AcDbLine
 10
-72.14624583
 20
-110.93389113
 30
0.0
 11
-72.14624583
 21
-111.012927
 31
0.0
  0
LINE
  5
2F4
100
AcDbEntity
  8
LAYER0001
  6
CONTINUOUS
 62
       7
100
AcDbLine
 10
-72.14624583
 20
-111.012927
 30
0.0
 11
-72.14624583
 21
-111.08917434
 31
0.0
  0
LINE
  5
2F5
100
AcDbEntity
  8
LAYER0001
  6
CONTINUOUS
 62
       7
100
AcDbLine
 10
-72.14624583
 20
-111.08917434
 30
0.0
 11
-72.14624583
 21
-111.1623233
 31
0.0
  0
LINE
  5
2F6
100
AcDbEntity
  8
LAYER0001
  6
CONTINUOUS
 62
       7
100
AcDbLine
 10
-72.14624583
 20
-111.1623233
 30
0.0
 11
-72.14624583
 21
-111.23210447
 31
0.0
  0
LINE
  5
2F7
100
AcDbEntity
  8
LAYER0001
  6
CONTINUOUS
 62
       7
100
AcDbLine
 10
-72.14624583
 20
-111.23210447
 30
0.0
 11
-72.14624583
 21
-111.29838478
 31
0.0
  0
LINE
  5
2F8
100
AcDbEntity
  8
LAYER0001
  6
CONTINUOUS
 62
       7
100
AcDbLine
 10
-72.14624583
 20
-111.29838478
 30
0.0
 11
-72.14624583
 21
-111.36105989
 31
0.0
  0
LINE
  5
2F9
100
AcDbEntity
  8
LAYER0001
  6
CONTINUOUS
 62
       7
100
AcDbLine
 10
-72.14624583
 20
-111.36105989
 30
0.0
 11
-72.14624583
 21
-111.42002545
 31
0.0
  0
LINE
  5
2FA
100
AcDbEntity
  8
LAYER0001
  6
CONTINUOUS
 62
       7
100
AcDbLine
 10
-72.14624583
 20
-111.42002545
 30
0.0
 11
-72.14624583
 21
-111.47517712
 31
0.0
  0
LINE
  5
2FB
100
AcDbEntity
  8
LAYER0001
  6
CONTINUOUS
 62
       7
100
AcDbLine
 10
-72.14624583
 20
-111.47517712
 30
0.0
 11
-72.14624583
 21
-111.52641055
 31
0.0
  0
LINE
  5
2FC
100
AcDbEntity
  8
LAYER0001
  6
CONTINUOUS
 62
       7
100
AcDbLine
 10
-72.14624583
 20
-111.52641055
 30
0.0
 11
-72.14624583
 21
-111.57362139
 31
0.0
  0
LINE
  5
2FD
100
AcDbEntity
  8
LAYER0001
  6
CONTINUOUS
 62
       7
100
AcDbLine
 10
-72.14624583
 20
-111.57362139
 30
0.0
 11
-72.14624583
 21
-111.6167053
 31
0.0
  0
LINE
  5
2FE
100
AcDbEntity
  8
LAYER0001
  6
CONTINUOUS
 62
       7
100
AcDbLine
 10
-72.14624583
 20
-111.6167053
 30
0.0
 11
-72.14624583
 21
-111.65555794
 31
0.0
  0
LINE
  5
2FF
100
AcDbEntity
  8
LAYER0001
  6
CONTINUOUS
 62
       7
100
AcDbLine
 10
-72.14624583
 20
-111.65555794
 30
0.0
 11
-72.14624583
 21
-111.69007495
 31
0.0
  0
LINE
  5
300
100
AcDbEntity
  8
LAYER0001
  6
CONTINUOUS
 62
       7
100
AcDbLine
 10
-72.14624583
 20
-111.69007495
 30
0.0
 11
-72.14624583
 21
-111.720152
 31
0.0
  0
LINE
  5
301
100
AcDbEntity
  8
LAYER0001
  6
CONTINUOUS
 62
       7
100
AcDbLine
 10
-72.14624583
 20
-111.720152
 30
0.0
 11
-72.14624583
 21
-111.74580363
 31
0.0
  0
LINE
  5
302
100
AcDbEntity
  8
LAYER0001
  6
CONTINUOUS
 62
       7
100
AcDbLine
 10
-72.14624583
 20
-111.74580363
 30
0.0
 11
-72.14624583
 21
-111.76749118
 31
0.0
  0
LINE
  5
303
100
AcDbEntity
  8
LAYER0001
  6
CONTINUOUS
 62
       7
100
AcDbLine
 10
-72.14624583
 20
-111.76749118
 30
0.0
 11
-72.14624583
 21
-111.78578095
 31
0.0
  0
LINE
  5
304
100
AcDbEntity
  8
LAYER0001
  6
CONTINUOUS
 62
       7
100
AcDbLine
 10
-72.14624583
 20
-111.78578095
 30
0.0
 11
-72.14624583
 21
-111.80123924
 31
0.0
  0
LINE
  5
305
100
AcDbEntity
  8
LAYER0001
  6
CONTINUOUS
 62
       7
100
AcDbLine
 10
-72.14624583
 20
-111.80123924
 30
0.0
 11
-72.14624583
 21
-111.81443235
 31
0.0
  0
LINE
  5
306
100
AcDbEntity
  8
LAYER0001
  6
CONTINUOUS
 62
       7
100
AcDbLine
 10
-72.14624583
 20
-111.81443235
 30
0.0
 11
-72.14624583
 21
-111.82592656
 31
0.0
  0
LINE
  5
307
100
AcDbEntity
  8
LAYER0001
  6
CONTINUOUS
 62
       7
100
AcDbLine
 10
-72.14624583
 20
-111.82592656
 30
0.0
 11
-72.14624583
 21
-111.83628819
 31
0.0
  0
LINE
  5
308
100
AcDbEntity
  8
LAYER0001
  6
CONTINUOUS
 62
       7
100
AcDbLine
 10
-72.14624583
 20
-111.83628819
 30
0.0
 11
-72.14624583
 21
-111.84608351
 31
0.0
  0
LINE
  5
309
100
AcDbEntity
  8
LAYER0001
  6
CONTINUOUS
 62
       7
100
AcDbLine
 10
-72.14624583
 20
-97.84608494
 30
0.0
 11
-72.14624583
 21
-97.85587707
 31
0.0
  0
LINE
  5
30A
100
AcDbEntity
  8
LAYER0001
  6
CONTINUOUS
 62
       7
100
AcDbLine
 10
-72.14624583
 20
-97.85587707
 30
0.0
 11
-72.14624583
 21
-97.8662358
 31
0.0
  0
LINE
  5
30B
100
AcDbEntity
  8
LAYER0001
  6
CONTINUOUS
 62
       7
100
AcDbLine
 10
-72.14624583
 20
-97.8662358
 30
0.0
 11
-72.14624583
 21
-97.87772774
 31
0.0
  0
LINE
  5
30C
100
AcDbEntity
  8
LAYER0001
  6
CONTINUOUS
 62
       7
100
AcDbLine
 10
-72.14624583
 20
-97.87772774
 30
0.0
 11
-72.14624583
 21
-97.89091949
 31
0.0
  0
LINE
  5
30D
100
AcDbEntity
  8
LAYER0001
  6
CONTINUOUS
 62
       7
100
AcDbLine
 10
-72.14624583
 20
-97.89091949
 30
0.0
 11
-72.14624583
 21
-97.90637765
 31
0.0
  0
LINE
  5
30E
100
AcDbEntity
  8
LAYER0001
  6
CONTINUOUS
 62
       7
100
AcDbLine
 10
-72.14624583
 20
-97.90637765
 30
0.0
 11
-72.14624583
 21
-97.92466883
 31
0.0
  0
LINE
  5
30F
100
AcDbEntity
  8
LAYER0001
  6
CONTINUOUS
 62
       7
100
AcDbLine
 10
-72.14624583
 20
-97.92466883
 30
0.0
 11
-72.14624583
 21
-97.94635963
 31
0.0
  0
LINE
  5
310
100
AcDbEntity
  8
LAYER0001
  6
CONTINUOUS
 62
       7
100
AcDbLine
 10
-72.14624583
 20
-97.94635963
 30
0.0
 11
-72.14624583
 21
-97.97201665
 31
0.0
  0
LINE
  5
311
100
AcDbEntity
  8
LAYER0001
  6
CONTINUOUS
 62
       7
100
AcDbLine
 10
-72.14624583
 20
-97.97201665
 30
0.0
 11
-72.14624583
 21
-98.00210152
 31
0.0
  0
LINE
  5
312
100
AcDbEntity
  8
LAYER0001
  6
CONTINUOUS
 62
       7
100
AcDbLine
 10
-72.14624583
 20
-98.00210152
 30
0.0
 11
-72.14624583
 21
-98.03662892
 31
0.0
  0
LINE
  5
313
100
AcDbEntity
  8
LAYER0001
  6
CONTINUOUS
 62
       7
100
AcDbLine
 10
-72.14624583
 20
-98.03662892
 30
0.0
 11
-72.14624583
 21
-98.07549462
 31
0.0
  0
LINE
  5
314
100
AcDbEntity
  8
LAYER0001
  6
CONTINUOUS
 62
       7
100
AcDbLine
 10
-72.14624583
 20
-98.07549462
 30
0.0
 11
-72.14624583
 21
-98.11859439
 31
0.0
  0
LINE
  5
315
100
AcDbEntity
  8
LAYER0001
  6
CONTINUOUS
 62
       7
100
AcDbLine
 10
-72.14624583
 20
-98.11859439
 30
0.0
 11
-72.14624583
 21
-98.16582399
 31
0.0
  0
LINE
  5
316
100
AcDbEntity
  8
LAYER0001
  6
CONTINUOUS
 62
       7
100
AcDbLine
 10
-72.14624583
 20
-98.16582399
 30
0.0
 11
-72.14624583
 21
-98.2170792
 31
0.0
  0
LINE
  5
317
100
AcDbEntity
  8
LAYER0001
  6
CONTINUOUS
 62
       7
100
AcDbLine
 10
-72.14624583
 20
-98.2170792
 30
0.0
 11
-72.14624583
 21
-98.27225577
 31
0.0
  0
LINE
  5
318
100
AcDbEntity
  8
LAYER0001
  6
CONTINUOUS
 62
       7
100
AcDbLine
 10
-72.14624583
 20
-98.27225577
 30
0.0
 11
-72.14624583
 21
-98.33124949
 31
0.0
  0
LINE
  5
319
100
AcDbEntity
  8
LAYER0001
  6
CONTINUOUS
 62
       7
100
AcDbLine
 10
-72.14624583
 20
-98.33124949
 30
0.0
 11
-72.14624583
 21
-98.39395611
 31
0.0
  0
LINE
  5
31A
100
AcDbEntity
  8
LAYER0001
  6
CONTINUOUS
 62
       7
100
AcDbLine
 10
-72.14624583
 20
-98.39395611
 30
0.0
 11
-72.14624583
 21
-98.4602714
 31
0.0
  0
LINE
  5
31B
100
AcDbEntity
  8
LAYER0001
  6
CONTINUOUS
 62
       7
100
AcDbLine
 10
-72.14624583
 20
-98.4602714
 30
0.0
 11
-72.14624583
 21
-98.53009114
 31
0.0
  0
LINE
  5
31C
100
AcDbEntity
  8
LAYER0001
  6
CONTINUOUS
 62
       7
100
AcDbLine
 10
-72.14624583
 20
-98.53009114
 30
0.0
 11
-72.14624583
 21
-98.6032723
 31
0.0
  0
LINE
  5
31D
100
AcDbEntity
  8
LAYER0001
  6
CONTINUOUS
 62
       7
100
AcDbLine
 10
-72.14624583
 20
-98.6032723
 30
0.0
 11
-72.14624583
 21
-98.67953624
 31
0.0
  0
LINE
  5
31E
100
AcDbEntity
  8
LAYER0001
  6
CONTINUOUS
 62
       7
100
AcDbLine
 10
-72.14624583
 20
-98.67953624
 30
0.0
 11
-72.14624583
 21
-98.7585747
 31
0.0
  0
LINE
  5
31F
100
AcDbEntity
  8
LAYER0001
  6
CONTINUOUS
 62
       7
100
AcDbLine
 10
-72.14624583
 20
-98.7585747
 30
0.0
 11
-72.14624583
 21
-98.84007939
 31
0.0
  0
LINE
  5
320
100
AcDbEntity
  8
LAYER0001
  6
CONTINUOUS
 62
       7
100
AcDbLine
 10
-72.14624583
 20
-98.84007939
 30
0.0
 11
-72.14624583
 21
-98.92374203
 31
0.0
  0
LINE
  5
321
100
AcDbEntity
  8
LAYER0001
  6
CONTINUOUS
 62
       7
100
AcDbLine
 10
-72.14624583
 20
-98.92374203
 30
0.0
 11
-72.14624583
 21
-99.00925434
 31
0.0
  0
LINE
  5
322
100
AcDbEntity
  8
LAYER0001
  6
CONTINUOUS
 62
       7
100
AcDbLine
 10
-72.14624583
 20
-99.00925434
 30
0.0
 11
-72.14624583
 21
-99.09630804
 31
0.0
  0
LINE
  5
323
100
AcDbEntity
  8
LAYER0001
  6
CONTINUOUS
 62
       7
100
AcDbLine
 10
-72.14624583
 20
-99.09630804
 30
0.0
 11
-72.14624583
 21
-99.18459486
 31
0.0
  0
LINE
  5
324
100
AcDbEntity
  8
LAYER0001
  6
CONTINUOUS
 62
       7
100
AcDbLine
 10
-72.14624583
 20
-99.18459486
 30
0.0
 11
-72.14624583
 21
-99.27380652
 31
0.0
  0
LINE
  5
325
100
AcDbEntity
  8
LAYER0001
  6
CONTINUOUS
 62
       7
100
AcDbLine
 10
-72.14624583
 20
-99.27380652
 30
0.0
 11
-72.14624583
 21
-99.36363473
 31
0.0
  0
LINE
  5
326
100
AcDbEntity
  8
LAYER0001
  6
CONTINUOUS
 62
       7
100
AcDbLine
 10
-72.14624583
 20
-99.36363473
 30
0.0
 11
-72.14624583
 21
-99.45377122
 31
0.0
  0
LINE
  5
327
100
AcDbEntity
  8
LAYER0001
  6
CONTINUOUS
 62
       7
100
AcDbLine
 10
-108.14624428
 20
-99.45377122
 30
0.0
 11
-108.14624428
 21
-99.36358118
 31
0.0
  0
LINE
  5
328
100
AcDbEntity
  8
LAYER0001
  6
CONTINUOUS
 62
       7
100
AcDbLine
 10
-108.14624428
 20
-99.36358118
 30
0.0
 11
-108.14624428
 21
-99.27370097
 31
0.0
  0
LINE
  5
329
100
AcDbEntity
  8
LAYER0001
  6
CONTINUOUS
 62
       7
100
AcDbLine
 10
-108.14624428
 20
-99.27370097
 30
0.0
 11
-108.14624428
 21
-99.18444044
 31
0.0
  0
LINE
  5
32A
100
AcDbEntity
  8
LAYER0001
  6
CONTINUOUS
 62
       7
100
AcDbLine
 10
-108.14624428
 20
-99.18444044
 30
0.0
 11
-108.14624428
 21
-99.09610942
 31
0.0
  0
LINE
  5
32B
100
AcDbEntity
  8
LAYER0001
  6
CONTINUOUS
 62
       7
100
AcDbLine
 10
-108.14624428
 20
-99.09610942
 30
0.0
 11
-108.14624428
 21
-99.00901776
 31
0.0
  0
LINE
  5
32C
100
AcDbEntity
  8
LAYER0001
  6
CONTINUOUS
 62
       7
100
AcDbLine
 10
-108.14624428
 20
-99.00901776
 30
0.0
 11
-108.14624428
 21
-98.92347528
 31
0.0
  0
LINE
  5
32D
100
AcDbEntity
  8
LAYER0001
  6
CONTINUOUS
 62
       7
100
AcDbLine
 10
-108.14624428
 20
-98.92347528
 30
0.0
 11
-108.14624428
 21
-98.83979183
 31
0.0
  0
LINE
  5
32E
100
AcDbEntity
  8
LAYER0001
  6
CONTINUOUS
 62
       7
100
AcDbLine
 10
-108.14624428
 20
-98.83979183
 30
0.0
 11
-108.14624428
 21
-98.75827725
 31
0.0
  0
LINE
  5
32F
100
AcDbEntity
  8
LAYER0001
  6
CONTINUOUS
 62
       7
100
AcDbLine
 10
-108.14624428
 20
-98.75827725
 30
0.0
 11
-108.14624428
 21
-98.67924137
 31
0.0
  0
LINE
  5
330
100
AcDbEntity
  8
LAYER0001
  6
CONTINUOUS
 62
       7
100
AcDbLine
 10
-108.14624428
 20
-98.67924137
 30
0.0
 11
-108.14624428
 21
-98.60299403
 31
0.0
  0
LINE
  5
331
100
AcDbEntity
  8
LAYER0001
  6
CONTINUOUS
 62
       7
100
AcDbLine
 10
-108.14624428
 20
-98.60299403
 30
0.0
 11
-108.14624428
 21
-98.52984507
 31
0.0
  0
LINE
  5
332
100
AcDbEntity
  8
LAYER0001
  6
CONTINUOUS
 62
       7
100
AcDbLine
 10
-108.14624428
 20
-98.52984507
 30
0.0
 11
-108.14624428
 21
-98.46006389
 31
0.0
  0
LINE
  5
333
100
AcDbEntity
  8
LAYER0001
  6
CONTINUOUS
 62
       7
100
AcDbLine
 10
-108.14624428
 20
-98.46006389
 30
0.0
 11
-108.14624428
 21
-98.39378357
 31
0.0
  0
LINE
  5
334
100
AcDbEntity
  8
LAYER0001
  6
CONTINUOUS
 62
       7
100
AcDbLine
 10
-108.14624428
 20
-98.39378357
 30
0.0
 11
-108.14624428
 21
-98.33110846
 31
0.0
  0
LINE
  5
335
100
AcDbEntity
  8
LAYER0001
  6
CONTINUOUS
 62
       7
100
AcDbLine
 10
-108.14624428
 20
-98.33110846
 30
0.0
 11
-108.14624428
 21
-98.2721429
 31
0.0
  0
LINE
  5
336
100
AcDbEntity
  8
LAYER0001
  6
CONTINUOUS
 62
       7
100
AcDbLine
 10
-108.14624428
 20
-98.2721429
 30
0.0
 11
-108.14624428
 21
-98.21699123
 31
0.0
  0
LINE
  5
337
100
AcDbEntity
  8
LAYER0001
  6
CONTINUOUS
 62
       7
100
AcDbLine
 10
-108.14624428
 20
-98.21699123
 30
0.0
 11
-108.14624428
 21
-98.16575781
 31
0.0
  0
LINE
  5
338
100
AcDbEntity
  8
LAYER0001
  6
CONTINUOUS
 62
       7
100
AcDbLine
 10
-108.14624428
 20
-98.16575781
 30
0.0
 11
-108.14624428
 21
-98.11854697
 31
0.0
  0
LINE
  5
339
100
AcDbEntity
  8
LAYER0001
  6
CONTINUOUS
 62
       7
100
AcDbLine
 10
-108.14624428
 20
-98.11854697
 30
0.0
 11
-108.14624428
 21
-98.07546306
 31
0.0
  0
LINE
  5
33A
100
AcDbEntity
  8
LAYER0001
  6
CONTINUOUS
 62
       7
100
AcDbLine
 10
-108.14624428
 20
-98.07546306
 30
0.0
 11
-108.14624428
 21
-98.03661043
 31
0.0
  0
LINE
  5
33B
100
AcDbEntity
  8
LAYER0001
  6
CONTINUOUS
 62
       7
100
AcDbLine
 10
-108.14624428
 20
-98.03661043
 30
0.0
 11
-108.14624428
 21
-98.00209342
 31
0.0
  0
LINE
  5
33C
100
AcDbEntity
  8
LAYER0001
  6
CONTINUOUS
 62
       7
100
AcDbLine
 10
-108.14624428
 20
-98.00209342
 30
0.0
 11
-108.14624428
 21
-97.97201638
 31
0.0
  0
LINE
  5
33D
100
AcDbEntity
  8
LAYER0001
  6
CONTINUOUS
 62
       7
100
AcDbLine
 10
-108.14624428
 20
-97.97201638
 30
0.0
 11
-108.14624428
 21
-97.94636477
 31
0.0
  0
LINE
  5
33E
100
AcDbEntity
  8
LAYER0001
  6
CONTINUOUS
 62
       7
100
AcDbLine
 10
-108.14624428
 20
-97.94636477
 30
0.0
 11
-108.14624428
 21
-97.92467723
 31
0.0
  0
LINE
  5
33F
100
AcDbEntity
  8
LAYER0001
  6
CONTINUOUS
 62
       7
100
AcDbLine
 10
-108.14624428
 20
-97.92467723
 30
0.0
 11
-108.14624428
 21
-97.90638746
 31
0.0
  0
LINE
  5
340
100
AcDbEntity
  8
LAYER0001
  6
CONTINUOUS
 62
       7
100
AcDbLine
 10
-108.14624428
 20
-97.90638746
 30
0.0
 11
-108.14624428
 21
-97.89092918
 31
0.0
  0
LINE
  5
341
100
AcDbEntity
  8
LAYER0001
  6
CONTINUOUS
 62
       7
100
AcDbLine
 10
-108.14624428
 20
-97.89092918
 30
0.0
 11
-108.14624428
 21
-97.87773608
 31
0.0
  0
LINE
  5
342
100
AcDbEntity
  8
LAYER0001
  6
CONTINUOUS
 62
       7
100
AcDbLine
 10
-108.14624428
 20
-97.87773608
 30
0.0
 11
-108.14624428
 21
-97.86624188
 31
0.0
  0
LINE
  5
343
100
AcDbEntity
  8
LAYER0001
  6
CONTINUOUS
 62
       7
100
AcDbLine
 10
-108.14624428
 20
-97.86624188
 30
0.0
 11
-108.14624428
 21
-97.85588026
 31
0.0
  0
LINE
  5
344
100
AcDbEntity
  8
LAYER0001
  6
CONTINUOUS
 62
       7
100
AcDbLine
 10
-108.14624428
 20
-97.85588026
 30
0.0
 11
-108.14624428
 21
-97.84608494
 31
0.0
  0
LINE
  5
345
100
AcDbEntity
  8
LAYER0001
  6
CONTINUOUS
 62
       7
100
AcDbLine
 10
-108.14624428
 20
-111.84608351
 30
0.0
 11
-108.14624428
 21
-111.83629228
 31
0.0
  0
LINE
  5
346
100
AcDbEntity
  8
LAYER0001
  6
CONTINUOUS
 62
       7
100
AcDbLine
 10
-108.14624428
 20
-111.83629228
 30
0.0
 11
-108.14624428
 21
-111.82593436
 31
0.0
  0
LINE
  5
347
100
AcDbEntity
  8
LAYER0001
  6
CONTINUOUS
 62
       7
100
AcDbLine
 10
-108.14624428
 20
-111.82593436
 30
0.0
 11
-108.14624428
 21
-111.81444307
 31
0.0
  0
LINE
  5
348
100
AcDbEntity
  8
LAYER0001
  6
CONTINUOUS
 62
       7
100
AcDbLine
 10
-108.14624428
 20
-111.81444307
 30
0.0
 11
-108.14624428
 21
-111.80125172
 31
0.0
  0
LINE
  5
349
100
AcDbEntity
  8
LAYER0001
  6
CONTINUOUS
 62
       7
100
AcDbLine
 10
-108.14624428
 20
-111.80125172
 30
0.0
 11
-108.14624428
 21
-111.78579362
 31
0.0
  0
LINE
  5
34A
100
AcDbEntity
  8
LAYER0001
  6
CONTINUOUS
 62
       7
100
AcDbLine
 10
-108.14624428
 20
-111.78579362
 30
0.0
 11
-108.14624428
 21
-111.76750208
 31
0.0
  0
LINE
  5
34B
100
AcDbEntity
  8
LAYER0001
  6
CONTINUOUS
 62
       7
100
AcDbLine
 10
-108.14624428
 20
-111.76750208
 30
0.0
 11
-108.14624428
 21
-111.74581043
 31
0.0
  0
LINE
  5
34C
100
AcDbEntity
  8
LAYER0001
  6
CONTINUOUS
 62
       7
100
AcDbLine
 10
-108.14624428
 20
-111.74581043
 30
0.0
 11
-108.14624428
 21
-111.72015197
 31
0.0
  0
LINE
  5
34D
100
AcDbEntity
  8
LAYER0001
  6
CONTINUOUS
 62
       7
100
AcDbLine
 10
-108.14624428
 20
-111.72015197
 30
0.0
 11
-108.14624428
 21
-111.69006503
 31
0.0
  0
LINE
  5
34E
100
AcDbEntity
  8
LAYER0001
  6
CONTINUOUS
 62
       7
100
AcDbLine
 10
-108.14624428
 20
-111.69006503
 30
0.0
 11
-108.14624428
 21
-111.65553503
 31
0.0
  0
LINE
  5
34F
100
AcDbEntity
  8
LAYER0001
  6
CONTINUOUS
 62
       7
100
AcDbLine
 10
-108.14624428
 20
-111.65553503
 30
0.0
 11
-108.14624428
 21
-111.61666634
 31
0.0
  0
LINE
  5
350
100
AcDbEntity
  8
LAYER0001
  6
CONTINUOUS
 62
       7
100
AcDbLine
 10
-108.14624428
 20
-111.61666634
 30
0.0
 11
-108.14624428
 21
-111.57356333
 31
0.0
  0
LINE
  5
351
100
AcDbEntity
  8
LAYER0001
  6
CONTINUOUS
 62
       7
100
AcDbLine
 10
-108.14624428
 20
-111.57356333
 30
0.0
 11
-108.14624428
 21
-111.52633038
 31
0.0
  0
LINE
  5
352
100
AcDbEntity
  8
LAYER0001
  6
CONTINUOUS
 62
       7
100
AcDbLine
 10
-108.14624428
 20
-111.52633038
 30
0.0
 11
-108.14624428
 21
-111.47507186
 31
0.0
  0
LINE
  5
353
100
AcDbEntity
  8
LAYER0001
  6
CONTINUOUS
 62
       7
100
AcDbLine
 10
-108.14624428
 20
-111.47507186
 30
0.0
 11
-108.14624428
 21
-111.41989214
 31
0.0
  0
LINE
  5
354
100
AcDbEntity
  8
LAYER0001
  6
CONTINUOUS
 62
       7
100
AcDbLine
 10
-108.14624428
 20
-111.41989214
 30
0.0
 11
-108.14624428
 21
-111.36089561
 31
0.0
  0
LINE
  5
355
100
AcDbEntity
  8
LAYER0001
  6
CONTINUOUS
 62
       7
100
AcDbLine
 10
-108.14624428
 20
-111.36089561
 30
0.0
 11
-108.14624428
 21
-111.29818663
 31
0.0
  0
LINE
  5
356
100
AcDbEntity
  8
LAYER0001
  6
CONTINUOUS
 62
       7
100
AcDbLine
 10
-108.14624428
 20
-111.29818663
 30
0.0
 11
-108.14624428
 21
-111.23186957
 31
0.0
  0
LINE
  5
357
100
AcDbEntity
  8
LAYER0001
  6
CONTINUOUS
 62
       7
100
AcDbLine
 10
-108.14624428
 20
-111.23186957
 30
0.0
 11
-108.14624428
 21
-111.16204882
 31
0.0
  0
LINE
  5
358
100
AcDbEntity
  8
LAYER0001
  6
CONTINUOUS
 62
       7
100
AcDbLine
 10
-108.14624428
 20
-111.16204882
 30
0.0
 11
-108.14624428
 21
-111.08886748
 31
0.0
  0
LINE
  5
359
100
AcDbEntity
  8
LAYER0001
  6
CONTINUOUS
 62
       7
100
AcDbLine
 10
-108.14624428
 20
-111.08886748
 30
0.0
 11
-108.14624428
 21
-111.01260414
 31
0.0
  0
LINE
  5
35A
100
AcDbEntity
  8
LAYER0001
  6
CONTINUOUS
 62
       7
100
AcDbLine
 10
-108.14624428
 20
-111.01260414
 30
0.0
 11
-108.14624428
 21
-110.93356701
 31
0.0
  0
LINE
  5
35B
100
AcDbEntity
  8
LAYER0001
  6
CONTINUOUS
 62
       7
100
AcDbLine
 10
-108.14624428
 20
-110.93356701
 30
0.0
 11
-108.14624428
 21
-110.85206428
 31
0.0
  0
LINE
  5
35C
100
AcDbEntity
  8
LAYER0001
  6
CONTINUOUS
 62
       7
100
AcDbLine
 10
-108.14624428
 20
-110.85206428
 30
0.0
 11
-108.14624428
 21
-110.76840416
 31
0.0
  0
LINE
  5
35D
100
AcDbEntity
  8
LAYER0001
  6
CONTINUOUS
 62
       7
100
AcDbLine
 10
-108.14624428
 20
-110.76840416
 30
0.0
 11
-108.14624428
 21
-110.68289483
 31
0.0
  0
LINE
  5
35E
100
AcDbEntity
  8
LAYER0001
  6
CONTINUOUS
 62
       7
100
AcDbLine
 10
-108.14624428
 20
-110.68289483
 30
0.0
 11
-108.14624428
 21
-110.59584451
 31
0.0
  0
LINE
  5
35F
100
AcDbEntity
  8
LAYER0001
  6
CONTINUOUS
 62
       7
100
AcDbLine
 10
-108.14624428
 20
-110.59584451
 30
0.0
 11
-108.14624428
 21
-110.50756139
 31
0.0
  0
LINE
  5
360
100
AcDbEntity
  8
LAYER0001
  6
CONTINUOUS
 62
       7
100
AcDbLine
 10
-108.14624428
 20
-110.50756139
 30
0.0
 11
-108.14624428
 21
-110.41835367
 31
0.0
  0
LINE
  5
361
100
AcDbEntity
  8
LAYER0001
  6
CONTINUOUS
 62
       7
100
AcDbLine
 10
-108.14624428
 20
-110.41835367
 30
0.0
 11
-108.14624428
 21
-110.32852955
 31
0.0
  0
LINE
  5
362
100
AcDbEntity
  8
LAYER0001
  6
CONTINUOUS
 62
       7
100
AcDbLine
 10
-108.14624428
 20
-110.32852955
 30
0.0
 11
-108.14624428
 21
-110.23839723
 31
0.0
  0
LINE
  5
363
100
AcDbEntity
  8
LAYER0001
  6
CENTERX2
 62
       7
100
AcDbLine
 10
-90.14624505
 20
189.42603552
 30
0.0
 11
-90.14624505
 21
-163.46368395
 31
0.0
  0
LINE
  5
364
100
AcDbEntity
  8
LAYER0001
  6
CENTERX2
 62
       7
100
AcDbLine
 10
188.10038704
 20
188.47487813
 30
0.0
 11
188.10038704
 21
-121.92016719
 31
0.0
  0
LINE
  5
365
100
AcDbEntity
  8
LAYER0001
  6
CENTERX2
 62
       7
100
AcDbLine
 10
-218.09515048
 20
-200.94689873
 30
0.0
 11
-218.09515048
 21
-110.27945789
 31
0.0
  0
LINE
  5
366
100
AcDbEntity
  8
LAYER0001
  6
CENTERX2
 62
       7
100
AcDbLine
 10
-226.86624606
 20
-146.8460797
 30
0.0
 11
-210.09515048
 21
-146.8460797
 31
0.0
  0
LINE
  5
367
100
AcDbEntity
  8
LAYER0001
  6
CENTERX2
 62
       7
100
AcDbLine
 10
-226.17518325
 20
-181.8460797
 30
0.0
 11
-210.09515048
 21
-181.8460797
 31
0.0
  0
TEXT
  5
368
100
AcDbEntity
  8
LAYER0001
 62
       7
100
AcDbText
 10
85.38224217
 20
193.68295009
 30
0.0
 40
10.58333333
  1
Type 2
 72
       5
 11
148.88224217
 21
193.68295009
 31
0.0
100
AcDbText
  0
TEXT
  5
369
100
AcDbEntity
  8
LAYER0001
 62
       7
100
AcDbText
 10
-192.3085583
 20
184.4682217
 30
0.0
 40
10.58333333
  1
Type 1
 72
       5
 11
-128.8085583
 21
184.4682217
 31
0.0
100
AcDbText
  0
TEXT
  5
36A
100
AcDbEntity
  8
0
 62
       7
100
AcDbText
 10
241.71980371
 20
-210.7425664
 30
0.0
 40
12.95720976
  1
000
 41
0.8
 72
       5
 11
272.81710713
 21
-210.7425664
 31
0.0
100
AcDbText
  0
ENDSEC
  0
SECTION
  2
OBJECTS
  0
DICTIONARY
  5
19
100
AcDbDictionary
  3
ACAD_GROUP
350
1A
  3
ACAD_MLINESTYLE
350
1B
  0
DICTIONARY
  5
1A
102
{ACAD_REACTORS
330
19
102
}
100
AcDbDictionary
  0
DICTIONARY
  5
1B
102
{ACAD_REACTORS
330
19
102
}
100
AcDbDictionary
  3
STANDARD
350
1C
  0
MLINESTYLE
  5
1C
102
{ACAD_REACTORS
330
1B
102
}
100
AcDbMlineStyle
  2
STANDARD
 70
       0
  3

 62
       0
 51
90.0
 52
90.0
 71
       2
 49
0.5
 62
     256
  6
BYLAYER
 49
-0.5
 62
     256
  6
BYLAYER
  0
ENDSEC
  0
EOF
