  0
SECTION
  2
HEADER
  9
$ACADVER
  1
AC1014
  9
$ACADMAINTVER
 70
       0
  9
$DWGCODEPAGE
  3
ANSI_932
  9
$INSBASE
 10
0.0
 20
0.0
 30
0.0
  9
$EXTMIN
 10
-182.6914375
 20
-195.33374256
 30
0.0
  9
$EXTMAX
 10
182.6914375
 20
191.42957681
 30
0.0
  9
$LIMMIN
 10
-194.10965234
 20
-207.42009629
  9
$LIMMAX
 10
194.10965234
 20
203.51593054
  9
$ORTHOMODE
 70
       0
  9
$REGENMODE
 70
       1
  9
$FILLMODE
 70
       1
  9
$QTEXTMODE
 70
       0
  9
$MIRRTEXT
 70
       1
  9
$DRAGMODE
 70
       2
  9
$LTSCALE
 40
1.0
  9
$OSMODE
 70
       0
  9
$ATTMODE
 70
       1
  9
$TEXTSIZE
 40
0.2
  9
$TRACEWID
 40
0.05
  9
$TEXTSTYLE
  7
STANDARD
  9
$CLAYER
  8
0
  9
$CELTYPE
  6
CONTINUOUS
  9
$CECOLOR
 62
     256
  9
$CELTSCALE
 40
1.0
  9
$DELOBJ
 70
       1
  9
$DISPSILH
 70
       0
  9
$DIMSCALE
 40
1.0
  9
$DIMASZ
 40
0.18
  9
$DIMEXO
 40
0.0625
  9
$DIMDLI
 40
0.38
  9
$DIMRND
 40
0.0
  9
$DIMDLE
 40
0.0
  9
$DIMEXE
 40
0.18
  9
$DIMTP
 40
0.0
  9
$DIMTM
 40
0.0
  9
$DIMTXT
 40
0.18
  9
$DIMCEN
 40
0.09
  9
$DIMTSZ
 40
0.0
  9
$DIMTOL
 70
       0
  9
$DIMLIM
 70
       0
  9
$DIMTIH
 70
       1
  9
$DIMTOH
 70
       1
  9
$DIMSE1
 70
       0
  9
$DIMSE2
 70
       0
  9
$DIMTAD
 70
       0
  9
$DIMZIN
 70
       0
  9
$DIMBLK
  1

  9
$DIMASO
 70
       1
  9
$DIMSHO
 70
       1
  9
$DIMPOST
  1

  9
$DIMAPOST
  1

  9
$DIMALT
 70
       0
  9
$DIMALTD
 70
       2
  9
$DIMALTF
 40
25.4
  9
$DIMLFAC
 40
1.0
  9
$DIMTOFL
 70
       0
  9
$DIMTVP
 40
0.0
  9
$DIMTIX
 70
       0
  9
$DIMSOXD
 70
       0
  9
$DIMSAH
 70
       0
  9
$DIMBLK1
  1

  9
$DIMBLK2
  1

  9
$DIMSTYLE
  2
STANDARD
  9
$DIMCLRD
 70
       0
  9
$DIMCLRE
 70
       0
  9
$DIMCLRT
 70
       0
  9
$DIMTFAC
 40
1.0
  9
$DIMGAP
 40
0.09
  9
$DIMJUST
 70
       0
  9
$DIMSD1
 70
       0
  9
$DIMSD2
 70
       0
  9
$DIMTOLJ
 70
       1
  9
$DIMTZIN
 70
       0
  9
$DIMALTZ
 70
       0
  9
$DIMALTTZ
 70
       0
  9
$DIMFIT
 70
       3
  9
$DIMUPT
 70
       0
  9
$DIMUNIT
 70
       2
  9
$DIMDEC
 70
       4
  9
$DIMTDEC
 70
       4
  9
$DIMALTU
 70
       2
  9
$DIMALTTD
 70
       2
  9
$DIMTXSTY
  7
STANDARD
  9
$DIMAUNIT
 70
       0
  9
$LUNITS
 70
       2
  9
$LUPREC
 70
       4
  9
$SKETCHINC
 40
0.1
  9
$FILLETRAD
 40
0.0
  9
$AUNITS
 70
       0
  9
$AUPREC
 70
       0
  9
$MENU
  1
acad
  9
$ELEVATION
 40
0.0
  9
$PELEVATION
 40
0.0
  9
$THICKNESS
 40
0.0
  9
$LIMCHECK
 70
       0
  9
$BLIPMODE
 70
       1
  9
$CHAMFERA
 40
0.0
  9
$CHAMFERB
 40
0.0
  9
$CHAMFERC
 40
0.0
  9
$CHAMFERD
 40
0.0
  9
$SKPOLY
 70
       0
  9
$TDCREATE
 40
0.000000000
  9
$TDUPDATE
 40
0.000000000
  9
$TDINDWG
 40
0.0000000000
  9
$TDUSRTIMER
 40
0.0000000000
  9
$USRTIMER
 70
       1
  9
$ANGBASE
 50
0.0
  9
$ANGDIR
 70
       0
  9
$PDMODE
 70
       0
  9
$PDSIZE
 40
1.0
  9
$PLINEWID
 40
0.0
  9
$COORDS
 70
       1
  9
$SPLFRAME
 70
       0
  9
$SPLINETYPE
 70
       6
  9
$SPLINESEGS
 70
       8
  9
$ATTDIA
 70
       0
  9
$ATTREQ
 70
       1
  9
$HANDLING
 70
       1
  9
$HANDSEED
  5
3F7
  9
$SURFTAB1
 70
       6
  9
$SURFTAB2
 70
       6
  9
$SURFTYPE
 70
       6
  9
$SURFU
 70
       6
  9
$SURFV
 70
       6
  9
$UCSNAME
  2

  9
$UCSORG
 10
0.0
 20
0.0
 30
0.0
  9
$UCSXDIR
 10
1.0
 20
0.0
 30
0.0
  9
$UCSYDIR
 10
0.0
 20
1.0
 30
0.0
  9
$PUCSNAME
  2

  9
$PUCSORG
 10
0.0
 20
0.0
 30
0.0
  9
$PUCSXDIR
 10
1.0
 20
0.0
 30
0.0
  9
$PUCSYDIR
 10
0.0
 20
1.0
 30
0.0
  9
$USERI1
 70
       0
  9
$USERI2
 70
       0
  9
$USERI3
 70
       0
  9
$USERI4
 70
       0
  9
$USERI5
 70
       0
  9
$USERR1
 40
0.0
  9
$USERR2
 40
0.0
  9
$USERR3
 40
0.0
  9
$USERR4
 40
0.0
  9
$USERR5
 40
0.0
  9
$WORLDVIEW
 70
       1
  9
$SHADEDGE
 70
       3
  9
$SHADEDIF
 70
      70
  9
$TILEMODE
 70
       1
  9
$MAXACTVP
 70
      16
  9
$PINSBASE
 10
0.0
 20
0.0
 30
0.0
  9
$PLIMCHECK
 70
       0
  9
$PEXTMIN
 10
1.00000000E+20
 20
1.00000000E+20
 30
1.00000000E+20
  9
$PEXTMAX
 10
-1.00000000E+20
 20
-1.00000000E+20
 30
-1.00000000E+20
  9
$PLIMMIN
 10
0.0
 20
0.0
  9
$PLIMMAX
 10
12.0
 20
9.0
  9
$UNITMODE
 70
       0
  9
$VISRETAIN
 70
       0
  9
$PLINEGEN
 70
       1
  9
$PSLTSCALE
 70
       0
  9
$TREEDEPTH
 70
    3020
  9
$PICKSTYLE
 70
       1
  9
$CMLSTYLE
  2
STANDARD
  9
$CMLJUST
 70
       0
  9
$CMLSCALE
 40
1.0
  9
$PROXYGRAPHICS
 70
       0
  9
$MEASUREMENT
 70
       0
  0
ENDSEC
  0
SECTION
  2
CLASSES
  0
CLASS
  1
LWPOLYLINE
  2
AcDbPolyline
  3
"AutoCAD"
 90
        0
280
       0
281
       1
  0
CLASS
  1
IMAGE
  2
AcDbRasterImage
  3
ISM
 90
      127
280
       0
281
       1
  0
CLASS
  1
OLE2FRAME
  2
AcDbOle2Frame
  3
""
 90
        0
280
       0
281
       1
  0
CLASS
  1
HATCH
  2
AcDbHatch
  3
"ACAD_SEDONA"
 90
        0
280
       0
281
       1
  0
CLASS
  1
DICTIONARYVAR
  2
AcDbDictionaryVar
  3
"AutoCAD"
 90
        0
280
       0
281
       0
  0
CLASS
  1
RASTERVARIABLES
  2
AcDbRasterVariables
  3
ISM
 90
        0
280
       0
281
       0
  0
CLASS
  1
IMAGEDEF
  2
AcDbRasterImageDef
  3
ISM
 90
        0
280
       0
281
       0
  0
CLASS
  1
IMAGEDEF_REACTOR
  2
AcDbRasterImageDefReactor
  3
ISM
 90
        1
280
       0
281
       0
  0
CLASS
  1
IDBUFFER
  2
AcDbIdBuffer
  3
"Acad"
 90
        0
280
       0
281
       0
  0
CLASS
  1
SPATIAL_FILTER
  2
AcDbSpatialFilter
  3
"Acad"
 90
        0
280
       0
281
       0
  0
CLASS
  1
XRECORD
  2
AcDbXrecord
  3
"<Built In>"
 90
        0
280
       0
281
       0
  0
CLASS
  1
SORTENTSTABLE
  2
AcDbSortentsTable
  3
"AutoCAD"
 90
        0
280
       0
281
       0
  0
CLASS
  1
LAYER_INDEX
  2
AcDbLayerIndex
  3
"Acad"
 90
        0
280
       0
281
       0
  0
CLASS
  1
SPATIAL_INDEX
  2
AcDbSpatialIndex
  3
"Acad"
 90
        0
280
       0
281
       0
  0
CLASS
  1
OBJECT_PTR
  2
CAseDLPNTableRecord
  3
"ASE-LPNTableRecord"
 90
        1
280
       0
281
       0
  0
CLASS
  1
LAYOUT
  2
AcDbLayout
  3
"AutoCAD 2000"
 90
        1
280
       0
281
       0
  0
CLASS
  1
PLOTSETTINGS
  2
AcDbPlotSettings
  3
"AutoCAD 2000"
 90
        1
280
       0
281
       0
  0
CLASS
  1
ACDBDICTIONARYWDFLT
  2
AcDbDictionaryWithDefault
  3
"AutoCAD 2000"
 90
        1
280
       0
281
       0
  0
CLASS
  1
ACDBPLACEHOLDER
  2
AcDbPlaceHolder
  3
"AutoCAD 2000"
 90
        1
280
       0
281
       0
  0
CLASS
  1
VBA_PROJECT
  2
AcDbVbaProject
  3
"acadvba"
 90
        1
280
       0
281
       0
  0
CLASS
  1
WIPEOUT
  2
AcDbWipeout
  3
WipeOut|AutoCAD Express Tool|expresstools@autodesk.com
 90
      127
280
       0
281
       1
  0
CLASS
  1
WIPEOUTVARIABLES
  2
AcDbWipeoutVariables
  3
WipeOut|AutoCAD Express Tool|expresstools@autodesk.com
 90
        0
280
       0
281
       0
  0
CLASS
  1
RTEXT
  2
RText
  3
RText|AutoCAD Express Tool|expresstools@autodesk.com
 90
        0
280
       0
281
       1
  0
CLASS
  1
ARCALIGNEDTEXT
  2
AcDbArcAlignedText
  3
ATEXT|AutoCAD Express Tool|expresstools@autodesk.com
 90
        0
280
       0
281
       1
  0
ENDSEC
  0
SECTION
  2
TABLES
  0
TABLE
  2
VPORT
  5
7
100
AcDbSymbolTable
 70
       1
  0
VPORT
  5
15
100
AcDbSymbolTableRecord
100
AcDbViewportTableRecord
  2
*ACTIVE
 70
       0
 10
0.0
 20
0.0
 11
1.0
 21
1.0
 12
0.0
 22
-1.95208288
 13
0.0
 23
0.0
 14
1.0
 24
1.0
 15
0.0
 25
0.0
 16
0.0
 26
0.0
 36
1.0
 17
0.0
 27
0.0
 37
0.0
 40
410.93602683
 41
0.94471957
 42
50.0
 43
0.0
 44
0.0
 50
0.0
 51
0.0
 71
       0
 72
     100
 73
       1
 74
       1
 75
       0
 76
       0
 77
       0
 78
       0
  0
ENDTAB
  0
TABLE
  2
LTYPE
  5
4
100
AcDbSymbolTable
 70
      30
  0
LTYPE
  5
11
100
AcDbSymbolTableRecord
100
AcDbLinetypeTableRecord
  2
BYBLOCK
 70
      64
  3

 72
      65
 73
       0
 40
0.0
  0
LTYPE
  5
12
100
AcDbSymbolTableRecord
100
AcDbLinetypeTableRecord
  2
BYLAYER
 70
      64
  3

 72
      65
 73
       0
 40
0.0
  0
LTYPE
  5
13
100
AcDbSymbolTableRecord
100
AcDbLinetypeTableRecord
  2
CONTINUOUS
 70
      64
  3
Solid line
 72
      65
 73
       0
 40
0.0
  0
LTYPE
  5
1D
100
AcDbSymbolTableRecord
100
AcDbLinetypeTableRecord
  2
HIDDENX2
 70
      64
  3
CADPAC LINETYPE
 72
      65
 73
       2
 40
22.10175134
 49
16.57631351
 74
       0
 49
-5.52543784
 74
       0
  0
LTYPE
  5
1E
100
AcDbSymbolTableRecord
100
AcDbLinetypeTableRecord
  2
HIDDEN
 70
      64
  3
CADPAC LINETYPE
 72
      65
 73
       2
 40
16.57631351
 49
11.05087567
 74
       0
 49
-5.52543784
 74
       0
  0
LTYPE
  5
1F
100
AcDbSymbolTableRecord
100
AcDbLinetypeTableRecord
  2
HIDDEN2
 70
      64
  3
CADPAC LINETYPE
 72
      65
 73
       2
 40
13.81359459
 49
8.28815675
 74
       0
 49
-5.52543784
 74
       0
  0
LTYPE
  5
20
100
AcDbSymbolTableRecord
100
AcDbLinetypeTableRecord
  2
DASHED
 70
      64
  3
CADPAC LINETYPE
 72
      65
 73
       2
 40
16.57631351
 49
11.05087567
 74
       0
 49
-5.52543784
 74
       0
  0
LTYPE
  5
21
100
AcDbSymbolTableRecord
100
AcDbLinetypeTableRecord
  2
DASHED2
 70
      64
  3
CADPAC LINETYPE
 72
      65
 73
       2
 40
12.43223513
 49
8.28815675
 74
       0
 49
-4.14407838
 74
       0
  0
LTYPE
  5
22
100
AcDbSymbolTableRecord
100
AcDbLinetypeTableRecord
  2
DASHEDX2
 70
      64
  3
CADPAC LINETYPE
 72
      65
 73
       2
 40
24.86447026
 49
16.57631351
 74
       0
 49
-8.28815675
 74
       0
  0
LTYPE
  5
23
100
AcDbSymbolTableRecord
100
AcDbLinetypeTableRecord
  2
DOTX2
 70
      64
  3
CADPAC LINETYPE
 72
      65
 73
       2
 40
6.90679729
 49
0.0
 74
       0
 49
-6.90679729
 74
       0
  0
LTYPE
  5
24
100
AcDbSymbolTableRecord
100
AcDbLinetypeTableRecord
  2
DOT
 70
      64
  3
CADPAC LINETYPE
 72
      65
 73
       2
 40
5.52543784
 49
0.0
 74
       0
 49
-5.52543784
 74
       0
  0
LTYPE
  5
25
100
AcDbSymbolTableRecord
100
AcDbLinetypeTableRecord
  2
DOT2
 70
      64
  3
CADPAC LINETYPE
 72
      65
 73
       2
 40
4.14407838
 49
0.0
 74
       0
 49
-4.14407838
 74
       0
  0
LTYPE
  5
26
100
AcDbSymbolTableRecord
100
AcDbLinetypeTableRecord
  2
CENTERX2
 70
      64
  3
CADPAC LINETYPE
 72
      65
 73
       4
 40
33.15262701
 49
13.81359459
 74
       0
 49
-6.90679729
 74
       0
 49
5.52543784
 74
       0
 49
-6.90679729
 74
       0
  0
LTYPE
  5
27
100
AcDbSymbolTableRecord
100
AcDbLinetypeTableRecord
  2
CENTER
 70
      64
  3
CADPAC LINETYPE
 72
      65
 73
       4
 40
25.41701404
 49
11.05087567
 74
       0
 49
-5.52543784
 74
       0
 49
3.3152627
 74
       0
 49
-5.52543784
 74
       0
  0
LTYPE
  5
28
100
AcDbSymbolTableRecord
100
AcDbLinetypeTableRecord
  2
CENTER2
 70
      64
  3
CADPAC LINETYPE
 72
      65
 73
       4
 40
17.68140107
 49
8.28815675
 74
       0
 49
-4.14407838
 74
       0
 49
1.10508757
 74
       0
 49
-4.14407838
 74
       0
  0
LTYPE
  5
29
100
AcDbSymbolTableRecord
100
AcDbLinetypeTableRecord
  2
DASHDOTX2
 70
      64
  3
CADPAC LINETYPE
 72
      65
 73
       4
 40
27.62718918
 49
13.81359459
 74
       0
 49
-6.90679729
 74
       0
 49
0.0
 74
       0
 49
-6.90679729
 74
       0
  0
LTYPE
  5
2A
100
AcDbSymbolTableRecord
100
AcDbLinetypeTableRecord
  2
DASHDOT
 70
      64
  3
CADPAC LINETYPE
 72
      65
 73
       4
 40
22.10175134
 49
11.05087567
 74
       0
 49
-5.52543784
 74
       0
 49
0.0
 74
       0
 49
-5.52543784
 74
       0
  0
LTYPE
  5
2B
100
AcDbSymbolTableRecord
100
AcDbLinetypeTableRecord
  2
DASHDOT2
 70
      64
  3
CADPAC LINETYPE
 72
      65
 73
       4
 40
16.57631351
 49
8.28815675
 74
       0
 49
-4.14407838
 74
       0
 49
0.0
 74
       0
 49
-4.14407838
 74
       0
  0
LTYPE
  5
2C
100
AcDbSymbolTableRecord
100
AcDbLinetypeTableRecord
  2
DIVIDEX2
 70
      64
  3
CADPAC LINETYPE
 72
      65
 73
       6
 40
34.53398647
 49
13.81359459
 74
       0
 49
-6.90679729
 74
       0
 49
0.0
 74
       0
 49
-6.90679729
 74
       0
 49
0.0
 74
       0
 49
-6.90679729
 74
       0
  0
LTYPE
  5
2D
100
AcDbSymbolTableRecord
100
AcDbLinetypeTableRecord
  2
DIVIDE
 70
      64
  3
CADPAC LINETYPE
 72
      65
 73
       6
 40
27.62718918
 49
11.05087567
 74
       0
 49
-5.52543784
 74
       0
 49
0.0
 74
       0
 49
-5.52543784
 74
       0
 49
0.0
 74
       0
 49
-5.52543784
 74
       0
  0
LTYPE
  5
2E
100
AcDbSymbolTableRecord
100
AcDbLinetypeTableRecord
  2
DIVIDE2
 70
      64
  3
CADPAC LINETYPE
 72
      65
 73
       6
 40
20.72039188
 49
8.28815675
 74
       0
 49
-4.14407838
 74
       0
 49
0.0
 74
       0
 49
-4.14407838
 74
       0
 49
0.0
 74
       0
 49
-4.14407838
 74
       0
  0
LTYPE
  5
2F
100
AcDbSymbolTableRecord
100
AcDbLinetypeTableRecord
  2
BORDERX2
 70
      64
  3
CADPAC LINETYPE
 72
      65
 73
       6
 40
48.34758106
 49
13.81359459
 74
       0
 49
-6.90679729
 74
       0
 49
13.81359459
 74
       0
 49
-6.90679729
 74
       0
 49
0.0
 74
       0
 49
-6.90679729
 74
       0
  0
LTYPE
  5
30
100
AcDbSymbolTableRecord
100
AcDbLinetypeTableRecord
  2
BORDER
 70
      64
  3
CADPAC LINETYPE
 72
      65
 73
       6
 40
38.67806485
 49
11.05087567
 74
       0
 49
-5.52543784
 74
       0
 49
11.05087567
 74
       0
 49
-5.52543784
 74
       0
 49
0.0
 74
       0
 49
-5.52543784
 74
       0
  0
LTYPE
  5
31
100
AcDbSymbolTableRecord
100
AcDbLinetypeTableRecord
  2
BORDER2
 70
      64
  3
CADPAC LINETYPE
 72
      65
 73
       6
 40
29.00854863
 49
8.28815675
 74
       0
 49
-4.14407838
 74
       0
 49
8.28815675
 74
       0
 49
-4.14407838
 74
       0
 49
0.0
 74
       0
 49
-4.14407838
 74
       0
  0
LTYPE
  5
32
100
AcDbSymbolTableRecord
100
AcDbLinetypeTableRecord
  2
PHANTOMX2
 70
      64
  3
CADPAC LINETYPE
 72
      65
 73
       6
 40
41.44078376
 49
13.81359459
 74
       0
 49
-5.52543784
 74
       0
 49
5.52543784
 74
       0
 49
-5.52543784
 74
       0
 49
5.52543784
 74
       0
 49
-5.52543784
 74
       0
  0
LTYPE
  5
33
100
AcDbSymbolTableRecord
100
AcDbLinetypeTableRecord
  2
PHANTOM
 70
      64
  3
CADPAC LINETYPE
 72
      65
 73
       6
 40
34.25771458
 49
11.05087567
 74
       0
 49
-5.52543784
 74
       0
 49
3.3152627
 74
       0
 49
-5.52543784
 74
       0
 49
3.3152627
 74
       0
 49
-5.52543784
 74
       0
  0
LTYPE
  5
34
100
AcDbSymbolTableRecord
100
AcDbLinetypeTableRecord
  2
PHANTOM2
 70
      64
  3
CADPAC LINETYPE
 72
      65
 73
       6
 40
29.28482053
 49
8.28815675
 74
       0
 49
-5.52543784
 74
       0
 49
2.21017513
 74
       0
 49
-5.52543784
 74
       0
 49
2.21017513
 74
       0
 49
-5.52543784
 74
       0
  0
LTYPE
  5
35
100
AcDbSymbolTableRecord
100
AcDbLinetypeTableRecord
  2
ACAD_ISO06W100
 70
      64
  3
CADPAC LINETYPE
 72
      65
 73
       8
 40
37.29670539
 49
13.81359459
 74
       0
 49
-6.90679729
 74
       0
 49
0.0
 74
       0
 49
-5.52543784
 74
       0
 49
0.0
 74
       0
 49
-5.52543784
 74
       0
 49
0.0
 74
       0
 49
-5.52543784
 74
       0
  0
LTYPE
  5
36
100
AcDbSymbolTableRecord
100
AcDbLinetypeTableRecord
  2
ACAD_ISO13W100
 70
      64
  3
CADPAC LINETYPE
 72
      65
 73
       8
 40
44.20350268
 49
11.05087567
 74
       0
 49
-5.52543784
 74
       0
 49
11.05087567
 74
       0
 49
-5.52543784
 74
       0
 49
0.0
 74
       0
 49
-5.52543784
 74
       0
 49
0.0
 74
       0
 49
-5.52543784
 74
       0
  0
LTYPE
  5
37
100
AcDbSymbolTableRecord
100
AcDbLinetypeTableRecord
  2
ACAD_ISO14W100
 70
      64
  3
CADPAC LINETYPE
 72
      65
 73
       8
 40
33.15262701
 49
11.05087567
 74
       0
 49
-5.52543784
 74
       0
 49
0.0
 74
       0
 49
-5.52543784
 74
       0
 49
0.0
 74
       0
 49
-5.52543784
 74
       0
 49
0.0
 74
       0
 49
-5.52543784
 74
       0
  0
ENDTAB
  0
TABLE
  2
LAYER
  5
2
100
AcDbSymbolTable
 70
       3
  0
LAYER
  5
14
100
AcDbSymbolTableRecord
100
AcDbLayerTableRecord
  2
0
 70
       0
 62
       7
  6
CONTINUOUS
  0
LAYER
  5
38
100
AcDbSymbolTableRecord
100
AcDbLayerTableRecord
  2
LAYER0001
 70
       0
 62
       7
  6
CONTINUOUS
  0
LAYER
  5
39
100
AcDbSymbolTableRecord
100
AcDbLayerTableRecord
  2
LAYER0002
 70
       0
 62
       7
  6
CONTINUOUS
  0
ENDTAB
  0
TABLE
  2
STYLE
  5
3
100
AcDbSymbolTable
 70
       1
  0
STYLE
  5
17
100
AcDbSymbolTableRecord
100
AcDbTextStyleTableRecord
  2
STANDARD
 70
       0
 40
0.0
 41
1.0
 50
0.0
 71
       0
 42
9.525
  3
txt.shx
  4
bigfont.shx
  0
ENDTAB
  0
TABLE
  2
VIEW
  5
5
100
AcDbSymbolTable
 70
       1
  0
VIEW
  5
3A
100
AcDbSymbolTableRecord
100
AcDbViewTableRecord
  2
QQQQ
 70
       0
 40
410.93602683
 10
0.0
 20
-1.95208288
 41
388.21930469
 11
0.0
 21
0.0
 31
1.0
 12
100.0
 22
100.0
 32
0.0
 42
50.0
 43
0.0
 44
0.0
 50
0.0
 71
       0
  0
ENDTAB
  0
TABLE
  2
UCS
  5
6
100
AcDbSymbolTable
 70
       0
  0
ENDTAB
  0
TABLE
  2
APPID
  5
8
100
AcDbSymbolTable
 70
       1
  0
APPID
  5
16
100
AcDbSymbolTableRecord
100
AcDbRegAppTableRecord
  2
ACAD
 70
       0
  0
ENDTAB
  0
TABLE
  2
DIMSTYLE
  5
9
100
AcDbSymbolTable
 70
       1
  0
DIMSTYLE
105
18
100
AcDbSymbolTableRecord
100
AcDbDimStyleTableRecord
  2
STANDARD
 70
       0
  3

  4

  5

  6

  7

 40
1.0
 41
0.18
 42
0.0625
 43
0.38
 44
0.18
 45
0.0
 46
0.0
 47
0.0
 48
0.0
 71
       0
 72
       0
 73
       1
 74
       1
 75
       0
 76
       0
 77
       0
 78
       0
140
0.18
141
0.09
142
0.0
143
25.4
144
1.0
145
0.0
146
1.0
147
0.09
170
       0
171
       2
172
       0
173
       0
174
       0
175
       0
176
       0
177
       0
178
       0
270
       2
271
       4
272
       4
273
       2
274
       2
275
       0
280
       0
281
       0
282
       0
283
       1
284
       0
285
       0
286
       0
287
       0
288
       0
340
17
  0
ENDTAB
  0
TABLE
  2
BLOCK_RECORD
  5
1
100
AcDbSymbolTable
 70
      24
  0
BLOCK_RECORD
  5
A
100
AcDbSymbolTableRecord
100
AcDbBlockTableRecord
  2
*MODEL_SPACE
  0
BLOCK_RECORD
  5
B
100
AcDbSymbolTableRecord
100
AcDbBlockTableRecord
  2
*PAPER_SPACE
  0
BLOCK_RECORD
  5
3B
100
AcDbSymbolTableRecord
100
AcDbBlockTableRecord
  2
GROUP_1
  0
BLOCK_RECORD
  5
3C
100
AcDbSymbolTableRecord
100
AcDbBlockTableRecord
  2
GROUP_2
  0
BLOCK_RECORD
  5
3D
100
AcDbSymbolTableRecord
100
AcDbBlockTableRecord
  2
GROUP_3
  0
BLOCK_RECORD
  5
3E
100
AcDbSymbolTableRecord
100
AcDbBlockTableRecord
  2
GROUP_4
  0
BLOCK_RECORD
  5
3F
100
AcDbSymbolTableRecord
100
AcDbBlockTableRecord
  2
GROUP_5
  0
BLOCK_RECORD
  5
40
100
AcDbSymbolTableRecord
100
AcDbBlockTableRecord
  2
GROUP_6
  0
BLOCK_RECORD
  5
41
100
AcDbSymbolTableRecord
100
AcDbBlockTableRecord
  2
GROUP_7
  0
BLOCK_RECORD
  5
42
100
AcDbSymbolTableRecord
100
AcDbBlockTableRecord
  2
GROUP_8
  0
BLOCK_RECORD
  5
43
100
AcDbSymbolTableRecord
100
AcDbBlockTableRecord
  2
GROUP_9
  0
BLOCK_RECORD
  5
44
100
AcDbSymbolTableRecord
100
AcDbBlockTableRecord
  2
GROUP_10
  0
BLOCK_RECORD
  5
45
100
AcDbSymbolTableRecord
100
AcDbBlockTableRecord
  2
GROUP_11
  0
BLOCK_RECORD
  5
46
100
AcDbSymbolTableRecord
100
AcDbBlockTableRecord
  2
GROUP_12
  0
BLOCK_RECORD
  5
47
100
AcDbSymbolTableRecord
100
AcDbBlockTableRecord
  2
GROUP_13
  0
BLOCK_RECORD
  5
48
100
AcDbSymbolTableRecord
100
AcDbBlockTableRecord
  2
GROUP_14
  0
BLOCK_RECORD
  5
49
100
AcDbSymbolTableRecord
100
AcDbBlockTableRecord
  2
GROUP_15
  0
BLOCK_RECORD
  5
4A
100
AcDbSymbolTableRecord
100
AcDbBlockTableRecord
  2
GROUP_16
  0
BLOCK_RECORD
  5
4B
100
AcDbSymbolTableRecord
100
AcDbBlockTableRecord
  2
GROUP_17
  0
BLOCK_RECORD
  5
4C
100
AcDbSymbolTableRecord
100
AcDbBlockTableRecord
  2
GROUP_18
  0
BLOCK_RECORD
  5
4D
100
AcDbSymbolTableRecord
100
AcDbBlockTableRecord
  2
GROUP_19
  0
BLOCK_RECORD
  5
4E
100
AcDbSymbolTableRecord
100
AcDbBlockTableRecord
  2
GROUP_20
  0
BLOCK_RECORD
  5
4F
100
AcDbSymbolTableRecord
100
AcDbBlockTableRecord
  2
GROUP_21
  0
BLOCK_RECORD
  5
50
100
AcDbSymbolTableRecord
100
AcDbBlockTableRecord
  2
GROUP_22
  0
BLOCK_RECORD
  5
51
100
AcDbSymbolTableRecord
100
AcDbBlockTableRecord
  2
GROUP_23
  0
BLOCK_RECORD
  5
52
100
AcDbSymbolTableRecord
100
AcDbBlockTableRecord
  2
GROUP_24
  0
ENDTAB
  0
ENDSEC
  0
SECTION
  2
BLOCKS
  0
BLOCK
  5
D
100
AcDbEntity
  8
0
100
AcDbBlockBegin
  2
*MODEL_SPACE
 70
       0
 10
0.0
 20
0.0
 30
0.0
  3
*MODEL_SPACE
  1

  0
ENDBLK
  5
E
100
AcDbEntity
  8
0
100
AcDbBlockEnd
  0
BLOCK
  5
F
100
AcDbEntity
 67
       1
  8
0
100
AcDbBlockBegin
  2
*PAPER_SPACE
 70
       0
 10
0.0
 20
0.0
 30
0.0
  3
*PAPER_SPACE
  1

  0
ENDBLK
  5
10
100
AcDbEntity
 67
       1
  8
0
100
AcDbBlockEnd
  0
BLOCK
  5
53
100
AcDbEntity
  8
0
100
AcDbBlockBegin
  2
GROUP_1
 70
       0
 10
0.0
 20
0.0
 30
0.0
  3
GROUP_1
  1

  0
LINE
  5
54
100
AcDbEntity
  8
LAYER0002
  6
CONTINUOUS
 62
       7
100
AcDbLine
 10
-82.32576135
 20
-124.39564674
 30
0.0
 11
-82.13130474
 21
-124.39369245
 31
0.0
  0
LINE
  5
55
100
AcDbEntity
  8
LAYER0002
  6
CONTINUOUS
 62
       7
100
AcDbLine
 10
-82.13130474
 20
-124.39369245
 30
0.0
 11
-81.93683924
 21
-124.39050265
 31
0.0
  0
LINE
  5
56
100
AcDbEntity
  8
LAYER0002
  6
CONTINUOUS
 62
       7
100
AcDbLine
 10
-81.93683924
 20
-124.39050265
 30
0.0
 11
-81.74236107
 21
-124.38499179
 31
0.0
  0
LINE
  5
57
100
AcDbEntity
  8
LAYER0002
  6
CONTINUOUS
 62
       7
100
AcDbLine
 10
-81.74236107
 20
-124.38499179
 30
0.0
 11
-81.54789444
 21
-124.37689252
 31
0.0
  0
LINE
  5
58
100
AcDbEntity
  8
LAYER0002
  6
CONTINUOUS
 62
       7
100
AcDbLine
 10
-81.54789444
 20
-124.37689252
 30
0.0
 11
-81.35347301
 21
-124.36621523
 31
0.0
  0
LINE
  5
59
100
AcDbEntity
  8
LAYER0002
  6
CONTINUOUS
 62
       7
100
AcDbLine
 10
-81.35347301
 20
-124.36621523
 30
0.0
 11
-81.1591305
 21
-124.35297055
 31
0.0
  0
LINE
  5
5A
100
AcDbEntity
  8
LAYER0002
  6
CONTINUOUS
 62
       7
100
AcDbLine
 10
-81.1591305
 20
-124.35297055
 30
0.0
 11
-80.96490059
 21
-124.33716909
 31
0.0
  0
LINE
  5
5B
100
AcDbEntity
  8
LAYER0002
  6
CONTINUOUS
 62
       7
100
AcDbLine
 10
-80.96490059
 20
-124.33716909
 30
0.0
 11
-80.77081697
 21
-124.31882147
 31
0.0
  0
LINE
  5
5C
100
AcDbEntity
  8
LAYER0002
  6
CONTINUOUS
 62
       7
100
AcDbLine
 10
-80.77081697
 20
-124.31882147
 30
0.0
 11
-80.57691334
 21
-124.29793832
 31
0.0
  0
LINE
  5
5D
100
AcDbEntity
  8
LAYER0002
  6
CONTINUOUS
 62
       7
100
AcDbLine
 10
-80.57691334
 20
-124.29793832
 30
0.0
 11
-80.38322339
 21
-124.27453026
 31
0.0
  0
LINE
  5
5E
100
AcDbEntity
  8
LAYER0002
  6
CONTINUOUS
 62
       7
100
AcDbLine
 10
-80.38322339
 20
-124.27453026
 30
0.0
 11
-80.18978081
 21
-124.2486079
 31
0.0
  0
LINE
  5
5F
100
AcDbEntity
  8
LAYER0002
  6
CONTINUOUS
 62
       7
100
AcDbLine
 10
-80.18978081
 20
-124.2486079
 30
0.0
 11
-79.99661929
 21
-124.22018186
 31
0.0
  0
LINE
  5
60
100
AcDbEntity
  8
LAYER0002
  6
CONTINUOUS
 62
       7
100
AcDbLine
 10
-79.99661929
 20
-124.22018186
 30
0.0
 11
-79.80377253
 21
-124.18926278
 31
0.0
  0
LINE
  5
61
100
AcDbEntity
  8
LAYER0002
  6
CONTINUOUS
 62
       7
100
AcDbLine
 10
-79.80377253
 20
-124.18926278
 30
0.0
 11
-79.61127423
 21
-124.15586126
 31
0.0
  0
LINE
  5
62
100
AcDbEntity
  8
LAYER0002
  6
CONTINUOUS
 62
       7
100
AcDbLine
 10
-79.61127423
 20
-124.15586126
 30
0.0
 11
-79.41915806
 21
-124.11998793
 31
0.0
  0
LINE
  5
63
100
AcDbEntity
  8
LAYER0002
  6
CONTINUOUS
 62
       7
100
AcDbLine
 10
-79.41915806
 20
-124.11998793
 30
0.0
 11
-79.22745773
 21
-124.08165342
 31
0.0
  0
LINE
  5
64
100
AcDbEntity
  8
LAYER0002
  6
CONTINUOUS
 62
       7
100
AcDbLine
 10
-79.22745773
 20
-124.08165342
 30
0.0
 11
-79.03619334
 21
-124.0409023
 31
0.0
  0
LINE
  5
65
100
AcDbEntity
  8
LAYER0002
  6
CONTINUOUS
 62
       7
100
AcDbLine
 10
-79.03619334
 20
-124.0409023
 30
0.0
 11
-78.84534172
 21
-123.99788724
 31
0.0
  0
LINE
  5
66
100
AcDbEntity
  8
LAYER0002
  6
CONTINUOUS
 62
       7
100
AcDbLine
 10
-78.84534172
 20
-123.99788724
 30
0.0
 11
-78.65487113
 21
-123.95278239
 31
0.0
  0
LINE
  5
67
100
AcDbEntity
  8
LAYER0002
  6
CONTINUOUS
 62
       7
100
AcDbLine
 10
-78.65487113
 20
-123.95278239
 30
0.0
 11
-78.46474982
 21
-123.90576191
 31
0.0
  0
LINE
  5
68
100
AcDbEntity
  8
LAYER0002
  6
CONTINUOUS
 62
       7
100
AcDbLine
 10
-78.46474982
 20
-123.90576191
 30
0.0
 11
-78.27494603
 21
-123.85699993
 31
0.0
  0
LINE
  5
69
100
AcDbEntity
  8
LAYER0002
  6
CONTINUOUS
 62
       7
100
AcDbLine
 10
-78.27494603
 20
-123.85699993
 30
0.0
 11
-78.08542802
 21
-123.80667062
 31
0.0
  0
LINE
  5
6A
100
AcDbEntity
  8
LAYER0002
  6
CONTINUOUS
 62
       7
100
AcDbLine
 10
-78.08542802
 20
-123.80667062
 30
0.0
 11
-77.89616402
 21
-123.75494811
 31
0.0
  0
LINE
  5
6B
100
AcDbEntity
  8
LAYER0002
  6
CONTINUOUS
 62
       7
100
AcDbLine
 10
-77.89616402
 20
-123.75494811
 30
0.0
 11
-77.70712228
 21
-123.70200656
 31
0.0
  0
LINE
  5
6C
100
AcDbEntity
  8
LAYER0002
  6
CONTINUOUS
 62
       7
100
AcDbLine
 10
-77.70712228
 20
-123.70200656
 30
0.0
 11
-77.51827106
 21
-123.64802011
 31
0.0
  0
LINE
  5
6D
100
AcDbEntity
  8
LAYER0002
  6
CONTINUOUS
 62
       7
100
AcDbLine
 10
-77.51827106
 20
-123.64802011
 30
0.0
 11
-77.32957861
 21
-123.59316292
 31
0.0
  0
LINE
  5
6E
100
AcDbEntity
  8
LAYER0002
  6
CONTINUOUS
 62
       7
100
AcDbLine
 10
-77.32957861
 20
-123.59316292
 30
0.0
 11
-77.14101316
 21
-123.53760914
 31
0.0
  0
LINE
  5
6F
100
AcDbEntity
  8
LAYER0002
  6
CONTINUOUS
 62
       7
100
AcDbLine
 10
-77.14101316
 20
-123.53760914
 30
0.0
 11
-76.95254296
 21
-123.48153291
 31
0.0
  0
LINE
  5
70
100
AcDbEntity
  8
LAYER0002
  6
CONTINUOUS
 62
       7
100
AcDbLine
 10
-76.95254296
 20
-123.48153291
 30
0.0
 11
-76.76413628
 21
-123.42510837
 31
0.0
  0
LINE
  5
71
100
AcDbEntity
  8
LAYER0002
  6
CONTINUOUS
 62
       7
100
AcDbLine
 10
-76.76413628
 20
-123.42510837
 30
0.0
 11
-76.57576134
 21
-123.3685097
 31
0.0
  0
ENDBLK
  5
72
100
AcDbEntity
  8
0
100
AcDbBlockEnd
  0
BLOCK
  5
73
100
AcDbEntity
  8
0
100
AcDbBlockBegin
  2
GROUP_2
 70
       0
 10
0.0
 20
0.0
 30
0.0
  3
GROUP_2
  1

  0
LINE
  5
74
100
AcDbEntity
  8
LAYER0002
  6
CONTINUOUS
 62
       7
100
AcDbLine
 10
-88.07576136
 20
-117.9227872
 30
0.0
 11
-88.07576136
 21
-117.85677476
 31
0.0
  0
LINE
  5
75
100
AcDbEntity
  8
LAYER0002
  6
CONTINUOUS
 62
       7
100
AcDbLine
 10
-88.07576136
 20
-117.85677476
 30
0.0
 11
-88.07576136
 21
-117.79101931
 31
0.0
  0
LINE
  5
76
100
AcDbEntity
  8
LAYER0002
  6
CONTINUOUS
 62
       7
100
AcDbLine
 10
-88.07576136
 20
-117.79101931
 30
0.0
 11
-88.07576136
 21
-117.72577785
 31
0.0
  0
LINE
  5
77
100
AcDbEntity
  8
LAYER0002
  6
CONTINUOUS
 62
       7
100
AcDbLine
 10
-88.07576136
 20
-117.72577785
 30
0.0
 11
-88.07576136
 21
-117.66130738
 31
0.0
  0
LINE
  5
78
100
AcDbEntity
  8
LAYER0002
  6
CONTINUOUS
 62
       7
100
AcDbLine
 10
-88.07576136
 20
-117.66130738
 30
0.0
 11
-88.07576136
 21
-117.59786489
 31
0.0
  0
LINE
  5
79
100
AcDbEntity
  8
LAYER0002
  6
CONTINUOUS
 62
       7
100
AcDbLine
 10
-88.07576136
 20
-117.59786489
 30
0.0
 11
-88.07576136
 21
-117.53570737
 31
0.0
  0
LINE
  5
7A
100
AcDbEntity
  8
LAYER0002
  6
CONTINUOUS
 62
       7
100
AcDbLine
 10
-88.07576136
 20
-117.53570737
 30
0.0
 11
-88.07576136
 21
-117.47509183
 31
0.0
  0
LINE
  5
7B
100
AcDbEntity
  8
LAYER0002
  6
CONTINUOUS
 62
       7
100
AcDbLine
 10
-88.07576136
 20
-117.47509183
 30
0.0
 11
-88.07576136
 21
-117.41627526
 31
0.0
  0
LINE
  5
7C
100
AcDbEntity
  8
LAYER0002
  6
CONTINUOUS
 62
       7
100
AcDbLine
 10
-88.07576136
 20
-117.41627526
 30
0.0
 11
-88.07576136
 21
-117.35951464
 31
0.0
  0
LINE
  5
7D
100
AcDbEntity
  8
LAYER0002
  6
CONTINUOUS
 62
       7
100
AcDbLine
 10
-88.07576136
 20
-117.35951464
 30
0.0
 11
-88.07576136
 21
-117.30506699
 31
0.0
  0
LINE
  5
7E
100
AcDbEntity
  8
LAYER0002
  6
CONTINUOUS
 62
       7
100
AcDbLine
 10
-88.07576136
 20
-117.30506699
 30
0.0
 11
-88.07576136
 21
-117.25318929
 31
0.0
  0
LINE
  5
7F
100
AcDbEntity
  8
LAYER0002
  6
CONTINUOUS
 62
       7
100
AcDbLine
 10
-88.07576136
 20
-117.25318929
 30
0.0
 11
-88.07576136
 21
-117.20413854
 31
0.0
  0
LINE
  5
80
100
AcDbEntity
  8
LAYER0002
  6
CONTINUOUS
 62
       7
100
AcDbLine
 10
-88.07576136
 20
-117.20413854
 30
0.0
 11
-88.07576136
 21
-117.15817174
 31
0.0
  0
LINE
  5
81
100
AcDbEntity
  8
LAYER0002
  6
CONTINUOUS
 62
       7
100
AcDbLine
 10
-88.07576136
 20
-117.15817174
 30
0.0
 11
-88.07576136
 21
-117.11554587
 31
0.0
  0
LINE
  5
82
100
AcDbEntity
  8
LAYER0002
  6
CONTINUOUS
 62
       7
100
AcDbLine
 10
-88.07576136
 20
-117.11554587
 30
0.0
 11
-88.07576136
 21
-117.07651794
 31
0.0
  0
LINE
  5
83
100
AcDbEntity
  8
LAYER0002
  6
CONTINUOUS
 62
       7
100
AcDbLine
 10
-88.07576136
 20
-117.07651794
 30
0.0
 11
-88.07576136
 21
-117.04134494
 31
0.0
  0
LINE
  5
84
100
AcDbEntity
  8
LAYER0002
  6
CONTINUOUS
 62
       7
100
AcDbLine
 10
-88.07576136
 20
-117.04134494
 30
0.0
 11
-88.07576136
 21
-117.01028387
 31
0.0
  0
LINE
  5
85
100
AcDbEntity
  8
LAYER0002
  6
CONTINUOUS
 62
       7
100
AcDbLine
 10
-88.07576136
 20
-117.01028387
 30
0.0
 11
-88.07576136
 21
-116.98359172
 31
0.0
  0
LINE
  5
86
100
AcDbEntity
  8
LAYER0002
  6
CONTINUOUS
 62
       7
100
AcDbLine
 10
-88.07576136
 20
-116.98359172
 30
0.0
 11
-88.07576136
 21
-116.96150678
 31
0.0
  0
LINE
  5
87
100
AcDbEntity
  8
LAYER0002
  6
CONTINUOUS
 62
       7
100
AcDbLine
 10
-88.07576136
 20
-116.96150678
 30
0.0
 11
-88.07576136
 21
-116.94380257
 31
0.0
  0
LINE
  5
88
100
AcDbEntity
  8
LAYER0002
  6
CONTINUOUS
 62
       7
100
AcDbLine
 10
-88.07576136
 20
-116.94380257
 30
0.0
 11
-88.07576136
 21
-116.9297679
 31
0.0
  0
LINE
  5
89
100
AcDbEntity
  8
LAYER0002
  6
CONTINUOUS
 62
       7
100
AcDbLine
 10
-88.07576136
 20
-116.9297679
 30
0.0
 11
-88.07576136
 21
-116.91866886
 31
0.0
  0
LINE
  5
8A
100
AcDbEntity
  8
LAYER0002
  6
CONTINUOUS
 62
       7
100
AcDbLine
 10
-88.07576136
 20
-116.91866886
 30
0.0
 11
-88.07576136
 21
-116.90977154
 31
0.0
  0
LINE
  5
8B
100
AcDbEntity
  8
LAYER0002
  6
CONTINUOUS
 62
       7
100
AcDbLine
 10
-88.07576136
 20
-116.90977154
 30
0.0
 11
-88.07576136
 21
-116.90234204
 31
0.0
  0
LINE
  5
8C
100
AcDbEntity
  8
LAYER0002
  6
CONTINUOUS
 62
       7
100
AcDbLine
 10
-88.07576136
 20
-116.90234204
 30
0.0
 11
-88.07576136
 21
-116.89564644
 31
0.0
  0
ENDBLK
  5
8D
100
AcDbEntity
  8
0
100
AcDbBlockEnd
  0
BLOCK
  5
8E
100
AcDbEntity
  8
0
100
AcDbBlockBegin
  2
GROUP_3
 70
       0
 10
0.0
 20
0.0
 30
0.0
  3
GROUP_3
  1

  0
LINE
  5
8F
100
AcDbEntity
  8
LAYER0002
  6
CONTINUOUS
 62
       7
100
AcDbLine
 10
-88.07576136
 20
-124.39564674
 30
0.0
 11
-88.07576136
 21
-124.38895179
 31
0.0
  0
LINE
  5
90
100
AcDbEntity
  8
LAYER0002
  6
CONTINUOUS
 62
       7
100
AcDbLine
 10
-88.07576136
 20
-124.38895179
 30
0.0
 11
-88.07576136
 21
-124.38152292
 31
0.0
  0
LINE
  5
91
100
AcDbEntity
  8
LAYER0002
  6
CONTINUOUS
 62
       7
100
AcDbLine
 10
-88.07576136
 20
-124.38152292
 30
0.0
 11
-88.07576136
 21
-124.37262621
 31
0.0
  0
LINE
  5
92
100
AcDbEntity
  8
LAYER0002
  6
CONTINUOUS
 62
       7
100
AcDbLine
 10
-88.07576136
 20
-124.37262621
 30
0.0
 11
-88.07576136
 21
-124.36152775
 31
0.0
  0
LINE
  5
93
100
AcDbEntity
  8
LAYER0002
  6
CONTINUOUS
 62
       7
100
AcDbLine
 10
-88.07576136
 20
-124.36152775
 30
0.0
 11
-88.07576136
 21
-124.34749362
 31
0.0
  0
LINE
  5
94
100
AcDbEntity
  8
LAYER0002
  6
CONTINUOUS
 62
       7
100
AcDbLine
 10
-88.07576136
 20
-124.34749362
 30
0.0
 11
-88.07576136
 21
-124.3297899
 31
0.0
  0
LINE
  5
95
100
AcDbEntity
  8
LAYER0002
  6
CONTINUOUS
 62
       7
100
AcDbLine
 10
-88.07576136
 20
-124.3297899
 30
0.0
 11
-88.07576136
 21
-124.30770538
 31
0.0
  0
LINE
  5
96
100
AcDbEntity
  8
LAYER0002
  6
CONTINUOUS
 62
       7
100
AcDbLine
 10
-88.07576136
 20
-124.30770538
 30
0.0
 11
-88.07576136
 21
-124.28101358
 31
0.0
  0
LINE
  5
97
100
AcDbEntity
  8
LAYER0002
  6
CONTINUOUS
 62
       7
100
AcDbLine
 10
-88.07576136
 20
-124.28101358
 30
0.0
 11
-88.07576136
 21
-124.24995281
 31
0.0
  0
LINE
  5
98
100
AcDbEntity
  8
LAYER0002
  6
CONTINUOUS
 62
       7
100
AcDbLine
 10
-88.07576136
 20
-124.24995281
 30
0.0
 11
-88.07576136
 21
-124.21478004
 31
0.0
  0
LINE
  5
99
100
AcDbEntity
  8
LAYER0002
  6
CONTINUOUS
 62
       7
100
AcDbLine
 10
-88.07576136
 20
-124.21478004
 30
0.0
 11
-88.07576136
 21
-124.17575229
 31
0.0
  0
LINE
  5
9A
100
AcDbEntity
  8
LAYER0002
  6
CONTINUOUS
 62
       7
100
AcDbLine
 10
-88.07576136
 20
-124.17575229
 30
0.0
 11
-88.07576136
 21
-124.13312655
 31
0.0
  0
LINE
  5
9B
100
AcDbEntity
  8
LAYER0002
  6
CONTINUOUS
 62
       7
100
AcDbLine
 10
-88.07576136
 20
-124.13312655
 30
0.0
 11
-88.07576136
 21
-124.08715982
 31
0.0
  0
LINE
  5
9C
100
AcDbEntity
  8
LAYER0002
  6
CONTINUOUS
 62
       7
100
AcDbLine
 10
-88.07576136
 20
-124.08715982
 30
0.0
 11
-88.07576136
 21
-124.03810911
 31
0.0
  0
LINE
  5
9D
100
AcDbEntity
  8
LAYER0002
  6
CONTINUOUS
 62
       7
100
AcDbLine
 10
-88.07576136
 20
-124.03810911
 30
0.0
 11
-88.07576136
 21
-123.9862314
 31
0.0
  0
LINE
  5
9E
100
AcDbEntity
  8
LAYER0002
  6
CONTINUOUS
 62
       7
100
AcDbLine
 10
-88.07576136
 20
-123.9862314
 30
0.0
 11
-88.07576136
 21
-123.93178371
 31
0.0
  0
LINE
  5
9F
100
AcDbEntity
  8
LAYER0002
  6
CONTINUOUS
 62
       7
100
AcDbLine
 10
-88.07576136
 20
-123.93178371
 30
0.0
 11
-88.07576136
 21
-123.87502302
 31
0.0
  0
LINE
  5
A0
100
AcDbEntity
  8
LAYER0002
  6
CONTINUOUS
 62
       7
100
AcDbLine
 10
-88.07576136
 20
-123.87502302
 30
0.0
 11
-88.07576136
 21
-123.81620634
 31
0.0
  0
LINE
  5
A1
100
AcDbEntity
  8
LAYER0002
  6
CONTINUOUS
 62
       7
100
AcDbLine
 10
-88.07576136
 20
-123.81620634
 30
0.0
 11
-88.07576136
 21
-123.75559066
 31
0.0
  0
LINE
  5
A2
100
AcDbEntity
  8
LAYER0002
  6
CONTINUOUS
 62
       7
100
AcDbLine
 10
-88.07576136
 20
-123.75559066
 30
0.0
 11
-88.07576136
 21
-123.69343299
 31
0.0
  0
LINE
  5
A3
100
AcDbEntity
  8
LAYER0002
  6
CONTINUOUS
 62
       7
100
AcDbLine
 10
-88.07576136
 20
-123.69343299
 30
0.0
 11
-88.07576136
 21
-123.62999033
 31
0.0
  0
LINE
  5
A4
100
AcDbEntity
  8
LAYER0002
  6
CONTINUOUS
 62
       7
100
AcDbLine
 10
-88.07576136
 20
-123.62999033
 30
0.0
 11
-88.07576136
 21
-123.56551967
 31
0.0
  0
LINE
  5
A5
100
AcDbEntity
  8
LAYER0002
  6
CONTINUOUS
 62
       7
100
AcDbLine
 10
-88.07576136
 20
-123.56551967
 30
0.0
 11
-88.07576136
 21
-123.50027801
 31
0.0
  0
LINE
  5
A6
100
AcDbEntity
  8
LAYER0002
  6
CONTINUOUS
 62
       7
100
AcDbLine
 10
-88.07576136
 20
-123.50027801
 30
0.0
 11
-88.07576136
 21
-123.43452235
 31
0.0
  0
LINE
  5
A7
100
AcDbEntity
  8
LAYER0002
  6
CONTINUOUS
 62
       7
100
AcDbLine
 10
-88.07576136
 20
-123.43452235
 30
0.0
 11
-88.07576136
 21
-123.3685097
 31
0.0
  0
ENDBLK
  5
A8
100
AcDbEntity
  8
0
100
AcDbBlockEnd
  0
BLOCK
  5
A9
100
AcDbEntity
  8
0
100
AcDbBlockBegin
  2
GROUP_4
 70
       0
 10
0.0
 20
0.0
 30
0.0
  3
GROUP_4
  1

  0
LINE
  5
AA
100
AcDbEntity
  8
LAYER0002
  6
CONTINUOUS
 62
       7
100
AcDbLine
 10
-70.82576133
 20
-130.59564738
 30
0.0
 11
-71.02021791
 21
-130.59760354
 31
0.0
  0
LINE
  5
AB
100
AcDbEntity
  8
LAYER0002
  6
CONTINUOUS
 62
       7
100
AcDbLine
 10
-71.02021791
 20
-130.59760354
 30
0.0
 11
-71.21468338
 21
-130.60079503
 31
0.0
  0
LINE
  5
AC
100
AcDbEntity
  8
LAYER0002
  6
CONTINUOUS
 62
       7
100
AcDbLine
 10
-71.21468338
 20
-130.60079503
 30
0.0
 11
-71.40916153
 21
-130.60630726
 31
0.0
  0
LINE
  5
AD
100
AcDbEntity
  8
LAYER0002
  6
CONTINUOUS
 62
       7
100
AcDbLine
 10
-71.40916153
 20
-130.60630726
 30
0.0
 11
-71.60362814
 21
-130.61440757
 31
0.0
  0
LINE
  5
AE
100
AcDbEntity
  8
LAYER0002
  6
CONTINUOUS
 62
       7
100
AcDbLine
 10
-71.60362814
 20
-130.61440757
 30
0.0
 11
-71.79804954
 21
-130.62508558
 31
0.0
  0
LINE
  5
AF
100
AcDbEntity
  8
LAYER0002
  6
CONTINUOUS
 62
       7
100
AcDbLine
 10
-71.79804954
 20
-130.62508558
 30
0.0
 11
-71.99239203
 21
-130.63833072
 31
0.0
  0
LINE
  5
B0
100
AcDbEntity
  8
LAYER0002
  6
CONTINUOUS
 62
       7
100
AcDbLine
 10
-71.99239203
 20
-130.63833072
 30
0.0
 11
-72.18662193
 21
-130.65413238
 31
0.0
  0
LINE
  5
B1
100
AcDbEntity
  8
LAYER0002
  6
CONTINUOUS
 62
       7
100
AcDbLine
 10
-72.18662193
 20
-130.65413238
 30
0.0
 11
-72.38070553
 21
-130.67248
 31
0.0
  0
LINE
  5
B2
100
AcDbEntity
  8
LAYER0002
  6
CONTINUOUS
 62
       7
100
AcDbLine
 10
-72.38070553
 20
-130.67248
 30
0.0
 11
-72.57460915
 21
-130.69336297
 31
0.0
  0
LINE
  5
B3
100
AcDbEntity
  8
LAYER0002
  6
CONTINUOUS
 62
       7
100
AcDbLine
 10
-72.57460915
 20
-130.69336297
 30
0.0
 11
-72.7682991
 21
-130.71677071
 31
0.0
  0
LINE
  5
B4
100
AcDbEntity
  8
LAYER0002
  6
CONTINUOUS
 62
       7
100
AcDbLine
 10
-72.7682991
 20
-130.71677071
 30
0.0
 11
-72.96174167
 21
-130.74269263
 31
0.0
  0
LINE
  5
B5
100
AcDbEntity
  8
LAYER0002
  6
CONTINUOUS
 62
       7
100
AcDbLine
 10
-72.96174167
 20
-130.74269263
 30
0.0
 11
-73.15490318
 21
-130.77111814
 31
0.0
  0
LINE
  5
B6
100
AcDbEntity
  8
LAYER0002
  6
CONTINUOUS
 62
       7
100
AcDbLine
 10
-73.15490318
 20
-130.77111814
 30
0.0
 11
-73.34774994
 21
-130.80203666
 31
0.0
  0
LINE
  5
B7
100
AcDbEntity
  8
LAYER0002
  6
CONTINUOUS
 62
       7
100
AcDbLine
 10
-73.34774994
 20
-130.80203666
 30
0.0
 11
-73.54024824
 21
-130.83543759
 31
0.0
  0
LINE
  5
B8
100
AcDbEntity
  8
LAYER0002
  6
CONTINUOUS
 62
       7
100
AcDbLine
 10
-73.54024824
 20
-130.83543759
 30
0.0
 11
-73.73236441
 21
-130.87131035
 31
0.0
  0
LINE
  5
B9
100
AcDbEntity
  8
LAYER0002
  6
CONTINUOUS
 62
       7
100
AcDbLine
 10
-73.73236441
 20
-130.87131035
 30
0.0
 11
-73.92406474
 21
-130.90964434
 31
0.0
  0
LINE
  5
BA
100
AcDbEntity
  8
LAYER0002
  6
CONTINUOUS
 62
       7
100
AcDbLine
 10
-73.92406474
 20
-130.90964434
 30
0.0
 11
-74.11532914
 21
-130.95039502
 31
0.0
  0
LINE
  5
BB
100
AcDbEntity
  8
LAYER0002
  6
CONTINUOUS
 62
       7
100
AcDbLine
 10
-74.11532914
 20
-130.95039502
 30
0.0
 11
-74.30618077
 21
-130.9934097
 31
0.0
  0
LINE
  5
BC
100
AcDbEntity
  8
LAYER0002
  6
CONTINUOUS
 62
       7
100
AcDbLine
 10
-74.30618077
 20
-130.9934097
 30
0.0
 11
-74.49665136
 21
-131.03851423
 31
0.0
  0
LINE
  5
BD
100
AcDbEntity
  8
LAYER0002
  6
CONTINUOUS
 62
       7
100
AcDbLine
 10
-74.49665136
 20
-131.03851423
 30
0.0
 11
-74.68677269
 21
-131.08553446
 31
0.0
  0
LINE
  5
BE
100
AcDbEntity
  8
LAYER0002
  6
CONTINUOUS
 62
       7
100
AcDbLine
 10
-74.68677269
 20
-131.08553446
 30
0.0
 11
-74.87657649
 21
-131.13429624
 31
0.0
  0
LINE
  5
BF
100
AcDbEntity
  8
LAYER0002
  6
CONTINUOUS
 62
       7
100
AcDbLine
 10
-74.87657649
 20
-131.13429624
 30
0.0
 11
-75.06609452
 21
-131.18462541
 31
0.0
  0
LINE
  5
C0
100
AcDbEntity
  8
LAYER0002
  6
CONTINUOUS
 62
       7
100
AcDbLine
 10
-75.06609452
 20
-131.18462541
 30
0.0
 11
-75.25535854
 21
-131.23634782
 31
0.0
  0
LINE
  5
C1
100
AcDbEntity
  8
LAYER0002
  6
CONTINUOUS
 62
       7
100
AcDbLine
 10
-75.25535854
 20
-131.23634782
 30
0.0
 11
-75.44440029
 21
-131.2892893
 31
0.0
  0
LINE
  5
C2
100
AcDbEntity
  8
LAYER0002
  6
CONTINUOUS
 62
       7
100
AcDbLine
 10
-75.44440029
 20
-131.2892893
 30
0.0
 11
-75.63325152
 21
-131.34327572
 31
0.0
  0
LINE
  5
C3
100
AcDbEntity
  8
LAYER0002
  6
CONTINUOUS
 62
       7
100
AcDbLine
 10
-75.63325152
 20
-131.34327572
 30
0.0
 11
-75.821944
 21
-131.3981329
 31
0.0
  0
LINE
  5
C4
100
AcDbEntity
  8
LAYER0002
  6
CONTINUOUS
 62
       7
100
AcDbLine
 10
-75.821944
 20
-131.3981329
 30
0.0
 11
-76.01050947
 21
-131.45368671
 31
0.0
  0
LINE
  5
C5
100
AcDbEntity
  8
LAYER0002
  6
CONTINUOUS
 62
       7
100
AcDbLine
 10
-76.01050947
 20
-131.45368671
 30
0.0
 11
-76.19897968
 21
-131.50976298
 31
0.0
  0
LINE
  5
C6
100
AcDbEntity
  8
LAYER0002
  6
CONTINUOUS
 62
       7
100
AcDbLine
 10
-76.19897968
 20
-131.50976298
 30
0.0
 11
-76.38738639
 21
-131.56618755
 31
0.0
  0
LINE
  5
C7
100
AcDbEntity
  8
LAYER0002
  6
CONTINUOUS
 62
       7
100
AcDbLine
 10
-76.38738639
 20
-131.56618755
 30
0.0
 11
-76.57576134
 21
-131.62278628
 31
0.0
  0
ENDBLK
  5
C8
100
AcDbEntity
  8
0
100
AcDbBlockEnd
  0
BLOCK
  5
C9
100
AcDbEntity
  8
0
100
AcDbBlockBegin
  2
GROUP_5
 70
       0
 10
0.0
 20
0.0
 30
0.0
  3
GROUP_5
  1

  0
LINE
  5
CA
100
AcDbEntity
  8
LAYER0002
  6
CONTINUOUS
 62
       7
100
AcDbLine
 10
-65.07576132
 20
-131.62278628
 30
0.0
 11
-65.30194223
 21
-131.55331587
 31
0.0
  0
LINE
  5
CB
100
AcDbEntity
  8
LAYER0002
  6
CONTINUOUS
 62
       7
100
AcDbLine
 10
-65.30194223
 20
-131.55331587
 30
0.0
 11
-65.52817242
 21
-131.4842118
 31
0.0
  0
LINE
  5
CC
100
AcDbEntity
  8
LAYER0002
  6
CONTINUOUS
 62
       7
100
AcDbLine
 10
-65.52817242
 20
-131.4842118
 30
0.0
 11
-65.7545012
 21
-131.4158404
 31
0.0
  0
LINE
  5
CD
100
AcDbEntity
  8
LAYER0002
  6
CONTINUOUS
 62
       7
100
AcDbLine
 10
-65.7545012
 20
-131.4158404
 30
0.0
 11
-65.98097784
 21
-131.348568
 31
0.0
  0
LINE
  5
CE
100
AcDbEntity
  8
LAYER0002
  6
CONTINUOUS
 62
       7
100
AcDbLine
 10
-65.98097784
 20
-131.348568
 30
0.0
 11
-66.20765164
 21
-131.28276096
 31
0.0
  0
LINE
  5
CF
100
AcDbEntity
  8
LAYER0002
  6
CONTINUOUS
 62
       7
100
AcDbLine
 10
-66.20765164
 20
-131.28276096
 30
0.0
 11
-66.43457189
 21
-131.21878559
 31
0.0
  0
LINE
  5
D0
100
AcDbEntity
  8
LAYER0002
  6
CONTINUOUS
 62
       7
100
AcDbLine
 10
-66.43457189
 20
-131.21878559
 30
0.0
 11
-66.66178787
 21
-131.15700824
 31
0.0
  0
LINE
  5
D1
100
AcDbEntity
  8
LAYER0002
  6
CONTINUOUS
 62
       7
100
AcDbLine
 10
-66.66178787
 20
-131.15700824
 30
0.0
 11
-66.88934888
 21
-131.09779525
 31
0.0
  0
LINE
  5
D2
100
AcDbEntity
  8
LAYER0002
  6
CONTINUOUS
 62
       7
100
AcDbLine
 10
-66.88934888
 20
-131.09779525
 30
0.0
 11
-67.11730421
 21
-131.04151294
 31
0.0
  0
LINE
  5
D3
100
AcDbEntity
  8
LAYER0002
  6
CONTINUOUS
 62
       7
100
AcDbLine
 10
-67.11730421
 20
-131.04151294
 30
0.0
 11
-67.34570314
 21
-130.98852766
 31
0.0
  0
LINE
  5
D4
100
AcDbEntity
  8
LAYER0002
  6
CONTINUOUS
 62
       7
100
AcDbLine
 10
-67.34570314
 20
-130.98852766
 30
0.0
 11
-67.57459496
 21
-130.93920575
 31
0.0
  0
LINE
  5
D5
100
AcDbEntity
  8
LAYER0002
  6
CONTINUOUS
 62
       7
100
AcDbLine
 10
-67.57459496
 20
-130.93920575
 30
0.0
 11
-67.80402897
 21
-130.89391353
 31
0.0
  0
LINE
  5
D6
100
AcDbEntity
  8
LAYER0002
  6
CONTINUOUS
 62
       7
100
AcDbLine
 10
-67.80402897
 20
-130.89391353
 30
0.0
 11
-68.03405069
 21
-130.8529894
 31
0.0
  0
LINE
  5
D7
100
AcDbEntity
  8
LAYER0002
  6
CONTINUOUS
 62
       7
100
AcDbLine
 10
-68.03405069
 20
-130.8529894
 30
0.0
 11
-68.26465229
 21
-130.81637518
 31
0.0
  0
LINE
  5
D8
100
AcDbEntity
  8
LAYER0002
  6
CONTINUOUS
 62
       7
100
AcDbLine
 10
-68.26465229
 20
-130.81637518
 30
0.0
 11
-68.49578632
 21
-130.7837181
 31
0.0
  0
LINE
  5
D9
100
AcDbEntity
  8
LAYER0002
  6
CONTINUOUS
 62
       7
100
AcDbLine
 10
-68.49578632
 20
-130.7837181
 30
0.0
 11
-68.72740436
 21
-130.75465842
 31
0.0
  0
LINE
  5
DA
100
AcDbEntity
  8
LAYER0002
  6
CONTINUOUS
 62
       7
100
AcDbLine
 10
-68.72740436
 20
-130.75465842
 30
0.0
 11
-68.95945802
 21
-130.72883641
 31
0.0
  0
LINE
  5
DB
100
AcDbEntity
  8
LAYER0002
  6
CONTINUOUS
 62
       7
100
AcDbLine
 10
-68.95945802
 20
-130.72883641
 30
0.0
 11
-69.1918989
 21
-130.70589232
 31
0.0
  0
LINE
  5
DC
100
AcDbEntity
  8
LAYER0002
  6
CONTINUOUS
 62
       7
100
AcDbLine
 10
-69.1918989
 20
-130.70589232
 30
0.0
 11
-69.4246786
 21
-130.68546642
 31
0.0
  0
LINE
  5
DD
100
AcDbEntity
  8
LAYER0002
  6
CONTINUOUS
 62
       7
100
AcDbLine
 10
-69.4246786
 20
-130.68546642
 30
0.0
 11
-69.6577487
 21
-130.66719896
 31
0.0
  0
LINE
  5
DE
100
AcDbEntity
  8
LAYER0002
  6
CONTINUOUS
 62
       7
100
AcDbLine
 10
-69.6577487
 20
-130.66719896
 30
0.0
 11
-69.89106081
 21
-130.6507302
 31
0.0
  0
LINE
  5
DF
100
AcDbEntity
  8
LAYER0002
  6
CONTINUOUS
 62
       7
100
AcDbLine
 10
-69.89106081
 20
-130.6507302
 30
0.0
 11
-70.12456654
 21
-130.6357004
 31
0.0
  0
LINE
  5
E0
100
AcDbEntity
  8
LAYER0002
  6
CONTINUOUS
 62
       7
100
AcDbLine
 10
-70.12456654
 20
-130.6357004
 30
0.0
 11
-70.35821746
 21
-130.62174983
 31
0.0
  0
LINE
  5
E1
100
AcDbEntity
  8
LAYER0002
  6
CONTINUOUS
 62
       7
100
AcDbLine
 10
-70.35821746
 20
-130.62174983
 30
0.0
 11
-70.5919652
 21
-130.60851873
 31
0.0
  0
LINE
  5
E2
100
AcDbEntity
  8
LAYER0002
  6
CONTINUOUS
 62
       7
100
AcDbLine
 10
-70.5919652
 20
-130.60851873
 30
0.0
 11
-70.82576133
 21
-130.59564738
 31
0.0
  0
ENDBLK
  5
E3
100
AcDbEntity
  8
0
100
AcDbBlockEnd
  0
BLOCK
  5
E4
100
AcDbEntity
  8
0
100
AcDbBlockBegin
  2
GROUP_6
 70
       0
 10
0.0
 20
0.0
 30
0.0
  3
GROUP_6
  1

  0
LINE
  5
E5
100
AcDbEntity
  8
LAYER0002
  6
CONTINUOUS
 62
       7
100
AcDbLine
 10
-70.82576133
 20
-138.09564768
 30
0.0
 11
-70.63130492
 21
-138.09369245
 31
0.0
  0
LINE
  5
E6
100
AcDbEntity
  8
LAYER0002
  6
CONTINUOUS
 62
       7
100
AcDbLine
 10
-70.63130492
 20
-138.09369245
 30
0.0
 11
-70.43683959
 21
-138.09050182
 31
0.0
  0
LINE
  5
E7
100
AcDbEntity
  8
LAYER0002
  6
CONTINUOUS
 62
       7
100
AcDbLine
 10
-70.43683959
 20
-138.09050182
 30
0.0
 11
-70.24236157
 21
-138.08499028
 31
0.0
  0
LINE
  5
E8
100
AcDbEntity
  8
LAYER0002
  6
CONTINUOUS
 62
       7
100
AcDbLine
 10
-70.24236157
 20
-138.08499028
 30
0.0
 11
-70.04789503
 21
-138.0768905
 31
0.0
  0
LINE
  5
E9
100
AcDbEntity
  8
LAYER0002
  6
CONTINUOUS
 62
       7
100
AcDbLine
 10
-70.04789503
 20
-138.0768905
 30
0.0
 11
-69.85347367
 21
-138.06621287
 31
0.0
  0
LINE
  5
EA
100
AcDbEntity
  8
LAYER0002
  6
CONTINUOUS
 62
       7
100
AcDbLine
 10
-69.85347367
 20
-138.06621287
 30
0.0
 11
-69.65913119
 21
-138.05296797
 31
0.0
  0
LINE
  5
EB
100
AcDbEntity
  8
LAYER0002
  6
CONTINUOUS
 62
       7
100
AcDbLine
 10
-69.65913119
 20
-138.05296797
 30
0.0
 11
-69.46490128
 21
-138.03716642
 31
0.0
  0
LINE
  5
EC
100
AcDbEntity
  8
LAYER0002
  6
CONTINUOUS
 62
       7
100
AcDbLine
 10
-69.46490128
 20
-138.03716642
 30
0.0
 11
-69.27081764
 21
-138.01881882
 31
0.0
  0
LINE
  5
ED
100
AcDbEntity
  8
LAYER0002
  6
CONTINUOUS
 62
       7
100
AcDbLine
 10
-69.27081764
 20
-138.01881882
 30
0.0
 11
-69.07691396
 21
-137.99793577
 31
0.0
  0
LINE
  5
EE
100
AcDbEntity
  8
LAYER0002
  6
CONTINUOUS
 62
       7
100
AcDbLine
 10
-69.07691396
 20
-137.99793577
 30
0.0
 11
-68.88322395
 21
-137.97452788
 31
0.0
  0
LINE
  5
EF
100
AcDbEntity
  8
LAYER0002
  6
CONTINUOUS
 62
       7
100
AcDbLine
 10
-68.88322395
 20
-137.97452788
 30
0.0
 11
-68.6897813
 21
-137.94860574
 31
0.0
  0
LINE
  5
F0
100
AcDbEntity
  8
LAYER0002
  6
CONTINUOUS
 62
       7
100
AcDbLine
 10
-68.6897813
 20
-137.94860574
 30
0.0
 11
-68.49661971
 21
-137.92017997
 31
0.0
  0
LINE
  5
F1
100
AcDbEntity
  8
LAYER0002
  6
CONTINUOUS
 62
       7
100
AcDbLine
 10
-68.49661971
 20
-137.92017997
 30
0.0
 11
-68.30377287
 21
-137.88926116
 31
0.0
  0
LINE
  5
F2
100
AcDbEntity
  8
LAYER0002
  6
CONTINUOUS
 62
       7
100
AcDbLine
 10
-68.30377287
 20
-137.88926116
 30
0.0
 11
-68.11127448
 21
-137.85585993
 31
0.0
  0
LINE
  5
F3
100
AcDbEntity
  8
LAYER0002
  6
CONTINUOUS
 62
       7
100
AcDbLine
 10
-68.11127448
 20
-137.85585993
 30
0.0
 11
-67.91915824
 21
-137.81998686
 31
0.0
  0
LINE
  5
F4
100
AcDbEntity
  8
LAYER0002
  6
CONTINUOUS
 62
       7
100
AcDbLine
 10
-67.91915824
 20
-137.81998686
 30
0.0
 11
-67.72745783
 21
-137.78165259
 31
0.0
  0
LINE
  5
F5
100
AcDbEntity
  8
LAYER0002
  6
CONTINUOUS
 62
       7
100
AcDbLine
 10
-67.72745783
 20
-137.78165259
 30
0.0
 11
-67.53619338
 21
-137.74090166
 31
0.0
  0
LINE
  5
F6
100
AcDbEntity
  8
LAYER0002
  6
CONTINUOUS
 62
       7
100
AcDbLine
 10
-67.53619338
 20
-137.74090166
 30
0.0
 11
-67.34534172
 21
-137.69788675
 31
0.0
  0
LINE
  5
F7
100
AcDbEntity
  8
LAYER0002
  6
CONTINUOUS
 62
       7
100
AcDbLine
 10
-67.34534172
 20
-137.69788675
 30
0.0
 11
-67.15487109
 21
-137.65278201
 31
0.0
  0
LINE
  5
F8
100
AcDbEntity
  8
LAYER0002
  6
CONTINUOUS
 62
       7
100
AcDbLine
 10
-67.15487109
 20
-137.65278201
 30
0.0
 11
-66.96474976
 21
-137.60576159
 31
0.0
  0
LINE
  5
F9
100
AcDbEntity
  8
LAYER0002
  6
CONTINUOUS
 62
       7
100
AcDbLine
 10
-66.96474976
 20
-137.60576159
 30
0.0
 11
-66.77494595
 21
-137.55699965
 31
0.0
  0
LINE
  5
FA
100
AcDbEntity
  8
LAYER0002
  6
CONTINUOUS
 62
       7
100
AcDbLine
 10
-66.77494595
 20
-137.55699965
 30
0.0
 11
-66.58542792
 21
-137.50667034
 31
0.0
  0
LINE
  5
FB
100
AcDbEntity
  8
LAYER0002
  6
CONTINUOUS
 62
       7
100
AcDbLine
 10
-66.58542792
 20
-137.50667034
 30
0.0
 11
-66.39616391
 21
-137.45494781
 31
0.0
  0
LINE
  5
FC
100
AcDbEntity
  8
LAYER0002
  6
CONTINUOUS
 62
       7
100
AcDbLine
 10
-66.39616391
 20
-137.45494781
 30
0.0
 11
-66.20712218
 21
-137.40200622
 31
0.0
  0
LINE
  5
FD
100
AcDbEntity
  8
LAYER0002
  6
CONTINUOUS
 62
       7
100
AcDbLine
 10
-66.20712218
 20
-137.40200622
 30
0.0
 11
-66.01827097
 21
-137.34801971
 31
0.0
  0
LINE
  5
FE
100
AcDbEntity
  8
LAYER0002
  6
CONTINUOUS
 62
       7
100
AcDbLine
 10
-66.01827097
 20
-137.34801971
 30
0.0
 11
-65.82957852
 21
-137.29316243
 31
0.0
  0
LINE
  5
FF
100
AcDbEntity
  8
LAYER0002
  6
CONTINUOUS
 62
       7
100
AcDbLine
 10
-65.82957852
 20
-137.29316243
 30
0.0
 11
-65.64101308
 21
-137.23760855
 31
0.0
  0
LINE
  5
100
100
AcDbEntity
  8
LAYER0002
  6
CONTINUOUS
 62
       7
100
AcDbLine
 10
-65.64101308
 20
-137.23760855
 30
0.0
 11
-65.45254291
 21
-137.18153221
 31
0.0
  0
LINE
  5
101
100
AcDbEntity
  8
LAYER0002
  6
CONTINUOUS
 62
       7
100
AcDbLine
 10
-65.45254291
 20
-137.18153221
 30
0.0
 11
-65.26413624
 21
-137.12510757
 31
0.0
  0
LINE
  5
102
100
AcDbEntity
  8
LAYER0002
  6
CONTINUOUS
 62
       7
100
AcDbLine
 10
-65.26413624
 20
-137.12510757
 30
0.0
 11
-65.07576132
 21
-137.06850877
 31
0.0
  0
ENDBLK
  5
103
100
AcDbEntity
  8
0
100
AcDbBlockEnd
  0
BLOCK
  5
104
100
AcDbEntity
  8
0
100
AcDbBlockBegin
  2
GROUP_7
 70
       0
 10
0.0
 20
0.0
 30
0.0
  3
GROUP_7
  1

  0
LINE
  5
105
100
AcDbEntity
  8
LAYER0002
  6
CONTINUOUS
 62
       7
100
AcDbLine
 10
-76.57576134
 20
-123.3685097
 30
0.0
 11
-76.34958047
 21
-123.43798014
 31
0.0
  0
LINE
  5
106
100
AcDbEntity
  8
LAYER0002
  6
CONTINUOUS
 62
       7
100
AcDbLine
 10
-76.34958047
 20
-123.43798014
 30
0.0
 11
-76.12335032
 21
-123.50708425
 31
0.0
  0
LINE
  5
107
100
AcDbEntity
  8
LAYER0002
  6
CONTINUOUS
 62
       7
100
AcDbLine
 10
-76.12335032
 20
-123.50708425
 30
0.0
 11
-75.89702158
 21
-123.57545568
 31
0.0
  0
LINE
  5
108
100
AcDbEntity
  8
LAYER0002
  6
CONTINUOUS
 62
       7
100
AcDbLine
 10
-75.89702158
 20
-123.57545568
 30
0.0
 11
-75.67054497
 21
-123.6427281
 31
0.0
  0
LINE
  5
109
100
AcDbEntity
  8
LAYER0002
  6
CONTINUOUS
 62
       7
100
AcDbLine
 10
-75.67054497
 20
-123.6427281
 30
0.0
 11
-75.44387121
 21
-123.70853517
 31
0.0
  0
LINE
  5
10A
100
AcDbEntity
  8
LAYER0002
  6
CONTINUOUS
 62
       7
100
AcDbLine
 10
-75.44387121
 20
-123.70853517
 30
0.0
 11
-75.21695099
 21
-123.77251055
 31
0.0
  0
LINE
  5
10B
100
AcDbEntity
  8
LAYER0002
  6
CONTINUOUS
 62
       7
100
AcDbLine
 10
-75.21695099
 20
-123.77251055
 30
0.0
 11
-74.98973503
 21
-123.8342879
 31
0.0
  0
LINE
  5
10C
100
AcDbEntity
  8
LAYER0002
  6
CONTINUOUS
 62
       7
100
AcDbLine
 10
-74.98973503
 20
-123.8342879
 30
0.0
 11
-74.76217405
 21
-123.89350089
 31
0.0
  0
LINE
  5
10D
100
AcDbEntity
  8
LAYER0002
  6
CONTINUOUS
 62
       7
100
AcDbLine
 10
-74.76217405
 20
-123.89350089
 30
0.0
 11
-74.53421875
 21
-123.94978318
 31
0.0
  0
LINE
  5
10E
100
AcDbEntity
  8
LAYER0002
  6
CONTINUOUS
 62
       7
100
AcDbLine
 10
-74.53421875
 20
-123.94978318
 30
0.0
 11
-74.30581983
 21
-124.00276843
 31
0.0
  0
LINE
  5
10F
100
AcDbEntity
  8
LAYER0002
  6
CONTINUOUS
 62
       7
100
AcDbLine
 10
-74.30581983
 20
-124.00276843
 30
0.0
 11
-74.07692802
 21
-124.0520903
 31
0.0
  0
LINE
  5
110
100
AcDbEntity
  8
LAYER0002
  6
CONTINUOUS
 62
       7
100
AcDbLine
 10
-74.07692802
 20
-124.0520903
 30
0.0
 11
-73.84749402
 21
-124.09738245
 31
0.0
  0
LINE
  5
111
100
AcDbEntity
  8
LAYER0002
  6
CONTINUOUS
 62
       7
100
AcDbLine
 10
-73.84749402
 20
-124.09738245
 30
0.0
 11
-73.6174723
 21
-124.13830651
 31
0.0
  0
LINE
  5
112
100
AcDbEntity
  8
LAYER0002
  6
CONTINUOUS
 62
       7
100
AcDbLine
 10
-73.6174723
 20
-124.13830651
 30
0.0
 11
-73.38687069
 21
-124.17492065
 31
0.0
  0
LINE
  5
113
100
AcDbEntity
  8
LAYER0002
  6
CONTINUOUS
 62
       7
100
AcDbLine
 10
-73.38687069
 20
-124.17492065
 30
0.0
 11
-73.15573665
 21
-124.20757762
 31
0.0
  0
LINE
  5
114
100
AcDbEntity
  8
LAYER0002
  6
CONTINUOUS
 62
       7
100
AcDbLine
 10
-73.15573665
 20
-124.20757762
 30
0.0
 11
-72.92411859
 21
-124.23663718
 31
0.0
  0
LINE
  5
115
100
AcDbEntity
  8
LAYER0002
  6
CONTINUOUS
 62
       7
100
AcDbLine
 10
-72.92411859
 20
-124.23663718
 30
0.0
 11
-72.6920649
 21
-124.26245906
 31
0.0
  0
LINE
  5
116
100
AcDbEntity
  8
LAYER0002
  6
CONTINUOUS
 62
       7
100
AcDbLine
 10
-72.6920649
 20
-124.26245906
 30
0.0
 11
-72.459624
 21
-124.285403
 31
0.0
  0
LINE
  5
117
100
AcDbEntity
  8
LAYER0002
  6
CONTINUOUS
 62
       7
100
AcDbLine
 10
-72.459624
 20
-124.285403
 30
0.0
 11
-72.22684428
 21
-124.30582875
 31
0.0
  0
LINE
  5
118
100
AcDbEntity
  8
LAYER0002
  6
CONTINUOUS
 62
       7
100
AcDbLine
 10
-72.22684428
 20
-124.30582875
 30
0.0
 11
-71.99377414
 21
-124.32409605
 31
0.0
  0
LINE
  5
119
100
AcDbEntity
  8
LAYER0002
  6
CONTINUOUS
 62
       7
100
AcDbLine
 10
-71.99377414
 20
-124.32409605
 30
0.0
 11
-71.760462
 21
-124.34056464
 31
0.0
  0
LINE
  5
11A
100
AcDbEntity
  8
LAYER0002
  6
CONTINUOUS
 62
       7
100
AcDbLine
 10
-71.760462
 20
-124.34056464
 30
0.0
 11
-71.52695624
 21
-124.35559426
 31
0.0
  0
LINE
  5
11B
100
AcDbEntity
  8
LAYER0002
  6
CONTINUOUS
 62
       7
100
AcDbLine
 10
-71.52695624
 20
-124.35559426
 30
0.0
 11
-71.29330527
 21
-124.36954465
 31
0.0
  0
LINE
  5
11C
100
AcDbEntity
  8
LAYER0002
  6
CONTINUOUS
 62
       7
100
AcDbLine
 10
-71.29330527
 20
-124.36954465
 30
0.0
 11
-71.0595575
 21
-124.38277557
 31
0.0
  0
LINE
  5
11D
100
AcDbEntity
  8
LAYER0002
  6
CONTINUOUS
 62
       7
100
AcDbLine
 10
-71.0595575
 20
-124.38277557
 30
0.0
 11
-70.82576133
 21
-124.39564674
 31
0.0
  0
ENDBLK
  5
11E
100
AcDbEntity
  8
0
100
AcDbBlockEnd
  0
BLOCK
  5
11F
100
AcDbEntity
  8
0
100
AcDbBlockBegin
  2
GROUP_8
 70
       0
 10
0.0
 20
0.0
 30
0.0
  3
GROUP_8
  1

  0
LINE
  5
120
100
AcDbEntity
  8
LAYER0002
  6
CONTINUOUS
 62
       7
100
AcDbLine
 10
-70.82576133
 20
-116.89564644
 30
0.0
 11
-71.02021792
 21
-116.8976026
 31
0.0
  0
LINE
  5
121
100
AcDbEntity
  8
LAYER0002
  6
CONTINUOUS
 62
       7
100
AcDbLine
 10
-71.02021792
 20
-116.8976026
 30
0.0
 11
-71.21468341
 21
-116.90079409
 31
0.0
  0
LINE
  5
122
100
AcDbEntity
  8
LAYER0002
  6
CONTINUOUS
 62
       7
100
AcDbLine
 10
-71.21468341
 20
-116.90079409
 30
0.0
 11
-71.40916156
 21
-116.90630632
 31
0.0
  0
LINE
  5
123
100
AcDbEntity
  8
LAYER0002
  6
CONTINUOUS
 62
       7
100
AcDbLine
 10
-71.40916156
 20
-116.90630632
 30
0.0
 11
-71.60362819
 21
-116.91440661
 31
0.0
  0
LINE
  5
124
100
AcDbEntity
  8
LAYER0002
  6
CONTINUOUS
 62
       7
100
AcDbLine
 10
-71.60362819
 20
-116.91440661
 30
0.0
 11
-71.79804961
 21
-116.92508461
 31
0.0
  0
LINE
  5
125
100
AcDbEntity
  8
LAYER0002
  6
CONTINUOUS
 62
       7
100
AcDbLine
 10
-71.79804961
 20
-116.92508461
 30
0.0
 11
-71.99239212
 21
-116.93832973
 31
0.0
  0
LINE
  5
126
100
AcDbEntity
  8
LAYER0002
  6
CONTINUOUS
 62
       7
100
AcDbLine
 10
-71.99239212
 20
-116.93832973
 30
0.0
 11
-72.18662203
 21
-116.95413138
 31
0.0
  0
LINE
  5
127
100
AcDbEntity
  8
LAYER0002
  6
CONTINUOUS
 62
       7
100
AcDbLine
 10
-72.18662203
 20
-116.95413138
 30
0.0
 11
-72.38070565
 21
-116.97247898
 31
0.0
  0
LINE
  5
128
100
AcDbEntity
  8
LAYER0002
  6
CONTINUOUS
 62
       7
100
AcDbLine
 10
-72.38070565
 20
-116.97247898
 30
0.0
 11
-72.57460928
 21
-116.99336194
 31
0.0
  0
LINE
  5
129
100
AcDbEntity
  8
LAYER0002
  6
CONTINUOUS
 62
       7
100
AcDbLine
 10
-72.57460928
 20
-116.99336194
 30
0.0
 11
-72.76829924
 21
-117.01676967
 31
0.0
  0
LINE
  5
12A
100
AcDbEntity
  8
LAYER0002
  6
CONTINUOUS
 62
       7
100
AcDbLine
 10
-72.76829924
 20
-117.01676967
 30
0.0
 11
-72.96174183
 21
-117.04269159
 31
0.0
  0
LINE
  5
12B
100
AcDbEntity
  8
LAYER0002
  6
CONTINUOUS
 62
       7
100
AcDbLine
 10
-72.96174183
 20
-117.04269159
 30
0.0
 11
-73.15490335
 21
-117.07111711
 31
0.0
  0
LINE
  5
12C
100
AcDbEntity
  8
LAYER0002
  6
CONTINUOUS
 62
       7
100
AcDbLine
 10
-73.15490335
 20
-117.07111711
 30
0.0
 11
-73.34775011
 21
-117.10203564
 31
0.0
  0
LINE
  5
12D
100
AcDbEntity
  8
LAYER0002
  6
CONTINUOUS
 62
       7
100
AcDbLine
 10
-73.34775011
 20
-117.10203564
 30
0.0
 11
-73.54024843
 21
-117.1354366
 31
0.0
  0
LINE
  5
12E
100
AcDbEntity
  8
LAYER0002
  6
CONTINUOUS
 62
       7
100
AcDbLine
 10
-73.54024843
 20
-117.1354366
 30
0.0
 11
-73.7323646
 21
-117.1713094
 31
0.0
  0
LINE
  5
12F
100
AcDbEntity
  8
LAYER0002
  6
CONTINUOUS
 62
       7
100
AcDbLine
 10
-73.7323646
 20
-117.1713094
 30
0.0
 11
-73.92406493
 21
-117.20964345
 31
0.0
  0
LINE
  5
130
100
AcDbEntity
  8
LAYER0002
  6
CONTINUOUS
 62
       7
100
AcDbLine
 10
-73.92406493
 20
-117.20964345
 30
0.0
 11
-74.11532933
 21
-117.25039419
 31
0.0
  0
LINE
  5
131
100
AcDbEntity
  8
LAYER0002
  6
CONTINUOUS
 62
       7
100
AcDbLine
 10
-74.11532933
 20
-117.25039419
 30
0.0
 11
-74.30618095
 21
-117.29340895
 31
0.0
  0
LINE
  5
132
100
AcDbEntity
  8
LAYER0002
  6
CONTINUOUS
 62
       7
100
AcDbLine
 10
-74.30618095
 20
-117.29340895
 30
0.0
 11
-74.49665154
 21
-117.33851357
 31
0.0
  0
LINE
  5
133
100
AcDbEntity
  8
LAYER0002
  6
CONTINUOUS
 62
       7
100
AcDbLine
 10
-74.49665154
 20
-117.33851357
 30
0.0
 11
-74.68677286
 21
-117.38553391
 31
0.0
  0
LINE
  5
134
100
AcDbEntity
  8
LAYER0002
  6
CONTINUOUS
 62
       7
100
AcDbLine
 10
-74.68677286
 20
-117.38553391
 30
0.0
 11
-74.87657665
 21
-117.43429581
 31
0.0
  0
LINE
  5
135
100
AcDbEntity
  8
LAYER0002
  6
CONTINUOUS
 62
       7
100
AcDbLine
 10
-74.87657665
 20
-117.43429581
 30
0.0
 11
-75.06609467
 21
-117.4846251
 31
0.0
  0
LINE
  5
136
100
AcDbEntity
  8
LAYER0002
  6
CONTINUOUS
 62
       7
100
AcDbLine
 10
-75.06609467
 20
-117.4846251
 30
0.0
 11
-75.25535867
 21
-117.53634764
 31
0.0
  0
LINE
  5
137
100
AcDbEntity
  8
LAYER0002
  6
CONTINUOUS
 62
       7
100
AcDbLine
 10
-75.25535867
 20
-117.53634764
 30
0.0
 11
-75.4444004
 21
-117.58928927
 31
0.0
  0
LINE
  5
138
100
AcDbEntity
  8
LAYER0002
  6
CONTINUOUS
 62
       7
100
AcDbLine
 10
-75.4444004
 20
-117.58928927
 30
0.0
 11
-75.63325162
 21
-117.64327584
 31
0.0
  0
LINE
  5
139
100
AcDbEntity
  8
LAYER0002
  6
CONTINUOUS
 62
       7
100
AcDbLine
 10
-75.63325162
 20
-117.64327584
 30
0.0
 11
-75.82194408
 21
-117.69813318
 31
0.0
  0
LINE
  5
13A
100
AcDbEntity
  8
LAYER0002
  6
CONTINUOUS
 62
       7
100
AcDbLine
 10
-75.82194408
 20
-117.69813318
 30
0.0
 11
-76.01050953
 21
-117.75368714
 31
0.0
  0
LINE
  5
13B
100
AcDbEntity
  8
LAYER0002
  6
CONTINUOUS
 62
       7
100
AcDbLine
 10
-76.01050953
 20
-117.75368714
 30
0.0
 11
-76.19897972
 21
-117.80976357
 31
0.0
  0
LINE
  5
13C
100
AcDbEntity
  8
LAYER0002
  6
CONTINUOUS
 62
       7
100
AcDbLine
 10
-76.19897972
 20
-117.80976357
 30
0.0
 11
-76.38738641
 21
-117.86618831
 31
0.0
  0
LINE
  5
13D
100
AcDbEntity
  8
LAYER0002
  6
CONTINUOUS
 62
       7
100
AcDbLine
 10
-76.38738641
 20
-117.86618831
 30
0.0
 11
-76.57576134
 21
-117.9227872
 31
0.0
  0
ENDBLK
  5
13E
100
AcDbEntity
  8
0
100
AcDbBlockEnd
  0
BLOCK
  5
13F
100
AcDbEntity
  8
0
100
AcDbBlockBegin
  2
GROUP_9
 70
       0
 10
0.0
 20
0.0
 30
0.0
  3
GROUP_9
  1

  0
LINE
  5
140
100
AcDbEntity
  8
LAYER0002
  6
CONTINUOUS
 62
       7
100
AcDbLine
 10
-76.57576134
 20
-117.9227872
 30
0.0
 11
-76.80194222
 21
-117.85331683
 31
0.0
  0
LINE
  5
141
100
AcDbEntity
  8
LAYER0002
  6
CONTINUOUS
 62
       7
100
AcDbLine
 10
-76.80194222
 20
-117.85331683
 30
0.0
 11
-77.0281724
 21
-117.78421279
 31
0.0
  0
LINE
  5
142
100
AcDbEntity
  8
LAYER0002
  6
CONTINUOUS
 62
       7
100
AcDbLine
 10
-77.0281724
 20
-117.78421279
 30
0.0
 11
-77.25450115
 21
-117.71584142
 31
0.0
  0
LINE
  5
143
100
AcDbEntity
  8
LAYER0002
  6
CONTINUOUS
 62
       7
100
AcDbLine
 10
-77.25450115
 20
-117.71584142
 30
0.0
 11
-77.48097777
 21
-117.64856905
 31
0.0
  0
LINE
  5
144
100
AcDbEntity
  8
LAYER0002
  6
CONTINUOUS
 62
       7
100
AcDbLine
 10
-77.48097777
 20
-117.64856905
 30
0.0
 11
-77.70765155
 21
-117.58276202
 31
0.0
  0
LINE
  5
145
100
AcDbEntity
  8
LAYER0002
  6
CONTINUOUS
 62
       7
100
AcDbLine
 10
-77.70765155
 20
-117.58276202
 30
0.0
 11
-77.93457178
 21
-117.51878667
 31
0.0
  0
LINE
  5
146
100
AcDbEntity
  8
LAYER0002
  6
CONTINUOUS
 62
       7
100
AcDbLine
 10
-77.93457178
 20
-117.51878667
 30
0.0
 11
-78.16178775
 21
-117.45700933
 31
0.0
  0
LINE
  5
147
100
AcDbEntity
  8
LAYER0002
  6
CONTINUOUS
 62
       7
100
AcDbLine
 10
-78.16178775
 20
-117.45700933
 30
0.0
 11
-78.38934874
 21
-117.39779633
 31
0.0
  0
LINE
  5
148
100
AcDbEntity
  8
LAYER0002
  6
CONTINUOUS
 62
       7
100
AcDbLine
 10
-78.38934874
 20
-117.39779633
 30
0.0
 11
-78.61730405
 21
-117.34151401
 31
0.0
  0
LINE
  5
149
100
AcDbEntity
  8
LAYER0002
  6
CONTINUOUS
 62
       7
100
AcDbLine
 10
-78.61730405
 20
-117.34151401
 30
0.0
 11
-78.84570297
 21
-117.28852871
 31
0.0
  0
LINE
  5
14A
100
AcDbEntity
  8
LAYER0002
  6
CONTINUOUS
 62
       7
100
AcDbLine
 10
-78.84570297
 20
-117.28852871
 30
0.0
 11
-79.07459479
 21
-117.23920675
 31
0.0
  0
LINE
  5
14B
100
AcDbEntity
  8
LAYER0002
  6
CONTINUOUS
 62
       7
100
AcDbLine
 10
-79.07459479
 20
-117.23920675
 30
0.0
 11
-79.3040288
 21
-117.19391448
 31
0.0
  0
LINE
  5
14C
100
AcDbEntity
  8
LAYER0002
  6
CONTINUOUS
 62
       7
100
AcDbLine
 10
-79.3040288
 20
-117.19391448
 30
0.0
 11
-79.53405052
 21
-117.15299027
 31
0.0
  0
LINE
  5
14D
100
AcDbEntity
  8
LAYER0002
  6
CONTINUOUS
 62
       7
100
AcDbLine
 10
-79.53405052
 20
-117.15299027
 30
0.0
 11
-79.76465212
 21
-117.11637595
 31
0.0
  0
LINE
  5
14E
100
AcDbEntity
  8
LAYER0002
  6
CONTINUOUS
 62
       7
100
AcDbLine
 10
-79.76465212
 20
-117.11637595
 30
0.0
 11
-79.99578616
 21
-117.08371876
 31
0.0
  0
LINE
  5
14F
100
AcDbEntity
  8
LAYER0002
  6
CONTINUOUS
 62
       7
100
AcDbLine
 10
-79.99578616
 20
-117.08371876
 30
0.0
 11
-80.22740421
 21
-117.05465897
 31
0.0
  0
LINE
  5
150
100
AcDbEntity
  8
LAYER0002
  6
CONTINUOUS
 62
       7
100
AcDbLine
 10
-80.22740421
 20
-117.05465897
 30
0.0
 11
-80.45945789
 21
-117.02883682
 31
0.0
  0
LINE
  5
151
100
AcDbEntity
  8
LAYER0002
  6
CONTINUOUS
 62
       7
100
AcDbLine
 10
-80.45945789
 20
-117.02883682
 30
0.0
 11
-80.69189878
 21
-117.00589259
 31
0.0
  0
LINE
  5
152
100
AcDbEntity
  8
LAYER0002
  6
CONTINUOUS
 62
       7
100
AcDbLine
 10
-80.69189878
 20
-117.00589259
 30
0.0
 11
-80.92467849
 21
-116.98546653
 31
0.0
  0
LINE
  5
153
100
AcDbEntity
  8
LAYER0002
  6
CONTINUOUS
 62
       7
100
AcDbLine
 10
-80.92467849
 20
-116.98546653
 30
0.0
 11
-81.15774861
 21
-116.96719891
 31
0.0
  0
LINE
  5
154
100
AcDbEntity
  8
LAYER0002
  6
CONTINUOUS
 62
       7
100
AcDbLine
 10
-81.15774861
 20
-116.96719891
 30
0.0
 11
-81.39106075
 21
-116.95072998
 31
0.0
  0
LINE
  5
155
100
AcDbEntity
  8
LAYER0002
  6
CONTINUOUS
 62
       7
100
AcDbLine
 10
-81.39106075
 20
-116.95072998
 30
0.0
 11
-81.62456649
 21
-116.93570001
 31
0.0
  0
LINE
  5
156
100
AcDbEntity
  8
LAYER0002
  6
CONTINUOUS
 62
       7
100
AcDbLine
 10
-81.62456649
 20
-116.93570001
 30
0.0
 11
-81.85821744
 21
-116.92174925
 31
0.0
  0
LINE
  5
157
100
AcDbEntity
  8
LAYER0002
  6
CONTINUOUS
 62
       7
100
AcDbLine
 10
-81.85821744
 20
-116.92174925
 30
0.0
 11
-82.0919652
 21
-116.90851798
 31
0.0
  0
LINE
  5
158
100
AcDbEntity
  8
LAYER0002
  6
CONTINUOUS
 62
       7
100
AcDbLine
 10
-82.0919652
 20
-116.90851798
 30
0.0
 11
-82.32576135
 21
-116.89564644
 31
0.0
  0
ENDBLK
  5
159
100
AcDbEntity
  8
0
100
AcDbBlockEnd
  0
BLOCK
  5
15A
100
AcDbEntity
  8
0
100
AcDbBlockBegin
  2
GROUP_10
 70
       0
 10
0.0
 20
0.0
 30
0.0
  3
GROUP_10
  1

  0
LINE
  5
15B
100
AcDbEntity
  8
LAYER0002
  6
CONTINUOUS
 62
       7
100
AcDbLine
 10
-82.32576135
 20
-116.89564644
 30
0.0
 11
-82.52021775
 21
-116.8976026
 31
0.0
  0
LINE
  5
15C
100
AcDbEntity
  8
LAYER0002
  6
CONTINUOUS
 62
       7
100
AcDbLine
 10
-82.52021775
 20
-116.8976026
 30
0.0
 11
-82.71468307
 21
-116.90079408
 31
0.0
  0
LINE
  5
15D
100
AcDbEntity
  8
LAYER0002
  6
CONTINUOUS
 62
       7
100
AcDbLine
 10
-82.71468307
 20
-116.90079408
 30
0.0
 11
-82.90916109
 21
-116.9063063
 31
0.0
  0
LINE
  5
15E
100
AcDbEntity
  8
LAYER0002
  6
CONTINUOUS
 62
       7
100
AcDbLine
 10
-82.90916109
 20
-116.9063063
 30
0.0
 11
-83.10362763
 21
-116.91440659
 31
0.0
  0
LINE
  5
15F
100
AcDbEntity
  8
LAYER0002
  6
CONTINUOUS
 62
       7
100
AcDbLine
 10
-83.10362763
 20
-116.91440659
 30
0.0
 11
-83.29804898
 21
-116.92508458
 31
0.0
  0
LINE
  5
160
100
AcDbEntity
  8
LAYER0002
  6
CONTINUOUS
 62
       7
100
AcDbLine
 10
-83.29804898
 20
-116.92508458
 30
0.0
 11
-83.49239146
 21
-116.9383297
 31
0.0
  0
LINE
  5
161
100
AcDbEntity
  8
LAYER0002
  6
CONTINUOUS
 62
       7
100
AcDbLine
 10
-83.49239146
 20
-116.9383297
 30
0.0
 11
-83.68662137
 21
-116.95413134
 31
0.0
  0
LINE
  5
162
100
AcDbEntity
  8
LAYER0002
  6
CONTINUOUS
 62
       7
100
AcDbLine
 10
-83.68662137
 20
-116.95413134
 30
0.0
 11
-83.88070501
 21
-116.97247894
 31
0.0
  0
LINE
  5
163
100
AcDbEntity
  8
LAYER0002
  6
CONTINUOUS
 62
       7
100
AcDbLine
 10
-83.88070501
 20
-116.97247894
 30
0.0
 11
-84.07460869
 21
-116.99336189
 31
0.0
  0
LINE
  5
164
100
AcDbEntity
  8
LAYER0002
  6
CONTINUOUS
 62
       7
100
AcDbLine
 10
-84.07460869
 20
-116.99336189
 30
0.0
 11
-84.2682987
 21
-117.01676962
 31
0.0
  0
LINE
  5
165
100
AcDbEntity
  8
LAYER0002
  6
CONTINUOUS
 62
       7
100
AcDbLine
 10
-84.2682987
 20
-117.01676962
 30
0.0
 11
-84.46174136
 21
-117.04269153
 31
0.0
  0
LINE
  5
166
100
AcDbEntity
  8
LAYER0002
  6
CONTINUOUS
 62
       7
100
AcDbLine
 10
-84.46174136
 20
-117.04269153
 30
0.0
 11
-84.65490295
 21
-117.07111705
 31
0.0
  0
LINE
  5
167
100
AcDbEntity
  8
LAYER0002
  6
CONTINUOUS
 62
       7
100
AcDbLine
 10
-84.65490295
 20
-117.07111705
 30
0.0
 11
-84.8477498
 21
-117.10203558
 31
0.0
  0
LINE
  5
168
100
AcDbEntity
  8
LAYER0002
  6
CONTINUOUS
 62
       7
100
AcDbLine
 10
-84.8477498
 20
-117.10203558
 30
0.0
 11
-85.04024819
 21
-117.13543653
 31
0.0
  0
LINE
  5
169
100
AcDbEntity
  8
LAYER0002
  6
CONTINUOUS
 62
       7
100
AcDbLine
 10
-85.04024819
 20
-117.13543653
 30
0.0
 11
-85.23236443
 21
-117.17130933
 31
0.0
  0
LINE
  5
16A
100
AcDbEntity
  8
LAYER0002
  6
CONTINUOUS
 62
       7
100
AcDbLine
 10
-85.23236443
 20
-117.17130933
 30
0.0
 11
-85.42406484
 21
-117.20964337
 31
0.0
  0
LINE
  5
16B
100
AcDbEntity
  8
LAYER0002
  6
CONTINUOUS
 62
       7
100
AcDbLine
 10
-85.42406484
 20
-117.20964337
 30
0.0
 11
-85.61532929
 21
-117.25039411
 31
0.0
  0
LINE
  5
16C
100
AcDbEntity
  8
LAYER0002
  6
CONTINUOUS
 62
       7
100
AcDbLine
 10
-85.61532929
 20
-117.25039411
 30
0.0
 11
-85.80618096
 21
-117.29340887
 31
0.0
  0
LINE
  5
16D
100
AcDbEntity
  8
LAYER0002
  6
CONTINUOUS
 62
       7
100
AcDbLine
 10
-85.80618096
 20
-117.29340887
 30
0.0
 11
-85.99665159
 21
-117.3385135
 31
0.0
  0
LINE
  5
16E
100
AcDbEntity
  8
LAYER0002
  6
CONTINUOUS
 62
       7
100
AcDbLine
 10
-85.99665159
 20
-117.3385135
 30
0.0
 11
-86.18677293
 21
-117.38553385
 31
0.0
  0
LINE
  5
16F
100
AcDbEntity
  8
LAYER0002
  6
CONTINUOUS
 62
       7
100
AcDbLine
 10
-86.18677293
 20
-117.38553385
 30
0.0
 11
-86.37657674
 21
-117.43429575
 31
0.0
  0
LINE
  5
170
100
AcDbEntity
  8
LAYER0002
  6
CONTINUOUS
 62
       7
100
AcDbLine
 10
-86.37657674
 20
-117.43429575
 30
0.0
 11
-86.56609477
 21
-117.48462505
 31
0.0
  0
LINE
  5
171
100
AcDbEntity
  8
LAYER0002
  6
CONTINUOUS
 62
       7
100
AcDbLine
 10
-86.56609477
 20
-117.48462505
 30
0.0
 11
-86.75535877
 21
-117.53634759
 31
0.0
  0
LINE
  5
172
100
AcDbEntity
  8
LAYER0002
  6
CONTINUOUS
 62
       7
100
AcDbLine
 10
-86.75535877
 20
-117.53634759
 30
0.0
 11
-86.94440051
 21
-117.58928923
 31
0.0
  0
LINE
  5
173
100
AcDbEntity
  8
LAYER0002
  6
CONTINUOUS
 62
       7
100
AcDbLine
 10
-86.94440051
 20
-117.58928923
 30
0.0
 11
-87.13325172
 21
-117.6432758
 31
0.0
  0
LINE
  5
174
100
AcDbEntity
  8
LAYER0002
  6
CONTINUOUS
 62
       7
100
AcDbLine
 10
-87.13325172
 20
-117.6432758
 30
0.0
 11
-87.32194417
 21
-117.69813314
 31
0.0
  0
LINE
  5
175
100
AcDbEntity
  8
LAYER0002
  6
CONTINUOUS
 62
       7
100
AcDbLine
 10
-87.32194417
 20
-117.69813314
 30
0.0
 11
-87.5105096
 21
-117.75368711
 31
0.0
  0
LINE
  5
176
100
AcDbEntity
  8
LAYER0002
  6
CONTINUOUS
 62
       7
100
AcDbLine
 10
-87.5105096
 20
-117.75368711
 30
0.0
 11
-87.69897978
 21
-117.80976355
 31
0.0
  0
LINE
  5
177
100
AcDbEntity
  8
LAYER0002
  6
CONTINUOUS
 62
       7
100
AcDbLine
 10
-87.69897978
 20
-117.80976355
 30
0.0
 11
-87.88738645
 21
-117.8661883
 31
0.0
  0
LINE
  5
178
100
AcDbEntity
  8
LAYER0002
  6
CONTINUOUS
 62
       7
100
AcDbLine
 10
-87.88738645
 20
-117.8661883
 30
0.0
 11
-88.07576136
 21
-117.9227872
 31
0.0
  0
ENDBLK
  5
179
100
AcDbEntity
  8
0
100
AcDbBlockEnd
  0
BLOCK
  5
17A
100
AcDbEntity
  8
0
100
AcDbBlockBegin
  2
GROUP_11
 70
       0
 10
0.0
 20
0.0
 30
0.0
  3
GROUP_11
  1

  0
LINE
  5
17B
100
AcDbEntity
  8
LAYER0002
  6
CONTINUOUS
 62
       7
100
AcDbLine
 10
-88.07576136
 20
-123.3685097
 30
0.0
 11
-87.84958046
 21
-123.43798014
 31
0.0
  0
LINE
  5
17C
100
AcDbEntity
  8
LAYER0002
  6
CONTINUOUS
 62
       7
100
AcDbLine
 10
-87.84958046
 20
-123.43798014
 30
0.0
 11
-87.62335028
 21
-123.50708425
 31
0.0
  0
LINE
  5
17D
100
AcDbEntity
  8
LAYER0002
  6
CONTINUOUS
 62
       7
100
AcDbLine
 10
-87.62335028
 20
-123.50708425
 30
0.0
 11
-87.39702151
 21
-123.57545568
 31
0.0
  0
LINE
  5
17E
100
AcDbEntity
  8
LAYER0002
  6
CONTINUOUS
 62
       7
100
AcDbLine
 10
-87.39702151
 20
-123.57545568
 30
0.0
 11
-87.17054487
 21
-123.6427281
 31
0.0
  0
LINE
  5
17F
100
AcDbEntity
  8
LAYER0002
  6
CONTINUOUS
 62
       7
100
AcDbLine
 10
-87.17054487
 20
-123.6427281
 30
0.0
 11
-86.94387108
 21
-123.70853517
 31
0.0
  0
LINE
  5
180
100
AcDbEntity
  8
LAYER0002
  6
CONTINUOUS
 62
       7
100
AcDbLine
 10
-86.94387108
 20
-123.70853517
 30
0.0
 11
-86.71695084
 21
-123.77251055
 31
0.0
  0
LINE
  5
181
100
AcDbEntity
  8
LAYER0002
  6
CONTINUOUS
 62
       7
100
AcDbLine
 10
-86.71695084
 20
-123.77251055
 30
0.0
 11
-86.48973486
 21
-123.8342879
 31
0.0
  0
LINE
  5
182
100
AcDbEntity
  8
LAYER0002
  6
CONTINUOUS
 62
       7
100
AcDbLine
 10
-86.48973486
 20
-123.8342879
 30
0.0
 11
-86.26217386
 21
-123.89350089
 31
0.0
  0
LINE
  5
183
100
AcDbEntity
  8
LAYER0002
  6
CONTINUOUS
 62
       7
100
AcDbLine
 10
-86.26217386
 20
-123.89350089
 30
0.0
 11
-86.03421854
 21
-123.94978318
 31
0.0
  0
LINE
  5
184
100
AcDbEntity
  8
LAYER0002
  6
CONTINUOUS
 62
       7
100
AcDbLine
 10
-86.03421854
 20
-123.94978318
 30
0.0
 11
-85.80581961
 21
-124.00276843
 31
0.0
  0
LINE
  5
185
100
AcDbEntity
  8
LAYER0002
  6
CONTINUOUS
 62
       7
100
AcDbLine
 10
-85.80581961
 20
-124.00276843
 30
0.0
 11
-85.57692779
 21
-124.0520903
 31
0.0
  0
LINE
  5
186
100
AcDbEntity
  8
LAYER0002
  6
CONTINUOUS
 62
       7
100
AcDbLine
 10
-85.57692779
 20
-124.0520903
 30
0.0
 11
-85.34749378
 21
-124.09738246
 31
0.0
  0
LINE
  5
187
100
AcDbEntity
  8
LAYER0002
  6
CONTINUOUS
 62
       7
100
AcDbLine
 10
-85.34749378
 20
-124.09738246
 30
0.0
 11
-85.11747206
 21
-124.13830651
 31
0.0
  0
LINE
  5
188
100
AcDbEntity
  8
LAYER0002
  6
CONTINUOUS
 62
       7
100
AcDbLine
 10
-85.11747206
 20
-124.13830651
 30
0.0
 11
-84.88687046
 21
-124.17492065
 31
0.0
  0
LINE
  5
189
100
AcDbEntity
  8
LAYER0002
  6
CONTINUOUS
 62
       7
100
AcDbLine
 10
-84.88687046
 20
-124.17492065
 30
0.0
 11
-84.65573643
 21
-124.20757763
 31
0.0
  0
LINE
  5
18A
100
AcDbEntity
  8
LAYER0002
  6
CONTINUOUS
 62
       7
100
AcDbLine
 10
-84.65573643
 20
-124.20757763
 30
0.0
 11
-84.42411838
 21
-124.23663718
 31
0.0
  0
LINE
  5
18B
100
AcDbEntity
  8
LAYER0002
  6
CONTINUOUS
 62
       7
100
AcDbLine
 10
-84.42411838
 20
-124.23663718
 30
0.0
 11
-84.19206471
 21
-124.26245906
 31
0.0
  0
LINE
  5
18C
100
AcDbEntity
  8
LAYER0002
  6
CONTINUOUS
 62
       7
100
AcDbLine
 10
-84.19206471
 20
-124.26245906
 30
0.0
 11
-83.95962383
 21
-124.285403
 31
0.0
  0
LINE
  5
18D
100
AcDbEntity
  8
LAYER0002
  6
CONTINUOUS
 62
       7
100
AcDbLine
 10
-83.95962383
 20
-124.285403
 30
0.0
 11
-83.72684413
 21
-124.30582875
 31
0.0
  0
LINE
  5
18E
100
AcDbEntity
  8
LAYER0002
  6
CONTINUOUS
 62
       7
100
AcDbLine
 10
-83.72684413
 20
-124.30582875
 30
0.0
 11
-83.49377402
 21
-124.32409605
 31
0.0
  0
LINE
  5
18F
100
AcDbEntity
  8
LAYER0002
  6
CONTINUOUS
 62
       7
100
AcDbLine
 10
-83.49377402
 20
-124.32409605
 30
0.0
 11
-83.2604619
 21
-124.34056464
 31
0.0
  0
LINE
  5
190
100
AcDbEntity
  8
LAYER0002
  6
CONTINUOUS
 62
       7
100
AcDbLine
 10
-83.2604619
 20
-124.34056464
 30
0.0
 11
-83.02695617
 21
-124.35559426
 31
0.0
  0
LINE
  5
191
100
AcDbEntity
  8
LAYER0002
  6
CONTINUOUS
 62
       7
100
AcDbLine
 10
-83.02695617
 20
-124.35559426
 30
0.0
 11
-82.79330523
 21
-124.36954466
 31
0.0
  0
LINE
  5
192
100
AcDbEntity
  8
LAYER0002
  6
CONTINUOUS
 62
       7
100
AcDbLine
 10
-82.79330523
 20
-124.36954466
 30
0.0
 11
-82.55955749
 21
-124.38277557
 31
0.0
  0
LINE
  5
193
100
AcDbEntity
  8
LAYER0002
  6
CONTINUOUS
 62
       7
100
AcDbLine
 10
-82.55955749
 20
-124.38277557
 30
0.0
 11
-82.32576135
 21
-124.39564674
 31
0.0
  0
ENDBLK
  5
194
100
AcDbEntity
  8
0
100
AcDbBlockEnd
  0
BLOCK
  5
195
100
AcDbEntity
  8
0
100
AcDbBlockBegin
  2
GROUP_12
 70
       0
 10
0.0
 20
0.0
 30
0.0
  3
GROUP_12
  1

  0
LINE
  5
196
100
AcDbEntity
  8
LAYER0002
  6
CONTINUOUS
 62
       7
100
AcDbLine
 10
-65.07576132
 20
-117.9227872
 30
0.0
 11
-65.30194223
 21
-117.85331683
 31
0.0
  0
LINE
  5
197
100
AcDbEntity
  8
LAYER0002
  6
CONTINUOUS
 62
       7
100
AcDbLine
 10
-65.30194223
 20
-117.85331683
 30
0.0
 11
-65.52817244
 21
-117.78421279
 31
0.0
  0
LINE
  5
198
100
AcDbEntity
  8
LAYER0002
  6
CONTINUOUS
 62
       7
100
AcDbLine
 10
-65.52817244
 20
-117.78421279
 30
0.0
 11
-65.75450122
 21
-117.71584142
 31
0.0
  0
LINE
  5
199
100
AcDbEntity
  8
LAYER0002
  6
CONTINUOUS
 62
       7
100
AcDbLine
 10
-65.75450122
 20
-117.71584142
 30
0.0
 11
-65.98097787
 21
-117.64856905
 31
0.0
  0
LINE
  5
19A
100
AcDbEntity
  8
LAYER0002
  6
CONTINUOUS
 62
       7
100
AcDbLine
 10
-65.98097787
 20
-117.64856905
 30
0.0
 11
-66.20765168
 21
-117.58276202
 31
0.0
  0
LINE
  5
19B
100
AcDbEntity
  8
LAYER0002
  6
CONTINUOUS
 62
       7
100
AcDbLine
 10
-66.20765168
 20
-117.58276202
 30
0.0
 11
-66.43457193
 21
-117.51878667
 31
0.0
  0
LINE
  5
19C
100
AcDbEntity
  8
LAYER0002
  6
CONTINUOUS
 62
       7
100
AcDbLine
 10
-66.43457193
 20
-117.51878667
 30
0.0
 11
-66.66178792
 21
-117.45700933
 31
0.0
  0
LINE
  5
19D
100
AcDbEntity
  8
LAYER0002
  6
CONTINUOUS
 62
       7
100
AcDbLine
 10
-66.66178792
 20
-117.45700933
 30
0.0
 11
-66.88934893
 21
-117.39779633
 31
0.0
  0
LINE
  5
19E
100
AcDbEntity
  8
LAYER0002
  6
CONTINUOUS
 62
       7
100
AcDbLine
 10
-66.88934893
 20
-117.39779633
 30
0.0
 11
-67.11730426
 21
-117.34151401
 31
0.0
  0
LINE
  5
19F
100
AcDbEntity
  8
LAYER0002
  6
CONTINUOUS
 62
       7
100
AcDbLine
 10
-67.11730426
 20
-117.34151401
 30
0.0
 11
-67.3457032
 21
-117.2885287
 31
0.0
  0
LINE
  5
1A0
100
AcDbEntity
  8
LAYER0002
  6
CONTINUOUS
 62
       7
100
AcDbLine
 10
-67.3457032
 20
-117.2885287
 30
0.0
 11
-67.57459502
 21
-117.23920674
 31
0.0
  0
LINE
  5
1A1
100
AcDbEntity
  8
LAYER0002
  6
CONTINUOUS
 62
       7
100
AcDbLine
 10
-67.57459502
 20
-117.23920674
 30
0.0
 11
-67.80402903
 21
-117.19391447
 31
0.0
  0
LINE
  5
1A2
100
AcDbEntity
  8
LAYER0002
  6
CONTINUOUS
 62
       7
100
AcDbLine
 10
-67.80402903
 20
-117.19391447
 30
0.0
 11
-68.03405075
 21
-117.15299027
 31
0.0
  0
LINE
  5
1A3
100
AcDbEntity
  8
LAYER0002
  6
CONTINUOUS
 62
       7
100
AcDbLine
 10
-68.03405075
 20
-117.15299027
 30
0.0
 11
-68.26465235
 21
-117.11637595
 31
0.0
  0
LINE
  5
1A4
100
AcDbEntity
  8
LAYER0002
  6
CONTINUOUS
 62
       7
100
AcDbLine
 10
-68.26465235
 20
-117.11637595
 30
0.0
 11
-68.49578638
 21
-117.08371876
 31
0.0
  0
LINE
  5
1A5
100
AcDbEntity
  8
LAYER0002
  6
CONTINUOUS
 62
       7
100
AcDbLine
 10
-68.49578638
 20
-117.08371876
 30
0.0
 11
-68.72740442
 21
-117.05465896
 31
0.0
  0
LINE
  5
1A6
100
AcDbEntity
  8
LAYER0002
  6
CONTINUOUS
 62
       7
100
AcDbLine
 10
-68.72740442
 20
-117.05465896
 30
0.0
 11
-68.95945808
 21
-117.02883682
 31
0.0
  0
LINE
  5
1A7
100
AcDbEntity
  8
LAYER0002
  6
CONTINUOUS
 62
       7
100
AcDbLine
 10
-68.95945808
 20
-117.02883682
 30
0.0
 11
-69.19189895
 21
-117.00589258
 31
0.0
  0
LINE
  5
1A8
100
AcDbEntity
  8
LAYER0002
  6
CONTINUOUS
 62
       7
100
AcDbLine
 10
-69.19189895
 20
-117.00589258
 30
0.0
 11
-69.42467864
 21
-116.98546653
 31
0.0
  0
LINE
  5
1A9
100
AcDbEntity
  8
LAYER0002
  6
CONTINUOUS
 62
       7
100
AcDbLine
 10
-69.42467864
 20
-116.98546653
 30
0.0
 11
-69.65774874
 21
-116.9671989
 31
0.0
  0
LINE
  5
1AA
100
AcDbEntity
  8
LAYER0002
  6
CONTINUOUS
 62
       7
100
AcDbLine
 10
-69.65774874
 20
-116.9671989
 30
0.0
 11
-69.89106084
 21
-116.95072998
 31
0.0
  0
LINE
  5
1AB
100
AcDbEntity
  8
LAYER0002
  6
CONTINUOUS
 62
       7
100
AcDbLine
 10
-69.89106084
 20
-116.95072998
 30
0.0
 11
-70.12456656
 21
-116.9357
 31
0.0
  0
LINE
  5
1AC
100
AcDbEntity
  8
LAYER0002
  6
CONTINUOUS
 62
       7
100
AcDbLine
 10
-70.12456656
 20
-116.9357
 30
0.0
 11
-70.35821748
 21
-116.92174925
 31
0.0
  0
LINE
  5
1AD
100
AcDbEntity
  8
LAYER0002
  6
CONTINUOUS
 62
       7
100
AcDbLine
 10
-70.35821748
 20
-116.92174925
 30
0.0
 11
-70.5919652
 21
-116.90851797
 31
0.0
  0
LINE
  5
1AE
100
AcDbEntity
  8
LAYER0002
  6
CONTINUOUS
 62
       7
100
AcDbLine
 10
-70.5919652
 20
-116.90851797
 30
0.0
 11
-70.82576133
 21
-116.89564644
 31
0.0
  0
ENDBLK
  5
1AF
100
AcDbEntity
  8
0
100
AcDbBlockEnd
  0
BLOCK
  5
1B0
100
AcDbEntity
  8
0
100
AcDbBlockBegin
  2
GROUP_13
 70
       0
 10
0.0
 20
0.0
 30
0.0
  3
GROUP_13
  1

  0
LINE
  5
1B1
100
AcDbEntity
  8
LAYER0002
  6
CONTINUOUS
 62
       7
100
AcDbLine
 10
-70.82576133
 20
-124.39564674
 30
0.0
 11
-70.63130491
 21
-124.39369245
 31
0.0
  0
LINE
  5
1B2
100
AcDbEntity
  8
LAYER0002
  6
CONTINUOUS
 62
       7
100
AcDbLine
 10
-70.63130491
 20
-124.39369245
 30
0.0
 11
-70.43683958
 21
-124.39050266
 31
0.0
  0
LINE
  5
1B3
100
AcDbEntity
  8
LAYER0002
  6
CONTINUOUS
 62
       7
100
AcDbLine
 10
-70.43683958
 20
-124.39050266
 30
0.0
 11
-70.24236154
 21
-124.3849918
 31
0.0
  0
LINE
  5
1B4
100
AcDbEntity
  8
LAYER0002
  6
CONTINUOUS
 62
       7
100
AcDbLine
 10
-70.24236154
 20
-124.3849918
 30
0.0
 11
-70.047895
 21
-124.37689254
 31
0.0
  0
LINE
  5
1B5
100
AcDbEntity
  8
LAYER0002
  6
CONTINUOUS
 62
       7
100
AcDbLine
 10
-70.047895
 20
-124.37689254
 30
0.0
 11
-69.85347364
 21
-124.36621526
 31
0.0
  0
LINE
  5
1B6
100
AcDbEntity
  8
LAYER0002
  6
CONTINUOUS
 62
       7
100
AcDbLine
 10
-69.85347364
 20
-124.36621526
 30
0.0
 11
-69.65913115
 21
-124.35297058
 31
0.0
  0
LINE
  5
1B7
100
AcDbEntity
  8
LAYER0002
  6
CONTINUOUS
 62
       7
100
AcDbLine
 10
-69.65913115
 20
-124.35297058
 30
0.0
 11
-69.46490124
 21
-124.33716912
 31
0.0
  0
LINE
  5
1B8
100
AcDbEntity
  8
LAYER0002
  6
CONTINUOUS
 62
       7
100
AcDbLine
 10
-69.46490124
 20
-124.33716912
 30
0.0
 11
-69.2708176
 21
-124.31882151
 31
0.0
  0
LINE
  5
1B9
100
AcDbEntity
  8
LAYER0002
  6
CONTINUOUS
 62
       7
100
AcDbLine
 10
-69.2708176
 20
-124.31882151
 30
0.0
 11
-69.07691393
 21
-124.29793837
 31
0.0
  0
LINE
  5
1BA
100
AcDbEntity
  8
LAYER0002
  6
CONTINUOUS
 62
       7
100
AcDbLine
 10
-69.07691393
 20
-124.29793837
 30
0.0
 11
-68.88322392
 21
-124.27453031
 31
0.0
  0
LINE
  5
1BB
100
AcDbEntity
  8
LAYER0002
  6
CONTINUOUS
 62
       7
100
AcDbLine
 10
-68.88322392
 20
-124.27453031
 30
0.0
 11
-68.68978127
 21
-124.24860796
 31
0.0
  0
LINE
  5
1BC
100
AcDbEntity
  8
LAYER0002
  6
CONTINUOUS
 62
       7
100
AcDbLine
 10
-68.68978127
 20
-124.24860796
 30
0.0
 11
-68.49661968
 21
-124.22018193
 31
0.0
  0
LINE
  5
1BD
100
AcDbEntity
  8
LAYER0002
  6
CONTINUOUS
 62
       7
100
AcDbLine
 10
-68.49661968
 20
-124.22018193
 30
0.0
 11
-68.30377285
 21
-124.18926285
 31
0.0
  0
LINE
  5
1BE
100
AcDbEntity
  8
LAYER0002
  6
CONTINUOUS
 62
       7
100
AcDbLine
 10
-68.30377285
 20
-124.18926285
 30
0.0
 11
-68.11127446
 21
-124.15586133
 31
0.0
  0
LINE
  5
1BF
100
AcDbEntity
  8
LAYER0002
  6
CONTINUOUS
 62
       7
100
AcDbLine
 10
-68.11127446
 20
-124.15586133
 30
0.0
 11
-67.91915822
 21
-124.119988
 31
0.0
  0
LINE
  5
1C0
100
AcDbEntity
  8
LAYER0002
  6
CONTINUOUS
 62
       7
100
AcDbLine
 10
-67.91915822
 20
-124.119988
 30
0.0
 11
-67.72745783
 21
-124.08165349
 31
0.0
  0
LINE
  5
1C1
100
AcDbEntity
  8
LAYER0002
  6
CONTINUOUS
 62
       7
100
AcDbLine
 10
-67.72745783
 20
-124.08165349
 30
0.0
 11
-67.53619338
 21
-124.04090237
 31
0.0
  0
LINE
  5
1C2
100
AcDbEntity
  8
LAYER0002
  6
CONTINUOUS
 62
       7
100
AcDbLine
 10
-67.53619338
 20
-124.04090237
 30
0.0
 11
-67.34534172
 21
-123.99788731
 31
0.0
  0
LINE
  5
1C3
100
AcDbEntity
  8
LAYER0002
  6
CONTINUOUS
 62
       7
100
AcDbLine
 10
-67.34534172
 20
-123.99788731
 30
0.0
 11
-67.15487109
 21
-123.95278246
 31
0.0
  0
LINE
  5
1C4
100
AcDbEntity
  8
LAYER0002
  6
CONTINUOUS
 62
       7
100
AcDbLine
 10
-67.15487109
 20
-123.95278246
 30
0.0
 11
-66.96474975
 21
-123.90576197
 31
0.0
  0
LINE
  5
1C5
100
AcDbEntity
  8
LAYER0002
  6
CONTINUOUS
 62
       7
100
AcDbLine
 10
-66.96474975
 20
-123.90576197
 30
0.0
 11
-66.77494595
 21
-123.85699999
 31
0.0
  0
LINE
  5
1C6
100
AcDbEntity
  8
LAYER0002
  6
CONTINUOUS
 62
       7
100
AcDbLine
 10
-66.77494595
 20
-123.85699999
 30
0.0
 11
-66.58542792
 21
-123.80667067
 31
0.0
  0
LINE
  5
1C7
100
AcDbEntity
  8
LAYER0002
  6
CONTINUOUS
 62
       7
100
AcDbLine
 10
-66.58542792
 20
-123.80667067
 30
0.0
 11
-66.39616391
 21
-123.75494816
 31
0.0
  0
LINE
  5
1C8
100
AcDbEntity
  8
LAYER0002
  6
CONTINUOUS
 62
       7
100
AcDbLine
 10
-66.39616391
 20
-123.75494816
 30
0.0
 11
-66.20712218
 21
-123.7020066
 31
0.0
  0
LINE
  5
1C9
100
AcDbEntity
  8
LAYER0002
  6
CONTINUOUS
 62
       7
100
AcDbLine
 10
-66.20712218
 20
-123.7020066
 30
0.0
 11
-66.01827097
 21
-123.64802015
 31
0.0
  0
LINE
  5
1CA
100
AcDbEntity
  8
LAYER0002
  6
CONTINUOUS
 62
       7
100
AcDbLine
 10
-66.01827097
 20
-123.64802015
 30
0.0
 11
-65.82957852
 21
-123.59316296
 31
0.0
  0
LINE
  5
1CB
100
AcDbEntity
  8
LAYER0002
  6
CONTINUOUS
 62
       7
100
AcDbLine
 10
-65.82957852
 20
-123.59316296
 30
0.0
 11
-65.64101308
 21
-123.53760916
 31
0.0
  0
LINE
  5
1CC
100
AcDbEntity
  8
LAYER0002
  6
CONTINUOUS
 62
       7
100
AcDbLine
 10
-65.64101308
 20
-123.53760916
 30
0.0
 11
-65.45254291
 21
-123.48153292
 31
0.0
  0
LINE
  5
1CD
100
AcDbEntity
  8
LAYER0002
  6
CONTINUOUS
 62
       7
100
AcDbLine
 10
-65.45254291
 20
-123.48153292
 30
0.0
 11
-65.26413624
 21
-123.42510838
 31
0.0
  0
LINE
  5
1CE
100
AcDbEntity
  8
LAYER0002
  6
CONTINUOUS
 62
       7
100
AcDbLine
 10
-65.26413624
 20
-123.42510838
 30
0.0
 11
-65.07576132
 21
-123.3685097
 31
0.0
  0
ENDBLK
  5
1CF
100
AcDbEntity
  8
0
100
AcDbBlockEnd
  0
BLOCK
  5
1D0
100
AcDbEntity
  8
0
100
AcDbBlockBegin
  2
GROUP_14
 70
       0
 10
0.0
 20
0.0
 30
0.0
  3
GROUP_14
  1

  0
LINE
  5
1D1
100
AcDbEntity
  8
LAYER0002
  6
CONTINUOUS
 62
       7
100
AcDbLine
 10
-65.07576132
 20
-116.89564644
 30
0.0
 11
-65.07576132
 21
-116.90234204
 31
0.0
  0
LINE
  5
1D2
100
AcDbEntity
  8
LAYER0002
  6
CONTINUOUS
 62
       7
100
AcDbLine
 10
-65.07576132
 20
-116.90234204
 30
0.0
 11
-65.07576132
 21
-116.90977154
 31
0.0
  0
LINE
  5
1D3
100
AcDbEntity
  8
LAYER0002
  6
CONTINUOUS
 62
       7
100
AcDbLine
 10
-65.07576132
 20
-116.90977154
 30
0.0
 11
-65.07576132
 21
-116.91866886
 31
0.0
  0
LINE
  5
1D4
100
AcDbEntity
  8
LAYER0002
  6
CONTINUOUS
 62
       7
100
AcDbLine
 10
-65.07576132
 20
-116.91866886
 30
0.0
 11
-65.07576132
 21
-116.9297679
 31
0.0
  0
LINE
  5
1D5
100
AcDbEntity
  8
LAYER0002
  6
CONTINUOUS
 62
       7
100
AcDbLine
 10
-65.07576132
 20
-116.9297679
 30
0.0
 11
-65.07576132
 21
-116.94380257
 31
0.0
  0
LINE
  5
1D6
100
AcDbEntity
  8
LAYER0002
  6
CONTINUOUS
 62
       7
100
AcDbLine
 10
-65.07576132
 20
-116.94380257
 30
0.0
 11
-65.07576132
 21
-116.96150678
 31
0.0
  0
LINE
  5
1D7
100
AcDbEntity
  8
LAYER0002
  6
CONTINUOUS
 62
       7
100
AcDbLine
 10
-65.07576132
 20
-116.96150678
 30
0.0
 11
-65.07576132
 21
-116.98359172
 31
0.0
  0
LINE
  5
1D8
100
AcDbEntity
  8
LAYER0002
  6
CONTINUOUS
 62
       7
100
AcDbLine
 10
-65.07576132
 20
-116.98359172
 30
0.0
 11
-65.07576132
 21
-117.01028387
 31
0.0
  0
LINE
  5
1D9
100
AcDbEntity
  8
LAYER0002
  6
CONTINUOUS
 62
       7
100
AcDbLine
 10
-65.07576132
 20
-117.01028387
 30
0.0
 11
-65.07576132
 21
-117.04134494
 31
0.0
  0
LINE
  5
1DA
100
AcDbEntity
  8
LAYER0002
  6
CONTINUOUS
 62
       7
100
AcDbLine
 10
-65.07576132
 20
-117.04134494
 30
0.0
 11
-65.07576132
 21
-117.07651794
 31
0.0
  0
LINE
  5
1DB
100
AcDbEntity
  8
LAYER0002
  6
CONTINUOUS
 62
       7
100
AcDbLine
 10
-65.07576132
 20
-117.07651794
 30
0.0
 11
-65.07576132
 21
-117.11554587
 31
0.0
  0
LINE
  5
1DC
100
AcDbEntity
  8
LAYER0002
  6
CONTINUOUS
 62
       7
100
AcDbLine
 10
-65.07576132
 20
-117.11554587
 30
0.0
 11
-65.07576132
 21
-117.15817174
 31
0.0
  0
LINE
  5
1DD
100
AcDbEntity
  8
LAYER0002
  6
CONTINUOUS
 62
       7
100
AcDbLine
 10
-65.07576132
 20
-117.15817174
 30
0.0
 11
-65.07576132
 21
-117.20413854
 31
0.0
  0
LINE
  5
1DE
100
AcDbEntity
  8
LAYER0002
  6
CONTINUOUS
 62
       7
100
AcDbLine
 10
-65.07576132
 20
-117.20413854
 30
0.0
 11
-65.07576132
 21
-117.25318929
 31
0.0
  0
LINE
  5
1DF
100
AcDbEntity
  8
LAYER0002
  6
CONTINUOUS
 62
       7
100
AcDbLine
 10
-65.07576132
 20
-117.25318929
 30
0.0
 11
-65.07576132
 21
-117.30506699
 31
0.0
  0
LINE
  5
1E0
100
AcDbEntity
  8
LAYER0002
  6
CONTINUOUS
 62
       7
100
AcDbLine
 10
-65.07576132
 20
-117.30506699
 30
0.0
 11
-65.07576132
 21
-117.35951464
 31
0.0
  0
LINE
  5
1E1
100
AcDbEntity
  8
LAYER0002
  6
CONTINUOUS
 62
       7
100
AcDbLine
 10
-65.07576132
 20
-117.35951464
 30
0.0
 11
-65.07576132
 21
-117.41627526
 31
0.0
  0
LINE
  5
1E2
100
AcDbEntity
  8
LAYER0002
  6
CONTINUOUS
 62
       7
100
AcDbLine
 10
-65.07576132
 20
-117.41627526
 30
0.0
 11
-65.07576132
 21
-117.47509183
 31
0.0
  0
LINE
  5
1E3
100
AcDbEntity
  8
LAYER0002
  6
CONTINUOUS
 62
       7
100
AcDbLine
 10
-65.07576132
 20
-117.47509183
 30
0.0
 11
-65.07576132
 21
-117.53570737
 31
0.0
  0
LINE
  5
1E4
100
AcDbEntity
  8
LAYER0002
  6
CONTINUOUS
 62
       7
100
AcDbLine
 10
-65.07576132
 20
-117.53570737
 30
0.0
 11
-65.07576132
 21
-117.59786489
 31
0.0
  0
LINE
  5
1E5
100
AcDbEntity
  8
LAYER0002
  6
CONTINUOUS
 62
       7
100
AcDbLine
 10
-65.07576132
 20
-117.59786489
 30
0.0
 11
-65.07576132
 21
-117.66130738
 31
0.0
  0
LINE
  5
1E6
100
AcDbEntity
  8
LAYER0002
  6
CONTINUOUS
 62
       7
100
AcDbLine
 10
-65.07576132
 20
-117.66130738
 30
0.0
 11
-65.07576132
 21
-117.72577785
 31
0.0
  0
LINE
  5
1E7
100
AcDbEntity
  8
LAYER0002
  6
CONTINUOUS
 62
       7
100
AcDbLine
 10
-65.07576132
 20
-117.72577785
 30
0.0
 11
-65.07576132
 21
-117.79101931
 31
0.0
  0
LINE
  5
1E8
100
AcDbEntity
  8
LAYER0002
  6
CONTINUOUS
 62
       7
100
AcDbLine
 10
-65.07576132
 20
-117.79101931
 30
0.0
 11
-65.07576132
 21
-117.85677476
 31
0.0
  0
LINE
  5
1E9
100
AcDbEntity
  8
LAYER0002
  6
CONTINUOUS
 62
       7
100
AcDbLine
 10
-65.07576132
 20
-117.85677476
 30
0.0
 11
-65.07576132
 21
-117.9227872
 31
0.0
  0
ENDBLK
  5
1EA
100
AcDbEntity
  8
0
100
AcDbBlockEnd
  0
BLOCK
  5
1EB
100
AcDbEntity
  8
0
100
AcDbBlockBegin
  2
GROUP_15
 70
       0
 10
0.0
 20
0.0
 30
0.0
  3
GROUP_15
  1

  0
LINE
  5
1EC
100
AcDbEntity
  8
LAYER0002
  6
CONTINUOUS
 62
       7
100
AcDbLine
 10
-65.07576132
 20
-123.3685097
 30
0.0
 11
-65.07576132
 21
-123.43452235
 31
0.0
  0
LINE
  5
1ED
100
AcDbEntity
  8
LAYER0002
  6
CONTINUOUS
 62
       7
100
AcDbLine
 10
-65.07576132
 20
-123.43452235
 30
0.0
 11
-65.07576132
 21
-123.50027801
 31
0.0
  0
LINE
  5
1EE
100
AcDbEntity
  8
LAYER0002
  6
CONTINUOUS
 62
       7
100
AcDbLine
 10
-65.07576132
 20
-123.50027801
 30
0.0
 11
-65.07576132
 21
-123.56551967
 31
0.0
  0
LINE
  5
1EF
100
AcDbEntity
  8
LAYER0002
  6
CONTINUOUS
 62
       7
100
AcDbLine
 10
-65.07576132
 20
-123.56551967
 30
0.0
 11
-65.07576132
 21
-123.62999033
 31
0.0
  0
LINE
  5
1F0
100
AcDbEntity
  8
LAYER0002
  6
CONTINUOUS
 62
       7
100
AcDbLine
 10
-65.07576132
 20
-123.62999033
 30
0.0
 11
-65.07576132
 21
-123.69343299
 31
0.0
  0
LINE
  5
1F1
100
AcDbEntity
  8
LAYER0002
  6
CONTINUOUS
 62
       7
100
AcDbLine
 10
-65.07576132
 20
-123.69343299
 30
0.0
 11
-65.07576132
 21
-123.75559066
 31
0.0
  0
LINE
  5
1F2
100
AcDbEntity
  8
LAYER0002
  6
CONTINUOUS
 62
       7
100
AcDbLine
 10
-65.07576132
 20
-123.75559066
 30
0.0
 11
-65.07576132
 21
-123.81620634
 31
0.0
  0
LINE
  5
1F3
100
AcDbEntity
  8
LAYER0002
  6
CONTINUOUS
 62
       7
100
AcDbLine
 10
-65.07576132
 20
-123.81620634
 30
0.0
 11
-65.07576132
 21
-123.87502302
 31
0.0
  0
LINE
  5
1F4
100
AcDbEntity
  8
LAYER0002
  6
CONTINUOUS
 62
       7
100
AcDbLine
 10
-65.07576132
 20
-123.87502302
 30
0.0
 11
-65.07576132
 21
-123.93178371
 31
0.0
  0
LINE
  5
1F5
100
AcDbEntity
  8
LAYER0002
  6
CONTINUOUS
 62
       7
100
AcDbLine
 10
-65.07576132
 20
-123.93178371
 30
0.0
 11
-65.07576132
 21
-123.9862314
 31
0.0
  0
LINE
  5
1F6
100
AcDbEntity
  8
LAYER0002
  6
CONTINUOUS
 62
       7
100
AcDbLine
 10
-65.07576132
 20
-123.9862314
 30
0.0
 11
-65.07576132
 21
-124.03810911
 31
0.0
  0
LINE
  5
1F7
100
AcDbEntity
  8
LAYER0002
  6
CONTINUOUS
 62
       7
100
AcDbLine
 10
-65.07576132
 20
-124.03810911
 30
0.0
 11
-65.07576132
 21
-124.08715982
 31
0.0
  0
LINE
  5
1F8
100
AcDbEntity
  8
LAYER0002
  6
CONTINUOUS
 62
       7
100
AcDbLine
 10
-65.07576132
 20
-124.08715982
 30
0.0
 11
-65.07576132
 21
-124.13312655
 31
0.0
  0
LINE
  5
1F9
100
AcDbEntity
  8
LAYER0002
  6
CONTINUOUS
 62
       7
100
AcDbLine
 10
-65.07576132
 20
-124.13312655
 30
0.0
 11
-65.07576132
 21
-124.17575229
 31
0.0
  0
LINE
  5
1FA
100
AcDbEntity
  8
LAYER0002
  6
CONTINUOUS
 62
       7
100
AcDbLine
 10
-65.07576132
 20
-124.17575229
 30
0.0
 11
-65.07576132
 21
-124.21478004
 31
0.0
  0
LINE
  5
1FB
100
AcDbEntity
  8
LAYER0002
  6
CONTINUOUS
 62
       7
100
AcDbLine
 10
-65.07576132
 20
-124.21478004
 30
0.0
 11
-65.07576132
 21
-124.24995281
 31
0.0
  0
LINE
  5
1FC
100
AcDbEntity
  8
LAYER0002
  6
CONTINUOUS
 62
       7
100
AcDbLine
 10
-65.07576132
 20
-124.24995281
 30
0.0
 11
-65.07576132
 21
-124.28101358
 31
0.0
  0
LINE
  5
1FD
100
AcDbEntity
  8
LAYER0002
  6
CONTINUOUS
 62
       7
100
AcDbLine
 10
-65.07576132
 20
-124.28101358
 30
0.0
 11
-65.07576132
 21
-124.30770538
 31
0.0
  0
LINE
  5
1FE
100
AcDbEntity
  8
LAYER0002
  6
CONTINUOUS
 62
       7
100
AcDbLine
 10
-65.07576132
 20
-124.30770538
 30
0.0
 11
-65.07576132
 21
-124.3297899
 31
0.0
  0
LINE
  5
1FF
100
AcDbEntity
  8
LAYER0002
  6
CONTINUOUS
 62
       7
100
AcDbLine
 10
-65.07576132
 20
-124.3297899
 30
0.0
 11
-65.07576132
 21
-124.34749362
 31
0.0
  0
LINE
  5
200
100
AcDbEntity
  8
LAYER0002
  6
CONTINUOUS
 62
       7
100
AcDbLine
 10
-65.07576132
 20
-124.34749362
 30
0.0
 11
-65.07576132
 21
-124.36152775
 31
0.0
  0
LINE
  5
201
100
AcDbEntity
  8
LAYER0002
  6
CONTINUOUS
 62
       7
100
AcDbLine
 10
-65.07576132
 20
-124.36152775
 30
0.0
 11
-65.07576132
 21
-124.37262621
 31
0.0
  0
LINE
  5
202
100
AcDbEntity
  8
LAYER0002
  6
CONTINUOUS
 62
       7
100
AcDbLine
 10
-65.07576132
 20
-124.37262621
 30
0.0
 11
-65.07576132
 21
-124.38152292
 31
0.0
  0
LINE
  5
203
100
AcDbEntity
  8
LAYER0002
  6
CONTINUOUS
 62
       7
100
AcDbLine
 10
-65.07576132
 20
-124.38152292
 30
0.0
 11
-65.07576132
 21
-124.38895179
 31
0.0
  0
LINE
  5
204
100
AcDbEntity
  8
LAYER0002
  6
CONTINUOUS
 62
       7
100
AcDbLine
 10
-65.07576132
 20
-124.38895179
 30
0.0
 11
-65.07576132
 21
-124.39564674
 31
0.0
  0
ENDBLK
  5
205
100
AcDbEntity
  8
0
100
AcDbBlockEnd
  0
BLOCK
  5
206
100
AcDbEntity
  8
0
100
AcDbBlockBegin
  2
GROUP_16
 70
       0
 10
0.0
 20
0.0
 30
0.0
  3
GROUP_16
  1

  0
LINE
  5
207
100
AcDbEntity
  8
LAYER0002
  6
CONTINUOUS
 62
       7
100
AcDbLine
 10
-76.57576134
 20
-137.06850877
 30
0.0
 11
-76.3495805
 21
-137.1379794
 31
0.0
  0
LINE
  5
208
100
AcDbEntity
  8
LAYER0002
  6
CONTINUOUS
 62
       7
100
AcDbLine
 10
-76.3495805
 20
-137.1379794
 30
0.0
 11
-76.12335036
 21
-137.20708369
 31
0.0
  0
LINE
  5
209
100
AcDbEntity
  8
LAYER0002
  6
CONTINUOUS
 62
       7
100
AcDbLine
 10
-76.12335036
 20
-137.20708369
 30
0.0
 11
-75.89702164
 21
-137.2754553
 31
0.0
  0
LINE
  5
20A
100
AcDbEntity
  8
LAYER0002
  6
CONTINUOUS
 62
       7
100
AcDbLine
 10
-75.89702164
 20
-137.2754553
 30
0.0
 11
-75.67054506
 21
-137.3427279
 31
0.0
  0
LINE
  5
20B
100
AcDbEntity
  8
LAYER0002
  6
CONTINUOUS
 62
       7
100
AcDbLine
 10
-75.67054506
 20
-137.3427279
 30
0.0
 11
-75.44387131
 21
-137.40853513
 31
0.0
  0
LINE
  5
20C
100
AcDbEntity
  8
LAYER0002
  6
CONTINUOUS
 62
       7
100
AcDbLine
 10
-75.44387131
 20
-137.40853513
 30
0.0
 11
-75.21695111
 21
-137.47251067
 31
0.0
  0
LINE
  5
20D
100
AcDbEntity
  8
LAYER0002
  6
CONTINUOUS
 62
       7
100
AcDbLine
 10
-75.21695111
 20
-137.47251067
 30
0.0
 11
-74.98973517
 21
-137.53428818
 31
0.0
  0
LINE
  5
20E
100
AcDbEntity
  8
LAYER0002
  6
CONTINUOUS
 62
       7
100
AcDbLine
 10
-74.98973517
 20
-137.53428818
 30
0.0
 11
-74.7621742
 21
-137.59350132
 31
0.0
  0
LINE
  5
20F
100
AcDbEntity
  8
LAYER0002
  6
CONTINUOUS
 62
       7
100
AcDbLine
 10
-74.7621742
 20
-137.59350132
 30
0.0
 11
-74.5342189
 21
-137.64978374
 31
0.0
  0
LINE
  5
210
100
AcDbEntity
  8
LAYER0002
  6
CONTINUOUS
 62
       7
100
AcDbLine
 10
-74.5342189
 20
-137.64978374
 30
0.0
 11
-74.30582
 21
-137.70276911
 31
0.0
  0
LINE
  5
211
100
AcDbEntity
  8
LAYER0002
  6
CONTINUOUS
 62
       7
100
AcDbLine
 10
-74.30582
 20
-137.70276911
 30
0.0
 11
-74.07692819
 21
-137.75209108
 31
0.0
  0
LINE
  5
212
100
AcDbEntity
  8
LAYER0002
  6
CONTINUOUS
 62
       7
100
AcDbLine
 10
-74.07692819
 20
-137.75209108
 30
0.0
 11
-73.8474942
 21
-137.79738333
 31
0.0
  0
LINE
  5
213
100
AcDbEntity
  8
LAYER0002
  6
CONTINUOUS
 62
       7
100
AcDbLine
 10
-73.8474942
 20
-137.79738333
 30
0.0
 11
-73.61747248
 21
-137.83830746
 31
0.0
  0
LINE
  5
214
100
AcDbEntity
  8
LAYER0002
  6
CONTINUOUS
 62
       7
100
AcDbLine
 10
-73.61747248
 20
-137.83830746
 30
0.0
 11
-73.38687086
 21
-137.87492166
 31
0.0
  0
LINE
  5
215
100
AcDbEntity
  8
LAYER0002
  6
CONTINUOUS
 62
       7
100
AcDbLine
 10
-73.38687086
 20
-137.87492166
 30
0.0
 11
-73.15573682
 21
-137.90757868
 31
0.0
  0
LINE
  5
216
100
AcDbEntity
  8
LAYER0002
  6
CONTINUOUS
 62
       7
100
AcDbLine
 10
-73.15573682
 20
-137.90757868
 30
0.0
 11
-72.92411875
 21
-137.93663826
 31
0.0
  0
LINE
  5
217
100
AcDbEntity
  8
LAYER0002
  6
CONTINUOUS
 62
       7
100
AcDbLine
 10
-72.92411875
 20
-137.93663826
 30
0.0
 11
-72.69206505
 21
-137.96246016
 31
0.0
  0
LINE
  5
218
100
AcDbEntity
  8
LAYER0002
  6
CONTINUOUS
 62
       7
100
AcDbLine
 10
-72.69206505
 20
-137.96246016
 30
0.0
 11
-72.45962414
 21
-137.9854041
 31
0.0
  0
LINE
  5
219
100
AcDbEntity
  8
LAYER0002
  6
CONTINUOUS
 62
       7
100
AcDbLine
 10
-72.45962414
 20
-137.9854041
 30
0.0
 11
-72.2268444
 21
-138.00582985
 31
0.0
  0
LINE
  5
21A
100
AcDbEntity
  8
LAYER0002
  6
CONTINUOUS
 62
       7
100
AcDbLine
 10
-72.2268444
 20
-138.00582985
 30
0.0
 11
-71.99377425
 21
-138.02409713
 31
0.0
  0
LINE
  5
21B
100
AcDbEntity
  8
LAYER0002
  6
CONTINUOUS
 62
       7
100
AcDbLine
 10
-71.99377425
 20
-138.02409713
 30
0.0
 11
-71.76046208
 21
-138.0405657
 31
0.0
  0
LINE
  5
21C
100
AcDbEntity
  8
LAYER0002
  6
CONTINUOUS
 62
       7
100
AcDbLine
 10
-71.76046208
 20
-138.0405657
 30
0.0
 11
-71.5269563
 21
-138.0555953
 31
0.0
  0
LINE
  5
21D
100
AcDbEntity
  8
LAYER0002
  6
CONTINUOUS
 62
       7
100
AcDbLine
 10
-71.5269563
 20
-138.0555953
 30
0.0
 11
-71.29330532
 21
-138.06954566
 31
0.0
  0
LINE
  5
21E
100
AcDbEntity
  8
LAYER0002
  6
CONTINUOUS
 62
       7
100
AcDbLine
 10
-71.29330532
 20
-138.06954566
 30
0.0
 11
-71.05955752
 21
-138.08277654
 31
0.0
  0
LINE
  5
21F
100
AcDbEntity
  8
LAYER0002
  6
CONTINUOUS
 62
       7
100
AcDbLine
 10
-71.05955752
 20
-138.08277654
 30
0.0
 11
-70.82576133
 21
-138.09564768
 31
0.0
  0
ENDBLK
  5
220
100
AcDbEntity
  8
0
100
AcDbBlockEnd
  0
BLOCK
  5
221
100
AcDbEntity
  8
0
100
AcDbBlockBegin
  2
GROUP_17
 70
       0
 10
0.0
 20
0.0
 30
0.0
  3
GROUP_17
  1

  0
LINE
  5
222
100
AcDbEntity
  8
LAYER0002
  6
CONTINUOUS
 62
       7
100
AcDbLine
 10
-82.32576135
 20
-138.09564768
 30
0.0
 11
-82.13130475
 21
-138.09369245
 31
0.0
  0
LINE
  5
223
100
AcDbEntity
  8
LAYER0002
  6
CONTINUOUS
 62
       7
100
AcDbLine
 10
-82.13130475
 20
-138.09369245
 30
0.0
 11
-81.93683926
 21
-138.09050181
 31
0.0
  0
LINE
  5
224
100
AcDbEntity
  8
LAYER0002
  6
CONTINUOUS
 62
       7
100
AcDbLine
 10
-81.93683926
 20
-138.09050181
 30
0.0
 11
-81.7423611
 21
-138.08499027
 31
0.0
  0
LINE
  5
225
100
AcDbEntity
  8
LAYER0002
  6
CONTINUOUS
 62
       7
100
AcDbLine
 10
-81.7423611
 20
-138.08499027
 30
0.0
 11
-81.54789446
 21
-138.07689048
 31
0.0
  0
LINE
  5
226
100
AcDbEntity
  8
LAYER0002
  6
CONTINUOUS
 62
       7
100
AcDbLine
 10
-81.54789446
 20
-138.07689048
 30
0.0
 11
-81.35347305
 21
-138.06621284
 31
0.0
  0
LINE
  5
227
100
AcDbEntity
  8
LAYER0002
  6
CONTINUOUS
 62
       7
100
AcDbLine
 10
-81.35347305
 20
-138.06621284
 30
0.0
 11
-81.15913053
 21
-138.05296794
 31
0.0
  0
LINE
  5
228
100
AcDbEntity
  8
LAYER0002
  6
CONTINUOUS
 62
       7
100
AcDbLine
 10
-81.15913053
 20
-138.05296794
 30
0.0
 11
-80.96490062
 21
-138.03716638
 31
0.0
  0
LINE
  5
229
100
AcDbEntity
  8
LAYER0002
  6
CONTINUOUS
 62
       7
100
AcDbLine
 10
-80.96490062
 20
-138.03716638
 30
0.0
 11
-80.770817
 21
-138.01881877
 31
0.0
  0
LINE
  5
22A
100
AcDbEntity
  8
LAYER0002
  6
CONTINUOUS
 62
       7
100
AcDbLine
 10
-80.770817
 20
-138.01881877
 30
0.0
 11
-80.57691337
 21
-137.99793572
 31
0.0
  0
LINE
  5
22B
100
AcDbEntity
  8
LAYER0002
  6
CONTINUOUS
 62
       7
100
AcDbLine
 10
-80.57691337
 20
-137.99793572
 30
0.0
 11
-80.38322341
 21
-137.97452782
 31
0.0
  0
LINE
  5
22C
100
AcDbEntity
  8
LAYER0002
  6
CONTINUOUS
 62
       7
100
AcDbLine
 10
-80.38322341
 20
-137.97452782
 30
0.0
 11
-80.18978083
 21
-137.94860568
 31
0.0
  0
LINE
  5
22D
100
AcDbEntity
  8
LAYER0002
  6
CONTINUOUS
 62
       7
100
AcDbLine
 10
-80.18978083
 20
-137.94860568
 30
0.0
 11
-79.99661931
 21
-137.92017991
 31
0.0
  0
LINE
  5
22E
100
AcDbEntity
  8
LAYER0002
  6
CONTINUOUS
 62
       7
100
AcDbLine
 10
-79.99661931
 20
-137.92017991
 30
0.0
 11
-79.80377255
 21
-137.8892611
 31
0.0
  0
LINE
  5
22F
100
AcDbEntity
  8
LAYER0002
  6
CONTINUOUS
 62
       7
100
AcDbLine
 10
-79.80377255
 20
-137.8892611
 30
0.0
 11
-79.61127424
 21
-137.85585986
 31
0.0
  0
LINE
  5
230
100
AcDbEntity
  8
LAYER0002
  6
CONTINUOUS
 62
       7
100
AcDbLine
 10
-79.61127424
 20
-137.85585986
 30
0.0
 11
-79.41915807
 21
-137.81998679
 31
0.0
  0
LINE
  5
231
100
AcDbEntity
  8
LAYER0002
  6
CONTINUOUS
 62
       7
100
AcDbLine
 10
-79.41915807
 20
-137.81998679
 30
0.0
 11
-79.22745774
 21
-137.78165251
 31
0.0
  0
LINE
  5
232
100
AcDbEntity
  8
LAYER0002
  6
CONTINUOUS
 62
       7
100
AcDbLine
 10
-79.22745774
 20
-137.78165251
 30
0.0
 11
-79.03619334
 21
-137.74090158
 31
0.0
  0
LINE
  5
233
100
AcDbEntity
  8
LAYER0002
  6
CONTINUOUS
 62
       7
100
AcDbLine
 10
-79.03619334
 20
-137.74090158
 30
0.0
 11
-78.84534173
 21
-137.69788667
 31
0.0
  0
LINE
  5
234
100
AcDbEntity
  8
LAYER0002
  6
CONTINUOUS
 62
       7
100
AcDbLine
 10
-78.84534173
 20
-137.69788667
 30
0.0
 11
-78.65487114
 21
-137.65278194
 31
0.0
  0
LINE
  5
235
100
AcDbEntity
  8
LAYER0002
  6
CONTINUOUS
 62
       7
100
AcDbLine
 10
-78.65487114
 20
-137.65278194
 30
0.0
 11
-78.46474982
 21
-137.60576153
 31
0.0
  0
LINE
  5
236
100
AcDbEntity
  8
LAYER0002
  6
CONTINUOUS
 62
       7
100
AcDbLine
 10
-78.46474982
 20
-137.60576153
 30
0.0
 11
-78.27494603
 21
-137.55699959
 31
0.0
  0
LINE
  5
237
100
AcDbEntity
  8
LAYER0002
  6
CONTINUOUS
 62
       7
100
AcDbLine
 10
-78.27494603
 20
-137.55699959
 30
0.0
 11
-78.08542802
 21
-137.50667029
 31
0.0
  0
LINE
  5
238
100
AcDbEntity
  8
LAYER0002
  6
CONTINUOUS
 62
       7
100
AcDbLine
 10
-78.08542802
 20
-137.50667029
 30
0.0
 11
-77.89616401
 21
-137.45494776
 31
0.0
  0
LINE
  5
239
100
AcDbEntity
  8
LAYER0002
  6
CONTINUOUS
 62
       7
100
AcDbLine
 10
-77.89616401
 20
-137.45494776
 30
0.0
 11
-77.70712228
 21
-137.40200617
 31
0.0
  0
LINE
  5
23A
100
AcDbEntity
  8
LAYER0002
  6
CONTINUOUS
 62
       7
100
AcDbLine
 10
-77.70712228
 20
-137.40200617
 30
0.0
 11
-77.51827106
 21
-137.34801967
 31
0.0
  0
LINE
  5
23B
100
AcDbEntity
  8
LAYER0002
  6
CONTINUOUS
 62
       7
100
AcDbLine
 10
-77.51827106
 20
-137.34801967
 30
0.0
 11
-77.3295786
 21
-137.2931624
 31
0.0
  0
LINE
  5
23C
100
AcDbEntity
  8
LAYER0002
  6
CONTINUOUS
 62
       7
100
AcDbLine
 10
-77.3295786
 20
-137.2931624
 30
0.0
 11
-77.14101315
 21
-137.23760853
 31
0.0
  0
LINE
  5
23D
100
AcDbEntity
  8
LAYER0002
  6
CONTINUOUS
 62
       7
100
AcDbLine
 10
-77.14101315
 20
-137.23760853
 30
0.0
 11
-76.95254296
 21
-137.1815322
 31
0.0
  0
LINE
  5
23E
100
AcDbEntity
  8
LAYER0002
  6
CONTINUOUS
 62
       7
100
AcDbLine
 10
-76.95254296
 20
-137.1815322
 30
0.0
 11
-76.76413628
 21
-137.12510756
 31
0.0
  0
LINE
  5
23F
100
AcDbEntity
  8
LAYER0002
  6
CONTINUOUS
 62
       7
100
AcDbLine
 10
-76.76413628
 20
-137.12510756
 30
0.0
 11
-76.57576134
 21
-137.06850877
 31
0.0
  0
ENDBLK
  5
240
100
AcDbEntity
  8
0
100
AcDbBlockEnd
  0
BLOCK
  5
241
100
AcDbEntity
  8
0
100
AcDbBlockBegin
  2
GROUP_18
 70
       0
 10
0.0
 20
0.0
 30
0.0
  3
GROUP_18
  1

  0
LINE
  5
242
100
AcDbEntity
  8
LAYER0002
  6
CONTINUOUS
 62
       7
100
AcDbLine
 10
-76.57576134
 20
-131.62278628
 30
0.0
 11
-76.80194222
 21
-131.55331587
 31
0.0
  0
LINE
  5
243
100
AcDbEntity
  8
LAYER0002
  6
CONTINUOUS
 62
       7
100
AcDbLine
 10
-76.80194222
 20
-131.55331587
 30
0.0
 11
-77.02817238
 21
-131.4842118
 31
0.0
  0
LINE
  5
244
100
AcDbEntity
  8
LAYER0002
  6
CONTINUOUS
 62
       7
100
AcDbLine
 10
-77.02817238
 20
-131.4842118
 30
0.0
 11
-77.25450113
 21
-131.4158404
 31
0.0
  0
LINE
  5
245
100
AcDbEntity
  8
LAYER0002
  6
CONTINUOUS
 62
       7
100
AcDbLine
 10
-77.25450113
 20
-131.4158404
 30
0.0
 11
-77.48097774
 21
-131.34856801
 31
0.0
  0
LINE
  5
246
100
AcDbEntity
  8
LAYER0002
  6
CONTINUOUS
 62
       7
100
AcDbLine
 10
-77.48097774
 20
-131.34856801
 30
0.0
 11
-77.70765151
 21
-131.28276096
 31
0.0
  0
LINE
  5
247
100
AcDbEntity
  8
LAYER0002
  6
CONTINUOUS
 62
       7
100
AcDbLine
 10
-77.70765151
 20
-131.28276096
 30
0.0
 11
-77.93457174
 21
-131.21878559
 31
0.0
  0
LINE
  5
248
100
AcDbEntity
  8
LAYER0002
  6
CONTINUOUS
 62
       7
100
AcDbLine
 10
-77.93457174
 20
-131.21878559
 30
0.0
 11
-78.1617877
 21
-131.15700824
 31
0.0
  0
LINE
  5
249
100
AcDbEntity
  8
LAYER0002
  6
CONTINUOUS
 62
       7
100
AcDbLine
 10
-78.1617877
 20
-131.15700824
 30
0.0
 11
-78.38934869
 21
-131.09779525
 31
0.0
  0
LINE
  5
24A
100
AcDbEntity
  8
LAYER0002
  6
CONTINUOUS
 62
       7
100
AcDbLine
 10
-78.38934869
 20
-131.09779525
 30
0.0
 11
-78.617304
 21
-131.04151295
 31
0.0
  0
LINE
  5
24B
100
AcDbEntity
  8
LAYER0002
  6
CONTINUOUS
 62
       7
100
AcDbLine
 10
-78.617304
 20
-131.04151295
 30
0.0
 11
-78.84570291
 21
-130.98852767
 31
0.0
  0
LINE
  5
24C
100
AcDbEntity
  8
LAYER0002
  6
CONTINUOUS
 62
       7
100
AcDbLine
 10
-78.84570291
 20
-130.98852767
 30
0.0
 11
-79.07459473
 21
-130.93920575
 31
0.0
  0
LINE
  5
24D
100
AcDbEntity
  8
LAYER0002
  6
CONTINUOUS
 62
       7
100
AcDbLine
 10
-79.07459473
 20
-130.93920575
 30
0.0
 11
-79.30402873
 21
-130.89391354
 31
0.0
  0
LINE
  5
24E
100
AcDbEntity
  8
LAYER0002
  6
CONTINUOUS
 62
       7
100
AcDbLine
 10
-79.30402873
 20
-130.89391354
 30
0.0
 11
-79.53405045
 21
-130.85298941
 31
0.0
  0
LINE
  5
24F
100
AcDbEntity
  8
LAYER0002
  6
CONTINUOUS
 62
       7
100
AcDbLine
 10
-79.53405045
 20
-130.85298941
 30
0.0
 11
-79.76465206
 21
-130.81637518
 31
0.0
  0
LINE
  5
250
100
AcDbEntity
  8
LAYER0002
  6
CONTINUOUS
 62
       7
100
AcDbLine
 10
-79.76465206
 20
-130.81637518
 30
0.0
 11
-79.99578609
 21
-130.7837181
 31
0.0
  0
LINE
  5
251
100
AcDbEntity
  8
LAYER0002
  6
CONTINUOUS
 62
       7
100
AcDbLine
 10
-79.99578609
 20
-130.7837181
 30
0.0
 11
-80.22740415
 21
-130.75465842
 31
0.0
  0
LINE
  5
252
100
AcDbEntity
  8
LAYER0002
  6
CONTINUOUS
 62
       7
100
AcDbLine
 10
-80.22740415
 20
-130.75465842
 30
0.0
 11
-80.45945783
 21
-130.72883641
 31
0.0
  0
LINE
  5
253
100
AcDbEntity
  8
LAYER0002
  6
CONTINUOUS
 62
       7
100
AcDbLine
 10
-80.45945783
 20
-130.72883641
 30
0.0
 11
-80.69189873
 21
-130.70589232
 31
0.0
  0
LINE
  5
254
100
AcDbEntity
  8
LAYER0002
  6
CONTINUOUS
 62
       7
100
AcDbLine
 10
-80.69189873
 20
-130.70589232
 30
0.0
 11
-80.92467845
 21
-130.68546642
 31
0.0
  0
LINE
  5
255
100
AcDbEntity
  8
LAYER0002
  6
CONTINUOUS
 62
       7
100
AcDbLine
 10
-80.92467845
 20
-130.68546642
 30
0.0
 11
-81.15774858
 21
-130.66719896
 31
0.0
  0
LINE
  5
256
100
AcDbEntity
  8
LAYER0002
  6
CONTINUOUS
 62
       7
100
AcDbLine
 10
-81.15774858
 20
-130.66719896
 30
0.0
 11
-81.39106072
 21
-130.6507302
 31
0.0
  0
LINE
  5
257
100
AcDbEntity
  8
LAYER0002
  6
CONTINUOUS
 62
       7
100
AcDbLine
 10
-81.39106072
 20
-130.6507302
 30
0.0
 11
-81.62456647
 21
-130.6357004
 31
0.0
  0
LINE
  5
258
100
AcDbEntity
  8
LAYER0002
  6
CONTINUOUS
 62
       7
100
AcDbLine
 10
-81.62456647
 20
-130.6357004
 30
0.0
 11
-81.85821742
 21
-130.62174983
 31
0.0
  0
LINE
  5
259
100
AcDbEntity
  8
LAYER0002
  6
CONTINUOUS
 62
       7
100
AcDbLine
 10
-81.85821742
 20
-130.62174983
 30
0.0
 11
-82.09196519
 21
-130.60851873
 31
0.0
  0
LINE
  5
25A
100
AcDbEntity
  8
LAYER0002
  6
CONTINUOUS
 62
       7
100
AcDbLine
 10
-82.09196519
 20
-130.60851873
 30
0.0
 11
-82.32576135
 21
-130.59564738
 31
0.0
  0
ENDBLK
  5
25B
100
AcDbEntity
  8
0
100
AcDbBlockEnd
  0
BLOCK
  5
25C
100
AcDbEntity
  8
0
100
AcDbBlockBegin
  2
GROUP_19
 70
       0
 10
0.0
 20
0.0
 30
0.0
  3
GROUP_19
  1

  0
LINE
  5
25D
100
AcDbEntity
  8
LAYER0002
  6
CONTINUOUS
 62
       7
100
AcDbLine
 10
-82.32576135
 20
-130.59564738
 30
0.0
 11
-82.52021774
 21
-130.59760354
 31
0.0
  0
LINE
  5
25E
100
AcDbEntity
  8
LAYER0002
  6
CONTINUOUS
 62
       7
100
AcDbLine
 10
-82.52021774
 20
-130.59760354
 30
0.0
 11
-82.71468305
 21
-130.60079502
 31
0.0
  0
LINE
  5
25F
100
AcDbEntity
  8
LAYER0002
  6
CONTINUOUS
 62
       7
100
AcDbLine
 10
-82.71468305
 20
-130.60079502
 30
0.0
 11
-82.90916106
 21
-130.60630725
 31
0.0
  0
LINE
  5
260
100
AcDbEntity
  8
LAYER0002
  6
CONTINUOUS
 62
       7
100
AcDbLine
 10
-82.90916106
 20
-130.60630725
 30
0.0
 11
-83.10362757
 21
-130.61440755
 31
0.0
  0
LINE
  5
261
100
AcDbEntity
  8
LAYER0002
  6
CONTINUOUS
 62
       7
100
AcDbLine
 10
-83.10362757
 20
-130.61440755
 30
0.0
 11
-83.29804891
 21
-130.62508555
 31
0.0
  0
LINE
  5
262
100
AcDbEntity
  8
LAYER0002
  6
CONTINUOUS
 62
       7
100
AcDbLine
 10
-83.29804891
 20
-130.62508555
 30
0.0
 11
-83.49239138
 21
-130.63833068
 31
0.0
  0
LINE
  5
263
100
AcDbEntity
  8
LAYER0002
  6
CONTINUOUS
 62
       7
100
AcDbLine
 10
-83.49239138
 20
-130.63833068
 30
0.0
 11
-83.68662127
 21
-130.65413235
 31
0.0
  0
LINE
  5
264
100
AcDbEntity
  8
LAYER0002
  6
CONTINUOUS
 62
       7
100
AcDbLine
 10
-83.68662127
 20
-130.65413235
 30
0.0
 11
-83.8807049
 21
-130.67247995
 31
0.0
  0
LINE
  5
265
100
AcDbEntity
  8
LAYER0002
  6
CONTINUOUS
 62
       7
100
AcDbLine
 10
-83.8807049
 20
-130.67247995
 30
0.0
 11
-84.07460856
 21
-130.69336292
 31
0.0
  0
LINE
  5
266
100
AcDbEntity
  8
LAYER0002
  6
CONTINUOUS
 62
       7
100
AcDbLine
 10
-84.07460856
 20
-130.69336292
 30
0.0
 11
-84.26829856
 21
-130.71677065
 31
0.0
  0
LINE
  5
267
100
AcDbEntity
  8
LAYER0002
  6
CONTINUOUS
 62
       7
100
AcDbLine
 10
-84.26829856
 20
-130.71677065
 30
0.0
 11
-84.4617412
 21
-130.74269257
 31
0.0
  0
LINE
  5
268
100
AcDbEntity
  8
LAYER0002
  6
CONTINUOUS
 62
       7
100
AcDbLine
 10
-84.4617412
 20
-130.74269257
 30
0.0
 11
-84.65490279
 21
-130.77111808
 31
0.0
  0
LINE
  5
269
100
AcDbEntity
  8
LAYER0002
  6
CONTINUOUS
 62
       7
100
AcDbLine
 10
-84.65490279
 20
-130.77111808
 30
0.0
 11
-84.84774962
 21
-130.80203659
 31
0.0
  0
LINE
  5
26A
100
AcDbEntity
  8
LAYER0002
  6
CONTINUOUS
 62
       7
100
AcDbLine
 10
-84.84774962
 20
-130.80203659
 30
0.0
 11
-85.04024801
 21
-130.83543752
 31
0.0
  0
LINE
  5
26B
100
AcDbEntity
  8
LAYER0002
  6
CONTINUOUS
 62
       7
100
AcDbLine
 10
-85.04024801
 20
-130.83543752
 30
0.0
 11
-85.23236425
 21
-130.87131028
 31
0.0
  0
LINE
  5
26C
100
AcDbEntity
  8
LAYER0002
  6
CONTINUOUS
 62
       7
100
AcDbLine
 10
-85.23236425
 20
-130.87131028
 30
0.0
 11
-85.42406465
 21
-130.90964427
 31
0.0
  0
LINE
  5
26D
100
AcDbEntity
  8
LAYER0002
  6
CONTINUOUS
 62
       7
100
AcDbLine
 10
-85.42406465
 20
-130.90964427
 30
0.0
 11
-85.6153291
 21
-130.95039494
 31
0.0
  0
LINE
  5
26E
100
AcDbEntity
  8
LAYER0002
  6
CONTINUOUS
 62
       7
100
AcDbLine
 10
-85.6153291
 20
-130.95039494
 30
0.0
 11
-85.80618077
 21
-130.99340962
 31
0.0
  0
LINE
  5
26F
100
AcDbEntity
  8
LAYER0002
  6
CONTINUOUS
 62
       7
100
AcDbLine
 10
-85.80618077
 20
-130.99340962
 30
0.0
 11
-85.99665141
 21
-131.03851416
 31
0.0
  0
LINE
  5
270
100
AcDbEntity
  8
LAYER0002
  6
CONTINUOUS
 62
       7
100
AcDbLine
 10
-85.99665141
 20
-131.03851416
 30
0.0
 11
-86.18677276
 21
-131.0855344
 31
0.0
  0
LINE
  5
271
100
AcDbEntity
  8
LAYER0002
  6
CONTINUOUS
 62
       7
100
AcDbLine
 10
-86.18677276
 20
-131.0855344
 30
0.0
 11
-86.37657658
 21
-131.13429618
 31
0.0
  0
LINE
  5
272
100
AcDbEntity
  8
LAYER0002
  6
CONTINUOUS
 62
       7
100
AcDbLine
 10
-86.37657658
 20
-131.13429618
 30
0.0
 11
-86.56609462
 21
-131.18462535
 31
0.0
  0
LINE
  5
273
100
AcDbEntity
  8
LAYER0002
  6
CONTINUOUS
 62
       7
100
AcDbLine
 10
-86.56609462
 20
-131.18462535
 30
0.0
 11
-86.75535864
 21
-131.23634776
 31
0.0
  0
LINE
  5
274
100
AcDbEntity
  8
LAYER0002
  6
CONTINUOUS
 62
       7
100
AcDbLine
 10
-86.75535864
 20
-131.23634776
 30
0.0
 11
-86.94440039
 21
-131.28928926
 31
0.0
  0
LINE
  5
275
100
AcDbEntity
  8
LAYER0002
  6
CONTINUOUS
 62
       7
100
AcDbLine
 10
-86.94440039
 20
-131.28928926
 30
0.0
 11
-87.13325162
 21
-131.34327568
 31
0.0
  0
LINE
  5
276
100
AcDbEntity
  8
LAYER0002
  6
CONTINUOUS
 62
       7
100
AcDbLine
 10
-87.13325162
 20
-131.34327568
 30
0.0
 11
-87.32194409
 21
-131.39813287
 31
0.0
  0
LINE
  5
277
100
AcDbEntity
  8
LAYER0002
  6
CONTINUOUS
 62
       7
100
AcDbLine
 10
-87.32194409
 20
-131.39813287
 30
0.0
 11
-87.51050954
 21
-131.45368668
 31
0.0
  0
LINE
  5
278
100
AcDbEntity
  8
LAYER0002
  6
CONTINUOUS
 62
       7
100
AcDbLine
 10
-87.51050954
 20
-131.45368668
 30
0.0
 11
-87.69897974
 21
-131.50976296
 31
0.0
  0
LINE
  5
279
100
AcDbEntity
  8
LAYER0002
  6
CONTINUOUS
 62
       7
100
AcDbLine
 10
-87.69897974
 20
-131.50976296
 30
0.0
 11
-87.88738643
 21
-131.56618754
 31
0.0
  0
LINE
  5
27A
100
AcDbEntity
  8
LAYER0002
  6
CONTINUOUS
 62
       7
100
AcDbLine
 10
-87.88738643
 20
-131.56618754
 30
0.0
 11
-88.07576136
 21
-131.62278628
 31
0.0
  0
ENDBLK
  5
27B
100
AcDbEntity
  8
0
100
AcDbBlockEnd
  0
BLOCK
  5
27C
100
AcDbEntity
  8
0
100
AcDbBlockBegin
  2
GROUP_20
 70
       0
 10
0.0
 20
0.0
 30
0.0
  3
GROUP_20
  1

  0
LINE
  5
27D
100
AcDbEntity
  8
LAYER0002
  6
CONTINUOUS
 62
       7
100
AcDbLine
 10
-88.07576136
 20
-137.06850877
 30
0.0
 11
-87.84958049
 21
-137.1379794
 31
0.0
  0
LINE
  5
27E
100
AcDbEntity
  8
LAYER0002
  6
CONTINUOUS
 62
       7
100
AcDbLine
 10
-87.84958049
 20
-137.1379794
 30
0.0
 11
-87.62335032
 21
-137.20708369
 31
0.0
  0
LINE
  5
27F
100
AcDbEntity
  8
LAYER0002
  6
CONTINUOUS
 62
       7
100
AcDbLine
 10
-87.62335032
 20
-137.20708369
 30
0.0
 11
-87.39702157
 21
-137.2754553
 31
0.0
  0
LINE
  5
280
100
AcDbEntity
  8
LAYER0002
  6
CONTINUOUS
 62
       7
100
AcDbLine
 10
-87.39702157
 20
-137.2754553
 30
0.0
 11
-87.17054496
 21
-137.3427279
 31
0.0
  0
LINE
  5
281
100
AcDbEntity
  8
LAYER0002
  6
CONTINUOUS
 62
       7
100
AcDbLine
 10
-87.17054496
 20
-137.3427279
 30
0.0
 11
-86.94387118
 21
-137.40853514
 31
0.0
  0
LINE
  5
282
100
AcDbEntity
  8
LAYER0002
  6
CONTINUOUS
 62
       7
100
AcDbLine
 10
-86.94387118
 20
-137.40853514
 30
0.0
 11
-86.71695096
 21
-137.47251068
 31
0.0
  0
LINE
  5
283
100
AcDbEntity
  8
LAYER0002
  6
CONTINUOUS
 62
       7
100
AcDbLine
 10
-86.71695096
 20
-137.47251068
 30
0.0
 11
-86.489735
 21
-137.53428819
 31
0.0
  0
LINE
  5
284
100
AcDbEntity
  8
LAYER0002
  6
CONTINUOUS
 62
       7
100
AcDbLine
 10
-86.489735
 20
-137.53428819
 30
0.0
 11
-86.262174
 21
-137.59350132
 31
0.0
  0
LINE
  5
285
100
AcDbEntity
  8
LAYER0002
  6
CONTINUOUS
 62
       7
100
AcDbLine
 10
-86.262174
 20
-137.59350132
 30
0.0
 11
-86.0342187
 21
-137.64978374
 31
0.0
  0
LINE
  5
286
100
AcDbEntity
  8
LAYER0002
  6
CONTINUOUS
 62
       7
100
AcDbLine
 10
-86.0342187
 20
-137.64978374
 30
0.0
 11
-85.80581978
 21
-137.70276911
 31
0.0
  0
LINE
  5
287
100
AcDbEntity
  8
LAYER0002
  6
CONTINUOUS
 62
       7
100
AcDbLine
 10
-85.80581978
 20
-137.70276911
 30
0.0
 11
-85.57692796
 21
-137.75209109
 31
0.0
  0
LINE
  5
288
100
AcDbEntity
  8
LAYER0002
  6
CONTINUOUS
 62
       7
100
AcDbLine
 10
-85.57692796
 20
-137.75209109
 30
0.0
 11
-85.34749396
 21
-137.79738334
 31
0.0
  0
LINE
  5
289
100
AcDbEntity
  8
LAYER0002
  6
CONTINUOUS
 62
       7
100
AcDbLine
 10
-85.34749396
 20
-137.79738334
 30
0.0
 11
-85.11747224
 21
-137.83830747
 31
0.0
  0
LINE
  5
28A
100
AcDbEntity
  8
LAYER0002
  6
CONTINUOUS
 62
       7
100
AcDbLine
 10
-85.11747224
 20
-137.83830747
 30
0.0
 11
-84.88687063
 21
-137.87492166
 31
0.0
  0
LINE
  5
28B
100
AcDbEntity
  8
LAYER0002
  6
CONTINUOUS
 62
       7
100
AcDbLine
 10
-84.88687063
 20
-137.87492166
 30
0.0
 11
-84.6557366
 21
-137.90757868
 31
0.0
  0
LINE
  5
28C
100
AcDbEntity
  8
LAYER0002
  6
CONTINUOUS
 62
       7
100
AcDbLine
 10
-84.6557366
 20
-137.90757868
 30
0.0
 11
-84.42411854
 21
-137.93663826
 31
0.0
  0
LINE
  5
28D
100
AcDbEntity
  8
LAYER0002
  6
CONTINUOUS
 62
       7
100
AcDbLine
 10
-84.42411854
 20
-137.93663826
 30
0.0
 11
-84.19206486
 21
-137.96246016
 31
0.0
  0
LINE
  5
28E
100
AcDbEntity
  8
LAYER0002
  6
CONTINUOUS
 62
       7
100
AcDbLine
 10
-84.19206486
 20
-137.96246016
 30
0.0
 11
-83.95962396
 21
-137.98540411
 31
0.0
  0
LINE
  5
28F
100
AcDbEntity
  8
LAYER0002
  6
CONTINUOUS
 62
       7
100
AcDbLine
 10
-83.95962396
 20
-137.98540411
 30
0.0
 11
-83.72684425
 21
-138.00582985
 31
0.0
  0
LINE
  5
290
100
AcDbEntity
  8
LAYER0002
  6
CONTINUOUS
 62
       7
100
AcDbLine
 10
-83.72684425
 20
-138.00582985
 30
0.0
 11
-83.49377412
 21
-138.02409714
 31
0.0
  0
LINE
  5
291
100
AcDbEntity
  8
LAYER0002
  6
CONTINUOUS
 62
       7
100
AcDbLine
 10
-83.49377412
 20
-138.02409714
 30
0.0
 11
-83.26046198
 21
-138.04056571
 31
0.0
  0
LINE
  5
292
100
AcDbEntity
  8
LAYER0002
  6
CONTINUOUS
 62
       7
100
AcDbLine
 10
-83.26046198
 20
-138.04056571
 30
0.0
 11
-83.02695623
 21
-138.0555953
 31
0.0
  0
LINE
  5
293
100
AcDbEntity
  8
LAYER0002
  6
CONTINUOUS
 62
       7
100
AcDbLine
 10
-83.02695623
 20
-138.0555953
 30
0.0
 11
-82.79330528
 21
-138.06954566
 31
0.0
  0
LINE
  5
294
100
AcDbEntity
  8
LAYER0002
  6
CONTINUOUS
 62
       7
100
AcDbLine
 10
-82.79330528
 20
-138.06954566
 30
0.0
 11
-82.55955752
 21
-138.08277654
 31
0.0
  0
LINE
  5
295
100
AcDbEntity
  8
LAYER0002
  6
CONTINUOUS
 62
       7
100
AcDbLine
 10
-82.55955752
 20
-138.08277654
 30
0.0
 11
-82.32576135
 21
-138.09564768
 31
0.0
  0
ENDBLK
  5
296
100
AcDbEntity
  8
0
100
AcDbBlockEnd
  0
BLOCK
  5
297
100
AcDbEntity
  8
0
100
AcDbBlockBegin
  2
GROUP_21
 70
       0
 10
0.0
 20
0.0
 30
0.0
  3
GROUP_21
  1

  0
LINE
  5
298
100
AcDbEntity
  8
LAYER0002
  6
CONTINUOUS
 62
       7
100
AcDbLine
 10
-88.07576136
 20
-131.62278628
 30
0.0
 11
-88.07576136
 21
-131.55677373
 31
0.0
  0
LINE
  5
299
100
AcDbEntity
  8
LAYER0002
  6
CONTINUOUS
 62
       7
100
AcDbLine
 10
-88.07576136
 20
-131.55677373
 30
0.0
 11
-88.07576136
 21
-131.49101818
 31
0.0
  0
LINE
  5
29A
100
AcDbEntity
  8
LAYER0002
  6
CONTINUOUS
 62
       7
100
AcDbLine
 10
-88.07576136
 20
-131.49101818
 30
0.0
 11
-88.07576136
 21
-131.42577662
 31
0.0
  0
LINE
  5
29B
100
AcDbEntity
  8
LAYER0002
  6
CONTINUOUS
 62
       7
100
AcDbLine
 10
-88.07576136
 20
-131.42577662
 30
0.0
 11
-88.07576136
 21
-131.36130605
 31
0.0
  0
LINE
  5
29C
100
AcDbEntity
  8
LAYER0002
  6
CONTINUOUS
 62
       7
100
AcDbLine
 10
-88.07576136
 20
-131.36130605
 30
0.0
 11
-88.07576136
 21
-131.29786348
 31
0.0
  0
LINE
  5
29D
100
AcDbEntity
  8
LAYER0002
  6
CONTINUOUS
 62
       7
100
AcDbLine
 10
-88.07576136
 20
-131.29786348
 30
0.0
 11
-88.07576136
 21
-131.23570588
 31
0.0
  0
LINE
  5
29E
100
AcDbEntity
  8
LAYER0002
  6
CONTINUOUS
 62
       7
100
AcDbLine
 10
-88.07576136
 20
-131.23570588
 30
0.0
 11
-88.07576136
 21
-131.17509028
 31
0.0
  0
LINE
  5
29F
100
AcDbEntity
  8
LAYER0002
  6
CONTINUOUS
 62
       7
100
AcDbLine
 10
-88.07576136
 20
-131.17509028
 30
0.0
 11
-88.07576136
 21
-131.11627365
 31
0.0
  0
LINE
  5
2A0
100
AcDbEntity
  8
LAYER0002
  6
CONTINUOUS
 62
       7
100
AcDbLine
 10
-88.07576136
 20
-131.11627365
 30
0.0
 11
-88.07576136
 21
-131.059513
 31
0.0
  0
LINE
  5
2A1
100
AcDbEntity
  8
LAYER0002
  6
CONTINUOUS
 62
       7
100
AcDbLine
 10
-88.07576136
 20
-131.059513
 30
0.0
 11
-88.07576136
 21
-131.00506532
 31
0.0
  0
LINE
  5
2A2
100
AcDbEntity
  8
LAYER0002
  6
CONTINUOUS
 62
       7
100
AcDbLine
 10
-88.07576136
 20
-131.00506532
 30
0.0
 11
-88.07576136
 21
-130.95318762
 31
0.0
  0
LINE
  5
2A3
100
AcDbEntity
  8
LAYER0002
  6
CONTINUOUS
 62
       7
100
AcDbLine
 10
-88.07576136
 20
-130.95318762
 30
0.0
 11
-88.07576136
 21
-130.90413689
 31
0.0
  0
LINE
  5
2A4
100
AcDbEntity
  8
LAYER0002
  6
CONTINUOUS
 62
       7
100
AcDbLine
 10
-88.07576136
 20
-130.90413689
 30
0.0
 11
-88.07576136
 21
-130.85817012
 31
0.0
  0
LINE
  5
2A5
100
AcDbEntity
  8
LAYER0002
  6
CONTINUOUS
 62
       7
100
AcDbLine
 10
-88.07576136
 20
-130.85817012
 30
0.0
 11
-88.07576136
 21
-130.81554432
 31
0.0
  0
LINE
  5
2A6
100
AcDbEntity
  8
LAYER0002
  6
CONTINUOUS
 62
       7
100
AcDbLine
 10
-88.07576136
 20
-130.81554432
 30
0.0
 11
-88.07576136
 21
-130.77651648
 31
0.0
  0
LINE
  5
2A7
100
AcDbEntity
  8
LAYER0002
  6
CONTINUOUS
 62
       7
100
AcDbLine
 10
-88.07576136
 20
-130.77651648
 30
0.0
 11
-88.07576136
 21
-130.7413436
 31
0.0
  0
LINE
  5
2A8
100
AcDbEntity
  8
LAYER0002
  6
CONTINUOUS
 62
       7
100
AcDbLine
 10
-88.07576136
 20
-130.7413436
 30
0.0
 11
-88.07576136
 21
-130.71028267
 31
0.0
  0
LINE
  5
2A9
100
AcDbEntity
  8
LAYER0002
  6
CONTINUOUS
 62
       7
100
AcDbLine
 10
-88.07576136
 20
-130.71028267
 30
0.0
 11
-88.07576136
 21
-130.6835907
 31
0.0
  0
LINE
  5
2AA
100
AcDbEntity
  8
LAYER0002
  6
CONTINUOUS
 62
       7
100
AcDbLine
 10
-88.07576136
 20
-130.6835907
 30
0.0
 11
-88.07576136
 21
-130.66150597
 31
0.0
  0
LINE
  5
2AB
100
AcDbEntity
  8
LAYER0002
  6
CONTINUOUS
 62
       7
100
AcDbLine
 10
-88.07576136
 20
-130.66150597
 30
0.0
 11
-88.07576136
 21
-130.643802
 31
0.0
  0
LINE
  5
2AC
100
AcDbEntity
  8
LAYER0002
  6
CONTINUOUS
 62
       7
100
AcDbLine
 10
-88.07576136
 20
-130.643802
 30
0.0
 11
-88.07576136
 21
-130.6297676
 31
0.0
  0
LINE
  5
2AD
100
AcDbEntity
  8
LAYER0002
  6
CONTINUOUS
 62
       7
100
AcDbLine
 10
-88.07576136
 20
-130.6297676
 30
0.0
 11
-88.07576136
 21
-130.61866885
 31
0.0
  0
LINE
  5
2AE
100
AcDbEntity
  8
LAYER0002
  6
CONTINUOUS
 62
       7
100
AcDbLine
 10
-88.07576136
 20
-130.61866885
 30
0.0
 11
-88.07576136
 21
-130.60977184
 31
0.0
  0
LINE
  5
2AF
100
AcDbEntity
  8
LAYER0002
  6
CONTINUOUS
 62
       7
100
AcDbLine
 10
-88.07576136
 20
-130.60977184
 30
0.0
 11
-88.07576136
 21
-130.60234265
 31
0.0
  0
LINE
  5
2B0
100
AcDbEntity
  8
LAYER0002
  6
CONTINUOUS
 62
       7
100
AcDbLine
 10
-88.07576136
 20
-130.60234265
 30
0.0
 11
-88.07576136
 21
-130.59564738
 31
0.0
  0
ENDBLK
  5
2B1
100
AcDbEntity
  8
0
100
AcDbBlockEnd
  0
BLOCK
  5
2B2
100
AcDbEntity
  8
0
100
AcDbBlockBegin
  2
GROUP_22
 70
       0
 10
0.0
 20
0.0
 30
0.0
  3
GROUP_22
  1

  0
LINE
  5
2B3
100
AcDbEntity
  8
LAYER0002
  6
CONTINUOUS
 62
       7
100
AcDbLine
 10
-65.07576132
 20
-137.06850877
 30
0.0
 11
-65.07576132
 21
-137.13452157
 31
0.0
  0
LINE
  5
2B4
100
AcDbEntity
  8
LAYER0002
  6
CONTINUOUS
 62
       7
100
AcDbLine
 10
-65.07576132
 20
-137.13452157
 30
0.0
 11
-65.07576132
 21
-137.20027736
 31
0.0
  0
LINE
  5
2B5
100
AcDbEntity
  8
LAYER0002
  6
CONTINUOUS
 62
       7
100
AcDbLine
 10
-65.07576132
 20
-137.20027736
 30
0.0
 11
-65.07576132
 21
-137.26551915
 31
0.0
  0
LINE
  5
2B6
100
AcDbEntity
  8
LAYER0002
  6
CONTINUOUS
 62
       7
100
AcDbLine
 10
-65.07576132
 20
-137.26551915
 30
0.0
 11
-65.07576132
 21
-137.32998995
 31
0.0
  0
LINE
  5
2B7
100
AcDbEntity
  8
LAYER0002
  6
CONTINUOUS
 62
       7
100
AcDbLine
 10
-65.07576132
 20
-137.32998995
 30
0.0
 11
-65.07576132
 21
-137.39343274
 31
0.0
  0
LINE
  5
2B8
100
AcDbEntity
  8
LAYER0002
  6
CONTINUOUS
 62
       7
100
AcDbLine
 10
-65.07576132
 20
-137.39343274
 30
0.0
 11
-65.07576132
 21
-137.45559054
 31
0.0
  0
LINE
  5
2B9
100
AcDbEntity
  8
LAYER0002
  6
CONTINUOUS
 62
       7
100
AcDbLine
 10
-65.07576132
 20
-137.45559054
 30
0.0
 11
-65.07576132
 21
-137.51620634
 31
0.0
  0
LINE
  5
2BA
100
AcDbEntity
  8
LAYER0002
  6
CONTINUOUS
 62
       7
100
AcDbLine
 10
-65.07576132
 20
-137.51620634
 30
0.0
 11
-65.07576132
 21
-137.57502314
 31
0.0
  0
LINE
  5
2BB
100
AcDbEntity
  8
LAYER0002
  6
CONTINUOUS
 62
       7
100
AcDbLine
 10
-65.07576132
 20
-137.57502314
 30
0.0
 11
-65.07576132
 21
-137.63178394
 31
0.0
  0
LINE
  5
2BC
100
AcDbEntity
  8
LAYER0002
  6
CONTINUOUS
 62
       7
100
AcDbLine
 10
-65.07576132
 20
-137.63178394
 30
0.0
 11
-65.07576132
 21
-137.68623174
 31
0.0
  0
LINE
  5
2BD
100
AcDbEntity
  8
LAYER0002
  6
CONTINUOUS
 62
       7
100
AcDbLine
 10
-65.07576132
 20
-137.68623174
 30
0.0
 11
-65.07576132
 21
-137.73810955
 31
0.0
  0
LINE
  5
2BE
100
AcDbEntity
  8
LAYER0002
  6
CONTINUOUS
 62
       7
100
AcDbLine
 10
-65.07576132
 20
-137.73810955
 30
0.0
 11
-65.07576132
 21
-137.78716036
 31
0.0
  0
LINE
  5
2BF
100
AcDbEntity
  8
LAYER0002
  6
CONTINUOUS
 62
       7
100
AcDbLine
 10
-65.07576132
 20
-137.78716036
 30
0.0
 11
-65.07576132
 21
-137.83312717
 31
0.0
  0
LINE
  5
2C0
100
AcDbEntity
  8
LAYER0002
  6
CONTINUOUS
 62
       7
100
AcDbLine
 10
-65.07576132
 20
-137.83312717
 30
0.0
 11
-65.07576132
 21
-137.87575299
 31
0.0
  0
LINE
  5
2C1
100
AcDbEntity
  8
LAYER0002
  6
CONTINUOUS
 62
       7
100
AcDbLine
 10
-65.07576132
 20
-137.87575299
 30
0.0
 11
-65.07576132
 21
-137.91478081
 31
0.0
  0
LINE
  5
2C2
100
AcDbEntity
  8
LAYER0002
  6
CONTINUOUS
 62
       7
100
AcDbLine
 10
-65.07576132
 20
-137.91478081
 30
0.0
 11
-65.07576132
 21
-137.94995363
 31
0.0
  0
LINE
  5
2C3
100
AcDbEntity
  8
LAYER0002
  6
CONTINUOUS
 62
       7
100
AcDbLine
 10
-65.07576132
 20
-137.94995363
 30
0.0
 11
-65.07576132
 21
-137.98101446
 31
0.0
  0
LINE
  5
2C4
100
AcDbEntity
  8
LAYER0002
  6
CONTINUOUS
 62
       7
100
AcDbLine
 10
-65.07576132
 20
-137.98101446
 30
0.0
 11
-65.07576132
 21
-138.0077063
 31
0.0
  0
LINE
  5
2C5
100
AcDbEntity
  8
LAYER0002
  6
CONTINUOUS
 62
       7
100
AcDbLine
 10
-65.07576132
 20
-138.0077063
 30
0.0
 11
-65.07576132
 21
-138.02979085
 31
0.0
  0
LINE
  5
2C6
100
AcDbEntity
  8
LAYER0002
  6
CONTINUOUS
 62
       7
100
AcDbLine
 10
-65.07576132
 20
-138.02979085
 30
0.0
 11
-65.07576132
 21
-138.04749458
 31
0.0
  0
LINE
  5
2C7
100
AcDbEntity
  8
LAYER0002
  6
CONTINUOUS
 62
       7
100
AcDbLine
 10
-65.07576132
 20
-138.04749458
 30
0.0
 11
-65.07576132
 21
-138.06152872
 31
0.0
  0
LINE
  5
2C8
100
AcDbEntity
  8
LAYER0002
  6
CONTINUOUS
 62
       7
100
AcDbLine
 10
-65.07576132
 20
-138.06152872
 30
0.0
 11
-65.07576132
 21
-138.07262718
 31
0.0
  0
LINE
  5
2C9
100
AcDbEntity
  8
LAYER0002
  6
CONTINUOUS
 62
       7
100
AcDbLine
 10
-65.07576132
 20
-138.07262718
 30
0.0
 11
-65.07576132
 21
-138.08152388
 31
0.0
  0
LINE
  5
2CA
100
AcDbEntity
  8
LAYER0002
  6
CONTINUOUS
 62
       7
100
AcDbLine
 10
-65.07576132
 20
-138.08152388
 30
0.0
 11
-65.07576132
 21
-138.08895274
 31
0.0
  0
LINE
  5
2CB
100
AcDbEntity
  8
LAYER0002
  6
CONTINUOUS
 62
       7
100
AcDbLine
 10
-65.07576132
 20
-138.08895274
 30
0.0
 11
-65.07576132
 21
-138.09564768
 31
0.0
  0
ENDBLK
  5
2CC
100
AcDbEntity
  8
0
100
AcDbBlockEnd
  0
BLOCK
  5
2CD
100
AcDbEntity
  8
0
100
AcDbBlockBegin
  2
GROUP_23
 70
       0
 10
0.0
 20
0.0
 30
0.0
  3
GROUP_23
  1

  0
LINE
  5
2CE
100
AcDbEntity
  8
LAYER0002
  6
CONTINUOUS
 62
       7
100
AcDbLine
 10
-65.07576132
 20
-130.59564738
 30
0.0
 11
-65.07576132
 21
-130.60234265
 31
0.0
  0
LINE
  5
2CF
100
AcDbEntity
  8
LAYER0002
  6
CONTINUOUS
 62
       7
100
AcDbLine
 10
-65.07576132
 20
-130.60234265
 30
0.0
 11
-65.07576132
 21
-130.60977184
 31
0.0
  0
LINE
  5
2D0
100
AcDbEntity
  8
LAYER0002
  6
CONTINUOUS
 62
       7
100
AcDbLine
 10
-65.07576132
 20
-130.60977184
 30
0.0
 11
-65.07576132
 21
-130.61866885
 31
0.0
  0
LINE
  5
2D1
100
AcDbEntity
  8
LAYER0002
  6
CONTINUOUS
 62
       7
100
AcDbLine
 10
-65.07576132
 20
-130.61866885
 30
0.0
 11
-65.07576132
 21
-130.6297676
 31
0.0
  0
LINE
  5
2D2
100
AcDbEntity
  8
LAYER0002
  6
CONTINUOUS
 62
       7
100
AcDbLine
 10
-65.07576132
 20
-130.6297676
 30
0.0
 11
-65.07576132
 21
-130.643802
 31
0.0
  0
LINE
  5
2D3
100
AcDbEntity
  8
LAYER0002
  6
CONTINUOUS
 62
       7
100
AcDbLine
 10
-65.07576132
 20
-130.643802
 30
0.0
 11
-65.07576132
 21
-130.66150597
 31
0.0
  0
LINE
  5
2D4
100
AcDbEntity
  8
LAYER0002
  6
CONTINUOUS
 62
       7
100
AcDbLine
 10
-65.07576132
 20
-130.66150597
 30
0.0
 11
-65.07576132
 21
-130.6835907
 31
0.0
  0
LINE
  5
2D5
100
AcDbEntity
  8
LAYER0002
  6
CONTINUOUS
 62
       7
100
AcDbLine
 10
-65.07576132
 20
-130.6835907
 30
0.0
 11
-65.07576132
 21
-130.71028267
 31
0.0
  0
LINE
  5
2D6
100
AcDbEntity
  8
LAYER0002
  6
CONTINUOUS
 62
       7
100
AcDbLine
 10
-65.07576132
 20
-130.71028267
 30
0.0
 11
-65.07576132
 21
-130.7413436
 31
0.0
  0
LINE
  5
2D7
100
AcDbEntity
  8
LAYER0002
  6
CONTINUOUS
 62
       7
100
AcDbLine
 10
-65.07576132
 20
-130.7413436
 30
0.0
 11
-65.07576132
 21
-130.77651648
 31
0.0
  0
LINE
  5
2D8
100
AcDbEntity
  8
LAYER0002
  6
CONTINUOUS
 62
       7
100
AcDbLine
 10
-65.07576132
 20
-130.77651648
 30
0.0
 11
-65.07576132
 21
-130.81554432
 31
0.0
  0
LINE
  5
2D9
100
AcDbEntity
  8
LAYER0002
  6
CONTINUOUS
 62
       7
100
AcDbLine
 10
-65.07576132
 20
-130.81554432
 30
0.0
 11
-65.07576132
 21
-130.85817012
 31
0.0
  0
LINE
  5
2DA
100
AcDbEntity
  8
LAYER0002
  6
CONTINUOUS
 62
       7
100
AcDbLine
 10
-65.07576132
 20
-130.85817012
 30
0.0
 11
-65.07576132
 21
-130.90413689
 31
0.0
  0
LINE
  5
2DB
100
AcDbEntity
  8
LAYER0002
  6
CONTINUOUS
 62
       7
100
AcDbLine
 10
-65.07576132
 20
-130.90413689
 30
0.0
 11
-65.07576132
 21
-130.95318762
 31
0.0
  0
LINE
  5
2DC
100
AcDbEntity
  8
LAYER0002
  6
CONTINUOUS
 62
       7
100
AcDbLine
 10
-65.07576132
 20
-130.95318762
 30
0.0
 11
-65.07576132
 21
-131.00506532
 31
0.0
  0
LINE
  5
2DD
100
AcDbEntity
  8
LAYER0002
  6
CONTINUOUS
 62
       7
100
AcDbLine
 10
-65.07576132
 20
-131.00506532
 30
0.0
 11
-65.07576132
 21
-131.059513
 31
0.0
  0
LINE
  5
2DE
100
AcDbEntity
  8
LAYER0002
  6
CONTINUOUS
 62
       7
100
AcDbLine
 10
-65.07576132
 20
-131.059513
 30
0.0
 11
-65.07576132
 21
-131.11627365
 31
0.0
  0
LINE
  5
2DF
100
AcDbEntity
  8
LAYER0002
  6
CONTINUOUS
 62
       7
100
AcDbLine
 10
-65.07576132
 20
-131.11627365
 30
0.0
 11
-65.07576132
 21
-131.17509028
 31
0.0
  0
LINE
  5
2E0
100
AcDbEntity
  8
LAYER0002
  6
CONTINUOUS
 62
       7
100
AcDbLine
 10
-65.07576132
 20
-131.17509028
 30
0.0
 11
-65.07576132
 21
-131.23570588
 31
0.0
  0
LINE
  5
2E1
100
AcDbEntity
  8
LAYER0002
  6
CONTINUOUS
 62
       7
100
AcDbLine
 10
-65.07576132
 20
-131.23570588
 30
0.0
 11
-65.07576132
 21
-131.29786348
 31
0.0
  0
LINE
  5
2E2
100
AcDbEntity
  8
LAYER0002
  6
CONTINUOUS
 62
       7
100
AcDbLine
 10
-65.07576132
 20
-131.29786348
 30
0.0
 11
-65.07576132
 21
-131.36130605
 31
0.0
  0
LINE
  5
2E3
100
AcDbEntity
  8
LAYER0002
  6
CONTINUOUS
 62
       7
100
AcDbLine
 10
-65.07576132
 20
-131.36130605
 30
0.0
 11
-65.07576132
 21
-131.42577662
 31
0.0
  0
LINE
  5
2E4
100
AcDbEntity
  8
LAYER0002
  6
CONTINUOUS
 62
       7
100
AcDbLine
 10
-65.07576132
 20
-131.42577662
 30
0.0
 11
-65.07576132
 21
-131.49101818
 31
0.0
  0
LINE
  5
2E5
100
AcDbEntity
  8
LAYER0002
  6
CONTINUOUS
 62
       7
100
AcDbLine
 10
-65.07576132
 20
-131.49101818
 30
0.0
 11
-65.07576132
 21
-131.55677373
 31
0.0
  0
LINE
  5
2E6
100
AcDbEntity
  8
LAYER0002
  6
CONTINUOUS
 62
       7
100
AcDbLine
 10
-65.07576132
 20
-131.55677373
 30
0.0
 11
-65.07576132
 21
-131.62278628
 31
0.0
  0
ENDBLK
  5
2E7
100
AcDbEntity
  8
0
100
AcDbBlockEnd
  0
BLOCK
  5
2E8
100
AcDbEntity
  8
0
100
AcDbBlockBegin
  2
GROUP_24
 70
       0
 10
0.0
 20
0.0
 30
0.0
  3
GROUP_24
  1

  0
LINE
  5
2E9
100
AcDbEntity
  8
LAYER0002
  6
CONTINUOUS
 62
       7
100
AcDbLine
 10
-88.07576136
 20
-138.09564768
 30
0.0
 11
-88.07576136
 21
-138.08895274
 31
0.0
  0
LINE
  5
2EA
100
AcDbEntity
  8
LAYER0002
  6
CONTINUOUS
 62
       7
100
AcDbLine
 10
-88.07576136
 20
-138.08895274
 30
0.0
 11
-88.07576136
 21
-138.08152388
 31
0.0
  0
LINE
  5
2EB
100
AcDbEntity
  8
LAYER0002
  6
CONTINUOUS
 62
       7
100
AcDbLine
 10
-88.07576136
 20
-138.08152388
 30
0.0
 11
-88.07576136
 21
-138.07262718
 31
0.0
  0
LINE
  5
2EC
100
AcDbEntity
  8
LAYER0002
  6
CONTINUOUS
 62
       7
100
AcDbLine
 10
-88.07576136
 20
-138.07262718
 30
0.0
 11
-88.07576136
 21
-138.06152872
 31
0.0
  0
LINE
  5
2ED
100
AcDbEntity
  8
LAYER0002
  6
CONTINUOUS
 62
       7
100
AcDbLine
 10
-88.07576136
 20
-138.06152872
 30
0.0
 11
-88.07576136
 21
-138.04749458
 31
0.0
  0
LINE
  5
2EE
100
AcDbEntity
  8
LAYER0002
  6
CONTINUOUS
 62
       7
100
AcDbLine
 10
-88.07576136
 20
-138.04749458
 30
0.0
 11
-88.07576136
 21
-138.02979085
 31
0.0
  0
LINE
  5
2EF
100
AcDbEntity
  8
LAYER0002
  6
CONTINUOUS
 62
       7
100
AcDbLine
 10
-88.07576136
 20
-138.02979085
 30
0.0
 11
-88.07576136
 21
-138.0077063
 31
0.0
  0
LINE
  5
2F0
100
AcDbEntity
  8
LAYER0002
  6
CONTINUOUS
 62
       7
100
AcDbLine
 10
-88.07576136
 20
-138.0077063
 30
0.0
 11
-88.07576136
 21
-137.98101446
 31
0.0
  0
LINE
  5
2F1
100
AcDbEntity
  8
LAYER0002
  6
CONTINUOUS
 62
       7
100
AcDbLine
 10
-88.07576136
 20
-137.98101446
 30
0.0
 11
-88.07576136
 21
-137.94995363
 31
0.0
  0
LINE
  5
2F2
100
AcDbEntity
  8
LAYER0002
  6
CONTINUOUS
 62
       7
100
AcDbLine
 10
-88.07576136
 20
-137.94995363
 30
0.0
 11
-88.07576136
 21
-137.91478081
 31
0.0
  0
LINE
  5
2F3
100
AcDbEntity
  8
LAYER0002
  6
CONTINUOUS
 62
       7
100
AcDbLine
 10
-88.07576136
 20
-137.91478081
 30
0.0
 11
-88.07576136
 21
-137.87575299
 31
0.0
  0
LINE
  5
2F4
100
AcDbEntity
  8
LAYER0002
  6
CONTINUOUS
 62
       7
100
AcDbLine
 10
-88.07576136
 20
-137.87575299
 30
0.0
 11
-88.07576136
 21
-137.83312717
 31
0.0
  0
LINE
  5
2F5
100
AcDbEntity
  8
LAYER0002
  6
CONTINUOUS
 62
       7
100
AcDbLine
 10
-88.07576136
 20
-137.83312717
 30
0.0
 11
-88.07576136
 21
-137.78716036
 31
0.0
  0
LINE
  5
2F6
100
AcDbEntity
  8
LAYER0002
  6
CONTINUOUS
 62
       7
100
AcDbLine
 10
-88.07576136
 20
-137.78716036
 30
0.0
 11
-88.07576136
 21
-137.73810955
 31
0.0
  0
LINE
  5
2F7
100
AcDbEntity
  8
LAYER0002
  6
CONTINUOUS
 62
       7
100
AcDbLine
 10
-88.07576136
 20
-137.73810955
 30
0.0
 11
-88.07576136
 21
-137.68623174
 31
0.0
  0
LINE
  5
2F8
100
AcDbEntity
  8
LAYER0002
  6
CONTINUOUS
 62
       7
100
AcDbLine
 10
-88.07576136
 20
-137.68623174
 30
0.0
 11
-88.07576136
 21
-137.63178394
 31
0.0
  0
LINE
  5
2F9
100
AcDbEntity
  8
LAYER0002
  6
CONTINUOUS
 62
       7
100
AcDbLine
 10
-88.07576136
 20
-137.63178394
 30
0.0
 11
-88.07576136
 21
-137.57502314
 31
0.0
  0
LINE
  5
2FA
100
AcDbEntity
  8
LAYER0002
  6
CONTINUOUS
 62
       7
100
AcDbLine
 10
-88.07576136
 20
-137.57502314
 30
0.0
 11
-88.07576136
 21
-137.51620634
 31
0.0
  0
LINE
  5
2FB
100
AcDbEntity
  8
LAYER0002
  6
CONTINUOUS
 62
       7
100
AcDbLine
 10
-88.07576136
 20
-137.51620634
 30
0.0
 11
-88.07576136
 21
-137.45559054
 31
0.0
  0
LINE
  5
2FC
100
AcDbEntity
  8
LAYER0002
  6
CONTINUOUS
 62
       7
100
AcDbLine
 10
-88.07576136
 20
-137.45559054
 30
0.0
 11
-88.07576136
 21
-137.39343274
 31
0.0
  0
LINE
  5
2FD
100
AcDbEntity
  8
LAYER0002
  6
CONTINUOUS
 62
       7
100
AcDbLine
 10
-88.07576136
 20
-137.39343274
 30
0.0
 11
-88.07576136
 21
-137.32998995
 31
0.0
  0
LINE
  5
2FE
100
AcDbEntity
  8
LAYER0002
  6
CONTINUOUS
 62
       7
100
AcDbLine
 10
-88.07576136
 20
-137.32998995
 30
0.0
 11
-88.07576136
 21
-137.26551915
 31
0.0
  0
LINE
  5
2FF
100
AcDbEntity
  8
LAYER0002
  6
CONTINUOUS
 62
       7
100
AcDbLine
 10
-88.07576136
 20
-137.26551915
 30
0.0
 11
-88.07576136
 21
-137.20027736
 31
0.0
  0
LINE
  5
300
100
AcDbEntity
  8
LAYER0002
  6
CONTINUOUS
 62
       7
100
AcDbLine
 10
-88.07576136
 20
-137.20027736
 30
0.0
 11
-88.07576136
 21
-137.13452157
 31
0.0
  0
LINE
  5
301
100
AcDbEntity
  8
LAYER0002
  6
CONTINUOUS
 62
       7
100
AcDbLine
 10
-88.07576136
 20
-137.13452157
 30
0.0
 11
-88.07576136
 21
-137.06850877
 31
0.0
  0
ENDBLK
  5
302
100
AcDbEntity
  8
0
100
AcDbBlockEnd
  0
ENDSEC
  0
SECTION
  2
ENTITIES
  0
LINE
  5
303
100
AcDbEntity
  8
LAYER0001
  6
CONTINUOUS
 62
       7
100
AcDbLine
 10
108.67793275
 20
173.70444478
 30
0.0
 11
108.80782431
 21
168.74408664
 31
0.0
  0
LINE
  5
304
100
AcDbEntity
  8
LAYER0001
  6
CONTINUOUS
 62
       7
100
AcDbLine
 10
148.53233447
 20
168.74408664
 30
0.0
 11
148.66222603
 21
173.70444478
 31
0.0
  0
LINE
  5
305
100
AcDbEntity
  8
LAYER0001
  6
CONTINUOUS
 62
       7
100
AcDbLine
 10
148.66222603
 20
173.70444478
 30
0.0
 11
148.37763434
 21
174.00434555
 31
0.0
  0
LINE
  5
306
100
AcDbEntity
  8
LAYER0001
  6
CONTINUOUS
 62
       7
100
AcDbLine
 10
108.96252444
 20
174.00434555
 30
0.0
 11
108.67793275
 21
173.70444478
 31
0.0
  0
LINE
  5
307
100
AcDbEntity
  8
LAYER0001
  6
CONTINUOUS
 62
       7
100
AcDbLine
 10
-87.27576179
 20
174.00434555
 30
0.0
 11
-87.77576094
 21
174.50433911
 31
0.0
  0
LINE
  5
308
100
AcDbEntity
  8
LAYER0001
  6
CONTINUOUS
 62
       7
100
AcDbLine
 10
-94.40365215
 20
167.00434627
 30
0.0
 11
-94.68535302
 21
167.00434627
 31
0.0
  0
LINE
  5
309
100
AcDbEntity
  8
LAYER0001
  6
CONTINUOUS
 62
       7
100
AcDbLine
 10
-96.56790798
 20
173.70444478
 30
0.0
 11
-96.43801642
 21
168.74408664
 31
0.0
  0
LINE
  5
30A
100
AcDbEntity
  8
LAYER0001
  6
CONTINUOUS
 62
       7
100
AcDbLine
 10
-76.57576134
 20
174.00434555
 30
0.0
 11
-56.86820639
 21
174.00434555
 31
0.0
  0
LINE
  5
30B
100
AcDbEntity
  8
LAYER0001
  6
CONTINUOUS
 62
       7
100
AcDbLine
 10
108.95409968
 20
168.4036154
 30
0.0
 11
110.20693388
 21
167.15079505
 31
0.0
  0
LINE
  5
30C
100
AcDbEntity
  8
LAYER0001
  6
CONTINUOUS
 62
       7
100
AcDbLine
 10
147.1332249
 20
167.15079505
 30
0.0
 11
148.3860591
 21
168.4036154
 31
0.0
  0
LINE
  5
30D
100
AcDbEntity
  8
LAYER0001
  6
CONTINUOUS
 62
       7
100
AcDbLine
 10
116.28784876
 20
164.10904479
 30
0.0
 11
116.90322836
 21
146.48688388
 31
0.0
  0
LINE
  5
30E
100
AcDbEntity
  8
LAYER0001
  6
CONTINUOUS
 62
       7
100
AcDbLine
 10
140.43693042
 20
146.48688388
 30
0.0
 11
141.05231002
 21
164.10904479
 31
0.0
  0
LINE
  5
30F
100
AcDbEntity
  8
LAYER0001
  6
CONTINUOUS
 62
       7
100
AcDbLine
 10
117.97007894
 20
174.00434555
 30
0.0
 11
117.47007979
 21
174.50433911
 31
0.0
  0
LINE
  5
310
100
AcDbEntity
  8
LAYER0001
  6
CONTINUOUS
 62
       7
100
AcDbLine
 10
114.87007955
 20
174.50433911
 30
0.0
 11
114.37007947
 21
174.00434555
 31
0.0
  0
LINE
  5
311
100
AcDbEntity
  8
LAYER0001
  6
CONTINUOUS
 62
       7
100
AcDbLine
 10
142.97007931
 20
174.00434555
 30
0.0
 11
142.47007923
 21
174.50433911
 31
0.0
  0
LINE
  5
312
100
AcDbEntity
  8
LAYER0001
  6
CONTINUOUS
 62
       7
100
AcDbLine
 10
139.87007899
 20
174.50433911
 30
0.0
 11
139.37007984
 21
174.00434555
 31
0.0
  0
LINE
  5
313
100
AcDbEntity
  8
LAYER0001
  6
CONTINUOUS
 62
       7
100
AcDbLine
 10
142.47007923
 20
174.50433911
 30
0.0
 11
142.47007923
 21
177.70433368
 31
0.0
  0
LINE
  5
314
100
AcDbEntity
  8
LAYER0001
  6
CONTINUOUS
 62
       7
100
AcDbLine
 10
139.87007899
 20
177.70433368
 30
0.0
 11
139.87007899
 21
174.50433911
 31
0.0
  0
LINE
  5
315
100
AcDbEntity
  8
LAYER0001
  6
CONTINUOUS
 62
       7
100
AcDbLine
 10
117.47007979
 20
174.50433911
 30
0.0
 11
117.47007939
 21
177.70433363
 31
0.0
  0
LINE
  5
316
100
AcDbEntity
  8
LAYER0001
  6
CONTINUOUS
 62
       7
100
AcDbLine
 10
114.87007939
 20
177.70433363
 30
0.0
 11
114.87007955
 21
174.50433911
 31
0.0
  0
LINE
  5
317
100
AcDbEntity
  8
LAYER0001
  6
CONTINUOUS
 62
       7
100
AcDbLine
 10
137.3200796
 20
-72.995667
 30
0.0
 11
137.3200796
 21
146.00434841
 31
0.0
  0
LINE
  5
318
100
AcDbEntity
  8
LAYER0001
  6
CONTINUOUS
 62
       7
100
AcDbLine
 10
120.02007918
 20
146.00434841
 30
0.0
 11
120.02007918
 21
-72.995667
 31
0.0
  0
LINE
  5
319
100
AcDbEntity
  8
LAYER0001
  6
CONTINUOUS
 62
       7
100
AcDbLine
 10
175.66484375
 20
-125.69570972
 30
0.0
 11
175.55314092
 21
-119.29619743
 31
0.0
  0
LINE
  5
31A
100
AcDbEntity
  8
LAYER0001
  6
CONTINUOUS
 62
       7
100
AcDbLine
 10
116.67007929
 20
-72.995667
 30
0.0
 11
128.67007939
 21
-72.995667
 31
0.0
  0
LINE
  5
31B
100
AcDbEntity
  8
LAYER0001
  6
CONTINUOUS
 62
       7
100
AcDbLine
 10
116.67007929
 20
-72.995667
 30
0.0
 11
115.08711962
 21
-74.57863225
 31
0.0
  0
LINE
  5
31C
100
AcDbEntity
  8
LAYER0001
  6
CONTINUOUS
 62
       7
100
AcDbLine
 10
173.72775654
 20
-117.33871727
 30
0.0
 11
153.01913252
 21
-115.52694808
 31
0.0
  0
LINE
  5
31D
100
AcDbEntity
  8
LAYER0001
  6
CONTINUOUS
 62
       7
100
AcDbLine
 10
175.37518007
 20
-125.9956701
 30
0.0
 11
81.9649787
 21
-125.9956701
 31
0.0
  0
LINE
  5
31E
100
AcDbEntity
  8
LAYER0001
  6
CONTINUOUS
 62
       7
100
AcDbLine
 10
115.08711962
 20
-74.57863225
 30
0.0
 11
113.43576455
 21
-106.08837439
 31
0.0
  0
LINE
  5
31F
100
AcDbEntity
  8
LAYER0001
  6
CONTINUOUS
 62
       7
100
AcDbLine
 10
81.67531503
 20
-125.69570972
 30
0.0
 11
81.9649787
 21
-125.9956701
 31
0.0
  0
LINE
  5
320
100
AcDbEntity
  8
LAYER0001
  6
CONTINUOUS
 62
       7
100
AcDbLine
 10
128.67007939
 20
-125.69570972
 30
0.0
 11
175.66484375
 21
-125.69570972
 31
0.0
  0
LINE
  5
321
100
AcDbEntity
  8
LAYER0001
  6
CONTINUOUS
 62
       7
100
AcDbLine
 10
104.32102626
 20
-115.52694808
 30
0.0
 11
83.61240224
 21
-117.33871727
 31
0.0
  0
LINE
  5
322
100
AcDbEntity
  8
LAYER0001
  6
CONTINUOUS
 62
       7
100
AcDbLine
 10
128.67007939
 20
-72.995667
 30
0.0
 11
140.67007949
 21
-72.995667
 31
0.0
  0
LINE
  5
323
100
AcDbEntity
  8
LAYER0001
  6
CONTINUOUS
 62
       7
100
AcDbLine
 10
-96.28331629
 20
174.00434555
 30
0.0
 11
-96.56790798
 21
173.70444478
 31
0.0
  0
LINE
  5
324
100
AcDbEntity
  8
LAYER0001
  6
CONTINUOUS
 62
       7
100
AcDbLine
 10
128.67007939
 20
174.00434555
 30
0.0
 11
148.37763434
 21
174.00434555
 31
0.0
  0
LINE
  5
325
100
AcDbEntity
  8
LAYER0001
  6
CONTINUOUS
 62
       7
100
AcDbLine
 10
108.96252444
 20
174.00434555
 30
0.0
 11
128.67007939
 21
174.00434555
 31
0.0
  0
LINE
  5
326
100
AcDbEntity
  8
LAYER0001
  6
CONTINUOUS
 62
       7
100
AcDbLine
 10
-90.37576118
 20
174.50433911
 30
0.0
 11
-89.07576153
 21
174.50433911
 31
0.0
  0
LINE
  5
327
100
AcDbEntity
  8
LAYER0001
  6
CONTINUOUS
 62
       7
100
AcDbLine
 10
-56.71350626
 20
168.74408664
 30
0.0
 11
-56.5836147
 21
173.70444478
 31
0.0
  0
LINE
  5
328
100
AcDbEntity
  8
LAYER0001
  6
CONTINUOUS
 62
       7
100
AcDbLine
 10
-65.37576174
 20
174.50433911
 30
0.0
 11
-65.87576089
 21
174.00434555
 31
0.0
  0
LINE
  5
329
100
AcDbEntity
  8
LAYER0001
  6
CONTINUOUS
 62
       7
100
AcDbLine
 10
-88.95799197
 20
164.10904479
 30
0.0
 11
-88.34261237
 21
146.48688388
 31
0.0
  0
LINE
  5
32A
100
AcDbEntity
  8
LAYER0001
  6
CONTINUOUS
 62
       7
100
AcDbLine
 10
139.93339029
 20
146.00434841
 30
0.0
 11
117.40676848
 21
146.00434841
 31
0.0
  0
LINE
  5
32B
100
AcDbEntity
  8
LAYER0001
  6
CONTINUOUS
 62
       7
100
AcDbLine
 10
-91.95616445
 20
167.00434627
 30
0.0
 11
-94.40365215
 21
167.00434627
 31
0.0
  0
LINE
  5
32C
100
AcDbEntity
  8
LAYER0001
  6
CONTINUOUS
 62
       7
100
AcDbLine
 10
113.28967628
 20
167.00434627
 30
0.0
 11
110.84218858
 21
167.00434627
 31
0.0
  0
LINE
  5
32D
100
AcDbEntity
  8
LAYER0001
  6
CONTINUOUS
 62
       7
100
AcDbLine
 10
146.4979702
 20
167.00434627
 30
0.0
 11
144.0504825
 21
167.00434627
 31
0.0
  0
LINE
  5
32E
100
AcDbEntity
  8
LAYER0001
  6
CONTINUOUS
 62
       7
100
AcDbLine
 10
110.84218858
 20
167.00434627
 30
0.0
 11
110.56048771
 21
167.00434627
 31
0.0
  0
LINE
  5
32F
100
AcDbEntity
  8
LAYER0001
  6
CONTINUOUS
 62
       7
100
AcDbLine
 10
146.77967107
 20
167.00434627
 30
0.0
 11
146.4979702
 21
167.00434627
 31
0.0
  0
LINE
  5
330
100
AcDbEntity
  8
LAYER0001
  6
CONTINUOUS
 62
       7
100
AcDbLine
 10
-87.77576094
 20
174.50433911
 30
0.0
 11
-87.77576134
 21
177.70433363
 31
0.0
  0
LINE
  5
331
100
AcDbEntity
  8
LAYER0001
  6
CONTINUOUS
 62
       7
100
AcDbLine
 10
-58.46616966
 20
167.00434627
 30
0.0
 11
-58.74787053
 21
167.00434627
 31
0.0
  0
LINE
  5
332
100
AcDbEntity
  8
LAYER0001
  6
CONTINUOUS
 62
       7
100
AcDbLine
 10
-90.37576118
 20
174.50433911
 30
0.0
 11
-90.87576126
 21
174.00434555
 31
0.0
  0
LINE
  5
333
100
AcDbEntity
  8
LAYER0001
  6
CONTINUOUS
 62
       7
100
AcDbLine
 10
-56.5836147
 20
173.70444478
 30
0.0
 11
-56.86820639
 21
174.00434555
 31
0.0
  0
LINE
  5
334
100
AcDbEntity
  8
LAYER0001
  6
CONTINUOUS
 62
       7
100
AcDbLine
 10
116.1700792
 20
174.50433911
 30
0.0
 11
117.47007979
 21
174.50433911
 31
0.0
  0
LINE
  5
335
100
AcDbEntity
  8
LAYER0001
  6
CONTINUOUS
 62
       7
100
AcDbLine
 10
114.87007955
 20
174.50433911
 30
0.0
 11
116.1700792
 21
174.50433911
 31
0.0
  0
LINE
  5
336
100
AcDbEntity
  8
LAYER0001
  6
CONTINUOUS
 62
       7
100
AcDbLine
 10
141.17007958
 20
174.50433911
 30
0.0
 11
142.47007923
 21
174.50433911
 31
0.0
  0
LINE
  5
337
100
AcDbEntity
  8
LAYER0001
  6
CONTINUOUS
 62
       7
100
AcDbLine
 10
139.87007899
 20
174.50433911
 30
0.0
 11
141.17007958
 21
174.50433911
 31
0.0
  0
LINE
  5
338
100
AcDbEntity
  8
LAYER0001
  6
CONTINUOUS
 62
       7
100
AcDbLine
 10
142.25303916
 20
-74.57863225
 30
0.0
 11
140.67007949
 21
-72.995667
 31
0.0
  0
LINE
  5
339
100
AcDbEntity
  8
LAYER0001
  6
CONTINUOUS
 62
       7
100
AcDbLine
 10
175.37518007
 20
-125.9956701
 30
0.0
 11
175.66484375
 21
-125.69570972
 31
0.0
  0
LINE
  5
33A
100
AcDbEntity
  8
LAYER0001
  6
CONTINUOUS
 62
       7
100
AcDbLine
 10
81.67531503
 20
-125.69570972
 30
0.0
 11
128.67007939
 21
-125.69570972
 31
0.0
  0
LINE
  5
33B
100
AcDbEntity
  8
LAYER0001
  6
CONTINUOUS
 62
       7
100
AcDbLine
 10
81.78701786
 20
-119.29619743
 30
0.0
 11
81.67531503
 21
-125.69570972
 31
0.0
  0
LINE
  5
33C
100
AcDbEntity
  8
LAYER0001
  6
CONTINUOUS
 62
       7
100
AcDbLine
 10
143.90439423
 20
-106.08837439
 30
0.0
 11
142.25303916
 21
-74.57863225
 31
0.0
  0
LINE
  5
33D
100
AcDbEntity
  8
LAYER0001
  6
CONTINUOUS
 62
       7
100
AcDbLine
 10
-96.29174105
 20
168.4036154
 30
0.0
 11
-95.03890685
 21
167.15079505
 31
0.0
  0
LINE
  5
33E
100
AcDbEntity
  8
LAYER0001
  6
CONTINUOUS
 62
       7
100
AcDbLine
 10
-96.28331629
 20
174.00434555
 30
0.0
 11
-76.57576134
 21
174.00434555
 31
0.0
  0
LINE
  5
33F
100
AcDbEntity
  8
LAYER0001
  6
CONTINUOUS
 62
       7
100
AcDbLine
 10
-62.7757615
 20
174.50433911
 30
0.0
 11
-62.7757615
 21
177.70433368
 31
0.0
  0
LINE
  5
340
100
AcDbEntity
  8
LAYER0001
  6
CONTINUOUS
 62
       7
100
AcDbLine
 10
-64.07576115
 20
174.50433911
 30
0.0
 11
-62.7757615
 21
174.50433911
 31
0.0
  0
LINE
  5
341
100
AcDbEntity
  8
LAYER0001
  6
CONTINUOUS
 62
       7
100
AcDbLine
 10
-58.74787053
 20
167.00434627
 30
0.0
 11
-61.19535823
 21
167.00434627
 31
0.0
  0
LINE
  5
342
100
AcDbEntity
  8
LAYER0001
  6
CONTINUOUS
 62
       7
100
AcDbLine
 10
-64.80891031
 20
146.48688388
 30
0.0
 11
-64.19353071
 21
164.10904479
 31
0.0
  0
LINE
  5
343
100
AcDbEntity
  8
LAYER0001
  6
CONTINUOUS
 62
       7
100
AcDbLine
 10
-90.37576134
 20
177.70433363
 30
0.0
 11
-90.37576118
 21
174.50433911
 31
0.0
  0
LINE
  5
344
100
AcDbEntity
  8
LAYER0001
  6
CONTINUOUS
 62
       7
100
AcDbLine
 10
-62.27576142
 20
174.00434555
 30
0.0
 11
-62.7757615
 21
174.50433911
 31
0.0
  0
LINE
  5
345
100
AcDbEntity
  8
LAYER0001
  6
CONTINUOUS
 62
       7
100
AcDbLine
 10
-89.07576153
 20
174.50433911
 30
0.0
 11
-87.77576094
 21
174.50433911
 31
0.0
  0
LINE
  5
346
100
AcDbEntity
  8
LAYER0001
  6
CONTINUOUS
 62
       7
100
AcDbLine
 10
-65.31245044
 20
146.00434841
 30
0.0
 11
-87.83907225
 21
146.00434841
 31
0.0
  0
LINE
  5
347
100
AcDbEntity
  8
LAYER0001
  6
CONTINUOUS
 62
       7
100
AcDbLine
 10
-58.11261583
 20
167.15079505
 30
0.0
 11
-56.85978163
 21
168.4036154
 31
0.0
  0
LINE
  5
348
100
AcDbEntity
  8
LAYER0001
  6
CONTINUOUS
 62
       7
100
AcDbLine
 10
-65.37576174
 20
174.50433911
 30
0.0
 11
-64.07576115
 21
174.50433911
 31
0.0
  0
LINE
  5
349
100
AcDbEntity
  8
LAYER0001
  6
CONTINUOUS
 62
       7
100
AcDbLine
 10
-65.37576174
 20
177.70433368
 30
0.0
 11
-65.37576174
 21
174.50433911
 31
0.0
  0
LINE
  5
34A
100
AcDbEntity
  8
LAYER0001
  6
CONTINUOUS
 62
       7
100
AcDbLine
 10
-62.57576091
 20
-125.99564774
 30
0.0
 11
-62.57576091
 21
-124.39564674
 31
0.0
  0
LINE
  5
34B
100
AcDbEntity
  8
LAYER0001
  6
CONTINUOUS
 62
       7
100
AcDbLine
 10
-90.57576177
 20
-124.39564674
 30
0.0
 11
-90.57576177
 21
-125.99564774
 31
0.0
  0
LINE
  5
34C
100
AcDbEntity
  8
LAYER0001
  6
CONTINUOUS
 62
       7
100
AcDbLine
 10
-62.57576091
 20
-130.59564738
 30
0.0
 11
-62.57576091
 21
-128.99564824
 31
0.0
  0
LINE
  5
34D
100
AcDbEntity
  8
LAYER0001
  6
CONTINUOUS
 62
       7
100
AcDbLine
 10
-90.57576177
 20
-128.99564824
 30
0.0
 11
-90.57576177
 21
-130.59564738
 31
0.0
  0
LINE
  5
34E
100
AcDbEntity
  8
LAYER0001
  6
CONTINUOUS
 62
       7
100
AcDbLine
 10
-67.92576113
 20
-114.49564679
 30
0.0
 11
-67.92576113
 21
146.00434841
 31
0.0
  0
LINE
  5
34F
100
AcDbEntity
  8
LAYER0001
  6
CONTINUOUS
 62
       7
100
AcDbLine
 10
-85.22576155
 20
146.00434841
 30
0.0
 11
-85.22576155
 21
-114.49564679
 31
0.0
  0
LINE
  5
350
100
AcDbEntity
  8
LAYER0001
  6
CONTINUOUS
 62
       7
100
AcDbLine
 10
-85.22576155
 20
-114.49564679
 30
0.0
 11
-84.24995482
 21
-115.47145306
 31
0.0
  0
LINE
  5
351
100
AcDbEntity
  8
LAYER0001
  6
CONTINUOUS
 62
       7
100
AcDbLine
 10
-68.90156787
 20
-115.47145306
 30
0.0
 11
-67.92576113
 21
-114.49564679
 31
0.0
  0
LINE
  5
352
100
AcDbEntity
  8
LAYER0001
  6
CONTINUOUS
 62
       7
100
AcDbLine
 10
-68.07576088
 20
-143.24564824
 30
0.0
 11
-68.87576138
 21
-142.49564859
 31
0.0
  0
LINE
  5
353
100
AcDbEntity
  8
LAYER0001
  6
CONTINUOUS
 62
       7
100
AcDbLine
 10
-84.2757613
 20
-142.49564859
 30
0.0
 11
-85.0757618
 21
-143.24564824
 31
0.0
  0
LINE
  5
354
100
AcDbEntity
  8
LAYER0001
  6
CONTINUOUS
 62
       7
100
AcDbLine
 10
-85.0757618
 20
-143.24564824
 30
0.0
 11
-84.2757613
 21
-143.9956479
 31
0.0
  0
LINE
  5
355
100
AcDbEntity
  8
LAYER0001
  6
CONTINUOUS
 62
       7
100
AcDbLine
 10
-68.87576138
 20
-143.9956479
 30
0.0
 11
-68.07576088
 21
-143.24564824
 31
0.0
  0
LINE
  5
356
100
AcDbEntity
  8
LAYER0001
  6
CONTINUOUS
 62
       7
100
AcDbLine
 10
-68.07576088
 20
-152.24564832
 30
0.0
 11
-68.87576138
 21
-151.4956482
 31
0.0
  0
LINE
  5
357
100
AcDbEntity
  8
LAYER0001
  6
CONTINUOUS
 62
       7
100
AcDbLine
 10
-84.2757613
 20
-151.4956482
 30
0.0
 11
-85.0757618
 21
-152.24564832
 31
0.0
  0
LINE
  5
358
100
AcDbEntity
  8
LAYER0001
  6
CONTINUOUS
 62
       7
100
AcDbLine
 10
-85.0757618
 20
-156.74564824
 30
0.0
 11
-84.2757613
 21
-157.49564825
 31
0.0
  0
LINE
  5
359
100
AcDbEntity
  8
LAYER0001
  6
CONTINUOUS
 62
       7
100
AcDbLine
 10
-68.87576138
 20
-157.49564825
 30
0.0
 11
-68.07576088
 21
-156.74564824
 31
0.0
  0
LINE
  5
35A
100
AcDbEntity
  8
LAYER0001
  6
CONTINUOUS
 62
       7
100
AcDbLine
 10
-68.07576088
 20
-140.24564868
 30
0.0
 11
-68.87576138
 21
-139.49564903
 31
0.0
  0
LINE
  5
35B
100
AcDbEntity
  8
LAYER0001
  6
CONTINUOUS
 62
       7
100
AcDbLine
 10
-84.2757613
 20
-139.49564903
 30
0.0
 11
-85.0757618
 21
-140.24564868
 31
0.0
  0
LINE
  5
35C
100
AcDbEntity
  8
LAYER0001
  6
CONTINUOUS
 62
       7
100
AcDbLine
 10
-68.07576088
 20
-153.74564833
 30
0.0
 11
-68.87576138
 21
-152.99564844
 31
0.0
  0
LINE
  5
35D
100
AcDbEntity
  8
LAYER0001
  6
CONTINUOUS
 62
       7
100
AcDbLine
 10
-84.2757613
 20
-152.99564844
 30
0.0
 11
-85.0757618
 21
-153.74564833
 31
0.0
  0
LINE
  5
35E
100
AcDbEntity
  8
LAYER0001
  6
CONTINUOUS
 62
       7
100
AcDbLine
 10
-85.0757618
 20
-153.74564833
 30
0.0
 11
-84.2757613
 21
-154.49564822
 31
0.0
  0
LINE
  5
35F
100
AcDbEntity
  8
LAYER0001
  6
CONTINUOUS
 62
       7
100
AcDbLine
 10
-68.87576138
 20
-154.49564822
 30
0.0
 11
-68.07576088
 21
-153.74564833
 31
0.0
  0
LINE
  5
360
100
AcDbEntity
  8
LAYER0001
  6
CONTINUOUS
 62
       7
100
AcDbLine
 10
-85.0757618
 20
-152.24564832
 30
0.0
 11
-84.2757613
 21
-152.99564844
 31
0.0
  0
LINE
  5
361
100
AcDbEntity
  8
LAYER0001
  6
CONTINUOUS
 62
       7
100
AcDbLine
 10
-68.87576138
 20
-152.99564844
 30
0.0
 11
-68.07576088
 21
-152.24564832
 31
0.0
  0
LINE
  5
362
100
AcDbEntity
  8
LAYER0001
  6
CONTINUOUS
 62
       7
100
AcDbLine
 10
-68.07576088
 20
-144.74564849
 30
0.0
 11
-68.87576138
 21
-143.9956479
 31
0.0
  0
LINE
  5
363
100
AcDbEntity
  8
LAYER0001
  6
CONTINUOUS
 62
       7
100
AcDbLine
 10
-84.2757613
 20
-143.9956479
 30
0.0
 11
-85.0757618
 21
-144.74564849
 31
0.0
  0
LINE
  5
364
100
AcDbEntity
  8
LAYER0001
  6
CONTINUOUS
 62
       7
100
AcDbLine
 10
-85.0757618
 20
-150.74564808
 30
0.0
 11
-84.2757613
 21
-151.4956482
 31
0.0
  0
LINE
  5
365
100
AcDbEntity
  8
LAYER0001
  6
CONTINUOUS
 62
       7
100
AcDbLine
 10
-68.87576138
 20
-151.4956482
 30
0.0
 11
-68.07576088
 21
-150.74564808
 31
0.0
  0
LINE
  5
366
100
AcDbEntity
  8
LAYER0001
  6
CONTINUOUS
 62
       7
100
AcDbLine
 10
-68.07576088
 20
-141.745648
 30
0.0
 11
-68.87576138
 21
-140.99564834
 31
0.0
  0
LINE
  5
367
100
AcDbEntity
  8
LAYER0001
  6
CONTINUOUS
 62
       7
100
AcDbLine
 10
-84.2757613
 20
-140.99564834
 30
0.0
 11
-85.0757618
 21
-141.745648
 31
0.0
  0
LINE
  5
368
100
AcDbEntity
  8
LAYER0001
  6
CONTINUOUS
 62
       7
100
AcDbLine
 10
-85.0757618
 20
-155.24564835
 30
0.0
 11
-84.2757613
 21
-155.99564824
 31
0.0
  0
LINE
  5
369
100
AcDbEntity
  8
LAYER0001
  6
CONTINUOUS
 62
       7
100
AcDbLine
 10
-68.87576138
 20
-155.99564824
 30
0.0
 11
-68.07576088
 21
-155.24564835
 31
0.0
  0
LINE
  5
36A
100
AcDbEntity
  8
LAYER0001
  6
CONTINUOUS
 62
       7
100
AcDbLine
 10
-68.07576088
 20
-155.24564835
 30
0.0
 11
-68.87576138
 21
-154.49564822
 31
0.0
  0
LINE
  5
36B
100
AcDbEntity
  8
LAYER0001
  6
CONTINUOUS
 62
       7
100
AcDbLine
 10
-84.2757613
 20
-154.49564822
 30
0.0
 11
-85.0757618
 21
-155.24564835
 31
0.0
  0
LINE
  5
36C
100
AcDbEntity
  8
LAYER0001
  6
CONTINUOUS
 62
       7
100
AcDbLine
 10
-85.0757618
 20
-141.745648
 30
0.0
 11
-84.2757613
 21
-142.49564859
 31
0.0
  0
LINE
  5
36D
100
AcDbEntity
  8
LAYER0001
  6
CONTINUOUS
 62
       7
100
AcDbLine
 10
-68.87576138
 20
-142.49564859
 30
0.0
 11
-68.07576088
 21
-141.745648
 31
0.0
  0
LINE
  5
36E
100
AcDbEntity
  8
LAYER0001
  6
CONTINUOUS
 62
       7
100
AcDbLine
 10
-85.0757618
 20
-140.24564868
 30
0.0
 11
-84.2757613
 21
-140.99564834
 31
0.0
  0
LINE
  5
36F
100
AcDbEntity
  8
LAYER0001
  6
CONTINUOUS
 62
       7
100
AcDbLine
 10
-68.87576138
 20
-140.99564834
 30
0.0
 11
-68.07576088
 21
-140.24564868
 31
0.0
  0
LINE
  5
370
100
AcDbEntity
  8
LAYER0001
  6
CONTINUOUS
 62
       7
100
AcDbLine
 10
-68.07576088
 20
-138.74564751
 30
0.0
 11
-68.76909468
 21
-138.09564768
 31
0.0
  0
LINE
  5
371
100
AcDbEntity
  8
LAYER0001
  6
CONTINUOUS
 62
       7
100
AcDbLine
 10
-84.382428
 20
-138.09564768
 30
0.0
 11
-85.0757618
 21
-138.74564751
 31
0.0
  0
LINE
  5
372
100
AcDbEntity
  8
LAYER0001
  6
CONTINUOUS
 62
       7
100
AcDbLine
 10
-68.07576088
 20
-146.2456478
 30
0.0
 11
-68.87576138
 21
-145.49564815
 31
0.0
  0
LINE
  5
373
100
AcDbEntity
  8
LAYER0001
  6
CONTINUOUS
 62
       7
100
AcDbLine
 10
-84.2757613
 20
-145.49564815
 30
0.0
 11
-85.0757618
 21
-146.2456478
 31
0.0
  0
LINE
  5
374
100
AcDbEntity
  8
LAYER0001
  6
CONTINUOUS
 62
       7
100
AcDbLine
 10
-85.0757618
 20
-144.74564849
 30
0.0
 11
-84.2757613
 21
-145.49564815
 31
0.0
  0
LINE
  5
375
100
AcDbEntity
  8
LAYER0001
  6
CONTINUOUS
 62
       7
100
AcDbLine
 10
-68.87576138
 20
-145.49564815
 30
0.0
 11
-68.07576088
 21
-144.74564849
 31
0.0
  0
LINE
  5
376
100
AcDbEntity
  8
LAYER0001
  6
CONTINUOUS
 62
       7
100
AcDbLine
 10
-68.07576088
 20
-156.74564824
 30
0.0
 11
-68.87576138
 21
-155.99564824
 31
0.0
  0
LINE
  5
377
100
AcDbEntity
  8
LAYER0001
  6
CONTINUOUS
 62
       7
100
AcDbLine
 10
-84.2757613
 20
-155.99564824
 30
0.0
 11
-85.0757618
 21
-156.74564824
 31
0.0
  0
LINE
  5
378
100
AcDbEntity
  8
LAYER0001
  6
CONTINUOUS
 62
       7
100
AcDbLine
 10
-68.07576088
 20
-116.24564661
 30
0.0
 11
-68.90156787
 21
-115.47145306
 31
0.0
  0
LINE
  5
379
100
AcDbEntity
  8
LAYER0001
  6
CONTINUOUS
 62
       7
100
AcDbLine
 10
-84.24995482
 20
-115.47145306
 30
0.0
 11
-85.0757618
 21
-116.24564661
 31
0.0
  0
LINE
  5
37A
100
AcDbEntity
  8
LAYER0001
  6
CONTINUOUS
 62
       7
100
AcDbLine
 10
-68.07576088
 20
-149.2456483
 30
0.0
 11
-68.87576138
 21
-148.49564864
 31
0.0
  0
LINE
  5
37B
100
AcDbEntity
  8
LAYER0001
  6
CONTINUOUS
 62
       7
100
AcDbLine
 10
-84.2757613
 20
-148.49564864
 30
0.0
 11
-85.0757618
 21
-149.2456483
 31
0.0
  0
LINE
  5
37C
100
AcDbEntity
  8
LAYER0001
  6
CONTINUOUS
 62
       7
100
AcDbLine
 10
-68.07576088
 20
-147.74564805
 30
0.0
 11
-68.87576138
 21
-146.99564839
 31
0.0
  0
LINE
  5
37D
100
AcDbEntity
  8
LAYER0001
  6
CONTINUOUS
 62
       7
100
AcDbLine
 10
-84.2757613
 20
-146.99564839
 30
0.0
 11
-85.0757618
 21
-147.74564805
 31
0.0
  0
LINE
  5
37E
100
AcDbEntity
  8
LAYER0001
  6
CONTINUOUS
 62
       7
100
AcDbLine
 10
-85.0757618
 20
-149.2456483
 30
0.0
 11
-84.2757613
 21
-149.99564842
 31
0.0
  0
LINE
  5
37F
100
AcDbEntity
  8
LAYER0001
  6
CONTINUOUS
 62
       7
100
AcDbLine
 10
-68.87576138
 20
-149.99564842
 30
0.0
 11
-68.07576088
 21
-149.2456483
 31
0.0
  0
LINE
  5
380
100
AcDbEntity
  8
LAYER0001
  6
CONTINUOUS
 62
       7
100
AcDbLine
 10
-68.07576088
 20
-150.74564808
 30
0.0
 11
-68.87576138
 21
-149.99564842
 31
0.0
  0
LINE
  5
381
100
AcDbEntity
  8
LAYER0001
  6
CONTINUOUS
 62
       7
100
AcDbLine
 10
-84.2757613
 20
-149.99564842
 30
0.0
 11
-85.0757618
 21
-150.74564808
 31
0.0
  0
LINE
  5
382
100
AcDbEntity
  8
LAYER0001
  6
CONTINUOUS
 62
       7
100
AcDbLine
 10
-85.0757618
 20
-116.24564661
 30
0.0
 11
-84.382428
 21
-116.89564644
 31
0.0
  0
LINE
  5
383
100
AcDbEntity
  8
LAYER0001
  6
CONTINUOUS
 62
       7
100
AcDbLine
 10
-68.76909468
 20
-116.89564644
 30
0.0
 11
-68.07576088
 21
-116.24564661
 31
0.0
  0
LINE
  5
384
100
AcDbEntity
  8
LAYER0001
  6
CONTINUOUS
 62
       7
100
AcDbLine
 10
-85.0757618
 20
-146.2456478
 30
0.0
 11
-84.2757613
 21
-146.99564839
 31
0.0
  0
LINE
  5
385
100
AcDbEntity
  8
LAYER0001
  6
CONTINUOUS
 62
       7
100
AcDbLine
 10
-68.87576138
 20
-146.99564839
 30
0.0
 11
-68.07576088
 21
-146.2456478
 31
0.0
  0
LINE
  5
386
100
AcDbEntity
  8
LAYER0001
  6
CONTINUOUS
 62
       7
100
AcDbLine
 10
-85.0757618
 20
-147.74564805
 30
0.0
 11
-84.2757613
 21
-148.49564864
 31
0.0
  0
LINE
  5
387
100
AcDbEntity
  8
LAYER0001
  6
CONTINUOUS
 62
       7
100
AcDbLine
 10
-68.87576138
 20
-148.49564864
 30
0.0
 11
-68.07576088
 21
-147.74564805
 31
0.0
  0
LINE
  5
388
100
AcDbEntity
  8
LAYER0001
  6
CONTINUOUS
 62
       7
100
AcDbLine
 10
-85.0757618
 20
-138.74564751
 30
0.0
 11
-84.2757613
 21
-139.49564903
 31
0.0
  0
LINE
  5
389
100
AcDbEntity
  8
LAYER0001
  6
CONTINUOUS
 62
       7
100
AcDbLine
 10
-68.87576138
 20
-139.49564903
 30
0.0
 11
-68.07576088
 21
-138.74564751
 31
0.0
  0
LINE
  5
38A
100
AcDbEntity
  8
LAYER0001
  6
CONTINUOUS
 62
       7
100
AcDbLine
 10
-68.87576138
 20
-158.49564825
 30
0.0
 11
-68.87576138
 21
-157.49564825
 31
0.0
  0
LINE
  5
38B
100
AcDbEntity
  8
LAYER0001
  6
CONTINUOUS
 62
       7
100
AcDbLine
 10
-84.2757613
 20
-157.49564825
 30
0.0
 11
-84.2757613
 21
-158.49564825
 31
0.0
  0
LINE
  5
38C
100
AcDbEntity
  8
LAYER0001
  6
CONTINUOUS
 62
       7
100
AcDbLine
 10
-83.52576118
 20
-158.99564826
 30
0.0
 11
-83.44051862
 21
-159.22985028
 31
0.0
  0
LINE
  5
38D
100
AcDbEntity
  8
LAYER0001
  6
CONTINUOUS
 62
       7
100
AcDbLine
 10
-69.71100394
 20
-159.22985028
 30
0.0
 11
-69.62576138
 21
-158.99564826
 31
0.0
  0
LINE
  5
38E
100
AcDbEntity
  8
LAYER0001
  6
CONTINUOUS
 62
       7
100
AcDbLine
 10
-62.07576176
 20
-128.99564824
 30
0.0
 11
-62.07576176
 21
-125.99564774
 31
0.0
  0
LINE
  5
38F
100
AcDbEntity
  8
LAYER0001
  6
CONTINUOUS
 62
       7
100
AcDbLine
 10
-106.57576067
 20
-182.99564777
 30
0.0
 11
-103.57576205
 21
-182.99564777
 31
0.0
  0
LINE
  5
390
100
AcDbEntity
  8
LAYER0001
  6
CONTINUOUS
 62
       7
100
AcDbLine
 10
-70.82576133
 20
-116.89564644
 30
0.0
 11
-82.32576135
 21
-116.89564644
 31
0.0
  0
LINE
  5
391
100
AcDbEntity
  8
LAYER0001
  6
CONTINUOUS
 62
       7
100
AcDbLine
 10
-76.57576134
 20
-117.9227872
 30
0.0
 11
-76.57576134
 21
-123.3685097
 31
0.0
  0
LINE
  5
392
100
AcDbEntity
  8
LAYER0001
  6
CONTINUOUS
 62
       7
100
AcDbLine
 10
-88.07576136
 20
-117.9227872
 30
0.0
 11
-88.07576136
 21
-123.3685097
 31
0.0
  0
LINE
  5
393
100
AcDbEntity
  8
LAYER0001
  6
CONTINUOUS
 62
       7
100
AcDbLine
 10
-65.07576132
 20
-117.9227872
 30
0.0
 11
-65.07576132
 21
-123.3685097
 31
0.0
  0
LINE
  5
394
100
AcDbEntity
  8
LAYER0001
  6
CONTINUOUS
 62
       7
100
AcDbLine
 10
-65.07576132
 20
-116.89564644
 30
0.0
 11
-70.82576133
 21
-116.89564644
 31
0.0
  0
LINE
  5
395
100
AcDbEntity
  8
LAYER0001
  6
CONTINUOUS
 62
       7
100
AcDbLine
 10
-82.32576135
 20
-116.89564644
 30
0.0
 11
-88.07576136
 21
-116.89564644
 31
0.0
  0
LINE
  5
396
100
AcDbEntity
  8
LAYER0001
  6
CONTINUOUS
 62
       7
100
AcDbLine
 10
-65.07576132
 20
-131.62278628
 30
0.0
 11
-65.07576132
 21
-137.06850877
 31
0.0
  0
LINE
  5
397
100
AcDbEntity
  8
LAYER0001
  6
CONTINUOUS
 62
       7
100
AcDbLine
 10
-76.57576134
 20
-131.62278628
 30
0.0
 11
-76.57576134
 21
-137.06850877
 31
0.0
  0
LINE
  5
398
100
AcDbEntity
  8
LAYER0001
  6
CONTINUOUS
 62
       7
100
AcDbLine
 10
-70.82576133
 20
-138.09564768
 30
0.0
 11
-82.32576135
 21
-138.09564768
 31
0.0
  0
LINE
  5
399
100
AcDbEntity
  8
LAYER0001
  6
CONTINUOUS
 62
       7
100
AcDbLine
 10
-88.07576136
 20
-131.62278628
 30
0.0
 11
-88.07576136
 21
-137.06850877
 31
0.0
  0
LINE
  5
39A
100
AcDbEntity
  8
LAYER0001
  6
CONTINUOUS
 62
       7
100
AcDbLine
 10
-65.07576132
 20
-138.09564768
 30
0.0
 11
-70.82576133
 21
-138.09564768
 31
0.0
  0
LINE
  5
39B
100
AcDbEntity
  8
LAYER0001
  6
CONTINUOUS
 62
       7
100
AcDbLine
 10
-82.32576135
 20
-138.09564768
 30
0.0
 11
-88.07576136
 21
-138.09564768
 31
0.0
  0
LINE
  5
39C
100
AcDbEntity
  8
LAYER0001
  6
CONTINUOUS
 62
       7
100
AcDbLine
 10
-76.57576134
 20
-124.39564674
 30
0.0
 11
-62.57576091
 21
-124.39564674
 31
0.0
  0
LINE
  5
39D
100
AcDbEntity
  8
LAYER0001
  6
CONTINUOUS
 62
       7
100
AcDbLine
 10
-90.57576177
 20
-124.39564674
 30
0.0
 11
-76.57576134
 21
-124.39564674
 31
0.0
  0
LINE
  5
39E
100
AcDbEntity
  8
LAYER0001
  6
CONTINUOUS
 62
       7
100
AcDbLine
 10
-76.57576134
 20
-130.59564738
 30
0.0
 11
-62.57576091
 21
-130.59564738
 31
0.0
  0
LINE
  5
39F
100
AcDbEntity
  8
LAYER0001
  6
CONTINUOUS
 62
       7
100
AcDbLine
 10
-90.57576177
 20
-130.59564738
 30
0.0
 11
-76.57576134
 21
-130.59564738
 31
0.0
  0
LINE
  5
3A0
100
AcDbEntity
  8
LAYER0001
  6
CONTINUOUS
 62
       7
100
AcDbLine
 10
-76.57576134
 20
-114.49564679
 30
0.0
 11
-67.92576113
 21
-114.49564679
 31
0.0
  0
LINE
  5
3A1
100
AcDbEntity
  8
LAYER0001
  6
CONTINUOUS
 62
       7
100
AcDbLine
 10
-85.22576155
 20
-114.49564679
 30
0.0
 11
-76.57576134
 21
-114.49564679
 31
0.0
  0
LINE
  5
3A2
100
AcDbEntity
  8
LAYER0001
  6
CONTINUOUS
 62
       7
100
AcDbLine
 10
-69.3757613
 20
-158.99564825
 30
0.0
 11
-83.7757613
 21
-158.99564825
 31
0.0
  0
LINE
  5
3A3
100
AcDbEntity
  8
LAYER0001
  6
CONTINUOUS
 62
       7
100
AcDbLine
 10
-69.8049731
 20
-159.29564816
 30
0.0
 11
-83.34654945
 21
-159.29564816
 31
0.0
  0
LINE
  5
3A4
100
AcDbEntity
  8
LAYER0001
  6
CONTINUOUS
 62
       7
100
AcDbLine
 10
-71.12131003
 20
-125.99564774
 30
0.0
 11
-98.57576134
 21
-125.99564825
 31
0.0
  0
LINE
  5
3A5
100
AcDbEntity
  8
LAYER0001
  6
CONTINUOUS
 62
       7
100
AcDbLine
 10
-71.12131003
 20
-128.99564824
 30
0.0
 11
-98.57576122
 21
-128.99564824
 31
0.0
  0
LINE
  5
3A6
100
AcDbEntity
  8
LAYER0001
  6
CONTINUOUS
 62
       7
100
AcDbLine
 10
-103.57576135
 20
-133.99564825
 30
0.0
 11
-103.57576205
 21
-173.95009904
 31
0.0
  0
LINE
  5
3A7
100
AcDbEntity
  8
LAYER0001
  6
CONTINUOUS
 62
       7
100
AcDbLine
 10
-106.57576134
 20
-133.99564825
 30
0.0
 11
-106.57576067
 21
-173.95009904
 31
0.0
  0
LINE
  5
3A8
100
AcDbEntity
  8
LAYER0001
  6
CONTINUOUS
 62
       7
100
AcDbLine
 10
-71.12131003
 20
-125.99564774
 30
0.0
 11
-69.18817168
 21
-125.99564774
 31
0.0
  0
LINE
  5
3A9
100
AcDbEntity
  8
LAYER0001
  6
CONTINUOUS
 62
       7
100
AcDbLine
 10
-69.18817168
 20
-128.99564824
 30
0.0
 11
-71.12131003
 21
-128.99564824
 31
0.0
  0
LINE
  5
3AA
100
AcDbEntity
  8
LAYER0001
  6
CONTINUOUS
 62
       7
100
AcDbLine
 10
-103.57576205
 20
-173.95009904
 30
0.0
 11
-103.57576205
 21
-175.88323785
 31
0.0
  0
LINE
  5
3AB
100
AcDbEntity
  8
LAYER0001
  6
CONTINUOUS
 62
       7
100
AcDbLine
 10
-106.57576067
 20
-175.88323785
 30
0.0
 11
-106.57576067
 21
-173.95009904
 31
0.0
  0
LINE
  5
3AC
100
AcDbEntity
  8
LAYER0001
  6
CONTINUOUS
 62
       7
100
AcDbLine
 10
-62.07576176
 20
-125.99564774
 30
0.0
 11
-69.18817168
 21
-125.99564774
 31
0.0
  0
LINE
  5
3AD
100
AcDbEntity
  8
LAYER0001
  6
CONTINUOUS
 62
       7
100
AcDbLine
 10
-69.18817168
 20
-128.99564824
 30
0.0
 11
-62.07576176
 21
-128.99564824
 31
0.0
  0
LINE
  5
3AE
100
AcDbEntity
  8
LAYER0001
  6
CONTINUOUS
 62
       7
100
AcDbLine
 10
-103.57576205
 20
-182.99564777
 30
0.0
 11
-103.57576205
 21
-175.88323785
 31
0.0
  0
LINE
  5
3AF
100
AcDbEntity
  8
LAYER0001
  6
CONTINUOUS
 62
       7
100
AcDbLine
 10
-106.57576067
 20
-175.88323785
 30
0.0
 11
-106.57576067
 21
-182.99564777
 31
0.0
  0
LINE
  5
3B0
100
AcDbEntity
  8
LAYER0001
  6
CONTINUOUS
 62
       7
100
AcDbLine
 10
-143.6648429
 20
-133.99564881
 30
0.0
 11
-143.6648429
 21
-173.95009879
 31
0.0
  0
LINE
  5
3B1
100
AcDbEntity
  8
LAYER0001
  6
CONTINUOUS
 62
       7
100
AcDbLine
 10
-175.66484375
 20
-133.99564906
 30
0.0
 11
-175.66484299
 21
-173.9500994
 31
0.0
  0
LINE
  5
3B2
100
AcDbEntity
  8
LAYER0001
  6
CONTINUOUS
 62
       7
100
AcDbLine
 10
-175.66484375
 20
-125.99564774
 30
0.0
 11
-143.6648429
 21
-125.99564774
 31
0.0
  0
LINE
  5
3B3
100
AcDbEntity
  8
LAYER0001
  6
CONTINUOUS
 62
       7
100
AcDbLine
 10
-143.6648429
 20
-125.99564774
 30
0.0
 11
-143.6648429
 21
-133.99564881
 31
0.0
  0
LINE
  5
3B4
100
AcDbEntity
  8
LAYER0001
  6
CONTINUOUS
 62
       7
100
AcDbLine
 10
-175.66484375
 20
-125.99564774
 30
0.0
 11
-175.66484375
 21
-133.99564906
 31
0.0
  0
ARC
  5
3B5
100
AcDbEntity
  8
LAYER0001
  6
CONTINUOUS
 62
       7
100
AcDbCircle
 10
-95.93818784
 20
168.75716862
 30
0.0
 40
0.49999975
100
AcDbArc
 50
181.49925633
 51
225.0
  0
ARC
  5
3B6
100
AcDbEntity
  8
LAYER0001
  6
CONTINUOUS
 62
       7
100
AcDbCircle
 10
-58.46616957
 20
167.50433363
 30
0.0
 40
0.5
100
AcDbArc
 50
270.0
 51
315.0
  0
ARC
  5
3B7
100
AcDbEntity
  8
LAYER0001
  6
CONTINUOUS
 62
       7
100
AcDbCircle
 10
109.30765289
 20
168.75716862
 30
0.0
 40
0.49999975
100
AcDbArc
 50
181.49925633
 51
225.0
  0
ARC
  5
3B8
100
AcDbEntity
  8
LAYER0001
  6
CONTINUOUS
 62
       7
100
AcDbCircle
 10
148.03250589
 20
168.75716862
 30
0.0
 40
0.49999975
100
AcDbArc
 50
315.0
 51
358.50074367
  0
ARC
  5
3B9
100
AcDbEntity
  8
LAYER0001
  6
CONTINUOUS
 62
       7
100
AcDbCircle
 10
110.56048762
 20
167.50433363
 30
0.0
 40
0.5
100
AcDbArc
 50
225.0
 51
270.0
  0
ARC
  5
3BA
100
AcDbEntity
  8
LAYER0001
  6
CONTINUOUS
 62
       7
100
AcDbCircle
 10
146.77967116
 20
167.50433363
 30
0.0
 40
0.5
100
AcDbArc
 50
270.0
 51
315.0
  0
ARC
  5
3BB
100
AcDbEntity
  8
LAYER0001
  6
CONTINUOUS
 62
       7
100
AcDbCircle
 10
117.40292378
 20
146.50433363
 30
0.0
 40
0.5
100
AcDbArc
 50
182.00000016
 51
270.0
  0
ARC
  5
3BC
100
AcDbEntity
  8
LAYER0001
  6
CONTINUOUS
 62
       7
100
AcDbCircle
 10
139.937235
 20
146.50433363
 30
0.0
 40
0.5
100
AcDbArc
 50
270.0
 51
357.99999984
  0
ARC
  5
3BD
100
AcDbEntity
  8
LAYER0001
  6
CONTINUOUS
 62
       7
100
AcDbCircle
 10
-61.19535823
 20
164.00434627
 30
0.0
 40
3.0
100
AcDbArc
 50
90.0
 51
177.99999943
  0
ARC
  5
3BE
100
AcDbEntity
  8
LAYER0001
  6
CONTINUOUS
 62
       7
100
AcDbCircle
 10
-89.07576134
 20
177.70433363
 30
0.0
 40
1.3
100
AcDbArc
 50
0.0
 51
180.0
  0
ARC
  5
3BF
100
AcDbEntity
  8
LAYER0001
  6
CONTINUOUS
 62
       7
100
AcDbCircle
 10
116.17007939
 20
177.70433363
 30
0.0
 40
1.3
100
AcDbArc
 50
0.0
 51
180.0
  0
ARC
  5
3C0
100
AcDbEntity
  8
LAYER0001
  6
CONTINUOUS
 62
       7
100
AcDbCircle
 10
141.17007911
 20
177.70433363
 30
0.0
 40
1.30000012
100
AcDbArc
 50
0.0000022
 51
179.9999978
  0
ARC
  5
3C1
100
AcDbEntity
  8
LAYER0001
  6
CONTINUOUS
 62
       7
100
AcDbCircle
 10
153.8906899
 20
-105.56500046
 30
0.0
 40
10.00000064
100
AcDbArc
 50
183.0
 51
265.0000006
  0
ARC
  5
3C2
100
AcDbEntity
  8
LAYER0001
  6
CONTINUOUS
 62
       7
100
AcDbCircle
 10
83.78671378
 20
-119.33110728
 30
0.0
 40
2.00000062
100
AcDbArc
 50
95.00000002
 51
178.99985598
  0
ARC
  5
3C3
100
AcDbEntity
  8
LAYER0001
  6
CONTINUOUS
 62
       7
100
AcDbCircle
 10
103.44946887
 20
-105.56500046
 30
0.0
 40
10.00000064
100
AcDbArc
 50
274.99999946
 51
357.0
  0
ARC
  5
3C4
100
AcDbEntity
  8
LAYER0001
  6
CONTINUOUS
 62
       7
100
AcDbCircle
 10
173.553445
 20
-119.33110728
 30
0.0
 40
2.00000062
100
AcDbArc
 50
1.00014402
 51
84.99999998
  0
ARC
  5
3C5
100
AcDbEntity
  8
LAYER0001
  6
CONTINUOUS
 62
       7
100
AcDbCircle
 10
-57.21333484
 20
168.75716862
 30
0.0
 40
0.49999975
100
AcDbArc
 50
315.0
 51
358.50074367
  0
ARC
  5
3C6
100
AcDbEntity
  8
LAYER0001
  6
CONTINUOUS
 62
       7
100
AcDbCircle
 10
-87.84291695
 20
146.50433363
 30
0.0
 40
0.5
100
AcDbArc
 50
182.00000016
 51
270.0
  0
ARC
  5
3C7
100
AcDbEntity
  8
LAYER0001
  6
CONTINUOUS
 62
       7
100
AcDbCircle
 10
-91.95616445
 20
164.00434627
 30
0.0
 40
3.0
100
AcDbArc
 50
2.00000057
 51
90.0
  0
ARC
  5
3C8
100
AcDbEntity
  8
LAYER0001
  6
CONTINUOUS
 62
       7
100
AcDbCircle
 10
-64.07576162
 20
177.70433363
 30
0.0
 40
1.30000012
100
AcDbArc
 50
0.0000022
 51
179.9999978
  0
ARC
  5
3C9
100
AcDbEntity
  8
LAYER0001
  6
CONTINUOUS
 62
       7
100
AcDbCircle
 10
-94.68535311
 20
167.50433363
 30
0.0
 40
0.5
100
AcDbArc
 50
225.0
 51
270.0
  0
ARC
  5
3CA
100
AcDbEntity
  8
LAYER0001
  6
CONTINUOUS
 62
       7
100
AcDbCircle
 10
-65.30860573
 20
146.50433363
 30
0.0
 40
0.5
100
AcDbArc
 50
270.0
 51
357.99999984
  0
ARC
  5
3CB
100
AcDbEntity
  8
LAYER0001
  6
CONTINUOUS
 62
       7
100
AcDbCircle
 10
-69.37576138
 20
-158.49564825
 30
0.0
 40
0.5
100
AcDbArc
 50
270.00000917
 51
360.0
  0
ARC
  5
3CC
100
AcDbEntity
  8
LAYER0001
  6
CONTINUOUS
 62
       7
100
AcDbCircle
 10
-83.7757613
 20
-158.49564825
 30
0.0
 40
0.5
100
AcDbArc
 50
180.0
 51
270.0
  0
ARC
  5
3CD
100
AcDbEntity
  8
LAYER0001
  6
CONTINUOUS
 62
       7
100
AcDbCircle
 10
-69.8049731
 20
-159.19564824
 30
0.0
 40
0.09999992
100
AcDbArc
 50
270.0
 51
339.99996275
  0
ARC
  5
3CE
100
AcDbEntity
  8
LAYER0001
  6
CONTINUOUS
 62
       7
100
AcDbCircle
 10
-83.34654945
 20
-159.19564824
 30
0.0
 40
0.09999992
100
AcDbArc
 50
200.00003725
 51
270.0
  0
ARC
  5
3CF
100
AcDbEntity
  8
LAYER0001
  6
CONTINUOUS
 62
       7
100
AcDbCircle
 10
-98.57576134
 20
-133.99564825
 30
0.0
 40
8.0
100
AcDbArc
 50
90.0
 51
180.0
  0
ARC
  5
3D0
100
AcDbEntity
  8
LAYER0001
  6
CONTINUOUS
 62
       7
100
AcDbCircle
 10
-98.57576134
 20
-133.99564825
 30
0.0
 40
5.00000001
100
AcDbArc
 50
89.99999862
 51
180.0
  0
ARC
  5
3D1
100
AcDbEntity
  8
LAYER0001
  6
CONTINUOUS
 62
       7
100
AcDbCircle
 10
-146.66484328
 20
-173.95009916
 30
0.0
 40
3.00000038
100
AcDbArc
 50
319.8808331
 51
360.00000707
  0
ARC
  5
3D2
100
AcDbEntity
  8
LAYER0001
  6
CONTINUOUS
 62
       7
100
AcDbCircle
 10
-159.66484299
 20
-162.99564825
 30
0.0
 40
20.0
100
AcDbArc
 50
220.1191669
 51
319.88083309
  0
ARC
  5
3D3
100
AcDbEntity
  8
LAYER0001
  6
CONTINUOUS
 62
       7
100
AcDbCircle
 10
-172.66484299
 20
-173.9500994
 30
0.0
 40
3.0
100
AcDbArc
 50
180.0
 51
220.11916691
  0
CIRCLE
  5
3D4
100
AcDbEntity
  8
LAYER0001
  6
CONTINUOUS
 62
       7
100
AcDbCircle
 10
-159.66484299
 20
-152.99564825
 30
0.0
 40
4.5
  0
CIRCLE
  5
3D5
100
AcDbEntity
  8
LAYER0001
  6
CONTINUOUS
 62
       7
100
AcDbCircle
 10
-159.66484299
 20
-172.99564825
 30
0.0
 40
4.5
  0
ARC
  5
3D6
100
AcDbEntity
  8
LAYER0001
  6
CONTINUOUS
 62
       7
100
AcDbCircle
 10
144.0504825
 20
164.00434627
 30
0.0
 40
3.0
100
AcDbArc
 50
90.0
 51
177.99999943
  0
ARC
  5
3D7
100
AcDbEntity
  8
LAYER0001
  6
CONTINUOUS
 62
       7
100
AcDbCircle
 10
113.28967628
 20
164.00434627
 30
0.0
 40
3.0
100
AcDbArc
 50
2.00000057
 51
90.0
  0
LINE
  5
3D8
100
AcDbEntity
  8
LAYER0001
  6
CENTER
 62
       7
100
AcDbLine
 10
128.67007939
 20
182.72565817
 30
0.0
 11
128.67007939
 21
-131.66829614
 31
0.0
  0
LINE
  5
3D9
100
AcDbEntity
  8
LAYER0001
  6
CENTER
 62
       7
100
AcDbLine
 10
-76.57576134
 20
183.99182067
 30
0.0
 11
-76.57576134
 21
-161.49564825
 31
0.0
  0
LINE
  5
3DA
100
AcDbEntity
  8
LAYER0001
  6
CENTER
 62
       7
100
AcDbLine
 10
-159.66484299
 20
-187.89598642
 30
0.0
 11
-159.66484299
 21
-119.29619743
 31
0.0
  0
LINE
  5
3DB
100
AcDbEntity
  8
LAYER0001
  6
CENTER
 62
       7
100
AcDbLine
 10
-166.61926347
 20
-172.99564825
 30
0.0
 11
-152.63106034
 21
-172.99564825
 31
0.0
  0
LINE
  5
3DC
100
AcDbEntity
  8
LAYER0001
  6
CENTER
 62
       7
100
AcDbLine
 10
-166.61926347
 20
-152.99564825
 30
0.0
 11
-152.63106034
 21
-152.99564825
 31
0.0
  0
INSERT
  5
3DD
100
AcDbEntity
  8
0
  6
CONTINUOUS
100
AcDbBlockReference
  2
GROUP_1
 10
0.0
 20
0.0
 30
0.0
  0
INSERT
  5
3DE
100
AcDbEntity
  8
0
  6
CONTINUOUS
100
AcDbBlockReference
  2
GROUP_2
 10
0.0
 20
0.0
 30
0.0
  0
INSERT
  5
3DF
100
AcDbEntity
  8
0
  6
CONTINUOUS
100
AcDbBlockReference
  2
GROUP_3
 10
0.0
 20
0.0
 30
0.0
  0
INSERT
  5
3E0
100
AcDbEntity
  8
0
  6
CONTINUOUS
100
AcDbBlockReference
  2
GROUP_4
 10
0.0
 20
0.0
 30
0.0
  0
INSERT
  5
3E1
100
AcDbEntity
  8
0
  6
CONTINUOUS
100
AcDbBlockReference
  2
GROUP_5
 10
0.0
 20
0.0
 30
0.0
  0
INSERT
  5
3E2
100
AcDbEntity
  8
0
  6
CONTINUOUS
100
AcDbBlockReference
  2
GROUP_6
 10
0.0
 20
0.0
 30
0.0
  0
INSERT
  5
3E3
100
AcDbEntity
  8
0
  6
CONTINUOUS
100
AcDbBlockReference
  2
GROUP_7
 10
0.0
 20
0.0
 30
0.0
  0
INSERT
  5
3E4
100
AcDbEntity
  8
0
  6
CONTINUOUS
100
AcDbBlockReference
  2
GROUP_8
 10
0.0
 20
0.0
 30
0.0
  0
INSERT
  5
3E5
100
AcDbEntity
  8
0
  6
CONTINUOUS
100
AcDbBlockReference
  2
GROUP_9
 10
0.0
 20
0.0
 30
0.0
  0
INSERT
  5
3E6
100
AcDbEntity
  8
0
  6
CONTINUOUS
100
AcDbBlockReference
  2
GROUP_10
 10
0.0
 20
0.0
 30
0.0
  0
INSERT
  5
3E7
100
AcDbEntity
  8
0
  6
CONTINUOUS
100
AcDbBlockReference
  2
GROUP_11
 10
0.0
 20
0.0
 30
0.0
  0
INSERT
  5
3E8
100
AcDbEntity
  8
0
  6
CONTINUOUS
100
AcDbBlockReference
  2
GROUP_12
 10
0.0
 20
0.0
 30
0.0
  0
INSERT
  5
3E9
100
AcDbEntity
  8
0
  6
CONTINUOUS
100
AcDbBlockReference
  2
GROUP_13
 10
0.0
 20
0.0
 30
0.0
  0
INSERT
  5
3EA
100
AcDbEntity
  8
0
  6
CONTINUOUS
100
AcDbBlockReference
  2
GROUP_14
 10
0.0
 20
0.0
 30
0.0
  0
INSERT
  5
3EB
100
AcDbEntity
  8
0
  6
CONTINUOUS
100
AcDbBlockReference
  2
GROUP_15
 10
0.0
 20
0.0
 30
0.0
  0
INSERT
  5
3EC
100
AcDbEntity
  8
0
  6
CONTINUOUS
100
AcDbBlockReference
  2
GROUP_16
 10
0.0
 20
0.0
 30
0.0
  0
INSERT
  5
3ED
100
AcDbEntity
  8
0
  6
CONTINUOUS
100
AcDbBlockReference
  2
GROUP_17
 10
0.0
 20
0.0
 30
0.0
  0
INSERT
  5
3EE
100
AcDbEntity
  8
0
  6
CONTINUOUS
100
AcDbBlockReference
  2
GROUP_18
 10
0.0
 20
0.0
 30
0.0
  0
INSERT
  5
3EF
100
AcDbEntity
  8
0
  6
CONTINUOUS
100
AcDbBlockReference
  2
GROUP_19
 10
0.0
 20
0.0
 30
0.0
  0
INSERT
  5
3F0
100
AcDbEntity
  8
0
  6
CONTINUOUS
100
AcDbBlockReference
  2
GROUP_20
 10
0.0
 20
0.0
 30
0.0
  0
INSERT
  5
3F1
100
AcDbEntity
  8
0
  6
CONTINUOUS
100
AcDbBlockReference
  2
GROUP_21
 10
0.0
 20
0.0
 30
0.0
  0
INSERT
  5
3F2
100
AcDbEntity
  8
0
  6
CONTINUOUS
100
AcDbBlockReference
  2
GROUP_22
 10
0.0
 20
0.0
 30
0.0
  0
INSERT
  5
3F3
100
AcDbEntity
  8
0
  6
CONTINUOUS
100
AcDbBlockReference
  2
GROUP_23
 10
0.0
 20
0.0
 30
0.0
  0
INSERT
  5
3F4
100
AcDbEntity
  8
0
  6
CONTINUOUS
100
AcDbBlockReference
  2
GROUP_24
 10
0.0
 20
0.0
 30
0.0
  0
TEXT
  5
3F5
100
AcDbEntity
  8
LAYER0001
 62
       7
100
AcDbText
 10
-167.9480706
 20
173.60848642
 30
0.0
 40
9.525
  1
Type 1
 72
       5
 11
-110.7980706
 21
173.60848642
 31
0.0
100
AcDbText
  0
TEXT
  5
3F6
100
AcDbEntity
  8
LAYER0001
 62
       7
100
AcDbText
 10
31.70527055
 20
171.62911883
 30
0.0
 40
9.525
  1
Type 2
 72
       5
 11
88.85527055
 21
171.62911883
 31
0.0
100
AcDbText
  0
ENDSEC
  0
SECTION
  2
OBJECTS
  0
DICTIONARY
  5
19
100
AcDbDictionary
  3
ACAD_GROUP
350
1A
  3
ACAD_MLINESTYLE
350
1B
  0
DICTIONARY
  5
1A
102
{ACAD_REACTORS
330
19
102
}
100
AcDbDictionary
  0
DICTIONARY
  5
1B
102
{ACAD_REACTORS
330
19
102
}
100
AcDbDictionary
  3
STANDARD
350
1C
  0
MLINESTYLE
  5
1C
102
{ACAD_REACTORS
330
1B
102
}
100
AcDbMlineStyle
  2
STANDARD
 70
       0
  3

 62
       0
 51
90.0
 52
90.0
 71
       2
 49
0.5
 62
     256
  6
BYLAYER
 49
-0.5
 62
     256
  6
BYLAYER
  0
ENDSEC
  0
EOF

