  0
SECTION
  2
HEADER
  9
$ACADVER
  1
AC1014
  9
$ACADMAINTVER
 70
       0
  9
$DWGCODEPAGE
  3
ANSI_932
  9
$INSBASE
 10
0.0
 20
0.0
 30
0.0
  9
$EXTMIN
 10
-136.41575599
 20
-95.99538462
 30
0.0
  9
$EXTMAX
 10
136.41575599
 20
58.47049774
 30
0.0
  9
$LIMMIN
 10
-144.94174073
 20
-100.82244344
  9
$LIMMAX
 10
144.94174073
 20
63.29755656
  9
$ORTHOMODE
 70
       0
  9
$REGENMODE
 70
       1
  9
$FILLMODE
 70
       1
  9
$QTEXTMODE
 70
       0
  9
$MIRRTEXT
 70
       1
  9
$DRAGMODE
 70
       2
  9
$LTSCALE
 40
1.0
  9
$OSMODE
 70
       0
  9
$ATTMODE
 70
       1
  9
$TEXTSIZE
 40
0.2
  9
$TRACEWID
 40
0.05
  9
$TEXTSTYLE
  7
STANDARD
  9
$CLAYER
  8
0
  9
$CELTYPE
  6
CONTINUOUS
  9
$CECOLOR
 62
     256
  9
$CELTSCALE
 40
1.0
  9
$DELOBJ
 70
       1
  9
$DISPSILH
 70
       0
  9
$DIMSCALE
 40
1.0
  9
$DIMASZ
 40
0.18
  9
$DIMEXO
 40
0.0625
  9
$DIMDLI
 40
0.38
  9
$DIMRND
 40
0.0
  9
$DIMDLE
 40
0.0
  9
$DIMEXE
 40
0.18
  9
$DIMTP
 40
0.0
  9
$DIMTM
 40
0.0
  9
$DIMTXT
 40
0.18
  9
$DIMCEN
 40
0.09
  9
$DIMTSZ
 40
0.0
  9
$DIMTOL
 70
       0
  9
$DIMLIM
 70
       0
  9
$DIMTIH
 70
       1
  9
$DIMTOH
 70
       1
  9
$DIMSE1
 70
       0
  9
$DIMSE2
 70
       0
  9
$DIMTAD
 70
       0
  9
$DIMZIN
 70
       0
  9
$DIMBLK
  1

  9
$DIMASO
 70
       1
  9
$DIMSHO
 70
       1
  9
$DIMPOST
  1

  9
$DIMAPOST
  1

  9
$DIMALT
 70
       0
  9
$DIMALTD
 70
       2
  9
$DIMALTF
 40
25.4
  9
$DIMLFAC
 40
1.0
  9
$DIMTOFL
 70
       0
  9
$DIMTVP
 40
0.0
  9
$DIMTIX
 70
       0
  9
$DIMSOXD
 70
       0
  9
$DIMSAH
 70
       0
  9
$DIMBLK1
  1

  9
$DIMBLK2
  1

  9
$DIMSTYLE
  2
STANDARD
  9
$DIMCLRD
 70
       0
  9
$DIMCLRE
 70
       0
  9
$DIMCLRT
 70
       0
  9
$DIMTFAC
 40
1.0
  9
$DIMGAP
 40
0.09
  9
$DIMJUST
 70
       0
  9
$DIMSD1
 70
       0
  9
$DIMSD2
 70
       0
  9
$DIMTOLJ
 70
       1
  9
$DIMTZIN
 70
       0
  9
$DIMALTZ
 70
       0
  9
$DIMALTTZ
 70
       0
  9
$DIMFIT
 70
       3
  9
$DIMUPT
 70
       0
  9
$DIMUNIT
 70
       2
  9
$DIMDEC
 70
       4
  9
$DIMTDEC
 70
       4
  9
$DIMALTU
 70
       2
  9
$DIMALTTD
 70
       2
  9
$DIMTXSTY
  7
STANDARD
  9
$DIMAUNIT
 70
       0
  9
$LUNITS
 70
       2
  9
$LUPREC
 70
       4
  9
$SKETCHINC
 40
0.1
  9
$FILLETRAD
 40
0.0
  9
$AUNITS
 70
       0
  9
$AUPREC
 70
       0
  9
$MENU
  1
acad
  9
$ELEVATION
 40
0.0
  9
$PELEVATION
 40
0.0
  9
$THICKNESS
 40
0.0
  9
$LIMCHECK
 70
       0
  9
$BLIPMODE
 70
       1
  9
$CHAMFERA
 40
0.0
  9
$CHAMFERB
 40
0.0
  9
$CHAMFERC
 40
0.0
  9
$CHAMFERD
 40
0.0
  9
$SKPOLY
 70
       0
  9
$TDCREATE
 40
0.000000000
  9
$TDUPDATE
 40
0.000000000
  9
$TDINDWG
 40
0.0000000000
  9
$TDUSRTIMER
 40
0.0000000000
  9
$USRTIMER
 70
       1
  9
$ANGBASE
 50
0.0
  9
$ANGDIR
 70
       0
  9
$PDMODE
 70
       0
  9
$PDSIZE
 40
1.0
  9
$PLINEWID
 40
0.0
  9
$COORDS
 70
       1
  9
$SPLFRAME
 70
       0
  9
$SPLINETYPE
 70
       6
  9
$SPLINESEGS
 70
       8
  9
$ATTDIA
 70
       0
  9
$ATTREQ
 70
       1
  9
$HANDLING
 70
       1
  9
$HANDSEED
  5
63C
  9
$SURFTAB1
 70
       6
  9
$SURFTAB2
 70
       6
  9
$SURFTYPE
 70
       6
  9
$SURFU
 70
       6
  9
$SURFV
 70
       6
  9
$UCSNAME
  2

  9
$UCSORG
 10
0.0
 20
0.0
 30
0.0
  9
$UCSXDIR
 10
1.0
 20
0.0
 30
0.0
  9
$UCSYDIR
 10
0.0
 20
1.0
 30
0.0
  9
$PUCSNAME
  2

  9
$PUCSORG
 10
0.0
 20
0.0
 30
0.0
  9
$PUCSXDIR
 10
1.0
 20
0.0
 30
0.0
  9
$PUCSYDIR
 10
0.0
 20
1.0
 30
0.0
  9
$USERI1
 70
       0
  9
$USERI2
 70
       0
  9
$USERI3
 70
       0
  9
$USERI4
 70
       0
  9
$USERI5
 70
       0
  9
$USERR1
 40
0.0
  9
$USERR2
 40
0.0
  9
$USERR3
 40
0.0
  9
$USERR4
 40
0.0
  9
$USERR5
 40
0.0
  9
$WORLDVIEW
 70
       1
  9
$SHADEDGE
 70
       3
  9
$SHADEDIF
 70
      70
  9
$TILEMODE
 70
       1
  9
$MAXACTVP
 70
      16
  9
$PINSBASE
 10
0.0
 20
0.0
 30
0.0
  9
$PLIMCHECK
 70
       0
  9
$PEXTMIN
 10
1.00000000E+20
 20
1.00000000E+20
 30
1.00000000E+20
  9
$PEXTMAX
 10
-1.00000000E+20
 20
-1.00000000E+20
 30
-1.00000000E+20
  9
$PLIMMIN
 10
0.0
 20
0.0
  9
$PLIMMAX
 10
12.0
 20
9.0
  9
$UNITMODE
 70
       0
  9
$VISRETAIN
 70
       0
  9
$PLINEGEN
 70
       1
  9
$PSLTSCALE
 70
       0
  9
$TREEDEPTH
 70
    3020
  9
$PICKSTYLE
 70
       1
  9
$CMLSTYLE
  2
STANDARD
  9
$CMLJUST
 70
       0
  9
$CMLSCALE
 40
1.0
  9
$PROXYGRAPHICS
 70
       0
  9
$MEASUREMENT
 70
       0
  0
ENDSEC
  0
SECTION
  2
CLASSES
  0
CLASS
  1
LWPOLYLINE
  2
AcDbPolyline
  3
"AutoCAD"
 90
        0
280
       0
281
       1
  0
CLASS
  1
IMAGE
  2
AcDbRasterImage
  3
ISM
 90
      127
280
       0
281
       1
  0
CLASS
  1
OLE2FRAME
  2
AcDbOle2Frame
  3
""
 90
        0
280
       0
281
       1
  0
CLASS
  1
HATCH
  2
AcDbHatch
  3
"ACAD_SEDONA"
 90
        0
280
       0
281
       1
  0
CLASS
  1
DICTIONARYVAR
  2
AcDbDictionaryVar
  3
"AutoCAD"
 90
        0
280
       0
281
       0
  0
CLASS
  1
RASTERVARIABLES
  2
AcDbRasterVariables
  3
ISM
 90
        0
280
       0
281
       0
  0
CLASS
  1
IMAGEDEF
  2
AcDbRasterImageDef
  3
ISM
 90
        0
280
       0
281
       0
  0
CLASS
  1
IMAGEDEF_REACTOR
  2
AcDbRasterImageDefReactor
  3
ISM
 90
        1
280
       0
281
       0
  0
CLASS
  1
IDBUFFER
  2
AcDbIdBuffer
  3
"Acad"
 90
        0
280
       0
281
       0
  0
CLASS
  1
SPATIAL_FILTER
  2
AcDbSpatialFilter
  3
"Acad"
 90
        0
280
       0
281
       0
  0
CLASS
  1
XRECORD
  2
AcDbXrecord
  3
"<Built In>"
 90
        0
280
       0
281
       0
  0
CLASS
  1
SORTENTSTABLE
  2
AcDbSortentsTable
  3
"AutoCAD"
 90
        0
280
       0
281
       0
  0
CLASS
  1
LAYER_INDEX
  2
AcDbLayerIndex
  3
"Acad"
 90
        0
280
       0
281
       0
  0
CLASS
  1
SPATIAL_INDEX
  2
AcDbSpatialIndex
  3
"Acad"
 90
        0
280
       0
281
       0
  0
CLASS
  1
OBJECT_PTR
  2
CAseDLPNTableRecord
  3
"ASE-LPNTableRecord"
 90
        1
280
       0
281
       0
  0
CLASS
  1
LAYOUT
  2
AcDbLayout
  3
"AutoCAD 2000"
 90
        1
280
       0
281
       0
  0
CLASS
  1
PLOTSETTINGS
  2
AcDbPlotSettings
  3
"AutoCAD 2000"
 90
        1
280
       0
281
       0
  0
CLASS
  1
ACDBDICTIONARYWDFLT
  2
AcDbDictionaryWithDefault
  3
"AutoCAD 2000"
 90
        1
280
       0
281
       0
  0
CLASS
  1
ACDBPLACEHOLDER
  2
AcDbPlaceHolder
  3
"AutoCAD 2000"
 90
        1
280
       0
281
       0
  0
CLASS
  1
VBA_PROJECT
  2
AcDbVbaProject
  3
"acadvba"
 90
        1
280
       0
281
       0
  0
CLASS
  1
WIPEOUT
  2
AcDbWipeout
  3
WipeOut|AutoCAD Express Tool|expresstools@autodesk.com
 90
      127
280
       0
281
       1
  0
CLASS
  1
WIPEOUTVARIABLES
  2
AcDbWipeoutVariables
  3
WipeOut|AutoCAD Express Tool|expresstools@autodesk.com
 90
        0
280
       0
281
       0
  0
CLASS
  1
RTEXT
  2
RText
  3
RText|AutoCAD Express Tool|expresstools@autodesk.com
 90
        0
280
       0
281
       1
  0
CLASS
  1
ARCALIGNEDTEXT
  2
AcDbArcAlignedText
  3
ATEXT|AutoCAD Express Tool|expresstools@autodesk.com
 90
        0
280
       0
281
       1
  0
ENDSEC
  0
SECTION
  2
TABLES
  0
TABLE
  2
VPORT
  5
7
100
AcDbSymbolTable
 70
       1
  0
VPORT
  5
15
100
AcDbSymbolTableRecord
100
AcDbViewportTableRecord
  2
*ACTIVE
 70
       0
 10
0.0
 20
0.0
 11
1.0
 21
1.0
 12
0.0
 22
-18.76244344
 13
0.0
 23
0.0
 14
1.0
 24
1.0
 15
0.0
 25
0.0
 16
0.0
 26
0.0
 36
1.0
 17
0.0
 27
0.0
 37
0.0
 40
164.12
 41
1.7662898
 42
50.0
 43
0.0
 44
0.0
 50
0.0
 51
0.0
 71
       0
 72
     100
 73
       1
 74
       1
 75
       0
 76
       0
 77
       0
 78
       0
  0
ENDTAB
  0
TABLE
  2
LTYPE
  5
4
100
AcDbSymbolTable
 70
      30
  0
LTYPE
  5
11
100
AcDbSymbolTableRecord
100
AcDbLinetypeTableRecord
  2
BYBLOCK
 70
      64
  3

 72
      65
 73
       0
 40
0.0
  0
LTYPE
  5
12
100
AcDbSymbolTableRecord
100
AcDbLinetypeTableRecord
  2
BYLAYER
 70
      64
  3

 72
      65
 73
       0
 40
0.0
  0
LTYPE
  5
13
100
AcDbSymbolTableRecord
100
AcDbLinetypeTableRecord
  2
CONTINUOUS
 70
      64
  3
Solid line
 72
      65
 73
       0
 40
0.0
  0
LTYPE
  5
1D
100
AcDbSymbolTableRecord
100
AcDbLinetypeTableRecord
  2
HIDDENX2
 70
      64
  3
CADPAC LINETYPE
 72
      65
 73
       2
 40
11.88
 49
8.91
 74
       0
 49
-2.97
 74
       0
  0
LTYPE
  5
1E
100
AcDbSymbolTableRecord
100
AcDbLinetypeTableRecord
  2
HIDDEN
 70
      64
  3
CADPAC LINETYPE
 72
      65
 73
       2
 40
8.91
 49
5.94
 74
       0
 49
-2.97
 74
       0
  0
LTYPE
  5
1F
100
AcDbSymbolTableRecord
100
AcDbLinetypeTableRecord
  2
HIDDEN2
 70
      64
  3
CADPAC LINETYPE
 72
      65
 73
       2
 40
7.425
 49
4.455
 74
       0
 49
-2.97
 74
       0
  0
LTYPE
  5
20
100
AcDbSymbolTableRecord
100
AcDbLinetypeTableRecord
  2
DASHED
 70
      64
  3
CADPAC LINETYPE
 72
      65
 73
       2
 40
8.91
 49
5.94
 74
       0
 49
-2.97
 74
       0
  0
LTYPE
  5
21
100
AcDbSymbolTableRecord
100
AcDbLinetypeTableRecord
  2
DASHED2
 70
      64
  3
CADPAC LINETYPE
 72
      65
 73
       2
 40
6.6825
 49
4.455
 74
       0
 49
-2.2275
 74
       0
  0
LTYPE
  5
22
100
AcDbSymbolTableRecord
100
AcDbLinetypeTableRecord
  2
DASHEDX2
 70
      64
  3
CADPAC LINETYPE
 72
      65
 73
       2
 40
13.365
 49
8.91
 74
       0
 49
-4.455
 74
       0
  0
LTYPE
  5
23
100
AcDbSymbolTableRecord
100
AcDbLinetypeTableRecord
  2
DOTX2
 70
      64
  3
CADPAC LINETYPE
 72
      65
 73
       2
 40
3.7125
 49
0.0
 74
       0
 49
-3.7125
 74
       0
  0
LTYPE
  5
24
100
AcDbSymbolTableRecord
100
AcDbLinetypeTableRecord
  2
DOT
 70
      64
  3
CADPAC LINETYPE
 72
      65
 73
       2
 40
2.97
 49
0.0
 74
       0
 49
-2.97
 74
       0
  0
LTYPE
  5
25
100
AcDbSymbolTableRecord
100
AcDbLinetypeTableRecord
  2
DOT2
 70
      64
  3
CADPAC LINETYPE
 72
      65
 73
       2
 40
2.2275
 49
0.0
 74
       0
 49
-2.2275
 74
       0
  0
LTYPE
  5
26
100
AcDbSymbolTableRecord
100
AcDbLinetypeTableRecord
  2
CENTERX2
 70
      64
  3
CADPAC LINETYPE
 72
      65
 73
       4
 40
17.82
 49
7.425
 74
       0
 49
-3.7125
 74
       0
 49
2.97
 74
       0
 49
-3.7125
 74
       0
  0
LTYPE
  5
27
100
AcDbSymbolTableRecord
100
AcDbLinetypeTableRecord
  2
CENTER
 70
      64
  3
CADPAC LINETYPE
 72
      65
 73
       4
 40
13.662
 49
5.94
 74
       0
 49
-2.97
 74
       0
 49
1.782
 74
       0
 49
-2.97
 74
       0
  0
LTYPE
  5
28
100
AcDbSymbolTableRecord
100
AcDbLinetypeTableRecord
  2
CENTER2
 70
      64
  3
CADPAC LINETYPE
 72
      65
 73
       4
 40
9.504
 49
4.455
 74
       0
 49
-2.2275
 74
       0
 49
0.594
 74
       0
 49
-2.2275
 74
       0
  0
LTYPE
  5
29
100
AcDbSymbolTableRecord
100
AcDbLinetypeTableRecord
  2
DASHDOTX2
 70
      64
  3
CADPAC LINETYPE
 72
      65
 73
       4
 40
14.85
 49
7.425
 74
       0
 49
-3.7125
 74
       0
 49
0.0
 74
       0
 49
-3.7125
 74
       0
  0
LTYPE
  5
2A
100
AcDbSymbolTableRecord
100
AcDbLinetypeTableRecord
  2
DASHDOT
 70
      64
  3
CADPAC LINETYPE
 72
      65
 73
       4
 40
11.88
 49
5.94
 74
       0
 49
-2.97
 74
       0
 49
0.0
 74
       0
 49
-2.97
 74
       0
  0
LTYPE
  5
2B
100
AcDbSymbolTableRecord
100
AcDbLinetypeTableRecord
  2
DASHDOT2
 70
      64
  3
CADPAC LINETYPE
 72
      65
 73
       4
 40
8.91
 49
4.455
 74
       0
 49
-2.2275
 74
       0
 49
0.0
 74
       0
 49
-2.2275
 74
       0
  0
LTYPE
  5
2C
100
AcDbSymbolTableRecord
100
AcDbLinetypeTableRecord
  2
DIVIDEX2
 70
      64
  3
CADPAC LINETYPE
 72
      65
 73
       6
 40
18.5625
 49
7.425
 74
       0
 49
-3.7125
 74
       0
 49
0.0
 74
       0
 49
-3.7125
 74
       0
 49
0.0
 74
       0
 49
-3.7125
 74
       0
  0
LTYPE
  5
2D
100
AcDbSymbolTableRecord
100
AcDbLinetypeTableRecord
  2
DIVIDE
 70
      64
  3
CADPAC LINETYPE
 72
      65
 73
       6
 40
14.85
 49
5.94
 74
       0
 49
-2.97
 74
       0
 49
0.0
 74
       0
 49
-2.97
 74
       0
 49
0.0
 74
       0
 49
-2.97
 74
       0
  0
LTYPE
  5
2E
100
AcDbSymbolTableRecord
100
AcDbLinetypeTableRecord
  2
DIVIDE2
 70
      64
  3
CADPAC LINETYPE
 72
      65
 73
       6
 40
11.1375
 49
4.455
 74
       0
 49
-2.2275
 74
       0
 49
0.0
 74
       0
 49
-2.2275
 74
       0
 49
0.0
 74
       0
 49
-2.2275
 74
       0
  0
LTYPE
  5
2F
100
AcDbSymbolTableRecord
100
AcDbLinetypeTableRecord
  2
BORDERX2
 70
      64
  3
CADPAC LINETYPE
 72
      65
 73
       6
 40
25.9875
 49
7.425
 74
       0
 49
-3.7125
 74
       0
 49
7.425
 74
       0
 49
-3.7125
 74
       0
 49
0.0
 74
       0
 49
-3.7125
 74
       0
  0
LTYPE
  5
30
100
AcDbSymbolTableRecord
100
AcDbLinetypeTableRecord
  2
BORDER
 70
      64
  3
CADPAC LINETYPE
 72
      65
 73
       6
 40
20.79
 49
5.94
 74
       0
 49
-2.97
 74
       0
 49
5.94
 74
       0
 49
-2.97
 74
       0
 49
0.0
 74
       0
 49
-2.97
 74
       0
  0
LTYPE
  5
31
100
AcDbSymbolTableRecord
100
AcDbLinetypeTableRecord
  2
BORDER2
 70
      64
  3
CADPAC LINETYPE
 72
      65
 73
       6
 40
15.5925
 49
4.455
 74
       0
 49
-2.2275
 74
       0
 49
4.455
 74
       0
 49
-2.2275
 74
       0
 49
0.0
 74
       0
 49
-2.2275
 74
       0
  0
LTYPE
  5
32
100
AcDbSymbolTableRecord
100
AcDbLinetypeTableRecord
  2
PHANTOMX2
 70
      64
  3
CADPAC LINETYPE
 72
      65
 73
       6
 40
22.275
 49
7.425
 74
       0
 49
-2.97
 74
       0
 49
2.97
 74
       0
 49
-2.97
 74
       0
 49
2.97
 74
       0
 49
-2.97
 74
       0
  0
LTYPE
  5
33
100
AcDbSymbolTableRecord
100
AcDbLinetypeTableRecord
  2
PHANTOM
 70
      64
  3
CADPAC LINETYPE
 72
      65
 73
       6
 40
18.414
 49
5.94
 74
       0
 49
-2.97
 74
       0
 49
1.782
 74
       0
 49
-2.97
 74
       0
 49
1.782
 74
       0
 49
-2.97
 74
       0
  0
LTYPE
  5
34
100
AcDbSymbolTableRecord
100
AcDbLinetypeTableRecord
  2
PHANTOM2
 70
      64
  3
CADPAC LINETYPE
 72
      65
 73
       6
 40
15.741
 49
4.455
 74
       0
 49
-2.97
 74
       0
 49
1.188
 74
       0
 49
-2.97
 74
       0
 49
1.188
 74
       0
 49
-2.97
 74
       0
  0
LTYPE
  5
35
100
AcDbSymbolTableRecord
100
AcDbLinetypeTableRecord
  2
ACAD_ISO06W100
 70
      64
  3
CADPAC LINETYPE
 72
      65
 73
       8
 40
20.0475
 49
7.425
 74
       0
 49
-3.7125
 74
       0
 49
0.0
 74
       0
 49
-2.97
 74
       0
 49
0.0
 74
       0
 49
-2.97
 74
       0
 49
0.0
 74
       0
 49
-2.97
 74
       0
  0
LTYPE
  5
36
100
AcDbSymbolTableRecord
100
AcDbLinetypeTableRecord
  2
ACAD_ISO13W100
 70
      64
  3
CADPAC LINETYPE
 72
      65
 73
       8
 40
23.76
 49
5.94
 74
       0
 49
-2.97
 74
       0
 49
5.94
 74
       0
 49
-2.97
 74
       0
 49
0.0
 74
       0
 49
-2.97
 74
       0
 49
0.0
 74
       0
 49
-2.97
 74
       0
  0
LTYPE
  5
37
100
AcDbSymbolTableRecord
100
AcDbLinetypeTableRecord
  2
ACAD_ISO14W100
 70
      64
  3
CADPAC LINETYPE
 72
      65
 73
       8
 40
17.82
 49
5.94
 74
       0
 49
-2.97
 74
       0
 49
0.0
 74
       0
 49
-2.97
 74
       0
 49
0.0
 74
       0
 49
-2.97
 74
       0
 49
0.0
 74
       0
 49
-2.97
 74
       0
  0
ENDTAB
  0
TABLE
  2
LAYER
  5
2
100
AcDbSymbolTable
 70
       2
  0
LAYER
  5
14
100
AcDbSymbolTableRecord
100
AcDbLayerTableRecord
  2
0
 70
       0
 62
       7
  6
CONTINUOUS
  0
LAYER
  5
38
100
AcDbSymbolTableRecord
100
AcDbLayerTableRecord
  2
レイヤー_1
 70
       0
 62
       7
  6
CONTINUOUS
  0
ENDTAB
  0
TABLE
  2
STYLE
  5
3
100
AcDbSymbolTable
 70
       1
  0
STYLE
  5
17
100
AcDbSymbolTableRecord
100
AcDbTextStyleTableRecord
  2
STANDARD
 70
       0
 40
0.0
 41
0.8
 50
0.0
 71
       0
 42
5.0
  3
txt.shx
  4
bigfont.shx
  0
ENDTAB
  0
TABLE
  2
VIEW
  5
5
100
AcDbSymbolTable
 70
       1
  0
VIEW
  5
39
100
AcDbSymbolTableRecord
100
AcDbViewTableRecord
  2
QQQQ
 70
       0
 40
164.12
 10
0.0
 20
-18.76244344
 41
289.88348147
 11
0.0
 21
0.0
 31
1.0
 12
100.0
 22
100.0
 32
0.0
 42
50.0
 43
0.0
 44
0.0
 50
0.0
 71
       0
  0
ENDTAB
  0
TABLE
  2
UCS
  5
6
100
AcDbSymbolTable
 70
       0
  0
ENDTAB
  0
TABLE
  2
APPID
  5
8
100
AcDbSymbolTable
 70
       1
  0
APPID
  5
16
100
AcDbSymbolTableRecord
100
AcDbRegAppTableRecord
  2
ACAD
 70
       0
  0
ENDTAB
  0
TABLE
  2
DIMSTYLE
  5
9
100
AcDbSymbolTable
 70
       1
  0
DIMSTYLE
105
18
100
AcDbSymbolTableRecord
100
AcDbDimStyleTableRecord
  2
STANDARD
 70
       0
  3

  4

  5

  6

  7

 40
1.0
 41
0.18
 42
0.0625
 43
0.38
 44
0.18
 45
0.0
 46
0.0
 47
0.0
 48
0.0
 71
       0
 72
       0
 73
       1
 74
       1
 75
       0
 76
       0
 77
       0
 78
       0
140
0.18
141
0.09
142
0.0
143
25.4
144
1.0
145
0.0
146
1.0
147
0.09
170
       0
171
       2
172
       0
173
       0
174
       0
175
       0
176
       0
177
       0
178
       0
270
       2
271
       4
272
       4
273
       2
274
       2
275
       0
280
       0
281
       0
282
       0
283
       1
284
       0
285
       0
286
       0
287
       0
288
       0
340
17
  0
ENDTAB
  0
TABLE
  2
BLOCK_RECORD
  5
1
100
AcDbSymbolTable
 70
       0
  0
BLOCK_RECORD
  5
A
100
AcDbSymbolTableRecord
100
AcDbBlockTableRecord
  2
*MODEL_SPACE
  0
BLOCK_RECORD
  5
B
100
AcDbSymbolTableRecord
100
AcDbBlockTableRecord
  2
*PAPER_SPACE
  0
ENDTAB
  0
ENDSEC
  0
SECTION
  2
BLOCKS
  0
BLOCK
  5
D
100
AcDbEntity
  8
0
100
AcDbBlockBegin
  2
*MODEL_SPACE
 70
       0
 10
0.0
 20
0.0
 30
0.0
  3
*MODEL_SPACE
  1

  0
ENDBLK
  5
E
100
AcDbEntity
  8
0
100
AcDbBlockEnd
  0
BLOCK
  5
F
100
AcDbEntity
 67
       1
  8
0
100
AcDbBlockBegin
  2
*PAPER_SPACE
 70
       0
 10
0.0
 20
0.0
 30
0.0
  3
*PAPER_SPACE
  1

  0
ENDBLK
  5
10
100
AcDbEntity
 67
       1
  8
0
100
AcDbBlockEnd
  0
ENDSEC
  0
SECTION
  2
ENTITIES
  0
LINE
  5
3A
100
AcDbEntity
  8
レイヤー_1
  6
CONTINUOUS
 62
       3
100
AcDbLine
 10
-128.71742416
 20
40.0
 30
0.0
 11
-128.71742416
 21
-40.0
 31
0.0
  0
LINE
  5
3B
100
AcDbEntity
  8
レイヤー_1
  6
CONTINUOUS
 62
       3
100
AcDbLine
 10
-56.71742416
 20
40.0
 30
0.0
 11
-56.71742416
 21
-40.0
 31
0.0
  0
LINE
  5
3C
100
AcDbEntity
  8
レイヤー_1
  6
CONTINUOUS
 62
       3
100
AcDbLine
 10
-3.6143358
 20
40.0
 30
0.0
 11
120.68077593
 21
40.0
 31
0.0
  0
LINE
  5
3D
100
AcDbEntity
  8
レイヤー_1
  6
CONTINUOUS
 62
       3
100
AcDbLine
 10
-17.31922407
 20
-40.0
 30
0.0
 11
120.68077593
 21
-40.0
 31
0.0
  0
LINE
  5
3E
100
AcDbEntity
  8
レイヤー_1
  6
CONTINUOUS
 62
       3
100
AcDbLine
 10
-73.72000395
 20
-55.5
 30
0.0
 11
-57.71857019
 21
-55.5
 31
0.0
  0
LINE
  5
3F
100
AcDbEntity
  8
レイヤー_1
  6
CONTINUOUS
 62
       3
100
AcDbLine
 10
-127.71858446
 20
55.5
 30
0.0
 11
-111.71856648
 21
55.5
 31
0.0
  0
LINE
  5
40
100
AcDbEntity
  8
レイヤー_1
  6
CONTINUOUS
 62
       3
100
AcDbLine
 10
-128.71742416
 20
-40.0
 30
0.0
 11
-56.71742416
 21
-40.0
 31
0.0
  0
LINE
  5
41
100
AcDbEntity
  8
レイヤー_1
  6
CONTINUOUS
 62
       3
100
AcDbLine
 10
-128.71742416
 20
40.0
 30
0.0
 11
-56.71742416
 21
40.0
 31
0.0
  0
LINE
  5
42
100
AcDbEntity
  8
レイヤー_1
  6
CONTINUOUS
 62
       3
100
AcDbLine
 10
120.68077593
 20
-55.5
 30
0.0
 11
128.68077593
 21
-55.5
 31
0.0
  0
LINE
  5
43
100
AcDbEntity
  8
レイヤー_1
  6
CONTINUOUS
 62
       3
100
AcDbLine
 10
120.68077593
 20
55.5
 30
0.0
 11
128.68077593
 21
55.5
 31
0.0
  0
LINE
  5
44
100
AcDbEntity
  8
レイヤー_1
  6
CONTINUOUS
 62
       3
100
AcDbLine
 10
120.68077593
 20
55.5
 30
0.0
 11
120.68077593
 21
40.0
 31
0.0
  0
LINE
  5
45
100
AcDbEntity
  8
レイヤー_1
  6
CONTINUOUS
 62
       3
100
AcDbLine
 10
-14.31922407
 20
-4.90366279
 30
0.0
 11
-14.31922407
 21
-23.25310262
 31
0.0
  0
LINE
  5
46
100
AcDbEntity
  8
レイヤー_1
  6
CONTINUOUS
 62
       3
100
AcDbLine
 10
-17.31922407
 20
-1.94088067
 30
0.0
 11
-17.31922407
 21
-40.0
 31
0.0
  0
LINE
  5
47
100
AcDbEntity
  8
レイヤー_1
  6
CONTINUOUS
 62
       3
100
AcDbLine
 10
-56.71742416
 20
-40.0
 30
0.0
 11
-57.71857019
 21
-55.5
 31
0.0
  0
LINE
  5
48
100
AcDbEntity
  8
レイヤー_1
  6
CONTINUOUS
 62
       3
100
AcDbLine
 10
-127.71858446
 20
55.5
 30
0.0
 11
-128.71742416
 21
40.0
 31
0.0
  0
LINE
  5
49
100
AcDbEntity
  8
レイヤー_1
  6
CONTINUOUS
 62
       3
100
AcDbLine
 10
120.68077593
 20
-40.0
 30
0.0
 11
120.68077593
 21
-55.5
 31
0.0
  0
LINE
  5
4A
100
AcDbEntity
  8
レイヤー_1
  6
CONTINUOUS
 62
       3
100
AcDbLine
 10
-64.79844494
 20
-51.33319092
 30
0.0
 11
-63.3838026
 21
-49.91940986
 31
0.0
  0
LINE
  5
4B
100
AcDbEntity
  8
レイヤー_1
  6
CONTINUOUS
 62
       3
100
AcDbLine
 10
-66.63640338
 20
-46.66680909
 30
0.0
 11
-68.05104571
 21
-48.08059015
 31
0.0
  0
LINE
  5
4C
100
AcDbEntity
  8
レイヤー_1
  6
CONTINUOUS
 62
       3
100
AcDbLine
 10
-117.41739228
 20
48.00027635
 30
0.0
 11
-117.41739228
 21
49.99972364
 31
0.0
  0
LINE
  5
4D
100
AcDbEntity
  8
レイヤー_1
  6
CONTINUOUS
 62
       3
100
AcDbLine
 10
-122.01745603
 20
49.99972364
 30
0.0
 11
-122.01745603
 21
48.00027635
 31
0.0
  0
LINE
  5
4E
100
AcDbEntity
  8
レイヤー_1
  6
CONTINUOUS
 62
       3
100
AcDbLine
 10
-74.71852279
 20
-40.00832451
 30
0.0
 11
-73.72000395
 21
-55.5
 31
0.0
  0
LINE
  5
4F
100
AcDbEntity
  8
レイヤー_1
  6
CONTINUOUS
 62
       3
100
AcDbLine
 10
-110.71847871
 20
39.99109903
 30
0.0
 11
-111.71856648
 21
55.5
 31
0.0
  0
LINE
  5
50
100
AcDbEntity
  8
レイヤー_1
  6
CONTINUOUS
 62
       3
100
AcDbLine
 10
-126.71879405
 20
35.42247177
 30
0.0
 11
-116.71768186
 21
35.42247177
 31
0.0
  0
LINE
  5
51
100
AcDbEntity
  8
レイヤー_1
  6
CONTINUOUS
 62
       3
100
AcDbLine
 10
-116.71768186
 20
40.00961641
 30
0.0
 11
-116.71768186
 21
23.35946993
 31
0.0
  0
LINE
  5
52
100
AcDbEntity
  8
レイヤー_1
  6
CONTINUOUS
 62
       3
100
AcDbLine
 10
-116.71768186
 20
23.35946993
 30
0.0
 11
-126.71879405
 21
23.35946993
 31
0.0
  0
LINE
  5
53
100
AcDbEntity
  8
レイヤー_1
  6
CONTINUOUS
 62
       3
100
AcDbLine
 10
-126.71879405
 20
23.35946993
 30
0.0
 11
-126.71879405
 21
40.00961641
 31
0.0
  0
LINE
  5
54
100
AcDbEntity
  8
レイヤー_1
  6
CONTINUOUS
 62
       3
100
AcDbLine
 10
-56.71876016
 20
21.64941066
 30
0.0
 11
-128.71824134
 21
21.64941066
 31
0.0
  0
LINE
  5
55
100
AcDbEntity
  8
レイヤー_1
  6
CONTINUOUS
 62
       3
100
AcDbLine
 10
-126.11288788
 20
21.54433525
 30
0.0
 11
-126.11288788
 21
20.29376559
 31
0.0
  0
LINE
  5
56
100
AcDbEntity
  8
レイヤー_1
  6
CONTINUOUS
 62
       3
100
AcDbLine
 10
-126.11288788
 20
20.29376559
 30
0.0
 11
-122.68674042
 21
20.29376559
 31
0.0
  0
LINE
  5
57
100
AcDbEntity
  8
レイヤー_1
  6
CONTINUOUS
 62
       3
100
AcDbLine
 10
-122.68674042
 20
20.29376559
 30
0.0
 11
-122.68674042
 21
21.54433525
 31
0.0
  0
LINE
  5
58
100
AcDbEntity
  8
レイヤー_1
  6
CONTINUOUS
 62
       3
100
AcDbLine
 10
-58.61873032
 20
21.6545783
 30
0.0
 11
-58.61873032
 21
1.75441487
 31
0.0
  0
LINE
  5
59
100
AcDbEntity
  8
レイヤー_1
  6
CONTINUOUS
 62
       3
100
AcDbLine
 10
-58.61873032
 20
1.75441487
 30
0.0
 11
-56.77000595
 21
1.75441487
 31
0.0
  0
LINE
  5
5A
100
AcDbEntity
  8
レイヤー_1
  6
CONTINUOUS
 62
       3
100
AcDbLine
 10
-62.87428452
 20
21.54433525
 30
0.0
 11
-62.87428452
 21
20.29376559
 31
0.0
  0
LINE
  5
5B
100
AcDbEntity
  8
レイヤー_1
  6
CONTINUOUS
 62
       3
100
AcDbLine
 10
-62.87428452
 20
20.29376559
 30
0.0
 11
-59.44770642
 21
20.29376559
 31
0.0
  0
LINE
  5
5C
100
AcDbEntity
  8
レイヤー_1
  6
CONTINUOUS
 62
       3
100
AcDbLine
 10
-59.44770642
 20
20.29376559
 30
0.0
 11
-59.44770642
 21
21.54433525
 31
0.0
  0
LINE
  5
5D
100
AcDbEntity
  8
レイヤー_1
  6
CONTINUOUS
 62
       3
100
AcDbLine
 10
-126.81870182
 20
21.6545783
 30
0.0
 11
-126.81870182
 21
1.75441487
 31
0.0
  0
LINE
  5
5E
100
AcDbEntity
  8
レイヤー_1
  6
CONTINUOUS
 62
       3
100
AcDbLine
 10
-126.81870182
 20
1.75441487
 30
0.0
 11
-128.74020383
 21
1.75441487
 31
0.0
  0
LINE
  5
5F
100
AcDbEntity
  8
レイヤー_1
  6
CONTINUOUS
 62
       3
100
AcDbLine
 10
-126.12193126
 20
33.76710339
 30
0.0
 11
-126.12193126
 21
24.68841552
 31
0.0
  0
LINE
  5
60
100
AcDbEntity
  8
レイヤー_1
  6
CONTINUOUS
 62
       3
100
AcDbLine
 10
-126.12193126
 20
24.68841552
 30
0.0
 11
-117.41703624
 21
24.68841552
 31
0.0
  0
LINE
  5
61
100
AcDbEntity
  8
レイヤー_1
  6
CONTINUOUS
 62
       3
100
AcDbLine
 10
-117.41703624
 20
24.68841552
 30
0.0
 11
-117.41703624
 21
33.76710339
 31
0.0
  0
LINE
  5
62
100
AcDbEntity
  8
レイヤー_1
  6
CONTINUOUS
 62
       3
100
AcDbLine
 10
-117.41703624
 20
33.76710339
 30
0.0
 11
-126.12193126
 21
33.76710339
 31
0.0
  0
LINE
  5
63
100
AcDbEntity
  8
レイヤー_1
  6
CONTINUOUS
 62
       3
100
AcDbLine
 10
-115.11786564
 20
35.42247177
 30
0.0
 11
-105.11847599
 21
35.42247177
 31
0.0
  0
LINE
  5
64
100
AcDbEntity
  8
レイヤー_1
  6
CONTINUOUS
 62
       3
100
AcDbLine
 10
-105.11847599
 20
40.00961641
 30
0.0
 11
-105.11847599
 21
23.35946993
 31
0.0
  0
LINE
  5
65
100
AcDbEntity
  8
レイヤー_1
  6
CONTINUOUS
 62
       3
100
AcDbLine
 10
-105.11847599
 20
23.35946993
 30
0.0
 11
-115.11786564
 21
23.35946993
 31
0.0
  0
LINE
  5
66
100
AcDbEntity
  8
レイヤー_1
  6
CONTINUOUS
 62
       3
100
AcDbLine
 10
-115.11786564
 20
23.35946993
 30
0.0
 11
-115.11786564
 21
40.00961641
 31
0.0
  0
LINE
  5
67
100
AcDbEntity
  8
レイヤー_1
  6
CONTINUOUS
 62
       3
100
AcDbLine
 10
-114.52143348
 20
33.76710339
 30
0.0
 11
-114.52143348
 21
24.68841552
 31
0.0
  0
LINE
  5
68
100
AcDbEntity
  8
レイヤー_1
  6
CONTINUOUS
 62
       3
100
AcDbLine
 10
-114.52143348
 20
24.68841552
 30
0.0
 11
-105.81783038
 21
24.68841552
 31
0.0
  0
LINE
  5
69
100
AcDbEntity
  8
レイヤー_1
  6
CONTINUOUS
 62
       3
100
AcDbLine
 10
-105.81783038
 20
24.68841552
 30
0.0
 11
-105.81783038
 21
33.76710339
 31
0.0
  0
LINE
  5
6A
100
AcDbEntity
  8
レイヤー_1
  6
CONTINUOUS
 62
       3
100
AcDbLine
 10
-105.81783038
 20
33.76710339
 30
0.0
 11
-114.52143348
 21
33.76710339
 31
0.0
  0
LINE
  5
6B
100
AcDbEntity
  8
レイヤー_1
  6
CONTINUOUS
 62
       3
100
AcDbLine
 10
-103.51865978
 20
35.42247177
 30
0.0
 11
-93.51797822
 21
35.42247177
 31
0.0
  0
LINE
  5
6C
100
AcDbEntity
  8
レイヤー_1
  6
CONTINUOUS
 62
       3
100
AcDbLine
 10
-93.51797822
 20
40.00961641
 30
0.0
 11
-93.51797822
 21
23.35946993
 31
0.0
  0
LINE
  5
6D
100
AcDbEntity
  8
レイヤー_1
  6
CONTINUOUS
 62
       3
100
AcDbLine
 10
-93.51797822
 20
23.35946993
 30
0.0
 11
-103.51865978
 21
23.35946993
 31
0.0
  0
LINE
  5
6E
100
AcDbEntity
  8
レイヤー_1
  6
CONTINUOUS
 62
       3
100
AcDbLine
 10
-103.51865978
 20
23.35946993
 30
0.0
 11
-103.51865978
 21
40.00961641
 31
0.0
  0
LINE
  5
6F
100
AcDbEntity
  8
レイヤー_1
  6
CONTINUOUS
 62
       3
100
AcDbLine
 10
-102.92136635
 20
33.76710339
 30
0.0
 11
-102.92136635
 21
24.68841552
 31
0.0
  0
LINE
  5
70
100
AcDbEntity
  8
レイヤー_1
  6
CONTINUOUS
 62
       3
100
AcDbLine
 10
-102.92136635
 20
24.68841552
 30
0.0
 11
-94.2173326
 21
24.68841552
 31
0.0
  0
LINE
  5
71
100
AcDbEntity
  8
レイヤー_1
  6
CONTINUOUS
 62
       3
100
AcDbLine
 10
-94.2173326
 20
24.68841552
 30
0.0
 11
-94.2173326
 21
33.76710339
 31
0.0
  0
LINE
  5
72
100
AcDbEntity
  8
レイヤー_1
  6
CONTINUOUS
 62
       3
100
AcDbLine
 10
-94.2173326
 20
33.76710339
 30
0.0
 11
-102.92136635
 21
33.76710339
 31
0.0
  0
LINE
  5
73
100
AcDbEntity
  8
レイヤー_1
  6
CONTINUOUS
 62
       3
100
AcDbLine
 10
-91.91816201
 20
35.42247177
 30
0.0
 11
-81.91791109
 21
35.42247177
 31
0.0
  0
LINE
  5
74
100
AcDbEntity
  8
レイヤー_1
  6
CONTINUOUS
 62
       3
100
AcDbLine
 10
-81.91791109
 20
40.00961641
 30
0.0
 11
-81.91791109
 21
23.35946993
 31
0.0
  0
LINE
  5
75
100
AcDbEntity
  8
レイヤー_1
  6
CONTINUOUS
 62
       3
100
AcDbLine
 10
-81.91791109
 20
23.35946993
 30
0.0
 11
-91.91816201
 21
23.35946993
 31
0.0
  0
LINE
  5
76
100
AcDbEntity
  8
レイヤー_1
  6
CONTINUOUS
 62
       3
100
AcDbLine
 10
-91.91816201
 20
23.35946993
 30
0.0
 11
-91.91816201
 21
40.00961641
 31
0.0
  0
LINE
  5
77
100
AcDbEntity
  8
レイヤー_1
  6
CONTINUOUS
 62
       3
100
AcDbLine
 10
-91.32129921
 20
33.76710339
 30
0.0
 11
-91.32129921
 21
24.68841552
 31
0.0
  0
LINE
  5
78
100
AcDbEntity
  8
レイヤー_1
  6
CONTINUOUS
 62
       3
100
AcDbLine
 10
-91.32129921
 20
24.68841552
 30
0.0
 11
-82.61726547
 21
24.68841552
 31
0.0
  0
LINE
  5
79
100
AcDbEntity
  8
レイヤー_1
  6
CONTINUOUS
 62
       3
100
AcDbLine
 10
-82.61726547
 20
24.68841552
 30
0.0
 11
-82.61726547
 21
33.76710339
 31
0.0
  0
LINE
  5
7A
100
AcDbEntity
  8
レイヤー_1
  6
CONTINUOUS
 62
       3
100
AcDbLine
 10
-82.61726547
 20
33.76710339
 30
0.0
 11
-91.32129921
 21
33.76710339
 31
0.0
  0
LINE
  5
7B
100
AcDbEntity
  8
レイヤー_1
  6
CONTINUOUS
 62
       3
100
AcDbLine
 10
-80.31809487
 20
35.42247177
 30
0.0
 11
-70.31870522
 21
35.42247177
 31
0.0
  0
LINE
  5
7C
100
AcDbEntity
  8
レイヤー_1
  6
CONTINUOUS
 62
       3
100
AcDbLine
 10
-70.31870522
 20
40.00961641
 30
0.0
 11
-70.31870522
 21
23.35946993
 31
0.0
  0
LINE
  5
7D
100
AcDbEntity
  8
レイヤー_1
  6
CONTINUOUS
 62
       3
100
AcDbLine
 10
-70.31870522
 20
23.35946993
 30
0.0
 11
-80.31809487
 21
23.35946993
 31
0.0
  0
LINE
  5
7E
100
AcDbEntity
  8
レイヤー_1
  6
CONTINUOUS
 62
       3
100
AcDbLine
 10
-80.31809487
 20
23.35946993
 30
0.0
 11
-80.31809487
 21
40.00961641
 31
0.0
  0
LINE
  5
7F
100
AcDbEntity
  8
レイヤー_1
  6
CONTINUOUS
 62
       3
100
AcDbLine
 10
-79.72166271
 20
33.76710339
 30
0.0
 11
-79.72166271
 21
24.68841552
 31
0.0
  0
LINE
  5
80
100
AcDbEntity
  8
レイヤー_1
  6
CONTINUOUS
 62
       3
100
AcDbLine
 10
-79.72166271
 20
24.68841552
 30
0.0
 11
-71.01719833
 21
24.68841552
 31
0.0
  0
LINE
  5
81
100
AcDbEntity
  8
レイヤー_1
  6
CONTINUOUS
 62
       3
100
AcDbLine
 10
-71.01719833
 20
24.68841552
 30
0.0
 11
-71.01719833
 21
33.76710339
 31
0.0
  0
LINE
  5
82
100
AcDbEntity
  8
レイヤー_1
  6
CONTINUOUS
 62
       3
100
AcDbLine
 10
-71.01719833
 20
33.76710339
 30
0.0
 11
-79.72166271
 21
33.76710339
 31
0.0
  0
LINE
  5
83
100
AcDbEntity
  8
レイヤー_1
  6
CONTINUOUS
 62
       3
100
AcDbLine
 10
-68.71888901
 20
35.42247177
 30
0.0
 11
-58.71820745
 21
35.42247177
 31
0.0
  0
LINE
  5
84
100
AcDbEntity
  8
レイヤー_1
  6
CONTINUOUS
 62
       3
100
AcDbLine
 10
-58.71820745
 20
40.00961641
 30
0.0
 11
-58.71820745
 21
23.35946993
 31
0.0
  0
LINE
  5
85
100
AcDbEntity
  8
レイヤー_1
  6
CONTINUOUS
 62
       3
100
AcDbLine
 10
-58.71820745
 20
23.35946993
 30
0.0
 11
-68.71888901
 21
23.35946993
 31
0.0
  0
LINE
  5
86
100
AcDbEntity
  8
レイヤー_1
  6
CONTINUOUS
 62
       3
100
AcDbLine
 10
-68.71888901
 20
23.35946993
 30
0.0
 11
-68.71888901
 21
40.00961641
 31
0.0
  0
LINE
  5
87
100
AcDbEntity
  8
レイヤー_1
  6
CONTINUOUS
 62
       3
100
AcDbLine
 10
-68.12159558
 20
33.76710339
 30
0.0
 11
-68.12159558
 21
24.68841552
 31
0.0
  0
LINE
  5
88
100
AcDbEntity
  8
レイヤー_1
  6
CONTINUOUS
 62
       3
100
AcDbLine
 10
-68.12159558
 20
24.68841552
 30
0.0
 11
-59.41756183
 21
24.68841552
 31
0.0
  0
LINE
  5
89
100
AcDbEntity
  8
レイヤー_1
  6
CONTINUOUS
 62
       3
100
AcDbLine
 10
-59.41756183
 20
24.68841552
 30
0.0
 11
-59.41756183
 21
33.76710339
 31
0.0
  0
LINE
  5
8A
100
AcDbEntity
  8
レイヤー_1
  6
CONTINUOUS
 62
       3
100
AcDbLine
 10
-59.41756183
 20
33.76710339
 30
0.0
 11
-68.12159558
 21
33.76710339
 31
0.0
  0
LINE
  5
8B
100
AcDbEntity
  8
レイヤー_1
  6
CONTINUOUS
 62
       3
100
AcDbLine
 10
-74.11778427
 20
-21.63735284
 30
0.0
 11
-70.16496784
 21
-21.63735284
 31
0.0
  0
LINE
  5
8C
100
AcDbEntity
  8
レイヤー_1
  6
CONTINUOUS
 62
       3
100
AcDbLine
 10
-66.96533541
 20
-21.63735284
 30
0.0
 11
-56.71876016
 21
-21.63735284
 31
0.0
  0
LINE
  5
8D
100
AcDbEntity
  8
レイヤー_1
  6
CONTINUOUS
 62
       3
100
AcDbLine
 10
-116.71768186
 20
-35.42117987
 30
0.0
 11
-126.71879405
 21
-35.42117987
 31
0.0
  0
LINE
  5
8E
100
AcDbEntity
  8
レイヤー_1
  6
CONTINUOUS
 62
       3
100
AcDbLine
 10
-116.71768186
 20
-40.00832451
 30
0.0
 11
-116.71768186
 21
-23.35817803
 31
0.0
  0
LINE
  5
8F
100
AcDbEntity
  8
レイヤー_1
  6
CONTINUOUS
 62
       3
100
AcDbLine
 10
-116.71768186
 20
-23.35817803
 30
0.0
 11
-126.71879405
 21
-23.35817803
 31
0.0
  0
LINE
  5
90
100
AcDbEntity
  8
レイヤー_1
  6
CONTINUOUS
 62
       3
100
AcDbLine
 10
-126.71879405
 20
-23.35817803
 30
0.0
 11
-126.71879405
 21
-40.00832451
 31
0.0
  0
LINE
  5
91
100
AcDbEntity
  8
レイヤー_1
  6
CONTINUOUS
 62
       3
100
AcDbLine
 10
-58.61873032
 20
-21.61625163
 30
0.0
 11
-58.61873032
 21
-1.71694947
 31
0.0
  0
LINE
  5
92
100
AcDbEntity
  8
レイヤー_1
  6
CONTINUOUS
 62
       3
100
AcDbLine
 10
-58.61873032
 20
-1.71694947
 30
0.0
 11
-56.77000595
 21
-1.71694947
 31
0.0
  0
LINE
  5
93
100
AcDbEntity
  8
レイヤー_1
  6
CONTINUOUS
 62
       3
100
AcDbLine
 10
-126.81870182
 20
-21.61625163
 30
0.0
 11
-126.81870182
 21
-1.71694947
 31
0.0
  0
LINE
  5
94
100
AcDbEntity
  8
レイヤー_1
  6
CONTINUOUS
 62
       3
100
AcDbLine
 10
-126.81870182
 20
-1.71694947
 30
0.0
 11
-128.74020383
 21
-1.71694947
 31
0.0
  0
LINE
  5
95
100
AcDbEntity
  8
レイヤー_1
  6
CONTINUOUS
 62
       3
100
AcDbLine
 10
-117.31454465
 20
-33.76581149
 30
0.0
 11
-117.31454465
 21
-24.68626234
 31
0.0
  0
LINE
  5
96
100
AcDbEntity
  8
レイヤー_1
  6
CONTINUOUS
 62
       3
100
AcDbLine
 10
-117.31454465
 20
-24.68626234
 30
0.0
 11
-126.01943967
 21
-24.68626234
 31
0.0
  0
LINE
  5
97
100
AcDbEntity
  8
レイヤー_1
  6
CONTINUOUS
 62
       3
100
AcDbLine
 10
-126.01943967
 20
-24.68626234
 30
0.0
 11
-126.01943967
 21
-33.76581149
 31
0.0
  0
LINE
  5
98
100
AcDbEntity
  8
レイヤー_1
  6
CONTINUOUS
 62
       3
100
AcDbLine
 10
-126.01943967
 20
-33.76581149
 30
0.0
 11
-117.31454465
 21
-33.76581149
 31
0.0
  0
LINE
  5
99
100
AcDbEntity
  8
レイヤー_1
  6
CONTINUOUS
 62
       3
100
AcDbLine
 10
-105.11847599
 20
-35.42117987
 30
0.0
 11
-115.11786564
 21
-35.42117987
 31
0.0
  0
LINE
  5
9A
100
AcDbEntity
  8
レイヤー_1
  6
CONTINUOUS
 62
       3
100
AcDbLine
 10
-105.11847599
 20
-40.00832451
 30
0.0
 11
-105.11847599
 21
-23.35817803
 31
0.0
  0
LINE
  5
9B
100
AcDbEntity
  8
レイヤー_1
  6
CONTINUOUS
 62
       3
100
AcDbLine
 10
-105.11847599
 20
-23.35817803
 30
0.0
 11
-115.11786564
 21
-23.35817803
 31
0.0
  0
LINE
  5
9C
100
AcDbEntity
  8
レイヤー_1
  6
CONTINUOUS
 62
       3
100
AcDbLine
 10
-115.11786564
 20
-23.35817803
 30
0.0
 11
-115.11786564
 21
-40.00832451
 31
0.0
  0
LINE
  5
9D
100
AcDbEntity
  8
レイヤー_1
  6
CONTINUOUS
 62
       3
100
AcDbLine
 10
-105.71447751
 20
-33.76581149
 30
0.0
 11
-105.71447751
 21
-24.68626234
 31
0.0
  0
LINE
  5
9E
100
AcDbEntity
  8
レイヤー_1
  6
CONTINUOUS
 62
       3
100
AcDbLine
 10
-105.71447751
 20
-24.68626234
 30
0.0
 11
-114.41937253
 21
-24.68626234
 31
0.0
  0
LINE
  5
9F
100
AcDbEntity
  8
レイヤー_1
  6
CONTINUOUS
 62
       3
100
AcDbLine
 10
-114.41937253
 20
-24.68626234
 30
0.0
 11
-114.41937253
 21
-33.76581149
 31
0.0
  0
LINE
  5
A0
100
AcDbEntity
  8
レイヤー_1
  6
CONTINUOUS
 62
       3
100
AcDbLine
 10
-114.41937253
 20
-33.76581149
 30
0.0
 11
-105.71447751
 21
-33.76581149
 31
0.0
  0
LINE
  5
A1
100
AcDbEntity
  8
レイヤー_1
  6
CONTINUOUS
 62
       3
100
AcDbLine
 10
-93.51797822
 20
-35.42117987
 30
0.0
 11
-103.51865978
 21
-35.42117987
 31
0.0
  0
LINE
  5
A2
100
AcDbEntity
  8
レイヤー_1
  6
CONTINUOUS
 62
       3
100
AcDbLine
 10
-93.51797822
 20
-40.00832451
 30
0.0
 11
-93.51797822
 21
-23.35817803
 31
0.0
  0
LINE
  5
A3
100
AcDbEntity
  8
レイヤー_1
  6
CONTINUOUS
 62
       3
100
AcDbLine
 10
-93.51797822
 20
-23.35817803
 30
0.0
 11
-103.51865978
 21
-23.35817803
 31
0.0
  0
LINE
  5
A4
100
AcDbEntity
  8
レイヤー_1
  6
CONTINUOUS
 62
       3
100
AcDbLine
 10
-103.51865978
 20
-23.35817803
 30
0.0
 11
-103.51865978
 21
-40.00832451
 31
0.0
  0
LINE
  5
A5
100
AcDbEntity
  8
レイヤー_1
  6
CONTINUOUS
 62
       3
100
AcDbLine
 10
-94.11441038
 20
-33.76581149
 30
0.0
 11
-94.11441038
 21
-24.68626234
 31
0.0
  0
LINE
  5
A6
100
AcDbEntity
  8
レイヤー_1
  6
CONTINUOUS
 62
       3
100
AcDbLine
 10
-94.11441038
 20
-24.68626234
 30
0.0
 11
-102.81930539
 21
-24.68626234
 31
0.0
  0
LINE
  5
A7
100
AcDbEntity
  8
レイヤー_1
  6
CONTINUOUS
 62
       3
100
AcDbLine
 10
-102.81930539
 20
-24.68626234
 30
0.0
 11
-102.81930539
 21
-33.76581149
 31
0.0
  0
LINE
  5
A8
100
AcDbEntity
  8
レイヤー_1
  6
CONTINUOUS
 62
       3
100
AcDbLine
 10
-102.81930539
 20
-33.76581149
 30
0.0
 11
-94.11441038
 21
-33.76581149
 31
0.0
  0
LINE
  5
A9
100
AcDbEntity
  8
レイヤー_1
  6
CONTINUOUS
 62
       3
100
AcDbLine
 10
-81.91791109
 20
-35.42117987
 30
0.0
 11
-91.91816201
 21
-35.42117987
 31
0.0
  0
LINE
  5
AA
100
AcDbEntity
  8
レイヤー_1
  6
CONTINUOUS
 62
       3
100
AcDbLine
 10
-81.91791109
 20
-40.00832451
 30
0.0
 11
-81.91791109
 21
-23.35817803
 31
0.0
  0
LINE
  5
AB
100
AcDbEntity
  8
レイヤー_1
  6
CONTINUOUS
 62
       3
100
AcDbLine
 10
-81.91791109
 20
-23.35817803
 30
0.0
 11
-91.91816201
 21
-23.35817803
 31
0.0
  0
LINE
  5
AC
100
AcDbEntity
  8
レイヤー_1
  6
CONTINUOUS
 62
       3
100
AcDbLine
 10
-91.91816201
 20
-23.35817803
 30
0.0
 11
-91.91816201
 21
-40.00832451
 31
0.0
  0
LINE
  5
AD
100
AcDbEntity
  8
レイヤー_1
  6
CONTINUOUS
 62
       3
100
AcDbLine
 10
-82.51477388
 20
-33.76581149
 30
0.0
 11
-82.51477388
 21
-24.68626234
 31
0.0
  0
LINE
  5
AE
100
AcDbEntity
  8
レイヤー_1
  6
CONTINUOUS
 62
       3
100
AcDbLine
 10
-82.51477388
 20
-24.68626234
 30
0.0
 11
-91.21880762
 21
-24.68626234
 31
0.0
  0
LINE
  5
AF
100
AcDbEntity
  8
レイヤー_1
  6
CONTINUOUS
 62
       3
100
AcDbLine
 10
-91.21880762
 20
-24.68626234
 30
0.0
 11
-91.21880762
 21
-33.76581149
 31
0.0
  0
LINE
  5
B0
100
AcDbEntity
  8
レイヤー_1
  6
CONTINUOUS
 62
       3
100
AcDbLine
 10
-91.21880762
 20
-33.76581149
 30
0.0
 11
-82.51477388
 21
-33.76581149
 31
0.0
  0
LINE
  5
B1
100
AcDbEntity
  8
レイヤー_1
  6
CONTINUOUS
 62
       3
100
AcDbLine
 10
-70.31870522
 20
-35.42117987
 30
0.0
 11
-80.31809487
 21
-35.42117987
 31
0.0
  0
LINE
  5
B2
100
AcDbEntity
  8
レイヤー_1
  6
CONTINUOUS
 62
       3
100
AcDbLine
 10
-70.31870522
 20
-40.00832451
 30
0.0
 11
-70.31870522
 21
-23.35817803
 31
0.0
  0
LINE
  5
B3
100
AcDbEntity
  8
レイヤー_1
  6
CONTINUOUS
 62
       3
100
AcDbLine
 10
-70.31870522
 20
-23.35817803
 30
0.0
 11
-80.31809487
 21
-23.35817803
 31
0.0
  0
LINE
  5
B4
100
AcDbEntity
  8
レイヤー_1
  6
CONTINUOUS
 62
       3
100
AcDbLine
 10
-80.31809487
 20
-23.35817803
 30
0.0
 11
-80.31809487
 21
-40.00832451
 31
0.0
  0
LINE
  5
B5
100
AcDbEntity
  8
レイヤー_1
  6
CONTINUOUS
 62
       3
100
AcDbLine
 10
-70.91470674
 20
-33.76581149
 30
0.0
 11
-70.91470674
 21
-24.68626234
 31
0.0
  0
LINE
  5
B6
100
AcDbEntity
  8
レイヤー_1
  6
CONTINUOUS
 62
       3
100
AcDbLine
 10
-70.91470674
 20
-24.68626234
 30
0.0
 11
-79.61874049
 21
-24.68626234
 31
0.0
  0
LINE
  5
B7
100
AcDbEntity
  8
レイヤー_1
  6
CONTINUOUS
 62
       3
100
AcDbLine
 10
-79.61874049
 20
-24.68626234
 30
0.0
 11
-79.61874049
 21
-33.76581149
 31
0.0
  0
LINE
  5
B8
100
AcDbEntity
  8
レイヤー_1
  6
CONTINUOUS
 62
       3
100
AcDbLine
 10
-79.61874049
 20
-33.76581149
 30
0.0
 11
-70.91470674
 21
-33.76581149
 31
0.0
  0
LINE
  5
B9
100
AcDbEntity
  8
レイヤー_1
  6
CONTINUOUS
 62
       3
100
AcDbLine
 10
-58.71820745
 20
-35.42117987
 30
0.0
 11
-68.71888901
 21
-35.42117987
 31
0.0
  0
LINE
  5
BA
100
AcDbEntity
  8
レイヤー_1
  6
CONTINUOUS
 62
       3
100
AcDbLine
 10
-58.71820745
 20
-40.00832451
 30
0.0
 11
-58.71820745
 21
-23.35817803
 31
0.0
  0
LINE
  5
BB
100
AcDbEntity
  8
レイヤー_1
  6
CONTINUOUS
 62
       3
100
AcDbLine
 10
-58.71820745
 20
-23.35817803
 30
0.0
 11
-68.71888901
 21
-23.35817803
 31
0.0
  0
LINE
  5
BC
100
AcDbEntity
  8
レイヤー_1
  6
CONTINUOUS
 62
       3
100
AcDbLine
 10
-68.71888901
 20
-23.35817803
 30
0.0
 11
-68.71888901
 21
-40.00832451
 31
0.0
  0
LINE
  5
BD
100
AcDbEntity
  8
レイヤー_1
  6
CONTINUOUS
 62
       3
100
AcDbLine
 10
-59.31463961
 20
-33.76581149
 30
0.0
 11
-59.31463961
 21
-24.68626234
 31
0.0
  0
LINE
  5
BE
100
AcDbEntity
  8
レイヤー_1
  6
CONTINUOUS
 62
       3
100
AcDbLine
 10
-59.31463961
 20
-24.68626234
 30
0.0
 11
-68.01953462
 21
-24.68626234
 31
0.0
  0
LINE
  5
BF
100
AcDbEntity
  8
レイヤー_1
  6
CONTINUOUS
 62
       3
100
AcDbLine
 10
-68.01953462
 20
-24.68626234
 30
0.0
 11
-68.01953462
 21
-33.76581149
 31
0.0
  0
LINE
  5
C0
100
AcDbEntity
  8
レイヤー_1
  6
CONTINUOUS
 62
       3
100
AcDbLine
 10
-68.01953462
 20
-33.76581149
 30
0.0
 11
-59.31463961
 21
-33.76581149
 31
0.0
  0
LINE
  5
C1
100
AcDbEntity
  8
レイヤー_1
  6
CONTINUOUS
 62
       3
100
AcDbLine
 10
-110.91786361
 20
-18.78352186
 30
0.0
 11
-120.91854516
 21
-18.78352186
 31
0.0
  0
LINE
  5
C2
100
AcDbEntity
  8
レイヤー_1
  6
CONTINUOUS
 62
       3
100
AcDbLine
 10
-120.91854516
 20
-23.3706665
 30
0.0
 11
-120.91854516
 21
-6.72095066
 31
0.0
  0
LINE
  5
C3
100
AcDbEntity
  8
レイヤー_1
  6
CONTINUOUS
 62
       3
100
AcDbLine
 10
-120.91854516
 20
-6.72095066
 30
0.0
 11
-110.91786361
 21
-6.72095066
 31
0.0
  0
LINE
  5
C4
100
AcDbEntity
  8
レイヤー_1
  6
CONTINUOUS
 62
       3
100
AcDbLine
 10
-110.91786361
 20
-6.72095066
 30
0.0
 11
-110.91786361
 21
-23.3706665
 31
0.0
  0
LINE
  5
C5
100
AcDbEntity
  8
レイヤー_1
  6
CONTINUOUS
 62
       3
100
AcDbLine
 10
-74.11778427
 20
-23.3706665
 30
0.0
 11
-74.11778427
 21
-5.02079604
 31
0.0
  0
LINE
  5
C6
100
AcDbEntity
  8
レイヤー_1
  6
CONTINUOUS
 62
       3
100
AcDbLine
 10
-74.11778427
 20
-5.02079604
 30
0.0
 11
-122.91756182
 21
-5.02079604
 31
0.0
  0
LINE
  5
C7
100
AcDbEntity
  8
レイヤー_1
  6
CONTINUOUS
 62
       3
100
AcDbLine
 10
-122.91756182
 20
-5.02079604
 30
0.0
 11
-122.91756182
 21
-23.3706665
 31
0.0
  0
LINE
  5
C8
100
AcDbEntity
  8
レイヤー_1
  6
CONTINUOUS
 62
       3
100
AcDbLine
 10
-122.91756182
 20
-21.65888468
 30
0.0
 11
-128.71824134
 21
-21.65888468
 31
0.0
  0
LINE
  5
C9
100
AcDbEntity
  8
レイヤー_1
  6
CONTINUOUS
 62
       3
100
AcDbLine
 10
-59.43263413
 20
-21.61625163
 30
0.0
 11
-59.43263413
 21
-20.36568197
 31
0.0
  0
LINE
  5
CA
100
AcDbEntity
  8
レイヤー_1
  6
CONTINUOUS
 62
       3
100
AcDbLine
 10
-59.43263413
 20
-20.36568197
 30
0.0
 11
-62.85921222
 21
-20.36568197
 31
0.0
  0
LINE
  5
CB
100
AcDbEntity
  8
レイヤー_1
  6
CONTINUOUS
 62
       3
100
AcDbLine
 10
-62.85921222
 20
-20.36568197
 30
0.0
 11
-62.85921222
 21
-21.61625163
 31
0.0
  0
LINE
  5
CC
100
AcDbEntity
  8
レイヤー_1
  6
CONTINUOUS
 62
       3
100
AcDbLine
 10
-122.91756182
 20
-20.36568197
 30
0.0
 11
-126.09781559
 21
-20.36568197
 31
0.0
  0
LINE
  5
CD
100
AcDbEntity
  8
レイヤー_1
  6
CONTINUOUS
 62
       3
100
AcDbLine
 10
-126.09781559
 20
-20.36568197
 30
0.0
 11
-126.09781559
 21
-21.61625163
 31
0.0
  0
LINE
  5
CE
100
AcDbEntity
  8
レイヤー_1
  6
CONTINUOUS
 62
       3
100
AcDbLine
 10
-111.51429576
 20
-17.12815348
 30
0.0
 11
-111.51429576
 21
-8.04946561
 31
0.0
  0
LINE
  5
CF
100
AcDbEntity
  8
レイヤー_1
  6
CONTINUOUS
 62
       3
100
AcDbLine
 10
-111.51429576
 20
-8.04946561
 30
0.0
 11
-120.21876014
 21
-8.04946561
 31
0.0
  0
LINE
  5
D0
100
AcDbEntity
  8
レイヤー_1
  6
CONTINUOUS
 62
       3
100
AcDbLine
 10
-120.21876014
 20
-8.04946561
 30
0.0
 11
-120.21876014
 21
-17.12815348
 31
0.0
  0
LINE
  5
D1
100
AcDbEntity
  8
レイヤー_1
  6
CONTINUOUS
 62
       3
100
AcDbLine
 10
-120.21876014
 20
-17.12815348
 30
0.0
 11
-111.51429576
 21
-17.12815348
 31
0.0
  0
LINE
  5
D2
100
AcDbEntity
  8
レイヤー_1
  6
CONTINUOUS
 62
       3
100
AcDbLine
 10
-99.31779647
 20
-18.78352186
 30
0.0
 11
-109.31804739
 21
-18.78352186
 31
0.0
  0
LINE
  5
D3
100
AcDbEntity
  8
レイヤー_1
  6
CONTINUOUS
 62
       3
100
AcDbLine
 10
-109.31804739
 20
-23.3706665
 30
0.0
 11
-109.31804739
 21
-6.72095066
 31
0.0
  0
LINE
  5
D4
100
AcDbEntity
  8
レイヤー_1
  6
CONTINUOUS
 62
       3
100
AcDbLine
 10
-109.31804739
 20
-6.72095066
 30
0.0
 11
-99.31779647
 21
-6.72095066
 31
0.0
  0
LINE
  5
D5
100
AcDbEntity
  8
レイヤー_1
  6
CONTINUOUS
 62
       3
100
AcDbLine
 10
-99.31779647
 20
-6.72095066
 30
0.0
 11
-99.31779647
 21
-23.3706665
 31
0.0
  0
LINE
  5
D6
100
AcDbEntity
  8
レイヤー_1
  6
CONTINUOUS
 62
       3
100
AcDbLine
 10
-99.91465926
 20
-17.12815348
 30
0.0
 11
-99.91465926
 21
-8.04946561
 31
0.0
  0
LINE
  5
D7
100
AcDbEntity
  8
レイヤー_1
  6
CONTINUOUS
 62
       3
100
AcDbLine
 10
-99.91465926
 20
-8.04946561
 30
0.0
 11
-108.61869301
 21
-8.04946561
 31
0.0
  0
LINE
  5
D8
100
AcDbEntity
  8
レイヤー_1
  6
CONTINUOUS
 62
       3
100
AcDbLine
 10
-108.61869301
 20
-8.04946561
 30
0.0
 11
-108.61869301
 21
-17.12815348
 31
0.0
  0
LINE
  5
D9
100
AcDbEntity
  8
レイヤー_1
  6
CONTINUOUS
 62
       3
100
AcDbLine
 10
-108.61869301
 20
-17.12815348
 30
0.0
 11
-99.91465926
 21
-17.12815348
 31
0.0
  0
LINE
  5
DA
100
AcDbEntity
  8
レイヤー_1
  6
CONTINUOUS
 62
       3
100
AcDbLine
 10
-87.71859061
 20
-18.78352186
 30
0.0
 11
-97.71798025
 21
-18.78352186
 31
0.0
  0
LINE
  5
DB
100
AcDbEntity
  8
レイヤー_1
  6
CONTINUOUS
 62
       3
100
AcDbLine
 10
-97.71798025
 20
-23.3706665
 30
0.0
 11
-97.71798025
 21
-6.72095066
 31
0.0
  0
LINE
  5
DC
100
AcDbEntity
  8
レイヤー_1
  6
CONTINUOUS
 62
       3
100
AcDbLine
 10
-97.71798025
 20
-6.72095066
 30
0.0
 11
-87.71859061
 21
-6.72095066
 31
0.0
  0
LINE
  5
DD
100
AcDbEntity
  8
レイヤー_1
  6
CONTINUOUS
 62
       3
100
AcDbLine
 10
-87.71859061
 20
-6.72095066
 30
0.0
 11
-87.71859061
 21
-23.3706665
 31
0.0
  0
LINE
  5
DE
100
AcDbEntity
  8
レイヤー_1
  6
CONTINUOUS
 62
       3
100
AcDbLine
 10
-88.31459213
 20
-17.12815348
 30
0.0
 11
-88.31459213
 21
-8.04946561
 31
0.0
  0
LINE
  5
DF
100
AcDbEntity
  8
レイヤー_1
  6
CONTINUOUS
 62
       3
100
AcDbLine
 10
-88.31459213
 20
-8.04946561
 30
0.0
 11
-97.01862587
 21
-8.04946561
 31
0.0
  0
LINE
  5
E0
100
AcDbEntity
  8
レイヤー_1
  6
CONTINUOUS
 62
       3
100
AcDbLine
 10
-97.01862587
 20
-8.04946561
 30
0.0
 11
-97.01862587
 21
-17.12815348
 31
0.0
  0
LINE
  5
E1
100
AcDbEntity
  8
レイヤー_1
  6
CONTINUOUS
 62
       3
100
AcDbLine
 10
-97.01862587
 20
-17.12815348
 30
0.0
 11
-88.31459213
 21
-17.12815348
 31
0.0
  0
LINE
  5
E2
100
AcDbEntity
  8
レイヤー_1
  6
CONTINUOUS
 62
       3
100
AcDbLine
 10
-76.11809284
 20
-18.78352186
 30
0.0
 11
-86.11877439
 21
-18.78352186
 31
0.0
  0
LINE
  5
E3
100
AcDbEntity
  8
レイヤー_1
  6
CONTINUOUS
 62
       3
100
AcDbLine
 10
-86.11877439
 20
-23.3706665
 30
0.0
 11
-86.11877439
 21
-6.72095066
 31
0.0
  0
LINE
  5
E4
100
AcDbEntity
  8
レイヤー_1
  6
CONTINUOUS
 62
       3
100
AcDbLine
 10
-86.11877439
 20
-6.72095066
 30
0.0
 11
-76.11809284
 21
-6.72095066
 31
0.0
  0
LINE
  5
E5
100
AcDbEntity
  8
レイヤー_1
  6
CONTINUOUS
 62
       3
100
AcDbLine
 10
-76.11809284
 20
-6.72095066
 30
0.0
 11
-76.11809284
 21
-23.3706665
 31
0.0
  0
LINE
  5
E6
100
AcDbEntity
  8
レイヤー_1
  6
CONTINUOUS
 62
       3
100
AcDbLine
 10
-76.71452499
 20
-17.12815348
 30
0.0
 11
-76.71452499
 21
-8.04946561
 31
0.0
  0
LINE
  5
E7
100
AcDbEntity
  8
レイヤー_1
  6
CONTINUOUS
 62
       3
100
AcDbLine
 10
-76.71452499
 20
-8.04946561
 30
0.0
 11
-85.41898937
 21
-8.04946561
 31
0.0
  0
LINE
  5
E8
100
AcDbEntity
  8
レイヤー_1
  6
CONTINUOUS
 62
       3
100
AcDbLine
 10
-85.41898937
 20
-8.04946561
 30
0.0
 11
-85.41898937
 21
-17.12815348
 31
0.0
  0
LINE
  5
E9
100
AcDbEntity
  8
レイヤー_1
  6
CONTINUOUS
 62
       3
100
AcDbLine
 10
-85.41898937
 20
-17.12815348
 30
0.0
 11
-76.71452499
 21
-17.12815348
 31
0.0
  0
LINE
  5
EA
100
AcDbEntity
  8
レイヤー_1
  6
CONTINUOUS
 62
       3
100
AcDbLine
 10
-107.69454614
 20
-40.00832451
 30
0.0
 11
-107.69454614
 21
-42.20801798
 31
0.0
  0
LINE
  5
EB
100
AcDbEntity
  8
レイヤー_1
  6
CONTINUOUS
 62
       3
100
AcDbLine
 10
-107.69454614
 20
-42.20801798
 30
0.0
 11
-77.69422402
 21
-42.20801798
 31
0.0
  0
LINE
  5
EC
100
AcDbEntity
  8
レイヤー_1
  6
CONTINUOUS
 62
       3
100
AcDbLine
 10
-77.69422402
 20
-42.20801798
 30
0.0
 11
-77.69422402
 21
-40.00832451
 31
0.0
  0
LINE
  5
ED
100
AcDbEntity
  8
レイヤー_1
  6
CONTINUOUS
 62
       3
100
AcDbLine
 10
-95.71767169
 20
-40.00832451
 30
0.0
 11
-95.71767169
 21
-40.81189303
 31
0.0
  0
LINE
  5
EE
100
AcDbEntity
  8
レイヤー_1
  6
CONTINUOUS
 62
       3
100
AcDbLine
 10
-95.71767169
 20
-40.81189303
 30
0.0
 11
-89.71760726
 21
-40.81189303
 31
0.0
  0
LINE
  5
EF
100
AcDbEntity
  8
レイヤー_1
  6
CONTINUOUS
 62
       3
100
AcDbLine
 10
-89.71760726
 20
-40.81189303
 30
0.0
 11
-89.71760726
 21
-40.00832451
 31
0.0
  0
LINE
  5
F0
100
AcDbEntity
  8
レイヤー_1
  6
CONTINUOUS
 62
       3
100
AcDbLine
 10
128.68077593
 20
55.5
 30
0.0
 11
128.68077593
 21
40.09789699
 31
0.0
  0
LINE
  5
F1
100
AcDbEntity
  8
レイヤー_1
  6
CONTINUOUS
 62
       3
100
AcDbLine
 10
15.78069051
 20
1.84700181
 30
0.0
 11
11.78093465
 21
1.84700181
 31
0.0
  0
LINE
  5
F2
100
AcDbEntity
  8
レイヤー_1
  6
CONTINUOUS
 62
       3
100
AcDbLine
 10
11.78093465
 20
1.84700181
 30
0.0
 11
11.78093465
 21
40.09789699
 31
0.0
  0
LINE
  5
F3
100
AcDbEntity
  8
レイヤー_1
  6
CONTINUOUS
 62
       3
100
AcDbLine
 10
128.68077593
 20
40.09789699
 30
0.0
 11
128.68077593
 21
17.57989162
 31
0.0
  0
LINE
  5
F4
100
AcDbEntity
  8
レイヤー_1
  6
CONTINUOUS
 62
       3
100
AcDbLine
 10
128.68077593
 20
17.57989162
 30
0.0
 11
124.58972504
 21
17.57989162
 31
0.0
  0
LINE
  5
F5
100
AcDbEntity
  8
レイヤー_1
  6
CONTINUOUS
 62
       3
100
AcDbLine
 10
124.58972504
 20
17.57989162
 30
0.0
 11
124.58972504
 21
-17.38911947
 31
0.0
  0
LINE
  5
F6
100
AcDbEntity
  8
レイヤー_1
  6
CONTINUOUS
 62
       3
100
AcDbLine
 10
124.58972504
 20
-17.38911947
 30
0.0
 11
128.68077593
 21
-17.38911947
 31
0.0
  0
LINE
  5
F7
100
AcDbEntity
  8
レイヤー_1
  6
CONTINUOUS
 62
       3
100
AcDbLine
 10
128.68077593
 20
-17.38911947
 30
0.0
 11
128.68077593
 21
-55.5
 31
0.0
  0
LINE
  5
F8
100
AcDbEntity
  8
レイヤー_1
  6
CONTINUOUS
 62
       3
100
AcDbLine
 10
11.78093465
 20
-39.9032491
 30
0.0
 11
11.78093465
 21
-1.65364584
 31
0.0
  0
LINE
  5
F9
100
AcDbEntity
  8
レイヤー_1
  6
CONTINUOUS
 62
       3
100
AcDbLine
 10
11.78093465
 20
-1.65364584
 30
0.0
 11
15.78069051
 21
-1.65364584
 31
0.0
  0
LINE
  5
FA
100
AcDbEntity
  8
レイヤー_1
  6
CONTINUOUS
 62
       3
100
AcDbLine
 10
126.18049788
 20
-17.38911947
 30
0.0
 11
126.18049788
 21
-15.3888109
 31
0.0
  0
LINE
  5
FB
100
AcDbEntity
  8
レイヤー_1
  6
CONTINUOUS
 62
       3
100
AcDbLine
 10
126.18049788
 20
-15.3888109
 30
0.0
 11
126.67400781
 21
-15.3888109
 31
0.0
  0
LINE
  5
FC
100
AcDbEntity
  8
レイヤー_1
  6
CONTINUOUS
 62
       3
100
AcDbLine
 10
126.67400781
 20
-15.3888109
 30
0.0
 11
128.68077593
 21
-17.38911947
 31
0.0
  0
LINE
  5
FD
100
AcDbEntity
  8
レイヤー_1
  6
CONTINUOUS
 62
       3
100
AcDbLine
 10
126.18049788
 20
17.57989162
 30
0.0
 11
126.18049788
 21
15.58044433
 31
0.0
  0
LINE
  5
FE
100
AcDbEntity
  8
レイヤー_1
  6
CONTINUOUS
 62
       3
100
AcDbLine
 10
126.18049788
 20
15.58044433
 30
0.0
 11
126.67400781
 21
15.58044433
 31
0.0
  0
LINE
  5
FF
100
AcDbEntity
  8
レイヤー_1
  6
CONTINUOUS
 62
       3
100
AcDbLine
 10
126.67400781
 20
15.58044433
 30
0.0
 11
128.68077593
 21
17.57989162
 31
0.0
  0
LINE
  5
100
100
AcDbEntity
  8
レイヤー_1
  6
CONTINUOUS
 62
       3
100
AcDbLine
 10
15.78069051
 20
40.09789699
 30
0.0
 11
15.78069051
 21
-39.9032491
 31
0.0
  0
LINE
  5
101
100
AcDbEntity
  8
レイヤー_1
  6
CONTINUOUS
 62
       3
100
AcDbLine
 10
13.7799513
 20
1.86121283
 30
0.0
 11
13.7799513
 21
-1.64804756
 31
0.0
  0
LINE
  5
102
100
AcDbEntity
  8
レイヤー_1
  6
CONTINUOUS
 62
       3
100
AcDbLine
 10
23.07912529
 20
-9.90335761
 30
0.0
 11
23.07912529
 21
10.09757486
 31
0.0
  0
LINE
  5
103
100
AcDbEntity
  8
レイヤー_1
  6
CONTINUOUS
 62
       3
100
AcDbLine
 10
23.07912529
 20
10.09757486
 30
0.0
 11
20.78038533
 21
10.09757486
 31
0.0
  0
LINE
  5
104
100
AcDbEntity
  8
レイヤー_1
  6
CONTINUOUS
 62
       3
100
AcDbLine
 10
20.78038533
 20
10.09757486
 30
0.0
 11
20.78038533
 21
-9.90335761
 31
0.0
  0
LINE
  5
105
100
AcDbEntity
  8
レイヤー_1
  6
CONTINUOUS
 62
       3
100
AcDbLine
 10
20.78038533
 20
-9.90335761
 30
0.0
 11
23.07912529
 21
-9.90335761
 31
0.0
  0
LINE
  5
106
100
AcDbEntity
  8
レイヤー_1
  6
CONTINUOUS
 62
       3
100
AcDbLine
 10
11.77490573
 20
-4.90366279
 30
0.0
 11
-14.31922407
 21
-4.90366279
 31
0.0
  0
LINE
  5
107
100
AcDbEntity
  8
レイヤー_1
  6
CONTINUOUS
 62
       3
100
AcDbLine
 10
-14.31922407
 20
-23.25310262
 30
0.0
 11
0.30962796
 21
-23.25310262
 31
0.0
  0
LINE
  5
108
100
AcDbEntity
  8
レイヤー_1
  6
CONTINUOUS
 62
       3
100
AcDbLine
 10
11.78093465
 20
-21.552948
 30
0.0
 11
0.33029853
 21
-21.552948
 31
0.0
  0
LINE
  5
109
100
AcDbEntity
  8
レイヤー_1
  6
CONTINUOUS
 62
       3
100
AcDbLine
 10
0.33029853
 20
-21.552948
 30
0.0
 11
0.33029853
 21
-39.9032491
 31
0.0
  0
LINE
  5
10A
100
AcDbEntity
  8
レイヤー_1
  6
CONTINUOUS
 62
       3
100
AcDbLine
 10
0.33029853
 20
40.09789699
 30
0.0
 11
0.33029853
 21
21.74802652
 31
0.0
  0
LINE
  5
10B
100
AcDbEntity
  8
レイヤー_1
  6
CONTINUOUS
 62
       3
100
AcDbLine
 10
0.33029853
 20
21.74802652
 30
0.0
 11
11.78093465
 21
21.74802652
 31
0.0
  0
LINE
  5
10C
100
AcDbEntity
  8
レイヤー_1
  6
CONTINUOUS
 62
       3
100
AcDbLine
 10
3.58935886
 20
-4.90366279
 30
0.0
 11
3.58935886
 21
-39.9032491
 31
0.0
  0
LINE
  5
10D
100
AcDbEntity
  8
レイヤー_1
  6
CONTINUOUS
 62
       3
100
AcDbLine
 10
-17.31922407
 20
-1.94088067
 30
0.0
 11
8.78025648
 21
-1.94088067
 31
0.0
  0
LINE
  5
10E
100
AcDbEntity
  8
レイヤー_1
  6
CONTINUOUS
 62
       3
100
AcDbLine
 10
8.78025648
 20
-1.94088067
 30
0.0
 11
8.78025648
 21
18.69739447
 31
0.0
  0
LINE
  5
10F
100
AcDbEntity
  8
レイヤー_1
  6
CONTINUOUS
 62
       3
100
AcDbLine
 10
8.78025648
 20
18.69739447
 30
0.0
 11
-3.6143358
 21
18.69739447
 31
0.0
  0
LINE
  5
110
100
AcDbEntity
  8
レイヤー_1
  6
CONTINUOUS
 62
       3
100
AcDbLine
 10
-3.6143358
 20
18.69739447
 30
0.0
 11
-3.6143358
 21
40.0
 31
0.0
  0
LINE
  5
111
100
AcDbEntity
  8
レイヤー_1
  6
CONTINUOUS
 62
       3
100
AcDbLine
 10
3.58935886
 20
40.09789699
 30
0.0
 11
3.58935886
 21
21.74802652
 31
0.0
  0
LINE
  5
112
100
AcDbEntity
  8
レイヤー_1
  6
CONTINUOUS
 62
       3
100
AcDbLine
 10
11.78093465
 20
21.74802652
 30
0.0
 11
11.78093465
 21
-4.90366279
 31
0.0
  0
LINE
  5
113
100
AcDbEntity
  8
レイヤー_1
  6
CONTINUOUS
 62
       3
100
AcDbLine
 10
11.78093465
 20
-4.90366279
 30
0.0
 11
3.58935886
 21
-4.90366279
 31
0.0
  0
LINE
  5
114
100
AcDbEntity
  8
レイヤー_1
  6
CONTINUOUS
 62
       3
100
AcDbLine
 10
118.28692285
 20
49.32127887
 30
0.0
 11
131.16899614
 21
49.32127887
 31
0.0
  0
LINE
  5
115
100
AcDbEntity
  8
レイヤー_1
  6
CONTINUOUS
 62
       3
100
AcDbLine
 10
118.28692285
 20
-49.35271538
 30
0.0
 11
131.16899614
 21
-49.35271538
 31
0.0
  0
LINE
  5
116
100
AcDbEntity
  8
レイヤー_1
  6
CONTINUOUS
 62
       3
100
AcDbLine
 10
120.78633962
 20
46.06953937
 30
0.0
 11
128.66957937
 21
46.06953937
 31
0.0
  0
LINE
  5
117
100
AcDbEntity
  8
レイヤー_1
  6
CONTINUOUS
 62
       3
100
AcDbLine
 10
120.78633962
 20
52.57387965
 30
0.0
 11
128.66957937
 21
52.57387965
 31
0.0
  0
LINE
  5
118
100
AcDbEntity
  8
レイヤー_1
  6
CONTINUOUS
 62
       3
100
AcDbLine
 10
120.78633962
 20
-52.27372571
 30
0.0
 11
128.66957937
 21
-52.27372571
 31
0.0
  0
LINE
  5
119
100
AcDbEntity
  8
レイヤー_1
  6
CONTINUOUS
 62
       3
100
AcDbLine
 10
120.78633962
 20
-46.37615288
 30
0.0
 11
128.66957937
 21
-46.37615288
 31
0.0
  0
LINE
  5
11A
100
AcDbEntity
  8
レイヤー_1
  6
CONTINUOUS
 62
       3
100
AcDbLine
 10
-68.05104571
 20
-51.33319092
 30
0.0
 11
-67.91219491
 21
-51.46126127
 31
0.0
  0
LINE
  5
11B
100
AcDbEntity
  8
レイヤー_1
  6
CONTINUOUS
 62
       3
100
AcDbLine
 10
-67.91219491
 20
-51.46126127
 30
0.0
 11
-67.76582195
 21
-51.57585053
 31
0.0
  0
LINE
  5
11C
100
AcDbEntity
  8
レイヤー_1
  6
CONTINUOUS
 62
       3
100
AcDbLine
 10
-67.76582195
 20
-51.57585053
 30
0.0
 11
-67.61276336
 21
-51.6769587
 31
0.0
  0
LINE
  5
11D
100
AcDbEntity
  8
レイヤー_1
  6
CONTINUOUS
 62
       3
100
AcDbLine
 10
-67.61276336
 20
-51.6769587
 30
0.0
 11
-67.45385564
 21
-51.76458578
 31
0.0
  0
LINE
  5
11E
100
AcDbEntity
  8
レイヤー_1
  6
CONTINUOUS
 62
       3
100
AcDbLine
 10
-67.45385564
 20
-51.76458578
 30
0.0
 11
-67.2899353
 21
-51.83873177
 31
0.0
  0
LINE
  5
11F
100
AcDbEntity
  8
レイヤー_1
  6
CONTINUOUS
 62
       3
100
AcDbLine
 10
-67.2899353
 20
-51.83873177
 30
0.0
 11
-67.12183886
 21
-51.89939667
 31
0.0
  0
LINE
  5
120
100
AcDbEntity
  8
レイヤー_1
  6
CONTINUOUS
 62
       3
100
AcDbLine
 10
-67.12183886
 20
-51.89939667
 30
0.0
 11
-66.95040284
 21
-51.94658048
 31
0.0
  0
LINE
  5
121
100
AcDbEntity
  8
レイヤー_1
  6
CONTINUOUS
 62
       3
100
AcDbLine
 10
-66.95040284
 20
-51.94658048
 30
0.0
 11
-66.77646374
 21
-51.98028321
 31
0.0
  0
LINE
  5
122
100
AcDbEntity
  8
レイヤー_1
  6
CONTINUOUS
 62
       3
100
AcDbLine
 10
-66.77646374
 20
-51.98028321
 30
0.0
 11
-66.60085807
 21
-52.00050484
 31
0.0
  0
LINE
  5
123
100
AcDbEntity
  8
レイヤー_1
  6
CONTINUOUS
 62
       3
100
AcDbLine
 10
-66.60085807
 20
-52.00050484
 30
0.0
 11
-66.42442235
 21
-52.00724539
 31
0.0
  0
LINE
  5
124
100
AcDbEntity
  8
レイヤー_1
  6
CONTINUOUS
 62
       3
100
AcDbLine
 10
-66.42442235
 20
-52.00724539
 30
0.0
 11
-66.24799309
 21
-52.00050484
 31
0.0
  0
LINE
  5
125
100
AcDbEntity
  8
レイヤー_1
  6
CONTINUOUS
 62
       3
100
AcDbLine
 10
-66.24799309
 20
-52.00050484
 30
0.0
 11
-66.0724068
 21
-51.98028321
 31
0.0
  0
LINE
  5
126
100
AcDbEntity
  8
レイヤー_1
  6
CONTINUOUS
 62
       3
100
AcDbLine
 10
-66.0724068
 20
-51.98028321
 30
0.0
 11
-65.89849999
 21
-51.94658048
 31
0.0
  0
LINE
  5
127
100
AcDbEntity
  8
レイヤー_1
  6
CONTINUOUS
 62
       3
100
AcDbLine
 10
-65.89849999
 20
-51.94658048
 30
0.0
 11
-65.72710918
 21
-51.89939667
 31
0.0
  0
LINE
  5
128
100
AcDbEntity
  8
レイヤー_1
  6
CONTINUOUS
 62
       3
100
AcDbLine
 10
-65.72710918
 20
-51.89939667
 30
0.0
 11
-65.55907088
 21
-51.83873177
 31
0.0
  0
LINE
  5
129
100
AcDbEntity
  8
レイヤー_1
  6
CONTINUOUS
 62
       3
100
AcDbLine
 10
-65.55907088
 20
-51.83873177
 30
0.0
 11
-65.3952216
 21
-51.76458578
 31
0.0
  0
LINE
  5
12A
100
AcDbEntity
  8
レイヤー_1
  6
CONTINUOUS
 62
       3
100
AcDbLine
 10
-65.3952216
 20
-51.76458578
 30
0.0
 11
-65.23639786
 21
-51.6769587
 31
0.0
  0
LINE
  5
12B
100
AcDbEntity
  8
レイヤー_1
  6
CONTINUOUS
 62
       3
100
AcDbLine
 10
-65.23639786
 20
-51.6769587
 30
0.0
 11
-65.08343615
 21
-51.57585053
 31
0.0
  0
LINE
  5
12C
100
AcDbEntity
  8
レイヤー_1
  6
CONTINUOUS
 62
       3
100
AcDbLine
 10
-65.08343615
 20
-51.57585053
 30
0.0
 11
-64.93717301
 21
-51.46126127
 31
0.0
  0
LINE
  5
12D
100
AcDbEntity
  8
レイヤー_1
  6
CONTINUOUS
 62
       3
100
AcDbLine
 10
-64.93717301
 20
-51.46126127
 30
0.0
 11
-64.79844494
 21
-51.33319092
 31
0.0
  0
LINE
  5
12E
100
AcDbEntity
  8
レイヤー_1
  6
CONTINUOUS
 62
       3
100
AcDbLine
 10
-63.3838026
 20
-49.91940986
 30
0.0
 11
-63.25585499
 21
-49.78055906
 31
0.0
  0
LINE
  5
12F
100
AcDbEntity
  8
レイヤー_1
  6
CONTINUOUS
 62
       3
100
AcDbLine
 10
-63.25585499
 20
-49.78055906
 30
0.0
 11
-63.14137554
 21
-49.6341861
 31
0.0
  0
LINE
  5
130
100
AcDbEntity
  8
レイヤー_1
  6
CONTINUOUS
 62
       3
100
AcDbLine
 10
-63.14137554
 20
-49.6341861
 30
0.0
 11
-63.04036426
 21
-49.48112751
 31
0.0
  0
LINE
  5
131
100
AcDbEntity
  8
レイヤー_1
  6
CONTINUOUS
 62
       3
100
AcDbLine
 10
-63.04036426
 20
-49.48112751
 30
0.0
 11
-62.95282116
 21
-49.32221979
 31
0.0
  0
LINE
  5
132
100
AcDbEntity
  8
レイヤー_1
  6
CONTINUOUS
 62
       3
100
AcDbLine
 10
-62.95282116
 20
-49.32221979
 30
0.0
 11
-62.87874622
 21
-49.15829945
 31
0.0
  0
LINE
  5
133
100
AcDbEntity
  8
レイヤー_1
  6
CONTINUOUS
 62
       3
100
AcDbLine
 10
-62.87874622
 20
-49.15829945
 30
0.0
 11
-62.81813946
 21
-48.99020301
 31
0.0
  0
LINE
  5
134
100
AcDbEntity
  8
レイヤー_1
  6
CONTINUOUS
 62
       3
100
AcDbLine
 10
-62.81813946
 20
-48.99020301
 30
0.0
 11
-62.77100086
 21
-48.81876699
 31
0.0
  0
LINE
  5
135
100
AcDbEntity
  8
レイヤー_1
  6
CONTINUOUS
 62
       3
100
AcDbLine
 10
-62.77100086
 20
-48.81876699
 30
0.0
 11
-62.73733044
 21
-48.64482789
 31
0.0
  0
LINE
  5
136
100
AcDbEntity
  8
レイヤー_1
  6
CONTINUOUS
 62
       3
100
AcDbLine
 10
-62.73733044
 20
-48.64482789
 30
0.0
 11
-62.71712818
 21
-48.46922222
 31
0.0
  0
LINE
  5
137
100
AcDbEntity
  8
レイヤー_1
  6
CONTINUOUS
 62
       3
100
AcDbLine
 10
-62.71712818
 20
-48.46922222
 30
0.0
 11
-62.7103941
 21
-48.2927865
 31
0.0
  0
LINE
  5
138
100
AcDbEntity
  8
レイヤー_1
  6
CONTINUOUS
 62
       3
100
AcDbLine
 10
-62.7103941
 20
-48.2927865
 30
0.0
 11
-62.71712818
 21
-48.11635724
 31
0.0
  0
LINE
  5
139
100
AcDbEntity
  8
レイヤー_1
  6
CONTINUOUS
 62
       3
100
AcDbLine
 10
-62.71712818
 20
-48.11635724
 30
0.0
 11
-62.73733044
 21
-47.94077095
 31
0.0
  0
LINE
  5
13A
100
AcDbEntity
  8
レイヤー_1
  6
CONTINUOUS
 62
       3
100
AcDbLine
 10
-62.73733044
 20
-47.94077095
 30
0.0
 11
-62.77100086
 21
-47.76686414
 31
0.0
  0
LINE
  5
13B
100
AcDbEntity
  8
レイヤー_1
  6
CONTINUOUS
 62
       3
100
AcDbLine
 10
-62.77100086
 20
-47.76686414
 30
0.0
 11
-62.81813946
 21
-47.59547333
 31
0.0
  0
LINE
  5
13C
100
AcDbEntity
  8
レイヤー_1
  6
CONTINUOUS
 62
       3
100
AcDbLine
 10
-62.81813946
 20
-47.59547333
 30
0.0
 11
-62.87874622
 21
-47.42743503
 31
0.0
  0
LINE
  5
13D
100
AcDbEntity
  8
レイヤー_1
  6
CONTINUOUS
 62
       3
100
AcDbLine
 10
-62.87874622
 20
-47.42743503
 30
0.0
 11
-62.95282116
 21
-47.26358575
 31
0.0
  0
LINE
  5
13E
100
AcDbEntity
  8
レイヤー_1
  6
CONTINUOUS
 62
       3
100
AcDbLine
 10
-62.95282116
 20
-47.26358575
 30
0.0
 11
-63.04036426
 21
-47.10476201
 31
0.0
  0
LINE
  5
13F
100
AcDbEntity
  8
レイヤー_1
  6
CONTINUOUS
 62
       3
100
AcDbLine
 10
-63.04036426
 20
-47.10476201
 30
0.0
 11
-63.14137554
 21
-46.9518003
 31
0.0
  0
LINE
  5
140
100
AcDbEntity
  8
レイヤー_1
  6
CONTINUOUS
 62
       3
100
AcDbLine
 10
-63.14137554
 20
-46.9518003
 30
0.0
 11
-63.25585499
 21
-46.80553716
 31
0.0
  0
LINE
  5
141
100
AcDbEntity
  8
レイヤー_1
  6
CONTINUOUS
 62
       3
100
AcDbLine
 10
-63.25585499
 20
-46.80553716
 30
0.0
 11
-63.3838026
 21
-46.66680909
 31
0.0
  0
LINE
  5
142
100
AcDbEntity
  8
レイヤー_1
  6
CONTINUOUS
 62
       3
100
AcDbLine
 10
-63.3838026
 20
-46.66680909
 30
0.0
 11
-63.52253988
 21
-46.53873874
 31
0.0
  0
LINE
  5
143
100
AcDbEntity
  8
レイヤー_1
  6
CONTINUOUS
 62
       3
100
AcDbLine
 10
-63.52253988
 20
-46.53873874
 30
0.0
 11
-63.6688287
 21
-46.42414948
 31
0.0
  0
LINE
  5
144
100
AcDbEntity
  8
レイヤー_1
  6
CONTINUOUS
 62
       3
100
AcDbLine
 10
-63.6688287
 20
-46.42414948
 30
0.0
 11
-63.82182965
 21
-46.32304131
 31
0.0
  0
LINE
  5
145
100
AcDbEntity
  8
レイヤー_1
  6
CONTINUOUS
 62
       3
100
AcDbLine
 10
-63.82182965
 20
-46.32304131
 30
0.0
 11
-63.98070329
 21
-46.23541423
 31
0.0
  0
LINE
  5
146
100
AcDbEntity
  8
レイヤー_1
  6
CONTINUOUS
 62
       3
100
AcDbLine
 10
-63.98070329
 20
-46.23541423
 30
0.0
 11
-64.14461022
 21
-46.16126824
 31
0.0
  0
LINE
  5
147
100
AcDbEntity
  8
レイヤー_1
  6
CONTINUOUS
 62
       3
100
AcDbLine
 10
-64.14461022
 20
-46.16126824
 30
0.0
 11
-64.31271102
 21
-46.10060334
 31
0.0
  0
LINE
  5
148
100
AcDbEntity
  8
レイヤー_1
  6
CONTINUOUS
 62
       3
100
AcDbLine
 10
-64.31271102
 20
-46.10060334
 30
0.0
 11
-64.48416626
 21
-46.05341953
 31
0.0
  0
LINE
  5
149
100
AcDbEntity
  8
レイヤー_1
  6
CONTINUOUS
 62
       3
100
AcDbLine
 10
-64.48416626
 20
-46.05341953
 30
0.0
 11
-64.65813653
 21
-46.0197168
 31
0.0
  0
LINE
  5
14A
100
AcDbEntity
  8
レイヤー_1
  6
CONTINUOUS
 62
       3
100
AcDbLine
 10
-64.65813653
 20
-46.0197168
 30
0.0
 11
-64.83378241
 21
-45.99949517
 31
0.0
  0
LINE
  5
14B
100
AcDbEntity
  8
レイヤー_1
  6
CONTINUOUS
 62
       3
100
AcDbLine
 10
-64.83378241
 20
-45.99949517
 30
0.0
 11
-65.01026448
 21
-45.99275462
 31
0.0
  0
LINE
  5
14C
100
AcDbEntity
  8
レイヤー_1
  6
CONTINUOUS
 62
       3
100
AcDbLine
 10
-65.01026448
 20
-45.99275462
 30
0.0
 11
-65.18674332
 21
-45.99949517
 31
0.0
  0
LINE
  5
14D
100
AcDbEntity
  8
レイヤー_1
  6
CONTINUOUS
 62
       3
100
AcDbLine
 10
-65.18674332
 20
-45.99949517
 30
0.0
 11
-65.36237951
 21
-46.0197168
 31
0.0
  0
LINE
  5
14E
100
AcDbEntity
  8
レイヤー_1
  6
CONTINUOUS
 62
       3
100
AcDbLine
 10
-65.36237951
 20
-46.0197168
 30
0.0
 11
-65.53633363
 21
-46.05341953
 31
0.0
  0
LINE
  5
14F
100
AcDbEntity
  8
レイヤー_1
  6
CONTINUOUS
 62
       3
100
AcDbLine
 10
-65.53633363
 20
-46.05341953
 30
0.0
 11
-65.70776626
 21
-46.10060334
 31
0.0
  0
LINE
  5
150
100
AcDbEntity
  8
レイヤー_1
  6
CONTINUOUS
 62
       3
100
AcDbLine
 10
-65.70776626
 20
-46.10060334
 30
0.0
 11
-65.87583799
 21
-46.16126824
 31
0.0
  0
LINE
  5
151
100
AcDbEntity
  8
レイヤー_1
  6
CONTINUOUS
 62
       3
100
AcDbLine
 10
-65.87583799
 20
-46.16126824
 30
0.0
 11
-66.0397094
 21
-46.23541423
 31
0.0
  0
LINE
  5
152
100
AcDbEntity
  8
レイヤー_1
  6
CONTINUOUS
 62
       3
100
AcDbLine
 10
-66.0397094
 20
-46.23541423
 30
0.0
 11
-66.19854105
 21
-46.32304131
 31
0.0
  0
LINE
  5
153
100
AcDbEntity
  8
レイヤー_1
  6
CONTINUOUS
 62
       3
100
AcDbLine
 10
-66.19854105
 20
-46.32304131
 30
0.0
 11
-66.35149355
 21
-46.42414948
 31
0.0
  0
LINE
  5
154
100
AcDbEntity
  8
レイヤー_1
  6
CONTINUOUS
 62
       3
100
AcDbLine
 10
-66.35149355
 20
-46.42414948
 30
0.0
 11
-66.49772747
 21
-46.53873874
 31
0.0
  0
LINE
  5
155
100
AcDbEntity
  8
レイヤー_1
  6
CONTINUOUS
 62
       3
100
AcDbLine
 10
-66.49772747
 20
-46.53873874
 30
0.0
 11
-66.63640338
 21
-46.66680909
 31
0.0
  0
LINE
  5
156
100
AcDbEntity
  8
レイヤー_1
  6
CONTINUOUS
 62
       3
100
AcDbLine
 10
-68.05104571
 20
-48.08059015
 30
0.0
 11
-68.17899333
 21
-48.21943482
 31
0.0
  0
LINE
  5
157
100
AcDbEntity
  8
レイヤー_1
  6
CONTINUOUS
 62
       3
100
AcDbLine
 10
-68.17899333
 20
-48.21943482
 30
0.0
 11
-68.29347277
 21
-48.36579065
 31
0.0
  0
LINE
  5
158
100
AcDbEntity
  8
レイヤー_1
  6
CONTINUOUS
 62
       3
100
AcDbLine
 10
-68.29347277
 20
-48.36579065
 30
0.0
 11
-68.39448405
 21
-48.51882309
 31
0.0
  0
LINE
  5
159
100
AcDbEntity
  8
レイヤー_1
  6
CONTINUOUS
 62
       3
100
AcDbLine
 10
-68.39448405
 20
-48.51882309
 30
0.0
 11
-68.48202716
 21
-48.67769754
 31
0.0
  0
LINE
  5
15A
100
AcDbEntity
  8
レイヤー_1
  6
CONTINUOUS
 62
       3
100
AcDbLine
 10
-68.48202716
 20
-48.67769754
 30
0.0
 11
-68.55610209
 21
-48.84157944
 31
0.0
  0
LINE
  5
15B
100
AcDbEntity
  8
レイヤー_1
  6
CONTINUOUS
 62
       3
100
AcDbLine
 10
-68.55610209
 20
-48.84157944
 30
0.0
 11
-68.61670886
 21
-49.00963421
 31
0.0
  0
LINE
  5
15C
100
AcDbEntity
  8
レイヤー_1
  6
CONTINUOUS
 62
       3
100
AcDbLine
 10
-68.61670886
 20
-49.00963421
 30
0.0
 11
-68.66384745
 21
-49.18102728
 31
0.0
  0
LINE
  5
15D
100
AcDbEntity
  8
レイヤー_1
  6
CONTINUOUS
 62
       3
100
AcDbLine
 10
-68.66384745
 20
-49.18102728
 30
0.0
 11
-68.69751788
 21
-49.35492408
 31
0.0
  0
LINE
  5
15E
100
AcDbEntity
  8
レイヤー_1
  6
CONTINUOUS
 62
       3
100
AcDbLine
 10
-68.69751788
 20
-49.35492408
 30
0.0
 11
-68.71772013
 21
-49.53049002
 31
0.0
  0
LINE
  5
15F
100
AcDbEntity
  8
レイヤー_1
  6
CONTINUOUS
 62
       3
100
AcDbLine
 10
-68.71772013
 20
-49.53049002
 30
0.0
 11
-68.72445422
 21
-49.70689053
 31
0.0
  0
LINE
  5
160
100
AcDbEntity
  8
レイヤー_1
  6
CONTINUOUS
 62
       3
100
AcDbLine
 10
-68.72445422
 20
-49.70689053
 30
0.0
 11
-68.71772013
 21
-49.88329105
 31
0.0
  0
LINE
  5
161
100
AcDbEntity
  8
レイヤー_1
  6
CONTINUOUS
 62
       3
100
AcDbLine
 10
-68.71772013
 20
-49.88329105
 30
0.0
 11
-68.69751788
 21
-50.05885699
 31
0.0
  0
LINE
  5
162
100
AcDbEntity
  8
レイヤー_1
  6
CONTINUOUS
 62
       3
100
AcDbLine
 10
-68.69751788
 20
-50.05885699
 30
0.0
 11
-68.66384745
 21
-50.23275379
 31
0.0
  0
LINE
  5
163
100
AcDbEntity
  8
レイヤー_1
  6
CONTINUOUS
 62
       3
100
AcDbLine
 10
-68.66384745
 20
-50.23275379
 30
0.0
 11
-68.61670886
 21
-50.40414685
 31
0.0
  0
LINE
  5
164
100
AcDbEntity
  8
レイヤー_1
  6
CONTINUOUS
 62
       3
100
AcDbLine
 10
-68.61670886
 20
-50.40414685
 30
0.0
 11
-68.55610209
 21
-50.57220163
 31
0.0
  0
LINE
  5
165
100
AcDbEntity
  8
レイヤー_1
  6
CONTINUOUS
 62
       3
100
AcDbLine
 10
-68.55610209
 20
-50.57220163
 30
0.0
 11
-68.48202716
 21
-50.73608353
 31
0.0
  0
LINE
  5
166
100
AcDbEntity
  8
レイヤー_1
  6
CONTINUOUS
 62
       3
100
AcDbLine
 10
-68.48202716
 20
-50.73608353
 30
0.0
 11
-68.39448405
 21
-50.89495798
 31
0.0
  0
LINE
  5
167
100
AcDbEntity
  8
レイヤー_1
  6
CONTINUOUS
 62
       3
100
AcDbLine
 10
-68.39448405
 20
-50.89495798
 30
0.0
 11
-68.29347277
 21
-51.04799041
 31
0.0
  0
LINE
  5
168
100
AcDbEntity
  8
レイヤー_1
  6
CONTINUOUS
 62
       3
100
AcDbLine
 10
-68.29347277
 20
-51.04799041
 30
0.0
 11
-68.17899333
 21
-51.19434625
 31
0.0
  0
LINE
  5
169
100
AcDbEntity
  8
レイヤー_1
  6
CONTINUOUS
 62
       3
100
AcDbLine
 10
-68.17899333
 20
-51.19434625
 30
0.0
 11
-68.05104571
 21
-51.33319092
 31
0.0
  0
LINE
  5
16A
100
AcDbEntity
  8
レイヤー_1
  6
CONTINUOUS
 62
       3
100
AcDbLine
 10
-119.71742416
 20
45.70024448
 30
0.0
 11
-119.52882967
 21
45.70786519
 31
0.0
  0
LINE
  5
16B
100
AcDbEntity
  8
レイヤー_1
  6
CONTINUOUS
 62
       3
100
AcDbLine
 10
-119.52882967
 20
45.70786519
 30
0.0
 11
-119.34442582
 21
45.73033351
 31
0.0
  0
LINE
  5
16C
100
AcDbEntity
  8
レイヤー_1
  6
CONTINUOUS
 62
       3
100
AcDbLine
 10
-119.34442582
 20
45.73033351
 30
0.0
 11
-119.16480527
 21
45.76705871
 31
0.0
  0
LINE
  5
16D
100
AcDbEntity
  8
レイヤー_1
  6
CONTINUOUS
 62
       3
100
AcDbLine
 10
-119.16480527
 20
45.76705871
 30
0.0
 11
-118.99056069
 21
45.81745007
 31
0.0
  0
LINE
  5
16E
100
AcDbEntity
  8
レイヤー_1
  6
CONTINUOUS
 62
       3
100
AcDbLine
 10
-118.99056069
 20
45.81745007
 30
0.0
 11
-118.82228473
 21
45.88091686
 31
0.0
  0
LINE
  5
16F
100
AcDbEntity
  8
レイヤー_1
  6
CONTINUOUS
 62
       3
100
AcDbLine
 10
-118.82228473
 20
45.88091686
 30
0.0
 11
-118.66057006
 21
45.95686835
 31
0.0
  0
LINE
  5
170
100
AcDbEntity
  8
レイヤー_1
  6
CONTINUOUS
 62
       3
100
AcDbLine
 10
-118.66057006
 20
45.95686835
 30
0.0
 11
-118.50600935
 21
46.04471381
 31
0.0
  0
LINE
  5
171
100
AcDbEntity
  8
レイヤー_1
  6
CONTINUOUS
 62
       3
100
AcDbLine
 10
-118.50600935
 20
46.04471381
 30
0.0
 11
-118.35919526
 21
46.14386253
 31
0.0
  0
LINE
  5
172
100
AcDbEntity
  8
レイヤー_1
  6
CONTINUOUS
 62
       3
100
AcDbLine
 10
-118.35919526
 20
46.14386253
 30
0.0
 11
-118.22072046
 21
46.25372377
 31
0.0
  0
LINE
  5
173
100
AcDbEntity
  8
レイヤー_1
  6
CONTINUOUS
 62
       3
100
AcDbLine
 10
-118.22072046
 20
46.25372377
 30
0.0
 11
-118.0911776
 21
46.37370681
 31
0.0
  0
LINE
  5
174
100
AcDbEntity
  8
レイヤー_1
  6
CONTINUOUS
 62
       3
100
AcDbLine
 10
-118.0911776
 20
46.37370681
 30
0.0
 11
-117.97115935
 21
46.50322093
 31
0.0
  0
LINE
  5
175
100
AcDbEntity
  8
レイヤー_1
  6
CONTINUOUS
 62
       3
100
AcDbLine
 10
-117.97115935
 20
46.50322093
 30
0.0
 11
-117.86125839
 21
46.64167538
 31
0.0
  0
LINE
  5
176
100
AcDbEntity
  8
レイヤー_1
  6
CONTINUOUS
 62
       3
100
AcDbLine
 10
-117.86125839
 20
46.64167538
 30
0.0
 11
-117.76206736
 21
46.78847946
 31
0.0
  0
LINE
  5
177
100
AcDbEntity
  8
レイヤー_1
  6
CONTINUOUS
 62
       3
100
AcDbLine
 10
-117.76206736
 20
46.78847946
 30
0.0
 11
-117.67417894
 21
46.94304243
 31
0.0
  0
LINE
  5
178
100
AcDbEntity
  8
レイヤー_1
  6
CONTINUOUS
 62
       3
100
AcDbLine
 10
-117.67417894
 20
46.94304243
 30
0.0
 11
-117.59818578
 21
47.10477357
 31
0.0
  0
LINE
  5
179
100
AcDbEntity
  8
レイヤー_1
  6
CONTINUOUS
 62
       3
100
AcDbLine
 10
-117.59818578
 20
47.10477357
 30
0.0
 11
-117.53468056
 21
47.27308215
 31
0.0
  0
LINE
  5
17A
100
AcDbEntity
  8
レイヤー_1
  6
CONTINUOUS
 62
       3
100
AcDbLine
 10
-117.53468056
 20
47.27308215
 30
0.0
 11
-117.48425594
 21
47.44737744
 31
0.0
  0
LINE
  5
17B
100
AcDbEntity
  8
レイヤー_1
  6
CONTINUOUS
 62
       3
100
AcDbLine
 10
-117.48425594
 20
47.44737744
 30
0.0
 11
-117.44750457
 21
47.62706872
 31
0.0
  0
LINE
  5
17C
100
AcDbEntity
  8
レイヤー_1
  6
CONTINUOUS
 62
       3
100
AcDbLine
 10
-117.44750457
 20
47.62706872
 30
0.0
 11
-117.42501913
 21
47.81156527
 31
0.0
  0
LINE
  5
17D
100
AcDbEntity
  8
レイヤー_1
  6
CONTINUOUS
 62
       3
100
AcDbLine
 10
-117.42501913
 20
47.81156527
 30
0.0
 11
-117.41739228
 21
48.00027635
 31
0.0
  0
LINE
  5
17E
100
AcDbEntity
  8
レイヤー_1
  6
CONTINUOUS
 62
       3
100
AcDbLine
 10
-117.41739228
 20
49.99972364
 30
0.0
 11
-117.42501913
 21
50.18843472
 31
0.0
  0
LINE
  5
17F
100
AcDbEntity
  8
レイヤー_1
  6
CONTINUOUS
 62
       3
100
AcDbLine
 10
-117.42501913
 20
50.18843472
 30
0.0
 11
-117.44750457
 21
50.37293127
 31
0.0
  0
LINE
  5
180
100
AcDbEntity
  8
レイヤー_1
  6
CONTINUOUS
 62
       3
100
AcDbLine
 10
-117.44750457
 20
50.37293127
 30
0.0
 11
-117.48425594
 21
50.55262255
 31
0.0
  0
LINE
  5
181
100
AcDbEntity
  8
レイヤー_1
  6
CONTINUOUS
 62
       3
100
AcDbLine
 10
-117.48425594
 20
50.55262255
 30
0.0
 11
-117.53468056
 21
50.72691784
 31
0.0
  0
LINE
  5
182
100
AcDbEntity
  8
レイヤー_1
  6
CONTINUOUS
 62
       3
100
AcDbLine
 10
-117.53468056
 20
50.72691784
 30
0.0
 11
-117.59818578
 21
50.89522642
 31
0.0
  0
LINE
  5
183
100
AcDbEntity
  8
レイヤー_1
  6
CONTINUOUS
 62
       3
100
AcDbLine
 10
-117.59818578
 20
50.89522642
 30
0.0
 11
-117.67417894
 21
51.05695756
 31
0.0
  0
LINE
  5
184
100
AcDbEntity
  8
レイヤー_1
  6
CONTINUOUS
 62
       3
100
AcDbLine
 10
-117.67417894
 20
51.05695756
 30
0.0
 11
-117.76206736
 21
51.21152053
 31
0.0
  0
LINE
  5
185
100
AcDbEntity
  8
レイヤー_1
  6
CONTINUOUS
 62
       3
100
AcDbLine
 10
-117.76206736
 20
51.21152053
 30
0.0
 11
-117.86125839
 21
51.35832461
 31
0.0
  0
LINE
  5
186
100
AcDbEntity
  8
レイヤー_1
  6
CONTINUOUS
 62
       3
100
AcDbLine
 10
-117.86125839
 20
51.35832461
 30
0.0
 11
-117.97115935
 21
51.49677906
 31
0.0
  0
LINE
  5
187
100
AcDbEntity
  8
レイヤー_1
  6
CONTINUOUS
 62
       3
100
AcDbLine
 10
-117.97115935
 20
51.49677906
 30
0.0
 11
-118.0911776
 21
51.62629318
 31
0.0
  0
LINE
  5
188
100
AcDbEntity
  8
レイヤー_1
  6
CONTINUOUS
 62
       3
100
AcDbLine
 10
-118.0911776
 20
51.62629318
 30
0.0
 11
-118.22072046
 21
51.74627622
 31
0.0
  0
LINE
  5
189
100
AcDbEntity
  8
レイヤー_1
  6
CONTINUOUS
 62
       3
100
AcDbLine
 10
-118.22072046
 20
51.74627622
 30
0.0
 11
-118.35919526
 21
51.85613746
 31
0.0
  0
LINE
  5
18A
100
AcDbEntity
  8
レイヤー_1
  6
CONTINUOUS
 62
       3
100
AcDbLine
 10
-118.35919526
 20
51.85613746
 30
0.0
 11
-118.50600935
 21
51.95528618
 31
0.0
  0
LINE
  5
18B
100
AcDbEntity
  8
レイヤー_1
  6
CONTINUOUS
 62
       3
100
AcDbLine
 10
-118.50600935
 20
51.95528618
 30
0.0
 11
-118.66057006
 21
52.04313164
 31
0.0
  0
LINE
  5
18C
100
AcDbEntity
  8
レイヤー_1
  6
CONTINUOUS
 62
       3
100
AcDbLine
 10
-118.66057006
 20
52.04313164
 30
0.0
 11
-118.82228473
 21
52.11908313
 31
0.0
  0
LINE
  5
18D
100
AcDbEntity
  8
レイヤー_1
  6
CONTINUOUS
 62
       3
100
AcDbLine
 10
-118.82228473
 20
52.11908313
 30
0.0
 11
-118.99056069
 21
52.18254992
 31
0.0
  0
LINE
  5
18E
100
AcDbEntity
  8
レイヤー_1
  6
CONTINUOUS
 62
       3
100
AcDbLine
 10
-118.99056069
 20
52.18254992
 30
0.0
 11
-119.16480527
 21
52.23294128
 31
0.0
  0
LINE
  5
18F
100
AcDbEntity
  8
レイヤー_1
  6
CONTINUOUS
 62
       3
100
AcDbLine
 10
-119.16480527
 20
52.23294128
 30
0.0
 11
-119.34442582
 21
52.26966648
 31
0.0
  0
LINE
  5
190
100
AcDbEntity
  8
レイヤー_1
  6
CONTINUOUS
 62
       3
100
AcDbLine
 10
-119.34442582
 20
52.26966648
 30
0.0
 11
-119.52882967
 21
52.2921348
 31
0.0
  0
LINE
  5
191
100
AcDbEntity
  8
レイヤー_1
  6
CONTINUOUS
 62
       3
100
AcDbLine
 10
-119.52882967
 20
52.2921348
 30
0.0
 11
-119.71742416
 21
52.29975551
 31
0.0
  0
LINE
  5
192
100
AcDbEntity
  8
レイヤー_1
  6
CONTINUOUS
 62
       3
100
AcDbLine
 10
-119.71742416
 20
52.29975551
 30
0.0
 11
-119.90613524
 21
52.2921348
 31
0.0
  0
LINE
  5
193
100
AcDbEntity
  8
レイヤー_1
  6
CONTINUOUS
 62
       3
100
AcDbLine
 10
-119.90613524
 20
52.2921348
 30
0.0
 11
-120.09063178
 21
52.26966648
 31
0.0
  0
LINE
  5
194
100
AcDbEntity
  8
レイヤー_1
  6
CONTINUOUS
 62
       3
100
AcDbLine
 10
-120.09063178
 20
52.26966648
 30
0.0
 11
-120.27032306
 21
52.23294128
 31
0.0
  0
LINE
  5
195
100
AcDbEntity
  8
レイヤー_1
  6
CONTINUOUS
 62
       3
100
AcDbLine
 10
-120.27032306
 20
52.23294128
 30
0.0
 11
-120.44461836
 21
52.18254992
 31
0.0
  0
LINE
  5
196
100
AcDbEntity
  8
レイヤー_1
  6
CONTINUOUS
 62
       3
100
AcDbLine
 10
-120.44461836
 20
52.18254992
 30
0.0
 11
-120.61292694
 21
52.11908313
 31
0.0
  0
LINE
  5
197
100
AcDbEntity
  8
レイヤー_1
  6
CONTINUOUS
 62
       3
100
AcDbLine
 10
-120.61292694
 20
52.11908313
 30
0.0
 11
-120.77465807
 21
52.04313164
 31
0.0
  0
LINE
  5
198
100
AcDbEntity
  8
レイヤー_1
  6
CONTINUOUS
 62
       3
100
AcDbLine
 10
-120.77465807
 20
52.04313164
 30
0.0
 11
-120.92922105
 21
51.95528618
 31
0.0
  0
LINE
  5
199
100
AcDbEntity
  8
レイヤー_1
  6
CONTINUOUS
 62
       3
100
AcDbLine
 10
-120.92922105
 20
51.95528618
 30
0.0
 11
-121.07602512
 21
51.85613746
 31
0.0
  0
LINE
  5
19A
100
AcDbEntity
  8
レイヤー_1
  6
CONTINUOUS
 62
       3
100
AcDbLine
 10
-121.07602512
 20
51.85613746
 30
0.0
 11
-121.21447958
 21
51.74627622
 31
0.0
  0
LINE
  5
19B
100
AcDbEntity
  8
レイヤー_1
  6
CONTINUOUS
 62
       3
100
AcDbLine
 10
-121.21447958
 20
51.74627622
 30
0.0
 11
-121.34399369
 21
51.62629318
 31
0.0
  0
LINE
  5
19C
100
AcDbEntity
  8
レイヤー_1
  6
CONTINUOUS
 62
       3
100
AcDbLine
 10
-121.34399369
 20
51.62629318
 30
0.0
 11
-121.46397673
 21
51.49677906
 31
0.0
  0
LINE
  5
19D
100
AcDbEntity
  8
レイヤー_1
  6
CONTINUOUS
 62
       3
100
AcDbLine
 10
-121.46397673
 20
51.49677906
 30
0.0
 11
-121.57383798
 21
51.35832461
 31
0.0
  0
LINE
  5
19E
100
AcDbEntity
  8
レイヤー_1
  6
CONTINUOUS
 62
       3
100
AcDbLine
 10
-121.57383798
 20
51.35832461
 30
0.0
 11
-121.67298669
 21
51.21152053
 31
0.0
  0
LINE
  5
19F
100
AcDbEntity
  8
レイヤー_1
  6
CONTINUOUS
 62
       3
100
AcDbLine
 10
-121.67298669
 20
51.21152053
 30
0.0
 11
-121.76083216
 21
51.05695756
 31
0.0
  0
LINE
  5
1A0
100
AcDbEntity
  8
レイヤー_1
  6
CONTINUOUS
 62
       3
100
AcDbLine
 10
-121.76083216
 20
51.05695756
 30
0.0
 11
-121.83678365
 21
50.89522642
 31
0.0
  0
LINE
  5
1A1
100
AcDbEntity
  8
レイヤー_1
  6
CONTINUOUS
 62
       3
100
AcDbLine
 10
-121.83678365
 20
50.89522642
 30
0.0
 11
-121.90025044
 21
50.72691784
 31
0.0
  0
LINE
  5
1A2
100
AcDbEntity
  8
レイヤー_1
  6
CONTINUOUS
 62
       3
100
AcDbLine
 10
-121.90025044
 20
50.72691784
 30
0.0
 11
-121.9506418
 21
50.55262255
 31
0.0
  0
LINE
  5
1A3
100
AcDbEntity
  8
レイヤー_1
  6
CONTINUOUS
 62
       3
100
AcDbLine
 10
-121.9506418
 20
50.55262255
 30
0.0
 11
-121.987367
 21
50.37293127
 31
0.0
  0
LINE
  5
1A4
100
AcDbEntity
  8
レイヤー_1
  6
CONTINUOUS
 62
       3
100
AcDbLine
 10
-121.987367
 20
50.37293127
 30
0.0
 11
-122.00983532
 21
50.18843472
 31
0.0
  0
LINE
  5
1A5
100
AcDbEntity
  8
レイヤー_1
  6
CONTINUOUS
 62
       3
100
AcDbLine
 10
-122.00983532
 20
50.18843472
 30
0.0
 11
-122.01745603
 21
49.99972364
 31
0.0
  0
LINE
  5
1A6
100
AcDbEntity
  8
レイヤー_1
  6
CONTINUOUS
 62
       3
100
AcDbLine
 10
-122.01745603
 20
48.00027635
 30
0.0
 11
-122.00983532
 21
47.81156527
 31
0.0
  0
LINE
  5
1A7
100
AcDbEntity
  8
レイヤー_1
  6
CONTINUOUS
 62
       3
100
AcDbLine
 10
-122.00983532
 20
47.81156527
 30
0.0
 11
-121.987367
 21
47.62706872
 31
0.0
  0
LINE
  5
1A8
100
AcDbEntity
  8
レイヤー_1
  6
CONTINUOUS
 62
       3
100
AcDbLine
 10
-121.987367
 20
47.62706872
 30
0.0
 11
-121.9506418
 21
47.44737744
 31
0.0
  0
LINE
  5
1A9
100
AcDbEntity
  8
レイヤー_1
  6
CONTINUOUS
 62
       3
100
AcDbLine
 10
-121.9506418
 20
47.44737744
 30
0.0
 11
-121.90025044
 21
47.27308215
 31
0.0
  0
LINE
  5
1AA
100
AcDbEntity
  8
レイヤー_1
  6
CONTINUOUS
 62
       3
100
AcDbLine
 10
-121.90025044
 20
47.27308215
 30
0.0
 11
-121.83678365
 21
47.10477357
 31
0.0
  0
LINE
  5
1AB
100
AcDbEntity
  8
レイヤー_1
  6
CONTINUOUS
 62
       3
100
AcDbLine
 10
-121.83678365
 20
47.10477357
 30
0.0
 11
-121.76083216
 21
46.94304243
 31
0.0
  0
LINE
  5
1AC
100
AcDbEntity
  8
レイヤー_1
  6
CONTINUOUS
 62
       3
100
AcDbLine
 10
-121.76083216
 20
46.94304243
 30
0.0
 11
-121.67298669
 21
46.78847946
 31
0.0
  0
LINE
  5
1AD
100
AcDbEntity
  8
レイヤー_1
  6
CONTINUOUS
 62
       3
100
AcDbLine
 10
-121.67298669
 20
46.78847946
 30
0.0
 11
-121.57383798
 21
46.64167538
 31
0.0
  0
LINE
  5
1AE
100
AcDbEntity
  8
レイヤー_1
  6
CONTINUOUS
 62
       3
100
AcDbLine
 10
-121.57383798
 20
46.64167538
 30
0.0
 11
-121.46397673
 21
46.50322093
 31
0.0
  0
LINE
  5
1AF
100
AcDbEntity
  8
レイヤー_1
  6
CONTINUOUS
 62
       3
100
AcDbLine
 10
-121.46397673
 20
46.50322093
 30
0.0
 11
-121.34399369
 21
46.37370681
 31
0.0
  0
LINE
  5
1B0
100
AcDbEntity
  8
レイヤー_1
  6
CONTINUOUS
 62
       3
100
AcDbLine
 10
-121.34399369
 20
46.37370681
 30
0.0
 11
-121.21447958
 21
46.25372377
 31
0.0
  0
LINE
  5
1B1
100
AcDbEntity
  8
レイヤー_1
  6
CONTINUOUS
 62
       3
100
AcDbLine
 10
-121.21447958
 20
46.25372377
 30
0.0
 11
-121.07602512
 21
46.14386253
 31
0.0
  0
LINE
  5
1B2
100
AcDbEntity
  8
レイヤー_1
  6
CONTINUOUS
 62
       3
100
AcDbLine
 10
-121.07602512
 20
46.14386253
 30
0.0
 11
-120.92922105
 21
46.04471381
 31
0.0
  0
LINE
  5
1B3
100
AcDbEntity
  8
レイヤー_1
  6
CONTINUOUS
 62
       3
100
AcDbLine
 10
-120.92922105
 20
46.04471381
 30
0.0
 11
-120.77465807
 21
45.95686835
 31
0.0
  0
LINE
  5
1B4
100
AcDbEntity
  8
レイヤー_1
  6
CONTINUOUS
 62
       3
100
AcDbLine
 10
-120.77465807
 20
45.95686835
 30
0.0
 11
-120.61292694
 21
45.88091686
 31
0.0
  0
LINE
  5
1B5
100
AcDbEntity
  8
レイヤー_1
  6
CONTINUOUS
 62
       3
100
AcDbLine
 10
-120.61292694
 20
45.88091686
 30
0.0
 11
-120.44461836
 21
45.81745007
 31
0.0
  0
LINE
  5
1B6
100
AcDbEntity
  8
レイヤー_1
  6
CONTINUOUS
 62
       3
100
AcDbLine
 10
-120.44461836
 20
45.81745007
 30
0.0
 11
-120.27032306
 21
45.76705871
 31
0.0
  0
LINE
  5
1B7
100
AcDbEntity
  8
レイヤー_1
  6
CONTINUOUS
 62
       3
100
AcDbLine
 10
-120.27032306
 20
45.76705871
 30
0.0
 11
-120.09063178
 21
45.73033351
 31
0.0
  0
LINE
  5
1B8
100
AcDbEntity
  8
レイヤー_1
  6
CONTINUOUS
 62
       3
100
AcDbLine
 10
-120.09063178
 20
45.73033351
 30
0.0
 11
-119.90613524
 21
45.70786519
 31
0.0
  0
LINE
  5
1B9
100
AcDbEntity
  8
レイヤー_1
  6
CONTINUOUS
 62
       3
100
AcDbLine
 10
-119.90613524
 20
45.70786519
 30
0.0
 11
-119.71742416
 21
45.70024448
 31
0.0
  0
LINE
  5
1BA
100
AcDbEntity
  8
レイヤー_1
  6
CONTINUOUS
 62
       3
100
AcDbLine
 10
-121.71823795
 20
25.72366671
 30
0.0
 11
-121.3906623
 21
25.73879773
 31
0.0
  0
LINE
  5
1BB
100
AcDbEntity
  8
レイヤー_1
  6
CONTINUOUS
 62
       3
100
AcDbLine
 10
-121.3906623
 20
25.73879773
 30
0.0
 11
-121.07161764
 21
25.78329374
 31
0.0
  0
LINE
  5
1BC
100
AcDbEntity
  8
レイヤー_1
  6
CONTINUOUS
 62
       3
100
AcDbLine
 10
-121.07161764
 20
25.78329374
 30
0.0
 11
-120.76244663
 21
25.85580916
 31
0.0
  0
LINE
  5
1BD
100
AcDbEntity
  8
レイヤー_1
  6
CONTINUOUS
 62
       3
100
AcDbLine
 10
-120.76244663
 20
25.85580916
 30
0.0
 11
-120.46449197
 21
25.95499842
 31
0.0
  0
LINE
  5
1BE
100
AcDbEntity
  8
レイヤー_1
  6
CONTINUOUS
 62
       3
100
AcDbLine
 10
-120.46449197
 20
25.95499842
 30
0.0
 11
-120.17909635
 21
26.07951595
 31
0.0
  0
LINE
  5
1BF
100
AcDbEntity
  8
レイヤー_1
  6
CONTINUOUS
 62
       3
100
AcDbLine
 10
-120.17909635
 20
26.07951595
 30
0.0
 11
-119.90760243
 21
26.22801615
 31
0.0
  0
LINE
  5
1C0
100
AcDbEntity
  8
レイヤー_1
  6
CONTINUOUS
 62
       3
100
AcDbLine
 10
-119.90760243
 20
26.22801615
 30
0.0
 11
-119.65135292
 21
26.39915347
 31
0.0
  0
LINE
  5
1C1
100
AcDbEntity
  8
レイヤー_1
  6
CONTINUOUS
 62
       3
100
AcDbLine
 10
-119.65135292
 20
26.39915347
 30
0.0
 11
-119.41169048
 21
26.59158232
 31
0.0
  0
LINE
  5
1C2
100
AcDbEntity
  8
レイヤー_1
  6
CONTINUOUS
 62
       3
100
AcDbLine
 10
-119.41169048
 20
26.59158232
 30
0.0
 11
-119.18995781
 21
26.80395713
 31
0.0
  0
LINE
  5
1C3
100
AcDbEntity
  8
レイヤー_1
  6
CONTINUOUS
 62
       3
100
AcDbLine
 10
-119.18995781
 20
26.80395713
 30
0.0
 11
-118.98749758
 21
27.03493232
 31
0.0
  0
LINE
  5
1C4
100
AcDbEntity
  8
レイヤー_1
  6
CONTINUOUS
 62
       3
100
AcDbLine
 10
-118.98749758
 20
27.03493232
 30
0.0
 11
-118.80565248
 21
27.28316232
 31
0.0
  0
LINE
  5
1C5
100
AcDbEntity
  8
レイヤー_1
  6
CONTINUOUS
 62
       3
100
AcDbLine
 10
-118.80565248
 20
27.28316232
 30
0.0
 11
-118.6457652
 21
27.54730155
 31
0.0
  0
LINE
  5
1C6
100
AcDbEntity
  8
レイヤー_1
  6
CONTINUOUS
 62
       3
100
AcDbLine
 10
-118.6457652
 20
27.54730155
 30
0.0
 11
-118.50917841
 21
27.82600443
 31
0.0
  0
LINE
  5
1C7
100
AcDbEntity
  8
レイヤー_1
  6
CONTINUOUS
 62
       3
100
AcDbLine
 10
-118.50917841
 20
27.82600443
 30
0.0
 11
-118.39723481
 21
28.11792539
 31
0.0
  0
LINE
  5
1C8
100
AcDbEntity
  8
レイヤー_1
  6
CONTINUOUS
 62
       3
100
AcDbLine
 10
-118.39723481
 20
28.11792539
 30
0.0
 11
-118.31127706
 21
28.42171885
 31
0.0
  0
LINE
  5
1C9
100
AcDbEntity
  8
レイヤー_1
  6
CONTINUOUS
 62
       3
100
AcDbLine
 10
-118.31127706
 20
28.42171885
 30
0.0
 11
-118.25264787
 21
28.73603924
 31
0.0
  0
LINE
  5
1CA
100
AcDbEntity
  8
レイヤー_1
  6
CONTINUOUS
 62
       3
100
AcDbLine
 10
-118.25264787
 20
28.73603924
 30
0.0
 11
-118.2226899
 21
29.05954098
 31
0.0
  0
LINE
  5
1CB
100
AcDbEntity
  8
レイヤー_1
  6
CONTINUOUS
 62
       3
100
AcDbLine
 10
-118.2226899
 20
29.05954098
 30
0.0
 11
-118.2226899
 21
29.38901497
 31
0.0
  0
LINE
  5
1CC
100
AcDbEntity
  8
レイヤー_1
  6
CONTINUOUS
 62
       3
100
AcDbLine
 10
-118.2226899
 20
29.38901497
 30
0.0
 11
-118.25264787
 21
29.7123775
 31
0.0
  0
LINE
  5
1CD
100
AcDbEntity
  8
レイヤー_1
  6
CONTINUOUS
 62
       3
100
AcDbLine
 10
-118.25264787
 20
29.7123775
 30
0.0
 11
-118.31127706
 21
30.02656712
 31
0.0
  0
LINE
  5
1CE
100
AcDbEntity
  8
レイヤー_1
  6
CONTINUOUS
 62
       3
100
AcDbLine
 10
-118.31127706
 20
30.02656712
 30
0.0
 11
-118.39723481
 21
30.33023824
 31
0.0
  0
LINE
  5
1CF
100
AcDbEntity
  8
レイヤー_1
  6
CONTINUOUS
 62
       3
100
AcDbLine
 10
-118.39723481
 20
30.33023824
 30
0.0
 11
-118.50917841
 21
30.6220453
 31
0.0
  0
LINE
  5
1D0
100
AcDbEntity
  8
レイヤー_1
  6
CONTINUOUS
 62
       3
100
AcDbLine
 10
-118.50917841
 20
30.6220453
 30
0.0
 11
-118.6457652
 21
30.90064272
 31
0.0
  0
LINE
  5
1D1
100
AcDbEntity
  8
レイヤー_1
  6
CONTINUOUS
 62
       3
100
AcDbLine
 10
-118.6457652
 20
30.90064272
 30
0.0
 11
-118.80565248
 21
31.16468492
 31
0.0
  0
LINE
  5
1D2
100
AcDbEntity
  8
レイヤー_1
  6
CONTINUOUS
 62
       3
100
AcDbLine
 10
-118.80565248
 20
31.16468492
 30
0.0
 11
-118.98749758
 21
31.41282633
 31
0.0
  0
LINE
  5
1D3
100
AcDbEntity
  8
レイヤー_1
  6
CONTINUOUS
 62
       3
100
AcDbLine
 10
-118.98749758
 20
31.41282633
 30
0.0
 11
-119.18995781
 21
31.64372137
 31
0.0
  0
LINE
  5
1D4
100
AcDbEntity
  8
レイヤー_1
  6
CONTINUOUS
 62
       3
100
AcDbLine
 10
-119.18995781
 20
31.64372137
 30
0.0
 11
-119.41169048
 21
31.85602447
 31
0.0
  0
LINE
  5
1D5
100
AcDbEntity
  8
レイヤー_1
  6
CONTINUOUS
 62
       3
100
AcDbLine
 10
-119.41169048
 20
31.85602447
 30
0.0
 11
-119.65135292
 21
32.04839004
 31
0.0
  0
LINE
  5
1D6
100
AcDbEntity
  8
レイヤー_1
  6
CONTINUOUS
 62
       3
100
AcDbLine
 10
-119.65135292
 20
32.04839004
 30
0.0
 11
-119.90760243
 21
32.21947252
 31
0.0
  0
LINE
  5
1D7
100
AcDbEntity
  8
レイヤー_1
  6
CONTINUOUS
 62
       3
100
AcDbLine
 10
-119.90760243
 20
32.21947252
 30
0.0
 11
-120.17909635
 21
32.36792633
 31
0.0
  0
LINE
  5
1D8
100
AcDbEntity
  8
レイヤー_1
  6
CONTINUOUS
 62
       3
100
AcDbLine
 10
-120.17909635
 20
32.36792633
 30
0.0
 11
-120.46449197
 21
32.49240588
 31
0.0
  0
LINE
  5
1D9
100
AcDbEntity
  8
レイヤー_1
  6
CONTINUOUS
 62
       3
100
AcDbLine
 10
-120.46449197
 20
32.49240588
 30
0.0
 11
-120.76244663
 21
32.59156561
 31
0.0
  0
LINE
  5
1DA
100
AcDbEntity
  8
レイヤー_1
  6
CONTINUOUS
 62
       3
100
AcDbLine
 10
-120.76244663
 20
32.59156561
 30
0.0
 11
-121.07161764
 21
32.66405994
 31
0.0
  0
LINE
  5
1DB
100
AcDbEntity
  8
レイヤー_1
  6
CONTINUOUS
 62
       3
100
AcDbLine
 10
-121.07161764
 20
32.66405994
 30
0.0
 11
-121.3906623
 21
32.7085433
 31
0.0
  0
LINE
  5
1DC
100
AcDbEntity
  8
レイヤー_1
  6
CONTINUOUS
 62
       3
100
AcDbLine
 10
-121.3906623
 20
32.7085433
 30
0.0
 11
-121.71823795
 21
32.7236701
 31
0.0
  0
LINE
  5
1DD
100
AcDbEntity
  8
レイヤー_1
  6
CONTINUOUS
 62
       3
100
AcDbLine
 10
-121.71823795
 20
32.7236701
 30
0.0
 11
-122.04582577
 21
32.7085433
 31
0.0
  0
LINE
  5
1DE
100
AcDbEntity
  8
レイヤー_1
  6
CONTINUOUS
 62
       3
100
AcDbLine
 10
-122.04582577
 20
32.7085433
 30
0.0
 11
-122.36490503
 21
32.66405994
 31
0.0
  0
LINE
  5
1DF
100
AcDbEntity
  8
レイヤー_1
  6
CONTINUOUS
 62
       3
100
AcDbLine
 10
-122.36490503
 20
32.66405994
 30
0.0
 11
-122.67413016
 21
32.59156561
 31
0.0
  0
LINE
  5
1E0
100
AcDbEntity
  8
レイヤー_1
  6
CONTINUOUS
 62
       3
100
AcDbLine
 10
-122.67413016
 20
32.59156561
 30
0.0
 11
-122.97215556
 21
32.49240588
 31
0.0
  0
LINE
  5
1E1
100
AcDbEntity
  8
レイヤー_1
  6
CONTINUOUS
 62
       3
100
AcDbLine
 10
-122.97215556
 20
32.49240588
 30
0.0
 11
-123.25763568
 21
32.36792633
 31
0.0
  0
LINE
  5
1E2
100
AcDbEntity
  8
レイヤー_1
  6
CONTINUOUS
 62
       3
100
AcDbLine
 10
-123.25763568
 20
32.36792633
 30
0.0
 11
-123.52922493
 21
32.21947252
 31
0.0
  0
LINE
  5
1E3
100
AcDbEntity
  8
レイヤー_1
  6
CONTINUOUS
 62
       3
100
AcDbLine
 10
-123.52922493
 20
32.21947252
 30
0.0
 11
-123.78557774
 21
32.04839004
 31
0.0
  0
LINE
  5
1E4
100
AcDbEntity
  8
レイヤー_1
  6
CONTINUOUS
 62
       3
100
AcDbLine
 10
-123.78557774
 20
32.04839004
 30
0.0
 11
-124.02534853
 21
31.85602447
 31
0.0
  0
LINE
  5
1E5
100
AcDbEntity
  8
レイヤー_1
  6
CONTINUOUS
 62
       3
100
AcDbLine
 10
-124.02534853
 20
31.85602447
 30
0.0
 11
-124.24719173
 21
31.64372137
 31
0.0
  0
LINE
  5
1E6
100
AcDbEntity
  8
レイヤー_1
  6
CONTINUOUS
 62
       3
100
AcDbLine
 10
-124.24719173
 20
31.64372137
 30
0.0
 11
-124.44976176
 21
31.41282633
 31
0.0
  0
LINE
  5
1E7
100
AcDbEntity
  8
レイヤー_1
  6
CONTINUOUS
 62
       3
100
AcDbLine
 10
-124.44976176
 20
31.41282633
 30
0.0
 11
-124.63171304
 21
31.16468492
 31
0.0
  0
LINE
  5
1E8
100
AcDbEntity
  8
レイヤー_1
  6
CONTINUOUS
 62
       3
100
AcDbLine
 10
-124.63171304
 20
31.16468492
 30
0.0
 11
-124.7917
 21
30.90064272
 31
0.0
  0
LINE
  5
1E9
100
AcDbEntity
  8
レイヤー_1
  6
CONTINUOUS
 62
       3
100
AcDbLine
 10
-124.7917
 20
30.90064272
 30
0.0
 11
-124.92837706
 21
30.6220453
 31
0.0
  0
LINE
  5
1EA
100
AcDbEntity
  8
レイヤー_1
  6
CONTINUOUS
 62
       3
100
AcDbLine
 10
-124.92837706
 20
30.6220453
 30
0.0
 11
-125.04039865
 21
30.33023824
 31
0.0
  0
LINE
  5
1EB
100
AcDbEntity
  8
レイヤー_1
  6
CONTINUOUS
 62
       3
100
AcDbLine
 10
-125.04039865
 20
30.33023824
 30
0.0
 11
-125.12641919
 21
30.02656712
 31
0.0
  0
LINE
  5
1EC
100
AcDbEntity
  8
レイヤー_1
  6
CONTINUOUS
 62
       3
100
AcDbLine
 10
-125.12641919
 20
30.02656712
 30
0.0
 11
-125.1850931
 21
29.7123775
 31
0.0
  0
LINE
  5
1ED
100
AcDbEntity
  8
レイヤー_1
  6
CONTINUOUS
 62
       3
100
AcDbLine
 10
-125.1850931
 20
29.7123775
 30
0.0
 11
-125.21507481
 21
29.38901497
 31
0.0
  0
LINE
  5
1EE
100
AcDbEntity
  8
レイヤー_1
  6
CONTINUOUS
 62
       3
100
AcDbLine
 10
-125.21507481
 20
29.38901497
 30
0.0
 11
-125.21507481
 21
29.05954098
 31
0.0
  0
LINE
  5
1EF
100
AcDbEntity
  8
レイヤー_1
  6
CONTINUOUS
 62
       3
100
AcDbLine
 10
-125.21507481
 20
29.05954098
 30
0.0
 11
-125.1850931
 21
28.73603924
 31
0.0
  0
LINE
  5
1F0
100
AcDbEntity
  8
レイヤー_1
  6
CONTINUOUS
 62
       3
100
AcDbLine
 10
-125.1850931
 20
28.73603924
 30
0.0
 11
-125.12641919
 21
28.42171885
 31
0.0
  0
LINE
  5
1F1
100
AcDbEntity
  8
レイヤー_1
  6
CONTINUOUS
 62
       3
100
AcDbLine
 10
-125.12641919
 20
28.42171885
 30
0.0
 11
-125.04039865
 21
28.11792539
 31
0.0
  0
LINE
  5
1F2
100
AcDbEntity
  8
レイヤー_1
  6
CONTINUOUS
 62
       3
100
AcDbLine
 10
-125.04039865
 20
28.11792539
 30
0.0
 11
-124.92837706
 21
27.82600443
 31
0.0
  0
LINE
  5
1F3
100
AcDbEntity
  8
レイヤー_1
  6
CONTINUOUS
 62
       3
100
AcDbLine
 10
-124.92837706
 20
27.82600443
 30
0.0
 11
-124.7917
 21
27.54730155
 31
0.0
  0
LINE
  5
1F4
100
AcDbEntity
  8
レイヤー_1
  6
CONTINUOUS
 62
       3
100
AcDbLine
 10
-124.7917
 20
27.54730155
 30
0.0
 11
-124.63171304
 21
27.28316232
 31
0.0
  0
LINE
  5
1F5
100
AcDbEntity
  8
レイヤー_1
  6
CONTINUOUS
 62
       3
100
AcDbLine
 10
-124.63171304
 20
27.28316232
 30
0.0
 11
-124.44976176
 21
27.03493232
 31
0.0
  0
LINE
  5
1F6
100
AcDbEntity
  8
レイヤー_1
  6
CONTINUOUS
 62
       3
100
AcDbLine
 10
-124.44976176
 20
27.03493232
 30
0.0
 11
-124.24719173
 21
26.80395713
 31
0.0
  0
LINE
  5
1F7
100
AcDbEntity
  8
レイヤー_1
  6
CONTINUOUS
 62
       3
100
AcDbLine
 10
-124.24719173
 20
26.80395713
 30
0.0
 11
-124.02534853
 21
26.59158232
 31
0.0
  0
LINE
  5
1F8
100
AcDbEntity
  8
レイヤー_1
  6
CONTINUOUS
 62
       3
100
AcDbLine
 10
-124.02534853
 20
26.59158232
 30
0.0
 11
-123.78557774
 21
26.39915347
 31
0.0
  0
LINE
  5
1F9
100
AcDbEntity
  8
レイヤー_1
  6
CONTINUOUS
 62
       3
100
AcDbLine
 10
-123.78557774
 20
26.39915347
 30
0.0
 11
-123.52922493
 21
26.22801615
 31
0.0
  0
LINE
  5
1FA
100
AcDbEntity
  8
レイヤー_1
  6
CONTINUOUS
 62
       3
100
AcDbLine
 10
-123.52922493
 20
26.22801615
 30
0.0
 11
-123.25763568
 21
26.07951595
 31
0.0
  0
LINE
  5
1FB
100
AcDbEntity
  8
レイヤー_1
  6
CONTINUOUS
 62
       3
100
AcDbLine
 10
-123.25763568
 20
26.07951595
 30
0.0
 11
-122.97215556
 21
25.95499842
 31
0.0
  0
LINE
  5
1FC
100
AcDbEntity
  8
レイヤー_1
  6
CONTINUOUS
 62
       3
100
AcDbLine
 10
-122.97215556
 20
25.95499842
 30
0.0
 11
-122.67413016
 21
25.85580916
 31
0.0
  0
LINE
  5
1FD
100
AcDbEntity
  8
レイヤー_1
  6
CONTINUOUS
 62
       3
100
AcDbLine
 10
-122.67413016
 20
25.85580916
 30
0.0
 11
-122.36490503
 21
25.78329374
 31
0.0
  0
LINE
  5
1FE
100
AcDbEntity
  8
レイヤー_1
  6
CONTINUOUS
 62
       3
100
AcDbLine
 10
-122.36490503
 20
25.78329374
 30
0.0
 11
-122.04582577
 21
25.73879773
 31
0.0
  0
LINE
  5
1FF
100
AcDbEntity
  8
レイヤー_1
  6
CONTINUOUS
 62
       3
100
AcDbLine
 10
-122.04582577
 20
25.73879773
 30
0.0
 11
-121.71823795
 21
25.72366671
 31
0.0
  0
LINE
  5
200
100
AcDbEntity
  8
レイヤー_1
  6
CONTINUOUS
 62
       3
100
AcDbLine
 10
-110.11817082
 20
25.72366671
 30
0.0
 11
-109.79072237
 21
25.73879773
 31
0.0
  0
LINE
  5
201
100
AcDbEntity
  8
レイヤー_1
  6
CONTINUOUS
 62
       3
100
AcDbLine
 10
-109.79072237
 20
25.73879773
 30
0.0
 11
-109.47176657
 21
25.78329374
 31
0.0
  0
LINE
  5
202
100
AcDbEntity
  8
レイヤー_1
  6
CONTINUOUS
 62
       3
100
AcDbLine
 10
-109.47176657
 20
25.78329374
 30
0.0
 11
-109.16264996
 21
25.85580916
 31
0.0
  0
LINE
  5
203
100
AcDbEntity
  8
レイヤー_1
  6
CONTINUOUS
 62
       3
100
AcDbLine
 10
-109.16264996
 20
25.85580916
 30
0.0
 11
-108.86471909
 21
25.95499842
 31
0.0
  0
LINE
  5
204
100
AcDbEntity
  8
レイヤー_1
  6
CONTINUOUS
 62
       3
100
AcDbLine
 10
-108.86471909
 20
25.95499842
 30
0.0
 11
-108.57932049
 21
26.07951595
 31
0.0
  0
LINE
  5
205
100
AcDbEntity
  8
レイヤー_1
  6
CONTINUOUS
 62
       3
100
AcDbLine
 10
-108.57932049
 20
26.07951595
 30
0.0
 11
-108.3078007
 21
26.22801615
 31
0.0
  0
LINE
  5
206
100
AcDbEntity
  8
レイヤー_1
  6
CONTINUOUS
 62
       3
100
AcDbLine
 10
-108.3078007
 20
26.22801615
 30
0.0
 11
-108.05150627
 21
26.39915347
 31
0.0
  0
LINE
  5
207
100
AcDbEntity
  8
レイヤー_1
  6
CONTINUOUS
 62
       3
100
AcDbLine
 10
-108.05150627
 20
26.39915347
 30
0.0
 11
-107.81178373
 21
26.59158232
 31
0.0
  0
LINE
  5
208
100
AcDbEntity
  8
レイヤー_1
  6
CONTINUOUS
 62
       3
100
AcDbLine
 10
-107.81178373
 20
26.59158232
 30
0.0
 11
-107.58997962
 21
26.80395713
 31
0.0
  0
LINE
  5
209
100
AcDbEntity
  8
レイヤー_1
  6
CONTINUOUS
 62
       3
100
AcDbLine
 10
-107.58997962
 20
26.80395713
 30
0.0
 11
-107.38744049
 21
27.03493232
 31
0.0
  0
LINE
  5
20A
100
AcDbEntity
  8
レイヤー_1
  6
CONTINUOUS
 62
       3
100
AcDbLine
 10
-107.38744049
 20
27.03493232
 30
0.0
 11
-107.20551287
 21
27.28316232
 31
0.0
  0
LINE
  5
20B
100
AcDbEntity
  8
レイヤー_1
  6
CONTINUOUS
 62
       3
100
AcDbLine
 10
-107.20551287
 20
27.28316232
 30
0.0
 11
-107.04554331
 21
27.54730155
 31
0.0
  0
LINE
  5
20C
100
AcDbEntity
  8
レイヤー_1
  6
CONTINUOUS
 62
       3
100
AcDbLine
 10
-107.04554331
 20
27.54730155
 30
0.0
 11
-106.90887834
 21
27.82600443
 31
0.0
  0
LINE
  5
20D
100
AcDbEntity
  8
レイヤー_1
  6
CONTINUOUS
 62
       3
100
AcDbLine
 10
-106.90887834
 20
27.82600443
 30
0.0
 11
-106.7968645
 21
28.11792539
 31
0.0
  0
LINE
  5
20E
100
AcDbEntity
  8
レイヤー_1
  6
CONTINUOUS
 62
       3
100
AcDbLine
 10
-106.7968645
 20
28.11792539
 30
0.0
 11
-106.71084834
 21
28.42171885
 31
0.0
  0
LINE
  5
20F
100
AcDbEntity
  8
レイヤー_1
  6
CONTINUOUS
 62
       3
100
AcDbLine
 10
-106.71084834
 20
28.42171885
 30
0.0
 11
-106.6521764
 21
28.73603924
 31
0.0
  0
LINE
  5
210
100
AcDbEntity
  8
レイヤー_1
  6
CONTINUOUS
 62
       3
100
AcDbLine
 10
-106.6521764
 20
28.73603924
 30
0.0
 11
-106.62219521
 21
29.05954098
 31
0.0
  0
LINE
  5
211
100
AcDbEntity
  8
レイヤー_1
  6
CONTINUOUS
 62
       3
100
AcDbLine
 10
-106.62219521
 20
29.05954098
 30
0.0
 11
-106.62219521
 21
29.38901497
 31
0.0
  0
LINE
  5
212
100
AcDbEntity
  8
レイヤー_1
  6
CONTINUOUS
 62
       3
100
AcDbLine
 10
-106.62219521
 20
29.38901497
 30
0.0
 11
-106.6521764
 21
29.7123775
 31
0.0
  0
LINE
  5
213
100
AcDbEntity
  8
レイヤー_1
  6
CONTINUOUS
 62
       3
100
AcDbLine
 10
-106.6521764
 20
29.7123775
 30
0.0
 11
-106.71084834
 21
30.02656712
 31
0.0
  0
LINE
  5
214
100
AcDbEntity
  8
レイヤー_1
  6
CONTINUOUS
 62
       3
100
AcDbLine
 10
-106.71084834
 20
30.02656712
 30
0.0
 11
-106.7968645
 21
30.33023824
 31
0.0
  0
LINE
  5
215
100
AcDbEntity
  8
レイヤー_1
  6
CONTINUOUS
 62
       3
100
AcDbLine
 10
-106.7968645
 20
30.33023824
 30
0.0
 11
-106.90887834
 21
30.6220453
 31
0.0
  0
LINE
  5
216
100
AcDbEntity
  8
レイヤー_1
  6
CONTINUOUS
 62
       3
100
AcDbLine
 10
-106.90887834
 20
30.6220453
 30
0.0
 11
-107.04554331
 21
30.90064272
 31
0.0
  0
LINE
  5
217
100
AcDbEntity
  8
レイヤー_1
  6
CONTINUOUS
 62
       3
100
AcDbLine
 10
-107.04554331
 20
30.90064272
 30
0.0
 11
-107.20551287
 21
31.16468492
 31
0.0
  0
LINE
  5
218
100
AcDbEntity
  8
レイヤー_1
  6
CONTINUOUS
 62
       3
100
AcDbLine
 10
-107.20551287
 20
31.16468492
 30
0.0
 11
-107.38744049
 21
31.41282633
 31
0.0
  0
LINE
  5
219
100
AcDbEntity
  8
レイヤー_1
  6
CONTINUOUS
 62
       3
100
AcDbLine
 10
-107.38744049
 20
31.41282633
 30
0.0
 11
-107.58997962
 21
31.64372137
 31
0.0
  0
LINE
  5
21A
100
AcDbEntity
  8
レイヤー_1
  6
CONTINUOUS
 62
       3
100
AcDbLine
 10
-107.58997962
 20
31.64372137
 30
0.0
 11
-107.81178373
 21
31.85602447
 31
0.0
  0
LINE
  5
21B
100
AcDbEntity
  8
レイヤー_1
  6
CONTINUOUS
 62
       3
100
AcDbLine
 10
-107.81178373
 20
31.85602447
 30
0.0
 11
-108.05150627
 21
32.04839004
 31
0.0
  0
LINE
  5
21C
100
AcDbEntity
  8
レイヤー_1
  6
CONTINUOUS
 62
       3
100
AcDbLine
 10
-108.05150627
 20
32.04839004
 30
0.0
 11
-108.3078007
 21
32.21947252
 31
0.0
  0
LINE
  5
21D
100
AcDbEntity
  8
レイヤー_1
  6
CONTINUOUS
 62
       3
100
AcDbLine
 10
-108.3078007
 20
32.21947252
 30
0.0
 11
-108.57932049
 21
32.36792633
 31
0.0
  0
LINE
  5
21E
100
AcDbEntity
  8
レイヤー_1
  6
CONTINUOUS
 62
       3
100
AcDbLine
 10
-108.57932049
 20
32.36792633
 30
0.0
 11
-108.86471909
 21
32.49240588
 31
0.0
  0
LINE
  5
21F
100
AcDbEntity
  8
レイヤー_1
  6
CONTINUOUS
 62
       3
100
AcDbLine
 10
-108.86471909
 20
32.49240588
 30
0.0
 11
-109.16264996
 21
32.59156561
 31
0.0
  0
LINE
  5
220
100
AcDbEntity
  8
レイヤー_1
  6
CONTINUOUS
 62
       3
100
AcDbLine
 10
-109.16264996
 20
32.59156561
 30
0.0
 11
-109.47176657
 21
32.66405994
 31
0.0
  0
LINE
  5
221
100
AcDbEntity
  8
レイヤー_1
  6
CONTINUOUS
 62
       3
100
AcDbLine
 10
-109.47176657
 20
32.66405994
 30
0.0
 11
-109.79072237
 21
32.7085433
 31
0.0
  0
LINE
  5
222
100
AcDbEntity
  8
レイヤー_1
  6
CONTINUOUS
 62
       3
100
AcDbLine
 10
-109.79072237
 20
32.7085433
 30
0.0
 11
-110.11817082
 21
32.7236701
 31
0.0
  0
LINE
  5
223
100
AcDbEntity
  8
レイヤー_1
  6
CONTINUOUS
 62
       3
100
AcDbLine
 10
-110.11817082
 20
32.7236701
 30
0.0
 11
-110.44574647
 21
32.7085433
 31
0.0
  0
LINE
  5
224
100
AcDbEntity
  8
レイヤー_1
  6
CONTINUOUS
 62
       3
100
AcDbLine
 10
-110.44574647
 20
32.7085433
 30
0.0
 11
-110.76479113
 21
32.66405994
 31
0.0
  0
LINE
  5
225
100
AcDbEntity
  8
レイヤー_1
  6
CONTINUOUS
 62
       3
100
AcDbLine
 10
-110.76479113
 20
32.66405994
 30
0.0
 11
-111.07396214
 21
32.59156561
 31
0.0
  0
LINE
  5
226
100
AcDbEntity
  8
レイヤー_1
  6
CONTINUOUS
 62
       3
100
AcDbLine
 10
-111.07396214
 20
32.59156561
 30
0.0
 11
-111.3719168
 21
32.49240588
 31
0.0
  0
LINE
  5
227
100
AcDbEntity
  8
レイヤー_1
  6
CONTINUOUS
 62
       3
100
AcDbLine
 10
-111.3719168
 20
32.49240588
 30
0.0
 11
-111.65731242
 21
32.36792633
 31
0.0
  0
LINE
  5
228
100
AcDbEntity
  8
レイヤー_1
  6
CONTINUOUS
 62
       3
100
AcDbLine
 10
-111.65731242
 20
32.36792633
 30
0.0
 11
-111.92880634
 21
32.21947252
 31
0.0
  0
LINE
  5
229
100
AcDbEntity
  8
レイヤー_1
  6
CONTINUOUS
 62
       3
100
AcDbLine
 10
-111.92880634
 20
32.21947252
 30
0.0
 11
-112.18505585
 21
32.04839004
 31
0.0
  0
LINE
  5
22A
100
AcDbEntity
  8
レイヤー_1
  6
CONTINUOUS
 62
       3
100
AcDbLine
 10
-112.18505585
 20
32.04839004
 30
0.0
 11
-112.42471829
 21
31.85602447
 31
0.0
  0
LINE
  5
22B
100
AcDbEntity
  8
レイヤー_1
  6
CONTINUOUS
 62
       3
100
AcDbLine
 10
-112.42471829
 20
31.85602447
 30
0.0
 11
-112.64645096
 21
31.64372137
 31
0.0
  0
LINE
  5
22C
100
AcDbEntity
  8
レイヤー_1
  6
CONTINUOUS
 62
       3
100
AcDbLine
 10
-112.64645096
 20
31.64372137
 30
0.0
 11
-112.84891119
 21
31.41282633
 31
0.0
  0
LINE
  5
22D
100
AcDbEntity
  8
レイヤー_1
  6
CONTINUOUS
 62
       3
100
AcDbLine
 10
-112.84891119
 20
31.41282633
 30
0.0
 11
-113.03075629
 21
31.16468492
 31
0.0
  0
LINE
  5
22E
100
AcDbEntity
  8
レイヤー_1
  6
CONTINUOUS
 62
       3
100
AcDbLine
 10
-113.03075629
 20
31.16468492
 30
0.0
 11
-113.19064357
 21
30.90064272
 31
0.0
  0
LINE
  5
22F
100
AcDbEntity
  8
レイヤー_1
  6
CONTINUOUS
 62
       3
100
AcDbLine
 10
-113.19064357
 20
30.90064272
 30
0.0
 11
-113.32723036
 21
30.6220453
 31
0.0
  0
LINE
  5
230
100
AcDbEntity
  8
レイヤー_1
  6
CONTINUOUS
 62
       3
100
AcDbLine
 10
-113.32723036
 20
30.6220453
 30
0.0
 11
-113.43917396
 21
30.33023824
 31
0.0
  0
LINE
  5
231
100
AcDbEntity
  8
レイヤー_1
  6
CONTINUOUS
 62
       3
100
AcDbLine
 10
-113.43917396
 20
30.33023824
 30
0.0
 11
-113.52513171
 21
30.02656712
 31
0.0
  0
LINE
  5
232
100
AcDbEntity
  8
レイヤー_1
  6
CONTINUOUS
 62
       3
100
AcDbLine
 10
-113.52513171
 20
30.02656712
 30
0.0
 11
-113.5837609
 21
29.7123775
 31
0.0
  0
LINE
  5
233
100
AcDbEntity
  8
レイヤー_1
  6
CONTINUOUS
 62
       3
100
AcDbLine
 10
-113.5837609
 20
29.7123775
 30
0.0
 11
-113.61371887
 21
29.38901497
 31
0.0
  0
LINE
  5
234
100
AcDbEntity
  8
レイヤー_1
  6
CONTINUOUS
 62
       3
100
AcDbLine
 10
-113.61371887
 20
29.38901497
 30
0.0
 11
-113.61371887
 21
29.05954098
 31
0.0
  0
LINE
  5
235
100
AcDbEntity
  8
レイヤー_1
  6
CONTINUOUS
 62
       3
100
AcDbLine
 10
-113.61371887
 20
29.05954098
 30
0.0
 11
-113.5837609
 21
28.73603924
 31
0.0
  0
LINE
  5
236
100
AcDbEntity
  8
レイヤー_1
  6
CONTINUOUS
 62
       3
100
AcDbLine
 10
-113.5837609
 20
28.73603924
 30
0.0
 11
-113.52513171
 21
28.42171885
 31
0.0
  0
LINE
  5
237
100
AcDbEntity
  8
レイヤー_1
  6
CONTINUOUS
 62
       3
100
AcDbLine
 10
-113.52513171
 20
28.42171885
 30
0.0
 11
-113.43917396
 21
28.11792539
 31
0.0
  0
LINE
  5
238
100
AcDbEntity
  8
レイヤー_1
  6
CONTINUOUS
 62
       3
100
AcDbLine
 10
-113.43917396
 20
28.11792539
 30
0.0
 11
-113.32723036
 21
27.82600443
 31
0.0
  0
LINE
  5
239
100
AcDbEntity
  8
レイヤー_1
  6
CONTINUOUS
 62
       3
100
AcDbLine
 10
-113.32723036
 20
27.82600443
 30
0.0
 11
-113.19064357
 21
27.54730155
 31
0.0
  0
LINE
  5
23A
100
AcDbEntity
  8
レイヤー_1
  6
CONTINUOUS
 62
       3
100
AcDbLine
 10
-113.19064357
 20
27.54730155
 30
0.0
 11
-113.03075629
 21
27.28316232
 31
0.0
  0
LINE
  5
23B
100
AcDbEntity
  8
レイヤー_1
  6
CONTINUOUS
 62
       3
100
AcDbLine
 10
-113.03075629
 20
27.28316232
 30
0.0
 11
-112.84891119
 21
27.03493232
 31
0.0
  0
LINE
  5
23C
100
AcDbEntity
  8
レイヤー_1
  6
CONTINUOUS
 62
       3
100
AcDbLine
 10
-112.84891119
 20
27.03493232
 30
0.0
 11
-112.64645096
 21
26.80395713
 31
0.0
  0
LINE
  5
23D
100
AcDbEntity
  8
レイヤー_1
  6
CONTINUOUS
 62
       3
100
AcDbLine
 10
-112.64645096
 20
26.80395713
 30
0.0
 11
-112.42471829
 21
26.59158232
 31
0.0
  0
LINE
  5
23E
100
AcDbEntity
  8
レイヤー_1
  6
CONTINUOUS
 62
       3
100
AcDbLine
 10
-112.42471829
 20
26.59158232
 30
0.0
 11
-112.18505585
 21
26.39915347
 31
0.0
  0
LINE
  5
23F
100
AcDbEntity
  8
レイヤー_1
  6
CONTINUOUS
 62
       3
100
AcDbLine
 10
-112.18505585
 20
26.39915347
 30
0.0
 11
-111.92880634
 21
26.22801615
 31
0.0
  0
LINE
  5
240
100
AcDbEntity
  8
レイヤー_1
  6
CONTINUOUS
 62
       3
100
AcDbLine
 10
-111.92880634
 20
26.22801615
 30
0.0
 11
-111.65731242
 21
26.07951595
 31
0.0
  0
LINE
  5
241
100
AcDbEntity
  8
レイヤー_1
  6
CONTINUOUS
 62
       3
100
AcDbLine
 10
-111.65731242
 20
26.07951595
 30
0.0
 11
-111.3719168
 21
25.95499842
 31
0.0
  0
LINE
  5
242
100
AcDbEntity
  8
レイヤー_1
  6
CONTINUOUS
 62
       3
100
AcDbLine
 10
-111.3719168
 20
25.95499842
 30
0.0
 11
-111.07396214
 21
25.85580916
 31
0.0
  0
LINE
  5
243
100
AcDbEntity
  8
レイヤー_1
  6
CONTINUOUS
 62
       3
100
AcDbLine
 10
-111.07396214
 20
25.85580916
 30
0.0
 11
-110.76479113
 21
25.78329374
 31
0.0
  0
LINE
  5
244
100
AcDbEntity
  8
レイヤー_1
  6
CONTINUOUS
 62
       3
100
AcDbLine
 10
-110.76479113
 20
25.78329374
 30
0.0
 11
-110.44574647
 21
25.73879773
 31
0.0
  0
LINE
  5
245
100
AcDbEntity
  8
レイヤー_1
  6
CONTINUOUS
 62
       3
100
AcDbLine
 10
-110.44574647
 20
25.73879773
 30
0.0
 11
-110.11817082
 21
25.72366671
 31
0.0
  0
LINE
  5
246
100
AcDbEntity
  8
レイヤー_1
  6
CONTINUOUS
 62
       3
100
AcDbLine
 10
-98.51767304
 20
25.72366671
 30
0.0
 11
-98.19022865
 21
25.73879773
 31
0.0
  0
LINE
  5
247
100
AcDbEntity
  8
レイヤー_1
  6
CONTINUOUS
 62
       3
100
AcDbLine
 10
-98.19022865
 20
25.73879773
 30
0.0
 11
-97.87128438
 21
25.78329374
 31
0.0
  0
LINE
  5
248
100
AcDbEntity
  8
レイヤー_1
  6
CONTINUOUS
 62
       3
100
AcDbLine
 10
-97.87128438
 20
25.78329374
 30
0.0
 11
-97.56218581
 21
25.85580916
 31
0.0
  0
LINE
  5
249
100
AcDbEntity
  8
レイヤー_1
  6
CONTINUOUS
 62
       3
100
AcDbLine
 10
-97.56218581
 20
25.85580916
 30
0.0
 11
-97.26427853
 21
25.95499842
 31
0.0
  0
LINE
  5
24A
100
AcDbEntity
  8
レイヤー_1
  6
CONTINUOUS
 62
       3
100
AcDbLine
 10
-97.26427853
 20
25.95499842
 30
0.0
 11
-96.97890809
 21
26.07951595
 31
0.0
  0
LINE
  5
24B
100
AcDbEntity
  8
レイヤー_1
  6
CONTINUOUS
 62
       3
100
AcDbLine
 10
-96.97890809
 20
26.07951595
 30
0.0
 11
-96.70742008
 21
26.22801615
 31
0.0
  0
LINE
  5
24C
100
AcDbEntity
  8
レイヤー_1
  6
CONTINUOUS
 62
       3
100
AcDbLine
 10
-96.70742008
 20
26.22801615
 30
0.0
 11
-96.45116008
 21
26.39915347
 31
0.0
  0
LINE
  5
24D
100
AcDbEntity
  8
レイヤー_1
  6
CONTINUOUS
 62
       3
100
AcDbLine
 10
-96.45116008
 20
26.39915347
 30
0.0
 11
-96.21147366
 21
26.59158232
 31
0.0
  0
LINE
  5
24E
100
AcDbEntity
  8
レイヤー_1
  6
CONTINUOUS
 62
       3
100
AcDbLine
 10
-96.21147366
 20
26.59158232
 30
0.0
 11
-95.98970639
 21
26.80395713
 31
0.0
  0
LINE
  5
24F
100
AcDbEntity
  8
レイヤー_1
  6
CONTINUOUS
 62
       3
100
AcDbLine
 10
-95.98970639
 20
26.80395713
 30
0.0
 11
-95.78720386
 21
27.03493232
 31
0.0
  0
LINE
  5
250
100
AcDbEntity
  8
レイヤー_1
  6
CONTINUOUS
 62
       3
100
AcDbLine
 10
-95.78720386
 20
27.03493232
 30
0.0
 11
-95.60531164
 21
27.28316232
 31
0.0
  0
LINE
  5
251
100
AcDbEntity
  8
レイヤー_1
  6
CONTINUOUS
 62
       3
100
AcDbLine
 10
-95.60531164
 20
27.28316232
 30
0.0
 11
-95.4453753
 21
27.54730155
 31
0.0
  0
LINE
  5
252
100
AcDbEntity
  8
レイヤー_1
  6
CONTINUOUS
 62
       3
100
AcDbLine
 10
-95.4453753
 20
27.54730155
 30
0.0
 11
-95.30874042
 21
27.82600443
 31
0.0
  0
LINE
  5
253
100
AcDbEntity
  8
レイヤー_1
  6
CONTINUOUS
 62
       3
100
AcDbLine
 10
-95.30874042
 20
27.82600443
 30
0.0
 11
-95.19675258
 21
28.11792539
 31
0.0
  0
LINE
  5
254
100
AcDbEntity
  8
レイヤー_1
  6
CONTINUOUS
 62
       3
100
AcDbLine
 10
-95.19675258
 20
28.11792539
 30
0.0
 11
-95.11075735
 21
28.42171885
 31
0.0
  0
LINE
  5
255
100
AcDbEntity
  8
レイヤー_1
  6
CONTINUOUS
 62
       3
100
AcDbLine
 10
-95.11075735
 20
28.42171885
 30
0.0
 11
-95.05210031
 21
28.73603924
 31
0.0
  0
LINE
  5
256
100
AcDbEntity
  8
レイヤー_1
  6
CONTINUOUS
 62
       3
100
AcDbLine
 10
-95.05210031
 20
28.73603924
 30
0.0
 11
-95.02212704
 21
29.05954098
 31
0.0
  0
LINE
  5
257
100
AcDbEntity
  8
レイヤー_1
  6
CONTINUOUS
 62
       3
100
AcDbLine
 10
-95.02212704
 20
29.05954098
 30
0.0
 11
-95.02212704
 21
29.38901497
 31
0.0
  0
LINE
  5
258
100
AcDbEntity
  8
レイヤー_1
  6
CONTINUOUS
 62
       3
100
AcDbLine
 10
-95.02212704
 20
29.38901497
 30
0.0
 11
-95.05210031
 21
29.7123775
 31
0.0
  0
LINE
  5
259
100
AcDbEntity
  8
レイヤー_1
  6
CONTINUOUS
 62
       3
100
AcDbLine
 10
-95.05210031
 20
29.7123775
 30
0.0
 11
-95.11075735
 21
30.02656712
 31
0.0
  0
LINE
  5
25A
100
AcDbEntity
  8
レイヤー_1
  6
CONTINUOUS
 62
       3
100
AcDbLine
 10
-95.11075735
 20
30.02656712
 30
0.0
 11
-95.19675258
 21
30.33023824
 31
0.0
  0
LINE
  5
25B
100
AcDbEntity
  8
レイヤー_1
  6
CONTINUOUS
 62
       3
100
AcDbLine
 10
-95.19675258
 20
30.33023824
 30
0.0
 11
-95.30874042
 21
30.6220453
 31
0.0
  0
LINE
  5
25C
100
AcDbEntity
  8
レイヤー_1
  6
CONTINUOUS
 62
       3
100
AcDbLine
 10
-95.30874042
 20
30.6220453
 30
0.0
 11
-95.4453753
 21
30.90064272
 31
0.0
  0
LINE
  5
25D
100
AcDbEntity
  8
レイヤー_1
  6
CONTINUOUS
 62
       3
100
AcDbLine
 10
-95.4453753
 20
30.90064272
 30
0.0
 11
-95.60531164
 21
31.16468492
 31
0.0
  0
LINE
  5
25E
100
AcDbEntity
  8
レイヤー_1
  6
CONTINUOUS
 62
       3
100
AcDbLine
 10
-95.60531164
 20
31.16468492
 30
0.0
 11
-95.78720386
 21
31.41282633
 31
0.0
  0
LINE
  5
25F
100
AcDbEntity
  8
レイヤー_1
  6
CONTINUOUS
 62
       3
100
AcDbLine
 10
-95.78720386
 20
31.41282633
 30
0.0
 11
-95.98970639
 21
31.64372137
 31
0.0
  0
LINE
  5
260
100
AcDbEntity
  8
レイヤー_1
  6
CONTINUOUS
 62
       3
100
AcDbLine
 10
-95.98970639
 20
31.64372137
 30
0.0
 11
-96.21147366
 21
31.85602447
 31
0.0
  0
LINE
  5
261
100
AcDbEntity
  8
レイヤー_1
  6
CONTINUOUS
 62
       3
100
AcDbLine
 10
-96.21147366
 20
31.85602447
 30
0.0
 11
-96.45116008
 21
32.04839004
 31
0.0
  0
LINE
  5
262
100
AcDbEntity
  8
レイヤー_1
  6
CONTINUOUS
 62
       3
100
AcDbLine
 10
-96.45116008
 20
32.04839004
 30
0.0
 11
-96.70742008
 21
32.21947252
 31
0.0
  0
LINE
  5
263
100
AcDbEntity
  8
レイヤー_1
  6
CONTINUOUS
 62
       3
100
AcDbLine
 10
-96.70742008
 20
32.21947252
 30
0.0
 11
-96.97890809
 21
32.36792633
 31
0.0
  0
LINE
  5
264
100
AcDbEntity
  8
レイヤー_1
  6
CONTINUOUS
 62
       3
100
AcDbLine
 10
-96.97890809
 20
32.36792633
 30
0.0
 11
-97.26427853
 21
32.49240588
 31
0.0
  0
LINE
  5
265
100
AcDbEntity
  8
レイヤー_1
  6
CONTINUOUS
 62
       3
100
AcDbLine
 10
-97.26427853
 20
32.49240588
 30
0.0
 11
-97.56218581
 21
32.59156561
 31
0.0
  0
LINE
  5
266
100
AcDbEntity
  8
レイヤー_1
  6
CONTINUOUS
 62
       3
100
AcDbLine
 10
-97.56218581
 20
32.59156561
 30
0.0
 11
-97.87128438
 21
32.66405994
 31
0.0
  0
LINE
  5
267
100
AcDbEntity
  8
レイヤー_1
  6
CONTINUOUS
 62
       3
100
AcDbLine
 10
-97.87128438
 20
32.66405994
 30
0.0
 11
-98.19022865
 21
32.7085433
 31
0.0
  0
LINE
  5
268
100
AcDbEntity
  8
レイヤー_1
  6
CONTINUOUS
 62
       3
100
AcDbLine
 10
-98.19022865
 20
32.7085433
 30
0.0
 11
-98.51767304
 21
32.7236701
 31
0.0
  0
LINE
  5
269
100
AcDbEntity
  8
レイヤー_1
  6
CONTINUOUS
 62
       3
100
AcDbLine
 10
-98.51767304
 20
32.7236701
 30
0.0
 11
-98.84532649
 21
32.7085433
 31
0.0
  0
LINE
  5
26A
100
AcDbEntity
  8
レイヤー_1
  6
CONTINUOUS
 62
       3
100
AcDbLine
 10
-98.84532649
 20
32.7085433
 30
0.0
 11
-99.16445595
 21
32.66405994
 31
0.0
  0
LINE
  5
26B
100
AcDbEntity
  8
レイヤー_1
  6
CONTINUOUS
 62
       3
100
AcDbLine
 10
-99.16445595
 20
32.66405994
 30
0.0
 11
-99.47371729
 21
32.59156561
 31
0.0
  0
LINE
  5
26C
100
AcDbEntity
  8
レイヤー_1
  6
CONTINUOUS
 62
       3
100
AcDbLine
 10
-99.47371729
 20
32.59156561
 30
0.0
 11
-99.77176638
 21
32.49240588
 31
0.0
  0
LINE
  5
26D
100
AcDbEntity
  8
レイヤー_1
  6
CONTINUOUS
 62
       3
100
AcDbLine
 10
-99.77176638
 20
32.49240588
 30
0.0
 11
-100.0572591
 21
32.36792633
 31
0.0
  0
LINE
  5
26E
100
AcDbEntity
  8
レイヤー_1
  6
CONTINUOUS
 62
       3
100
AcDbLine
 10
-100.0572591
 20
32.36792633
 30
0.0
 11
-100.3288513
 21
32.21947252
 31
0.0
  0
LINE
  5
26F
100
AcDbEntity
  8
レイヤー_1
  6
CONTINUOUS
 62
       3
100
AcDbLine
 10
-100.3288513
 20
32.21947252
 30
0.0
 11
-100.58519887
 21
32.04839004
 31
0.0
  0
LINE
  5
270
100
AcDbEntity
  8
レイヤー_1
  6
CONTINUOUS
 62
       3
100
AcDbLine
 10
-100.58519887
 20
32.04839004
 30
0.0
 11
-100.82495767
 21
31.85602447
 31
0.0
  0
LINE
  5
271
100
AcDbEntity
  8
レイヤー_1
  6
CONTINUOUS
 62
       3
100
AcDbLine
 10
-100.82495767
 20
31.85602447
 30
0.0
 11
-101.04678357
 21
31.64372137
 31
0.0
  0
LINE
  5
272
100
AcDbEntity
  8
レイヤー_1
  6
CONTINUOUS
 62
       3
100
AcDbLine
 10
-101.04678357
 20
31.64372137
 30
0.0
 11
-101.24933244
 21
31.41282633
 31
0.0
  0
LINE
  5
273
100
AcDbEntity
  8
レイヤー_1
  6
CONTINUOUS
 62
       3
100
AcDbLine
 10
-101.24933244
 20
31.41282633
 30
0.0
 11
-101.43126016
 21
31.16468492
 31
0.0
  0
LINE
  5
274
100
AcDbEntity
  8
レイヤー_1
  6
CONTINUOUS
 62
       3
100
AcDbLine
 10
-101.43126016
 20
31.16468492
 30
0.0
 11
-101.59122259
 21
30.90064272
 31
0.0
  0
LINE
  5
275
100
AcDbEntity
  8
レイヤー_1
  6
CONTINUOUS
 62
       3
100
AcDbLine
 10
-101.59122259
 20
30.90064272
 30
0.0
 11
-101.72787561
 21
30.6220453
 31
0.0
  0
LINE
  5
276
100
AcDbEntity
  8
レイヤー_1
  6
CONTINUOUS
 62
       3
100
AcDbLine
 10
-101.72787561
 20
30.6220453
 30
0.0
 11
-101.83987508
 21
30.33023824
 31
0.0
  0
LINE
  5
277
100
AcDbEntity
  8
レイヤー_1
  6
CONTINUOUS
 62
       3
100
AcDbLine
 10
-101.83987508
 20
30.33023824
 30
0.0
 11
-101.92587688
 21
30.02656712
 31
0.0
  0
LINE
  5
278
100
AcDbEntity
  8
レイヤー_1
  6
CONTINUOUS
 62
       3
100
AcDbLine
 10
-101.92587688
 20
30.02656712
 30
0.0
 11
-101.98453687
 21
29.7123775
 31
0.0
  0
LINE
  5
279
100
AcDbEntity
  8
レイヤー_1
  6
CONTINUOUS
 62
       3
100
AcDbLine
 10
-101.98453687
 20
29.7123775
 30
0.0
 11
-102.01451093
 21
29.38901497
 31
0.0
  0
LINE
  5
27A
100
AcDbEntity
  8
レイヤー_1
  6
CONTINUOUS
 62
       3
100
AcDbLine
 10
-102.01451093
 20
29.38901497
 30
0.0
 11
-102.01451093
 21
29.05954098
 31
0.0
  0
LINE
  5
27B
100
AcDbEntity
  8
レイヤー_1
  6
CONTINUOUS
 62
       3
100
AcDbLine
 10
-102.01451093
 20
29.05954098
 30
0.0
 11
-101.98453687
 21
28.73603924
 31
0.0
  0
LINE
  5
27C
100
AcDbEntity
  8
レイヤー_1
  6
CONTINUOUS
 62
       3
100
AcDbLine
 10
-101.98453687
 20
28.73603924
 30
0.0
 11
-101.92587688
 21
28.42171885
 31
0.0
  0
LINE
  5
27D
100
AcDbEntity
  8
レイヤー_1
  6
CONTINUOUS
 62
       3
100
AcDbLine
 10
-101.92587688
 20
28.42171885
 30
0.0
 11
-101.83987508
 21
28.11792539
 31
0.0
  0
LINE
  5
27E
100
AcDbEntity
  8
レイヤー_1
  6
CONTINUOUS
 62
       3
100
AcDbLine
 10
-101.83987508
 20
28.11792539
 30
0.0
 11
-101.72787561
 21
27.82600443
 31
0.0
  0
LINE
  5
27F
100
AcDbEntity
  8
レイヤー_1
  6
CONTINUOUS
 62
       3
100
AcDbLine
 10
-101.72787561
 20
27.82600443
 30
0.0
 11
-101.59122259
 21
27.54730155
 31
0.0
  0
LINE
  5
280
100
AcDbEntity
  8
レイヤー_1
  6
CONTINUOUS
 62
       3
100
AcDbLine
 10
-101.59122259
 20
27.54730155
 30
0.0
 11
-101.43126016
 21
27.28316232
 31
0.0
  0
LINE
  5
281
100
AcDbEntity
  8
レイヤー_1
  6
CONTINUOUS
 62
       3
100
AcDbLine
 10
-101.43126016
 20
27.28316232
 30
0.0
 11
-101.24933244
 21
27.03493232
 31
0.0
  0
LINE
  5
282
100
AcDbEntity
  8
レイヤー_1
  6
CONTINUOUS
 62
       3
100
AcDbLine
 10
-101.24933244
 20
27.03493232
 30
0.0
 11
-101.04678357
 21
26.80395713
 31
0.0
  0
LINE
  5
283
100
AcDbEntity
  8
レイヤー_1
  6
CONTINUOUS
 62
       3
100
AcDbLine
 10
-101.04678357
 20
26.80395713
 30
0.0
 11
-100.82495767
 21
26.59158232
 31
0.0
  0
LINE
  5
284
100
AcDbEntity
  8
レイヤー_1
  6
CONTINUOUS
 62
       3
100
AcDbLine
 10
-100.82495767
 20
26.59158232
 30
0.0
 11
-100.58519887
 21
26.39915347
 31
0.0
  0
LINE
  5
285
100
AcDbEntity
  8
レイヤー_1
  6
CONTINUOUS
 62
       3
100
AcDbLine
 10
-100.58519887
 20
26.39915347
 30
0.0
 11
-100.3288513
 21
26.22801615
 31
0.0
  0
LINE
  5
286
100
AcDbEntity
  8
レイヤー_1
  6
CONTINUOUS
 62
       3
100
AcDbLine
 10
-100.3288513
 20
26.22801615
 30
0.0
 11
-100.0572591
 21
26.07951595
 31
0.0
  0
LINE
  5
287
100
AcDbEntity
  8
レイヤー_1
  6
CONTINUOUS
 62
       3
100
AcDbLine
 10
-100.0572591
 20
26.07951595
 30
0.0
 11
-99.77176638
 21
25.95499842
 31
0.0
  0
LINE
  5
288
100
AcDbEntity
  8
レイヤー_1
  6
CONTINUOUS
 62
       3
100
AcDbLine
 10
-99.77176638
 20
25.95499842
 30
0.0
 11
-99.47371729
 21
25.85580916
 31
0.0
  0
LINE
  5
289
100
AcDbEntity
  8
レイヤー_1
  6
CONTINUOUS
 62
       3
100
AcDbLine
 10
-99.47371729
 20
25.85580916
 30
0.0
 11
-99.16445595
 21
25.78329374
 31
0.0
  0
LINE
  5
28A
100
AcDbEntity
  8
レイヤー_1
  6
CONTINUOUS
 62
       3
100
AcDbLine
 10
-99.16445595
 20
25.78329374
 30
0.0
 11
-98.84532649
 21
25.73879773
 31
0.0
  0
LINE
  5
28B
100
AcDbEntity
  8
レイヤー_1
  6
CONTINUOUS
 62
       3
100
AcDbLine
 10
-98.84532649
 20
25.73879773
 30
0.0
 11
-98.51767304
 21
25.72366671
 31
0.0
  0
LINE
  5
28C
100
AcDbEntity
  8
レイヤー_1
  6
CONTINUOUS
 62
       3
100
AcDbLine
 10
-86.91846718
 20
25.72366671
 30
0.0
 11
-86.59088342
 21
25.73879773
 31
0.0
  0
LINE
  5
28D
100
AcDbEntity
  8
レイヤー_1
  6
CONTINUOUS
 62
       3
100
AcDbLine
 10
-86.59088342
 20
25.73879773
 30
0.0
 11
-86.27181569
 21
25.78329374
 31
0.0
  0
LINE
  5
28E
100
AcDbEntity
  8
レイヤー_1
  6
CONTINUOUS
 62
       3
100
AcDbLine
 10
-86.27181569
 20
25.78329374
 30
0.0
 11
-85.96260861
 21
25.85580916
 31
0.0
  0
LINE
  5
28F
100
AcDbEntity
  8
レイヤー_1
  6
CONTINUOUS
 62
       3
100
AcDbLine
 10
-85.96260861
 20
25.85580916
 30
0.0
 11
-85.66460678
 21
25.95499842
 31
0.0
  0
LINE
  5
290
100
AcDbEntity
  8
レイヤー_1
  6
CONTINUOUS
 62
       3
100
AcDbLine
 10
-85.66460678
 20
25.95499842
 30
0.0
 11
-85.37915483
 21
26.07951595
 31
0.0
  0
LINE
  5
291
100
AcDbEntity
  8
レイヤー_1
  6
CONTINUOUS
 62
       3
100
AcDbLine
 10
-85.37915483
 20
26.07951595
 30
0.0
 11
-85.10759736
 21
26.22801615
 31
0.0
  0
LINE
  5
292
100
AcDbEntity
  8
レイヤー_1
  6
CONTINUOUS
 62
       3
100
AcDbLine
 10
-85.10759736
 20
26.22801615
 30
0.0
 11
-84.85127898
 21
26.39915347
 31
0.0
  0
LINE
  5
293
100
AcDbEntity
  8
レイヤー_1
  6
CONTINUOUS
 62
       3
100
AcDbLine
 10
-84.85127898
 20
26.39915347
 30
0.0
 11
-84.6115443
 21
26.59158232
 31
0.0
  0
LINE
  5
294
100
AcDbEntity
  8
レイヤー_1
  6
CONTINUOUS
 62
       3
100
AcDbLine
 10
-84.6115443
 20
26.59158232
 30
0.0
 11
-84.38973795
 21
26.80395713
 31
0.0
  0
LINE
  5
295
100
AcDbEntity
  8
レイヤー_1
  6
CONTINUOUS
 62
       3
100
AcDbLine
 10
-84.38973795
 20
26.80395713
 30
0.0
 11
-84.18720452
 21
27.03493232
 31
0.0
  0
LINE
  5
296
100
AcDbEntity
  8
レイヤー_1
  6
CONTINUOUS
 62
       3
100
AcDbLine
 10
-84.18720452
 20
27.03493232
 30
0.0
 11
-84.00528863
 21
27.28316232
 31
0.0
  0
LINE
  5
297
100
AcDbEntity
  8
レイヤー_1
  6
CONTINUOUS
 62
       3
100
AcDbLine
 10
-84.00528863
 20
27.28316232
 30
0.0
 11
-83.8453349
 21
27.54730155
 31
0.0
  0
LINE
  5
298
100
AcDbEntity
  8
レイヤー_1
  6
CONTINUOUS
 62
       3
100
AcDbLine
 10
-83.8453349
 20
27.54730155
 30
0.0
 11
-83.70868793
 21
27.82600443
 31
0.0
  0
LINE
  5
299
100
AcDbEntity
  8
レイヤー_1
  6
CONTINUOUS
 62
       3
100
AcDbLine
 10
-83.70868793
 20
27.82600443
 30
0.0
 11
-83.59669233
 21
28.11792539
 31
0.0
  0
LINE
  5
29A
100
AcDbEntity
  8
レイヤー_1
  6
CONTINUOUS
 62
       3
100
AcDbLine
 10
-83.59669233
 20
28.11792539
 30
0.0
 11
-83.51069273
 21
28.42171885
 31
0.0
  0
LINE
  5
29B
100
AcDbEntity
  8
レイヤー_1
  6
CONTINUOUS
 62
       3
100
AcDbLine
 10
-83.51069273
 20
28.42171885
 30
0.0
 11
-83.45203372
 21
28.73603924
 31
0.0
  0
LINE
  5
29C
100
AcDbEntity
  8
レイヤー_1
  6
CONTINUOUS
 62
       3
100
AcDbLine
 10
-83.45203372
 20
28.73603924
 30
0.0
 11
-83.42205992
 21
29.05954098
 31
0.0
  0
LINE
  5
29D
100
AcDbEntity
  8
レイヤー_1
  6
CONTINUOUS
 62
       3
100
AcDbLine
 10
-83.42205992
 20
29.05954098
 30
0.0
 11
-83.42205992
 21
29.38901497
 31
0.0
  0
LINE
  5
29E
100
AcDbEntity
  8
レイヤー_1
  6
CONTINUOUS
 62
       3
100
AcDbLine
 10
-83.42205992
 20
29.38901497
 30
0.0
 11
-83.45203372
 21
29.7123775
 31
0.0
  0
LINE
  5
29F
100
AcDbEntity
  8
レイヤー_1
  6
CONTINUOUS
 62
       3
100
AcDbLine
 10
-83.45203372
 20
29.7123775
 30
0.0
 11
-83.51069273
 21
30.02656712
 31
0.0
  0
LINE
  5
2A0
100
AcDbEntity
  8
レイヤー_1
  6
CONTINUOUS
 62
       3
100
AcDbLine
 10
-83.51069273
 20
30.02656712
 30
0.0
 11
-83.59669233
 21
30.33023824
 31
0.0
  0
LINE
  5
2A1
100
AcDbEntity
  8
レイヤー_1
  6
CONTINUOUS
 62
       3
100
AcDbLine
 10
-83.59669233
 20
30.33023824
 30
0.0
 11
-83.70868793
 21
30.6220453
 31
0.0
  0
LINE
  5
2A2
100
AcDbEntity
  8
レイヤー_1
  6
CONTINUOUS
 62
       3
100
AcDbLine
 10
-83.70868793
 20
30.6220453
 30
0.0
 11
-83.8453349
 21
30.90064272
 31
0.0
  0
LINE
  5
2A3
100
AcDbEntity
  8
レイヤー_1
  6
CONTINUOUS
 62
       3
100
AcDbLine
 10
-83.8453349
 20
30.90064272
 30
0.0
 11
-84.00528863
 21
31.16468492
 31
0.0
  0
LINE
  5
2A4
100
AcDbEntity
  8
レイヤー_1
  6
CONTINUOUS
 62
       3
100
AcDbLine
 10
-84.00528863
 20
31.16468492
 30
0.0
 11
-84.18720452
 21
31.41282633
 31
0.0
  0
LINE
  5
2A5
100
AcDbEntity
  8
レイヤー_1
  6
CONTINUOUS
 62
       3
100
AcDbLine
 10
-84.18720452
 20
31.41282633
 30
0.0
 11
-84.38973795
 21
31.64372137
 31
0.0
  0
LINE
  5
2A6
100
AcDbEntity
  8
レイヤー_1
  6
CONTINUOUS
 62
       3
100
AcDbLine
 10
-84.38973795
 20
31.64372137
 30
0.0
 11
-84.6115443
 21
31.85602447
 31
0.0
  0
LINE
  5
2A7
100
AcDbEntity
  8
レイヤー_1
  6
CONTINUOUS
 62
       3
100
AcDbLine
 10
-84.6115443
 20
31.85602447
 30
0.0
 11
-84.85127898
 21
32.04839004
 31
0.0
  0
LINE
  5
2A8
100
AcDbEntity
  8
レイヤー_1
  6
CONTINUOUS
 62
       3
100
AcDbLine
 10
-84.85127898
 20
32.04839004
 30
0.0
 11
-85.10759736
 21
32.21947252
 31
0.0
  0
LINE
  5
2A9
100
AcDbEntity
  8
レイヤー_1
  6
CONTINUOUS
 62
       3
100
AcDbLine
 10
-85.10759736
 20
32.21947252
 30
0.0
 11
-85.37915483
 21
32.36792633
 31
0.0
  0
LINE
  5
2AA
100
AcDbEntity
  8
レイヤー_1
  6
CONTINUOUS
 62
       3
100
AcDbLine
 10
-85.37915483
 20
32.36792633
 30
0.0
 11
-85.66460678
 21
32.49240588
 31
0.0
  0
LINE
  5
2AB
100
AcDbEntity
  8
レイヤー_1
  6
CONTINUOUS
 62
       3
100
AcDbLine
 10
-85.66460678
 20
32.49240588
 30
0.0
 11
-85.96260861
 21
32.59156561
 31
0.0
  0
LINE
  5
2AC
100
AcDbEntity
  8
レイヤー_1
  6
CONTINUOUS
 62
       3
100
AcDbLine
 10
-85.96260861
 20
32.59156561
 30
0.0
 11
-86.27181569
 21
32.66405994
 31
0.0
  0
LINE
  5
2AD
100
AcDbEntity
  8
レイヤー_1
  6
CONTINUOUS
 62
       3
100
AcDbLine
 10
-86.27181569
 20
32.66405994
 30
0.0
 11
-86.59088342
 21
32.7085433
 31
0.0
  0
LINE
  5
2AE
100
AcDbEntity
  8
レイヤー_1
  6
CONTINUOUS
 62
       3
100
AcDbLine
 10
-86.59088342
 20
32.7085433
 30
0.0
 11
-86.91846718
 21
32.7236701
 31
0.0
  0
LINE
  5
2AF
100
AcDbEntity
  8
レイヤー_1
  6
CONTINUOUS
 62
       3
100
AcDbLine
 10
-86.91846718
 20
32.7236701
 30
0.0
 11
-87.24591563
 21
32.7085433
 31
0.0
  0
LINE
  5
2B0
100
AcDbEntity
  8
レイヤー_1
  6
CONTINUOUS
 62
       3
100
AcDbLine
 10
-87.24591563
 20
32.7085433
 30
0.0
 11
-87.56487143
 21
32.66405994
 31
0.0
  0
LINE
  5
2B1
100
AcDbEntity
  8
レイヤー_1
  6
CONTINUOUS
 62
       3
100
AcDbLine
 10
-87.56487143
 20
32.66405994
 30
0.0
 11
-87.87398804
 21
32.59156561
 31
0.0
  0
LINE
  5
2B2
100
AcDbEntity
  8
レイヤー_1
  6
CONTINUOUS
 62
       3
100
AcDbLine
 10
-87.87398804
 20
32.59156561
 30
0.0
 11
-88.17191891
 21
32.49240588
 31
0.0
  0
LINE
  5
2B3
100
AcDbEntity
  8
レイヤー_1
  6
CONTINUOUS
 62
       3
100
AcDbLine
 10
-88.17191891
 20
32.49240588
 30
0.0
 11
-88.45731751
 21
32.36792633
 31
0.0
  0
LINE
  5
2B4
100
AcDbEntity
  8
レイヤー_1
  6
CONTINUOUS
 62
       3
100
AcDbLine
 10
-88.45731751
 20
32.36792633
 30
0.0
 11
-88.7288373
 21
32.21947252
 31
0.0
  0
LINE
  5
2B5
100
AcDbEntity
  8
レイヤー_1
  6
CONTINUOUS
 62
       3
100
AcDbLine
 10
-88.7288373
 20
32.21947252
 30
0.0
 11
-88.98513173
 21
32.04839004
 31
0.0
  0
LINE
  5
2B6
100
AcDbEntity
  8
レイヤー_1
  6
CONTINUOUS
 62
       3
100
AcDbLine
 10
-88.98513173
 20
32.04839004
 30
0.0
 11
-89.22485427
 21
31.85602447
 31
0.0
  0
LINE
  5
2B7
100
AcDbEntity
  8
レイヤー_1
  6
CONTINUOUS
 62
       3
100
AcDbLine
 10
-89.22485427
 20
31.85602447
 30
0.0
 11
-89.44665838
 21
31.64372137
 31
0.0
  0
LINE
  5
2B8
100
AcDbEntity
  8
レイヤー_1
  6
CONTINUOUS
 62
       3
100
AcDbLine
 10
-89.44665838
 20
31.64372137
 30
0.0
 11
-89.64919751
 21
31.41282633
 31
0.0
  0
LINE
  5
2B9
100
AcDbEntity
  8
レイヤー_1
  6
CONTINUOUS
 62
       3
100
AcDbLine
 10
-89.64919751
 20
31.41282633
 30
0.0
 11
-89.83112513
 21
31.16468492
 31
0.0
  0
LINE
  5
2BA
100
AcDbEntity
  8
レイヤー_1
  6
CONTINUOUS
 62
       3
100
AcDbLine
 10
-89.83112513
 20
31.16468492
 30
0.0
 11
-89.99109469
 21
30.90064272
 31
0.0
  0
LINE
  5
2BB
100
AcDbEntity
  8
レイヤー_1
  6
CONTINUOUS
 62
       3
100
AcDbLine
 10
-89.99109469
 20
30.90064272
 30
0.0
 11
-90.12775966
 21
30.6220453
 31
0.0
  0
LINE
  5
2BC
100
AcDbEntity
  8
レイヤー_1
  6
CONTINUOUS
 62
       3
100
AcDbLine
 10
-90.12775966
 20
30.6220453
 30
0.0
 11
-90.2397735
 21
30.33023824
 31
0.0
  0
LINE
  5
2BD
100
AcDbEntity
  8
レイヤー_1
  6
CONTINUOUS
 62
       3
100
AcDbLine
 10
-90.2397735
 20
30.33023824
 30
0.0
 11
-90.32578966
 21
30.02656712
 31
0.0
  0
LINE
  5
2BE
100
AcDbEntity
  8
レイヤー_1
  6
CONTINUOUS
 62
       3
100
AcDbLine
 10
-90.32578966
 20
30.02656712
 30
0.0
 11
-90.3844616
 21
29.7123775
 31
0.0
  0
LINE
  5
2BF
100
AcDbEntity
  8
レイヤー_1
  6
CONTINUOUS
 62
       3
100
AcDbLine
 10
-90.3844616
 20
29.7123775
 30
0.0
 11
-90.41444279
 21
29.38901497
 31
0.0
  0
LINE
  5
2C0
100
AcDbEntity
  8
レイヤー_1
  6
CONTINUOUS
 62
       3
100
AcDbLine
 10
-90.41444279
 20
29.38901497
 30
0.0
 11
-90.41444279
 21
29.05954098
 31
0.0
  0
LINE
  5
2C1
100
AcDbEntity
  8
レイヤー_1
  6
CONTINUOUS
 62
       3
100
AcDbLine
 10
-90.41444279
 20
29.05954098
 30
0.0
 11
-90.3844616
 21
28.73603924
 31
0.0
  0
LINE
  5
2C2
100
AcDbEntity
  8
レイヤー_1
  6
CONTINUOUS
 62
       3
100
AcDbLine
 10
-90.3844616
 20
28.73603924
 30
0.0
 11
-90.32578966
 21
28.42171885
 31
0.0
  0
LINE
  5
2C3
100
AcDbEntity
  8
レイヤー_1
  6
CONTINUOUS
 62
       3
100
AcDbLine
 10
-90.32578966
 20
28.42171885
 30
0.0
 11
-90.2397735
 21
28.11792539
 31
0.0
  0
LINE
  5
2C4
100
AcDbEntity
  8
レイヤー_1
  6
CONTINUOUS
 62
       3
100
AcDbLine
 10
-90.2397735
 20
28.11792539
 30
0.0
 11
-90.12775966
 21
27.82600443
 31
0.0
  0
LINE
  5
2C5
100
AcDbEntity
  8
レイヤー_1
  6
CONTINUOUS
 62
       3
100
AcDbLine
 10
-90.12775966
 20
27.82600443
 30
0.0
 11
-89.99109469
 21
27.54730155
 31
0.0
  0
LINE
  5
2C6
100
AcDbEntity
  8
レイヤー_1
  6
CONTINUOUS
 62
       3
100
AcDbLine
 10
-89.99109469
 20
27.54730155
 30
0.0
 11
-89.83112513
 21
27.28316232
 31
0.0
  0
LINE
  5
2C7
100
AcDbEntity
  8
レイヤー_1
  6
CONTINUOUS
 62
       3
100
AcDbLine
 10
-89.83112513
 20
27.28316232
 30
0.0
 11
-89.64919751
 21
27.03493232
 31
0.0
  0
LINE
  5
2C8
100
AcDbEntity
  8
レイヤー_1
  6
CONTINUOUS
 62
       3
100
AcDbLine
 10
-89.64919751
 20
27.03493232
 30
0.0
 11
-89.44665838
 21
26.80395713
 31
0.0
  0
LINE
  5
2C9
100
AcDbEntity
  8
レイヤー_1
  6
CONTINUOUS
 62
       3
100
AcDbLine
 10
-89.44665838
 20
26.80395713
 30
0.0
 11
-89.22485427
 21
26.59158232
 31
0.0
  0
LINE
  5
2CA
100
AcDbEntity
  8
レイヤー_1
  6
CONTINUOUS
 62
       3
100
AcDbLine
 10
-89.22485427
 20
26.59158232
 30
0.0
 11
-88.98513173
 21
26.39915347
 31
0.0
  0
LINE
  5
2CB
100
AcDbEntity
  8
レイヤー_1
  6
CONTINUOUS
 62
       3
100
AcDbLine
 10
-88.98513173
 20
26.39915347
 30
0.0
 11
-88.7288373
 21
26.22801615
 31
0.0
  0
LINE
  5
2CC
100
AcDbEntity
  8
レイヤー_1
  6
CONTINUOUS
 62
       3
100
AcDbLine
 10
-88.7288373
 20
26.22801615
 30
0.0
 11
-88.45731751
 21
26.07951595
 31
0.0
  0
LINE
  5
2CD
100
AcDbEntity
  8
レイヤー_1
  6
CONTINUOUS
 62
       3
100
AcDbLine
 10
-88.45731751
 20
26.07951595
 30
0.0
 11
-88.17191891
 21
25.95499842
 31
0.0
  0
LINE
  5
2CE
100
AcDbEntity
  8
レイヤー_1
  6
CONTINUOUS
 62
       3
100
AcDbLine
 10
-88.17191891
 20
25.95499842
 30
0.0
 11
-87.87398804
 21
25.85580916
 31
0.0
  0
LINE
  5
2CF
100
AcDbEntity
  8
レイヤー_1
  6
CONTINUOUS
 62
       3
100
AcDbLine
 10
-87.87398804
 20
25.85580916
 30
0.0
 11
-87.56487143
 21
25.78329374
 31
0.0
  0
LINE
  5
2D0
100
AcDbEntity
  8
レイヤー_1
  6
CONTINUOUS
 62
       3
100
AcDbLine
 10
-87.56487143
 20
25.78329374
 30
0.0
 11
-87.24591563
 21
25.73879773
 31
0.0
  0
LINE
  5
2D1
100
AcDbEntity
  8
レイヤー_1
  6
CONTINUOUS
 62
       3
100
AcDbLine
 10
-87.24591563
 20
25.73879773
 30
0.0
 11
-86.91846718
 21
25.72366671
 31
0.0
  0
LINE
  5
2D2
100
AcDbEntity
  8
レイヤー_1
  6
CONTINUOUS
 62
       3
100
AcDbLine
 10
-75.31840005
 20
25.72366671
 30
0.0
 11
-74.99081222
 21
25.73879773
 31
0.0
  0
LINE
  5
2D3
100
AcDbEntity
  8
レイヤー_1
  6
CONTINUOUS
 62
       3
100
AcDbLine
 10
-74.99081222
 20
25.73879773
 30
0.0
 11
-74.67173296
 21
25.78329374
 31
0.0
  0
LINE
  5
2D4
100
AcDbEntity
  8
レイヤー_1
  6
CONTINUOUS
 62
       3
100
AcDbLine
 10
-74.67173296
 20
25.78329374
 30
0.0
 11
-74.36250784
 21
25.85580916
 31
0.0
  0
LINE
  5
2D5
100
AcDbEntity
  8
レイヤー_1
  6
CONTINUOUS
 62
       3
100
AcDbLine
 10
-74.36250784
 20
25.85580916
 30
0.0
 11
-74.06448244
 21
25.95499842
 31
0.0
  0
LINE
  5
2D6
100
AcDbEntity
  8
レイヤー_1
  6
CONTINUOUS
 62
       3
100
AcDbLine
 10
-74.06448244
 20
25.95499842
 30
0.0
 11
-73.77900232
 21
26.07951595
 31
0.0
  0
LINE
  5
2D7
100
AcDbEntity
  8
レイヤー_1
  6
CONTINUOUS
 62
       3
100
AcDbLine
 10
-73.77900232
 20
26.07951595
 30
0.0
 11
-73.50741307
 21
26.22801615
 31
0.0
  0
LINE
  5
2D8
100
AcDbEntity
  8
レイヤー_1
  6
CONTINUOUS
 62
       3
100
AcDbLine
 10
-73.50741307
 20
26.22801615
 30
0.0
 11
-73.25106026
 21
26.39915347
 31
0.0
  0
LINE
  5
2D9
100
AcDbEntity
  8
レイヤー_1
  6
CONTINUOUS
 62
       3
100
AcDbLine
 10
-73.25106026
 20
26.39915347
 30
0.0
 11
-73.01128947
 21
26.59158232
 31
0.0
  0
LINE
  5
2DA
100
AcDbEntity
  8
レイヤー_1
  6
CONTINUOUS
 62
       3
100
AcDbLine
 10
-73.01128947
 20
26.59158232
 30
0.0
 11
-72.78944627
 21
26.80395713
 31
0.0
  0
LINE
  5
2DB
100
AcDbEntity
  8
レイヤー_1
  6
CONTINUOUS
 62
       3
100
AcDbLine
 10
-72.78944627
 20
26.80395713
 30
0.0
 11
-72.58687624
 21
27.03493232
 31
0.0
  0
LINE
  5
2DC
100
AcDbEntity
  8
レイヤー_1
  6
CONTINUOUS
 62
       3
100
AcDbLine
 10
-72.58687624
 20
27.03493232
 30
0.0
 11
-72.40492496
 21
27.28316232
 31
0.0
  0
LINE
  5
2DD
100
AcDbEntity
  8
レイヤー_1
  6
CONTINUOUS
 62
       3
100
AcDbLine
 10
-72.40492496
 20
27.28316232
 30
0.0
 11
-72.244938
 21
27.54730155
 31
0.0
  0
LINE
  5
2DE
100
AcDbEntity
  8
レイヤー_1
  6
CONTINUOUS
 62
       3
100
AcDbLine
 10
-72.244938
 20
27.54730155
 30
0.0
 11
-72.10826094
 21
27.82600443
 31
0.0
  0
LINE
  5
2DF
100
AcDbEntity
  8
レイヤー_1
  6
CONTINUOUS
 62
       3
100
AcDbLine
 10
-72.10826094
 20
27.82600443
 30
0.0
 11
-71.99623935
 21
28.11792539
 31
0.0
  0
LINE
  5
2E0
100
AcDbEntity
  8
レイヤー_1
  6
CONTINUOUS
 62
       3
100
AcDbLine
 10
-71.99623935
 20
28.11792539
 30
0.0
 11
-71.91021881
 21
28.42171885
 31
0.0
  0
LINE
  5
2E1
100
AcDbEntity
  8
レイヤー_1
  6
CONTINUOUS
 62
       3
100
AcDbLine
 10
-71.91021881
 20
28.42171885
 30
0.0
 11
-71.8515449
 21
28.73603924
 31
0.0
  0
LINE
  5
2E2
100
AcDbEntity
  8
レイヤー_1
  6
CONTINUOUS
 62
       3
100
AcDbLine
 10
-71.8515449
 20
28.73603924
 30
0.0
 11
-71.82156318
 21
29.05954098
 31
0.0
  0
LINE
  5
2E3
100
AcDbEntity
  8
レイヤー_1
  6
CONTINUOUS
 62
       3
100
AcDbLine
 10
-71.82156318
 20
29.05954098
 30
0.0
 11
-71.82156318
 21
29.38901497
 31
0.0
  0
LINE
  5
2E4
100
AcDbEntity
  8
レイヤー_1
  6
CONTINUOUS
 62
       3
100
AcDbLine
 10
-71.82156318
 20
29.38901497
 30
0.0
 11
-71.8515449
 21
29.7123775
 31
0.0
  0
LINE
  5
2E5
100
AcDbEntity
  8
レイヤー_1
  6
CONTINUOUS
 62
       3
100
AcDbLine
 10
-71.8515449
 20
29.7123775
 30
0.0
 11
-71.91021881
 21
30.02656712
 31
0.0
  0
LINE
  5
2E6
100
AcDbEntity
  8
レイヤー_1
  6
CONTINUOUS
 62
       3
100
AcDbLine
 10
-71.91021881
 20
30.02656712
 30
0.0
 11
-71.99623935
 21
30.33023824
 31
0.0
  0
LINE
  5
2E7
100
AcDbEntity
  8
レイヤー_1
  6
CONTINUOUS
 62
       3
100
AcDbLine
 10
-71.99623935
 20
30.33023824
 30
0.0
 11
-72.10826094
 21
30.6220453
 31
0.0
  0
LINE
  5
2E8
100
AcDbEntity
  8
レイヤー_1
  6
CONTINUOUS
 62
       3
100
AcDbLine
 10
-72.10826094
 20
30.6220453
 30
0.0
 11
-72.244938
 21
30.90064272
 31
0.0
  0
LINE
  5
2E9
100
AcDbEntity
  8
レイヤー_1
  6
CONTINUOUS
 62
       3
100
AcDbLine
 10
-72.244938
 20
30.90064272
 30
0.0
 11
-72.40492496
 21
31.16468492
 31
0.0
  0
LINE
  5
2EA
100
AcDbEntity
  8
レイヤー_1
  6
CONTINUOUS
 62
       3
100
AcDbLine
 10
-72.40492496
 20
31.16468492
 30
0.0
 11
-72.58687624
 21
31.41282633
 31
0.0
  0
LINE
  5
2EB
100
AcDbEntity
  8
レイヤー_1
  6
CONTINUOUS
 62
       3
100
AcDbLine
 10
-72.58687624
 20
31.41282633
 30
0.0
 11
-72.78944627
 21
31.64372137
 31
0.0
  0
LINE
  5
2EC
100
AcDbEntity
  8
レイヤー_1
  6
CONTINUOUS
 62
       3
100
AcDbLine
 10
-72.78944627
 20
31.64372137
 30
0.0
 11
-73.01128947
 21
31.85602447
 31
0.0
  0
LINE
  5
2ED
100
AcDbEntity
  8
レイヤー_1
  6
CONTINUOUS
 62
       3
100
AcDbLine
 10
-73.01128947
 20
31.85602447
 30
0.0
 11
-73.25106026
 21
32.04839004
 31
0.0
  0
LINE
  5
2EE
100
AcDbEntity
  8
レイヤー_1
  6
CONTINUOUS
 62
       3
100
AcDbLine
 10
-73.25106026
 20
32.04839004
 30
0.0
 11
-73.50741307
 21
32.21947252
 31
0.0
  0
LINE
  5
2EF
100
AcDbEntity
  8
レイヤー_1
  6
CONTINUOUS
 62
       3
100
AcDbLine
 10
-73.50741307
 20
32.21947252
 30
0.0
 11
-73.77900232
 21
32.36792633
 31
0.0
  0
LINE
  5
2F0
100
AcDbEntity
  8
レイヤー_1
  6
CONTINUOUS
 62
       3
100
AcDbLine
 10
-73.77900232
 20
32.36792633
 30
0.0
 11
-74.06448244
 21
32.49240588
 31
0.0
  0
LINE
  5
2F1
100
AcDbEntity
  8
レイヤー_1
  6
CONTINUOUS
 62
       3
100
AcDbLine
 10
-74.06448244
 20
32.49240588
 30
0.0
 11
-74.36250784
 21
32.59156561
 31
0.0
  0
LINE
  5
2F2
100
AcDbEntity
  8
レイヤー_1
  6
CONTINUOUS
 62
       3
100
AcDbLine
 10
-74.36250784
 20
32.59156561
 30
0.0
 11
-74.67173296
 21
32.66405994
 31
0.0
  0
LINE
  5
2F3
100
AcDbEntity
  8
レイヤー_1
  6
CONTINUOUS
 62
       3
100
AcDbLine
 10
-74.67173296
 20
32.66405994
 30
0.0
 11
-74.99081222
 21
32.7085433
 31
0.0
  0
LINE
  5
2F4
100
AcDbEntity
  8
レイヤー_1
  6
CONTINUOUS
 62
       3
100
AcDbLine
 10
-74.99081222
 20
32.7085433
 30
0.0
 11
-75.31840005
 21
32.7236701
 31
0.0
  0
LINE
  5
2F5
100
AcDbEntity
  8
レイヤー_1
  6
CONTINUOUS
 62
       3
100
AcDbLine
 10
-75.31840005
 20
32.7236701
 30
0.0
 11
-75.64584444
 21
32.7085433
 31
0.0
  0
LINE
  5
2F6
100
AcDbEntity
  8
レイヤー_1
  6
CONTINUOUS
 62
       3
100
AcDbLine
 10
-75.64584444
 20
32.7085433
 30
0.0
 11
-75.96478871
 21
32.66405994
 31
0.0
  0
LINE
  5
2F7
100
AcDbEntity
  8
レイヤー_1
  6
CONTINUOUS
 62
       3
100
AcDbLine
 10
-75.96478871
 20
32.66405994
 30
0.0
 11
-76.27388728
 21
32.59156561
 31
0.0
  0
LINE
  5
2F8
100
AcDbEntity
  8
レイヤー_1
  6
CONTINUOUS
 62
       3
100
AcDbLine
 10
-76.27388728
 20
32.59156561
 30
0.0
 11
-76.57179457
 21
32.49240588
 31
0.0
  0
LINE
  5
2F9
100
AcDbEntity
  8
レイヤー_1
  6
CONTINUOUS
 62
       3
100
AcDbLine
 10
-76.57179457
 20
32.49240588
 30
0.0
 11
-76.857165
 21
32.36792633
 31
0.0
  0
LINE
  5
2FA
100
AcDbEntity
  8
レイヤー_1
  6
CONTINUOUS
 62
       3
100
AcDbLine
 10
-76.857165
 20
32.36792633
 30
0.0
 11
-77.12865301
 21
32.21947252
 31
0.0
  0
LINE
  5
2FB
100
AcDbEntity
  8
レイヤー_1
  6
CONTINUOUS
 62
       3
100
AcDbLine
 10
-77.12865301
 20
32.21947252
 30
0.0
 11
-77.38491301
 21
32.04839004
 31
0.0
  0
LINE
  5
2FC
100
AcDbEntity
  8
レイヤー_1
  6
CONTINUOUS
 62
       3
100
AcDbLine
 10
-77.38491301
 20
32.04839004
 30
0.0
 11
-77.62459943
 21
31.85602447
 31
0.0
  0
LINE
  5
2FD
100
AcDbEntity
  8
レイヤー_1
  6
CONTINUOUS
 62
       3
100
AcDbLine
 10
-77.62459943
 20
31.85602447
 30
0.0
 11
-77.8463667
 21
31.64372137
 31
0.0
  0
LINE
  5
2FE
100
AcDbEntity
  8
レイヤー_1
  6
CONTINUOUS
 62
       3
100
AcDbLine
 10
-77.8463667
 20
31.64372137
 30
0.0
 11
-78.04886923
 21
31.41282633
 31
0.0
  0
LINE
  5
2FF
100
AcDbEntity
  8
レイヤー_1
  6
CONTINUOUS
 62
       3
100
AcDbLine
 10
-78.04886923
 20
31.41282633
 30
0.0
 11
-78.23076145
 21
31.16468492
 31
0.0
  0
LINE
  5
300
100
AcDbEntity
  8
レイヤー_1
  6
CONTINUOUS
 62
       3
100
AcDbLine
 10
-78.23076145
 20
31.16468492
 30
0.0
 11
-78.39069779
 21
30.90064272
 31
0.0
  0
LINE
  5
301
100
AcDbEntity
  8
レイヤー_1
  6
CONTINUOUS
 62
       3
100
AcDbLine
 10
-78.39069779
 20
30.90064272
 30
0.0
 11
-78.52733267
 21
30.6220453
 31
0.0
  0
LINE
  5
302
100
AcDbEntity
  8
レイヤー_1
  6
CONTINUOUS
 62
       3
100
AcDbLine
 10
-78.52733267
 20
30.6220453
 30
0.0
 11
-78.63932051
 21
30.33023824
 31
0.0
  0
LINE
  5
303
100
AcDbEntity
  8
レイヤー_1
  6
CONTINUOUS
 62
       3
100
AcDbLine
 10
-78.63932051
 20
30.33023824
 30
0.0
 11
-78.72531574
 21
30.02656712
 31
0.0
  0
LINE
  5
304
100
AcDbEntity
  8
レイヤー_1
  6
CONTINUOUS
 62
       3
100
AcDbLine
 10
-78.72531574
 20
30.02656712
 30
0.0
 11
-78.78397278
 21
29.7123775
 31
0.0
  0
LINE
  5
305
100
AcDbEntity
  8
レイヤー_1
  6
CONTINUOUS
 62
       3
100
AcDbLine
 10
-78.78397278
 20
29.7123775
 30
0.0
 11
-78.81394605
 21
29.38901497
 31
0.0
  0
LINE
  5
306
100
AcDbEntity
  8
レイヤー_1
  6
CONTINUOUS
 62
       3
100
AcDbLine
 10
-78.81394605
 20
29.38901497
 30
0.0
 11
-78.81394605
 21
29.05954098
 31
0.0
  0
LINE
  5
307
100
AcDbEntity
  8
レイヤー_1
  6
CONTINUOUS
 62
       3
100
AcDbLine
 10
-78.81394605
 20
29.05954098
 30
0.0
 11
-78.78397278
 21
28.73603924
 31
0.0
  0
LINE
  5
308
100
AcDbEntity
  8
レイヤー_1
  6
CONTINUOUS
 62
       3
100
AcDbLine
 10
-78.78397278
 20
28.73603924
 30
0.0
 11
-78.72531574
 21
28.42171885
 31
0.0
  0
LINE
  5
309
100
AcDbEntity
  8
レイヤー_1
  6
CONTINUOUS
 62
       3
100
AcDbLine
 10
-78.72531574
 20
28.42171885
 30
0.0
 11
-78.63932051
 21
28.11792539
 31
0.0
  0
LINE
  5
30A
100
AcDbEntity
  8
レイヤー_1
  6
CONTINUOUS
 62
       3
100
AcDbLine
 10
-78.63932051
 20
28.11792539
 30
0.0
 11
-78.52733267
 21
27.82600443
 31
0.0
  0
LINE
  5
30B
100
AcDbEntity
  8
レイヤー_1
  6
CONTINUOUS
 62
       3
100
AcDbLine
 10
-78.52733267
 20
27.82600443
 30
0.0
 11
-78.39069779
 21
27.54730155
 31
0.0
  0
LINE
  5
30C
100
AcDbEntity
  8
レイヤー_1
  6
CONTINUOUS
 62
       3
100
AcDbLine
 10
-78.39069779
 20
27.54730155
 30
0.0
 11
-78.23076145
 21
27.28316232
 31
0.0
  0
LINE
  5
30D
100
AcDbEntity
  8
レイヤー_1
  6
CONTINUOUS
 62
       3
100
AcDbLine
 10
-78.23076145
 20
27.28316232
 30
0.0
 11
-78.04886923
 21
27.03493232
 31
0.0
  0
LINE
  5
30E
100
AcDbEntity
  8
レイヤー_1
  6
CONTINUOUS
 62
       3
100
AcDbLine
 10
-78.04886923
 20
27.03493232
 30
0.0
 11
-77.8463667
 21
26.80395713
 31
0.0
  0
LINE
  5
30F
100
AcDbEntity
  8
レイヤー_1
  6
CONTINUOUS
 62
       3
100
AcDbLine
 10
-77.8463667
 20
26.80395713
 30
0.0
 11
-77.62459943
 21
26.59158232
 31
0.0
  0
LINE
  5
310
100
AcDbEntity
  8
レイヤー_1
  6
CONTINUOUS
 62
       3
100
AcDbLine
 10
-77.62459943
 20
26.59158232
 30
0.0
 11
-77.38491301
 21
26.39915347
 31
0.0
  0
LINE
  5
311
100
AcDbEntity
  8
レイヤー_1
  6
CONTINUOUS
 62
       3
100
AcDbLine
 10
-77.38491301
 20
26.39915347
 30
0.0
 11
-77.12865301
 21
26.22801615
 31
0.0
  0
LINE
  5
312
100
AcDbEntity
  8
レイヤー_1
  6
CONTINUOUS
 62
       3
100
AcDbLine
 10
-77.12865301
 20
26.22801615
 30
0.0
 11
-76.857165
 21
26.07951595
 31
0.0
  0
LINE
  5
313
100
AcDbEntity
  8
レイヤー_1
  6
CONTINUOUS
 62
       3
100
AcDbLine
 10
-76.857165
 20
26.07951595
 30
0.0
 11
-76.57179457
 21
25.95499842
 31
0.0
  0
LINE
  5
314
100
AcDbEntity
  8
レイヤー_1
  6
CONTINUOUS
 62
       3
100
AcDbLine
 10
-76.57179457
 20
25.95499842
 30
0.0
 11
-76.27388728
 21
25.85580916
 31
0.0
  0
LINE
  5
315
100
AcDbEntity
  8
レイヤー_1
  6
CONTINUOUS
 62
       3
100
AcDbLine
 10
-76.27388728
 20
25.85580916
 30
0.0
 11
-75.96478871
 21
25.78329374
 31
0.0
  0
LINE
  5
316
100
AcDbEntity
  8
レイヤー_1
  6
CONTINUOUS
 62
       3
100
AcDbLine
 10
-75.96478871
 20
25.78329374
 30
0.0
 11
-75.64584444
 21
25.73879773
 31
0.0
  0
LINE
  5
317
100
AcDbEntity
  8
レイヤー_1
  6
CONTINUOUS
 62
       3
100
AcDbLine
 10
-75.64584444
 20
25.73879773
 30
0.0
 11
-75.31840005
 21
25.72366671
 31
0.0
  0
LINE
  5
318
100
AcDbEntity
  8
レイヤー_1
  6
CONTINUOUS
 62
       3
100
AcDbLine
 10
-63.71790227
 20
25.72366671
 30
0.0
 11
-63.39032662
 21
25.73879773
 31
0.0
  0
LINE
  5
319
100
AcDbEntity
  8
レイヤー_1
  6
CONTINUOUS
 62
       3
100
AcDbLine
 10
-63.39032662
 20
25.73879773
 30
0.0
 11
-63.07128196
 21
25.78329374
 31
0.0
  0
LINE
  5
31A
100
AcDbEntity
  8
レイヤー_1
  6
CONTINUOUS
 62
       3
100
AcDbLine
 10
-63.07128196
 20
25.78329374
 30
0.0
 11
-62.76211095
 21
25.85580916
 31
0.0
  0
LINE
  5
31B
100
AcDbEntity
  8
レイヤー_1
  6
CONTINUOUS
 62
       3
100
AcDbLine
 10
-62.76211095
 20
25.85580916
 30
0.0
 11
-62.46415629
 21
25.95499842
 31
0.0
  0
LINE
  5
31C
100
AcDbEntity
  8
レイヤー_1
  6
CONTINUOUS
 62
       3
100
AcDbLine
 10
-62.46415629
 20
25.95499842
 30
0.0
 11
-62.17876067
 21
26.07951595
 31
0.0
  0
LINE
  5
31D
100
AcDbEntity
  8
レイヤー_1
  6
CONTINUOUS
 62
       3
100
AcDbLine
 10
-62.17876067
 20
26.07951595
 30
0.0
 11
-61.90726675
 21
26.22801615
 31
0.0
  0
LINE
  5
31E
100
AcDbEntity
  8
レイヤー_1
  6
CONTINUOUS
 62
       3
100
AcDbLine
 10
-61.90726675
 20
26.22801615
 30
0.0
 11
-61.65101724
 21
26.39915347
 31
0.0
  0
LINE
  5
31F
100
AcDbEntity
  8
レイヤー_1
  6
CONTINUOUS
 62
       3
100
AcDbLine
 10
-61.65101724
 20
26.39915347
 30
0.0
 11
-61.4113548
 21
26.59158232
 31
0.0
  0
LINE
  5
320
100
AcDbEntity
  8
レイヤー_1
  6
CONTINUOUS
 62
       3
100
AcDbLine
 10
-61.4113548
 20
26.59158232
 30
0.0
 11
-61.18962213
 21
26.80395713
 31
0.0
  0
LINE
  5
321
100
AcDbEntity
  8
レイヤー_1
  6
CONTINUOUS
 62
       3
100
AcDbLine
 10
-61.18962213
 20
26.80395713
 30
0.0
 11
-60.9871619
 21
27.03493232
 31
0.0
  0
LINE
  5
322
100
AcDbEntity
  8
レイヤー_1
  6
CONTINUOUS
 62
       3
100
AcDbLine
 10
-60.9871619
 20
27.03493232
 30
0.0
 11
-60.8053168
 21
27.28316232
 31
0.0
  0
LINE
  5
323
100
AcDbEntity
  8
レイヤー_1
  6
CONTINUOUS
 62
       3
100
AcDbLine
 10
-60.8053168
 20
27.28316232
 30
0.0
 11
-60.64542952
 21
27.54730155
 31
0.0
  0
LINE
  5
324
100
AcDbEntity
  8
レイヤー_1
  6
CONTINUOUS
 62
       3
100
AcDbLine
 10
-60.64542952
 20
27.54730155
 30
0.0
 11
-60.50884273
 21
27.82600443
 31
0.0
  0
LINE
  5
325
100
AcDbEntity
  8
レイヤー_1
  6
CONTINUOUS
 62
       3
100
AcDbLine
 10
-60.50884273
 20
27.82600443
 30
0.0
 11
-60.39689913
 21
28.11792539
 31
0.0
  0
LINE
  5
326
100
AcDbEntity
  8
レイヤー_1
  6
CONTINUOUS
 62
       3
100
AcDbLine
 10
-60.39689913
 20
28.11792539
 30
0.0
 11
-60.31094138
 21
28.42171885
 31
0.0
  0
LINE
  5
327
100
AcDbEntity
  8
レイヤー_1
  6
CONTINUOUS
 62
       3
100
AcDbLine
 10
-60.31094138
 20
28.42171885
 30
0.0
 11
-60.25231219
 21
28.73603924
 31
0.0
  0
LINE
  5
328
100
AcDbEntity
  8
レイヤー_1
  6
CONTINUOUS
 62
       3
100
AcDbLine
 10
-60.25231219
 20
28.73603924
 30
0.0
 11
-60.22235422
 21
29.05954098
 31
0.0
  0
LINE
  5
329
100
AcDbEntity
  8
レイヤー_1
  6
CONTINUOUS
 62
       3
100
AcDbLine
 10
-60.22235422
 20
29.05954098
 30
0.0
 11
-60.22235422
 21
29.38901497
 31
0.0
  0
LINE
  5
32A
100
AcDbEntity
  8
レイヤー_1
  6
CONTINUOUS
 62
       3
100
AcDbLine
 10
-60.22235422
 20
29.38901497
 30
0.0
 11
-60.25231219
 21
29.7123775
 31
0.0
  0
LINE
  5
32B
100
AcDbEntity
  8
レイヤー_1
  6
CONTINUOUS
 62
       3
100
AcDbLine
 10
-60.25231219
 20
29.7123775
 30
0.0
 11
-60.31094138
 21
30.02656712
 31
0.0
  0
LINE
  5
32C
100
AcDbEntity
  8
レイヤー_1
  6
CONTINUOUS
 62
       3
100
AcDbLine
 10
-60.31094138
 20
30.02656712
 30
0.0
 11
-60.39689913
 21
30.33023824
 31
0.0
  0
LINE
  5
32D
100
AcDbEntity
  8
レイヤー_1
  6
CONTINUOUS
 62
       3
100
AcDbLine
 10
-60.39689913
 20
30.33023824
 30
0.0
 11
-60.50884273
 21
30.6220453
 31
0.0
  0
LINE
  5
32E
100
AcDbEntity
  8
レイヤー_1
  6
CONTINUOUS
 62
       3
100
AcDbLine
 10
-60.50884273
 20
30.6220453
 30
0.0
 11
-60.64542952
 21
30.90064272
 31
0.0
  0
LINE
  5
32F
100
AcDbEntity
  8
レイヤー_1
  6
CONTINUOUS
 62
       3
100
AcDbLine
 10
-60.64542952
 20
30.90064272
 30
0.0
 11
-60.8053168
 21
31.16468492
 31
0.0
  0
LINE
  5
330
100
AcDbEntity
  8
レイヤー_1
  6
CONTINUOUS
 62
       3
100
AcDbLine
 10
-60.8053168
 20
31.16468492
 30
0.0
 11
-60.9871619
 21
31.41282633
 31
0.0
  0
LINE
  5
331
100
AcDbEntity
  8
レイヤー_1
  6
CONTINUOUS
 62
       3
100
AcDbLine
 10
-60.9871619
 20
31.41282633
 30
0.0
 11
-61.18962213
 21
31.64372137
 31
0.0
  0
LINE
  5
332
100
AcDbEntity
  8
レイヤー_1
  6
CONTINUOUS
 62
       3
100
AcDbLine
 10
-61.18962213
 20
31.64372137
 30
0.0
 11
-61.4113548
 21
31.85602447
 31
0.0
  0
LINE
  5
333
100
AcDbEntity
  8
レイヤー_1
  6
CONTINUOUS
 62
       3
100
AcDbLine
 10
-61.4113548
 20
31.85602447
 30
0.0
 11
-61.65101724
 21
32.04839004
 31
0.0
  0
LINE
  5
334
100
AcDbEntity
  8
レイヤー_1
  6
CONTINUOUS
 62
       3
100
AcDbLine
 10
-61.65101724
 20
32.04839004
 30
0.0
 11
-61.90726675
 21
32.21947252
 31
0.0
  0
LINE
  5
335
100
AcDbEntity
  8
レイヤー_1
  6
CONTINUOUS
 62
       3
100
AcDbLine
 10
-61.90726675
 20
32.21947252
 30
0.0
 11
-62.17876067
 21
32.36792633
 31
0.0
  0
LINE
  5
336
100
AcDbEntity
  8
レイヤー_1
  6
CONTINUOUS
 62
       3
100
AcDbLine
 10
-62.17876067
 20
32.36792633
 30
0.0
 11
-62.46415629
 21
32.49240588
 31
0.0
  0
LINE
  5
337
100
AcDbEntity
  8
レイヤー_1
  6
CONTINUOUS
 62
       3
100
AcDbLine
 10
-62.46415629
 20
32.49240588
 30
0.0
 11
-62.76211095
 21
32.59156561
 31
0.0
  0
LINE
  5
338
100
AcDbEntity
  8
レイヤー_1
  6
CONTINUOUS
 62
       3
100
AcDbLine
 10
-62.76211095
 20
32.59156561
 30
0.0
 11
-63.07128196
 21
32.66405994
 31
0.0
  0
LINE
  5
339
100
AcDbEntity
  8
レイヤー_1
  6
CONTINUOUS
 62
       3
100
AcDbLine
 10
-63.07128196
 20
32.66405994
 30
0.0
 11
-63.39032662
 21
32.7085433
 31
0.0
  0
LINE
  5
33A
100
AcDbEntity
  8
レイヤー_1
  6
CONTINUOUS
 62
       3
100
AcDbLine
 10
-63.39032662
 20
32.7085433
 30
0.0
 11
-63.71790227
 21
32.7236701
 31
0.0
  0
LINE
  5
33B
100
AcDbEntity
  8
レイヤー_1
  6
CONTINUOUS
 62
       3
100
AcDbLine
 10
-63.71790227
 20
32.7236701
 30
0.0
 11
-64.04554761
 21
32.7085433
 31
0.0
  0
LINE
  5
33C
100
AcDbEntity
  8
レイヤー_1
  6
CONTINUOUS
 62
       3
100
AcDbLine
 10
-64.04554761
 20
32.7085433
 30
0.0
 11
-64.36465401
 21
32.66405994
 31
0.0
  0
LINE
  5
33D
100
AcDbEntity
  8
レイヤー_1
  6
CONTINUOUS
 62
       3
100
AcDbLine
 10
-64.36465401
 20
32.66405994
 30
0.0
 11
-64.67387927
 21
32.59156561
 31
0.0
  0
LINE
  5
33E
100
AcDbEntity
  8
レイヤー_1
  6
CONTINUOUS
 62
       3
100
AcDbLine
 10
-64.67387927
 20
32.59156561
 30
0.0
 11
-64.97188119
 21
32.49240588
 31
0.0
  0
LINE
  5
33F
100
AcDbEntity
  8
レイヤー_1
  6
CONTINUOUS
 62
       3
100
AcDbLine
 10
-64.97188119
 20
32.49240588
 30
0.0
 11
-65.25731758
 21
32.36792633
 31
0.0
  0
LINE
  5
340
100
AcDbEntity
  8
レイヤー_1
  6
CONTINUOUS
 62
       3
100
AcDbLine
 10
-65.25731758
 20
32.36792633
 30
0.0
 11
-65.52884622
 21
32.21947252
 31
0.0
  0
LINE
  5
341
100
AcDbEntity
  8
レイヤー_1
  6
CONTINUOUS
 62
       3
100
AcDbLine
 10
-65.52884622
 20
32.21947252
 30
0.0
 11
-65.78512493
 21
32.04839004
 31
0.0
  0
LINE
  5
342
100
AcDbEntity
  8
レイヤー_1
  6
CONTINUOUS
 62
       3
100
AcDbLine
 10
-65.78512493
 20
32.04839004
 30
0.0
 11
-66.02481149
 21
31.85602447
 31
0.0
  0
LINE
  5
343
100
AcDbEntity
  8
レイヤー_1
  6
CONTINUOUS
 62
       3
100
AcDbLine
 10
-66.02481149
 20
31.85602447
 30
0.0
 11
-66.24656371
 21
31.64372137
 31
0.0
  0
LINE
  5
344
100
AcDbEntity
  8
レイヤー_1
  6
CONTINUOUS
 62
       3
100
AcDbLine
 10
-66.24656371
 20
31.64372137
 30
0.0
 11
-66.44903938
 21
31.41282633
 31
0.0
  0
LINE
  5
345
100
AcDbEntity
  8
レイヤー_1
  6
CONTINUOUS
 62
       3
100
AcDbLine
 10
-66.44903938
 20
31.41282633
 30
0.0
 11
-66.63089631
 21
31.16468492
 31
0.0
  0
LINE
  5
346
100
AcDbEntity
  8
レイヤー_1
  6
CONTINUOUS
 62
       3
100
AcDbLine
 10
-66.63089631
 20
31.16468492
 30
0.0
 11
-66.79079229
 21
30.90064272
 31
0.0
  0
LINE
  5
347
100
AcDbEntity
  8
レイヤー_1
  6
CONTINUOUS
 62
       3
100
AcDbLine
 10
-66.79079229
 20
30.90064272
 30
0.0
 11
-66.92738513
 21
30.6220453
 31
0.0
  0
LINE
  5
348
100
AcDbEntity
  8
レイヤー_1
  6
CONTINUOUS
 62
       3
100
AcDbLine
 10
-66.92738513
 20
30.6220453
 30
0.0
 11
-67.03933261
 21
30.33023824
 31
0.0
  0
LINE
  5
349
100
AcDbEntity
  8
レイヤー_1
  6
CONTINUOUS
 62
       3
100
AcDbLine
 10
-67.03933261
 20
30.33023824
 30
0.0
 11
-67.12529254
 21
30.02656712
 31
0.0
  0
LINE
  5
34A
100
AcDbEntity
  8
レイヤー_1
  6
CONTINUOUS
 62
       3
100
AcDbLine
 10
-67.12529254
 20
30.02656712
 30
0.0
 11
-67.18392273
 21
29.7123775
 31
0.0
  0
LINE
  5
34B
100
AcDbEntity
  8
レイヤー_1
  6
CONTINUOUS
 62
       3
100
AcDbLine
 10
-67.18392273
 20
29.7123775
 30
0.0
 11
-67.21388096
 21
29.38901497
 31
0.0
  0
LINE
  5
34C
100
AcDbEntity
  8
レイヤー_1
  6
CONTINUOUS
 62
       3
100
AcDbLine
 10
-67.21388096
 20
29.38901497
 30
0.0
 11
-67.21388096
 21
29.05954098
 31
0.0
  0
LINE
  5
34D
100
AcDbEntity
  8
レイヤー_1
  6
CONTINUOUS
 62
       3
100
AcDbLine
 10
-67.21388096
 20
29.05954098
 30
0.0
 11
-67.18392273
 21
28.73603924
 31
0.0
  0
LINE
  5
34E
100
AcDbEntity
  8
レイヤー_1
  6
CONTINUOUS
 62
       3
100
AcDbLine
 10
-67.18392273
 20
28.73603924
 30
0.0
 11
-67.12529254
 21
28.42171885
 31
0.0
  0
LINE
  5
34F
100
AcDbEntity
  8
レイヤー_1
  6
CONTINUOUS
 62
       3
100
AcDbLine
 10
-67.12529254
 20
28.42171885
 30
0.0
 11
-67.03933261
 21
28.11792539
 31
0.0
  0
LINE
  5
350
100
AcDbEntity
  8
レイヤー_1
  6
CONTINUOUS
 62
       3
100
AcDbLine
 10
-67.03933261
 20
28.11792539
 30
0.0
 11
-66.92738513
 21
27.82600443
 31
0.0
  0
LINE
  5
351
100
AcDbEntity
  8
レイヤー_1
  6
CONTINUOUS
 62
       3
100
AcDbLine
 10
-66.92738513
 20
27.82600443
 30
0.0
 11
-66.79079229
 21
27.54730155
 31
0.0
  0
LINE
  5
352
100
AcDbEntity
  8
レイヤー_1
  6
CONTINUOUS
 62
       3
100
AcDbLine
 10
-66.79079229
 20
27.54730155
 30
0.0
 11
-66.63089631
 21
27.28316232
 31
0.0
  0
LINE
  5
353
100
AcDbEntity
  8
レイヤー_1
  6
CONTINUOUS
 62
       3
100
AcDbLine
 10
-66.63089631
 20
27.28316232
 30
0.0
 11
-66.44903938
 21
27.03493232
 31
0.0
  0
LINE
  5
354
100
AcDbEntity
  8
レイヤー_1
  6
CONTINUOUS
 62
       3
100
AcDbLine
 10
-66.44903938
 20
27.03493232
 30
0.0
 11
-66.24656371
 21
26.80395713
 31
0.0
  0
LINE
  5
355
100
AcDbEntity
  8
レイヤー_1
  6
CONTINUOUS
 62
       3
100
AcDbLine
 10
-66.24656371
 20
26.80395713
 30
0.0
 11
-66.02481149
 21
26.59158232
 31
0.0
  0
LINE
  5
356
100
AcDbEntity
  8
レイヤー_1
  6
CONTINUOUS
 62
       3
100
AcDbLine
 10
-66.02481149
 20
26.59158232
 30
0.0
 11
-65.78512493
 21
26.39915347
 31
0.0
  0
LINE
  5
357
100
AcDbEntity
  8
レイヤー_1
  6
CONTINUOUS
 62
       3
100
AcDbLine
 10
-65.78512493
 20
26.39915347
 30
0.0
 11
-65.52884622
 21
26.22801615
 31
0.0
  0
LINE
  5
358
100
AcDbEntity
  8
レイヤー_1
  6
CONTINUOUS
 62
       3
100
AcDbLine
 10
-65.52884622
 20
26.22801615
 30
0.0
 11
-65.25731758
 21
26.07951595
 31
0.0
  0
LINE
  5
359
100
AcDbEntity
  8
レイヤー_1
  6
CONTINUOUS
 62
       3
100
AcDbLine
 10
-65.25731758
 20
26.07951595
 30
0.0
 11
-64.97188119
 21
25.95499842
 31
0.0
  0
LINE
  5
35A
100
AcDbEntity
  8
レイヤー_1
  6
CONTINUOUS
 62
       3
100
AcDbLine
 10
-64.97188119
 20
25.95499842
 30
0.0
 11
-64.67387927
 21
25.85580916
 31
0.0
  0
LINE
  5
35B
100
AcDbEntity
  8
レイヤー_1
  6
CONTINUOUS
 62
       3
100
AcDbLine
 10
-64.67387927
 20
25.85580916
 30
0.0
 11
-64.36465401
 21
25.78329374
 31
0.0
  0
LINE
  5
35C
100
AcDbEntity
  8
レイヤー_1
  6
CONTINUOUS
 62
       3
100
AcDbLine
 10
-64.36465401
 20
25.78329374
 30
0.0
 11
-64.04554761
 21
25.73879773
 31
0.0
  0
LINE
  5
35D
100
AcDbEntity
  8
レイヤー_1
  6
CONTINUOUS
 62
       3
100
AcDbLine
 10
-64.04554761
 20
25.73879773
 30
0.0
 11
-63.71790227
 21
25.72366671
 31
0.0
  0
LINE
  5
35E
100
AcDbEntity
  8
レイヤー_1
  6
CONTINUOUS
 62
       3
100
AcDbLine
 10
-70.16496784
 20
-21.63735284
 30
0.0
 11
-70.11712886
 21
-21.71988775
 31
0.0
  0
LINE
  5
35F
100
AcDbEntity
  8
レイヤー_1
  6
CONTINUOUS
 62
       3
100
AcDbLine
 10
-70.11712886
 20
-21.71988775
 30
0.0
 11
-70.06088767
 21
-21.79673061
 31
0.0
  0
LINE
  5
360
100
AcDbEntity
  8
レイヤー_1
  6
CONTINUOUS
 62
       3
100
AcDbLine
 10
-70.06088767
 20
-21.79673061
 30
0.0
 11
-69.99624429
 21
-21.8678814
 31
0.0
  0
LINE
  5
361
100
AcDbEntity
  8
レイヤー_1
  6
CONTINUOUS
 62
       3
100
AcDbLine
 10
-69.99624429
 20
-21.8678814
 30
0.0
 11
-69.92319869
 21
-21.93334013
 31
0.0
  0
LINE
  5
362
100
AcDbEntity
  8
レイヤー_1
  6
CONTINUOUS
 62
       3
100
AcDbLine
 10
-69.92319869
 20
-21.93334013
 30
0.0
 11
-69.84175089
 21
-21.99310679
 31
0.0
  0
LINE
  5
363
100
AcDbEntity
  8
レイヤー_1
  6
CONTINUOUS
 62
       3
100
AcDbLine
 10
-69.84175089
 20
-21.99310679
 30
0.0
 11
-69.75190089
 21
-22.0471814
 31
0.0
  0
LINE
  5
364
100
AcDbEntity
  8
レイヤー_1
  6
CONTINUOUS
 62
       3
100
AcDbLine
 10
-69.75190089
 20
-22.0471814
 30
0.0
 11
-69.65364868
 21
-22.09556393
 31
0.0
  0
LINE
  5
365
100
AcDbEntity
  8
レイヤー_1
  6
CONTINUOUS
 62
       3
100
AcDbLine
 10
-69.65364868
 20
-22.09556393
 30
0.0
 11
-69.54699426
 21
-22.13825441
 31
0.0
  0
LINE
  5
366
100
AcDbEntity
  8
レイヤー_1
  6
CONTINUOUS
 62
       3
100
AcDbLine
 10
-69.54699426
 20
-22.13825441
 30
0.0
 11
-69.43193765
 21
-22.17525282
 31
0.0
  0
LINE
  5
367
100
AcDbEntity
  8
レイヤー_1
  6
CONTINUOUS
 62
       3
100
AcDbLine
 10
-69.43193765
 20
-22.17525282
 30
0.0
 11
-69.30847882
 21
-22.20655917
 31
0.0
  0
LINE
  5
368
100
AcDbEntity
  8
レイヤー_1
  6
CONTINUOUS
 62
       3
100
AcDbLine
 10
-69.30847882
 20
-22.20655917
 30
0.0
 11
-69.17661779
 21
-22.23217345
 31
0.0
  0
LINE
  5
369
100
AcDbEntity
  8
レイヤー_1
  6
CONTINUOUS
 62
       3
100
AcDbLine
 10
-69.17661779
 20
-22.23217345
 30
0.0
 11
-69.03635456
 21
-22.25209568
 31
0.0
  0
LINE
  5
36A
100
AcDbEntity
  8
レイヤー_1
  6
CONTINUOUS
 62
       3
100
AcDbLine
 10
-69.03635456
 20
-22.25209568
 30
0.0
 11
-68.88768912
 21
-22.26632583
 31
0.0
  0
LINE
  5
36B
100
AcDbEntity
  8
レイヤー_1
  6
CONTINUOUS
 62
       3
100
AcDbLine
 10
-68.88768912
 20
-22.26632583
 30
0.0
 11
-68.73062147
 21
-22.27486393
 31
0.0
  0
LINE
  5
36C
100
AcDbEntity
  8
レイヤー_1
  6
CONTINUOUS
 62
       3
100
AcDbLine
 10
-68.73062147
 20
-22.27486393
 30
0.0
 11
-68.56515162
 21
-22.27770996
 31
0.0
  0
LINE
  5
36D
100
AcDbEntity
  8
レイヤー_1
  6
CONTINUOUS
 62
       3
100
AcDbLine
 10
-68.56515162
 20
-22.27770996
 30
0.0
 11
-68.40691647
 21
-22.27486393
 31
0.0
  0
LINE
  5
36E
100
AcDbEntity
  8
レイヤー_1
  6
CONTINUOUS
 62
       3
100
AcDbLine
 10
-68.40691647
 20
-22.27486393
 30
0.0
 11
-68.25605
 21
-22.26632583
 31
0.0
  0
LINE
  5
36F
100
AcDbEntity
  8
レイヤー_1
  6
CONTINUOUS
 62
       3
100
AcDbLine
 10
-68.25605
 20
-22.26632583
 30
0.0
 11
-68.1125522
 21
-22.25209568
 31
0.0
  0
LINE
  5
370
100
AcDbEntity
  8
レイヤー_1
  6
CONTINUOUS
 62
       3
100
AcDbLine
 10
-68.1125522
 20
-22.25209568
 30
0.0
 11
-67.97642308
 21
-22.23217345
 31
0.0
  0
LINE
  5
371
100
AcDbEntity
  8
レイヤー_1
  6
CONTINUOUS
 62
       3
100
AcDbLine
 10
-67.97642308
 20
-22.23217345
 30
0.0
 11
-67.84766264
 21
-22.20655917
 31
0.0
  0
LINE
  5
372
100
AcDbEntity
  8
レイヤー_1
  6
CONTINUOUS
 62
       3
100
AcDbLine
 10
-67.84766264
 20
-22.20655917
 30
0.0
 11
-67.72627087
 21
-22.17525282
 31
0.0
  0
LINE
  5
373
100
AcDbEntity
  8
レイヤー_1
  6
CONTINUOUS
 62
       3
100
AcDbLine
 10
-67.72627087
 20
-22.17525282
 30
0.0
 11
-67.61224778
 21
-22.13825441
 31
0.0
  0
LINE
  5
374
100
AcDbEntity
  8
レイヤー_1
  6
CONTINUOUS
 62
       3
100
AcDbLine
 10
-67.61224778
 20
-22.13825441
 30
0.0
 11
-67.50559337
 21
-22.09556393
 31
0.0
  0
LINE
  5
375
100
AcDbEntity
  8
レイヤー_1
  6
CONTINUOUS
 62
       3
100
AcDbLine
 10
-67.50559337
 20
-22.09556393
 30
0.0
 11
-67.40630763
 21
-22.0471814
 31
0.0
  0
LINE
  5
376
100
AcDbEntity
  8
レイヤー_1
  6
CONTINUOUS
 62
       3
100
AcDbLine
 10
-67.40630763
 20
-22.0471814
 30
0.0
 11
-67.31439057
 21
-21.99310679
 31
0.0
  0
LINE
  5
377
100
AcDbEntity
  8
レイヤー_1
  6
CONTINUOUS
 62
       3
100
AcDbLine
 10
-67.31439057
 20
-21.99310679
 30
0.0
 11
-67.22984218
 21
-21.93334013
 31
0.0
  0
LINE
  5
378
100
AcDbEntity
  8
レイヤー_1
  6
CONTINUOUS
 62
       3
100
AcDbLine
 10
-67.22984218
 20
-21.93334013
 30
0.0
 11
-67.15266247
 21
-21.8678814
 31
0.0
  0
LINE
  5
379
100
AcDbEntity
  8
レイヤー_1
  6
CONTINUOUS
 62
       3
100
AcDbLine
 10
-67.15266247
 20
-21.8678814
 30
0.0
 11
-67.08285144
 21
-21.79673061
 31
0.0
  0
LINE
  5
37A
100
AcDbEntity
  8
レイヤー_1
  6
CONTINUOUS
 62
       3
100
AcDbLine
 10
-67.08285144
 20
-21.79673061
 30
0.0
 11
-67.02040908
 21
-21.71988775
 31
0.0
  0
LINE
  5
37B
100
AcDbEntity
  8
レイヤー_1
  6
CONTINUOUS
 62
       3
100
AcDbLine
 10
-67.02040908
 20
-21.71988775
 30
0.0
 11
-66.96533541
 21
-21.63735284
 31
0.0
  0
LINE
  5
37C
100
AcDbEntity
  8
レイヤー_1
  6
CONTINUOUS
 62
       3
100
AcDbLine
 10
-121.71823795
 20
-25.72280545
 30
0.0
 11
-122.04569452
 21
-25.73793241
 31
0.0
  0
LINE
  5
37D
100
AcDbEntity
  8
レイヤー_1
  6
CONTINUOUS
 62
       3
100
AcDbLine
 10
-122.04569452
 20
-25.73793241
 30
0.0
 11
-122.36467338
 21
-25.78241689
 31
0.0
  0
LINE
  5
37E
100
AcDbEntity
  8
レイヤー_1
  6
CONTINUOUS
 62
       3
100
AcDbLine
 10
-122.36467338
 20
-25.78241689
 30
0.0
 11
-122.67382606
 21
-25.85491427
 31
0.0
  0
LINE
  5
37F
100
AcDbEntity
  8
レイヤー_1
  6
CONTINUOUS
 62
       3
100
AcDbLine
 10
-122.67382606
 20
-25.85491427
 30
0.0
 11
-122.9718041
 21
-25.95407995
 31
0.0
  0
LINE
  5
380
100
AcDbEntity
  8
レイヤー_1
  6
CONTINUOUS
 62
       3
100
AcDbLine
 10
-122.9718041
 20
-25.95407995
 30
0.0
 11
-123.25725903
 21
-26.07856931
 31
0.0
  0
LINE
  5
381
100
AcDbEntity
  8
レイヤー_1
  6
CONTINUOUS
 62
       3
100
AcDbLine
 10
-123.25725903
 20
-26.07856931
 30
0.0
 11
-123.52884238
 21
-26.22703774
 31
0.0
  0
LINE
  5
382
100
AcDbEntity
  8
レイヤー_1
  6
CONTINUOUS
 62
       3
100
AcDbLine
 10
-123.52884238
 20
-26.22703774
 30
0.0
 11
-123.78520567
 21
-26.39814062
 31
0.0
  0
LINE
  5
383
100
AcDbEntity
  8
レイヤー_1
  6
CONTINUOUS
 62
       3
100
AcDbLine
 10
-123.78520567
 20
-26.39814062
 30
0.0
 11
-124.02500045
 21
-26.59053336
 31
0.0
  0
LINE
  5
384
100
AcDbEntity
  8
レイヤー_1
  6
CONTINUOUS
 62
       3
100
AcDbLine
 10
-124.02500045
 20
-26.59053336
 30
0.0
 11
-124.24687824
 21
-26.80287132
 31
0.0
  0
LINE
  5
385
100
AcDbEntity
  8
レイヤー_1
  6
CONTINUOUS
 62
       3
100
AcDbLine
 10
-124.24687824
 20
-26.80287132
 30
0.0
 11
-124.44949057
 21
-27.03380992
 31
0.0
  0
LINE
  5
386
100
AcDbEntity
  8
レイヤー_1
  6
CONTINUOUS
 62
       3
100
AcDbLine
 10
-124.44949057
 20
-27.03380992
 30
0.0
 11
-124.63148898
 21
-27.28200452
 31
0.0
  0
LINE
  5
387
100
AcDbEntity
  8
レイヤー_1
  6
CONTINUOUS
 62
       3
100
AcDbLine
 10
-124.63148898
 20
-27.28200452
 30
0.0
 11
-124.79152499
 21
-27.54611052
 31
0.0
  0
LINE
  5
388
100
AcDbEntity
  8
レイヤー_1
  6
CONTINUOUS
 62
       3
100
AcDbLine
 10
-124.79152499
 20
-27.54611052
 30
0.0
 11
-124.92825015
 21
-27.82478331
 31
0.0
  0
LINE
  5
389
100
AcDbEntity
  8
レイヤー_1
  6
CONTINUOUS
 62
       3
100
AcDbLine
 10
-124.92825015
 20
-27.82478331
 30
0.0
 11
-125.04031597
 21
-28.11667827
 31
0.0
  0
LINE
  5
38A
100
AcDbEntity
  8
レイヤー_1
  6
CONTINUOUS
 62
       3
100
AcDbLine
 10
-125.04031597
 20
-28.11667827
 30
0.0
 11
-125.12637399
 21
-28.4204508
 31
0.0
  0
LINE
  5
38B
100
AcDbEntity
  8
レイヤー_1
  6
CONTINUOUS
 62
       3
100
AcDbLine
 10
-125.12637399
 20
-28.4204508
 30
0.0
 11
-125.18507575
 21
-28.73475629
 31
0.0
  0
LINE
  5
38C
100
AcDbEntity
  8
レイヤー_1
  6
CONTINUOUS
 62
       3
100
AcDbLine
 10
-125.18507575
 20
-28.73475629
 30
0.0
 11
-125.21507277
 21
-29.05825011
 31
0.0
  0
LINE
  5
38D
100
AcDbEntity
  8
レイヤー_1
  6
CONTINUOUS
 62
       3
100
AcDbLine
 10
-125.21507277
 20
-29.05825011
 30
0.0
 11
-125.21507277
 21
-29.38772411
 31
0.0
  0
LINE
  5
38E
100
AcDbEntity
  8
レイヤー_1
  6
CONTINUOUS
 62
       3
100
AcDbLine
 10
-125.21507277
 20
-29.38772411
 30
0.0
 11
-125.18507575
 21
-29.71109455
 31
0.0
  0
LINE
  5
38F
100
AcDbEntity
  8
レイヤー_1
  6
CONTINUOUS
 62
       3
100
AcDbLine
 10
-125.18507575
 20
-29.71109455
 30
0.0
 11
-125.12637399
 21
-30.02529907
 31
0.0
  0
LINE
  5
390
100
AcDbEntity
  8
レイヤー_1
  6
CONTINUOUS
 62
       3
100
AcDbLine
 10
-125.12637399
 20
-30.02529907
 30
0.0
 11
-125.04031597
 21
-30.32899113
 31
0.0
  0
LINE
  5
391
100
AcDbEntity
  8
レイヤー_1
  6
CONTINUOUS
 62
       3
100
AcDbLine
 10
-125.04031597
 20
-30.32899113
 30
0.0
 11
-124.92825015
 21
-30.62082418
 31
0.0
  0
LINE
  5
392
100
AcDbEntity
  8
レイヤー_1
  6
CONTINUOUS
 62
       3
100
AcDbLine
 10
-124.92825015
 20
-30.62082418
 30
0.0
 11
-124.79152499
 21
-30.89945169
 31
0.0
  0
LINE
  5
393
100
AcDbEntity
  8
レイヤー_1
  6
CONTINUOUS
 62
       3
100
AcDbLine
 10
-124.79152499
 20
-30.89945169
 30
0.0
 11
-124.63148898
 21
-31.16352712
 31
0.0
  0
LINE
  5
394
100
AcDbEntity
  8
レイヤー_1
  6
CONTINUOUS
 62
       3
100
AcDbLine
 10
-124.63148898
 20
-31.16352712
 30
0.0
 11
-124.44949057
 21
-31.41170392
 31
0.0
  0
LINE
  5
395
100
AcDbEntity
  8
レイヤー_1
  6
CONTINUOUS
 62
       3
100
AcDbLine
 10
-124.44949057
 20
-31.41170392
 30
0.0
 11
-124.24687824
 21
-31.64263556
 31
0.0
  0
LINE
  5
396
100
AcDbEntity
  8
レイヤー_1
  6
CONTINUOUS
 62
       3
100
AcDbLine
 10
-124.24687824
 20
-31.64263556
 30
0.0
 11
-124.02500045
 21
-31.8549755
 31
0.0
  0
LINE
  5
397
100
AcDbEntity
  8
レイヤー_1
  6
CONTINUOUS
 62
       3
100
AcDbLine
 10
-124.02500045
 20
-31.8549755
 30
0.0
 11
-123.78520567
 21
-32.04737719
 31
0.0
  0
LINE
  5
398
100
AcDbEntity
  8
レイヤー_1
  6
CONTINUOUS
 62
       3
100
AcDbLine
 10
-123.78520567
 20
-32.04737719
 30
0.0
 11
-123.52884238
 21
-32.2184941
 31
0.0
  0
LINE
  5
399
100
AcDbEntity
  8
レイヤー_1
  6
CONTINUOUS
 62
       3
100
AcDbLine
 10
-123.52884238
 20
-32.2184941
 30
0.0
 11
-123.25725903
 21
-32.36697969
 31
0.0
  0
LINE
  5
39A
100
AcDbEntity
  8
レイヤー_1
  6
CONTINUOUS
 62
       3
100
AcDbLine
 10
-123.25725903
 20
-32.36697969
 30
0.0
 11
-122.9718041
 21
-32.49148741
 31
0.0
  0
LINE
  5
39B
100
AcDbEntity
  8
レイヤー_1
  6
CONTINUOUS
 62
       3
100
AcDbLine
 10
-122.9718041
 20
-32.49148741
 30
0.0
 11
-122.67382606
 21
-32.59067072
 31
0.0
  0
LINE
  5
39C
100
AcDbEntity
  8
レイヤー_1
  6
CONTINUOUS
 62
       3
100
AcDbLine
 10
-122.67382606
 20
-32.59067072
 30
0.0
 11
-122.36467338
 21
-32.66318309
 31
0.0
  0
LINE
  5
39D
100
AcDbEntity
  8
レイヤー_1
  6
CONTINUOUS
 62
       3
100
AcDbLine
 10
-122.36467338
 20
-32.66318309
 30
0.0
 11
-122.04569452
 21
-32.70767797
 31
0.0
  0
LINE
  5
39E
100
AcDbEntity
  8
レイヤー_1
  6
CONTINUOUS
 62
       3
100
AcDbLine
 10
-122.04569452
 20
-32.70767797
 30
0.0
 11
-121.71823795
 21
-32.72280883
 31
0.0
  0
LINE
  5
39F
100
AcDbEntity
  8
レイヤー_1
  6
CONTINUOUS
 62
       3
100
AcDbLine
 10
-121.71823795
 20
-32.72280883
 30
0.0
 11
-121.3906623
 21
-32.70767797
 31
0.0
  0
LINE
  5
3A0
100
AcDbEntity
  8
レイヤー_1
  6
CONTINUOUS
 62
       3
100
AcDbLine
 10
-121.3906623
 20
-32.70767797
 30
0.0
 11
-121.07161764
 21
-32.66318309
 31
0.0
  0
LINE
  5
3A1
100
AcDbEntity
  8
レイヤー_1
  6
CONTINUOUS
 62
       3
100
AcDbLine
 10
-121.07161764
 20
-32.66318309
 30
0.0
 11
-120.76244663
 21
-32.59067072
 31
0.0
  0
LINE
  5
3A2
100
AcDbEntity
  8
レイヤー_1
  6
CONTINUOUS
 62
       3
100
AcDbLine
 10
-120.76244663
 20
-32.59067072
 30
0.0
 11
-120.46449197
 21
-32.49148741
 31
0.0
  0
LINE
  5
3A3
100
AcDbEntity
  8
レイヤー_1
  6
CONTINUOUS
 62
       3
100
AcDbLine
 10
-120.46449197
 20
-32.49148741
 30
0.0
 11
-120.17909635
 21
-32.36697969
 31
0.0
  0
LINE
  5
3A4
100
AcDbEntity
  8
レイヤー_1
  6
CONTINUOUS
 62
       3
100
AcDbLine
 10
-120.17909635
 20
-32.36697969
 30
0.0
 11
-119.90760243
 21
-32.2184941
 31
0.0
  0
LINE
  5
3A5
100
AcDbEntity
  8
レイヤー_1
  6
CONTINUOUS
 62
       3
100
AcDbLine
 10
-119.90760243
 20
-32.2184941
 30
0.0
 11
-119.65135292
 21
-32.04737719
 31
0.0
  0
LINE
  5
3A6
100
AcDbEntity
  8
レイヤー_1
  6
CONTINUOUS
 62
       3
100
AcDbLine
 10
-119.65135292
 20
-32.04737719
 30
0.0
 11
-119.41169048
 21
-31.8549755
 31
0.0
  0
LINE
  5
3A7
100
AcDbEntity
  8
レイヤー_1
  6
CONTINUOUS
 62
       3
100
AcDbLine
 10
-119.41169048
 20
-31.8549755
 30
0.0
 11
-119.18995781
 21
-31.64263556
 31
0.0
  0
LINE
  5
3A8
100
AcDbEntity
  8
レイヤー_1
  6
CONTINUOUS
 62
       3
100
AcDbLine
 10
-119.18995781
 20
-31.64263556
 30
0.0
 11
-118.98749758
 21
-31.41170392
 31
0.0
  0
LINE
  5
3A9
100
AcDbEntity
  8
レイヤー_1
  6
CONTINUOUS
 62
       3
100
AcDbLine
 10
-118.98749758
 20
-31.41170392
 30
0.0
 11
-118.80565248
 21
-31.16352712
 31
0.0
  0
LINE
  5
3AA
100
AcDbEntity
  8
レイヤー_1
  6
CONTINUOUS
 62
       3
100
AcDbLine
 10
-118.80565248
 20
-31.16352712
 30
0.0
 11
-118.6457652
 21
-30.89945169
 31
0.0
  0
LINE
  5
3AB
100
AcDbEntity
  8
レイヤー_1
  6
CONTINUOUS
 62
       3
100
AcDbLine
 10
-118.6457652
 20
-30.89945169
 30
0.0
 11
-118.50917841
 21
-30.62082418
 31
0.0
  0
LINE
  5
3AC
100
AcDbEntity
  8
レイヤー_1
  6
CONTINUOUS
 62
       3
100
AcDbLine
 10
-118.50917841
 20
-30.62082418
 30
0.0
 11
-118.39723481
 21
-30.32899113
 31
0.0
  0
LINE
  5
3AD
100
AcDbEntity
  8
レイヤー_1
  6
CONTINUOUS
 62
       3
100
AcDbLine
 10
-118.39723481
 20
-30.32899113
 30
0.0
 11
-118.31127706
 21
-30.02529907
 31
0.0
  0
LINE
  5
3AE
100
AcDbEntity
  8
レイヤー_1
  6
CONTINUOUS
 62
       3
100
AcDbLine
 10
-118.31127706
 20
-30.02529907
 30
0.0
 11
-118.25264787
 21
-29.71109455
 31
0.0
  0
LINE
  5
3AF
100
AcDbEntity
  8
レイヤー_1
  6
CONTINUOUS
 62
       3
100
AcDbLine
 10
-118.25264787
 20
-29.71109455
 30
0.0
 11
-118.2226899
 21
-29.38772411
 31
0.0
  0
LINE
  5
3B0
100
AcDbEntity
  8
レイヤー_1
  6
CONTINUOUS
 62
       3
100
AcDbLine
 10
-118.2226899
 20
-29.38772411
 30
0.0
 11
-118.2226899
 21
-29.05825011
 31
0.0
  0
LINE
  5
3B1
100
AcDbEntity
  8
レイヤー_1
  6
CONTINUOUS
 62
       3
100
AcDbLine
 10
-118.2226899
 20
-29.05825011
 30
0.0
 11
-118.25264787
 21
-28.73475629
 31
0.0
  0
LINE
  5
3B2
100
AcDbEntity
  8
レイヤー_1
  6
CONTINUOUS
 62
       3
100
AcDbLine
 10
-118.25264787
 20
-28.73475629
 30
0.0
 11
-118.31127706
 21
-28.4204508
 31
0.0
  0
LINE
  5
3B3
100
AcDbEntity
  8
レイヤー_1
  6
CONTINUOUS
 62
       3
100
AcDbLine
 10
-118.31127706
 20
-28.4204508
 30
0.0
 11
-118.39723481
 21
-28.11667827
 31
0.0
  0
LINE
  5
3B4
100
AcDbEntity
  8
レイヤー_1
  6
CONTINUOUS
 62
       3
100
AcDbLine
 10
-118.39723481
 20
-28.11667827
 30
0.0
 11
-118.50917841
 21
-27.82478331
 31
0.0
  0
LINE
  5
3B5
100
AcDbEntity
  8
レイヤー_1
  6
CONTINUOUS
 62
       3
100
AcDbLine
 10
-118.50917841
 20
-27.82478331
 30
0.0
 11
-118.6457652
 21
-27.54611052
 31
0.0
  0
LINE
  5
3B6
100
AcDbEntity
  8
レイヤー_1
  6
CONTINUOUS
 62
       3
100
AcDbLine
 10
-118.6457652
 20
-27.54611052
 30
0.0
 11
-118.80565248
 21
-27.28200452
 31
0.0
  0
LINE
  5
3B7
100
AcDbEntity
  8
レイヤー_1
  6
CONTINUOUS
 62
       3
100
AcDbLine
 10
-118.80565248
 20
-27.28200452
 30
0.0
 11
-118.98749758
 21
-27.03380992
 31
0.0
  0
LINE
  5
3B8
100
AcDbEntity
  8
レイヤー_1
  6
CONTINUOUS
 62
       3
100
AcDbLine
 10
-118.98749758
 20
-27.03380992
 30
0.0
 11
-119.18995781
 21
-26.80287132
 31
0.0
  0
LINE
  5
3B9
100
AcDbEntity
  8
レイヤー_1
  6
CONTINUOUS
 62
       3
100
AcDbLine
 10
-119.18995781
 20
-26.80287132
 30
0.0
 11
-119.41169048
 21
-26.59053336
 31
0.0
  0
LINE
  5
3BA
100
AcDbEntity
  8
レイヤー_1
  6
CONTINUOUS
 62
       3
100
AcDbLine
 10
-119.41169048
 20
-26.59053336
 30
0.0
 11
-119.65135292
 21
-26.39814062
 31
0.0
  0
LINE
  5
3BB
100
AcDbEntity
  8
レイヤー_1
  6
CONTINUOUS
 62
       3
100
AcDbLine
 10
-119.65135292
 20
-26.39814062
 30
0.0
 11
-119.90760243
 21
-26.22703774
 31
0.0
  0
LINE
  5
3BC
100
AcDbEntity
  8
レイヤー_1
  6
CONTINUOUS
 62
       3
100
AcDbLine
 10
-119.90760243
 20
-26.22703774
 30
0.0
 11
-120.17909635
 21
-26.07856931
 31
0.0
  0
LINE
  5
3BD
100
AcDbEntity
  8
レイヤー_1
  6
CONTINUOUS
 62
       3
100
AcDbLine
 10
-120.17909635
 20
-26.07856931
 30
0.0
 11
-120.46449197
 21
-25.95407995
 31
0.0
  0
LINE
  5
3BE
100
AcDbEntity
  8
レイヤー_1
  6
CONTINUOUS
 62
       3
100
AcDbLine
 10
-120.46449197
 20
-25.95407995
 30
0.0
 11
-120.76244663
 21
-25.85491427
 31
0.0
  0
LINE
  5
3BF
100
AcDbEntity
  8
レイヤー_1
  6
CONTINUOUS
 62
       3
100
AcDbLine
 10
-120.76244663
 20
-25.85491427
 30
0.0
 11
-121.07161764
 21
-25.78241689
 31
0.0
  0
LINE
  5
3C0
100
AcDbEntity
  8
レイヤー_1
  6
CONTINUOUS
 62
       3
100
AcDbLine
 10
-121.07161764
 20
-25.78241689
 30
0.0
 11
-121.3906623
 21
-25.73793241
 31
0.0
  0
LINE
  5
3C1
100
AcDbEntity
  8
レイヤー_1
  6
CONTINUOUS
 62
       3
100
AcDbLine
 10
-121.3906623
 20
-25.73793241
 30
0.0
 11
-121.71823795
 21
-25.72280545
 31
0.0
  0
LINE
  5
3C2
100
AcDbEntity
  8
レイヤー_1
  6
CONTINUOUS
 62
       3
100
AcDbLine
 10
-110.11817082
 20
-25.72280545
 30
0.0
 11
-110.44574647
 21
-25.73793241
 31
0.0
  0
LINE
  5
3C3
100
AcDbEntity
  8
レイヤー_1
  6
CONTINUOUS
 62
       3
100
AcDbLine
 10
-110.44574647
 20
-25.73793241
 30
0.0
 11
-110.76479113
 21
-25.78241689
 31
0.0
  0
LINE
  5
3C4
100
AcDbEntity
  8
レイヤー_1
  6
CONTINUOUS
 62
       3
100
AcDbLine
 10
-110.76479113
 20
-25.78241689
 30
0.0
 11
-111.07396214
 21
-25.85491427
 31
0.0
  0
LINE
  5
3C5
100
AcDbEntity
  8
レイヤー_1
  6
CONTINUOUS
 62
       3
100
AcDbLine
 10
-111.07396214
 20
-25.85491427
 30
0.0
 11
-111.3719168
 21
-25.95407995
 31
0.0
  0
LINE
  5
3C6
100
AcDbEntity
  8
レイヤー_1
  6
CONTINUOUS
 62
       3
100
AcDbLine
 10
-111.3719168
 20
-25.95407995
 30
0.0
 11
-111.65731242
 21
-26.07856931
 31
0.0
  0
LINE
  5
3C7
100
AcDbEntity
  8
レイヤー_1
  6
CONTINUOUS
 62
       3
100
AcDbLine
 10
-111.65731242
 20
-26.07856931
 30
0.0
 11
-111.92880634
 21
-26.22703774
 31
0.0
  0
LINE
  5
3C8
100
AcDbEntity
  8
レイヤー_1
  6
CONTINUOUS
 62
       3
100
AcDbLine
 10
-111.92880634
 20
-26.22703774
 30
0.0
 11
-112.18505585
 21
-26.39814062
 31
0.0
  0
LINE
  5
3C9
100
AcDbEntity
  8
レイヤー_1
  6
CONTINUOUS
 62
       3
100
AcDbLine
 10
-112.18505585
 20
-26.39814062
 30
0.0
 11
-112.42471829
 21
-26.59053336
 31
0.0
  0
LINE
  5
3CA
100
AcDbEntity
  8
レイヤー_1
  6
CONTINUOUS
 62
       3
100
AcDbLine
 10
-112.42471829
 20
-26.59053336
 30
0.0
 11
-112.64645096
 21
-26.80287132
 31
0.0
  0
LINE
  5
3CB
100
AcDbEntity
  8
レイヤー_1
  6
CONTINUOUS
 62
       3
100
AcDbLine
 10
-112.64645096
 20
-26.80287132
 30
0.0
 11
-112.84891119
 21
-27.03380992
 31
0.0
  0
LINE
  5
3CC
100
AcDbEntity
  8
レイヤー_1
  6
CONTINUOUS
 62
       3
100
AcDbLine
 10
-112.84891119
 20
-27.03380992
 30
0.0
 11
-113.03075629
 21
-27.28200452
 31
0.0
  0
LINE
  5
3CD
100
AcDbEntity
  8
レイヤー_1
  6
CONTINUOUS
 62
       3
100
AcDbLine
 10
-113.03075629
 20
-27.28200452
 30
0.0
 11
-113.19064357
 21
-27.54611052
 31
0.0
  0
LINE
  5
3CE
100
AcDbEntity
  8
レイヤー_1
  6
CONTINUOUS
 62
       3
100
AcDbLine
 10
-113.19064357
 20
-27.54611052
 30
0.0
 11
-113.32723036
 21
-27.82478331
 31
0.0
  0
LINE
  5
3CF
100
AcDbEntity
  8
レイヤー_1
  6
CONTINUOUS
 62
       3
100
AcDbLine
 10
-113.32723036
 20
-27.82478331
 30
0.0
 11
-113.43917396
 21
-28.11667827
 31
0.0
  0
LINE
  5
3D0
100
AcDbEntity
  8
レイヤー_1
  6
CONTINUOUS
 62
       3
100
AcDbLine
 10
-113.43917396
 20
-28.11667827
 30
0.0
 11
-113.52513171
 21
-28.4204508
 31
0.0
  0
LINE
  5
3D1
100
AcDbEntity
  8
レイヤー_1
  6
CONTINUOUS
 62
       3
100
AcDbLine
 10
-113.52513171
 20
-28.4204508
 30
0.0
 11
-113.5837609
 21
-28.73475629
 31
0.0
  0
LINE
  5
3D2
100
AcDbEntity
  8
レイヤー_1
  6
CONTINUOUS
 62
       3
100
AcDbLine
 10
-113.5837609
 20
-28.73475629
 30
0.0
 11
-113.61371887
 21
-29.05825011
 31
0.0
  0
LINE
  5
3D3
100
AcDbEntity
  8
レイヤー_1
  6
CONTINUOUS
 62
       3
100
AcDbLine
 10
-113.61371887
 20
-29.05825011
 30
0.0
 11
-113.61371887
 21
-29.38772411
 31
0.0
  0
LINE
  5
3D4
100
AcDbEntity
  8
レイヤー_1
  6
CONTINUOUS
 62
       3
100
AcDbLine
 10
-113.61371887
 20
-29.38772411
 30
0.0
 11
-113.5837609
 21
-29.71109455
 31
0.0
  0
LINE
  5
3D5
100
AcDbEntity
  8
レイヤー_1
  6
CONTINUOUS
 62
       3
100
AcDbLine
 10
-113.5837609
 20
-29.71109455
 30
0.0
 11
-113.52513171
 21
-30.02529907
 31
0.0
  0
LINE
  5
3D6
100
AcDbEntity
  8
レイヤー_1
  6
CONTINUOUS
 62
       3
100
AcDbLine
 10
-113.52513171
 20
-30.02529907
 30
0.0
 11
-113.43917396
 21
-30.32899113
 31
0.0
  0
LINE
  5
3D7
100
AcDbEntity
  8
レイヤー_1
  6
CONTINUOUS
 62
       3
100
AcDbLine
 10
-113.43917396
 20
-30.32899113
 30
0.0
 11
-113.32723036
 21
-30.62082418
 31
0.0
  0
LINE
  5
3D8
100
AcDbEntity
  8
レイヤー_1
  6
CONTINUOUS
 62
       3
100
AcDbLine
 10
-113.32723036
 20
-30.62082418
 30
0.0
 11
-113.19064357
 21
-30.89945169
 31
0.0
  0
LINE
  5
3D9
100
AcDbEntity
  8
レイヤー_1
  6
CONTINUOUS
 62
       3
100
AcDbLine
 10
-113.19064357
 20
-30.89945169
 30
0.0
 11
-113.03075629
 21
-31.16352712
 31
0.0
  0
LINE
  5
3DA
100
AcDbEntity
  8
レイヤー_1
  6
CONTINUOUS
 62
       3
100
AcDbLine
 10
-113.03075629
 20
-31.16352712
 30
0.0
 11
-112.84891119
 21
-31.41170392
 31
0.0
  0
LINE
  5
3DB
100
AcDbEntity
  8
レイヤー_1
  6
CONTINUOUS
 62
       3
100
AcDbLine
 10
-112.84891119
 20
-31.41170392
 30
0.0
 11
-112.64645096
 21
-31.64263556
 31
0.0
  0
LINE
  5
3DC
100
AcDbEntity
  8
レイヤー_1
  6
CONTINUOUS
 62
       3
100
AcDbLine
 10
-112.64645096
 20
-31.64263556
 30
0.0
 11
-112.42471829
 21
-31.8549755
 31
0.0
  0
LINE
  5
3DD
100
AcDbEntity
  8
レイヤー_1
  6
CONTINUOUS
 62
       3
100
AcDbLine
 10
-112.42471829
 20
-31.8549755
 30
0.0
 11
-112.18505585
 21
-32.04737719
 31
0.0
  0
LINE
  5
3DE
100
AcDbEntity
  8
レイヤー_1
  6
CONTINUOUS
 62
       3
100
AcDbLine
 10
-112.18505585
 20
-32.04737719
 30
0.0
 11
-111.92880634
 21
-32.2184941
 31
0.0
  0
LINE
  5
3DF
100
AcDbEntity
  8
レイヤー_1
  6
CONTINUOUS
 62
       3
100
AcDbLine
 10
-111.92880634
 20
-32.2184941
 30
0.0
 11
-111.65731242
 21
-32.36697969
 31
0.0
  0
LINE
  5
3E0
100
AcDbEntity
  8
レイヤー_1
  6
CONTINUOUS
 62
       3
100
AcDbLine
 10
-111.65731242
 20
-32.36697969
 30
0.0
 11
-111.3719168
 21
-32.49148741
 31
0.0
  0
LINE
  5
3E1
100
AcDbEntity
  8
レイヤー_1
  6
CONTINUOUS
 62
       3
100
AcDbLine
 10
-111.3719168
 20
-32.49148741
 30
0.0
 11
-111.07396214
 21
-32.59067072
 31
0.0
  0
LINE
  5
3E2
100
AcDbEntity
  8
レイヤー_1
  6
CONTINUOUS
 62
       3
100
AcDbLine
 10
-111.07396214
 20
-32.59067072
 30
0.0
 11
-110.76479113
 21
-32.66318309
 31
0.0
  0
LINE
  5
3E3
100
AcDbEntity
  8
レイヤー_1
  6
CONTINUOUS
 62
       3
100
AcDbLine
 10
-110.76479113
 20
-32.66318309
 30
0.0
 11
-110.44574647
 21
-32.70767797
 31
0.0
  0
LINE
  5
3E4
100
AcDbEntity
  8
レイヤー_1
  6
CONTINUOUS
 62
       3
100
AcDbLine
 10
-110.44574647
 20
-32.70767797
 30
0.0
 11
-110.11817082
 21
-32.72280883
 31
0.0
  0
LINE
  5
3E5
100
AcDbEntity
  8
レイヤー_1
  6
CONTINUOUS
 62
       3
100
AcDbLine
 10
-110.11817082
 20
-32.72280883
 30
0.0
 11
-109.79072237
 21
-32.70767797
 31
0.0
  0
LINE
  5
3E6
100
AcDbEntity
  8
レイヤー_1
  6
CONTINUOUS
 62
       3
100
AcDbLine
 10
-109.79072237
 20
-32.70767797
 30
0.0
 11
-109.47176657
 21
-32.66318309
 31
0.0
  0
LINE
  5
3E7
100
AcDbEntity
  8
レイヤー_1
  6
CONTINUOUS
 62
       3
100
AcDbLine
 10
-109.47176657
 20
-32.66318309
 30
0.0
 11
-109.16264996
 21
-32.59067072
 31
0.0
  0
LINE
  5
3E8
100
AcDbEntity
  8
レイヤー_1
  6
CONTINUOUS
 62
       3
100
AcDbLine
 10
-109.16264996
 20
-32.59067072
 30
0.0
 11
-108.86471909
 21
-32.49148741
 31
0.0
  0
LINE
  5
3E9
100
AcDbEntity
  8
レイヤー_1
  6
CONTINUOUS
 62
       3
100
AcDbLine
 10
-108.86471909
 20
-32.49148741
 30
0.0
 11
-108.57932049
 21
-32.36697969
 31
0.0
  0
LINE
  5
3EA
100
AcDbEntity
  8
レイヤー_1
  6
CONTINUOUS
 62
       3
100
AcDbLine
 10
-108.57932049
 20
-32.36697969
 30
0.0
 11
-108.3078007
 21
-32.2184941
 31
0.0
  0
LINE
  5
3EB
100
AcDbEntity
  8
レイヤー_1
  6
CONTINUOUS
 62
       3
100
AcDbLine
 10
-108.3078007
 20
-32.2184941
 30
0.0
 11
-108.05150627
 21
-32.04737719
 31
0.0
  0
LINE
  5
3EC
100
AcDbEntity
  8
レイヤー_1
  6
CONTINUOUS
 62
       3
100
AcDbLine
 10
-108.05150627
 20
-32.04737719
 30
0.0
 11
-107.81178373
 21
-31.8549755
 31
0.0
  0
LINE
  5
3ED
100
AcDbEntity
  8
レイヤー_1
  6
CONTINUOUS
 62
       3
100
AcDbLine
 10
-107.81178373
 20
-31.8549755
 30
0.0
 11
-107.58997962
 21
-31.64263556
 31
0.0
  0
LINE
  5
3EE
100
AcDbEntity
  8
レイヤー_1
  6
CONTINUOUS
 62
       3
100
AcDbLine
 10
-107.58997962
 20
-31.64263556
 30
0.0
 11
-107.38744049
 21
-31.41170392
 31
0.0
  0
LINE
  5
3EF
100
AcDbEntity
  8
レイヤー_1
  6
CONTINUOUS
 62
       3
100
AcDbLine
 10
-107.38744049
 20
-31.41170392
 30
0.0
 11
-107.20551287
 21
-31.16352712
 31
0.0
  0
LINE
  5
3F0
100
AcDbEntity
  8
レイヤー_1
  6
CONTINUOUS
 62
       3
100
AcDbLine
 10
-107.20551287
 20
-31.16352712
 30
0.0
 11
-107.04554331
 21
-30.89945169
 31
0.0
  0
LINE
  5
3F1
100
AcDbEntity
  8
レイヤー_1
  6
CONTINUOUS
 62
       3
100
AcDbLine
 10
-107.04554331
 20
-30.89945169
 30
0.0
 11
-106.90887834
 21
-30.62082418
 31
0.0
  0
LINE
  5
3F2
100
AcDbEntity
  8
レイヤー_1
  6
CONTINUOUS
 62
       3
100
AcDbLine
 10
-106.90887834
 20
-30.62082418
 30
0.0
 11
-106.7968645
 21
-30.32899113
 31
0.0
  0
LINE
  5
3F3
100
AcDbEntity
  8
レイヤー_1
  6
CONTINUOUS
 62
       3
100
AcDbLine
 10
-106.7968645
 20
-30.32899113
 30
0.0
 11
-106.71084834
 21
-30.02529907
 31
0.0
  0
LINE
  5
3F4
100
AcDbEntity
  8
レイヤー_1
  6
CONTINUOUS
 62
       3
100
AcDbLine
 10
-106.71084834
 20
-30.02529907
 30
0.0
 11
-106.6521764
 21
-29.71109455
 31
0.0
  0
LINE
  5
3F5
100
AcDbEntity
  8
レイヤー_1
  6
CONTINUOUS
 62
       3
100
AcDbLine
 10
-106.6521764
 20
-29.71109455
 30
0.0
 11
-106.62219521
 21
-29.38772411
 31
0.0
  0
LINE
  5
3F6
100
AcDbEntity
  8
レイヤー_1
  6
CONTINUOUS
 62
       3
100
AcDbLine
 10
-106.62219521
 20
-29.38772411
 30
0.0
 11
-106.62219521
 21
-29.05825011
 31
0.0
  0
LINE
  5
3F7
100
AcDbEntity
  8
レイヤー_1
  6
CONTINUOUS
 62
       3
100
AcDbLine
 10
-106.62219521
 20
-29.05825011
 30
0.0
 11
-106.6521764
 21
-28.73475629
 31
0.0
  0
LINE
  5
3F8
100
AcDbEntity
  8
レイヤー_1
  6
CONTINUOUS
 62
       3
100
AcDbLine
 10
-106.6521764
 20
-28.73475629
 30
0.0
 11
-106.71084834
 21
-28.4204508
 31
0.0
  0
LINE
  5
3F9
100
AcDbEntity
  8
レイヤー_1
  6
CONTINUOUS
 62
       3
100
AcDbLine
 10
-106.71084834
 20
-28.4204508
 30
0.0
 11
-106.7968645
 21
-28.11667827
 31
0.0
  0
LINE
  5
3FA
100
AcDbEntity
  8
レイヤー_1
  6
CONTINUOUS
 62
       3
100
AcDbLine
 10
-106.7968645
 20
-28.11667827
 30
0.0
 11
-106.90887834
 21
-27.82478331
 31
0.0
  0
LINE
  5
3FB
100
AcDbEntity
  8
レイヤー_1
  6
CONTINUOUS
 62
       3
100
AcDbLine
 10
-106.90887834
 20
-27.82478331
 30
0.0
 11
-107.04554331
 21
-27.54611052
 31
0.0
  0
LINE
  5
3FC
100
AcDbEntity
  8
レイヤー_1
  6
CONTINUOUS
 62
       3
100
AcDbLine
 10
-107.04554331
 20
-27.54611052
 30
0.0
 11
-107.20551287
 21
-27.28200452
 31
0.0
  0
LINE
  5
3FD
100
AcDbEntity
  8
レイヤー_1
  6
CONTINUOUS
 62
       3
100
AcDbLine
 10
-107.20551287
 20
-27.28200452
 30
0.0
 11
-107.38744049
 21
-27.03380992
 31
0.0
  0
LINE
  5
3FE
100
AcDbEntity
  8
レイヤー_1
  6
CONTINUOUS
 62
       3
100
AcDbLine
 10
-107.38744049
 20
-27.03380992
 30
0.0
 11
-107.58997962
 21
-26.80287132
 31
0.0
  0
LINE
  5
3FF
100
AcDbEntity
  8
レイヤー_1
  6
CONTINUOUS
 62
       3
100
AcDbLine
 10
-107.58997962
 20
-26.80287132
 30
0.0
 11
-107.81178373
 21
-26.59053336
 31
0.0
  0
LINE
  5
400
100
AcDbEntity
  8
レイヤー_1
  6
CONTINUOUS
 62
       3
100
AcDbLine
 10
-107.81178373
 20
-26.59053336
 30
0.0
 11
-108.05150627
 21
-26.39814062
 31
0.0
  0
LINE
  5
401
100
AcDbEntity
  8
レイヤー_1
  6
CONTINUOUS
 62
       3
100
AcDbLine
 10
-108.05150627
 20
-26.39814062
 30
0.0
 11
-108.3078007
 21
-26.22703774
 31
0.0
  0
LINE
  5
402
100
AcDbEntity
  8
レイヤー_1
  6
CONTINUOUS
 62
       3
100
AcDbLine
 10
-108.3078007
 20
-26.22703774
 30
0.0
 11
-108.57932049
 21
-26.07856931
 31
0.0
  0
LINE
  5
403
100
AcDbEntity
  8
レイヤー_1
  6
CONTINUOUS
 62
       3
100
AcDbLine
 10
-108.57932049
 20
-26.07856931
 30
0.0
 11
-108.86471909
 21
-25.95407995
 31
0.0
  0
LINE
  5
404
100
AcDbEntity
  8
レイヤー_1
  6
CONTINUOUS
 62
       3
100
AcDbLine
 10
-108.86471909
 20
-25.95407995
 30
0.0
 11
-109.16264996
 21
-25.85491427
 31
0.0
  0
LINE
  5
405
100
AcDbEntity
  8
レイヤー_1
  6
CONTINUOUS
 62
       3
100
AcDbLine
 10
-109.16264996
 20
-25.85491427
 30
0.0
 11
-109.47176657
 21
-25.78241689
 31
0.0
  0
LINE
  5
406
100
AcDbEntity
  8
レイヤー_1
  6
CONTINUOUS
 62
       3
100
AcDbLine
 10
-109.47176657
 20
-25.78241689
 30
0.0
 11
-109.79072237
 21
-25.73793241
 31
0.0
  0
LINE
  5
407
100
AcDbEntity
  8
レイヤー_1
  6
CONTINUOUS
 62
       3
100
AcDbLine
 10
-109.79072237
 20
-25.73793241
 30
0.0
 11
-110.11817082
 21
-25.72280545
 31
0.0
  0
LINE
  5
408
100
AcDbEntity
  8
レイヤー_1
  6
CONTINUOUS
 62
       3
100
AcDbLine
 10
-98.51767304
 20
-25.72280545
 30
0.0
 11
-98.84532649
 21
-25.73793241
 31
0.0
  0
LINE
  5
409
100
AcDbEntity
  8
レイヤー_1
  6
CONTINUOUS
 62
       3
100
AcDbLine
 10
-98.84532649
 20
-25.73793241
 30
0.0
 11
-99.16445595
 21
-25.78241689
 31
0.0
  0
LINE
  5
40A
100
AcDbEntity
  8
レイヤー_1
  6
CONTINUOUS
 62
       3
100
AcDbLine
 10
-99.16445595
 20
-25.78241689
 30
0.0
 11
-99.47371729
 21
-25.85491427
 31
0.0
  0
LINE
  5
40B
100
AcDbEntity
  8
レイヤー_1
  6
CONTINUOUS
 62
       3
100
AcDbLine
 10
-99.47371729
 20
-25.85491427
 30
0.0
 11
-99.77176638
 21
-25.95407995
 31
0.0
  0
LINE
  5
40C
100
AcDbEntity
  8
レイヤー_1
  6
CONTINUOUS
 62
       3
100
AcDbLine
 10
-99.77176638
 20
-25.95407995
 30
0.0
 11
-100.0572591
 21
-26.07856931
 31
0.0
  0
LINE
  5
40D
100
AcDbEntity
  8
レイヤー_1
  6
CONTINUOUS
 62
       3
100
AcDbLine
 10
-100.0572591
 20
-26.07856931
 30
0.0
 11
-100.3288513
 21
-26.22703774
 31
0.0
  0
LINE
  5
40E
100
AcDbEntity
  8
レイヤー_1
  6
CONTINUOUS
 62
       3
100
AcDbLine
 10
-100.3288513
 20
-26.22703774
 30
0.0
 11
-100.58519887
 21
-26.39814062
 31
0.0
  0
LINE
  5
40F
100
AcDbEntity
  8
レイヤー_1
  6
CONTINUOUS
 62
       3
100
AcDbLine
 10
-100.58519887
 20
-26.39814062
 30
0.0
 11
-100.82495767
 21
-26.59053336
 31
0.0
  0
LINE
  5
410
100
AcDbEntity
  8
レイヤー_1
  6
CONTINUOUS
 62
       3
100
AcDbLine
 10
-100.82495767
 20
-26.59053336
 30
0.0
 11
-101.04678357
 21
-26.80287132
 31
0.0
  0
LINE
  5
411
100
AcDbEntity
  8
レイヤー_1
  6
CONTINUOUS
 62
       3
100
AcDbLine
 10
-101.04678357
 20
-26.80287132
 30
0.0
 11
-101.24933244
 21
-27.03380992
 31
0.0
  0
LINE
  5
412
100
AcDbEntity
  8
レイヤー_1
  6
CONTINUOUS
 62
       3
100
AcDbLine
 10
-101.24933244
 20
-27.03380992
 30
0.0
 11
-101.43126016
 21
-27.28200452
 31
0.0
  0
LINE
  5
413
100
AcDbEntity
  8
レイヤー_1
  6
CONTINUOUS
 62
       3
100
AcDbLine
 10
-101.43126016
 20
-27.28200452
 30
0.0
 11
-101.59122259
 21
-27.54611052
 31
0.0
  0
LINE
  5
414
100
AcDbEntity
  8
レイヤー_1
  6
CONTINUOUS
 62
       3
100
AcDbLine
 10
-101.59122259
 20
-27.54611052
 30
0.0
 11
-101.72787561
 21
-27.82478331
 31
0.0
  0
LINE
  5
415
100
AcDbEntity
  8
レイヤー_1
  6
CONTINUOUS
 62
       3
100
AcDbLine
 10
-101.72787561
 20
-27.82478331
 30
0.0
 11
-101.83987508
 21
-28.11667827
 31
0.0
  0
LINE
  5
416
100
AcDbEntity
  8
レイヤー_1
  6
CONTINUOUS
 62
       3
100
AcDbLine
 10
-101.83987508
 20
-28.11667827
 30
0.0
 11
-101.92587688
 21
-28.4204508
 31
0.0
  0
LINE
  5
417
100
AcDbEntity
  8
レイヤー_1
  6
CONTINUOUS
 62
       3
100
AcDbLine
 10
-101.92587688
 20
-28.4204508
 30
0.0
 11
-101.98453687
 21
-28.73475629
 31
0.0
  0
LINE
  5
418
100
AcDbEntity
  8
レイヤー_1
  6
CONTINUOUS
 62
       3
100
AcDbLine
 10
-101.98453687
 20
-28.73475629
 30
0.0
 11
-102.01451093
 21
-29.05825011
 31
0.0
  0
LINE
  5
419
100
AcDbEntity
  8
レイヤー_1
  6
CONTINUOUS
 62
       3
100
AcDbLine
 10
-102.01451093
 20
-29.05825011
 30
0.0
 11
-102.01451093
 21
-29.38772411
 31
0.0
  0
LINE
  5
41A
100
AcDbEntity
  8
レイヤー_1
  6
CONTINUOUS
 62
       3
100
AcDbLine
 10
-102.01451093
 20
-29.38772411
 30
0.0
 11
-101.98453687
 21
-29.71109455
 31
0.0
  0
LINE
  5
41B
100
AcDbEntity
  8
レイヤー_1
  6
CONTINUOUS
 62
       3
100
AcDbLine
 10
-101.98453687
 20
-29.71109455
 30
0.0
 11
-101.92587688
 21
-30.02529907
 31
0.0
  0
LINE
  5
41C
100
AcDbEntity
  8
レイヤー_1
  6
CONTINUOUS
 62
       3
100
AcDbLine
 10
-101.92587688
 20
-30.02529907
 30
0.0
 11
-101.83987508
 21
-30.32899113
 31
0.0
  0
LINE
  5
41D
100
AcDbEntity
  8
レイヤー_1
  6
CONTINUOUS
 62
       3
100
AcDbLine
 10
-101.83987508
 20
-30.32899113
 30
0.0
 11
-101.72787561
 21
-30.62082418
 31
0.0
  0
LINE
  5
41E
100
AcDbEntity
  8
レイヤー_1
  6
CONTINUOUS
 62
       3
100
AcDbLine
 10
-101.72787561
 20
-30.62082418
 30
0.0
 11
-101.59122259
 21
-30.89945169
 31
0.0
  0
LINE
  5
41F
100
AcDbEntity
  8
レイヤー_1
  6
CONTINUOUS
 62
       3
100
AcDbLine
 10
-101.59122259
 20
-30.89945169
 30
0.0
 11
-101.43126016
 21
-31.16352712
 31
0.0
  0
LINE
  5
420
100
AcDbEntity
  8
レイヤー_1
  6
CONTINUOUS
 62
       3
100
AcDbLine
 10
-101.43126016
 20
-31.16352712
 30
0.0
 11
-101.24933244
 21
-31.41170392
 31
0.0
  0
LINE
  5
421
100
AcDbEntity
  8
レイヤー_1
  6
CONTINUOUS
 62
       3
100
AcDbLine
 10
-101.24933244
 20
-31.41170392
 30
0.0
 11
-101.04678357
 21
-31.64263556
 31
0.0
  0
LINE
  5
422
100
AcDbEntity
  8
レイヤー_1
  6
CONTINUOUS
 62
       3
100
AcDbLine
 10
-101.04678357
 20
-31.64263556
 30
0.0
 11
-100.82495767
 21
-31.8549755
 31
0.0
  0
LINE
  5
423
100
AcDbEntity
  8
レイヤー_1
  6
CONTINUOUS
 62
       3
100
AcDbLine
 10
-100.82495767
 20
-31.8549755
 30
0.0
 11
-100.58519887
 21
-32.04737719
 31
0.0
  0
LINE
  5
424
100
AcDbEntity
  8
レイヤー_1
  6
CONTINUOUS
 62
       3
100
AcDbLine
 10
-100.58519887
 20
-32.04737719
 30
0.0
 11
-100.3288513
 21
-32.2184941
 31
0.0
  0
LINE
  5
425
100
AcDbEntity
  8
レイヤー_1
  6
CONTINUOUS
 62
       3
100
AcDbLine
 10
-100.3288513
 20
-32.2184941
 30
0.0
 11
-100.0572591
 21
-32.36697969
 31
0.0
  0
LINE
  5
426
100
AcDbEntity
  8
レイヤー_1
  6
CONTINUOUS
 62
       3
100
AcDbLine
 10
-100.0572591
 20
-32.36697969
 30
0.0
 11
-99.77176638
 21
-32.49148741
 31
0.0
  0
LINE
  5
427
100
AcDbEntity
  8
レイヤー_1
  6
CONTINUOUS
 62
       3
100
AcDbLine
 10
-99.77176638
 20
-32.49148741
 30
0.0
 11
-99.47371729
 21
-32.59067072
 31
0.0
  0
LINE
  5
428
100
AcDbEntity
  8
レイヤー_1
  6
CONTINUOUS
 62
       3
100
AcDbLine
 10
-99.47371729
 20
-32.59067072
 30
0.0
 11
-99.16445595
 21
-32.66318309
 31
0.0
  0
LINE
  5
429
100
AcDbEntity
  8
レイヤー_1
  6
CONTINUOUS
 62
       3
100
AcDbLine
 10
-99.16445595
 20
-32.66318309
 30
0.0
 11
-98.84532649
 21
-32.70767797
 31
0.0
  0
LINE
  5
42A
100
AcDbEntity
  8
レイヤー_1
  6
CONTINUOUS
 62
       3
100
AcDbLine
 10
-98.84532649
 20
-32.70767797
 30
0.0
 11
-98.51767304
 21
-32.72280883
 31
0.0
  0
LINE
  5
42B
100
AcDbEntity
  8
レイヤー_1
  6
CONTINUOUS
 62
       3
100
AcDbLine
 10
-98.51767304
 20
-32.72280883
 30
0.0
 11
-98.19022865
 21
-32.70767797
 31
0.0
  0
LINE
  5
42C
100
AcDbEntity
  8
レイヤー_1
  6
CONTINUOUS
 62
       3
100
AcDbLine
 10
-98.19022865
 20
-32.70767797
 30
0.0
 11
-97.87128438
 21
-32.66318309
 31
0.0
  0
LINE
  5
42D
100
AcDbEntity
  8
レイヤー_1
  6
CONTINUOUS
 62
       3
100
AcDbLine
 10
-97.87128438
 20
-32.66318309
 30
0.0
 11
-97.56218581
 21
-32.59067072
 31
0.0
  0
LINE
  5
42E
100
AcDbEntity
  8
レイヤー_1
  6
CONTINUOUS
 62
       3
100
AcDbLine
 10
-97.56218581
 20
-32.59067072
 30
0.0
 11
-97.26427853
 21
-32.49148741
 31
0.0
  0
LINE
  5
42F
100
AcDbEntity
  8
レイヤー_1
  6
CONTINUOUS
 62
       3
100
AcDbLine
 10
-97.26427853
 20
-32.49148741
 30
0.0
 11
-96.97890809
 21
-32.36697969
 31
0.0
  0
LINE
  5
430
100
AcDbEntity
  8
レイヤー_1
  6
CONTINUOUS
 62
       3
100
AcDbLine
 10
-96.97890809
 20
-32.36697969
 30
0.0
 11
-96.70742008
 21
-32.2184941
 31
0.0
  0
LINE
  5
431
100
AcDbEntity
  8
レイヤー_1
  6
CONTINUOUS
 62
       3
100
AcDbLine
 10
-96.70742008
 20
-32.2184941
 30
0.0
 11
-96.45116008
 21
-32.04737719
 31
0.0
  0
LINE
  5
432
100
AcDbEntity
  8
レイヤー_1
  6
CONTINUOUS
 62
       3
100
AcDbLine
 10
-96.45116008
 20
-32.04737719
 30
0.0
 11
-96.21147366
 21
-31.8549755
 31
0.0
  0
LINE
  5
433
100
AcDbEntity
  8
レイヤー_1
  6
CONTINUOUS
 62
       3
100
AcDbLine
 10
-96.21147366
 20
-31.8549755
 30
0.0
 11
-95.98970639
 21
-31.64263556
 31
0.0
  0
LINE
  5
434
100
AcDbEntity
  8
レイヤー_1
  6
CONTINUOUS
 62
       3
100
AcDbLine
 10
-95.98970639
 20
-31.64263556
 30
0.0
 11
-95.78720386
 21
-31.41170392
 31
0.0
  0
LINE
  5
435
100
AcDbEntity
  8
レイヤー_1
  6
CONTINUOUS
 62
       3
100
AcDbLine
 10
-95.78720386
 20
-31.41170392
 30
0.0
 11
-95.60531164
 21
-31.16352712
 31
0.0
  0
LINE
  5
436
100
AcDbEntity
  8
レイヤー_1
  6
CONTINUOUS
 62
       3
100
AcDbLine
 10
-95.60531164
 20
-31.16352712
 30
0.0
 11
-95.4453753
 21
-30.89945169
 31
0.0
  0
LINE
  5
437
100
AcDbEntity
  8
レイヤー_1
  6
CONTINUOUS
 62
       3
100
AcDbLine
 10
-95.4453753
 20
-30.89945169
 30
0.0
 11
-95.30874042
 21
-30.62082418
 31
0.0
  0
LINE
  5
438
100
AcDbEntity
  8
レイヤー_1
  6
CONTINUOUS
 62
       3
100
AcDbLine
 10
-95.30874042
 20
-30.62082418
 30
0.0
 11
-95.19675258
 21
-30.32899113
 31
0.0
  0
LINE
  5
439
100
AcDbEntity
  8
レイヤー_1
  6
CONTINUOUS
 62
       3
100
AcDbLine
 10
-95.19675258
 20
-30.32899113
 30
0.0
 11
-95.11075735
 21
-30.02529907
 31
0.0
  0
LINE
  5
43A
100
AcDbEntity
  8
レイヤー_1
  6
CONTINUOUS
 62
       3
100
AcDbLine
 10
-95.11075735
 20
-30.02529907
 30
0.0
 11
-95.05210031
 21
-29.71109455
 31
0.0
  0
LINE
  5
43B
100
AcDbEntity
  8
レイヤー_1
  6
CONTINUOUS
 62
       3
100
AcDbLine
 10
-95.05210031
 20
-29.71109455
 30
0.0
 11
-95.02212704
 21
-29.38772411
 31
0.0
  0
LINE
  5
43C
100
AcDbEntity
  8
レイヤー_1
  6
CONTINUOUS
 62
       3
100
AcDbLine
 10
-95.02212704
 20
-29.38772411
 30
0.0
 11
-95.02212704
 21
-29.05825011
 31
0.0
  0
LINE
  5
43D
100
AcDbEntity
  8
レイヤー_1
  6
CONTINUOUS
 62
       3
100
AcDbLine
 10
-95.02212704
 20
-29.05825011
 30
0.0
 11
-95.05210031
 21
-28.73475629
 31
0.0
  0
LINE
  5
43E
100
AcDbEntity
  8
レイヤー_1
  6
CONTINUOUS
 62
       3
100
AcDbLine
 10
-95.05210031
 20
-28.73475629
 30
0.0
 11
-95.11075735
 21
-28.4204508
 31
0.0
  0
LINE
  5
43F
100
AcDbEntity
  8
レイヤー_1
  6
CONTINUOUS
 62
       3
100
AcDbLine
 10
-95.11075735
 20
-28.4204508
 30
0.0
 11
-95.19675258
 21
-28.11667827
 31
0.0
  0
LINE
  5
440
100
AcDbEntity
  8
レイヤー_1
  6
CONTINUOUS
 62
       3
100
AcDbLine
 10
-95.19675258
 20
-28.11667827
 30
0.0
 11
-95.30874042
 21
-27.82478331
 31
0.0
  0
LINE
  5
441
100
AcDbEntity
  8
レイヤー_1
  6
CONTINUOUS
 62
       3
100
AcDbLine
 10
-95.30874042
 20
-27.82478331
 30
0.0
 11
-95.4453753
 21
-27.54611052
 31
0.0
  0
LINE
  5
442
100
AcDbEntity
  8
レイヤー_1
  6
CONTINUOUS
 62
       3
100
AcDbLine
 10
-95.4453753
 20
-27.54611052
 30
0.0
 11
-95.60531164
 21
-27.28200452
 31
0.0
  0
LINE
  5
443
100
AcDbEntity
  8
レイヤー_1
  6
CONTINUOUS
 62
       3
100
AcDbLine
 10
-95.60531164
 20
-27.28200452
 30
0.0
 11
-95.78720386
 21
-27.03380992
 31
0.0
  0
LINE
  5
444
100
AcDbEntity
  8
レイヤー_1
  6
CONTINUOUS
 62
       3
100
AcDbLine
 10
-95.78720386
 20
-27.03380992
 30
0.0
 11
-95.98970639
 21
-26.80287132
 31
0.0
  0
LINE
  5
445
100
AcDbEntity
  8
レイヤー_1
  6
CONTINUOUS
 62
       3
100
AcDbLine
 10
-95.98970639
 20
-26.80287132
 30
0.0
 11
-96.21147366
 21
-26.59053336
 31
0.0
  0
LINE
  5
446
100
AcDbEntity
  8
レイヤー_1
  6
CONTINUOUS
 62
       3
100
AcDbLine
 10
-96.21147366
 20
-26.59053336
 30
0.0
 11
-96.45116008
 21
-26.39814062
 31
0.0
  0
LINE
  5
447
100
AcDbEntity
  8
レイヤー_1
  6
CONTINUOUS
 62
       3
100
AcDbLine
 10
-96.45116008
 20
-26.39814062
 30
0.0
 11
-96.70742008
 21
-26.22703774
 31
0.0
  0
LINE
  5
448
100
AcDbEntity
  8
レイヤー_1
  6
CONTINUOUS
 62
       3
100
AcDbLine
 10
-96.70742008
 20
-26.22703774
 30
0.0
 11
-96.97890809
 21
-26.07856931
 31
0.0
  0
LINE
  5
449
100
AcDbEntity
  8
レイヤー_1
  6
CONTINUOUS
 62
       3
100
AcDbLine
 10
-96.97890809
 20
-26.07856931
 30
0.0
 11
-97.26427853
 21
-25.95407995
 31
0.0
  0
LINE
  5
44A
100
AcDbEntity
  8
レイヤー_1
  6
CONTINUOUS
 62
       3
100
AcDbLine
 10
-97.26427853
 20
-25.95407995
 30
0.0
 11
-97.56218581
 21
-25.85491427
 31
0.0
  0
LINE
  5
44B
100
AcDbEntity
  8
レイヤー_1
  6
CONTINUOUS
 62
       3
100
AcDbLine
 10
-97.56218581
 20
-25.85491427
 30
0.0
 11
-97.87128438
 21
-25.78241689
 31
0.0
  0
LINE
  5
44C
100
AcDbEntity
  8
レイヤー_1
  6
CONTINUOUS
 62
       3
100
AcDbLine
 10
-97.87128438
 20
-25.78241689
 30
0.0
 11
-98.19022865
 21
-25.73793241
 31
0.0
  0
LINE
  5
44D
100
AcDbEntity
  8
レイヤー_1
  6
CONTINUOUS
 62
       3
100
AcDbLine
 10
-98.19022865
 20
-25.73793241
 30
0.0
 11
-98.51767304
 21
-25.72280545
 31
0.0
  0
LINE
  5
44E
100
AcDbEntity
  8
レイヤー_1
  6
CONTINUOUS
 62
       3
100
AcDbLine
 10
-86.91846718
 20
-25.72280545
 30
0.0
 11
-87.24591563
 21
-25.73793241
 31
0.0
  0
LINE
  5
44F
100
AcDbEntity
  8
レイヤー_1
  6
CONTINUOUS
 62
       3
100
AcDbLine
 10
-87.24591563
 20
-25.73793241
 30
0.0
 11
-87.56487143
 21
-25.78241689
 31
0.0
  0
LINE
  5
450
100
AcDbEntity
  8
レイヤー_1
  6
CONTINUOUS
 62
       3
100
AcDbLine
 10
-87.56487143
 20
-25.78241689
 30
0.0
 11
-87.87398804
 21
-25.85491427
 31
0.0
  0
LINE
  5
451
100
AcDbEntity
  8
レイヤー_1
  6
CONTINUOUS
 62
       3
100
AcDbLine
 10
-87.87398804
 20
-25.85491427
 30
0.0
 11
-88.17191891
 21
-25.95407995
 31
0.0
  0
LINE
  5
452
100
AcDbEntity
  8
レイヤー_1
  6
CONTINUOUS
 62
       3
100
AcDbLine
 10
-88.17191891
 20
-25.95407995
 30
0.0
 11
-88.45731751
 21
-26.07856931
 31
0.0
  0
LINE
  5
453
100
AcDbEntity
  8
レイヤー_1
  6
CONTINUOUS
 62
       3
100
AcDbLine
 10
-88.45731751
 20
-26.07856931
 30
0.0
 11
-88.7288373
 21
-26.22703774
 31
0.0
  0
LINE
  5
454
100
AcDbEntity
  8
レイヤー_1
  6
CONTINUOUS
 62
       3
100
AcDbLine
 10
-88.7288373
 20
-26.22703774
 30
0.0
 11
-88.98513173
 21
-26.39814062
 31
0.0
  0
LINE
  5
455
100
AcDbEntity
  8
レイヤー_1
  6
CONTINUOUS
 62
       3
100
AcDbLine
 10
-88.98513173
 20
-26.39814062
 30
0.0
 11
-89.22485427
 21
-26.59053336
 31
0.0
  0
LINE
  5
456
100
AcDbEntity
  8
レイヤー_1
  6
CONTINUOUS
 62
       3
100
AcDbLine
 10
-89.22485427
 20
-26.59053336
 30
0.0
 11
-89.44665838
 21
-26.80287132
 31
0.0
  0
LINE
  5
457
100
AcDbEntity
  8
レイヤー_1
  6
CONTINUOUS
 62
       3
100
AcDbLine
 10
-89.44665838
 20
-26.80287132
 30
0.0
 11
-89.64919751
 21
-27.03380992
 31
0.0
  0
LINE
  5
458
100
AcDbEntity
  8
レイヤー_1
  6
CONTINUOUS
 62
       3
100
AcDbLine
 10
-89.64919751
 20
-27.03380992
 30
0.0
 11
-89.83112513
 21
-27.28200452
 31
0.0
  0
LINE
  5
459
100
AcDbEntity
  8
レイヤー_1
  6
CONTINUOUS
 62
       3
100
AcDbLine
 10
-89.83112513
 20
-27.28200452
 30
0.0
 11
-89.99109469
 21
-27.54611052
 31
0.0
  0
LINE
  5
45A
100
AcDbEntity
  8
レイヤー_1
  6
CONTINUOUS
 62
       3
100
AcDbLine
 10
-89.99109469
 20
-27.54611052
 30
0.0
 11
-90.12775966
 21
-27.82478331
 31
0.0
  0
LINE
  5
45B
100
AcDbEntity
  8
レイヤー_1
  6
CONTINUOUS
 62
       3
100
AcDbLine
 10
-90.12775966
 20
-27.82478331
 30
0.0
 11
-90.2397735
 21
-28.11667827
 31
0.0
  0
LINE
  5
45C
100
AcDbEntity
  8
レイヤー_1
  6
CONTINUOUS
 62
       3
100
AcDbLine
 10
-90.2397735
 20
-28.11667827
 30
0.0
 11
-90.32578966
 21
-28.4204508
 31
0.0
  0
LINE
  5
45D
100
AcDbEntity
  8
レイヤー_1
  6
CONTINUOUS
 62
       3
100
AcDbLine
 10
-90.32578966
 20
-28.4204508
 30
0.0
 11
-90.3844616
 21
-28.73475629
 31
0.0
  0
LINE
  5
45E
100
AcDbEntity
  8
レイヤー_1
  6
CONTINUOUS
 62
       3
100
AcDbLine
 10
-90.3844616
 20
-28.73475629
 30
0.0
 11
-90.41444279
 21
-29.05825011
 31
0.0
  0
LINE
  5
45F
100
AcDbEntity
  8
レイヤー_1
  6
CONTINUOUS
 62
       3
100
AcDbLine
 10
-90.41444279
 20
-29.05825011
 30
0.0
 11
-90.41444279
 21
-29.38772411
 31
0.0
  0
LINE
  5
460
100
AcDbEntity
  8
レイヤー_1
  6
CONTINUOUS
 62
       3
100
AcDbLine
 10
-90.41444279
 20
-29.38772411
 30
0.0
 11
-90.3844616
 21
-29.71109455
 31
0.0
  0
LINE
  5
461
100
AcDbEntity
  8
レイヤー_1
  6
CONTINUOUS
 62
       3
100
AcDbLine
 10
-90.3844616
 20
-29.71109455
 30
0.0
 11
-90.32578966
 21
-30.02529907
 31
0.0
  0
LINE
  5
462
100
AcDbEntity
  8
レイヤー_1
  6
CONTINUOUS
 62
       3
100
AcDbLine
 10
-90.32578966
 20
-30.02529907
 30
0.0
 11
-90.2397735
 21
-30.32899113
 31
0.0
  0
LINE
  5
463
100
AcDbEntity
  8
レイヤー_1
  6
CONTINUOUS
 62
       3
100
AcDbLine
 10
-90.2397735
 20
-30.32899113
 30
0.0
 11
-90.12775966
 21
-30.62082418
 31
0.0
  0
LINE
  5
464
100
AcDbEntity
  8
レイヤー_1
  6
CONTINUOUS
 62
       3
100
AcDbLine
 10
-90.12775966
 20
-30.62082418
 30
0.0
 11
-89.99109469
 21
-30.89945169
 31
0.0
  0
LINE
  5
465
100
AcDbEntity
  8
レイヤー_1
  6
CONTINUOUS
 62
       3
100
AcDbLine
 10
-89.99109469
 20
-30.89945169
 30
0.0
 11
-89.83112513
 21
-31.16352712
 31
0.0
  0
LINE
  5
466
100
AcDbEntity
  8
レイヤー_1
  6
CONTINUOUS
 62
       3
100
AcDbLine
 10
-89.83112513
 20
-31.16352712
 30
0.0
 11
-89.64919751
 21
-31.41170392
 31
0.0
  0
LINE
  5
467
100
AcDbEntity
  8
レイヤー_1
  6
CONTINUOUS
 62
       3
100
AcDbLine
 10
-89.64919751
 20
-31.41170392
 30
0.0
 11
-89.44665838
 21
-31.64263556
 31
0.0
  0
LINE
  5
468
100
AcDbEntity
  8
レイヤー_1
  6
CONTINUOUS
 62
       3
100
AcDbLine
 10
-89.44665838
 20
-31.64263556
 30
0.0
 11
-89.22485427
 21
-31.8549755
 31
0.0
  0
LINE
  5
469
100
AcDbEntity
  8
レイヤー_1
  6
CONTINUOUS
 62
       3
100
AcDbLine
 10
-89.22485427
 20
-31.8549755
 30
0.0
 11
-88.98513173
 21
-32.04737719
 31
0.0
  0
LINE
  5
46A
100
AcDbEntity
  8
レイヤー_1
  6
CONTINUOUS
 62
       3
100
AcDbLine
 10
-88.98513173
 20
-32.04737719
 30
0.0
 11
-88.7288373
 21
-32.2184941
 31
0.0
  0
LINE
  5
46B
100
AcDbEntity
  8
レイヤー_1
  6
CONTINUOUS
 62
       3
100
AcDbLine
 10
-88.7288373
 20
-32.2184941
 30
0.0
 11
-88.45731751
 21
-32.36697969
 31
0.0
  0
LINE
  5
46C
100
AcDbEntity
  8
レイヤー_1
  6
CONTINUOUS
 62
       3
100
AcDbLine
 10
-88.45731751
 20
-32.36697969
 30
0.0
 11
-88.17191891
 21
-32.49148741
 31
0.0
  0
LINE
  5
46D
100
AcDbEntity
  8
レイヤー_1
  6
CONTINUOUS
 62
       3
100
AcDbLine
 10
-88.17191891
 20
-32.49148741
 30
0.0
 11
-87.87398804
 21
-32.59067072
 31
0.0
  0
LINE
  5
46E
100
AcDbEntity
  8
レイヤー_1
  6
CONTINUOUS
 62
       3
100
AcDbLine
 10
-87.87398804
 20
-32.59067072
 30
0.0
 11
-87.56487143
 21
-32.66318309
 31
0.0
  0
LINE
  5
46F
100
AcDbEntity
  8
レイヤー_1
  6
CONTINUOUS
 62
       3
100
AcDbLine
 10
-87.56487143
 20
-32.66318309
 30
0.0
 11
-87.24591563
 21
-32.70767797
 31
0.0
  0
LINE
  5
470
100
AcDbEntity
  8
レイヤー_1
  6
CONTINUOUS
 62
       3
100
AcDbLine
 10
-87.24591563
 20
-32.70767797
 30
0.0
 11
-86.91846718
 21
-32.72280883
 31
0.0
  0
LINE
  5
471
100
AcDbEntity
  8
レイヤー_1
  6
CONTINUOUS
 62
       3
100
AcDbLine
 10
-86.91846718
 20
-32.72280883
 30
0.0
 11
-86.59088342
 21
-32.70767797
 31
0.0
  0
LINE
  5
472
100
AcDbEntity
  8
レイヤー_1
  6
CONTINUOUS
 62
       3
100
AcDbLine
 10
-86.59088342
 20
-32.70767797
 30
0.0
 11
-86.27181569
 21
-32.66318309
 31
0.0
  0
LINE
  5
473
100
AcDbEntity
  8
レイヤー_1
  6
CONTINUOUS
 62
       3
100
AcDbLine
 10
-86.27181569
 20
-32.66318309
 30
0.0
 11
-85.96260861
 21
-32.59067072
 31
0.0
  0
LINE
  5
474
100
AcDbEntity
  8
レイヤー_1
  6
CONTINUOUS
 62
       3
100
AcDbLine
 10
-85.96260861
 20
-32.59067072
 30
0.0
 11
-85.66460678
 21
-32.49148741
 31
0.0
  0
LINE
  5
475
100
AcDbEntity
  8
レイヤー_1
  6
CONTINUOUS
 62
       3
100
AcDbLine
 10
-85.66460678
 20
-32.49148741
 30
0.0
 11
-85.37915483
 21
-32.36697969
 31
0.0
  0
LINE
  5
476
100
AcDbEntity
  8
レイヤー_1
  6
CONTINUOUS
 62
       3
100
AcDbLine
 10
-85.37915483
 20
-32.36697969
 30
0.0
 11
-85.10759736
 21
-32.2184941
 31
0.0
  0
LINE
  5
477
100
AcDbEntity
  8
レイヤー_1
  6
CONTINUOUS
 62
       3
100
AcDbLine
 10
-85.10759736
 20
-32.2184941
 30
0.0
 11
-84.85127898
 21
-32.04737719
 31
0.0
  0
LINE
  5
478
100
AcDbEntity
  8
レイヤー_1
  6
CONTINUOUS
 62
       3
100
AcDbLine
 10
-84.85127898
 20
-32.04737719
 30
0.0
 11
-84.6115443
 21
-31.8549755
 31
0.0
  0
LINE
  5
479
100
AcDbEntity
  8
レイヤー_1
  6
CONTINUOUS
 62
       3
100
AcDbLine
 10
-84.6115443
 20
-31.8549755
 30
0.0
 11
-84.38973795
 21
-31.64263556
 31
0.0
  0
LINE
  5
47A
100
AcDbEntity
  8
レイヤー_1
  6
CONTINUOUS
 62
       3
100
AcDbLine
 10
-84.38973795
 20
-31.64263556
 30
0.0
 11
-84.18720452
 21
-31.41170392
 31
0.0
  0
LINE
  5
47B
100
AcDbEntity
  8
レイヤー_1
  6
CONTINUOUS
 62
       3
100
AcDbLine
 10
-84.18720452
 20
-31.41170392
 30
0.0
 11
-84.00528863
 21
-31.16352712
 31
0.0
  0
LINE
  5
47C
100
AcDbEntity
  8
レイヤー_1
  6
CONTINUOUS
 62
       3
100
AcDbLine
 10
-84.00528863
 20
-31.16352712
 30
0.0
 11
-83.8453349
 21
-30.89945169
 31
0.0
  0
LINE
  5
47D
100
AcDbEntity
  8
レイヤー_1
  6
CONTINUOUS
 62
       3
100
AcDbLine
 10
-83.8453349
 20
-30.89945169
 30
0.0
 11
-83.70868793
 21
-30.62082418
 31
0.0
  0
LINE
  5
47E
100
AcDbEntity
  8
レイヤー_1
  6
CONTINUOUS
 62
       3
100
AcDbLine
 10
-83.70868793
 20
-30.62082418
 30
0.0
 11
-83.59669233
 21
-30.32899113
 31
0.0
  0
LINE
  5
47F
100
AcDbEntity
  8
レイヤー_1
  6
CONTINUOUS
 62
       3
100
AcDbLine
 10
-83.59669233
 20
-30.32899113
 30
0.0
 11
-83.51069273
 21
-30.02529907
 31
0.0
  0
LINE
  5
480
100
AcDbEntity
  8
レイヤー_1
  6
CONTINUOUS
 62
       3
100
AcDbLine
 10
-83.51069273
 20
-30.02529907
 30
0.0
 11
-83.45203372
 21
-29.71109455
 31
0.0
  0
LINE
  5
481
100
AcDbEntity
  8
レイヤー_1
  6
CONTINUOUS
 62
       3
100
AcDbLine
 10
-83.45203372
 20
-29.71109455
 30
0.0
 11
-83.42205992
 21
-29.38772411
 31
0.0
  0
LINE
  5
482
100
AcDbEntity
  8
レイヤー_1
  6
CONTINUOUS
 62
       3
100
AcDbLine
 10
-83.42205992
 20
-29.38772411
 30
0.0
 11
-83.42205992
 21
-29.05825011
 31
0.0
  0
LINE
  5
483
100
AcDbEntity
  8
レイヤー_1
  6
CONTINUOUS
 62
       3
100
AcDbLine
 10
-83.42205992
 20
-29.05825011
 30
0.0
 11
-83.45203372
 21
-28.73475629
 31
0.0
  0
LINE
  5
484
100
AcDbEntity
  8
レイヤー_1
  6
CONTINUOUS
 62
       3
100
AcDbLine
 10
-83.45203372
 20
-28.73475629
 30
0.0
 11
-83.51069273
 21
-28.4204508
 31
0.0
  0
LINE
  5
485
100
AcDbEntity
  8
レイヤー_1
  6
CONTINUOUS
 62
       3
100
AcDbLine
 10
-83.51069273
 20
-28.4204508
 30
0.0
 11
-83.59669233
 21
-28.11667827
 31
0.0
  0
LINE
  5
486
100
AcDbEntity
  8
レイヤー_1
  6
CONTINUOUS
 62
       3
100
AcDbLine
 10
-83.59669233
 20
-28.11667827
 30
0.0
 11
-83.70868793
 21
-27.82478331
 31
0.0
  0
LINE
  5
487
100
AcDbEntity
  8
レイヤー_1
  6
CONTINUOUS
 62
       3
100
AcDbLine
 10
-83.70868793
 20
-27.82478331
 30
0.0
 11
-83.8453349
 21
-27.54611052
 31
0.0
  0
LINE
  5
488
100
AcDbEntity
  8
レイヤー_1
  6
CONTINUOUS
 62
       3
100
AcDbLine
 10
-83.8453349
 20
-27.54611052
 30
0.0
 11
-84.00528863
 21
-27.28200452
 31
0.0
  0
LINE
  5
489
100
AcDbEntity
  8
レイヤー_1
  6
CONTINUOUS
 62
       3
100
AcDbLine
 10
-84.00528863
 20
-27.28200452
 30
0.0
 11
-84.18720452
 21
-27.03380992
 31
0.0
  0
LINE
  5
48A
100
AcDbEntity
  8
レイヤー_1
  6
CONTINUOUS
 62
       3
100
AcDbLine
 10
-84.18720452
 20
-27.03380992
 30
0.0
 11
-84.38973795
 21
-26.80287132
 31
0.0
  0
LINE
  5
48B
100
AcDbEntity
  8
レイヤー_1
  6
CONTINUOUS
 62
       3
100
AcDbLine
 10
-84.38973795
 20
-26.80287132
 30
0.0
 11
-84.6115443
 21
-26.59053336
 31
0.0
  0
LINE
  5
48C
100
AcDbEntity
  8
レイヤー_1
  6
CONTINUOUS
 62
       3
100
AcDbLine
 10
-84.6115443
 20
-26.59053336
 30
0.0
 11
-84.85127898
 21
-26.39814062
 31
0.0
  0
LINE
  5
48D
100
AcDbEntity
  8
レイヤー_1
  6
CONTINUOUS
 62
       3
100
AcDbLine
 10
-84.85127898
 20
-26.39814062
 30
0.0
 11
-85.10759736
 21
-26.22703774
 31
0.0
  0
LINE
  5
48E
100
AcDbEntity
  8
レイヤー_1
  6
CONTINUOUS
 62
       3
100
AcDbLine
 10
-85.10759736
 20
-26.22703774
 30
0.0
 11
-85.37915483
 21
-26.07856931
 31
0.0
  0
LINE
  5
48F
100
AcDbEntity
  8
レイヤー_1
  6
CONTINUOUS
 62
       3
100
AcDbLine
 10
-85.37915483
 20
-26.07856931
 30
0.0
 11
-85.66460678
 21
-25.95407995
 31
0.0
  0
LINE
  5
490
100
AcDbEntity
  8
レイヤー_1
  6
CONTINUOUS
 62
       3
100
AcDbLine
 10
-85.66460678
 20
-25.95407995
 30
0.0
 11
-85.96260861
 21
-25.85491427
 31
0.0
  0
LINE
  5
491
100
AcDbEntity
  8
レイヤー_1
  6
CONTINUOUS
 62
       3
100
AcDbLine
 10
-85.96260861
 20
-25.85491427
 30
0.0
 11
-86.27181569
 21
-25.78241689
 31
0.0
  0
LINE
  5
492
100
AcDbEntity
  8
レイヤー_1
  6
CONTINUOUS
 62
       3
100
AcDbLine
 10
-86.27181569
 20
-25.78241689
 30
0.0
 11
-86.59088342
 21
-25.73793241
 31
0.0
  0
LINE
  5
493
100
AcDbEntity
  8
レイヤー_1
  6
CONTINUOUS
 62
       3
100
AcDbLine
 10
-86.59088342
 20
-25.73793241
 30
0.0
 11
-86.91846718
 21
-25.72280545
 31
0.0
  0
LINE
  5
494
100
AcDbEntity
  8
レイヤー_1
  6
CONTINUOUS
 62
       3
100
AcDbLine
 10
-75.31840005
 20
-25.72280545
 30
0.0
 11
-75.64584444
 21
-25.73793241
 31
0.0
  0
LINE
  5
495
100
AcDbEntity
  8
レイヤー_1
  6
CONTINUOUS
 62
       3
100
AcDbLine
 10
-75.64584444
 20
-25.73793241
 30
0.0
 11
-75.96478871
 21
-25.78241689
 31
0.0
  0
LINE
  5
496
100
AcDbEntity
  8
レイヤー_1
  6
CONTINUOUS
 62
       3
100
AcDbLine
 10
-75.96478871
 20
-25.78241689
 30
0.0
 11
-76.27388728
 21
-25.85491427
 31
0.0
  0
LINE
  5
497
100
AcDbEntity
  8
レイヤー_1
  6
CONTINUOUS
 62
       3
100
AcDbLine
 10
-76.27388728
 20
-25.85491427
 30
0.0
 11
-76.57179457
 21
-25.95407995
 31
0.0
  0
LINE
  5
498
100
AcDbEntity
  8
レイヤー_1
  6
CONTINUOUS
 62
       3
100
AcDbLine
 10
-76.57179457
 20
-25.95407995
 30
0.0
 11
-76.857165
 21
-26.07856931
 31
0.0
  0
LINE
  5
499
100
AcDbEntity
  8
レイヤー_1
  6
CONTINUOUS
 62
       3
100
AcDbLine
 10
-76.857165
 20
-26.07856931
 30
0.0
 11
-77.12865301
 21
-26.22703774
 31
0.0
  0
LINE
  5
49A
100
AcDbEntity
  8
レイヤー_1
  6
CONTINUOUS
 62
       3
100
AcDbLine
 10
-77.12865301
 20
-26.22703774
 30
0.0
 11
-77.38491301
 21
-26.39814062
 31
0.0
  0
LINE
  5
49B
100
AcDbEntity
  8
レイヤー_1
  6
CONTINUOUS
 62
       3
100
AcDbLine
 10
-77.38491301
 20
-26.39814062
 30
0.0
 11
-77.62459943
 21
-26.59053336
 31
0.0
  0
LINE
  5
49C
100
AcDbEntity
  8
レイヤー_1
  6
CONTINUOUS
 62
       3
100
AcDbLine
 10
-77.62459943
 20
-26.59053336
 30
0.0
 11
-77.8463667
 21
-26.80287132
 31
0.0
  0
LINE
  5
49D
100
AcDbEntity
  8
レイヤー_1
  6
CONTINUOUS
 62
       3
100
AcDbLine
 10
-77.8463667
 20
-26.80287132
 30
0.0
 11
-78.04886923
 21
-27.03380992
 31
0.0
  0
LINE
  5
49E
100
AcDbEntity
  8
レイヤー_1
  6
CONTINUOUS
 62
       3
100
AcDbLine
 10
-78.04886923
 20
-27.03380992
 30
0.0
 11
-78.23076145
 21
-27.28200452
 31
0.0
  0
LINE
  5
49F
100
AcDbEntity
  8
レイヤー_1
  6
CONTINUOUS
 62
       3
100
AcDbLine
 10
-78.23076145
 20
-27.28200452
 30
0.0
 11
-78.39069779
 21
-27.54611052
 31
0.0
  0
LINE
  5
4A0
100
AcDbEntity
  8
レイヤー_1
  6
CONTINUOUS
 62
       3
100
AcDbLine
 10
-78.39069779
 20
-27.54611052
 30
0.0
 11
-78.52733267
 21
-27.82478331
 31
0.0
  0
LINE
  5
4A1
100
AcDbEntity
  8
レイヤー_1
  6
CONTINUOUS
 62
       3
100
AcDbLine
 10
-78.52733267
 20
-27.82478331
 30
0.0
 11
-78.63932051
 21
-28.11667827
 31
0.0
  0
LINE
  5
4A2
100
AcDbEntity
  8
レイヤー_1
  6
CONTINUOUS
 62
       3
100
AcDbLine
 10
-78.63932051
 20
-28.11667827
 30
0.0
 11
-78.72531574
 21
-28.4204508
 31
0.0
  0
LINE
  5
4A3
100
AcDbEntity
  8
レイヤー_1
  6
CONTINUOUS
 62
       3
100
AcDbLine
 10
-78.72531574
 20
-28.4204508
 30
0.0
 11
-78.78397278
 21
-28.73475629
 31
0.0
  0
LINE
  5
4A4
100
AcDbEntity
  8
レイヤー_1
  6
CONTINUOUS
 62
       3
100
AcDbLine
 10
-78.78397278
 20
-28.73475629
 30
0.0
 11
-78.81394605
 21
-29.05825011
 31
0.0
  0
LINE
  5
4A5
100
AcDbEntity
  8
レイヤー_1
  6
CONTINUOUS
 62
       3
100
AcDbLine
 10
-78.81394605
 20
-29.05825011
 30
0.0
 11
-78.81394605
 21
-29.38772411
 31
0.0
  0
LINE
  5
4A6
100
AcDbEntity
  8
レイヤー_1
  6
CONTINUOUS
 62
       3
100
AcDbLine
 10
-78.81394605
 20
-29.38772411
 30
0.0
 11
-78.78397278
 21
-29.71109455
 31
0.0
  0
LINE
  5
4A7
100
AcDbEntity
  8
レイヤー_1
  6
CONTINUOUS
 62
       3
100
AcDbLine
 10
-78.78397278
 20
-29.71109455
 30
0.0
 11
-78.72531574
 21
-30.02529907
 31
0.0
  0
LINE
  5
4A8
100
AcDbEntity
  8
レイヤー_1
  6
CONTINUOUS
 62
       3
100
AcDbLine
 10
-78.72531574
 20
-30.02529907
 30
0.0
 11
-78.63932051
 21
-30.32899113
 31
0.0
  0
LINE
  5
4A9
100
AcDbEntity
  8
レイヤー_1
  6
CONTINUOUS
 62
       3
100
AcDbLine
 10
-78.63932051
 20
-30.32899113
 30
0.0
 11
-78.52733267
 21
-30.62082418
 31
0.0
  0
LINE
  5
4AA
100
AcDbEntity
  8
レイヤー_1
  6
CONTINUOUS
 62
       3
100
AcDbLine
 10
-78.52733267
 20
-30.62082418
 30
0.0
 11
-78.39069779
 21
-30.89945169
 31
0.0
  0
LINE
  5
4AB
100
AcDbEntity
  8
レイヤー_1
  6
CONTINUOUS
 62
       3
100
AcDbLine
 10
-78.39069779
 20
-30.89945169
 30
0.0
 11
-78.23076145
 21
-31.16352712
 31
0.0
  0
LINE
  5
4AC
100
AcDbEntity
  8
レイヤー_1
  6
CONTINUOUS
 62
       3
100
AcDbLine
 10
-78.23076145
 20
-31.16352712
 30
0.0
 11
-78.04886923
 21
-31.41170392
 31
0.0
  0
LINE
  5
4AD
100
AcDbEntity
  8
レイヤー_1
  6
CONTINUOUS
 62
       3
100
AcDbLine
 10
-78.04886923
 20
-31.41170392
 30
0.0
 11
-77.8463667
 21
-31.64263556
 31
0.0
  0
LINE
  5
4AE
100
AcDbEntity
  8
レイヤー_1
  6
CONTINUOUS
 62
       3
100
AcDbLine
 10
-77.8463667
 20
-31.64263556
 30
0.0
 11
-77.62459943
 21
-31.8549755
 31
0.0
  0
LINE
  5
4AF
100
AcDbEntity
  8
レイヤー_1
  6
CONTINUOUS
 62
       3
100
AcDbLine
 10
-77.62459943
 20
-31.8549755
 30
0.0
 11
-77.38491301
 21
-32.04737719
 31
0.0
  0
LINE
  5
4B0
100
AcDbEntity
  8
レイヤー_1
  6
CONTINUOUS
 62
       3
100
AcDbLine
 10
-77.38491301
 20
-32.04737719
 30
0.0
 11
-77.12865301
 21
-32.2184941
 31
0.0
  0
LINE
  5
4B1
100
AcDbEntity
  8
レイヤー_1
  6
CONTINUOUS
 62
       3
100
AcDbLine
 10
-77.12865301
 20
-32.2184941
 30
0.0
 11
-76.857165
 21
-32.36697969
 31
0.0
  0
LINE
  5
4B2
100
AcDbEntity
  8
レイヤー_1
  6
CONTINUOUS
 62
       3
100
AcDbLine
 10
-76.857165
 20
-32.36697969
 30
0.0
 11
-76.57179457
 21
-32.49148741
 31
0.0
  0
LINE
  5
4B3
100
AcDbEntity
  8
レイヤー_1
  6
CONTINUOUS
 62
       3
100
AcDbLine
 10
-76.57179457
 20
-32.49148741
 30
0.0
 11
-76.27388728
 21
-32.59067072
 31
0.0
  0
LINE
  5
4B4
100
AcDbEntity
  8
レイヤー_1
  6
CONTINUOUS
 62
       3
100
AcDbLine
 10
-76.27388728
 20
-32.59067072
 30
0.0
 11
-75.96478871
 21
-32.66318309
 31
0.0
  0
LINE
  5
4B5
100
AcDbEntity
  8
レイヤー_1
  6
CONTINUOUS
 62
       3
100
AcDbLine
 10
-75.96478871
 20
-32.66318309
 30
0.0
 11
-75.64584444
 21
-32.70767797
 31
0.0
  0
LINE
  5
4B6
100
AcDbEntity
  8
レイヤー_1
  6
CONTINUOUS
 62
       3
100
AcDbLine
 10
-75.64584444
 20
-32.70767797
 30
0.0
 11
-75.31840005
 21
-32.72280883
 31
0.0
  0
LINE
  5
4B7
100
AcDbEntity
  8
レイヤー_1
  6
CONTINUOUS
 62
       3
100
AcDbLine
 10
-75.31840005
 20
-32.72280883
 30
0.0
 11
-74.99081222
 21
-32.70767797
 31
0.0
  0
LINE
  5
4B8
100
AcDbEntity
  8
レイヤー_1
  6
CONTINUOUS
 62
       3
100
AcDbLine
 10
-74.99081222
 20
-32.70767797
 30
0.0
 11
-74.67173296
 21
-32.66318309
 31
0.0
  0
LINE
  5
4B9
100
AcDbEntity
  8
レイヤー_1
  6
CONTINUOUS
 62
       3
100
AcDbLine
 10
-74.67173296
 20
-32.66318309
 30
0.0
 11
-74.36250784
 21
-32.59067072
 31
0.0
  0
LINE
  5
4BA
100
AcDbEntity
  8
レイヤー_1
  6
CONTINUOUS
 62
       3
100
AcDbLine
 10
-74.36250784
 20
-32.59067072
 30
0.0
 11
-74.06448244
 21
-32.49148741
 31
0.0
  0
LINE
  5
4BB
100
AcDbEntity
  8
レイヤー_1
  6
CONTINUOUS
 62
       3
100
AcDbLine
 10
-74.06448244
 20
-32.49148741
 30
0.0
 11
-73.77900232
 21
-32.36697969
 31
0.0
  0
LINE
  5
4BC
100
AcDbEntity
  8
レイヤー_1
  6
CONTINUOUS
 62
       3
100
AcDbLine
 10
-73.77900232
 20
-32.36697969
 30
0.0
 11
-73.50741307
 21
-32.2184941
 31
0.0
  0
LINE
  5
4BD
100
AcDbEntity
  8
レイヤー_1
  6
CONTINUOUS
 62
       3
100
AcDbLine
 10
-73.50741307
 20
-32.2184941
 30
0.0
 11
-73.25106026
 21
-32.04737719
 31
0.0
  0
LINE
  5
4BE
100
AcDbEntity
  8
レイヤー_1
  6
CONTINUOUS
 62
       3
100
AcDbLine
 10
-73.25106026
 20
-32.04737719
 30
0.0
 11
-73.01128947
 21
-31.8549755
 31
0.0
  0
LINE
  5
4BF
100
AcDbEntity
  8
レイヤー_1
  6
CONTINUOUS
 62
       3
100
AcDbLine
 10
-73.01128947
 20
-31.8549755
 30
0.0
 11
-72.78944627
 21
-31.64263556
 31
0.0
  0
LINE
  5
4C0
100
AcDbEntity
  8
レイヤー_1
  6
CONTINUOUS
 62
       3
100
AcDbLine
 10
-72.78944627
 20
-31.64263556
 30
0.0
 11
-72.58687624
 21
-31.41170392
 31
0.0
  0
LINE
  5
4C1
100
AcDbEntity
  8
レイヤー_1
  6
CONTINUOUS
 62
       3
100
AcDbLine
 10
-72.58687624
 20
-31.41170392
 30
0.0
 11
-72.40492496
 21
-31.16352712
 31
0.0
  0
LINE
  5
4C2
100
AcDbEntity
  8
レイヤー_1
  6
CONTINUOUS
 62
       3
100
AcDbLine
 10
-72.40492496
 20
-31.16352712
 30
0.0
 11
-72.244938
 21
-30.89945169
 31
0.0
  0
LINE
  5
4C3
100
AcDbEntity
  8
レイヤー_1
  6
CONTINUOUS
 62
       3
100
AcDbLine
 10
-72.244938
 20
-30.89945169
 30
0.0
 11
-72.10826094
 21
-30.62082418
 31
0.0
  0
LINE
  5
4C4
100
AcDbEntity
  8
レイヤー_1
  6
CONTINUOUS
 62
       3
100
AcDbLine
 10
-72.10826094
 20
-30.62082418
 30
0.0
 11
-71.99623935
 21
-30.32899113
 31
0.0
  0
LINE
  5
4C5
100
AcDbEntity
  8
レイヤー_1
  6
CONTINUOUS
 62
       3
100
AcDbLine
 10
-71.99623935
 20
-30.32899113
 30
0.0
 11
-71.91021881
 21
-30.02529907
 31
0.0
  0
LINE
  5
4C6
100
AcDbEntity
  8
レイヤー_1
  6
CONTINUOUS
 62
       3
100
AcDbLine
 10
-71.91021881
 20
-30.02529907
 30
0.0
 11
-71.8515449
 21
-29.71109455
 31
0.0
  0
LINE
  5
4C7
100
AcDbEntity
  8
レイヤー_1
  6
CONTINUOUS
 62
       3
100
AcDbLine
 10
-71.8515449
 20
-29.71109455
 30
0.0
 11
-71.82156318
 21
-29.38772411
 31
0.0
  0
LINE
  5
4C8
100
AcDbEntity
  8
レイヤー_1
  6
CONTINUOUS
 62
       3
100
AcDbLine
 10
-71.82156318
 20
-29.38772411
 30
0.0
 11
-71.82156318
 21
-29.05825011
 31
0.0
  0
LINE
  5
4C9
100
AcDbEntity
  8
レイヤー_1
  6
CONTINUOUS
 62
       3
100
AcDbLine
 10
-71.82156318
 20
-29.05825011
 30
0.0
 11
-71.8515449
 21
-28.73475629
 31
0.0
  0
LINE
  5
4CA
100
AcDbEntity
  8
レイヤー_1
  6
CONTINUOUS
 62
       3
100
AcDbLine
 10
-71.8515449
 20
-28.73475629
 30
0.0
 11
-71.91021881
 21
-28.4204508
 31
0.0
  0
LINE
  5
4CB
100
AcDbEntity
  8
レイヤー_1
  6
CONTINUOUS
 62
       3
100
AcDbLine
 10
-71.91021881
 20
-28.4204508
 30
0.0
 11
-71.99623935
 21
-28.11667827
 31
0.0
  0
LINE
  5
4CC
100
AcDbEntity
  8
レイヤー_1
  6
CONTINUOUS
 62
       3
100
AcDbLine
 10
-71.99623935
 20
-28.11667827
 30
0.0
 11
-72.10826094
 21
-27.82478331
 31
0.0
  0
LINE
  5
4CD
100
AcDbEntity
  8
レイヤー_1
  6
CONTINUOUS
 62
       3
100
AcDbLine
 10
-72.10826094
 20
-27.82478331
 30
0.0
 11
-72.244938
 21
-27.54611052
 31
0.0
  0
LINE
  5
4CE
100
AcDbEntity
  8
レイヤー_1
  6
CONTINUOUS
 62
       3
100
AcDbLine
 10
-72.244938
 20
-27.54611052
 30
0.0
 11
-72.40492496
 21
-27.28200452
 31
0.0
  0
LINE
  5
4CF
100
AcDbEntity
  8
レイヤー_1
  6
CONTINUOUS
 62
       3
100
AcDbLine
 10
-72.40492496
 20
-27.28200452
 30
0.0
 11
-72.58687624
 21
-27.03380992
 31
0.0
  0
LINE
  5
4D0
100
AcDbEntity
  8
レイヤー_1
  6
CONTINUOUS
 62
       3
100
AcDbLine
 10
-72.58687624
 20
-27.03380992
 30
0.0
 11
-72.78944627
 21
-26.80287132
 31
0.0
  0
LINE
  5
4D1
100
AcDbEntity
  8
レイヤー_1
  6
CONTINUOUS
 62
       3
100
AcDbLine
 10
-72.78944627
 20
-26.80287132
 30
0.0
 11
-73.01128947
 21
-26.59053336
 31
0.0
  0
LINE
  5
4D2
100
AcDbEntity
  8
レイヤー_1
  6
CONTINUOUS
 62
       3
100
AcDbLine
 10
-73.01128947
 20
-26.59053336
 30
0.0
 11
-73.25106026
 21
-26.39814062
 31
0.0
  0
LINE
  5
4D3
100
AcDbEntity
  8
レイヤー_1
  6
CONTINUOUS
 62
       3
100
AcDbLine
 10
-73.25106026
 20
-26.39814062
 30
0.0
 11
-73.50741307
 21
-26.22703774
 31
0.0
  0
LINE
  5
4D4
100
AcDbEntity
  8
レイヤー_1
  6
CONTINUOUS
 62
       3
100
AcDbLine
 10
-73.50741307
 20
-26.22703774
 30
0.0
 11
-73.77900232
 21
-26.07856931
 31
0.0
  0
LINE
  5
4D5
100
AcDbEntity
  8
レイヤー_1
  6
CONTINUOUS
 62
       3
100
AcDbLine
 10
-73.77900232
 20
-26.07856931
 30
0.0
 11
-74.06448244
 21
-25.95407995
 31
0.0
  0
LINE
  5
4D6
100
AcDbEntity
  8
レイヤー_1
  6
CONTINUOUS
 62
       3
100
AcDbLine
 10
-74.06448244
 20
-25.95407995
 30
0.0
 11
-74.36250784
 21
-25.85491427
 31
0.0
  0
LINE
  5
4D7
100
AcDbEntity
  8
レイヤー_1
  6
CONTINUOUS
 62
       3
100
AcDbLine
 10
-74.36250784
 20
-25.85491427
 30
0.0
 11
-74.67173296
 21
-25.78241689
 31
0.0
  0
LINE
  5
4D8
100
AcDbEntity
  8
レイヤー_1
  6
CONTINUOUS
 62
       3
100
AcDbLine
 10
-74.67173296
 20
-25.78241689
 30
0.0
 11
-74.99081222
 21
-25.73793241
 31
0.0
  0
LINE
  5
4D9
100
AcDbEntity
  8
レイヤー_1
  6
CONTINUOUS
 62
       3
100
AcDbLine
 10
-74.99081222
 20
-25.73793241
 30
0.0
 11
-75.31840005
 21
-25.72280545
 31
0.0
  0
LINE
  5
4DA
100
AcDbEntity
  8
レイヤー_1
  6
CONTINUOUS
 62
       3
100
AcDbLine
 10
-63.71790227
 20
-25.72280545
 30
0.0
 11
-64.04554761
 21
-25.73793241
 31
0.0
  0
LINE
  5
4DB
100
AcDbEntity
  8
レイヤー_1
  6
CONTINUOUS
 62
       3
100
AcDbLine
 10
-64.04554761
 20
-25.73793241
 30
0.0
 11
-64.36465401
 21
-25.78241689
 31
0.0
  0
LINE
  5
4DC
100
AcDbEntity
  8
レイヤー_1
  6
CONTINUOUS
 62
       3
100
AcDbLine
 10
-64.36465401
 20
-25.78241689
 30
0.0
 11
-64.67387927
 21
-25.85491427
 31
0.0
  0
LINE
  5
4DD
100
AcDbEntity
  8
レイヤー_1
  6
CONTINUOUS
 62
       3
100
AcDbLine
 10
-64.67387927
 20
-25.85491427
 30
0.0
 11
-64.97188119
 21
-25.95407995
 31
0.0
  0
LINE
  5
4DE
100
AcDbEntity
  8
レイヤー_1
  6
CONTINUOUS
 62
       3
100
AcDbLine
 10
-64.97188119
 20
-25.95407995
 30
0.0
 11
-65.25731758
 21
-26.07856931
 31
0.0
  0
LINE
  5
4DF
100
AcDbEntity
  8
レイヤー_1
  6
CONTINUOUS
 62
       3
100
AcDbLine
 10
-65.25731758
 20
-26.07856931
 30
0.0
 11
-65.52884622
 21
-26.22703774
 31
0.0
  0
LINE
  5
4E0
100
AcDbEntity
  8
レイヤー_1
  6
CONTINUOUS
 62
       3
100
AcDbLine
 10
-65.52884622
 20
-26.22703774
 30
0.0
 11
-65.78512493
 21
-26.39814062
 31
0.0
  0
LINE
  5
4E1
100
AcDbEntity
  8
レイヤー_1
  6
CONTINUOUS
 62
       3
100
AcDbLine
 10
-65.78512493
 20
-26.39814062
 30
0.0
 11
-66.02481149
 21
-26.59053336
 31
0.0
  0
LINE
  5
4E2
100
AcDbEntity
  8
レイヤー_1
  6
CONTINUOUS
 62
       3
100
AcDbLine
 10
-66.02481149
 20
-26.59053336
 30
0.0
 11
-66.24656371
 21
-26.80287132
 31
0.0
  0
LINE
  5
4E3
100
AcDbEntity
  8
レイヤー_1
  6
CONTINUOUS
 62
       3
100
AcDbLine
 10
-66.24656371
 20
-26.80287132
 30
0.0
 11
-66.44903938
 21
-27.03380992
 31
0.0
  0
LINE
  5
4E4
100
AcDbEntity
  8
レイヤー_1
  6
CONTINUOUS
 62
       3
100
AcDbLine
 10
-66.44903938
 20
-27.03380992
 30
0.0
 11
-66.63089631
 21
-27.28200452
 31
0.0
  0
LINE
  5
4E5
100
AcDbEntity
  8
レイヤー_1
  6
CONTINUOUS
 62
       3
100
AcDbLine
 10
-66.63089631
 20
-27.28200452
 30
0.0
 11
-66.79079229
 21
-27.54611052
 31
0.0
  0
LINE
  5
4E6
100
AcDbEntity
  8
レイヤー_1
  6
CONTINUOUS
 62
       3
100
AcDbLine
 10
-66.79079229
 20
-27.54611052
 30
0.0
 11
-66.92738513
 21
-27.82478331
 31
0.0
  0
LINE
  5
4E7
100
AcDbEntity
  8
レイヤー_1
  6
CONTINUOUS
 62
       3
100
AcDbLine
 10
-66.92738513
 20
-27.82478331
 30
0.0
 11
-67.03933261
 21
-28.11667827
 31
0.0
  0
LINE
  5
4E8
100
AcDbEntity
  8
レイヤー_1
  6
CONTINUOUS
 62
       3
100
AcDbLine
 10
-67.03933261
 20
-28.11667827
 30
0.0
 11
-67.12529254
 21
-28.4204508
 31
0.0
  0
LINE
  5
4E9
100
AcDbEntity
  8
レイヤー_1
  6
CONTINUOUS
 62
       3
100
AcDbLine
 10
-67.12529254
 20
-28.4204508
 30
0.0
 11
-67.18392273
 21
-28.73475629
 31
0.0
  0
LINE
  5
4EA
100
AcDbEntity
  8
レイヤー_1
  6
CONTINUOUS
 62
       3
100
AcDbLine
 10
-67.18392273
 20
-28.73475629
 30
0.0
 11
-67.21388096
 21
-29.05825011
 31
0.0
  0
LINE
  5
4EB
100
AcDbEntity
  8
レイヤー_1
  6
CONTINUOUS
 62
       3
100
AcDbLine
 10
-67.21388096
 20
-29.05825011
 30
0.0
 11
-67.21388096
 21
-29.38772411
 31
0.0
  0
LINE
  5
4EC
100
AcDbEntity
  8
レイヤー_1
  6
CONTINUOUS
 62
       3
100
AcDbLine
 10
-67.21388096
 20
-29.38772411
 30
0.0
 11
-67.18392273
 21
-29.71109455
 31
0.0
  0
LINE
  5
4ED
100
AcDbEntity
  8
レイヤー_1
  6
CONTINUOUS
 62
       3
100
AcDbLine
 10
-67.18392273
 20
-29.71109455
 30
0.0
 11
-67.12529254
 21
-30.02529907
 31
0.0
  0
LINE
  5
4EE
100
AcDbEntity
  8
レイヤー_1
  6
CONTINUOUS
 62
       3
100
AcDbLine
 10
-67.12529254
 20
-30.02529907
 30
0.0
 11
-67.03933261
 21
-30.32899113
 31
0.0
  0
LINE
  5
4EF
100
AcDbEntity
  8
レイヤー_1
  6
CONTINUOUS
 62
       3
100
AcDbLine
 10
-67.03933261
 20
-30.32899113
 30
0.0
 11
-66.92738513
 21
-30.62082418
 31
0.0
  0
LINE
  5
4F0
100
AcDbEntity
  8
レイヤー_1
  6
CONTINUOUS
 62
       3
100
AcDbLine
 10
-66.92738513
 20
-30.62082418
 30
0.0
 11
-66.79079229
 21
-30.89945169
 31
0.0
  0
LINE
  5
4F1
100
AcDbEntity
  8
レイヤー_1
  6
CONTINUOUS
 62
       3
100
AcDbLine
 10
-66.79079229
 20
-30.89945169
 30
0.0
 11
-66.63089631
 21
-31.16352712
 31
0.0
  0
LINE
  5
4F2
100
AcDbEntity
  8
レイヤー_1
  6
CONTINUOUS
 62
       3
100
AcDbLine
 10
-66.63089631
 20
-31.16352712
 30
0.0
 11
-66.44903938
 21
-31.41170392
 31
0.0
  0
LINE
  5
4F3
100
AcDbEntity
  8
レイヤー_1
  6
CONTINUOUS
 62
       3
100
AcDbLine
 10
-66.44903938
 20
-31.41170392
 30
0.0
 11
-66.24656371
 21
-31.64263556
 31
0.0
  0
LINE
  5
4F4
100
AcDbEntity
  8
レイヤー_1
  6
CONTINUOUS
 62
       3
100
AcDbLine
 10
-66.24656371
 20
-31.64263556
 30
0.0
 11
-66.02481149
 21
-31.8549755
 31
0.0
  0
LINE
  5
4F5
100
AcDbEntity
  8
レイヤー_1
  6
CONTINUOUS
 62
       3
100
AcDbLine
 10
-66.02481149
 20
-31.8549755
 30
0.0
 11
-65.78512493
 21
-32.04737719
 31
0.0
  0
LINE
  5
4F6
100
AcDbEntity
  8
レイヤー_1
  6
CONTINUOUS
 62
       3
100
AcDbLine
 10
-65.78512493
 20
-32.04737719
 30
0.0
 11
-65.52884622
 21
-32.2184941
 31
0.0
  0
LINE
  5
4F7
100
AcDbEntity
  8
レイヤー_1
  6
CONTINUOUS
 62
       3
100
AcDbLine
 10
-65.52884622
 20
-32.2184941
 30
0.0
 11
-65.25731758
 21
-32.36697969
 31
0.0
  0
LINE
  5
4F8
100
AcDbEntity
  8
レイヤー_1
  6
CONTINUOUS
 62
       3
100
AcDbLine
 10
-65.25731758
 20
-32.36697969
 30
0.0
 11
-64.97188119
 21
-32.49148741
 31
0.0
  0
LINE
  5
4F9
100
AcDbEntity
  8
レイヤー_1
  6
CONTINUOUS
 62
       3
100
AcDbLine
 10
-64.97188119
 20
-32.49148741
 30
0.0
 11
-64.67387927
 21
-32.59067072
 31
0.0
  0
LINE
  5
4FA
100
AcDbEntity
  8
レイヤー_1
  6
CONTINUOUS
 62
       3
100
AcDbLine
 10
-64.67387927
 20
-32.59067072
 30
0.0
 11
-64.36465401
 21
-32.66318309
 31
0.0
  0
LINE
  5
4FB
100
AcDbEntity
  8
レイヤー_1
  6
CONTINUOUS
 62
       3
100
AcDbLine
 10
-64.36465401
 20
-32.66318309
 30
0.0
 11
-64.04554761
 21
-32.70767797
 31
0.0
  0
LINE
  5
4FC
100
AcDbEntity
  8
レイヤー_1
  6
CONTINUOUS
 62
       3
100
AcDbLine
 10
-64.04554761
 20
-32.70767797
 30
0.0
 11
-63.71790227
 21
-32.72280883
 31
0.0
  0
LINE
  5
4FD
100
AcDbEntity
  8
レイヤー_1
  6
CONTINUOUS
 62
       3
100
AcDbLine
 10
-63.71790227
 20
-32.72280883
 30
0.0
 11
-63.39032662
 21
-32.70767797
 31
0.0
  0
LINE
  5
4FE
100
AcDbEntity
  8
レイヤー_1
  6
CONTINUOUS
 62
       3
100
AcDbLine
 10
-63.39032662
 20
-32.70767797
 30
0.0
 11
-63.07128196
 21
-32.66318309
 31
0.0
  0
LINE
  5
4FF
100
AcDbEntity
  8
レイヤー_1
  6
CONTINUOUS
 62
       3
100
AcDbLine
 10
-63.07128196
 20
-32.66318309
 30
0.0
 11
-62.76211095
 21
-32.59067072
 31
0.0
  0
LINE
  5
500
100
AcDbEntity
  8
レイヤー_1
  6
CONTINUOUS
 62
       3
100
AcDbLine
 10
-62.76211095
 20
-32.59067072
 30
0.0
 11
-62.46415629
 21
-32.49148741
 31
0.0
  0
LINE
  5
501
100
AcDbEntity
  8
レイヤー_1
  6
CONTINUOUS
 62
       3
100
AcDbLine
 10
-62.46415629
 20
-32.49148741
 30
0.0
 11
-62.17876067
 21
-32.36697969
 31
0.0
  0
LINE
  5
502
100
AcDbEntity
  8
レイヤー_1
  6
CONTINUOUS
 62
       3
100
AcDbLine
 10
-62.17876067
 20
-32.36697969
 30
0.0
 11
-61.90726675
 21
-32.2184941
 31
0.0
  0
LINE
  5
503
100
AcDbEntity
  8
レイヤー_1
  6
CONTINUOUS
 62
       3
100
AcDbLine
 10
-61.90726675
 20
-32.2184941
 30
0.0
 11
-61.65101724
 21
-32.04737719
 31
0.0
  0
LINE
  5
504
100
AcDbEntity
  8
レイヤー_1
  6
CONTINUOUS
 62
       3
100
AcDbLine
 10
-61.65101724
 20
-32.04737719
 30
0.0
 11
-61.4113548
 21
-31.8549755
 31
0.0
  0
LINE
  5
505
100
AcDbEntity
  8
レイヤー_1
  6
CONTINUOUS
 62
       3
100
AcDbLine
 10
-61.4113548
 20
-31.8549755
 30
0.0
 11
-61.18962213
 21
-31.64263556
 31
0.0
  0
LINE
  5
506
100
AcDbEntity
  8
レイヤー_1
  6
CONTINUOUS
 62
       3
100
AcDbLine
 10
-61.18962213
 20
-31.64263556
 30
0.0
 11
-60.9871619
 21
-31.41170392
 31
0.0
  0
LINE
  5
507
100
AcDbEntity
  8
レイヤー_1
  6
CONTINUOUS
 62
       3
100
AcDbLine
 10
-60.9871619
 20
-31.41170392
 30
0.0
 11
-60.8053168
 21
-31.16352712
 31
0.0
  0
LINE
  5
508
100
AcDbEntity
  8
レイヤー_1
  6
CONTINUOUS
 62
       3
100
AcDbLine
 10
-60.8053168
 20
-31.16352712
 30
0.0
 11
-60.64542952
 21
-30.89945169
 31
0.0
  0
LINE
  5
509
100
AcDbEntity
  8
レイヤー_1
  6
CONTINUOUS
 62
       3
100
AcDbLine
 10
-60.64542952
 20
-30.89945169
 30
0.0
 11
-60.50884273
 21
-30.62082418
 31
0.0
  0
LINE
  5
50A
100
AcDbEntity
  8
レイヤー_1
  6
CONTINUOUS
 62
       3
100
AcDbLine
 10
-60.50884273
 20
-30.62082418
 30
0.0
 11
-60.39689913
 21
-30.32899113
 31
0.0
  0
LINE
  5
50B
100
AcDbEntity
  8
レイヤー_1
  6
CONTINUOUS
 62
       3
100
AcDbLine
 10
-60.39689913
 20
-30.32899113
 30
0.0
 11
-60.31094138
 21
-30.02529907
 31
0.0
  0
LINE
  5
50C
100
AcDbEntity
  8
レイヤー_1
  6
CONTINUOUS
 62
       3
100
AcDbLine
 10
-60.31094138
 20
-30.02529907
 30
0.0
 11
-60.25231219
 21
-29.71109455
 31
0.0
  0
LINE
  5
50D
100
AcDbEntity
  8
レイヤー_1
  6
CONTINUOUS
 62
       3
100
AcDbLine
 10
-60.25231219
 20
-29.71109455
 30
0.0
 11
-60.22235422
 21
-29.38772411
 31
0.0
  0
LINE
  5
50E
100
AcDbEntity
  8
レイヤー_1
  6
CONTINUOUS
 62
       3
100
AcDbLine
 10
-60.22235422
 20
-29.38772411
 30
0.0
 11
-60.22235422
 21
-29.05825011
 31
0.0
  0
LINE
  5
50F
100
AcDbEntity
  8
レイヤー_1
  6
CONTINUOUS
 62
       3
100
AcDbLine
 10
-60.22235422
 20
-29.05825011
 30
0.0
 11
-60.25231219
 21
-28.73475629
 31
0.0
  0
LINE
  5
510
100
AcDbEntity
  8
レイヤー_1
  6
CONTINUOUS
 62
       3
100
AcDbLine
 10
-60.25231219
 20
-28.73475629
 30
0.0
 11
-60.31094138
 21
-28.4204508
 31
0.0
  0
LINE
  5
511
100
AcDbEntity
  8
レイヤー_1
  6
CONTINUOUS
 62
       3
100
AcDbLine
 10
-60.31094138
 20
-28.4204508
 30
0.0
 11
-60.39689913
 21
-28.11667827
 31
0.0
  0
LINE
  5
512
100
AcDbEntity
  8
レイヤー_1
  6
CONTINUOUS
 62
       3
100
AcDbLine
 10
-60.39689913
 20
-28.11667827
 30
0.0
 11
-60.50884273
 21
-27.82478331
 31
0.0
  0
LINE
  5
513
100
AcDbEntity
  8
レイヤー_1
  6
CONTINUOUS
 62
       3
100
AcDbLine
 10
-60.50884273
 20
-27.82478331
 30
0.0
 11
-60.64542952
 21
-27.54611052
 31
0.0
  0
LINE
  5
514
100
AcDbEntity
  8
レイヤー_1
  6
CONTINUOUS
 62
       3
100
AcDbLine
 10
-60.64542952
 20
-27.54611052
 30
0.0
 11
-60.8053168
 21
-27.28200452
 31
0.0
  0
LINE
  5
515
100
AcDbEntity
  8
レイヤー_1
  6
CONTINUOUS
 62
       3
100
AcDbLine
 10
-60.8053168
 20
-27.28200452
 30
0.0
 11
-60.9871619
 21
-27.03380992
 31
0.0
  0
LINE
  5
516
100
AcDbEntity
  8
レイヤー_1
  6
CONTINUOUS
 62
       3
100
AcDbLine
 10
-60.9871619
 20
-27.03380992
 30
0.0
 11
-61.18962213
 21
-26.80287132
 31
0.0
  0
LINE
  5
517
100
AcDbEntity
  8
レイヤー_1
  6
CONTINUOUS
 62
       3
100
AcDbLine
 10
-61.18962213
 20
-26.80287132
 30
0.0
 11
-61.4113548
 21
-26.59053336
 31
0.0
  0
LINE
  5
518
100
AcDbEntity
  8
レイヤー_1
  6
CONTINUOUS
 62
       3
100
AcDbLine
 10
-61.4113548
 20
-26.59053336
 30
0.0
 11
-61.65101724
 21
-26.39814062
 31
0.0
  0
LINE
  5
519
100
AcDbEntity
  8
レイヤー_1
  6
CONTINUOUS
 62
       3
100
AcDbLine
 10
-61.65101724
 20
-26.39814062
 30
0.0
 11
-61.90726675
 21
-26.22703774
 31
0.0
  0
LINE
  5
51A
100
AcDbEntity
  8
レイヤー_1
  6
CONTINUOUS
 62
       3
100
AcDbLine
 10
-61.90726675
 20
-26.22703774
 30
0.0
 11
-62.17876067
 21
-26.07856931
 31
0.0
  0
LINE
  5
51B
100
AcDbEntity
  8
レイヤー_1
  6
CONTINUOUS
 62
       3
100
AcDbLine
 10
-62.17876067
 20
-26.07856931
 30
0.0
 11
-62.46415629
 21
-25.95407995
 31
0.0
  0
LINE
  5
51C
100
AcDbEntity
  8
レイヤー_1
  6
CONTINUOUS
 62
       3
100
AcDbLine
 10
-62.46415629
 20
-25.95407995
 30
0.0
 11
-62.76211095
 21
-25.85491427
 31
0.0
  0
LINE
  5
51D
100
AcDbEntity
  8
レイヤー_1
  6
CONTINUOUS
 62
       3
100
AcDbLine
 10
-62.76211095
 20
-25.85491427
 30
0.0
 11
-63.07128196
 21
-25.78241689
 31
0.0
  0
LINE
  5
51E
100
AcDbEntity
  8
レイヤー_1
  6
CONTINUOUS
 62
       3
100
AcDbLine
 10
-63.07128196
 20
-25.78241689
 30
0.0
 11
-63.39032662
 21
-25.73793241
 31
0.0
  0
LINE
  5
51F
100
AcDbEntity
  8
レイヤー_1
  6
CONTINUOUS
 62
       3
100
AcDbLine
 10
-63.39032662
 20
-25.73793241
 30
0.0
 11
-63.71790227
 21
-25.72280545
 31
0.0
  0
LINE
  5
520
100
AcDbEntity
  8
レイヤー_1
  6
CONTINUOUS
 62
       3
100
AcDbLine
 10
-115.91755843
 20
-9.0847168
 30
0.0
 11
-116.24521188
 21
-9.09984384
 31
0.0
  0
LINE
  5
521
100
AcDbEntity
  8
レイヤー_1
  6
CONTINUOUS
 62
       3
100
AcDbLine
 10
-116.24521188
 20
-9.09984384
 30
0.0
 11
-116.56434134
 21
-9.14432888
 31
0.0
  0
LINE
  5
522
100
AcDbEntity
  8
レイヤー_1
  6
CONTINUOUS
 62
       3
100
AcDbLine
 10
-116.56434134
 20
-9.14432888
 30
0.0
 11
-116.87360268
 21
-9.21682779
 31
0.0
  0
LINE
  5
523
100
AcDbEntity
  8
レイヤー_1
  6
CONTINUOUS
 62
       3
100
AcDbLine
 10
-116.87360268
 20
-9.21682779
 30
0.0
 11
-117.17165177
 21
-9.31599644
 31
0.0
  0
LINE
  5
524
100
AcDbEntity
  8
レイヤー_1
  6
CONTINUOUS
 62
       3
100
AcDbLine
 10
-117.17165177
 20
-9.31599644
 30
0.0
 11
-117.45714448
 21
-9.44049071
 31
0.0
  0
LINE
  5
525
100
AcDbEntity
  8
レイヤー_1
  6
CONTINUOUS
 62
       3
100
AcDbLine
 10
-117.45714448
 20
-9.44049071
 30
0.0
 11
-117.72873669
 21
-9.58896645
 31
0.0
  0
LINE
  5
526
100
AcDbEntity
  8
レイヤー_1
  6
CONTINUOUS
 62
       3
100
AcDbLine
 10
-117.72873669
 20
-9.58896645
 30
0.0
 11
-117.98508425
 21
-9.76007954
 31
0.0
  0
LINE
  5
527
100
AcDbEntity
  8
レイヤー_1
  6
CONTINUOUS
 62
       3
100
AcDbLine
 10
-117.98508425
 20
-9.76007954
 30
0.0
 11
-118.22484305
 21
-9.95248585
 31
0.0
  0
LINE
  5
528
100
AcDbEntity
  8
レイヤー_1
  6
CONTINUOUS
 62
       3
100
AcDbLine
 10
-118.22484305
 20
-9.95248585
 30
0.0
 11
-118.44666895
 21
-10.16484126
 31
0.0
  0
LINE
  5
529
100
AcDbEntity
  8
レイヤー_1
  6
CONTINUOUS
 62
       3
100
AcDbLine
 10
-118.44666895
 20
-10.16484126
 30
0.0
 11
-118.64921783
 21
-10.39580162
 31
0.0
  0
LINE
  5
52A
100
AcDbEntity
  8
レイヤー_1
  6
CONTINUOUS
 62
       3
100
AcDbLine
 10
-118.64921783
 20
-10.39580162
 30
0.0
 11
-118.83114555
 21
-10.64402282
 31
0.0
  0
LINE
  5
52B
100
AcDbEntity
  8
レイヤー_1
  6
CONTINUOUS
 62
       3
100
AcDbLine
 10
-118.83114555
 20
-10.64402282
 30
0.0
 11
-118.99110798
 21
-10.90816072
 31
0.0
  0
LINE
  5
52C
100
AcDbEntity
  8
レイヤー_1
  6
CONTINUOUS
 62
       3
100
AcDbLine
 10
-118.99110798
 20
-10.90816072
 30
0.0
 11
-119.127761
 21
-11.1868712
 31
0.0
  0
LINE
  5
52D
100
AcDbEntity
  8
レイヤー_1
  6
CONTINUOUS
 62
       3
100
AcDbLine
 10
-119.127761
 20
-11.1868712
 30
0.0
 11
-119.23976047
 21
-11.47881011
 31
0.0
  0
LINE
  5
52E
100
AcDbEntity
  8
レイヤー_1
  6
CONTINUOUS
 62
       3
100
AcDbLine
 10
-119.23976047
 20
-11.47881011
 30
0.0
 11
-119.32576227
 21
-11.78263335
 31
0.0
  0
LINE
  5
52F
100
AcDbEntity
  8
レイヤー_1
  6
CONTINUOUS
 62
       3
100
AcDbLine
 10
-119.32576227
 20
-11.78263335
 30
0.0
 11
-119.38442226
 21
-12.09699676
 31
0.0
  0
LINE
  5
530
100
AcDbEntity
  8
レイヤー_1
  6
CONTINUOUS
 62
       3
100
AcDbLine
 10
-119.38442226
 20
-12.09699676
 30
0.0
 11
-119.41439632
 21
-12.42055623
 31
0.0
  0
LINE
  5
531
100
AcDbEntity
  8
レイヤー_1
  6
CONTINUOUS
 62
       3
100
AcDbLine
 10
-119.41439632
 20
-12.42055623
 30
0.0
 11
-119.41439632
 21
-12.75013473
 31
0.0
  0
LINE
  5
532
100
AcDbEntity
  8
レイヤー_1
  6
CONTINUOUS
 62
       3
100
AcDbLine
 10
-119.41439632
 20
-12.75013473
 30
0.0
 11
-119.38442226
 21
-13.07361272
 31
0.0
  0
LINE
  5
533
100
AcDbEntity
  8
レイヤー_1
  6
CONTINUOUS
 62
       3
100
AcDbLine
 10
-119.38442226
 20
-13.07361272
 30
0.0
 11
-119.32576227
 21
-13.38788839
 31
0.0
  0
LINE
  5
534
100
AcDbEntity
  8
レイヤー_1
  6
CONTINUOUS
 62
       3
100
AcDbLine
 10
-119.32576227
 20
-13.38788839
 30
0.0
 11
-119.23976047
 21
-13.69161906
 31
0.0
  0
LINE
  5
535
100
AcDbEntity
  8
レイヤー_1
  6
CONTINUOUS
 62
       3
100
AcDbLine
 10
-119.23976047
 20
-13.69161906
 30
0.0
 11
-119.127761
 21
-13.98346204
 31
0.0
  0
LINE
  5
536
100
AcDbEntity
  8
レイヤー_1
  6
CONTINUOUS
 62
       3
100
AcDbLine
 10
-119.127761
 20
-13.98346204
 30
0.0
 11
-118.99110798
 21
-14.26207464
 31
0.0
  0
LINE
  5
537
100
AcDbEntity
  8
レイヤー_1
  6
CONTINUOUS
 62
       3
100
AcDbLine
 10
-118.99110798
 20
-14.26207464
 30
0.0
 11
-118.83114555
 21
-14.52611419
 31
0.0
  0
LINE
  5
538
100
AcDbEntity
  8
レイヤー_1
  6
CONTINUOUS
 62
       3
100
AcDbLine
 10
-118.83114555
 20
-14.52611419
 30
0.0
 11
-118.64921783
 21
-14.77423801
 31
0.0
  0
LINE
  5
539
100
AcDbEntity
  8
レイヤー_1
  6
CONTINUOUS
 62
       3
100
AcDbLine
 10
-118.64921783
 20
-14.77423801
 30
0.0
 11
-118.44666895
 21
-15.0051034
 31
0.0
  0
LINE
  5
53A
100
AcDbEntity
  8
レイヤー_1
  6
CONTINUOUS
 62
       3
100
AcDbLine
 10
-118.44666895
 20
-15.0051034
 30
0.0
 11
-118.22484305
 21
-15.21736768
 31
0.0
  0
LINE
  5
53B
100
AcDbEntity
  8
レイヤー_1
  6
CONTINUOUS
 62
       3
100
AcDbLine
 10
-118.22484305
 20
-15.21736768
 30
0.0
 11
-117.98508425
 21
-15.40968818
 31
0.0
  0
LINE
  5
53C
100
AcDbEntity
  8
レイヤー_1
  6
CONTINUOUS
 62
       3
100
AcDbLine
 10
-117.98508425
 20
-15.40968818
 30
0.0
 11
-117.72873669
 21
-15.5807222
 31
0.0
  0
LINE
  5
53D
100
AcDbEntity
  8
レイヤー_1
  6
CONTINUOUS
 62
       3
100
AcDbLine
 10
-117.72873669
 20
-15.5807222
 30
0.0
 11
-117.45714448
 21
-15.72912707
 31
0.0
  0
LINE
  5
53E
100
AcDbEntity
  8
レイヤー_1
  6
CONTINUOUS
 62
       3
100
AcDbLine
 10
-117.45714448
 20
-15.72912707
 30
0.0
 11
-117.17165177
 21
-15.85356011
 31
0.0
  0
LINE
  5
53F
100
AcDbEntity
  8
レイヤー_1
  6
CONTINUOUS
 62
       3
100
AcDbLine
 10
-117.17165177
 20
-15.85356011
 30
0.0
 11
-116.87360268
 21
-15.95267862
 31
0.0
  0
LINE
  5
540
100
AcDbEntity
  8
レイヤー_1
  6
CONTINUOUS
 62
       3
100
AcDbLine
 10
-116.87360268
 20
-15.95267862
 30
0.0
 11
-116.56434134
 21
-16.02513992
 31
0.0
  0
LINE
  5
541
100
AcDbEntity
  8
レイヤー_1
  6
CONTINUOUS
 62
       3
100
AcDbLine
 10
-116.56434134
 20
-16.02513992
 30
0.0
 11
-116.24521188
 21
-16.06960134
 31
0.0
  0
LINE
  5
542
100
AcDbEntity
  8
レイヤー_1
  6
CONTINUOUS
 62
       3
100
AcDbLine
 10
-116.24521188
 20
-16.06960134
 30
0.0
 11
-115.91755843
 21
-16.08472019
 31
0.0
  0
LINE
  5
543
100
AcDbEntity
  8
レイヤー_1
  6
CONTINUOUS
 62
       3
100
AcDbLine
 10
-115.91755843
 20
-16.08472019
 30
0.0
 11
-115.59011404
 21
-16.06960134
 31
0.0
  0
LINE
  5
544
100
AcDbEntity
  8
レイヤー_1
  6
CONTINUOUS
 62
       3
100
AcDbLine
 10
-115.59011404
 20
-16.06960134
 30
0.0
 11
-115.27116977
 21
-16.02513992
 31
0.0
  0
LINE
  5
545
100
AcDbEntity
  8
レイヤー_1
  6
CONTINUOUS
 62
       3
100
AcDbLine
 10
-115.27116977
 20
-16.02513992
 30
0.0
 11
-114.9620712
 21
-15.95267862
 31
0.0
  0
LINE
  5
546
100
AcDbEntity
  8
レイヤー_1
  6
CONTINUOUS
 62
       3
100
AcDbLine
 10
-114.9620712
 20
-15.95267862
 30
0.0
 11
-114.66416391
 21
-15.85356011
 31
0.0
  0
LINE
  5
547
100
AcDbEntity
  8
レイヤー_1
  6
CONTINUOUS
 62
       3
100
AcDbLine
 10
-114.66416391
 20
-15.85356011
 30
0.0
 11
-114.37879347
 21
-15.72912707
 31
0.0
  0
LINE
  5
548
100
AcDbEntity
  8
レイヤー_1
  6
CONTINUOUS
 62
       3
100
AcDbLine
 10
-114.37879347
 20
-15.72912707
 30
0.0
 11
-114.10730547
 21
-15.5807222
 31
0.0
  0
LINE
  5
549
100
AcDbEntity
  8
レイヤー_1
  6
CONTINUOUS
 62
       3
100
AcDbLine
 10
-114.10730547
 20
-15.5807222
 30
0.0
 11
-113.85104546
 21
-15.40968818
 31
0.0
  0
LINE
  5
54A
100
AcDbEntity
  8
レイヤー_1
  6
CONTINUOUS
 62
       3
100
AcDbLine
 10
-113.85104546
 20
-15.40968818
 30
0.0
 11
-113.61135904
 21
-15.21736768
 31
0.0
  0
LINE
  5
54B
100
AcDbEntity
  8
レイヤー_1
  6
CONTINUOUS
 62
       3
100
AcDbLine
 10
-113.61135904
 20
-15.21736768
 30
0.0
 11
-113.38959178
 21
-15.0051034
 31
0.0
  0
LINE
  5
54C
100
AcDbEntity
  8
レイヤー_1
  6
CONTINUOUS
 62
       3
100
AcDbLine
 10
-113.38959178
 20
-15.0051034
 30
0.0
 11
-113.18708924
 21
-14.77423801
 31
0.0
  0
LINE
  5
54D
100
AcDbEntity
  8
レイヤー_1
  6
CONTINUOUS
 62
       3
100
AcDbLine
 10
-113.18708924
 20
-14.77423801
 30
0.0
 11
-113.00519702
 21
-14.52611419
 31
0.0
  0
LINE
  5
54E
100
AcDbEntity
  8
レイヤー_1
  6
CONTINUOUS
 62
       3
100
AcDbLine
 10
-113.00519702
 20
-14.52611419
 30
0.0
 11
-112.84526068
 21
-14.26207464
 31
0.0
  0
LINE
  5
54F
100
AcDbEntity
  8
レイヤー_1
  6
CONTINUOUS
 62
       3
100
AcDbLine
 10
-112.84526068
 20
-14.26207464
 30
0.0
 11
-112.70862581
 21
-13.98346204
 31
0.0
  0
LINE
  5
550
100
AcDbEntity
  8
レイヤー_1
  6
CONTINUOUS
 62
       3
100
AcDbLine
 10
-112.70862581
 20
-13.98346204
 30
0.0
 11
-112.59663797
 21
-13.69161906
 31
0.0
  0
LINE
  5
551
100
AcDbEntity
  8
レイヤー_1
  6
CONTINUOUS
 62
       3
100
AcDbLine
 10
-112.59663797
 20
-13.69161906
 30
0.0
 11
-112.51064274
 21
-13.38788839
 31
0.0
  0
LINE
  5
552
100
AcDbEntity
  8
レイヤー_1
  6
CONTINUOUS
 62
       3
100
AcDbLine
 10
-112.51064274
 20
-13.38788839
 30
0.0
 11
-112.4519857
 21
-13.07361272
 31
0.0
  0
LINE
  5
553
100
AcDbEntity
  8
レイヤー_1
  6
CONTINUOUS
 62
       3
100
AcDbLine
 10
-112.4519857
 20
-13.07361272
 30
0.0
 11
-112.42201242
 21
-12.75013473
 31
0.0
  0
LINE
  5
554
100
AcDbEntity
  8
レイヤー_1
  6
CONTINUOUS
 62
       3
100
AcDbLine
 10
-112.42201242
 20
-12.75013473
 30
0.0
 11
-112.42201242
 21
-12.42055623
 31
0.0
  0
LINE
  5
555
100
AcDbEntity
  8
レイヤー_1
  6
CONTINUOUS
 62
       3
100
AcDbLine
 10
-112.42201242
 20
-12.42055623
 30
0.0
 11
-112.4519857
 21
-12.09699676
 31
0.0
  0
LINE
  5
556
100
AcDbEntity
  8
レイヤー_1
  6
CONTINUOUS
 62
       3
100
AcDbLine
 10
-112.4519857
 20
-12.09699676
 30
0.0
 11
-112.51064274
 21
-11.78263335
 31
0.0
  0
LINE
  5
557
100
AcDbEntity
  8
レイヤー_1
  6
CONTINUOUS
 62
       3
100
AcDbLine
 10
-112.51064274
 20
-11.78263335
 30
0.0
 11
-112.59663797
 21
-11.47881011
 31
0.0
  0
LINE
  5
558
100
AcDbEntity
  8
レイヤー_1
  6
CONTINUOUS
 62
       3
100
AcDbLine
 10
-112.59663797
 20
-11.47881011
 30
0.0
 11
-112.70862581
 21
-11.1868712
 31
0.0
  0
LINE
  5
559
100
AcDbEntity
  8
レイヤー_1
  6
CONTINUOUS
 62
       3
100
AcDbLine
 10
-112.70862581
 20
-11.1868712
 30
0.0
 11
-112.84526068
 21
-10.90816072
 31
0.0
  0
LINE
  5
55A
100
AcDbEntity
  8
レイヤー_1
  6
CONTINUOUS
 62
       3
100
AcDbLine
 10
-112.84526068
 20
-10.90816072
 30
0.0
 11
-113.00519702
 21
-10.64402282
 31
0.0
  0
LINE
  5
55B
100
AcDbEntity
  8
レイヤー_1
  6
CONTINUOUS
 62
       3
100
AcDbLine
 10
-113.00519702
 20
-10.64402282
 30
0.0
 11
-113.18708924
 21
-10.39580162
 31
0.0
  0
LINE
  5
55C
100
AcDbEntity
  8
レイヤー_1
  6
CONTINUOUS
 62
       3
100
AcDbLine
 10
-113.18708924
 20
-10.39580162
 30
0.0
 11
-113.38959178
 21
-10.16484126
 31
0.0
  0
LINE
  5
55D
100
AcDbEntity
  8
レイヤー_1
  6
CONTINUOUS
 62
       3
100
AcDbLine
 10
-113.38959178
 20
-10.16484126
 30
0.0
 11
-113.61135904
 21
-9.95248585
 31
0.0
  0
LINE
  5
55E
100
AcDbEntity
  8
レイヤー_1
  6
CONTINUOUS
 62
       3
100
AcDbLine
 10
-113.61135904
 20
-9.95248585
 30
0.0
 11
-113.85104546
 21
-9.76007954
 31
0.0
  0
LINE
  5
55F
100
AcDbEntity
  8
レイヤー_1
  6
CONTINUOUS
 62
       3
100
AcDbLine
 10
-113.85104546
 20
-9.76007954
 30
0.0
 11
-114.10730547
 21
-9.58896645
 31
0.0
  0
LINE
  5
560
100
AcDbEntity
  8
レイヤー_1
  6
CONTINUOUS
 62
       3
100
AcDbLine
 10
-114.10730547
 20
-9.58896645
 30
0.0
 11
-114.37879347
 21
-9.44049071
 31
0.0
  0
LINE
  5
561
100
AcDbEntity
  8
レイヤー_1
  6
CONTINUOUS
 62
       3
100
AcDbLine
 10
-114.37879347
 20
-9.44049071
 30
0.0
 11
-114.66416391
 21
-9.31599644
 31
0.0
  0
LINE
  5
562
100
AcDbEntity
  8
レイヤー_1
  6
CONTINUOUS
 62
       3
100
AcDbLine
 10
-114.66416391
 20
-9.31599644
 30
0.0
 11
-114.9620712
 21
-9.21682779
 31
0.0
  0
LINE
  5
563
100
AcDbEntity
  8
レイヤー_1
  6
CONTINUOUS
 62
       3
100
AcDbLine
 10
-114.9620712
 20
-9.21682779
 30
0.0
 11
-115.27116977
 21
-9.14432888
 31
0.0
  0
LINE
  5
564
100
AcDbEntity
  8
レイヤー_1
  6
CONTINUOUS
 62
       3
100
AcDbLine
 10
-115.27116977
 20
-9.14432888
 30
0.0
 11
-115.59011404
 21
-9.09984384
 31
0.0
  0
LINE
  5
565
100
AcDbEntity
  8
レイヤー_1
  6
CONTINUOUS
 62
       3
100
AcDbLine
 10
-115.59011404
 20
-9.09984384
 30
0.0
 11
-115.91755843
 21
-9.0847168
 31
0.0
  0
LINE
  5
566
100
AcDbEntity
  8
レイヤー_1
  6
CONTINUOUS
 62
       3
100
AcDbLine
 10
-104.31835257
 20
-9.0847168
 30
0.0
 11
-104.64580102
 21
-9.09984384
 31
0.0
  0
LINE
  5
567
100
AcDbEntity
  8
レイヤー_1
  6
CONTINUOUS
 62
       3
100
AcDbLine
 10
-104.64580102
 20
-9.09984384
 30
0.0
 11
-104.96475682
 21
-9.14432888
 31
0.0
  0
LINE
  5
568
100
AcDbEntity
  8
レイヤー_1
  6
CONTINUOUS
 62
       3
100
AcDbLine
 10
-104.96475682
 20
-9.14432888
 30
0.0
 11
-105.27387342
 21
-9.21682779
 31
0.0
  0
LINE
  5
569
100
AcDbEntity
  8
レイヤー_1
  6
CONTINUOUS
 62
       3
100
AcDbLine
 10
-105.27387342
 20
-9.21682779
 30
0.0
 11
-105.5718043
 21
-9.31599644
 31
0.0
  0
LINE
  5
56A
100
AcDbEntity
  8
レイヤー_1
  6
CONTINUOUS
 62
       3
100
AcDbLine
 10
-105.5718043
 20
-9.31599644
 30
0.0
 11
-105.8572029
 21
-9.44049071
 31
0.0
  0
LINE
  5
56B
100
AcDbEntity
  8
レイヤー_1
  6
CONTINUOUS
 62
       3
100
AcDbLine
 10
-105.8572029
 20
-9.44049071
 30
0.0
 11
-106.12872268
 21
-9.58896645
 31
0.0
  0
LINE
  5
56C
100
AcDbEntity
  8
レイヤー_1
  6
CONTINUOUS
 62
       3
100
AcDbLine
 10
-106.12872268
 20
-9.58896645
 30
0.0
 11
-106.38501712
 21
-9.76007954
 31
0.0
  0
LINE
  5
56D
100
AcDbEntity
  8
レイヤー_1
  6
CONTINUOUS
 62
       3
100
AcDbLine
 10
-106.38501712
 20
-9.76007954
 30
0.0
 11
-106.62473966
 21
-9.95248585
 31
0.0
  0
LINE
  5
56E
100
AcDbEntity
  8
レイヤー_1
  6
CONTINUOUS
 62
       3
100
AcDbLine
 10
-106.62473966
 20
-9.95248585
 30
0.0
 11
-106.84654376
 21
-10.16484126
 31
0.0
  0
LINE
  5
56F
100
AcDbEntity
  8
レイヤー_1
  6
CONTINUOUS
 62
       3
100
AcDbLine
 10
-106.84654376
 20
-10.16484126
 30
0.0
 11
-107.0490829
 21
-10.39580162
 31
0.0
  0
LINE
  5
570
100
AcDbEntity
  8
レイヤー_1
  6
CONTINUOUS
 62
       3
100
AcDbLine
 10
-107.0490829
 20
-10.39580162
 30
0.0
 11
-107.23101051
 21
-10.64402282
 31
0.0
  0
LINE
  5
571
100
AcDbEntity
  8
レイヤー_1
  6
CONTINUOUS
 62
       3
100
AcDbLine
 10
-107.23101051
 20
-10.64402282
 30
0.0
 11
-107.39098008
 21
-10.90816072
 31
0.0
  0
LINE
  5
572
100
AcDbEntity
  8
レイヤー_1
  6
CONTINUOUS
 62
       3
100
AcDbLine
 10
-107.39098008
 20
-10.90816072
 30
0.0
 11
-107.52764505
 21
-11.1868712
 31
0.0
  0
LINE
  5
573
100
AcDbEntity
  8
レイヤー_1
  6
CONTINUOUS
 62
       3
100
AcDbLine
 10
-107.52764505
 20
-11.1868712
 30
0.0
 11
-107.63965888
 21
-11.47881011
 31
0.0
  0
LINE
  5
574
100
AcDbEntity
  8
レイヤー_1
  6
CONTINUOUS
 62
       3
100
AcDbLine
 10
-107.63965888
 20
-11.47881011
 30
0.0
 11
-107.72567504
 21
-11.78263335
 31
0.0
  0
LINE
  5
575
100
AcDbEntity
  8
レイヤー_1
  6
CONTINUOUS
 62
       3
100
AcDbLine
 10
-107.72567504
 20
-11.78263335
 30
0.0
 11
-107.78434699
 21
-12.09699676
 31
0.0
  0
LINE
  5
576
100
AcDbEntity
  8
レイヤー_1
  6
CONTINUOUS
 62
       3
100
AcDbLine
 10
-107.78434699
 20
-12.09699676
 30
0.0
 11
-107.81432818
 21
-12.42055623
 31
0.0
  0
LINE
  5
577
100
AcDbEntity
  8
レイヤー_1
  6
CONTINUOUS
 62
       3
100
AcDbLine
 10
-107.81432818
 20
-12.42055623
 30
0.0
 11
-107.81432818
 21
-12.75013473
 31
0.0
  0
LINE
  5
578
100
AcDbEntity
  8
レイヤー_1
  6
CONTINUOUS
 62
       3
100
AcDbLine
 10
-107.81432818
 20
-12.75013473
 30
0.0
 11
-107.78434699
 21
-13.07361272
 31
0.0
  0
LINE
  5
579
100
AcDbEntity
  8
レイヤー_1
  6
CONTINUOUS
 62
       3
100
AcDbLine
 10
-107.78434699
 20
-13.07361272
 30
0.0
 11
-107.72567504
 21
-13.38788839
 31
0.0
  0
LINE
  5
57A
100
AcDbEntity
  8
レイヤー_1
  6
CONTINUOUS
 62
       3
100
AcDbLine
 10
-107.72567504
 20
-13.38788839
 30
0.0
 11
-107.63965888
 21
-13.69161906
 31
0.0
  0
LINE
  5
57B
100
AcDbEntity
  8
レイヤー_1
  6
CONTINUOUS
 62
       3
100
AcDbLine
 10
-107.63965888
 20
-13.69161906
 30
0.0
 11
-107.52764505
 21
-13.98346204
 31
0.0
  0
LINE
  5
57C
100
AcDbEntity
  8
レイヤー_1
  6
CONTINUOUS
 62
       3
100
AcDbLine
 10
-107.52764505
 20
-13.98346204
 30
0.0
 11
-107.39098008
 21
-14.26207464
 31
0.0
  0
LINE
  5
57D
100
AcDbEntity
  8
レイヤー_1
  6
CONTINUOUS
 62
       3
100
AcDbLine
 10
-107.39098008
 20
-14.26207464
 30
0.0
 11
-107.23101051
 21
-14.52611419
 31
0.0
  0
LINE
  5
57E
100
AcDbEntity
  8
レイヤー_1
  6
CONTINUOUS
 62
       3
100
AcDbLine
 10
-107.23101051
 20
-14.52611419
 30
0.0
 11
-107.0490829
 21
-14.77423801
 31
0.0
  0
LINE
  5
57F
100
AcDbEntity
  8
レイヤー_1
  6
CONTINUOUS
 62
       3
100
AcDbLine
 10
-107.0490829
 20
-14.77423801
 30
0.0
 11
-106.84654376
 21
-15.0051034
 31
0.0
  0
LINE
  5
580
100
AcDbEntity
  8
レイヤー_1
  6
CONTINUOUS
 62
       3
100
AcDbLine
 10
-106.84654376
 20
-15.0051034
 30
0.0
 11
-106.62473966
 21
-15.21736768
 31
0.0
  0
LINE
  5
581
100
AcDbEntity
  8
レイヤー_1
  6
CONTINUOUS
 62
       3
100
AcDbLine
 10
-106.62473966
 20
-15.21736768
 30
0.0
 11
-106.38501712
 21
-15.40968818
 31
0.0
  0
LINE
  5
582
100
AcDbEntity
  8
レイヤー_1
  6
CONTINUOUS
 62
       3
100
AcDbLine
 10
-106.38501712
 20
-15.40968818
 30
0.0
 11
-106.12872268
 21
-15.5807222
 31
0.0
  0
LINE
  5
583
100
AcDbEntity
  8
レイヤー_1
  6
CONTINUOUS
 62
       3
100
AcDbLine
 10
-106.12872268
 20
-15.5807222
 30
0.0
 11
-105.8572029
 21
-15.72912707
 31
0.0
  0
LINE
  5
584
100
AcDbEntity
  8
レイヤー_1
  6
CONTINUOUS
 62
       3
100
AcDbLine
 10
-105.8572029
 20
-15.72912707
 30
0.0
 11
-105.5718043
 21
-15.85356011
 31
0.0
  0
LINE
  5
585
100
AcDbEntity
  8
レイヤー_1
  6
CONTINUOUS
 62
       3
100
AcDbLine
 10
-105.5718043
 20
-15.85356011
 30
0.0
 11
-105.27387342
 21
-15.95267862
 31
0.0
  0
LINE
  5
586
100
AcDbEntity
  8
レイヤー_1
  6
CONTINUOUS
 62
       3
100
AcDbLine
 10
-105.27387342
 20
-15.95267862
 30
0.0
 11
-104.96475682
 21
-16.02513992
 31
0.0
  0
LINE
  5
587
100
AcDbEntity
  8
レイヤー_1
  6
CONTINUOUS
 62
       3
100
AcDbLine
 10
-104.96475682
 20
-16.02513992
 30
0.0
 11
-104.64580102
 21
-16.06960134
 31
0.0
  0
LINE
  5
588
100
AcDbEntity
  8
レイヤー_1
  6
CONTINUOUS
 62
       3
100
AcDbLine
 10
-104.64580102
 20
-16.06960134
 30
0.0
 11
-104.31835257
 21
-16.08472019
 31
0.0
  0
LINE
  5
589
100
AcDbEntity
  8
レイヤー_1
  6
CONTINUOUS
 62
       3
100
AcDbLine
 10
-104.31835257
 20
-16.08472019
 30
0.0
 11
-103.9907688
 21
-16.06960134
 31
0.0
  0
LINE
  5
58A
100
AcDbEntity
  8
レイヤー_1
  6
CONTINUOUS
 62
       3
100
AcDbLine
 10
-103.9907688
 20
-16.06960134
 30
0.0
 11
-103.67170107
 21
-16.02513992
 31
0.0
  0
LINE
  5
58B
100
AcDbEntity
  8
レイヤー_1
  6
CONTINUOUS
 62
       3
100
AcDbLine
 10
-103.67170107
 20
-16.02513992
 30
0.0
 11
-103.36249399
 21
-15.95267862
 31
0.0
  0
LINE
  5
58C
100
AcDbEntity
  8
レイヤー_1
  6
CONTINUOUS
 62
       3
100
AcDbLine
 10
-103.36249399
 20
-15.95267862
 30
0.0
 11
-103.06449217
 21
-15.85356011
 31
0.0
  0
LINE
  5
58D
100
AcDbEntity
  8
レイヤー_1
  6
CONTINUOUS
 62
       3
100
AcDbLine
 10
-103.06449217
 20
-15.85356011
 30
0.0
 11
-102.77904021
 21
-15.72912707
 31
0.0
  0
LINE
  5
58E
100
AcDbEntity
  8
レイヤー_1
  6
CONTINUOUS
 62
       3
100
AcDbLine
 10
-102.77904021
 20
-15.72912707
 30
0.0
 11
-102.50748274
 21
-15.5807222
 31
0.0
  0
LINE
  5
58F
100
AcDbEntity
  8
レイヤー_1
  6
CONTINUOUS
 62
       3
100
AcDbLine
 10
-102.50748274
 20
-15.5807222
 30
0.0
 11
-102.25116436
 21
-15.40968818
 31
0.0
  0
LINE
  5
590
100
AcDbEntity
  8
レイヤー_1
  6
CONTINUOUS
 62
       3
100
AcDbLine
 10
-102.25116436
 20
-15.40968818
 30
0.0
 11
-102.01142969
 21
-15.21736768
 31
0.0
  0
LINE
  5
591
100
AcDbEntity
  8
レイヤー_1
  6
CONTINUOUS
 62
       3
100
AcDbLine
 10
-102.01142969
 20
-15.21736768
 30
0.0
 11
-101.78962333
 21
-15.0051034
 31
0.0
  0
LINE
  5
592
100
AcDbEntity
  8
レイヤー_1
  6
CONTINUOUS
 62
       3
100
AcDbLine
 10
-101.78962333
 20
-15.0051034
 30
0.0
 11
-101.58708991
 21
-14.77423801
 31
0.0
  0
LINE
  5
593
100
AcDbEntity
  8
レイヤー_1
  6
CONTINUOUS
 62
       3
100
AcDbLine
 10
-101.58708991
 20
-14.77423801
 30
0.0
 11
-101.40517402
 21
-14.52611419
 31
0.0
  0
LINE
  5
594
100
AcDbEntity
  8
レイヤー_1
  6
CONTINUOUS
 62
       3
100
AcDbLine
 10
-101.40517402
 20
-14.52611419
 30
0.0
 11
-101.24522029
 21
-14.26207464
 31
0.0
  0
LINE
  5
595
100
AcDbEntity
  8
レイヤー_1
  6
CONTINUOUS
 62
       3
100
AcDbLine
 10
-101.24522029
 20
-14.26207464
 30
0.0
 11
-101.10857331
 21
-13.98346204
 31
0.0
  0
LINE
  5
596
100
AcDbEntity
  8
レイヤー_1
  6
CONTINUOUS
 62
       3
100
AcDbLine
 10
-101.10857331
 20
-13.98346204
 30
0.0
 11
-100.99657772
 21
-13.69161906
 31
0.0
  0
LINE
  5
597
100
AcDbEntity
  8
レイヤー_1
  6
CONTINUOUS
 62
       3
100
AcDbLine
 10
-100.99657772
 20
-13.69161906
 30
0.0
 11
-100.91057811
 21
-13.38788839
 31
0.0
  0
LINE
  5
598
100
AcDbEntity
  8
レイヤー_1
  6
CONTINUOUS
 62
       3
100
AcDbLine
 10
-100.91057811
 20
-13.38788839
 30
0.0
 11
-100.8519191
 21
-13.07361272
 31
0.0
  0
LINE
  5
599
100
AcDbEntity
  8
レイヤー_1
  6
CONTINUOUS
 62
       3
100
AcDbLine
 10
-100.8519191
 20
-13.07361272
 30
0.0
 11
-100.82194531
 21
-12.75013473
 31
0.0
  0
LINE
  5
59A
100
AcDbEntity
  8
レイヤー_1
  6
CONTINUOUS
 62
       3
100
AcDbLine
 10
-100.82194531
 20
-12.75013473
 30
0.0
 11
-100.82194531
 21
-12.42055623
 31
0.0
  0
LINE
  5
59B
100
AcDbEntity
  8
レイヤー_1
  6
CONTINUOUS
 62
       3
100
AcDbLine
 10
-100.82194531
 20
-12.42055623
 30
0.0
 11
-100.8519191
 21
-12.09699676
 31
0.0
  0
LINE
  5
59C
100
AcDbEntity
  8
レイヤー_1
  6
CONTINUOUS
 62
       3
100
AcDbLine
 10
-100.8519191
 20
-12.09699676
 30
0.0
 11
-100.91057811
 21
-11.78263335
 31
0.0
  0
LINE
  5
59D
100
AcDbEntity
  8
レイヤー_1
  6
CONTINUOUS
 62
       3
100
AcDbLine
 10
-100.91057811
 20
-11.78263335
 30
0.0
 11
-100.99657772
 21
-11.47881011
 31
0.0
  0
LINE
  5
59E
100
AcDbEntity
  8
レイヤー_1
  6
CONTINUOUS
 62
       3
100
AcDbLine
 10
-100.99657772
 20
-11.47881011
 30
0.0
 11
-101.10857331
 21
-11.1868712
 31
0.0
  0
LINE
  5
59F
100
AcDbEntity
  8
レイヤー_1
  6
CONTINUOUS
 62
       3
100
AcDbLine
 10
-101.10857331
 20
-11.1868712
 30
0.0
 11
-101.24522029
 21
-10.90816072
 31
0.0
  0
LINE
  5
5A0
100
AcDbEntity
  8
レイヤー_1
  6
CONTINUOUS
 62
       3
100
AcDbLine
 10
-101.24522029
 20
-10.90816072
 30
0.0
 11
-101.40517402
 21
-10.64402282
 31
0.0
  0
LINE
  5
5A1
100
AcDbEntity
  8
レイヤー_1
  6
CONTINUOUS
 62
       3
100
AcDbLine
 10
-101.40517402
 20
-10.64402282
 30
0.0
 11
-101.58708991
 21
-10.39580162
 31
0.0
  0
LINE
  5
5A2
100
AcDbEntity
  8
レイヤー_1
  6
CONTINUOUS
 62
       3
100
AcDbLine
 10
-101.58708991
 20
-10.39580162
 30
0.0
 11
-101.78962333
 21
-10.16484126
 31
0.0
  0
LINE
  5
5A3
100
AcDbEntity
  8
レイヤー_1
  6
CONTINUOUS
 62
       3
100
AcDbLine
 10
-101.78962333
 20
-10.16484126
 30
0.0
 11
-102.01142969
 21
-9.95248585
 31
0.0
  0
LINE
  5
5A4
100
AcDbEntity
  8
レイヤー_1
  6
CONTINUOUS
 62
       3
100
AcDbLine
 10
-102.01142969
 20
-9.95248585
 30
0.0
 11
-102.25116436
 21
-9.76007954
 31
0.0
  0
LINE
  5
5A5
100
AcDbEntity
  8
レイヤー_1
  6
CONTINUOUS
 62
       3
100
AcDbLine
 10
-102.25116436
 20
-9.76007954
 30
0.0
 11
-102.50748274
 21
-9.58896645
 31
0.0
  0
LINE
  5
5A6
100
AcDbEntity
  8
レイヤー_1
  6
CONTINUOUS
 62
       3
100
AcDbLine
 10
-102.50748274
 20
-9.58896645
 30
0.0
 11
-102.77904021
 21
-9.44049071
 31
0.0
  0
LINE
  5
5A7
100
AcDbEntity
  8
レイヤー_1
  6
CONTINUOUS
 62
       3
100
AcDbLine
 10
-102.77904021
 20
-9.44049071
 30
0.0
 11
-103.06449217
 21
-9.31599644
 31
0.0
  0
LINE
  5
5A8
100
AcDbEntity
  8
レイヤー_1
  6
CONTINUOUS
 62
       3
100
AcDbLine
 10
-103.06449217
 20
-9.31599644
 30
0.0
 11
-103.36249399
 21
-9.21682779
 31
0.0
  0
LINE
  5
5A9
100
AcDbEntity
  8
レイヤー_1
  6
CONTINUOUS
 62
       3
100
AcDbLine
 10
-103.36249399
 20
-9.21682779
 30
0.0
 11
-103.67170107
 21
-9.14432888
 31
0.0
  0
LINE
  5
5AA
100
AcDbEntity
  8
レイヤー_1
  6
CONTINUOUS
 62
       3
100
AcDbLine
 10
-103.67170107
 20
-9.14432888
 30
0.0
 11
-103.9907688
 21
-9.09984384
 31
0.0
  0
LINE
  5
5AB
100
AcDbEntity
  8
レイヤー_1
  6
CONTINUOUS
 62
       3
100
AcDbLine
 10
-103.9907688
 20
-9.09984384
 30
0.0
 11
-104.31835257
 21
-9.0847168
 31
0.0
  0
LINE
  5
5AC
100
AcDbEntity
  8
レイヤー_1
  6
CONTINUOUS
 62
       3
100
AcDbLine
 10
-92.71828543
 20
-9.0847168
 30
0.0
 11
-93.04572983
 21
-9.09984384
 31
0.0
  0
LINE
  5
5AD
100
AcDbEntity
  8
レイヤー_1
  6
CONTINUOUS
 62
       3
100
AcDbLine
 10
-93.04572983
 20
-9.09984384
 30
0.0
 11
-93.36467409
 21
-9.14432888
 31
0.0
  0
LINE
  5
5AE
100
AcDbEntity
  8
レイヤー_1
  6
CONTINUOUS
 62
       3
100
AcDbLine
 10
-93.36467409
 20
-9.14432888
 30
0.0
 11
-93.67377266
 21
-9.21682779
 31
0.0
  0
LINE
  5
5AF
100
AcDbEntity
  8
レイヤー_1
  6
CONTINUOUS
 62
       3
100
AcDbLine
 10
-93.67377266
 20
-9.21682779
 30
0.0
 11
-93.97167995
 21
-9.31599644
 31
0.0
  0
LINE
  5
5B0
100
AcDbEntity
  8
レイヤー_1
  6
CONTINUOUS
 62
       3
100
AcDbLine
 10
-93.97167995
 20
-9.31599644
 30
0.0
 11
-94.25705039
 21
-9.44049071
 31
0.0
  0
LINE
  5
5B1
100
AcDbEntity
  8
レイヤー_1
  6
CONTINUOUS
 62
       3
100
AcDbLine
 10
-94.25705039
 20
-9.44049071
 30
0.0
 11
-94.52853839
 21
-9.58896645
 31
0.0
  0
LINE
  5
5B2
100
AcDbEntity
  8
レイヤー_1
  6
CONTINUOUS
 62
       3
100
AcDbLine
 10
-94.52853839
 20
-9.58896645
 30
0.0
 11
-94.7847984
 21
-9.76007954
 31
0.0
  0
LINE
  5
5B3
100
AcDbEntity
  8
レイヤー_1
  6
CONTINUOUS
 62
       3
100
AcDbLine
 10
-94.7847984
 20
-9.76007954
 30
0.0
 11
-95.02448482
 21
-9.95248585
 31
0.0
  0
LINE
  5
5B4
100
AcDbEntity
  8
レイヤー_1
  6
CONTINUOUS
 62
       3
100
AcDbLine
 10
-95.02448482
 20
-9.95248585
 30
0.0
 11
-95.24625208
 21
-10.16484126
 31
0.0
  0
LINE
  5
5B5
100
AcDbEntity
  8
レイヤー_1
  6
CONTINUOUS
 62
       3
100
AcDbLine
 10
-95.24625208
 20
-10.16484126
 30
0.0
 11
-95.44875462
 21
-10.39580162
 31
0.0
  0
LINE
  5
5B6
100
AcDbEntity
  8
レイヤー_1
  6
CONTINUOUS
 62
       3
100
AcDbLine
 10
-95.44875462
 20
-10.39580162
 30
0.0
 11
-95.63064684
 21
-10.64402282
 31
0.0
  0
LINE
  5
5B7
100
AcDbEntity
  8
レイヤー_1
  6
CONTINUOUS
 62
       3
100
AcDbLine
 10
-95.63064684
 20
-10.64402282
 30
0.0
 11
-95.79058318
 21
-10.90816072
 31
0.0
  0
LINE
  5
5B8
100
AcDbEntity
  8
レイヤー_1
  6
CONTINUOUS
 62
       3
100
AcDbLine
 10
-95.79058318
 20
-10.90816072
 30
0.0
 11
-95.92721805
 21
-11.1868712
 31
0.0
  0
LINE
  5
5B9
100
AcDbEntity
  8
レイヤー_1
  6
CONTINUOUS
 62
       3
100
AcDbLine
 10
-95.92721805
 20
-11.1868712
 30
0.0
 11
-96.0392059
 21
-11.47881011
 31
0.0
  0
LINE
  5
5BA
100
AcDbEntity
  8
レイヤー_1
  6
CONTINUOUS
 62
       3
100
AcDbLine
 10
-96.0392059
 20
-11.47881011
 30
0.0
 11
-96.12520112
 21
-11.78263335
 31
0.0
  0
LINE
  5
5BB
100
AcDbEntity
  8
レイヤー_1
  6
CONTINUOUS
 62
       3
100
AcDbLine
 10
-96.12520112
 20
-11.78263335
 30
0.0
 11
-96.18385816
 21
-12.09699676
 31
0.0
  0
LINE
  5
5BC
100
AcDbEntity
  8
レイヤー_1
  6
CONTINUOUS
 62
       3
100
AcDbLine
 10
-96.18385816
 20
-12.09699676
 30
0.0
 11
-96.21383144
 21
-12.42055623
 31
0.0
  0
LINE
  5
5BD
100
AcDbEntity
  8
レイヤー_1
  6
CONTINUOUS
 62
       3
100
AcDbLine
 10
-96.21383144
 20
-12.42055623
 30
0.0
 11
-96.21383144
 21
-12.75013473
 31
0.0
  0
LINE
  5
5BE
100
AcDbEntity
  8
レイヤー_1
  6
CONTINUOUS
 62
       3
100
AcDbLine
 10
-96.21383144
 20
-12.75013473
 30
0.0
 11
-96.18385816
 21
-13.07361272
 31
0.0
  0
LINE
  5
5BF
100
AcDbEntity
  8
レイヤー_1
  6
CONTINUOUS
 62
       3
100
AcDbLine
 10
-96.18385816
 20
-13.07361272
 30
0.0
 11
-96.12520112
 21
-13.38788839
 31
0.0
  0
LINE
  5
5C0
100
AcDbEntity
  8
レイヤー_1
  6
CONTINUOUS
 62
       3
100
AcDbLine
 10
-96.12520112
 20
-13.38788839
 30
0.0
 11
-96.0392059
 21
-13.69161906
 31
0.0
  0
LINE
  5
5C1
100
AcDbEntity
  8
レイヤー_1
  6
CONTINUOUS
 62
       3
100
AcDbLine
 10
-96.0392059
 20
-13.69161906
 30
0.0
 11
-95.92721805
 21
-13.98346204
 31
0.0
  0
LINE
  5
5C2
100
AcDbEntity
  8
レイヤー_1
  6
CONTINUOUS
 62
       3
100
AcDbLine
 10
-95.92721805
 20
-13.98346204
 30
0.0
 11
-95.79058318
 21
-14.26207464
 31
0.0
  0
LINE
  5
5C3
100
AcDbEntity
  8
レイヤー_1
  6
CONTINUOUS
 62
       3
100
AcDbLine
 10
-95.79058318
 20
-14.26207464
 30
0.0
 11
-95.63064684
 21
-14.52611419
 31
0.0
  0
LINE
  5
5C4
100
AcDbEntity
  8
レイヤー_1
  6
CONTINUOUS
 62
       3
100
AcDbLine
 10
-95.63064684
 20
-14.52611419
 30
0.0
 11
-95.44875462
 21
-14.77423801
 31
0.0
  0
LINE
  5
5C5
100
AcDbEntity
  8
レイヤー_1
  6
CONTINUOUS
 62
       3
100
AcDbLine
 10
-95.44875462
 20
-14.77423801
 30
0.0
 11
-95.24625208
 21
-15.0051034
 31
0.0
  0
LINE
  5
5C6
100
AcDbEntity
  8
レイヤー_1
  6
CONTINUOUS
 62
       3
100
AcDbLine
 10
-95.24625208
 20
-15.0051034
 30
0.0
 11
-95.02448482
 21
-15.21736768
 31
0.0
  0
LINE
  5
5C7
100
AcDbEntity
  8
レイヤー_1
  6
CONTINUOUS
 62
       3
100
AcDbLine
 10
-95.02448482
 20
-15.21736768
 30
0.0
 11
-94.7847984
 21
-15.40968818
 31
0.0
  0
LINE
  5
5C8
100
AcDbEntity
  8
レイヤー_1
  6
CONTINUOUS
 62
       3
100
AcDbLine
 10
-94.7847984
 20
-15.40968818
 30
0.0
 11
-94.52853839
 21
-15.5807222
 31
0.0
  0
LINE
  5
5C9
100
AcDbEntity
  8
レイヤー_1
  6
CONTINUOUS
 62
       3
100
AcDbLine
 10
-94.52853839
 20
-15.5807222
 30
0.0
 11
-94.25705039
 21
-15.72912707
 31
0.0
  0
LINE
  5
5CA
100
AcDbEntity
  8
レイヤー_1
  6
CONTINUOUS
 62
       3
100
AcDbLine
 10
-94.25705039
 20
-15.72912707
 30
0.0
 11
-93.97167995
 21
-15.85356011
 31
0.0
  0
LINE
  5
5CB
100
AcDbEntity
  8
レイヤー_1
  6
CONTINUOUS
 62
       3
100
AcDbLine
 10
-93.97167995
 20
-15.85356011
 30
0.0
 11
-93.67377266
 21
-15.95267862
 31
0.0
  0
LINE
  5
5CC
100
AcDbEntity
  8
レイヤー_1
  6
CONTINUOUS
 62
       3
100
AcDbLine
 10
-93.67377266
 20
-15.95267862
 30
0.0
 11
-93.36467409
 21
-16.02513992
 31
0.0
  0
LINE
  5
5CD
100
AcDbEntity
  8
レイヤー_1
  6
CONTINUOUS
 62
       3
100
AcDbLine
 10
-93.36467409
 20
-16.02513992
 30
0.0
 11
-93.04572983
 21
-16.06960134
 31
0.0
  0
LINE
  5
5CE
100
AcDbEntity
  8
レイヤー_1
  6
CONTINUOUS
 62
       3
100
AcDbLine
 10
-93.04572983
 20
-16.06960134
 30
0.0
 11
-92.71828543
 21
-16.08472019
 31
0.0
  0
LINE
  5
5CF
100
AcDbEntity
  8
レイヤー_1
  6
CONTINUOUS
 62
       3
100
AcDbLine
 10
-92.71828543
 20
-16.08472019
 30
0.0
 11
-92.39069761
 21
-16.06960134
 31
0.0
  0
LINE
  5
5D0
100
AcDbEntity
  8
レイヤー_1
  6
CONTINUOUS
 62
       3
100
AcDbLine
 10
-92.39069761
 20
-16.06960134
 30
0.0
 11
-92.07161835
 21
-16.02513992
 31
0.0
  0
LINE
  5
5D1
100
AcDbEntity
  8
レイヤー_1
  6
CONTINUOUS
 62
       3
100
AcDbLine
 10
-92.07161835
 20
-16.02513992
 30
0.0
 11
-91.76239323
 21
-15.95267862
 31
0.0
  0
LINE
  5
5D2
100
AcDbEntity
  8
レイヤー_1
  6
CONTINUOUS
 62
       3
100
AcDbLine
 10
-91.76239323
 20
-15.95267862
 30
0.0
 11
-91.46436782
 21
-15.85356011
 31
0.0
  0
LINE
  5
5D3
100
AcDbEntity
  8
レイヤー_1
  6
CONTINUOUS
 62
       3
100
AcDbLine
 10
-91.46436782
 20
-15.85356011
 30
0.0
 11
-91.1788877
 21
-15.72912707
 31
0.0
  0
LINE
  5
5D4
100
AcDbEntity
  8
レイヤー_1
  6
CONTINUOUS
 62
       3
100
AcDbLine
 10
-91.1788877
 20
-15.72912707
 30
0.0
 11
-90.90729845
 21
-15.5807222
 31
0.0
  0
LINE
  5
5D5
100
AcDbEntity
  8
レイヤー_1
  6
CONTINUOUS
 62
       3
100
AcDbLine
 10
-90.90729845
 20
-15.5807222
 30
0.0
 11
-90.65094564
 21
-15.40968818
 31
0.0
  0
LINE
  5
5D6
100
AcDbEntity
  8
レイヤー_1
  6
CONTINUOUS
 62
       3
100
AcDbLine
 10
-90.65094564
 20
-15.40968818
 30
0.0
 11
-90.41117485
 21
-15.21736768
 31
0.0
  0
LINE
  5
5D7
100
AcDbEntity
  8
レイヤー_1
  6
CONTINUOUS
 62
       3
100
AcDbLine
 10
-90.41117485
 20
-15.21736768
 30
0.0
 11
-90.18933165
 21
-15.0051034
 31
0.0
  0
LINE
  5
5D8
100
AcDbEntity
  8
レイヤー_1
  6
CONTINUOUS
 62
       3
100
AcDbLine
 10
-90.18933165
 20
-15.0051034
 30
0.0
 11
-89.98676163
 21
-14.77423801
 31
0.0
  0
LINE
  5
5D9
100
AcDbEntity
  8
レイヤー_1
  6
CONTINUOUS
 62
       3
100
AcDbLine
 10
-89.98676163
 20
-14.77423801
 30
0.0
 11
-89.80481034
 21
-14.52611419
 31
0.0
  0
LINE
  5
5DA
100
AcDbEntity
  8
レイヤー_1
  6
CONTINUOUS
 62
       3
100
AcDbLine
 10
-89.80481034
 20
-14.52611419
 30
0.0
 11
-89.64482338
 21
-14.26207464
 31
0.0
  0
LINE
  5
5DB
100
AcDbEntity
  8
レイヤー_1
  6
CONTINUOUS
 62
       3
100
AcDbLine
 10
-89.64482338
 20
-14.26207464
 30
0.0
 11
-89.50814632
 21
-13.98346204
 31
0.0
  0
LINE
  5
5DC
100
AcDbEntity
  8
レイヤー_1
  6
CONTINUOUS
 62
       3
100
AcDbLine
 10
-89.50814632
 20
-13.98346204
 30
0.0
 11
-89.39612473
 21
-13.69161906
 31
0.0
  0
LINE
  5
5DD
100
AcDbEntity
  8
レイヤー_1
  6
CONTINUOUS
 62
       3
100
AcDbLine
 10
-89.39612473
 20
-13.69161906
 30
0.0
 11
-89.31010419
 21
-13.38788839
 31
0.0
  0
LINE
  5
5DE
100
AcDbEntity
  8
レイヤー_1
  6
CONTINUOUS
 62
       3
100
AcDbLine
 10
-89.31010419
 20
-13.38788839
 30
0.0
 11
-89.25143028
 21
-13.07361272
 31
0.0
  0
LINE
  5
5DF
100
AcDbEntity
  8
レイヤー_1
  6
CONTINUOUS
 62
       3
100
AcDbLine
 10
-89.25143028
 20
-13.07361272
 30
0.0
 11
-89.22144857
 21
-12.75013473
 31
0.0
  0
LINE
  5
5E0
100
AcDbEntity
  8
レイヤー_1
  6
CONTINUOUS
 62
       3
100
AcDbLine
 10
-89.22144857
 20
-12.75013473
 30
0.0
 11
-89.22144857
 21
-12.42055623
 31
0.0
  0
LINE
  5
5E1
100
AcDbEntity
  8
レイヤー_1
  6
CONTINUOUS
 62
       3
100
AcDbLine
 10
-89.22144857
 20
-12.42055623
 30
0.0
 11
-89.25143028
 21
-12.09699676
 31
0.0
  0
LINE
  5
5E2
100
AcDbEntity
  8
レイヤー_1
  6
CONTINUOUS
 62
       3
100
AcDbLine
 10
-89.25143028
 20
-12.09699676
 30
0.0
 11
-89.31010419
 21
-11.78263335
 31
0.0
  0
LINE
  5
5E3
100
AcDbEntity
  8
レイヤー_1
  6
CONTINUOUS
 62
       3
100
AcDbLine
 10
-89.31010419
 20
-11.78263335
 30
0.0
 11
-89.39612473
 21
-11.47881011
 31
0.0
  0
LINE
  5
5E4
100
AcDbEntity
  8
レイヤー_1
  6
CONTINUOUS
 62
       3
100
AcDbLine
 10
-89.39612473
 20
-11.47881011
 30
0.0
 11
-89.50814632
 21
-11.1868712
 31
0.0
  0
LINE
  5
5E5
100
AcDbEntity
  8
レイヤー_1
  6
CONTINUOUS
 62
       3
100
AcDbLine
 10
-89.50814632
 20
-11.1868712
 30
0.0
 11
-89.64482338
 21
-10.90816072
 31
0.0
  0
LINE
  5
5E6
100
AcDbEntity
  8
レイヤー_1
  6
CONTINUOUS
 62
       3
100
AcDbLine
 10
-89.64482338
 20
-10.90816072
 30
0.0
 11
-89.80481034
 21
-10.64402282
 31
0.0
  0
LINE
  5
5E7
100
AcDbEntity
  8
レイヤー_1
  6
CONTINUOUS
 62
       3
100
AcDbLine
 10
-89.80481034
 20
-10.64402282
 30
0.0
 11
-89.98676163
 21
-10.39580162
 31
0.0
  0
LINE
  5
5E8
100
AcDbEntity
  8
レイヤー_1
  6
CONTINUOUS
 62
       3
100
AcDbLine
 10
-89.98676163
 20
-10.39580162
 30
0.0
 11
-90.18933165
 21
-10.16484126
 31
0.0
  0
LINE
  5
5E9
100
AcDbEntity
  8
レイヤー_1
  6
CONTINUOUS
 62
       3
100
AcDbLine
 10
-90.18933165
 20
-10.16484126
 30
0.0
 11
-90.41117485
 21
-9.95248585
 31
0.0
  0
LINE
  5
5EA
100
AcDbEntity
  8
レイヤー_1
  6
CONTINUOUS
 62
       3
100
AcDbLine
 10
-90.41117485
 20
-9.95248585
 30
0.0
 11
-90.65094564
 21
-9.76007954
 31
0.0
  0
LINE
  5
5EB
100
AcDbEntity
  8
レイヤー_1
  6
CONTINUOUS
 62
       3
100
AcDbLine
 10
-90.65094564
 20
-9.76007954
 30
0.0
 11
-90.90729845
 21
-9.58896645
 31
0.0
  0
LINE
  5
5EC
100
AcDbEntity
  8
レイヤー_1
  6
CONTINUOUS
 62
       3
100
AcDbLine
 10
-90.90729845
 20
-9.58896645
 30
0.0
 11
-91.1788877
 21
-9.44049071
 31
0.0
  0
LINE
  5
5ED
100
AcDbEntity
  8
レイヤー_1
  6
CONTINUOUS
 62
       3
100
AcDbLine
 10
-91.1788877
 20
-9.44049071
 30
0.0
 11
-91.46436782
 21
-9.31599644
 31
0.0
  0
LINE
  5
5EE
100
AcDbEntity
  8
レイヤー_1
  6
CONTINUOUS
 62
       3
100
AcDbLine
 10
-91.46436782
 20
-9.31599644
 30
0.0
 11
-91.76239323
 21
-9.21682779
 31
0.0
  0
LINE
  5
5EF
100
AcDbEntity
  8
レイヤー_1
  6
CONTINUOUS
 62
       3
100
AcDbLine
 10
-91.76239323
 20
-9.21682779
 30
0.0
 11
-92.07161835
 21
-9.14432888
 31
0.0
  0
LINE
  5
5F0
100
AcDbEntity
  8
レイヤー_1
  6
CONTINUOUS
 62
       3
100
AcDbLine
 10
-92.07161835
 20
-9.14432888
 30
0.0
 11
-92.39069761
 21
-9.09984384
 31
0.0
  0
LINE
  5
5F1
100
AcDbEntity
  8
レイヤー_1
  6
CONTINUOUS
 62
       3
100
AcDbLine
 10
-92.39069761
 20
-9.09984384
 30
0.0
 11
-92.71828543
 21
-9.0847168
 31
0.0
  0
LINE
  5
5F2
100
AcDbEntity
  8
レイヤー_1
  6
CONTINUOUS
 62
       3
100
AcDbLine
 10
-81.11778766
 20
-9.0847168
 30
0.0
 11
-81.44543299
 21
-9.09984384
 31
0.0
  0
LINE
  5
5F3
100
AcDbEntity
  8
レイヤー_1
  6
CONTINUOUS
 62
       3
100
AcDbLine
 10
-81.44543299
 20
-9.09984384
 30
0.0
 11
-81.76453939
 21
-9.14432888
 31
0.0
  0
LINE
  5
5F4
100
AcDbEntity
  8
レイヤー_1
  6
CONTINUOUS
 62
       3
100
AcDbLine
 10
-81.76453939
 20
-9.14432888
 30
0.0
 11
-82.07376465
 21
-9.21682779
 31
0.0
  0
LINE
  5
5F5
100
AcDbEntity
  8
レイヤー_1
  6
CONTINUOUS
 62
       3
100
AcDbLine
 10
-82.07376465
 20
-9.21682779
 30
0.0
 11
-82.37176658
 21
-9.31599644
 31
0.0
  0
LINE
  5
5F6
100
AcDbEntity
  8
レイヤー_1
  6
CONTINUOUS
 62
       3
100
AcDbLine
 10
-82.37176658
 20
-9.31599644
 30
0.0
 11
-82.65720296
 21
-9.44049071
 31
0.0
  0
LINE
  5
5F7
100
AcDbEntity
  8
レイヤー_1
  6
CONTINUOUS
 62
       3
100
AcDbLine
 10
-82.65720296
 20
-9.44049071
 30
0.0
 11
-82.92873161
 21
-9.58896645
 31
0.0
  0
LINE
  5
5F8
100
AcDbEntity
  8
レイヤー_1
  6
CONTINUOUS
 62
       3
100
AcDbLine
 10
-82.92873161
 20
-9.58896645
 30
0.0
 11
-83.18501031
 21
-9.76007954
 31
0.0
  0
LINE
  5
5F9
100
AcDbEntity
  8
レイヤー_1
  6
CONTINUOUS
 62
       3
100
AcDbLine
 10
-83.18501031
 20
-9.76007954
 30
0.0
 11
-83.42469688
 21
-9.95248585
 31
0.0
  0
LINE
  5
5FA
100
AcDbEntity
  8
レイヤー_1
  6
CONTINUOUS
 62
       3
100
AcDbLine
 10
-83.42469688
 20
-9.95248585
 30
0.0
 11
-83.6464491
 21
-10.16484126
 31
0.0
  0
LINE
  5
5FB
100
AcDbEntity
  8
レイヤー_1
  6
CONTINUOUS
 62
       3
100
AcDbLine
 10
-83.6464491
 20
-10.16484126
 30
0.0
 11
-83.84892477
 21
-10.39580162
 31
0.0
  0
LINE
  5
5FC
100
AcDbEntity
  8
レイヤー_1
  6
CONTINUOUS
 62
       3
100
AcDbLine
 10
-83.84892477
 20
-10.39580162
 30
0.0
 11
-84.0307817
 21
-10.64402282
 31
0.0
  0
LINE
  5
5FD
100
AcDbEntity
  8
レイヤー_1
  6
CONTINUOUS
 62
       3
100
AcDbLine
 10
-84.0307817
 20
-10.64402282
 30
0.0
 11
-84.19067768
 21
-10.90816072
 31
0.0
  0
LINE
  5
5FE
100
AcDbEntity
  8
レイヤー_1
  6
CONTINUOUS
 62
       3
100
AcDbLine
 10
-84.19067768
 20
-10.90816072
 30
0.0
 11
-84.32727051
 21
-11.1868712
 31
0.0
  0
LINE
  5
5FF
100
AcDbEntity
  8
レイヤー_1
  6
CONTINUOUS
 62
       3
100
AcDbLine
 10
-84.32727051
 20
-11.1868712
 30
0.0
 11
-84.439218
 21
-11.47881011
 31
0.0
  0
LINE
  5
600
100
AcDbEntity
  8
レイヤー_1
  6
CONTINUOUS
 62
       3
100
AcDbLine
 10
-84.439218
 20
-11.47881011
 30
0.0
 11
-84.52517793
 21
-11.78263335
 31
0.0
  0
LINE
  5
601
100
AcDbEntity
  8
レイヤー_1
  6
CONTINUOUS
 62
       3
100
AcDbLine
 10
-84.52517793
 20
-11.78263335
 30
0.0
 11
-84.58380811
 21
-12.09699676
 31
0.0
  0
LINE
  5
602
100
AcDbEntity
  8
レイヤー_1
  6
CONTINUOUS
 62
       3
100
AcDbLine
 10
-84.58380811
 20
-12.09699676
 30
0.0
 11
-84.61376634
 21
-12.42055623
 31
0.0
  0
LINE
  5
603
100
AcDbEntity
  8
レイヤー_1
  6
CONTINUOUS
 62
       3
100
AcDbLine
 10
-84.61376634
 20
-12.42055623
 30
0.0
 11
-84.61376634
 21
-12.75013473
 31
0.0
  0
LINE
  5
604
100
AcDbEntity
  8
レイヤー_1
  6
CONTINUOUS
 62
       3
100
AcDbLine
 10
-84.61376634
 20
-12.75013473
 30
0.0
 11
-84.58380811
 21
-13.07361272
 31
0.0
  0
LINE
  5
605
100
AcDbEntity
  8
レイヤー_1
  6
CONTINUOUS
 62
       3
100
AcDbLine
 10
-84.58380811
 20
-13.07361272
 30
0.0
 11
-84.52517793
 21
-13.38788839
 31
0.0
  0
LINE
  5
606
100
AcDbEntity
  8
レイヤー_1
  6
CONTINUOUS
 62
       3
100
AcDbLine
 10
-84.52517793
 20
-13.38788839
 30
0.0
 11
-84.439218
 21
-13.69161906
 31
0.0
  0
LINE
  5
607
100
AcDbEntity
  8
レイヤー_1
  6
CONTINUOUS
 62
       3
100
AcDbLine
 10
-84.439218
 20
-13.69161906
 30
0.0
 11
-84.32727051
 21
-13.98346204
 31
0.0
  0
LINE
  5
608
100
AcDbEntity
  8
レイヤー_1
  6
CONTINUOUS
 62
       3
100
AcDbLine
 10
-84.32727051
 20
-13.98346204
 30
0.0
 11
-84.19067768
 21
-14.26207464
 31
0.0
  0
LINE
  5
609
100
AcDbEntity
  8
レイヤー_1
  6
CONTINUOUS
 62
       3
100
AcDbLine
 10
-84.19067768
 20
-14.26207464
 30
0.0
 11
-84.0307817
 21
-14.52611419
 31
0.0
  0
LINE
  5
60A
100
AcDbEntity
  8
レイヤー_1
  6
CONTINUOUS
 62
       3
100
AcDbLine
 10
-84.0307817
 20
-14.52611419
 30
0.0
 11
-83.84892477
 21
-14.77423801
 31
0.0
  0
LINE
  5
60B
100
AcDbEntity
  8
レイヤー_1
  6
CONTINUOUS
 62
       3
100
AcDbLine
 10
-83.84892477
 20
-14.77423801
 30
0.0
 11
-83.6464491
 21
-15.0051034
 31
0.0
  0
LINE
  5
60C
100
AcDbEntity
  8
レイヤー_1
  6
CONTINUOUS
 62
       3
100
AcDbLine
 10
-83.6464491
 20
-15.0051034
 30
0.0
 11
-83.42469688
 21
-15.21736768
 31
0.0
  0
LINE
  5
60D
100
AcDbEntity
  8
レイヤー_1
  6
CONTINUOUS
 62
       3
100
AcDbLine
 10
-83.42469688
 20
-15.21736768
 30
0.0
 11
-83.18501031
 21
-15.40968818
 31
0.0
  0
LINE
  5
60E
100
AcDbEntity
  8
レイヤー_1
  6
CONTINUOUS
 62
       3
100
AcDbLine
 10
-83.18501031
 20
-15.40968818
 30
0.0
 11
-82.92873161
 21
-15.5807222
 31
0.0
  0
LINE
  5
60F
100
AcDbEntity
  8
レイヤー_1
  6
CONTINUOUS
 62
       3
100
AcDbLine
 10
-82.92873161
 20
-15.5807222
 30
0.0
 11
-82.65720296
 21
-15.72912707
 31
0.0
  0
LINE
  5
610
100
AcDbEntity
  8
レイヤー_1
  6
CONTINUOUS
 62
       3
100
AcDbLine
 10
-82.65720296
 20
-15.72912707
 30
0.0
 11
-82.37176658
 21
-15.85356011
 31
0.0
  0
LINE
  5
611
100
AcDbEntity
  8
レイヤー_1
  6
CONTINUOUS
 62
       3
100
AcDbLine
 10
-82.37176658
 20
-15.85356011
 30
0.0
 11
-82.07376465
 21
-15.95267862
 31
0.0
  0
LINE
  5
612
100
AcDbEntity
  8
レイヤー_1
  6
CONTINUOUS
 62
       3
100
AcDbLine
 10
-82.07376465
 20
-15.95267862
 30
0.0
 11
-81.76453939
 21
-16.02513992
 31
0.0
  0
LINE
  5
613
100
AcDbEntity
  8
レイヤー_1
  6
CONTINUOUS
 62
       3
100
AcDbLine
 10
-81.76453939
 20
-16.02513992
 30
0.0
 11
-81.44543299
 21
-16.06960134
 31
0.0
  0
LINE
  5
614
100
AcDbEntity
  8
レイヤー_1
  6
CONTINUOUS
 62
       3
100
AcDbLine
 10
-81.44543299
 20
-16.06960134
 30
0.0
 11
-81.11778766
 21
-16.08472019
 31
0.0
  0
LINE
  5
615
100
AcDbEntity
  8
レイヤー_1
  6
CONTINUOUS
 62
       3
100
AcDbLine
 10
-81.11778766
 20
-16.08472019
 30
0.0
 11
-80.79021201
 21
-16.06960134
 31
0.0
  0
LINE
  5
616
100
AcDbEntity
  8
レイヤー_1
  6
CONTINUOUS
 62
       3
100
AcDbLine
 10
-80.79021201
 20
-16.06960134
 30
0.0
 11
-80.47116734
 21
-16.02513992
 31
0.0
  0
LINE
  5
617
100
AcDbEntity
  8
レイヤー_1
  6
CONTINUOUS
 62
       3
100
AcDbLine
 10
-80.47116734
 20
-16.02513992
 30
0.0
 11
-80.16199634
 21
-15.95267862
 31
0.0
  0
LINE
  5
618
100
AcDbEntity
  8
レイヤー_1
  6
CONTINUOUS
 62
       3
100
AcDbLine
 10
-80.16199634
 20
-15.95267862
 30
0.0
 11
-79.86404168
 21
-15.85356011
 31
0.0
  0
LINE
  5
619
100
AcDbEntity
  8
レイヤー_1
  6
CONTINUOUS
 62
       3
100
AcDbLine
 10
-79.86404168
 20
-15.85356011
 30
0.0
 11
-79.57864605
 21
-15.72912707
 31
0.0
  0
LINE
  5
61A
100
AcDbEntity
  8
レイヤー_1
  6
CONTINUOUS
 62
       3
100
AcDbLine
 10
-79.57864605
 20
-15.72912707
 30
0.0
 11
-79.30715214
 21
-15.5807222
 31
0.0
  0
LINE
  5
61B
100
AcDbEntity
  8
レイヤー_1
  6
CONTINUOUS
 62
       3
100
AcDbLine
 10
-79.30715214
 20
-15.5807222
 30
0.0
 11
-79.05090262
 21
-15.40968818
 31
0.0
  0
LINE
  5
61C
100
AcDbEntity
  8
レイヤー_1
  6
CONTINUOUS
 62
       3
100
AcDbLine
 10
-79.05090262
 20
-15.40968818
 30
0.0
 11
-78.81124019
 21
-15.21736768
 31
0.0
  0
LINE
  5
61D
100
AcDbEntity
  8
レイヤー_1
  6
CONTINUOUS
 62
       3
100
AcDbLine
 10
-78.81124019
 20
-15.21736768
 30
0.0
 11
-78.58950751
 21
-15.0051034
 31
0.0
  0
LINE
  5
61E
100
AcDbEntity
  8
レイヤー_1
  6
CONTINUOUS
 62
       3
100
AcDbLine
 10
-78.58950751
 20
-15.0051034
 30
0.0
 11
-78.38704729
 21
-14.77423801
 31
0.0
  0
LINE
  5
61F
100
AcDbEntity
  8
レイヤー_1
  6
CONTINUOUS
 62
       3
100
AcDbLine
 10
-78.38704729
 20
-14.77423801
 30
0.0
 11
-78.20520219
 21
-14.52611419
 31
0.0
  0
LINE
  5
620
100
AcDbEntity
  8
レイヤー_1
  6
CONTINUOUS
 62
       3
100
AcDbLine
 10
-78.20520219
 20
-14.52611419
 30
0.0
 11
-78.04531491
 21
-14.26207464
 31
0.0
  0
LINE
  5
621
100
AcDbEntity
  8
レイヤー_1
  6
CONTINUOUS
 62
       3
100
AcDbLine
 10
-78.04531491
 20
-14.26207464
 30
0.0
 11
-77.90872812
 21
-13.98346204
 31
0.0
  0
LINE
  5
622
100
AcDbEntity
  8
レイヤー_1
  6
CONTINUOUS
 62
       3
100
AcDbLine
 10
-77.90872812
 20
-13.98346204
 30
0.0
 11
-77.79678451
 21
-13.69161906
 31
0.0
  0
LINE
  5
623
100
AcDbEntity
  8
レイヤー_1
  6
CONTINUOUS
 62
       3
100
AcDbLine
 10
-77.79678451
 20
-13.69161906
 30
0.0
 11
-77.71082677
 21
-13.38788839
 31
0.0
  0
LINE
  5
624
100
AcDbEntity
  8
レイヤー_1
  6
CONTINUOUS
 62
       3
100
AcDbLine
 10
-77.71082677
 20
-13.38788839
 30
0.0
 11
-77.65219757
 21
-13.07361272
 31
0.0
  0
LINE
  5
625
100
AcDbEntity
  8
レイヤー_1
  6
CONTINUOUS
 62
       3
100
AcDbLine
 10
-77.65219757
 20
-13.07361272
 30
0.0
 11
-77.6222396
 21
-12.75013473
 31
0.0
  0
LINE
  5
626
100
AcDbEntity
  8
レイヤー_1
  6
CONTINUOUS
 62
       3
100
AcDbLine
 10
-77.6222396
 20
-12.75013473
 30
0.0
 11
-77.6222396
 21
-12.42055623
 31
0.0
  0
LINE
  5
627
100
AcDbEntity
  8
レイヤー_1
  6
CONTINUOUS
 62
       3
100
AcDbLine
 10
-77.6222396
 20
-12.42055623
 30
0.0
 11
-77.65219757
 21
-12.09699676
 31
0.0
  0
LINE
  5
628
100
AcDbEntity
  8
レイヤー_1
  6
CONTINUOUS
 62
       3
100
AcDbLine
 10
-77.65219757
 20
-12.09699676
 30
0.0
 11
-77.71082677
 21
-11.78263335
 31
0.0
  0
LINE
  5
629
100
AcDbEntity
  8
レイヤー_1
  6
CONTINUOUS
 62
       3
100
AcDbLine
 10
-77.71082677
 20
-11.78263335
 30
0.0
 11
-77.79678451
 21
-11.47881011
 31
0.0
  0
LINE
  5
62A
100
AcDbEntity
  8
レイヤー_1
  6
CONTINUOUS
 62
       3
100
AcDbLine
 10
-77.79678451
 20
-11.47881011
 30
0.0
 11
-77.90872812
 21
-11.1868712
 31
0.0
  0
LINE
  5
62B
100
AcDbEntity
  8
レイヤー_1
  6
CONTINUOUS
 62
       3
100
AcDbLine
 10
-77.90872812
 20
-11.1868712
 30
0.0
 11
-78.04531491
 21
-10.90816072
 31
0.0
  0
LINE
  5
62C
100
AcDbEntity
  8
レイヤー_1
  6
CONTINUOUS
 62
       3
100
AcDbLine
 10
-78.04531491
 20
-10.90816072
 30
0.0
 11
-78.20520219
 21
-10.64402282
 31
0.0
  0
LINE
  5
62D
100
AcDbEntity
  8
レイヤー_1
  6
CONTINUOUS
 62
       3
100
AcDbLine
 10
-78.20520219
 20
-10.64402282
 30
0.0
 11
-78.38704729
 21
-10.39580162
 31
0.0
  0
LINE
  5
62E
100
AcDbEntity
  8
レイヤー_1
  6
CONTINUOUS
 62
       3
100
AcDbLine
 10
-78.38704729
 20
-10.39580162
 30
0.0
 11
-78.58950751
 21
-10.16484126
 31
0.0
  0
LINE
  5
62F
100
AcDbEntity
  8
レイヤー_1
  6
CONTINUOUS
 62
       3
100
AcDbLine
 10
-78.58950751
 20
-10.16484126
 30
0.0
 11
-78.81124019
 21
-9.95248585
 31
0.0
  0
LINE
  5
630
100
AcDbEntity
  8
レイヤー_1
  6
CONTINUOUS
 62
       3
100
AcDbLine
 10
-78.81124019
 20
-9.95248585
 30
0.0
 11
-79.05090262
 21
-9.76007954
 31
0.0
  0
LINE
  5
631
100
AcDbEntity
  8
レイヤー_1
  6
CONTINUOUS
 62
       3
100
AcDbLine
 10
-79.05090262
 20
-9.76007954
 30
0.0
 11
-79.30715214
 21
-9.58896645
 31
0.0
  0
LINE
  5
632
100
AcDbEntity
  8
レイヤー_1
  6
CONTINUOUS
 62
       3
100
AcDbLine
 10
-79.30715214
 20
-9.58896645
 30
0.0
 11
-79.57864605
 21
-9.44049071
 31
0.0
  0
LINE
  5
633
100
AcDbEntity
  8
レイヤー_1
  6
CONTINUOUS
 62
       3
100
AcDbLine
 10
-79.57864605
 20
-9.44049071
 30
0.0
 11
-79.86404168
 21
-9.31599644
 31
0.0
  0
LINE
  5
634
100
AcDbEntity
  8
レイヤー_1
  6
CONTINUOUS
 62
       3
100
AcDbLine
 10
-79.86404168
 20
-9.31599644
 30
0.0
 11
-80.16199634
 21
-9.21682779
 31
0.0
  0
LINE
  5
635
100
AcDbEntity
  8
レイヤー_1
  6
CONTINUOUS
 62
       3
100
AcDbLine
 10
-80.16199634
 20
-9.21682779
 30
0.0
 11
-80.47116734
 21
-9.14432888
 31
0.0
  0
LINE
  5
636
100
AcDbEntity
  8
レイヤー_1
  6
CONTINUOUS
 62
       3
100
AcDbLine
 10
-80.47116734
 20
-9.14432888
 30
0.0
 11
-80.79021201
 21
-9.09984384
 31
0.0
  0
LINE
  5
637
100
AcDbEntity
  8
レイヤー_1
  6
CONTINUOUS
 62
       3
100
AcDbLine
 10
-80.79021201
 20
-9.09984384
 30
0.0
 11
-81.11778766
 21
-9.0847168
 31
0.0
  0
LINE
  5
638
100
AcDbEntity
  8
レイヤー_1
  6
CENTERX2
 62
       3
100
AcDbLine
 10
-92.71742416
 20
42.62961153
 30
0.0
 11
-92.71742416
 21
-44.68633354
 31
0.0
  0
LINE
  5
639
100
AcDbEntity
  8
レイヤー_1
  6
CENTERX2
 62
       3
100
AcDbLine
 10
-131.16899614
 20
0.0
 30
0.0
 11
-54.23527695
 21
0.0
 31
0.0
  0
LINE
  5
63A
100
AcDbEntity
  8
レイヤー_1
  6
CENTERX2
 62
       3
100
AcDbLine
 10
6.70114136
 20
0.09732394
 30
0.0
 11
127.09000309
 21
0.09732394
 31
0.0
  0
TEXT
  5
63B
100
AcDbEntity
  8
0
 62
       7
100
AcDbText
 10
111.139819
 20
-93.02488688
 30
0.0
 40
5.0
  1
000
 41
0.8
 72
       5
 11
123.139819
 21
-93.02488688
 31
0.0
100
AcDbText
  0
ENDSEC
  0
SECTION
  2
OBJECTS
  0
DICTIONARY
  5
19
100
AcDbDictionary
  3
ACAD_GROUP
350
1A
  3
ACAD_MLINESTYLE
350
1B
  0
DICTIONARY
  5
1A
102
{ACAD_REACTORS
330
19
102
}
100
AcDbDictionary
  0
DICTIONARY
  5
1B
102
{ACAD_REACTORS
330
19
102
}
100
AcDbDictionary
  3
STANDARD
350
1C
  0
MLINESTYLE
  5
1C
102
{ACAD_REACTORS
330
1B
102
}
100
AcDbMlineStyle
  2
STANDARD
 70
       0
  3

 62
       0
 51
90.0
 52
90.0
 71
       2
 49
0.5
 62
     256
  6
BYLAYER
 49
-0.5
 62
     256
  6
BYLAYER
  0
ENDSEC
  0
EOF
