  0
SECTION
  2
HEADER
  9
$ACADVER
  1
AC1014
  9
$ACADMAINTVER
 70
       0
  9
$DWGCODEPAGE
  3
ANSI_932
  9
$INSBASE
 10
0.0
 20
0.0
 30
0.0
  9
$EXTMIN
 10
-118.08493407
 20
-104.76830769
 30
0.0
  9
$EXTMAX
 10
122.19220747
 20
58.64251584
 30
0.0
  9
$LIMMIN
 10
-125.59359474
 20
-109.87489593
  9
$LIMMAX
 10
129.70086815
 20
63.74910407
  9
$ORTHOMODE
 70
       0
  9
$REGENMODE
 70
       1
  9
$FILLMODE
 70
       1
  9
$QTEXTMODE
 70
       0
  9
$MIRRTEXT
 70
       1
  9
$DRAGMODE
 70
       2
  9
$LTSCALE
 40
1.0
  9
$OSMODE
 70
       0
  9
$ATTMODE
 70
       1
  9
$TEXTSIZE
 40
0.2
  9
$TRACEWID
 40
0.05
  9
$TEXTSTYLE
  7
STANDARD
  9
$CLAYER
  8
0
  9
$CELTYPE
  6
CONTINUOUS
  9
$CECOLOR
 62
     256
  9
$CELTSCALE
 40
1.0
  9
$DELOBJ
 70
       1
  9
$DISPSILH
 70
       0
  9
$DIMSCALE
 40
1.0
  9
$DIMASZ
 40
0.18
  9
$DIMEXO
 40
0.0625
  9
$DIMDLI
 40
0.38
  9
$DIMRND
 40
0.0
  9
$DIMDLE
 40
0.0
  9
$DIMEXE
 40
0.18
  9
$DIMTP
 40
0.0
  9
$DIMTM
 40
0.0
  9
$DIMTXT
 40
0.18
  9
$DIMCEN
 40
0.09
  9
$DIMTSZ
 40
0.0
  9
$DIMTOL
 70
       0
  9
$DIMLIM
 70
       0
  9
$DIMTIH
 70
       1
  9
$DIMTOH
 70
       1
  9
$DIMSE1
 70
       0
  9
$DIMSE2
 70
       0
  9
$DIMTAD
 70
       0
  9
$DIMZIN
 70
       0
  9
$DIMBLK
  1

  9
$DIMASO
 70
       1
  9
$DIMSHO
 70
       1
  9
$DIMPOST
  1

  9
$DIMAPOST
  1

  9
$DIMALT
 70
       0
  9
$DIMALTD
 70
       2
  9
$DIMALTF
 40
25.4
  9
$DIMLFAC
 40
1.0
  9
$DIMTOFL
 70
       0
  9
$DIMTVP
 40
0.0
  9
$DIMTIX
 70
       0
  9
$DIMSOXD
 70
       0
  9
$DIMSAH
 70
       0
  9
$DIMBLK1
  1

  9
$DIMBLK2
  1

  9
$DIMSTYLE
  2
STANDARD
  9
$DIMCLRD
 70
       0
  9
$DIMCLRE
 70
       0
  9
$DIMCLRT
 70
       0
  9
$DIMTFAC
 40
1.0
  9
$DIMGAP
 40
0.09
  9
$DIMJUST
 70
       0
  9
$DIMSD1
 70
       0
  9
$DIMSD2
 70
       0
  9
$DIMTOLJ
 70
       1
  9
$DIMTZIN
 70
       0
  9
$DIMALTZ
 70
       0
  9
$DIMALTTZ
 70
       0
  9
$DIMFIT
 70
       3
  9
$DIMUPT
 70
       0
  9
$DIMUNIT
 70
       2
  9
$DIMDEC
 70
       4
  9
$DIMTDEC
 70
       4
  9
$DIMALTU
 70
       2
  9
$DIMALTTD
 70
       2
  9
$DIMTXSTY
  7
STANDARD
  9
$DIMAUNIT
 70
       0
  9
$LUNITS
 70
       2
  9
$LUPREC
 70
       4
  9
$SKETCHINC
 40
0.1
  9
$FILLETRAD
 40
0.0
  9
$AUNITS
 70
       0
  9
$AUPREC
 70
       0
  9
$MENU
  1
acad
  9
$ELEVATION
 40
0.0
  9
$PELEVATION
 40
0.0
  9
$THICKNESS
 40
0.0
  9
$LIMCHECK
 70
       0
  9
$BLIPMODE
 70
       1
  9
$CHAMFERA
 40
0.0
  9
$CHAMFERB
 40
0.0
  9
$CHAMFERC
 40
0.0
  9
$CHAMFERD
 40
0.0
  9
$SKPOLY
 70
       0
  9
$TDCREATE
 40
0.000000000
  9
$TDUPDATE
 40
0.000000000
  9
$TDINDWG
 40
0.0000000000
  9
$TDUSRTIMER
 40
0.0000000000
  9
$USRTIMER
 70
       1
  9
$ANGBASE
 50
0.0
  9
$ANGDIR
 70
       0
  9
$PDMODE
 70
       0
  9
$PDSIZE
 40
1.0
  9
$PLINEWID
 40
0.0
  9
$COORDS
 70
       1
  9
$SPLFRAME
 70
       0
  9
$SPLINETYPE
 70
       6
  9
$SPLINESEGS
 70
       8
  9
$ATTDIA
 70
       0
  9
$ATTREQ
 70
       1
  9
$HANDLING
 70
       1
  9
$HANDSEED
  5
383
  9
$SURFTAB1
 70
       6
  9
$SURFTAB2
 70
       6
  9
$SURFTYPE
 70
       6
  9
$SURFU
 70
       6
  9
$SURFV
 70
       6
  9
$UCSNAME
  2

  9
$UCSORG
 10
0.0
 20
0.0
 30
0.0
  9
$UCSXDIR
 10
1.0
 20
0.0
 30
0.0
  9
$UCSYDIR
 10
0.0
 20
1.0
 30
0.0
  9
$PUCSNAME
  2

  9
$PUCSORG
 10
0.0
 20
0.0
 30
0.0
  9
$PUCSXDIR
 10
1.0
 20
0.0
 30
0.0
  9
$PUCSYDIR
 10
0.0
 20
1.0
 30
0.0
  9
$USERI1
 70
       0
  9
$USERI2
 70
       0
  9
$USERI3
 70
       0
  9
$USERI4
 70
       0
  9
$USERI5
 70
       0
  9
$USERR1
 40
0.0
  9
$USERR2
 40
0.0
  9
$USERR3
 40
0.0
  9
$USERR4
 40
0.0
  9
$USERR5
 40
0.0
  9
$WORLDVIEW
 70
       1
  9
$SHADEDGE
 70
       3
  9
$SHADEDIF
 70
      70
  9
$TILEMODE
 70
       1
  9
$MAXACTVP
 70
      16
  9
$PINSBASE
 10
0.0
 20
0.0
 30
0.0
  9
$PLIMCHECK
 70
       0
  9
$PEXTMIN
 10
1.00000000E+20
 20
1.00000000E+20
 30
1.00000000E+20
  9
$PEXTMAX
 10
-1.00000000E+20
 20
-1.00000000E+20
 30
-1.00000000E+20
  9
$PLIMMIN
 10
0.0
 20
0.0
  9
$PLIMMAX
 10
12.0
 20
9.0
  9
$UNITMODE
 70
       0
  9
$VISRETAIN
 70
       0
  9
$PLINEGEN
 70
       1
  9
$PSLTSCALE
 70
       0
  9
$TREEDEPTH
 70
    3020
  9
$PICKSTYLE
 70
       1
  9
$CMLSTYLE
  2
STANDARD
  9
$CMLJUST
 70
       0
  9
$CMLSCALE
 40
1.0
  9
$PROXYGRAPHICS
 70
       0
  9
$MEASUREMENT
 70
       0
  0
ENDSEC
  0
SECTION
  2
CLASSES
  0
CLASS
  1
LWPOLYLINE
  2
AcDbPolyline
  3
"AutoCAD"
 90
        0
280
       0
281
       1
  0
CLASS
  1
IMAGE
  2
AcDbRasterImage
  3
ISM
 90
      127
280
       0
281
       1
  0
CLASS
  1
OLE2FRAME
  2
AcDbOle2Frame
  3
""
 90
        0
280
       0
281
       1
  0
CLASS
  1
HATCH
  2
AcDbHatch
  3
"ACAD_SEDONA"
 90
        0
280
       0
281
       1
  0
CLASS
  1
DICTIONARYVAR
  2
AcDbDictionaryVar
  3
"AutoCAD"
 90
        0
280
       0
281
       0
  0
CLASS
  1
RASTERVARIABLES
  2
AcDbRasterVariables
  3
ISM
 90
        0
280
       0
281
       0
  0
CLASS
  1
IMAGEDEF
  2
AcDbRasterImageDef
  3
ISM
 90
        0
280
       0
281
       0
  0
CLASS
  1
IMAGEDEF_REACTOR
  2
AcDbRasterImageDefReactor
  3
ISM
 90
        1
280
       0
281
       0
  0
CLASS
  1
IDBUFFER
  2
AcDbIdBuffer
  3
"Acad"
 90
        0
280
       0
281
       0
  0
CLASS
  1
SPATIAL_FILTER
  2
AcDbSpatialFilter
  3
"Acad"
 90
        0
280
       0
281
       0
  0
CLASS
  1
XRECORD
  2
AcDbXrecord
  3
"<Built In>"
 90
        0
280
       0
281
       0
  0
CLASS
  1
SORTENTSTABLE
  2
AcDbSortentsTable
  3
"AutoCAD"
 90
        0
280
       0
281
       0
  0
CLASS
  1
LAYER_INDEX
  2
AcDbLayerIndex
  3
"Acad"
 90
        0
280
       0
281
       0
  0
CLASS
  1
SPATIAL_INDEX
  2
AcDbSpatialIndex
  3
"Acad"
 90
        0
280
       0
281
       0
  0
CLASS
  1
OBJECT_PTR
  2
CAseDLPNTableRecord
  3
"ASE-LPNTableRecord"
 90
        1
280
       0
281
       0
  0
CLASS
  1
LAYOUT
  2
AcDbLayout
  3
"AutoCAD 2000"
 90
        1
280
       0
281
       0
  0
CLASS
  1
PLOTSETTINGS
  2
AcDbPlotSettings
  3
"AutoCAD 2000"
 90
        1
280
       0
281
       0
  0
CLASS
  1
ACDBDICTIONARYWDFLT
  2
AcDbDictionaryWithDefault
  3
"AutoCAD 2000"
 90
        1
280
       0
281
       0
  0
CLASS
  1
ACDBPLACEHOLDER
  2
AcDbPlaceHolder
  3
"AutoCAD 2000"
 90
        1
280
       0
281
       0
  0
CLASS
  1
VBA_PROJECT
  2
AcDbVbaProject
  3
"acadvba"
 90
        1
280
       0
281
       0
  0
CLASS
  1
WIPEOUT
  2
AcDbWipeout
  3
WipeOut|AutoCAD Express Tool|expresstools@autodesk.com
 90
      127
280
       0
281
       1
  0
CLASS
  1
WIPEOUTVARIABLES
  2
AcDbWipeoutVariables
  3
WipeOut|AutoCAD Express Tool|expresstools@autodesk.com
 90
        0
280
       0
281
       0
  0
CLASS
  1
RTEXT
  2
RText
  3
RText|AutoCAD Express Tool|expresstools@autodesk.com
 90
        0
280
       0
281
       1
  0
CLASS
  1
ARCALIGNEDTEXT
  2
AcDbArcAlignedText
  3
ATEXT|AutoCAD Express Tool|expresstools@autodesk.com
 90
        0
280
       0
281
       1
  0
ENDSEC
  0
SECTION
  2
TABLES
  0
TABLE
  2
VPORT
  5
7
100
AcDbSymbolTable
 70
       1
  0
VPORT
  5
15
100
AcDbSymbolTableRecord
100
AcDbViewportTableRecord
  2
*ACTIVE
 70
       0
 10
0.0
 20
0.0
 11
1.0
 21
1.0
 12
2.0536367
 22
-23.06289593
 13
0.0
 23
0.0
 14
1.0
 24
1.0
 15
0.0
 25
0.0
 16
0.0
 26
0.0
 36
1.0
 17
0.0
 27
0.0
 37
0.0
 40
173.624
 41
1.47038694
 42
50.0
 43
0.0
 44
0.0
 50
0.0
 51
0.0
 71
       0
 72
     100
 73
       1
 74
       1
 75
       0
 76
       0
 77
       0
 78
       0
  0
ENDTAB
  0
TABLE
  2
LTYPE
  5
4
100
AcDbSymbolTable
 70
      30
  0
LTYPE
  5
11
100
AcDbSymbolTableRecord
100
AcDbLinetypeTableRecord
  2
BYBLOCK
 70
      64
  3

 72
      65
 73
       0
 40
0.0
  0
LTYPE
  5
12
100
AcDbSymbolTableRecord
100
AcDbLinetypeTableRecord
  2
BYLAYER
 70
      64
  3

 72
      65
 73
       0
 40
0.0
  0
LTYPE
  5
13
100
AcDbSymbolTableRecord
100
AcDbLinetypeTableRecord
  2
CONTINUOUS
 70
      64
  3
Solid line
 72
      65
 73
       0
 40
0.0
  0
LTYPE
  5
1D
100
AcDbSymbolTableRecord
100
AcDbLinetypeTableRecord
  2
HIDDENX2
 70
      64
  3
CADPAC LINETYPE
 72
      65
 73
       2
 40
11.88
 49
8.91
 74
       0
 49
-2.97
 74
       0
  0
LTYPE
  5
1E
100
AcDbSymbolTableRecord
100
AcDbLinetypeTableRecord
  2
HIDDEN
 70
      64
  3
CADPAC LINETYPE
 72
      65
 73
       2
 40
8.91
 49
5.94
 74
       0
 49
-2.97
 74
       0
  0
LTYPE
  5
1F
100
AcDbSymbolTableRecord
100
AcDbLinetypeTableRecord
  2
HIDDEN2
 70
      64
  3
CADPAC LINETYPE
 72
      65
 73
       2
 40
7.425
 49
4.455
 74
       0
 49
-2.97
 74
       0
  0
LTYPE
  5
20
100
AcDbSymbolTableRecord
100
AcDbLinetypeTableRecord
  2
DASHED
 70
      64
  3
CADPAC LINETYPE
 72
      65
 73
       2
 40
8.91
 49
5.94
 74
       0
 49
-2.97
 74
       0
  0
LTYPE
  5
21
100
AcDbSymbolTableRecord
100
AcDbLinetypeTableRecord
  2
DASHED2
 70
      64
  3
CADPAC LINETYPE
 72
      65
 73
       2
 40
6.6825
 49
4.455
 74
       0
 49
-2.2275
 74
       0
  0
LTYPE
  5
22
100
AcDbSymbolTableRecord
100
AcDbLinetypeTableRecord
  2
DASHEDX2
 70
      64
  3
CADPAC LINETYPE
 72
      65
 73
       2
 40
13.365
 49
8.91
 74
       0
 49
-4.455
 74
       0
  0
LTYPE
  5
23
100
AcDbSymbolTableRecord
100
AcDbLinetypeTableRecord
  2
DOTX2
 70
      64
  3
CADPAC LINETYPE
 72
      65
 73
       2
 40
3.7125
 49
0.0
 74
       0
 49
-3.7125
 74
       0
  0
LTYPE
  5
24
100
AcDbSymbolTableRecord
100
AcDbLinetypeTableRecord
  2
DOT
 70
      64
  3
CADPAC LINETYPE
 72
      65
 73
       2
 40
2.97
 49
0.0
 74
       0
 49
-2.97
 74
       0
  0
LTYPE
  5
25
100
AcDbSymbolTableRecord
100
AcDbLinetypeTableRecord
  2
DOT2
 70
      64
  3
CADPAC LINETYPE
 72
      65
 73
       2
 40
2.2275
 49
0.0
 74
       0
 49
-2.2275
 74
       0
  0
LTYPE
  5
26
100
AcDbSymbolTableRecord
100
AcDbLinetypeTableRecord
  2
CENTERX2
 70
      64
  3
CADPAC LINETYPE
 72
      65
 73
       4
 40
17.82
 49
7.425
 74
       0
 49
-3.7125
 74
       0
 49
2.97
 74
       0
 49
-3.7125
 74
       0
  0
LTYPE
  5
27
100
AcDbSymbolTableRecord
100
AcDbLinetypeTableRecord
  2
CENTER
 70
      64
  3
CADPAC LINETYPE
 72
      65
 73
       4
 40
13.662
 49
5.94
 74
       0
 49
-2.97
 74
       0
 49
1.782
 74
       0
 49
-2.97
 74
       0
  0
LTYPE
  5
28
100
AcDbSymbolTableRecord
100
AcDbLinetypeTableRecord
  2
CENTER2
 70
      64
  3
CADPAC LINETYPE
 72
      65
 73
       4
 40
9.504
 49
4.455
 74
       0
 49
-2.2275
 74
       0
 49
0.594
 74
       0
 49
-2.2275
 74
       0
  0
LTYPE
  5
29
100
AcDbSymbolTableRecord
100
AcDbLinetypeTableRecord
  2
DASHDOTX2
 70
      64
  3
CADPAC LINETYPE
 72
      65
 73
       4
 40
14.85
 49
7.425
 74
       0
 49
-3.7125
 74
       0
 49
0.0
 74
       0
 49
-3.7125
 74
       0
  0
LTYPE
  5
2A
100
AcDbSymbolTableRecord
100
AcDbLinetypeTableRecord
  2
DASHDOT
 70
      64
  3
CADPAC LINETYPE
 72
      65
 73
       4
 40
11.88
 49
5.94
 74
       0
 49
-2.97
 74
       0
 49
0.0
 74
       0
 49
-2.97
 74
       0
  0
LTYPE
  5
2B
100
AcDbSymbolTableRecord
100
AcDbLinetypeTableRecord
  2
DASHDOT2
 70
      64
  3
CADPAC LINETYPE
 72
      65
 73
       4
 40
8.91
 49
4.455
 74
       0
 49
-2.2275
 74
       0
 49
0.0
 74
       0
 49
-2.2275
 74
       0
  0
LTYPE
  5
2C
100
AcDbSymbolTableRecord
100
AcDbLinetypeTableRecord
  2
DIVIDEX2
 70
      64
  3
CADPAC LINETYPE
 72
      65
 73
       6
 40
18.5625
 49
7.425
 74
       0
 49
-3.7125
 74
       0
 49
0.0
 74
       0
 49
-3.7125
 74
       0
 49
0.0
 74
       0
 49
-3.7125
 74
       0
  0
LTYPE
  5
2D
100
AcDbSymbolTableRecord
100
AcDbLinetypeTableRecord
  2
DIVIDE
 70
      64
  3
CADPAC LINETYPE
 72
      65
 73
       6
 40
14.85
 49
5.94
 74
       0
 49
-2.97
 74
       0
 49
0.0
 74
       0
 49
-2.97
 74
       0
 49
0.0
 74
       0
 49
-2.97
 74
       0
  0
LTYPE
  5
2E
100
AcDbSymbolTableRecord
100
AcDbLinetypeTableRecord
  2
DIVIDE2
 70
      64
  3
CADPAC LINETYPE
 72
      65
 73
       6
 40
11.1375
 49
4.455
 74
       0
 49
-2.2275
 74
       0
 49
0.0
 74
       0
 49
-2.2275
 74
       0
 49
0.0
 74
       0
 49
-2.2275
 74
       0
  0
LTYPE
  5
2F
100
AcDbSymbolTableRecord
100
AcDbLinetypeTableRecord
  2
BORDERX2
 70
      64
  3
CADPAC LINETYPE
 72
      65
 73
       6
 40
25.9875
 49
7.425
 74
       0
 49
-3.7125
 74
       0
 49
7.425
 74
       0
 49
-3.7125
 74
       0
 49
0.0
 74
       0
 49
-3.7125
 74
       0
  0
LTYPE
  5
30
100
AcDbSymbolTableRecord
100
AcDbLinetypeTableRecord
  2
BORDER
 70
      64
  3
CADPAC LINETYPE
 72
      65
 73
       6
 40
20.79
 49
5.94
 74
       0
 49
-2.97
 74
       0
 49
5.94
 74
       0
 49
-2.97
 74
       0
 49
0.0
 74
       0
 49
-2.97
 74
       0
  0
LTYPE
  5
31
100
AcDbSymbolTableRecord
100
AcDbLinetypeTableRecord
  2
BORDER2
 70
      64
  3
CADPAC LINETYPE
 72
      65
 73
       6
 40
15.5925
 49
4.455
 74
       0
 49
-2.2275
 74
       0
 49
4.455
 74
       0
 49
-2.2275
 74
       0
 49
0.0
 74
       0
 49
-2.2275
 74
       0
  0
LTYPE
  5
32
100
AcDbSymbolTableRecord
100
AcDbLinetypeTableRecord
  2
PHANTOMX2
 70
      64
  3
CADPAC LINETYPE
 72
      65
 73
       6
 40
22.275
 49
7.425
 74
       0
 49
-2.97
 74
       0
 49
2.97
 74
       0
 49
-2.97
 74
       0
 49
2.97
 74
       0
 49
-2.97
 74
       0
  0
LTYPE
  5
33
100
AcDbSymbolTableRecord
100
AcDbLinetypeTableRecord
  2
PHANTOM
 70
      64
  3
CADPAC LINETYPE
 72
      65
 73
       6
 40
18.414
 49
5.94
 74
       0
 49
-2.97
 74
       0
 49
1.782
 74
       0
 49
-2.97
 74
       0
 49
1.782
 74
       0
 49
-2.97
 74
       0
  0
LTYPE
  5
34
100
AcDbSymbolTableRecord
100
AcDbLinetypeTableRecord
  2
PHANTOM2
 70
      64
  3
CADPAC LINETYPE
 72
      65
 73
       6
 40
15.741
 49
4.455
 74
       0
 49
-2.97
 74
       0
 49
1.188
 74
       0
 49
-2.97
 74
       0
 49
1.188
 74
       0
 49
-2.97
 74
       0
  0
LTYPE
  5
35
100
AcDbSymbolTableRecord
100
AcDbLinetypeTableRecord
  2
ACAD_ISO06W100
 70
      64
  3
CADPAC LINETYPE
 72
      65
 73
       8
 40
20.0475
 49
7.425
 74
       0
 49
-3.7125
 74
       0
 49
0.0
 74
       0
 49
-2.97
 74
       0
 49
0.0
 74
       0
 49
-2.97
 74
       0
 49
0.0
 74
       0
 49
-2.97
 74
       0
  0
LTYPE
  5
36
100
AcDbSymbolTableRecord
100
AcDbLinetypeTableRecord
  2
ACAD_ISO13W100
 70
      64
  3
CADPAC LINETYPE
 72
      65
 73
       8
 40
23.76
 49
5.94
 74
       0
 49
-2.97
 74
       0
 49
5.94
 74
       0
 49
-2.97
 74
       0
 49
0.0
 74
       0
 49
-2.97
 74
       0
 49
0.0
 74
       0
 49
-2.97
 74
       0
  0
LTYPE
  5
37
100
AcDbSymbolTableRecord
100
AcDbLinetypeTableRecord
  2
ACAD_ISO14W100
 70
      64
  3
CADPAC LINETYPE
 72
      65
 73
       8
 40
17.82
 49
5.94
 74
       0
 49
-2.97
 74
       0
 49
0.0
 74
       0
 49
-2.97
 74
       0
 49
0.0
 74
       0
 49
-2.97
 74
       0
 49
0.0
 74
       0
 49
-2.97
 74
       0
  0
ENDTAB
  0
TABLE
  2
LAYER
  5
2
100
AcDbSymbolTable
 70
       2
  0
LAYER
  5
14
100
AcDbSymbolTableRecord
100
AcDbLayerTableRecord
  2
0
 70
       0
 62
       7
  6
CONTINUOUS
  0
LAYER
  5
38
100
AcDbSymbolTableRecord
100
AcDbLayerTableRecord
  2
レイヤー_1
 70
       0
 62
       7
  6
CONTINUOUS
  0
ENDTAB
  0
TABLE
  2
STYLE
  5
3
100
AcDbSymbolTable
 70
       1
  0
STYLE
  5
17
100
AcDbSymbolTableRecord
100
AcDbTextStyleTableRecord
  2
STANDARD
 70
       0
 40
0.0
 41
0.8
 50
0.0
 71
       0
 42
5.0
  3
txt.shx
  4
bigfont.shx
  0
ENDTAB
  0
TABLE
  2
VIEW
  5
5
100
AcDbSymbolTable
 70
       1
  0
VIEW
  5
39
100
AcDbSymbolTableRecord
100
AcDbViewTableRecord
  2
QQQQ
 70
       0
 40
173.624
 10
2.0536367
 20
-23.06289593
 41
255.29446288
 11
0.0
 21
0.0
 31
1.0
 12
100.0
 22
100.0
 32
0.0
 42
50.0
 43
0.0
 44
0.0
 50
0.0
 71
       0
  0
ENDTAB
  0
TABLE
  2
UCS
  5
6
100
AcDbSymbolTable
 70
       0
  0
ENDTAB
  0
TABLE
  2
APPID
  5
8
100
AcDbSymbolTable
 70
       1
  0
APPID
  5
16
100
AcDbSymbolTableRecord
100
AcDbRegAppTableRecord
  2
ACAD
 70
       0
  0
ENDTAB
  0
TABLE
  2
DIMSTYLE
  5
9
100
AcDbSymbolTable
 70
       1
  0
DIMSTYLE
105
18
100
AcDbSymbolTableRecord
100
AcDbDimStyleTableRecord
  2
STANDARD
 70
       0
  3

  4

  5

  6

  7

 40
1.0
 41
0.18
 42
0.0625
 43
0.38
 44
0.18
 45
0.0
 46
0.0
 47
0.0
 48
0.0
 71
       0
 72
       0
 73
       1
 74
       1
 75
       0
 76
       0
 77
       0
 78
       0
140
0.18
141
0.09
142
0.0
143
25.4
144
1.0
145
0.0
146
1.0
147
0.09
170
       0
171
       2
172
       0
173
       0
174
       0
175
       0
176
       0
177
       0
178
       0
270
       2
271
       4
272
       4
273
       2
274
       2
275
       0
280
       0
281
       0
282
       0
283
       1
284
       0
285
       0
286
       0
287
       0
288
       0
340
17
  0
ENDTAB
  0
TABLE
  2
BLOCK_RECORD
  5
1
100
AcDbSymbolTable
 70
       0
  0
BLOCK_RECORD
  5
A
100
AcDbSymbolTableRecord
100
AcDbBlockTableRecord
  2
*MODEL_SPACE
  0
BLOCK_RECORD
  5
B
100
AcDbSymbolTableRecord
100
AcDbBlockTableRecord
  2
*PAPER_SPACE
  0
ENDTAB
  0
ENDSEC
  0
SECTION
  2
BLOCKS
  0
BLOCK
  5
D
100
AcDbEntity
  8
0
100
AcDbBlockBegin
  2
*MODEL_SPACE
 70
       0
 10
0.0
 20
0.0
 30
0.0
  3
*MODEL_SPACE
  1

  0
ENDBLK
  5
E
100
AcDbEntity
  8
0
100
AcDbBlockEnd
  0
BLOCK
  5
F
100
AcDbEntity
 67
       1
  8
0
100
AcDbBlockBegin
  2
*PAPER_SPACE
 70
       0
 10
0.0
 20
0.0
 30
0.0
  3
*PAPER_SPACE
  1

  0
ENDBLK
  5
10
100
AcDbEntity
 67
       1
  8
0
100
AcDbBlockEnd
  0
ENDSEC
  0
SECTION
  2
ENTITIES
  0
LINE
  5
3A
100
AcDbEntity
  8
レイヤー_1
  6
CONTINUOUS
 62
       3
100
AcDbLine
 10
-110.88546411
 20
-40.0
 30
0.0
 11
-71.88546412
 21
-40.0
 31
0.0
  0
LINE
  5
3B
100
AcDbEntity
  8
レイヤー_1
  6
CONTINUOUS
 62
       3
100
AcDbLine
 10
-110.88546411
 20
40.0
 30
0.0
 11
-71.88546412
 21
40.0
 31
0.0
  0
LINE
  5
3C
100
AcDbEntity
  8
レイヤー_1
  6
CONTINUOUS
 62
       3
100
AcDbLine
 10
-110.88546411
 20
40.0
 30
0.0
 11
-110.88546411
 21
-40.0
 31
0.0
  0
LINE
  5
3D
100
AcDbEntity
  8
レイヤー_1
  6
CONTINUOUS
 62
       3
100
AcDbLine
 10
-71.88546412
 20
40.0
 30
0.0
 11
-71.88546412
 21
-40.0
 31
0.0
  0
LINE
  5
3E
100
AcDbEntity
  8
レイヤー_1
  6
CONTINUOUS
 62
       3
100
AcDbLine
 10
-83.16960551
 20
-55.5
 30
0.0
 11
-72.67660854
 21
-55.5
 31
0.0
  0
LINE
  5
3F
100
AcDbEntity
  8
レイヤー_1
  6
CONTINUOUS
 62
       3
100
AcDbLine
 10
-110.1714051
 20
55.5
 30
0.0
 11
-99.67539207
 21
55.5
 31
0.0
  0
LINE
  5
40
100
AcDbEntity
  8
レイヤー_1
  6
CONTINUOUS
 62
       3
100
AcDbLine
 10
-21.31868151
 20
40.0
 30
0.0
 11
102.97686086
 21
40.0
 31
0.0
  0
LINE
  5
41
100
AcDbEntity
  8
レイヤー_1
  6
CONTINUOUS
 62
       3
100
AcDbLine
 10
-35.02313914
 20
-40.0
 30
0.0
 11
102.97686086
 21
-40.0
 31
0.0
  0
LINE
  5
42
100
AcDbEntity
  8
レイヤー_1
  6
CONTINUOUS
 62
       3
100
AcDbLine
 10
102.97686086
 20
55.5
 30
0.0
 11
102.97686086
 21
40.0
 31
0.0
  0
LINE
  5
43
100
AcDbEntity
  8
レイヤー_1
  6
CONTINUOUS
 62
       3
100
AcDbLine
 10
102.97686086
 20
-40.0
 30
0.0
 11
102.97686086
 21
-55.5
 31
0.0
  0
LINE
  5
44
100
AcDbEntity
  8
レイヤー_1
  6
CONTINUOUS
 62
       3
100
AcDbLine
 10
102.97686086
 20
55.5
 30
0.0
 11
110.97686086
 21
55.5
 31
0.0
  0
LINE
  5
45
100
AcDbEntity
  8
レイヤー_1
  6
CONTINUOUS
 62
       3
100
AcDbLine
 10
102.97686086
 20
-55.5
 30
0.0
 11
110.97686086
 21
-55.5
 31
0.0
  0
LINE
  5
46
100
AcDbEntity
  8
レイヤー_1
  6
CONTINUOUS
 62
       3
100
AcDbLine
 10
-32.02313914
 20
-5.00055609
 30
0.0
 11
-32.02313914
 21
-23.35042656
 31
0.0
  0
LINE
  5
47
100
AcDbEntity
  8
レイヤー_1
  6
CONTINUOUS
 62
       3
100
AcDbLine
 10
-35.02313914
 20
-2.03820461
 30
0.0
 11
-35.02313914
 21
-40.0
 31
0.0
  0
LINE
  5
48
100
AcDbEntity
  8
レイヤー_1
  6
CONTINUOUS
 62
       3
100
AcDbLine
 10
-110.88546411
 20
40.0
 30
0.0
 11
-110.1714051
 21
55.5
 31
0.0
  0
LINE
  5
49
100
AcDbEntity
  8
レイヤー_1
  6
CONTINUOUS
 62
       3
100
AcDbLine
 10
-71.88546412
 20
-40.0
 30
0.0
 11
-72.67660854
 21
-55.5
 31
0.0
  0
LINE
  5
4A
100
AcDbEntity
  8
レイヤー_1
  6
CONTINUOUS
 62
       3
100
AcDbLine
 10
-73.8232286
 20
-21.60763888
 30
0.0
 11
-73.8232286
 21
-1.709198
 31
0.0
  0
LINE
  5
4B
100
AcDbEntity
  8
レイヤー_1
  6
CONTINUOUS
 62
       3
100
AcDbLine
 10
-73.8232286
 20
-1.709198
 30
0.0
 11
-71.97493489
 21
-1.709198
 31
0.0
  0
LINE
  5
4C
100
AcDbEntity
  8
レイヤー_1
  6
CONTINUOUS
 62
       3
100
AcDbLine
 10
-73.8232286
 20
21.66319105
 30
0.0
 11
-73.8232286
 21
1.76388889
 31
0.0
  0
LINE
  5
4D
100
AcDbEntity
  8
レイヤー_1
  6
CONTINUOUS
 62
       3
100
AcDbLine
 10
-73.8232286
 20
1.76388889
 30
0.0
 11
-71.97493489
 21
1.76388889
 31
0.0
  0
LINE
  5
4E
100
AcDbEntity
  8
レイヤー_1
  6
CONTINUOUS
 62
       3
100
AcDbLine
 10
-109.02263046
 20
21.66319105
 30
0.0
 11
-109.02263046
 21
1.76388889
 31
0.0
  0
LINE
  5
4F
100
AcDbEntity
  8
レイヤー_1
  6
CONTINUOUS
 62
       3
100
AcDbLine
 10
-109.02263046
 20
1.76388889
 30
0.0
 11
-110.94542438
 21
1.76388889
 31
0.0
  0
LINE
  5
50
100
AcDbEntity
  8
レイヤー_1
  6
CONTINUOUS
 62
       3
100
AcDbLine
 10
-109.02263046
 20
-21.60763888
 30
0.0
 11
-109.02263046
 21
-1.709198
 31
0.0
  0
LINE
  5
51
100
AcDbEntity
  8
レイヤー_1
  6
CONTINUOUS
 62
       3
100
AcDbLine
 10
-109.02263046
 20
-1.709198
 30
0.0
 11
-110.94542438
 21
-1.709198
 31
0.0
  0
LINE
  5
52
100
AcDbEntity
  8
レイヤー_1
  6
CONTINUOUS
 62
       3
100
AcDbLine
 10
110.97686086
 20
55.5
 30
0.0
 11
110.97686086
 21
40.00057304
 31
0.0
  0
LINE
  5
53
100
AcDbEntity
  8
レイヤー_1
  6
CONTINUOUS
 62
       3
100
AcDbLine
 10
-1.92408584
 20
1.74967787
 30
0.0
 11
-5.92298042
 21
1.74967787
 31
0.0
  0
LINE
  5
54
100
AcDbEntity
  8
レイヤー_1
  6
CONTINUOUS
 62
       3
100
AcDbLine
 10
-5.92298042
 20
1.74967787
 30
0.0
 11
-5.92298042
 21
40.00057304
 31
0.0
  0
LINE
  5
55
100
AcDbEntity
  8
レイヤー_1
  6
CONTINUOUS
 62
       3
100
AcDbLine
 10
110.97686086
 20
40.00057304
 30
0.0
 11
110.97686086
 21
17.48256768
 31
0.0
  0
LINE
  5
56
100
AcDbEntity
  8
レイヤー_1
  6
CONTINUOUS
 62
       3
100
AcDbLine
 10
110.97686086
 20
17.48256768
 30
0.0
 11
106.88494871
 21
17.48256768
 31
0.0
  0
LINE
  5
57
100
AcDbEntity
  8
レイヤー_1
  6
CONTINUOUS
 62
       3
100
AcDbLine
 10
106.88494871
 20
17.48256768
 30
0.0
 11
106.88494871
 21
-17.48558213
 31
0.0
  0
LINE
  5
58
100
AcDbEntity
  8
レイヤー_1
  6
CONTINUOUS
 62
       3
100
AcDbLine
 10
106.88494871
 20
-17.48558213
 30
0.0
 11
110.97686086
 21
-17.48558213
 31
0.0
  0
LINE
  5
59
100
AcDbEntity
  8
レイヤー_1
  6
CONTINUOUS
 62
       3
100
AcDbLine
 10
110.97686086
 20
-17.48558213
 30
0.0
 11
110.97686086
 21
-55.5
 31
0.0
  0
LINE
  5
5A
100
AcDbEntity
  8
レイヤー_1
  6
CONTINUOUS
 62
       3
100
AcDbLine
 10
-5.92298042
 20
-40.00057304
 30
0.0
 11
-5.92298042
 21
-1.75053914
 31
0.0
  0
LINE
  5
5B
100
AcDbEntity
  8
レイヤー_1
  6
CONTINUOUS
 62
       3
100
AcDbLine
 10
-5.92298042
 20
-1.75053914
 30
0.0
 11
-1.92408584
 21
-1.75053914
 31
0.0
  0
LINE
  5
5C
100
AcDbEntity
  8
レイヤー_1
  6
CONTINUOUS
 62
       3
100
AcDbLine
 10
108.47744409
 20
-17.48558213
 30
0.0
 11
108.47744409
 21
-15.48613484
 31
0.0
  0
LINE
  5
5D
100
AcDbEntity
  8
レイヤー_1
  6
CONTINUOUS
 62
       3
100
AcDbLine
 10
108.47744409
 20
-15.48613484
 30
0.0
 11
108.96923147
 21
-15.48613484
 31
0.0
  0
LINE
  5
5E
100
AcDbEntity
  8
レイヤー_1
  6
CONTINUOUS
 62
       3
100
AcDbLine
 10
108.96923147
 20
-15.48613484
 30
0.0
 11
110.97686086
 21
-17.48558213
 31
0.0
  0
LINE
  5
5F
100
AcDbEntity
  8
レイヤー_1
  6
CONTINUOUS
 62
       3
100
AcDbLine
 10
108.47744409
 20
17.48256768
 30
0.0
 11
108.47744409
 21
15.48355102
 31
0.0
  0
LINE
  5
60
100
AcDbEntity
  8
レイヤー_1
  6
CONTINUOUS
 62
       3
100
AcDbLine
 10
108.47744409
 20
15.48355102
 30
0.0
 11
108.96923147
 21
15.48355102
 31
0.0
  0
LINE
  5
61
100
AcDbEntity
  8
レイヤー_1
  6
CONTINUOUS
 62
       3
100
AcDbLine
 10
108.96923147
 20
15.48355102
 30
0.0
 11
110.97686086
 21
17.48256768
 31
0.0
  0
LINE
  5
62
100
AcDbEntity
  8
レイヤー_1
  6
CONTINUOUS
 62
       3
100
AcDbLine
 10
-1.92236329
 20
40.00057304
 30
0.0
 11
-1.92236329
 21
-40.00057304
 31
0.0
  0
LINE
  5
63
100
AcDbEntity
  8
レイヤー_1
  6
CONTINUOUS
 62
       3
100
AcDbLine
 10
-3.92396377
 20
1.76388889
 30
0.0
 11
-3.92396377
 21
-1.7453715
 31
0.0
  0
LINE
  5
64
100
AcDbEntity
  8
レイヤー_1
  6
CONTINUOUS
 62
       3
100
AcDbLine
 10
5.3760715
 20
-10.00025092
 30
0.0
 11
5.3760715
 21
10.00025092
 31
0.0
  0
LINE
  5
65
100
AcDbEntity
  8
レイヤー_1
  6
CONTINUOUS
 62
       3
100
AcDbLine
 10
5.3760715
 20
10.00025092
 30
0.0
 11
3.07560899
 21
10.00025092
 31
0.0
  0
LINE
  5
66
100
AcDbEntity
  8
レイヤー_1
  6
CONTINUOUS
 62
       3
100
AcDbLine
 10
3.07560899
 20
10.00025092
 30
0.0
 11
3.07560899
 21
-10.00025092
 31
0.0
  0
LINE
  5
67
100
AcDbEntity
  8
レイヤー_1
  6
CONTINUOUS
 62
       3
100
AcDbLine
 10
3.07560899
 20
-10.00025092
 30
0.0
 11
5.3760715
 21
-10.00025092
 31
0.0
  0
LINE
  5
68
100
AcDbEntity
  8
レイヤー_1
  6
CONTINUOUS
 62
       3
100
AcDbLine
 10
-5.92298042
 20
-21.6498413
 30
0.0
 11
-17.37361654
 21
-21.6498413
 31
0.0
  0
LINE
  5
69
100
AcDbEntity
  8
レイヤー_1
  6
CONTINUOUS
 62
       3
100
AcDbLine
 10
-17.37361654
 20
-21.6498413
 30
0.0
 11
-17.37361654
 21
-40.00057304
 31
0.0
  0
LINE
  5
6A
100
AcDbEntity
  8
レイヤー_1
  6
CONTINUOUS
 62
       3
100
AcDbLine
 10
-17.37361654
 20
40.00057304
 30
0.0
 11
-17.37361654
 21
21.64984131
 31
0.0
  0
LINE
  5
6B
100
AcDbEntity
  8
レイヤー_1
  6
CONTINUOUS
 62
       3
100
AcDbLine
 10
-17.37361654
 20
21.64984131
 30
0.0
 11
-5.92298042
 21
21.64984131
 31
0.0
  0
LINE
  5
6C
100
AcDbEntity
  8
レイヤー_1
  6
CONTINUOUS
 62
       3
100
AcDbLine
 10
-102.59838865
 20
-23.36291503
 30
0.0
 11
-102.59838865
 21
-6.71233791
 31
0.0
  0
LINE
  5
6D
100
AcDbEntity
  8
レイヤー_1
  6
CONTINUOUS
 62
       3
100
AcDbLine
 10
-102.59838865
 20
-6.71233791
 30
0.0
 11
-92.2234836
 21
-6.71233791
 31
0.0
  0
LINE
  5
6E
100
AcDbEntity
  8
レイヤー_1
  6
CONTINUOUS
 62
       3
100
AcDbLine
 10
-92.2234836
 20
-6.71233791
 30
0.0
 11
-92.2234836
 21
-23.36291503
 31
0.0
  0
LINE
  5
6F
100
AcDbEntity
  8
レイヤー_1
  6
CONTINUOUS
 62
       3
100
AcDbLine
 10
-90.67362127
 20
-23.36291503
 30
0.0
 11
-90.67362127
 21
-5.01304457
 31
0.0
  0
LINE
  5
70
100
AcDbEntity
  8
レイヤー_1
  6
CONTINUOUS
 62
       3
100
AcDbLine
 10
-90.67362127
 20
-5.01304457
 30
0.0
 11
-104.0634155
 21
-5.01304457
 31
0.0
  0
LINE
  5
71
100
AcDbEntity
  8
レイヤー_1
  6
CONTINUOUS
 62
       3
100
AcDbLine
 10
-104.0634155
 20
-5.01304457
 30
0.0
 11
-104.0634155
 21
-23.36291503
 31
0.0
  0
LINE
  5
72
100
AcDbEntity
  8
レイヤー_1
  6
CONTINUOUS
 62
       3
100
AcDbLine
 10
-98.08272974
 20
-35.4134284
 30
0.0
 11
-108.45806544
 21
-35.4134284
 31
0.0
  0
LINE
  5
73
100
AcDbEntity
  8
レイヤー_1
  6
CONTINUOUS
 62
       3
100
AcDbLine
 10
-98.08272974
 20
-40.00057304
 30
0.0
 11
-98.08272974
 21
-23.35042656
 31
0.0
  0
LINE
  5
74
100
AcDbEntity
  8
レイヤー_1
  6
CONTINUOUS
 62
       3
100
AcDbLine
 10
-98.08272974
 20
-23.35042656
 30
0.0
 11
-108.45806544
 21
-23.35042656
 31
0.0
  0
LINE
  5
75
100
AcDbEntity
  8
レイヤー_1
  6
CONTINUOUS
 62
       3
100
AcDbLine
 10
-108.45806544
 20
-23.35042656
 30
0.0
 11
-108.45806544
 21
-40.00057304
 31
0.0
  0
LINE
  5
76
100
AcDbEntity
  8
レイヤー_1
  6
CONTINUOUS
 62
       3
100
AcDbLine
 10
-86.27811006
 20
-40.00057304
 30
0.0
 11
-86.27811006
 21
-23.35042656
 31
0.0
  0
LINE
  5
77
100
AcDbEntity
  8
レイヤー_1
  6
CONTINUOUS
 62
       3
100
AcDbLine
 10
-86.27811006
 20
-23.35042656
 30
0.0
 11
-96.65344576
 21
-23.35042656
 31
0.0
  0
LINE
  5
78
100
AcDbEntity
  8
レイヤー_1
  6
CONTINUOUS
 62
       3
100
AcDbLine
 10
-96.65344576
 20
-23.35042656
 30
0.0
 11
-96.65344576
 21
-40.00057304
 31
0.0
  0
LINE
  5
79
100
AcDbEntity
  8
レイヤー_1
  6
CONTINUOUS
 62
       3
100
AcDbLine
 10
-74.47349039
 20
-40.00057304
 30
0.0
 11
-74.47349039
 21
-23.35042656
 31
0.0
  0
LINE
  5
7A
100
AcDbEntity
  8
レイヤー_1
  6
CONTINUOUS
 62
       3
100
AcDbLine
 10
-74.47349039
 20
-23.35042656
 30
0.0
 11
-84.84839544
 21
-23.35042656
 31
0.0
  0
LINE
  5
7B
100
AcDbEntity
  8
レイヤー_1
  6
CONTINUOUS
 62
       3
100
AcDbLine
 10
-84.84839544
 20
-23.35042656
 30
0.0
 11
-84.84839544
 21
-40.00057304
 31
0.0
  0
LINE
  5
7C
100
AcDbEntity
  8
レイヤー_1
  6
CONTINUOUS
 62
       3
100
AcDbLine
 10
-104.11035494
 20
-21.6498413
 30
0.0
 11
-109.92309229
 21
-21.6498413
 31
0.0
  0
LINE
  5
7D
100
AcDbEntity
  8
レイヤー_1
  6
CONTINUOUS
 62
       3
100
AcDbLine
 10
-109.92309229
 20
-21.6498413
 30
0.0
 11
-109.92309229
 21
-40.00057304
 31
0.0
  0
LINE
  5
7E
100
AcDbEntity
  8
レイヤー_1
  6
CONTINUOUS
 62
       3
100
AcDbLine
 10
-5.92900934
 20
-5.00055609
 30
0.0
 11
-32.02313914
 21
-5.00055609
 31
0.0
  0
LINE
  5
7F
100
AcDbEntity
  8
レイヤー_1
  6
CONTINUOUS
 62
       3
100
AcDbLine
 10
-32.02313914
 20
-23.35042656
 30
0.0
 11
-17.39471775
 21
-23.35042656
 31
0.0
  0
LINE
  5
80
100
AcDbEntity
  8
レイヤー_1
  6
CONTINUOUS
 62
       3
100
AcDbLine
 10
-72.92276678
 20
40.0
 30
0.0
 11
-72.92276678
 21
21.65802341
 31
0.0
  0
LINE
  5
81
100
AcDbEntity
  8
レイヤー_1
  6
CONTINUOUS
 62
       3
100
AcDbLine
 10
-72.92276678
 20
21.65802341
 30
0.0
 11
-109.92309229
 21
21.65802341
 31
0.0
  0
LINE
  5
82
100
AcDbEntity
  8
レイヤー_1
  6
CONTINUOUS
 62
       3
100
AcDbLine
 10
-109.92309229
 20
21.65802341
 30
0.0
 11
-109.92309229
 21
40.01822916
 31
0.0
  0
LINE
  5
83
100
AcDbEntity
  8
レイヤー_1
  6
CONTINUOUS
 62
       3
100
AcDbLine
 10
-98.08272974
 20
40.0
 30
0.0
 11
-98.08272974
 21
23.36808268
 31
0.0
  0
LINE
  5
84
100
AcDbEntity
  8
レイヤー_1
  6
CONTINUOUS
 62
       3
100
AcDbLine
 10
-98.08272974
 20
23.36808268
 30
0.0
 11
-108.45806544
 21
23.36808268
 31
0.0
  0
LINE
  5
85
100
AcDbEntity
  8
レイヤー_1
  6
CONTINUOUS
 62
       3
100
AcDbLine
 10
-108.45806544
 20
23.36808268
 30
0.0
 11
-108.45806544
 21
40.01822916
 31
0.0
  0
LINE
  5
86
100
AcDbEntity
  8
レイヤー_1
  6
CONTINUOUS
 62
       3
100
AcDbLine
 10
-86.27811006
 20
40.0
 30
0.0
 11
-86.27811006
 21
23.36808268
 31
0.0
  0
LINE
  5
87
100
AcDbEntity
  8
レイヤー_1
  6
CONTINUOUS
 62
       3
100
AcDbLine
 10
-86.27811006
 20
23.36808268
 30
0.0
 11
-96.65344576
 21
23.36808268
 31
0.0
  0
LINE
  5
88
100
AcDbEntity
  8
レイヤー_1
  6
CONTINUOUS
 62
       3
100
AcDbLine
 10
-96.65344576
 20
23.36808268
 30
0.0
 11
-96.65344576
 21
40.0
 31
0.0
  0
LINE
  5
89
100
AcDbEntity
  8
レイヤー_1
  6
CONTINUOUS
 62
       3
100
AcDbLine
 10
-74.47349039
 20
40.0
 30
0.0
 11
-74.47349039
 21
23.36808268
 31
0.0
  0
LINE
  5
8A
100
AcDbEntity
  8
レイヤー_1
  6
CONTINUOUS
 62
       3
100
AcDbLine
 10
-74.47349039
 20
23.36808268
 30
0.0
 11
-84.84839544
 21
23.36808268
 31
0.0
  0
LINE
  5
8B
100
AcDbEntity
  8
レイヤー_1
  6
CONTINUOUS
 62
       3
100
AcDbLine
 10
-84.84839544
 20
23.36808268
 30
0.0
 11
-84.84839544
 21
40.0
 31
0.0
  0
LINE
  5
8C
100
AcDbEntity
  8
レイヤー_1
  6
CONTINUOUS
 62
       3
100
AcDbLine
 10
-90.71625432
 20
-21.62874009
 30
0.0
 11
-85.36903549
 21
-21.62874009
 31
0.0
  0
LINE
  5
8D
100
AcDbEntity
  8
レイヤー_1
  6
CONTINUOUS
 62
       3
100
AcDbLine
 10
-82.16897243
 20
-21.62874009
 30
0.0
 11
-72.92276678
 21
-21.62874009
 31
0.0
  0
LINE
  5
8E
100
AcDbEntity
  8
レイヤー_1
  6
CONTINUOUS
 62
       3
100
AcDbLine
 10
-72.92276678
 20
-21.62874009
 30
0.0
 11
-72.92276678
 21
-40.00057304
 31
0.0
  0
LINE
  5
8F
100
AcDbEntity
  8
レイヤー_1
  6
CONTINUOUS
 62
       3
100
AcDbLine
 10
-98.67916189
 20
-33.75806002
 30
0.0
 11
-98.67916189
 21
-24.67851087
 31
0.0
  0
LINE
  5
90
100
AcDbEntity
  8
レイヤー_1
  6
CONTINUOUS
 62
       3
100
AcDbLine
 10
-98.67916189
 20
-24.67851087
 30
0.0
 11
-107.75871105
 21
-24.67851087
 31
0.0
  0
LINE
  5
91
100
AcDbEntity
  8
レイヤー_1
  6
CONTINUOUS
 62
       3
100
AcDbLine
 10
-107.75871105
 20
-24.67851087
 30
0.0
 11
-107.75871105
 21
-33.75806002
 31
0.0
  0
LINE
  5
92
100
AcDbEntity
  8
レイヤー_1
  6
CONTINUOUS
 62
       3
100
AcDbLine
 10
-107.75871105
 20
-33.75806002
 30
0.0
 11
-98.67916189
 21
-33.75806002
 31
0.0
  0
LINE
  5
93
100
AcDbEntity
  8
レイヤー_1
  6
CONTINUOUS
 62
       3
100
AcDbLine
 10
-92.2234836
 20
-18.77577039
 30
0.0
 11
-102.59838865
 21
-18.77577039
 31
0.0
  0
LINE
  5
94
100
AcDbEntity
  8
レイヤー_1
  6
CONTINUOUS
 62
       3
100
AcDbLine
 10
-92.81948511
 20
-17.12040201
 30
0.0
 11
-92.81948511
 21
-8.04085286
 31
0.0
  0
LINE
  5
95
100
AcDbEntity
  8
レイヤー_1
  6
CONTINUOUS
 62
       3
100
AcDbLine
 10
-92.81948511
 20
-8.04085286
 30
0.0
 11
-101.89903427
 21
-8.04085286
 31
0.0
  0
LINE
  5
96
100
AcDbEntity
  8
レイヤー_1
  6
CONTINUOUS
 62
       3
100
AcDbLine
 10
-101.89903427
 20
-8.04085286
 30
0.0
 11
-101.89903427
 21
-17.12040201
 31
0.0
  0
LINE
  5
97
100
AcDbEntity
  8
レイヤー_1
  6
CONTINUOUS
 62
       3
100
AcDbLine
 10
-101.89903427
 20
-17.12040201
 30
0.0
 11
-92.81948511
 21
-17.12040201
 31
0.0
  0
LINE
  5
98
100
AcDbEntity
  8
レイヤー_1
  6
CONTINUOUS
 62
       3
100
AcDbLine
 10
-86.27811006
 20
-35.4134284
 30
0.0
 11
-96.65344576
 21
-35.4134284
 31
0.0
  0
LINE
  5
99
100
AcDbEntity
  8
レイヤー_1
  6
CONTINUOUS
 62
       3
100
AcDbLine
 10
-86.87497286
 20
-33.75806002
 30
0.0
 11
-86.87497286
 21
-24.67851087
 31
0.0
  0
LINE
  5
9A
100
AcDbEntity
  8
レイヤー_1
  6
CONTINUOUS
 62
       3
100
AcDbLine
 10
-86.87497286
 20
-24.67851087
 30
0.0
 11
-95.95409137
 21
-24.67851087
 31
0.0
  0
LINE
  5
9B
100
AcDbEntity
  8
レイヤー_1
  6
CONTINUOUS
 62
       3
100
AcDbLine
 10
-95.95409137
 20
-24.67851087
 30
0.0
 11
-95.95409137
 21
-33.75806002
 31
0.0
  0
LINE
  5
9C
100
AcDbEntity
  8
レイヤー_1
  6
CONTINUOUS
 62
       3
100
AcDbLine
 10
-95.95409137
 20
-33.75806002
 30
0.0
 11
-86.87497286
 21
-33.75806002
 31
0.0
  0
LINE
  5
9D
100
AcDbEntity
  8
レイヤー_1
  6
CONTINUOUS
 62
       3
100
AcDbLine
 10
-74.47349039
 20
-35.4134284
 30
0.0
 11
-84.84839544
 21
-35.4134284
 31
0.0
  0
LINE
  5
9E
100
AcDbEntity
  8
レイヤー_1
  6
CONTINUOUS
 62
       3
100
AcDbLine
 10
-75.06949191
 20
-33.75806002
 30
0.0
 11
-75.06949191
 21
-24.67851087
 31
0.0
  0
LINE
  5
9F
100
AcDbEntity
  8
レイヤー_1
  6
CONTINUOUS
 62
       3
100
AcDbLine
 10
-75.06949191
 20
-24.67851087
 30
0.0
 11
-84.14904105
 21
-24.67851087
 31
0.0
  0
LINE
  5
A0
100
AcDbEntity
  8
レイヤー_1
  6
CONTINUOUS
 62
       3
100
AcDbLine
 10
-84.14904105
 20
-24.67851087
 30
0.0
 11
-84.14904105
 21
-33.75806002
 31
0.0
  0
LINE
  5
A1
100
AcDbEntity
  8
レイヤー_1
  6
CONTINUOUS
 62
       3
100
AcDbLine
 10
-84.14904105
 20
-33.75806002
 30
0.0
 11
-75.06949191
 21
-33.75806002
 31
0.0
  0
LINE
  5
A2
100
AcDbEntity
  8
レイヤー_1
  6
CONTINUOUS
 62
       3
100
AcDbLine
 10
-108.45806544
 20
35.43108452
 30
0.0
 11
-98.08272974
 21
35.43108452
 31
0.0
  0
LINE
  5
A3
100
AcDbEntity
  8
レイヤー_1
  6
CONTINUOUS
 62
       3
100
AcDbLine
 10
-107.86206391
 20
33.77657741
 30
0.0
 11
-107.86206391
 21
24.69702826
 31
0.0
  0
LINE
  5
A4
100
AcDbEntity
  8
レイヤー_1
  6
CONTINUOUS
 62
       3
100
AcDbLine
 10
-107.86206391
 20
24.69702826
 30
0.0
 11
-98.78251477
 21
24.69702826
 31
0.0
  0
LINE
  5
A5
100
AcDbEntity
  8
レイヤー_1
  6
CONTINUOUS
 62
       3
100
AcDbLine
 10
-98.78251477
 20
24.69702826
 30
0.0
 11
-98.78251477
 21
33.77657741
 31
0.0
  0
LINE
  5
A6
100
AcDbEntity
  8
レイヤー_1
  6
CONTINUOUS
 62
       3
100
AcDbLine
 10
-98.78251477
 20
33.77657741
 30
0.0
 11
-107.86206391
 21
33.77657741
 31
0.0
  0
LINE
  5
A7
100
AcDbEntity
  8
レイヤー_1
  6
CONTINUOUS
 62
       3
100
AcDbLine
 10
-96.65344576
 20
35.43108452
 30
0.0
 11
-86.27811006
 21
35.43108452
 31
0.0
  0
LINE
  5
A8
100
AcDbEntity
  8
レイヤー_1
  6
CONTINUOUS
 62
       3
100
AcDbLine
 10
-96.0570136
 20
33.77657741
 30
0.0
 11
-96.0570136
 21
24.69702826
 31
0.0
  0
LINE
  5
A9
100
AcDbEntity
  8
レイヤー_1
  6
CONTINUOUS
 62
       3
100
AcDbLine
 10
-96.0570136
 20
24.69702826
 30
0.0
 11
-86.97746445
 21
24.69702826
 31
0.0
  0
LINE
  5
AA
100
AcDbEntity
  8
レイヤー_1
  6
CONTINUOUS
 62
       3
100
AcDbLine
 10
-86.97746445
 20
24.69702826
 30
0.0
 11
-86.97746445
 21
33.77657741
 31
0.0
  0
LINE
  5
AB
100
AcDbEntity
  8
レイヤー_1
  6
CONTINUOUS
 62
       3
100
AcDbLine
 10
-86.97746445
 20
33.77657741
 30
0.0
 11
-96.0570136
 21
33.77657741
 31
0.0
  0
LINE
  5
AC
100
AcDbEntity
  8
レイヤー_1
  6
CONTINUOUS
 62
       3
100
AcDbLine
 10
-84.84839544
 20
35.43108452
 30
0.0
 11
-74.47349039
 21
35.43108452
 31
0.0
  0
LINE
  5
AD
100
AcDbEntity
  8
レイヤー_1
  6
CONTINUOUS
 62
       3
100
AcDbLine
 10
-84.25153264
 20
33.77657741
 30
0.0
 11
-84.25153264
 21
24.69702826
 31
0.0
  0
LINE
  5
AE
100
AcDbEntity
  8
レイヤー_1
  6
CONTINUOUS
 62
       3
100
AcDbLine
 10
-84.25153264
 20
24.69702826
 30
0.0
 11
-75.17284477
 21
24.69702826
 31
0.0
  0
LINE
  5
AF
100
AcDbEntity
  8
レイヤー_1
  6
CONTINUOUS
 62
       3
100
AcDbLine
 10
-75.17284477
 20
24.69702826
 30
0.0
 11
-75.17284477
 21
33.77657741
 31
0.0
  0
LINE
  5
B0
100
AcDbEntity
  8
レイヤー_1
  6
CONTINUOUS
 62
       3
100
AcDbLine
 10
-75.17284477
 20
33.77657741
 30
0.0
 11
-84.25153264
 21
33.77657741
 31
0.0
  0
LINE
  5
B1
100
AcDbEntity
  8
レイヤー_1
  6
CONTINUOUS
 62
       3
100
AcDbLine
 10
-97.68266802
 20
-40.0
 30
0.0
 11
-97.68266802
 21
-42.16323173
 31
0.0
  0
LINE
  5
B2
100
AcDbEntity
  8
レイヤー_1
  6
CONTINUOUS
 62
       3
100
AcDbLine
 10
-97.68266802
 20
-42.16323173
 30
0.0
 11
-85.1825697
 21
-42.16323173
 31
0.0
  0
LINE
  5
B3
100
AcDbEntity
  8
レイヤー_1
  6
CONTINUOUS
 62
       3
100
AcDbLine
 10
-85.1825697
 20
-42.16323173
 30
0.0
 11
-85.1825697
 21
-40.0
 31
0.0
  0
LINE
  5
B4
100
AcDbEntity
  8
レイヤー_1
  6
CONTINUOUS
 62
       3
100
AcDbLine
 10
-77.00136649
 20
-51.29830932
 30
0.0
 11
-75.58758543
 21
-49.88366699
 31
0.0
  0
LINE
  5
B5
100
AcDbEntity
  8
レイヤー_1
  6
CONTINUOUS
 62
       3
100
AcDbLine
 10
-78.76956175
 20
-46.70169067
 30
0.0
 11
-80.1833428
 21
-48.11633301
 31
0.0
  0
LINE
  5
B6
100
AcDbEntity
  8
レイヤー_1
  6
CONTINUOUS
 62
       3
100
AcDbLine
 10
-83.16960551
 20
-55.5
 30
0.0
 11
-83.92338729
 21
-40.00574068
 31
0.0
  0
LINE
  5
B7
100
AcDbEntity
  8
レイヤー_1
  6
CONTINUOUS
 62
       3
100
AcDbLine
 10
-107.13532678
 20
50.00058492
 30
0.0
 11
-107.13532678
 21
47.99941508
 31
0.0
  0
LINE
  5
B8
100
AcDbEntity
  8
レイヤー_1
  6
CONTINUOUS
 62
       3
100
AcDbLine
 10
-102.63560144
 20
47.99941508
 30
0.0
 11
-102.63560144
 21
50.00058492
 31
0.0
  0
LINE
  5
B9
100
AcDbEntity
  8
レイヤー_1
  6
CONTINUOUS
 62
       3
100
AcDbLine
 10
-99.67539207
 20
55.5
 30
0.0
 11
-98.92215419
 21
40.0
 31
0.0
  0
LINE
  5
BA
100
AcDbEntity
  8
レイヤー_1
  6
CONTINUOUS
 62
       3
100
AcDbLine
 10
-94.4317898
 20
-40.0
 30
0.0
 11
-94.4317898
 21
-40.76710679
 31
0.0
  0
LINE
  5
BB
100
AcDbEntity
  8
レイヤー_1
  6
CONTINUOUS
 62
       3
100
AcDbLine
 10
-94.4317898
 20
-40.76710679
 30
0.0
 11
-88.43258665
 21
-40.76710679
 31
0.0
  0
LINE
  5
BC
100
AcDbEntity
  8
レイヤー_1
  6
CONTINUOUS
 62
       3
100
AcDbLine
 10
-88.43258665
 20
-40.76710679
 30
0.0
 11
-88.43258665
 21
-40.0
 31
0.0
  0
LINE
  5
BD
100
AcDbEntity
  8
レイヤー_1
  6
CONTINUOUS
 62
       3
100
AcDbLine
 10
-14.11584812
 20
-5.00055609
 30
0.0
 11
-14.11584812
 21
-40.00057304
 31
0.0
  0
LINE
  5
BE
100
AcDbEntity
  8
レイヤー_1
  6
CONTINUOUS
 62
       3
100
AcDbLine
 10
-35.02313914
 20
-2.03820461
 30
0.0
 11
-8.92365859
 21
-2.03820461
 31
0.0
  0
LINE
  5
BF
100
AcDbEntity
  8
レイヤー_1
  6
CONTINUOUS
 62
       3
100
AcDbLine
 10
-8.92365859
 20
-2.03820461
 30
0.0
 11
-8.92365859
 21
18.59920925
 31
0.0
  0
LINE
  5
C0
100
AcDbEntity
  8
レイヤー_1
  6
CONTINUOUS
 62
       3
100
AcDbLine
 10
-8.92365859
 20
18.59920925
 30
0.0
 11
-21.31868151
 21
18.59920925
 31
0.0
  0
LINE
  5
C1
100
AcDbEntity
  8
レイヤー_1
  6
CONTINUOUS
 62
       3
100
AcDbLine
 10
-21.31868151
 20
18.59920925
 30
0.0
 11
-21.31868151
 21
40.0
 31
0.0
  0
LINE
  5
C2
100
AcDbEntity
  8
レイヤー_1
  6
CONTINUOUS
 62
       3
100
AcDbLine
 10
-14.11584812
 20
40.00057304
 30
0.0
 11
-14.11584812
 21
21.64984131
 31
0.0
  0
LINE
  5
C3
100
AcDbEntity
  8
レイヤー_1
  6
CONTINUOUS
 62
       3
100
AcDbLine
 10
-5.92298042
 20
21.64984131
 30
0.0
 11
-5.92298042
 21
-5.00055609
 31
0.0
  0
LINE
  5
C4
100
AcDbEntity
  8
レイヤー_1
  6
CONTINUOUS
 62
       3
100
AcDbLine
 10
-5.92298042
 20
-5.00055609
 30
0.0
 11
-14.11584812
 21
-5.00055609
 31
0.0
  0
LINE
  5
C5
100
AcDbEntity
  8
レイヤー_1
  6
CONTINUOUS
 62
       3
100
AcDbLine
 10
-108.31810842
 20
21.55294799
 30
0.0
 11
-108.31810842
 21
20.30237833
 31
0.0
  0
LINE
  5
C6
100
AcDbEntity
  8
レイヤー_1
  6
CONTINUOUS
 62
       3
100
AcDbLine
 10
-108.31810842
 20
20.30237833
 30
0.0
 11
-104.89153034
 21
20.30237833
 31
0.0
  0
LINE
  5
C7
100
AcDbEntity
  8
レイヤー_1
  6
CONTINUOUS
 62
       3
100
AcDbLine
 10
-104.89153034
 20
20.30237833
 30
0.0
 11
-104.89153034
 21
21.55294799
 31
0.0
  0
LINE
  5
C8
100
AcDbEntity
  8
レイヤー_1
  6
CONTINUOUS
 62
       3
100
AcDbLine
 10
-78.07792154
 20
21.55294799
 30
0.0
 11
-78.07792154
 21
20.30237833
 31
0.0
  0
LINE
  5
C9
100
AcDbEntity
  8
レイヤー_1
  6
CONTINUOUS
 62
       3
100
AcDbLine
 10
-78.07792154
 20
20.30237833
 30
0.0
 11
-74.65220471
 21
20.30237833
 31
0.0
  0
LINE
  5
CA
100
AcDbEntity
  8
レイヤー_1
  6
CONTINUOUS
 62
       3
100
AcDbLine
 10
-74.65220471
 20
20.30237833
 30
0.0
 11
-74.65220471
 21
21.55294799
 31
0.0
  0
LINE
  5
CB
100
AcDbEntity
  8
レイヤー_1
  6
CONTINUOUS
 62
       3
100
AcDbLine
 10
-74.63713241
 20
-21.60763888
 30
0.0
 11
-74.63713241
 21
-20.35793049
 31
0.0
  0
LINE
  5
CC
100
AcDbEntity
  8
レイヤー_1
  6
CONTINUOUS
 62
       3
100
AcDbLine
 10
-74.63713241
 20
-20.35793049
 30
0.0
 11
-78.06284924
 21
-20.35793049
 31
0.0
  0
LINE
  5
CD
100
AcDbEntity
  8
レイヤー_1
  6
CONTINUOUS
 62
       3
100
AcDbLine
 10
-78.06284924
 20
-20.35793049
 30
0.0
 11
-78.06284924
 21
-21.60763888
 31
0.0
  0
LINE
  5
CE
100
AcDbEntity
  8
レイヤー_1
  6
CONTINUOUS
 62
       3
100
AcDbLine
 10
-104.87645804
 20
-21.60763888
 30
0.0
 11
-104.87645804
 21
-20.35793049
 31
0.0
  0
LINE
  5
CF
100
AcDbEntity
  8
レイヤー_1
  6
CONTINUOUS
 62
       3
100
AcDbLine
 10
-104.87645804
 20
-20.35793049
 30
0.0
 11
-108.30303614
 21
-20.35793049
 31
0.0
  0
LINE
  5
D0
100
AcDbEntity
  8
レイヤー_1
  6
CONTINUOUS
 62
       3
100
AcDbLine
 10
-108.30303614
 20
-20.35793049
 30
0.0
 11
-108.30303614
 21
-21.60763888
 31
0.0
  0
LINE
  5
D1
100
AcDbEntity
  8
レイヤー_1
  6
CONTINUOUS
 62
       3
100
AcDbLine
 10
100.58214652
 20
49.22395493
 30
0.0
 11
113.46421981
 21
49.22395493
 31
0.0
  0
LINE
  5
D2
100
AcDbEntity
  8
レイヤー_1
  6
CONTINUOUS
 62
       3
100
AcDbLine
 10
100.58214652
 20
-49.16840276
 30
0.0
 11
113.46421981
 21
-49.16840276
 31
0.0
  0
LINE
  5
D3
100
AcDbEntity
  8
レイヤー_1
  6
CONTINUOUS
 62
       3
100
AcDbLine
 10
103.08242455
 20
45.97135416
 30
0.0
 11
110.96394176
 21
45.97135416
 31
0.0
  0
LINE
  5
D4
100
AcDbEntity
  8
レイヤー_1
  6
CONTINUOUS
 62
       3
100
AcDbLine
 10
103.08242455
 20
52.47569443
 30
0.0
 11
110.96394176
 21
52.47569443
 31
0.0
  0
LINE
  5
D5
100
AcDbEntity
  8
レイヤー_1
  6
CONTINUOUS
 62
       3
100
AcDbLine
 10
103.08242455
 20
-52.09027437
 30
0.0
 11
110.96394176
 21
-52.09027437
 31
0.0
  0
LINE
  5
D6
100
AcDbEntity
  8
レイヤー_1
  6
CONTINUOUS
 62
       3
100
AcDbLine
 10
103.08242455
 20
-46.19184026
 30
0.0
 11
110.96394176
 21
-46.19184026
 31
0.0
  0
LINE
  5
D7
100
AcDbEntity
  8
レイヤー_1
  6
CONTINUOUS
 62
       3
100
AcDbLine
 10
-85.36903549
 20
-21.62874009
 30
0.0
 11
-85.3211946
 21
-21.71127501
 31
0.0
  0
LINE
  5
D8
100
AcDbEntity
  8
レイヤー_1
  6
CONTINUOUS
 62
       3
100
AcDbLine
 10
-85.3211946
 20
-21.71127501
 30
0.0
 11
-85.26494768
 21
-21.78811786
 31
0.0
  0
LINE
  5
D9
100
AcDbEntity
  8
レイヤー_1
  6
CONTINUOUS
 62
       3
100
AcDbLine
 10
-85.26494768
 20
-21.78811786
 30
0.0
 11
-85.20029472
 21
-21.85926866
 31
0.0
  0
LINE
  5
DA
100
AcDbEntity
  8
レイヤー_1
  6
CONTINUOUS
 62
       3
100
AcDbLine
 10
-85.20029472
 20
-21.85926866
 30
0.0
 11
-85.12723573
 21
-21.92472738
 31
0.0
  0
LINE
  5
DB
100
AcDbEntity
  8
レイヤー_1
  6
CONTINUOUS
 62
       3
100
AcDbLine
 10
-85.12723573
 20
-21.92472738
 30
0.0
 11
-85.0457707
 21
-21.98449405
 31
0.0
  0
LINE
  5
DC
100
AcDbEntity
  8
レイヤー_1
  6
CONTINUOUS
 62
       3
100
AcDbLine
 10
-85.0457707
 20
-21.98449405
 30
0.0
 11
-84.95589964
 21
-22.03856865
 31
0.0
  0
LINE
  5
DD
100
AcDbEntity
  8
レイヤー_1
  6
CONTINUOUS
 62
       3
100
AcDbLine
 10
-84.95589964
 20
-22.03856865
 30
0.0
 11
-84.85762254
 21
-22.08695119
 31
0.0
  0
LINE
  5
DE
100
AcDbEntity
  8
レイヤー_1
  6
CONTINUOUS
 62
       3
100
AcDbLine
 10
-84.85762254
 20
-22.08695119
 30
0.0
 11
-84.75093943
 21
-22.12964166
 31
0.0
  0
LINE
  5
DF
100
AcDbEntity
  8
レイヤー_1
  6
CONTINUOUS
 62
       3
100
AcDbLine
 10
-84.75093943
 20
-22.12964166
 30
0.0
 11
-84.63585027
 21
-22.16664007
 31
0.0
  0
LINE
  5
E0
100
AcDbEntity
  8
レイヤー_1
  6
CONTINUOUS
 62
       3
100
AcDbLine
 10
-84.63585027
 20
-22.16664007
 30
0.0
 11
-84.51235508
 21
-22.19794642
 31
0.0
  0
LINE
  5
E1
100
AcDbEntity
  8
レイヤー_1
  6
CONTINUOUS
 62
       3
100
AcDbLine
 10
-84.51235508
 20
-22.19794642
 30
0.0
 11
-84.38045386
 21
-22.22356071
 31
0.0
  0
LINE
  5
E2
100
AcDbEntity
  8
レイヤー_1
  6
CONTINUOUS
 62
       3
100
AcDbLine
 10
-84.38045386
 20
-22.22356071
 30
0.0
 11
-84.24014661
 21
-22.24348293
 31
0.0
  0
LINE
  5
E3
100
AcDbEntity
  8
レイヤー_1
  6
CONTINUOUS
 62
       3
100
AcDbLine
 10
-84.24014661
 20
-22.24348293
 30
0.0
 11
-84.09143332
 21
-22.25771309
 31
0.0
  0
LINE
  5
E4
100
AcDbEntity
  8
レイヤー_1
  6
CONTINUOUS
 62
       3
100
AcDbLine
 10
-84.09143332
 20
-22.25771309
 30
0.0
 11
-83.93431399
 21
-22.26625118
 31
0.0
  0
LINE
  5
E5
100
AcDbEntity
  8
レイヤー_1
  6
CONTINUOUS
 62
       3
100
AcDbLine
 10
-83.93431399
 20
-22.26625118
 30
0.0
 11
-83.76878863
 21
-22.26909721
 31
0.0
  0
LINE
  5
E6
100
AcDbEntity
  8
レイヤー_1
  6
CONTINUOUS
 62
       3
100
AcDbLine
 10
-83.76878863
 20
-22.26909721
 30
0.0
 11
-83.61055348
 21
-22.26625118
 31
0.0
  0
LINE
  5
E7
100
AcDbEntity
  8
レイヤー_1
  6
CONTINUOUS
 62
       3
100
AcDbLine
 10
-83.61055348
 20
-22.26625118
 30
0.0
 11
-83.45968702
 21
-22.25771309
 31
0.0
  0
LINE
  5
E8
100
AcDbEntity
  8
レイヤー_1
  6
CONTINUOUS
 62
       3
100
AcDbLine
 10
-83.45968702
 20
-22.25771309
 30
0.0
 11
-83.31618922
 21
-22.24348293
 31
0.0
  0
LINE
  5
E9
100
AcDbEntity
  8
レイヤー_1
  6
CONTINUOUS
 62
       3
100
AcDbLine
 10
-83.31618922
 20
-22.24348293
 30
0.0
 11
-83.1800601
 21
-22.22356071
 31
0.0
  0
LINE
  5
EA
100
AcDbEntity
  8
レイヤー_1
  6
CONTINUOUS
 62
       3
100
AcDbLine
 10
-83.1800601
 20
-22.22356071
 30
0.0
 11
-83.05129966
 21
-22.19794642
 31
0.0
  0
LINE
  5
EB
100
AcDbEntity
  8
レイヤー_1
  6
CONTINUOUS
 62
       3
100
AcDbLine
 10
-83.05129966
 20
-22.19794642
 30
0.0
 11
-82.92990789
 21
-22.16664007
 31
0.0
  0
LINE
  5
EC
100
AcDbEntity
  8
レイヤー_1
  6
CONTINUOUS
 62
       3
100
AcDbLine
 10
-82.92990789
 20
-22.16664007
 30
0.0
 11
-82.8158848
 21
-22.12964166
 31
0.0
  0
LINE
  5
ED
100
AcDbEntity
  8
レイヤー_1
  6
CONTINUOUS
 62
       3
100
AcDbLine
 10
-82.8158848
 20
-22.12964166
 30
0.0
 11
-82.70923039
 21
-22.08695119
 31
0.0
  0
LINE
  5
EE
100
AcDbEntity
  8
レイヤー_1
  6
CONTINUOUS
 62
       3
100
AcDbLine
 10
-82.70923039
 20
-22.08695119
 30
0.0
 11
-82.60994465
 21
-22.03856865
 31
0.0
  0
LINE
  5
EF
100
AcDbEntity
  8
レイヤー_1
  6
CONTINUOUS
 62
       3
100
AcDbLine
 10
-82.60994465
 20
-22.03856865
 30
0.0
 11
-82.51802758
 21
-21.98449405
 31
0.0
  0
LINE
  5
F0
100
AcDbEntity
  8
レイヤー_1
  6
CONTINUOUS
 62
       3
100
AcDbLine
 10
-82.51802758
 20
-21.98449405
 30
0.0
 11
-82.4334792
 21
-21.92472738
 31
0.0
  0
LINE
  5
F1
100
AcDbEntity
  8
レイヤー_1
  6
CONTINUOUS
 62
       3
100
AcDbLine
 10
-82.4334792
 20
-21.92472738
 30
0.0
 11
-82.35629948
 21
-21.85926866
 31
0.0
  0
LINE
  5
F2
100
AcDbEntity
  8
レイヤー_1
  6
CONTINUOUS
 62
       3
100
AcDbLine
 10
-82.35629948
 20
-21.85926866
 30
0.0
 11
-82.28648846
 21
-21.78811786
 31
0.0
  0
LINE
  5
F3
100
AcDbEntity
  8
レイヤー_1
  6
CONTINUOUS
 62
       3
100
AcDbLine
 10
-82.28648846
 20
-21.78811786
 30
0.0
 11
-82.22404611
 21
-21.71127501
 31
0.0
  0
LINE
  5
F4
100
AcDbEntity
  8
レイヤー_1
  6
CONTINUOUS
 62
       3
100
AcDbLine
 10
-82.22404611
 20
-21.71127501
 30
0.0
 11
-82.16897243
 21
-21.62874009
 31
0.0
  0
LINE
  5
F5
100
AcDbEntity
  8
レイヤー_1
  6
CONTINUOUS
 62
       3
100
AcDbLine
 10
-103.19998845
 20
-25.71505397
 30
0.0
 11
-103.52757628
 21
-25.73017282
 31
0.0
  0
LINE
  5
F6
100
AcDbEntity
  8
レイヤー_1
  6
CONTINUOUS
 62
       3
100
AcDbLine
 10
-103.52757628
 20
-25.73017282
 30
0.0
 11
-103.84665553
 21
-25.77463424
 31
0.0
  0
LINE
  5
F7
100
AcDbEntity
  8
レイヤー_1
  6
CONTINUOUS
 62
       3
100
AcDbLine
 10
-103.84665553
 20
-25.77463424
 30
0.0
 11
-104.15588066
 21
-25.84709554
 31
0.0
  0
LINE
  5
F8
100
AcDbEntity
  8
レイヤー_1
  6
CONTINUOUS
 62
       3
100
AcDbLine
 10
-104.15588066
 20
-25.84709554
 30
0.0
 11
-104.45390606
 21
-25.94621406
 31
0.0
  0
LINE
  5
F9
100
AcDbEntity
  8
レイヤー_1
  6
CONTINUOUS
 62
       3
100
AcDbLine
 10
-104.45390606
 20
-25.94621406
 30
0.0
 11
-104.73938617
 21
-26.07064709
 31
0.0
  0
LINE
  5
FA
100
AcDbEntity
  8
レイヤー_1
  6
CONTINUOUS
 62
       3
100
AcDbLine
 10
-104.73938617
 20
-26.07064709
 30
0.0
 11
-105.01097543
 21
-26.21905196
 31
0.0
  0
LINE
  5
FB
100
AcDbEntity
  8
レイヤー_1
  6
CONTINUOUS
 62
       3
100
AcDbLine
 10
-105.01097543
 20
-26.21905196
 30
0.0
 11
-105.26732824
 21
-26.39008598
 31
0.0
  0
LINE
  5
FC
100
AcDbEntity
  8
レイヤー_1
  6
CONTINUOUS
 62
       3
100
AcDbLine
 10
-105.26732824
 20
-26.39008598
 30
0.0
 11
-105.50709903
 21
-26.58240648
 31
0.0
  0
LINE
  5
FD
100
AcDbEntity
  8
レイヤー_1
  6
CONTINUOUS
 62
       3
100
AcDbLine
 10
-105.50709903
 20
-26.58240648
 30
0.0
 11
-105.72894223
 21
-26.79467077
 31
0.0
  0
LINE
  5
FE
100
AcDbEntity
  8
レイヤー_1
  6
CONTINUOUS
 62
       3
100
AcDbLine
 10
-105.72894223
 20
-26.79467077
 30
0.0
 11
-105.93151226
 21
-27.02553616
 31
0.0
  0
LINE
  5
FF
100
AcDbEntity
  8
レイヤー_1
  6
CONTINUOUS
 62
       3
100
AcDbLine
 10
-105.93151226
 20
-27.02553616
 30
0.0
 11
-106.11346353
 21
-27.27365997
 31
0.0
  0
LINE
  5
100
100
AcDbEntity
  8
レイヤー_1
  6
CONTINUOUS
 62
       3
100
AcDbLine
 10
-106.11346353
 20
-27.27365997
 30
0.0
 11
-106.27345049
 21
-27.53769952
 31
0.0
  0
LINE
  5
101
100
AcDbEntity
  8
レイヤー_1
  6
CONTINUOUS
 62
       3
100
AcDbLine
 10
-106.27345049
 20
-27.53769952
 30
0.0
 11
-106.41012756
 21
-27.81631212
 31
0.0
  0
LINE
  5
102
100
AcDbEntity
  8
レイヤー_1
  6
CONTINUOUS
 62
       3
100
AcDbLine
 10
-106.41012756
 20
-27.81631212
 30
0.0
 11
-106.52214915
 21
-28.1081551
 31
0.0
  0
LINE
  5
103
100
AcDbEntity
  8
レイヤー_1
  6
CONTINUOUS
 62
       3
100
AcDbLine
 10
-106.52214915
 20
-28.1081551
 30
0.0
 11
-106.60816969
 21
-28.41188577
 31
0.0
  0
LINE
  5
104
100
AcDbEntity
  8
レイヤー_1
  6
CONTINUOUS
 62
       3
100
AcDbLine
 10
-106.60816969
 20
-28.41188577
 30
0.0
 11
-106.6668436
 21
-28.72616144
 31
0.0
  0
LINE
  5
105
100
AcDbEntity
  8
レイヤー_1
  6
CONTINUOUS
 62
       3
100
AcDbLine
 10
-106.6668436
 20
-28.72616144
 30
0.0
 11
-106.69682532
 21
-29.04963943
 31
0.0
  0
LINE
  5
106
100
AcDbEntity
  8
レイヤー_1
  6
CONTINUOUS
 62
       3
100
AcDbLine
 10
-106.69682532
 20
-29.04963943
 30
0.0
 11
-106.69682532
 21
-29.37918103
 31
0.0
  0
LINE
  5
107
100
AcDbEntity
  8
レイヤー_1
  6
CONTINUOUS
 62
       3
100
AcDbLine
 10
-106.69682532
 20
-29.37918103
 30
0.0
 11
-106.6668436
 21
-29.70266694
 31
0.0
  0
LINE
  5
108
100
AcDbEntity
  8
レイヤー_1
  6
CONTINUOUS
 62
       3
100
AcDbLine
 10
-106.6668436
 20
-29.70266694
 30
0.0
 11
-106.60816969
 21
-30.01695751
 31
0.0
  0
LINE
  5
109
100
AcDbEntity
  8
レイヤー_1
  6
CONTINUOUS
 62
       3
100
AcDbLine
 10
-106.60816969
 20
-30.01695751
 30
0.0
 11
-106.52214915
 21
-30.32070911
 31
0.0
  0
LINE
  5
10A
100
AcDbEntity
  8
レイヤー_1
  6
CONTINUOUS
 62
       3
100
AcDbLine
 10
-106.52214915
 20
-30.32070911
 30
0.0
 11
-106.41012756
 21
-30.61257808
 31
0.0
  0
LINE
  5
10B
100
AcDbEntity
  8
レイヤー_1
  6
CONTINUOUS
 62
       3
100
AcDbLine
 10
-106.41012756
 20
-30.61257808
 30
0.0
 11
-106.27345049
 21
-30.89122078
 31
0.0
  0
LINE
  5
10C
100
AcDbEntity
  8
レイヤー_1
  6
CONTINUOUS
 62
       3
100
AcDbLine
 10
-106.27345049
 20
-30.89122078
 30
0.0
 11
-106.11346353
 21
-31.15529356
 31
0.0
  0
LINE
  5
10D
100
AcDbEntity
  8
レイヤー_1
  6
CONTINUOUS
 62
       3
100
AcDbLine
 10
-106.11346353
 20
-31.15529356
 30
0.0
 11
-105.93151226
 21
-31.40345276
 31
0.0
  0
LINE
  5
10E
100
AcDbEntity
  8
レイヤー_1
  6
CONTINUOUS
 62
       3
100
AcDbLine
 10
-105.93151226
 20
-31.40345276
 30
0.0
 11
-105.72894223
 21
-31.63435475
 31
0.0
  0
LINE
  5
10F
100
AcDbEntity
  8
レイヤー_1
  6
CONTINUOUS
 62
       3
100
AcDbLine
 10
-105.72894223
 20
-31.63435475
 30
0.0
 11
-105.50709903
 21
-31.84665588
 31
0.0
  0
LINE
  5
110
100
AcDbEntity
  8
レイヤー_1
  6
CONTINUOUS
 62
       3
100
AcDbLine
 10
-105.50709903
 20
-31.84665588
 30
0.0
 11
-105.26732824
 21
-32.0390125
 31
0.0
  0
LINE
  5
111
100
AcDbEntity
  8
レイヤー_1
  6
CONTINUOUS
 62
       3
100
AcDbLine
 10
-105.26732824
 20
-32.0390125
 30
0.0
 11
-105.01097543
 21
-32.21008095
 31
0.0
  0
LINE
  5
112
100
AcDbEntity
  8
レイヤー_1
  6
CONTINUOUS
 62
       3
100
AcDbLine
 10
-105.01097543
 20
-32.21008095
 30
0.0
 11
-104.73938617
 21
-32.3585176
 31
0.0
  0
LINE
  5
113
100
AcDbEntity
  8
レイヤー_1
  6
CONTINUOUS
 62
       3
100
AcDbLine
 10
-104.73938617
 20
-32.3585176
 30
0.0
 11
-104.45390606
 21
-32.4829788
 31
0.0
  0
LINE
  5
114
100
AcDbEntity
  8
レイヤー_1
  6
CONTINUOUS
 62
       3
100
AcDbLine
 10
-104.45390606
 20
-32.4829788
 30
0.0
 11
-104.15588066
 21
-32.58212089
 31
0.0
  0
LINE
  5
115
100
AcDbEntity
  8
レイヤー_1
  6
CONTINUOUS
 62
       3
100
AcDbLine
 10
-104.15588066
 20
-32.58212089
 30
0.0
 11
-103.84665553
 21
-32.65460024
 31
0.0
  0
LINE
  5
116
100
AcDbEntity
  8
レイヤー_1
  6
CONTINUOUS
 62
       3
100
AcDbLine
 10
-103.84665553
 20
-32.65460024
 30
0.0
 11
-103.52757628
 21
-32.69907318
 31
0.0
  0
LINE
  5
117
100
AcDbEntity
  8
レイヤー_1
  6
CONTINUOUS
 62
       3
100
AcDbLine
 10
-103.52757628
 20
-32.69907318
 30
0.0
 11
-103.19998845
 21
-32.71419609
 31
0.0
  0
LINE
  5
118
100
AcDbEntity
  8
レイヤー_1
  6
CONTINUOUS
 62
       3
100
AcDbLine
 10
-103.19998845
 20
-32.71419609
 30
0.0
 11
-102.87254405
 21
-32.69907318
 31
0.0
  0
LINE
  5
119
100
AcDbEntity
  8
レイヤー_1
  6
CONTINUOUS
 62
       3
100
AcDbLine
 10
-102.87254405
 20
-32.69907318
 30
0.0
 11
-102.55359979
 21
-32.65460024
 31
0.0
  0
LINE
  5
11A
100
AcDbEntity
  8
レイヤー_1
  6
CONTINUOUS
 62
       3
100
AcDbLine
 10
-102.55359979
 20
-32.65460024
 30
0.0
 11
-102.24450122
 21
-32.58212089
 31
0.0
  0
LINE
  5
11B
100
AcDbEntity
  8
レイヤー_1
  6
CONTINUOUS
 62
       3
100
AcDbLine
 10
-102.24450122
 20
-32.58212089
 30
0.0
 11
-101.94659393
 21
-32.4829788
 31
0.0
  0
LINE
  5
11C
100
AcDbEntity
  8
レイヤー_1
  6
CONTINUOUS
 62
       3
100
AcDbLine
 10
-101.94659393
 20
-32.4829788
 30
0.0
 11
-101.6612235
 21
-32.3585176
 31
0.0
  0
LINE
  5
11D
100
AcDbEntity
  8
レイヤー_1
  6
CONTINUOUS
 62
       3
100
AcDbLine
 10
-101.6612235
 20
-32.3585176
 30
0.0
 11
-101.38973549
 21
-32.21008095
 31
0.0
  0
LINE
  5
11E
100
AcDbEntity
  8
レイヤー_1
  6
CONTINUOUS
 62
       3
100
AcDbLine
 10
-101.38973549
 20
-32.21008095
 30
0.0
 11
-101.13347548
 21
-32.0390125
 31
0.0
  0
LINE
  5
11F
100
AcDbEntity
  8
レイヤー_1
  6
CONTINUOUS
 62
       3
100
AcDbLine
 10
-101.13347548
 20
-32.0390125
 30
0.0
 11
-100.89378906
 21
-31.84665588
 31
0.0
  0
LINE
  5
120
100
AcDbEntity
  8
レイヤー_1
  6
CONTINUOUS
 62
       3
100
AcDbLine
 10
-100.89378906
 20
-31.84665588
 30
0.0
 11
-100.6720218
 21
-31.63435475
 31
0.0
  0
LINE
  5
121
100
AcDbEntity
  8
レイヤー_1
  6
CONTINUOUS
 62
       3
100
AcDbLine
 10
-100.6720218
 20
-31.63435475
 30
0.0
 11
-100.46951927
 21
-31.40345276
 31
0.0
  0
LINE
  5
122
100
AcDbEntity
  8
レイヤー_1
  6
CONTINUOUS
 62
       3
100
AcDbLine
 10
-100.46951927
 20
-31.40345276
 30
0.0
 11
-100.28762704
 21
-31.15529356
 31
0.0
  0
LINE
  5
123
100
AcDbEntity
  8
レイヤー_1
  6
CONTINUOUS
 62
       3
100
AcDbLine
 10
-100.28762704
 20
-31.15529356
 30
0.0
 11
-100.1276907
 21
-30.89122078
 31
0.0
  0
LINE
  5
124
100
AcDbEntity
  8
レイヤー_1
  6
CONTINUOUS
 62
       3
100
AcDbLine
 10
-100.1276907
 20
-30.89122078
 30
0.0
 11
-99.99105582
 21
-30.61257808
 31
0.0
  0
LINE
  5
125
100
AcDbEntity
  8
レイヤー_1
  6
CONTINUOUS
 62
       3
100
AcDbLine
 10
-99.99105582
 20
-30.61257808
 30
0.0
 11
-99.87906799
 21
-30.32070911
 31
0.0
  0
LINE
  5
126
100
AcDbEntity
  8
レイヤー_1
  6
CONTINUOUS
 62
       3
100
AcDbLine
 10
-99.87906799
 20
-30.32070911
 30
0.0
 11
-99.79307275
 21
-30.01695751
 31
0.0
  0
LINE
  5
127
100
AcDbEntity
  8
レイヤー_1
  6
CONTINUOUS
 62
       3
100
AcDbLine
 10
-99.79307275
 20
-30.01695751
 30
0.0
 11
-99.73441572
 21
-29.70266694
 31
0.0
  0
LINE
  5
128
100
AcDbEntity
  8
レイヤー_1
  6
CONTINUOUS
 62
       3
100
AcDbLine
 10
-99.73441572
 20
-29.70266694
 30
0.0
 11
-99.70444245
 21
-29.37918103
 31
0.0
  0
LINE
  5
129
100
AcDbEntity
  8
レイヤー_1
  6
CONTINUOUS
 62
       3
100
AcDbLine
 10
-99.70444245
 20
-29.37918103
 30
0.0
 11
-99.70444245
 21
-29.04963943
 31
0.0
  0
LINE
  5
12A
100
AcDbEntity
  8
レイヤー_1
  6
CONTINUOUS
 62
       3
100
AcDbLine
 10
-99.70444245
 20
-29.04963943
 30
0.0
 11
-99.73441572
 21
-28.72616144
 31
0.0
  0
LINE
  5
12B
100
AcDbEntity
  8
レイヤー_1
  6
CONTINUOUS
 62
       3
100
AcDbLine
 10
-99.73441572
 20
-28.72616144
 30
0.0
 11
-99.79307275
 21
-28.41188577
 31
0.0
  0
LINE
  5
12C
100
AcDbEntity
  8
レイヤー_1
  6
CONTINUOUS
 62
       3
100
AcDbLine
 10
-99.79307275
 20
-28.41188577
 30
0.0
 11
-99.87906799
 21
-28.1081551
 31
0.0
  0
LINE
  5
12D
100
AcDbEntity
  8
レイヤー_1
  6
CONTINUOUS
 62
       3
100
AcDbLine
 10
-99.87906799
 20
-28.1081551
 30
0.0
 11
-99.99105582
 21
-27.81631212
 31
0.0
  0
LINE
  5
12E
100
AcDbEntity
  8
レイヤー_1
  6
CONTINUOUS
 62
       3
100
AcDbLine
 10
-99.99105582
 20
-27.81631212
 30
0.0
 11
-100.1276907
 21
-27.53769952
 31
0.0
  0
LINE
  5
12F
100
AcDbEntity
  8
レイヤー_1
  6
CONTINUOUS
 62
       3
100
AcDbLine
 10
-100.1276907
 20
-27.53769952
 30
0.0
 11
-100.28762704
 21
-27.27365997
 31
0.0
  0
LINE
  5
130
100
AcDbEntity
  8
レイヤー_1
  6
CONTINUOUS
 62
       3
100
AcDbLine
 10
-100.28762704
 20
-27.27365997
 30
0.0
 11
-100.46951927
 21
-27.02553616
 31
0.0
  0
LINE
  5
131
100
AcDbEntity
  8
レイヤー_1
  6
CONTINUOUS
 62
       3
100
AcDbLine
 10
-100.46951927
 20
-27.02553616
 30
0.0
 11
-100.6720218
 21
-26.79467077
 31
0.0
  0
LINE
  5
132
100
AcDbEntity
  8
レイヤー_1
  6
CONTINUOUS
 62
       3
100
AcDbLine
 10
-100.6720218
 20
-26.79467077
 30
0.0
 11
-100.89378906
 21
-26.58240648
 31
0.0
  0
LINE
  5
133
100
AcDbEntity
  8
レイヤー_1
  6
CONTINUOUS
 62
       3
100
AcDbLine
 10
-100.89378906
 20
-26.58240648
 30
0.0
 11
-101.13347548
 21
-26.39008598
 31
0.0
  0
LINE
  5
134
100
AcDbEntity
  8
レイヤー_1
  6
CONTINUOUS
 62
       3
100
AcDbLine
 10
-101.13347548
 20
-26.39008598
 30
0.0
 11
-101.38973549
 21
-26.21905196
 31
0.0
  0
LINE
  5
135
100
AcDbEntity
  8
レイヤー_1
  6
CONTINUOUS
 62
       3
100
AcDbLine
 10
-101.38973549
 20
-26.21905196
 30
0.0
 11
-101.6612235
 21
-26.07064709
 31
0.0
  0
LINE
  5
136
100
AcDbEntity
  8
レイヤー_1
  6
CONTINUOUS
 62
       3
100
AcDbLine
 10
-101.6612235
 20
-26.07064709
 30
0.0
 11
-101.94659393
 21
-25.94621406
 31
0.0
  0
LINE
  5
137
100
AcDbEntity
  8
レイヤー_1
  6
CONTINUOUS
 62
       3
100
AcDbLine
 10
-101.94659393
 20
-25.94621406
 30
0.0
 11
-102.24450122
 21
-25.84709554
 31
0.0
  0
LINE
  5
138
100
AcDbEntity
  8
レイヤー_1
  6
CONTINUOUS
 62
       3
100
AcDbLine
 10
-102.24450122
 20
-25.84709554
 30
0.0
 11
-102.55359979
 21
-25.77463424
 31
0.0
  0
LINE
  5
139
100
AcDbEntity
  8
レイヤー_1
  6
CONTINUOUS
 62
       3
100
AcDbLine
 10
-102.55359979
 20
-25.77463424
 30
0.0
 11
-102.87254405
 21
-25.73017282
 31
0.0
  0
LINE
  5
13A
100
AcDbEntity
  8
レイヤー_1
  6
CONTINUOUS
 62
       3
100
AcDbLine
 10
-102.87254405
 20
-25.73017282
 30
0.0
 11
-103.19998845
 21
-25.71505397
 31
0.0
  0
LINE
  5
13B
100
AcDbEntity
  8
レイヤー_1
  6
CONTINUOUS
 62
       3
100
AcDbLine
 10
-97.34031167
 20
-9.07696533
 30
0.0
 11
-97.66789948
 21
-9.09209221
 31
0.0
  0
LINE
  5
13C
100
AcDbEntity
  8
レイヤー_1
  6
CONTINUOUS
 62
       3
100
AcDbLine
 10
-97.66789948
 20
-9.09209221
 30
0.0
 11
-97.98697875
 21
-9.13657613
 31
0.0
  0
LINE
  5
13D
100
AcDbEntity
  8
レイヤー_1
  6
CONTINUOUS
 62
       3
100
AcDbLine
 10
-97.98697875
 20
-9.13657613
 30
0.0
 11
-98.29620386
 21
-9.20907198
 31
0.0
  0
LINE
  5
13E
100
AcDbEntity
  8
レイヤー_1
  6
CONTINUOUS
 62
       3
100
AcDbLine
 10
-98.29620386
 20
-9.20907198
 30
0.0
 11
-98.59422928
 21
-9.30823469
 31
0.0
  0
LINE
  5
13F
100
AcDbEntity
  8
レイヤー_1
  6
CONTINUOUS
 62
       3
100
AcDbLine
 10
-98.59422928
 20
-9.30823469
 30
0.0
 11
-98.87970939
 21
-9.43271915
 31
0.0
  0
LINE
  5
140
100
AcDbEntity
  8
レイヤー_1
  6
CONTINUOUS
 62
       3
100
AcDbLine
 10
-98.87970939
 20
-9.43271915
 30
0.0
 11
-99.15129864
 21
-9.58118026
 31
0.0
  0
LINE
  5
141
100
AcDbEntity
  8
レイヤー_1
  6
CONTINUOUS
 62
       3
100
AcDbLine
 10
-99.15129864
 20
-9.58118026
 30
0.0
 11
-99.40765146
 21
-9.75227294
 31
0.0
  0
LINE
  5
142
100
AcDbEntity
  8
レイヤー_1
  6
CONTINUOUS
 62
       3
100
AcDbLine
 10
-99.40765146
 20
-9.75227294
 30
0.0
 11
-99.64742225
 21
-9.9446521
 31
0.0
  0
LINE
  5
143
100
AcDbEntity
  8
レイヤー_1
  6
CONTINUOUS
 62
       3
100
AcDbLine
 10
-99.64742225
 20
-9.9446521
 30
0.0
 11
-99.86926544
 21
-10.15697263
 31
0.0
  0
LINE
  5
144
100
AcDbEntity
  8
レイヤー_1
  6
CONTINUOUS
 62
       3
100
AcDbLine
 10
-99.86926544
 20
-10.15697263
 30
0.0
 11
-100.07183546
 21
-10.38788945
 31
0.0
  0
LINE
  5
145
100
AcDbEntity
  8
レイヤー_1
  6
CONTINUOUS
 62
       3
100
AcDbLine
 10
-100.07183546
 20
-10.38788945
 30
0.0
 11
-100.25378675
 21
-10.63605745
 31
0.0
  0
LINE
  5
146
100
AcDbEntity
  8
レイヤー_1
  6
CONTINUOUS
 62
       3
100
AcDbLine
 10
-100.25378675
 20
-10.63605745
 30
0.0
 11
-100.41377371
 21
-10.90013155
 31
0.0
  0
LINE
  5
147
100
AcDbEntity
  8
レイヤー_1
  6
CONTINUOUS
 62
       3
100
AcDbLine
 10
-100.41377371
 20
-10.90013155
 30
0.0
 11
-100.55045078
 21
-11.17876666
 31
0.0
  0
LINE
  5
148
100
AcDbEntity
  8
レイヤー_1
  6
CONTINUOUS
 62
       3
100
AcDbLine
 10
-100.55045078
 20
-11.17876666
 30
0.0
 11
-100.66247237
 21
-11.47061767
 31
0.0
  0
LINE
  5
149
100
AcDbEntity
  8
レイヤー_1
  6
CONTINUOUS
 62
       3
100
AcDbLine
 10
-100.66247237
 20
-11.47061767
 30
0.0
 11
-100.74849291
 21
-11.7743395
 31
0.0
  0
LINE
  5
14A
100
AcDbEntity
  8
レイヤー_1
  6
CONTINUOUS
 62
       3
100
AcDbLine
 10
-100.74849291
 20
-11.7743395
 30
0.0
 11
-100.80716682
 21
-12.08858705
 31
0.0
  0
LINE
  5
14B
100
AcDbEntity
  8
レイヤー_1
  6
CONTINUOUS
 62
       3
100
AcDbLine
 10
-100.80716682
 20
-12.08858705
 30
0.0
 11
-100.83714853
 21
-12.41201522
 31
0.0
  0
LINE
  5
14C
100
AcDbEntity
  8
レイヤー_1
  6
CONTINUOUS
 62
       3
100
AcDbLine
 10
-100.83714853
 20
-12.41201522
 30
0.0
 11
-100.83714853
 21
-12.74152405
 31
0.0
  0
LINE
  5
14D
100
AcDbEntity
  8
レイヤー_1
  6
CONTINUOUS
 62
       3
100
AcDbLine
 10
-100.83714853
 20
-12.74152405
 30
0.0
 11
-100.80716682
 21
-13.06501788
 31
0.0
  0
LINE
  5
14E
100
AcDbEntity
  8
レイヤー_1
  6
CONTINUOUS
 62
       3
100
AcDbLine
 10
-100.80716682
 20
-13.06501788
 30
0.0
 11
-100.74849291
 21
-13.37932336
 31
0.0
  0
LINE
  5
14F
100
AcDbEntity
  8
レイヤー_1
  6
CONTINUOUS
 62
       3
100
AcDbLine
 10
-100.74849291
 20
-13.37932336
 30
0.0
 11
-100.66247237
 21
-13.68309589
 31
0.0
  0
LINE
  5
150
100
AcDbEntity
  8
レイヤー_1
  6
CONTINUOUS
 62
       3
100
AcDbLine
 10
-100.66247237
 20
-13.68309589
 30
0.0
 11
-100.55045078
 21
-13.97499085
 31
0.0
  0
LINE
  5
151
100
AcDbEntity
  8
レイヤー_1
  6
CONTINUOUS
 62
       3
100
AcDbLine
 10
-100.55045078
 20
-13.97499085
 30
0.0
 11
-100.41377371
 21
-14.25366364
 31
0.0
  0
LINE
  5
152
100
AcDbEntity
  8
レイヤー_1
  6
CONTINUOUS
 62
       3
100
AcDbLine
 10
-100.41377371
 20
-14.25366364
 30
0.0
 11
-100.25378675
 21
-14.51776964
 31
0.0
  0
LINE
  5
153
100
AcDbEntity
  8
レイヤー_1
  6
CONTINUOUS
 62
       3
100
AcDbLine
 10
-100.25378675
 20
-14.51776964
 30
0.0
 11
-100.07183546
 21
-14.76596425
 31
0.0
  0
LINE
  5
154
100
AcDbEntity
  8
レイヤー_1
  6
CONTINUOUS
 62
       3
100
AcDbLine
 10
-100.07183546
 20
-14.76596425
 30
0.0
 11
-99.86926544
 21
-14.99690284
 31
0.0
  0
LINE
  5
155
100
AcDbEntity
  8
レイヤー_1
  6
CONTINUOUS
 62
       3
100
AcDbLine
 10
-99.86926544
 20
-14.99690284
 30
0.0
 11
-99.64742225
 21
-15.20924081
 31
0.0
  0
LINE
  5
156
100
AcDbEntity
  8
レイヤー_1
  6
CONTINUOUS
 62
       3
100
AcDbLine
 10
-99.64742225
 20
-15.20924081
 30
0.0
 11
-99.40765146
 21
-15.40163354
 31
0.0
  0
LINE
  5
157
100
AcDbEntity
  8
レイヤー_1
  6
CONTINUOUS
 62
       3
100
AcDbLine
 10
-99.40765146
 20
-15.40163354
 30
0.0
 11
-99.15129864
 21
-15.57273643
 31
0.0
  0
LINE
  5
158
100
AcDbEntity
  8
レイヤー_1
  6
CONTINUOUS
 62
       3
100
AcDbLine
 10
-99.15129864
 20
-15.57273643
 30
0.0
 11
-98.87970939
 21
-15.72120485
 31
0.0
  0
LINE
  5
159
100
AcDbEntity
  8
レイヤー_1
  6
CONTINUOUS
 62
       3
100
AcDbLine
 10
-98.87970939
 20
-15.72120485
 30
0.0
 11
-98.59422928
 21
-15.84569421
 31
0.0
  0
LINE
  5
15A
100
AcDbEntity
  8
レイヤー_1
  6
CONTINUOUS
 62
       3
100
AcDbLine
 10
-98.59422928
 20
-15.84569421
 30
0.0
 11
-98.29620386
 21
-15.94485989
 31
0.0
  0
LINE
  5
15B
100
AcDbEntity
  8
レイヤー_1
  6
CONTINUOUS
 62
       3
100
AcDbLine
 10
-98.29620386
 20
-15.94485989
 30
0.0
 11
-97.98697875
 21
-16.01735728
 31
0.0
  0
LINE
  5
15C
100
AcDbEntity
  8
レイヤー_1
  6
CONTINUOUS
 62
       3
100
AcDbLine
 10
-97.98697875
 20
-16.01735728
 30
0.0
 11
-97.66789948
 21
-16.06184175
 31
0.0
  0
LINE
  5
15D
100
AcDbEntity
  8
レイヤー_1
  6
CONTINUOUS
 62
       3
100
AcDbLine
 10
-97.66789948
 20
-16.06184175
 30
0.0
 11
-97.34031167
 21
-16.07696872
 31
0.0
  0
LINE
  5
15E
100
AcDbEntity
  8
レイヤー_1
  6
CONTINUOUS
 62
       3
100
AcDbLine
 10
-97.34031167
 20
-16.07696872
 30
0.0
 11
-97.01273602
 21
-16.06184175
 31
0.0
  0
LINE
  5
15F
100
AcDbEntity
  8
レイヤー_1
  6
CONTINUOUS
 62
       3
100
AcDbLine
 10
-97.01273602
 20
-16.06184175
 30
0.0
 11
-96.69369134
 21
-16.01735728
 31
0.0
  0
LINE
  5
160
100
AcDbEntity
  8
レイヤー_1
  6
CONTINUOUS
 62
       3
100
AcDbLine
 10
-96.69369134
 20
-16.01735728
 30
0.0
 11
-96.38452034
 21
-15.94485989
 31
0.0
  0
LINE
  5
161
100
AcDbEntity
  8
レイヤー_1
  6
CONTINUOUS
 62
       3
100
AcDbLine
 10
-96.38452034
 20
-15.94485989
 30
0.0
 11
-96.08656569
 21
-15.84569421
 31
0.0
  0
LINE
  5
162
100
AcDbEntity
  8
レイヤー_1
  6
CONTINUOUS
 62
       3
100
AcDbLine
 10
-96.08656569
 20
-15.84569421
 30
0.0
 11
-95.80117006
 21
-15.72120485
 31
0.0
  0
LINE
  5
163
100
AcDbEntity
  8
レイヤー_1
  6
CONTINUOUS
 62
       3
100
AcDbLine
 10
-95.80117006
 20
-15.72120485
 30
0.0
 11
-95.52967614
 21
-15.57273643
 31
0.0
  0
LINE
  5
164
100
AcDbEntity
  8
レイヤー_1
  6
CONTINUOUS
 62
       3
100
AcDbLine
 10
-95.52967614
 20
-15.57273643
 30
0.0
 11
-95.27342663
 21
-15.40163354
 31
0.0
  0
LINE
  5
165
100
AcDbEntity
  8
レイヤー_1
  6
CONTINUOUS
 62
       3
100
AcDbLine
 10
-95.27342663
 20
-15.40163354
 30
0.0
 11
-95.0337642
 21
-15.20924081
 31
0.0
  0
LINE
  5
166
100
AcDbEntity
  8
レイヤー_1
  6
CONTINUOUS
 62
       3
100
AcDbLine
 10
-95.0337642
 20
-15.20924081
 30
0.0
 11
-94.81203152
 21
-14.99690284
 31
0.0
  0
LINE
  5
167
100
AcDbEntity
  8
レイヤー_1
  6
CONTINUOUS
 62
       3
100
AcDbLine
 10
-94.81203152
 20
-14.99690284
 30
0.0
 11
-94.60957129
 21
-14.76596425
 31
0.0
  0
LINE
  5
168
100
AcDbEntity
  8
レイヤー_1
  6
CONTINUOUS
 62
       3
100
AcDbLine
 10
-94.60957129
 20
-14.76596425
 30
0.0
 11
-94.42772619
 21
-14.51776964
 31
0.0
  0
LINE
  5
169
100
AcDbEntity
  8
レイヤー_1
  6
CONTINUOUS
 62
       3
100
AcDbLine
 10
-94.42772619
 20
-14.51776964
 30
0.0
 11
-94.26783891
 21
-14.25366364
 31
0.0
  0
LINE
  5
16A
100
AcDbEntity
  8
レイヤー_1
  6
CONTINUOUS
 62
       3
100
AcDbLine
 10
-94.26783891
 20
-14.25366364
 30
0.0
 11
-94.13125213
 21
-13.97499085
 31
0.0
  0
LINE
  5
16B
100
AcDbEntity
  8
レイヤー_1
  6
CONTINUOUS
 62
       3
100
AcDbLine
 10
-94.13125213
 20
-13.97499085
 30
0.0
 11
-94.01930852
 21
-13.68309589
 31
0.0
  0
LINE
  5
16C
100
AcDbEntity
  8
レイヤー_1
  6
CONTINUOUS
 62
       3
100
AcDbLine
 10
-94.01930852
 20
-13.68309589
 30
0.0
 11
-93.93335078
 21
-13.37932336
 31
0.0
  0
LINE
  5
16D
100
AcDbEntity
  8
レイヤー_1
  6
CONTINUOUS
 62
       3
100
AcDbLine
 10
-93.93335078
 20
-13.37932336
 30
0.0
 11
-93.87472157
 21
-13.06501788
 31
0.0
  0
LINE
  5
16E
100
AcDbEntity
  8
レイヤー_1
  6
CONTINUOUS
 62
       3
100
AcDbLine
 10
-93.87472157
 20
-13.06501788
 30
0.0
 11
-93.8447636
 21
-12.74152405
 31
0.0
  0
LINE
  5
16F
100
AcDbEntity
  8
レイヤー_1
  6
CONTINUOUS
 62
       3
100
AcDbLine
 10
-93.8447636
 20
-12.74152405
 30
0.0
 11
-93.8447636
 21
-12.41201522
 31
0.0
  0
LINE
  5
170
100
AcDbEntity
  8
レイヤー_1
  6
CONTINUOUS
 62
       3
100
AcDbLine
 10
-93.8447636
 20
-12.41201522
 30
0.0
 11
-93.87472157
 21
-12.08858705
 31
0.0
  0
LINE
  5
171
100
AcDbEntity
  8
レイヤー_1
  6
CONTINUOUS
 62
       3
100
AcDbLine
 10
-93.87472157
 20
-12.08858705
 30
0.0
 11
-93.93335078
 21
-11.7743395
 31
0.0
  0
LINE
  5
172
100
AcDbEntity
  8
レイヤー_1
  6
CONTINUOUS
 62
       3
100
AcDbLine
 10
-93.93335078
 20
-11.7743395
 30
0.0
 11
-94.01930852
 21
-11.47061767
 31
0.0
  0
LINE
  5
173
100
AcDbEntity
  8
レイヤー_1
  6
CONTINUOUS
 62
       3
100
AcDbLine
 10
-94.01930852
 20
-11.47061767
 30
0.0
 11
-94.13125213
 21
-11.17876666
 31
0.0
  0
LINE
  5
174
100
AcDbEntity
  8
レイヤー_1
  6
CONTINUOUS
 62
       3
100
AcDbLine
 10
-94.13125213
 20
-11.17876666
 30
0.0
 11
-94.26783891
 21
-10.90013155
 31
0.0
  0
LINE
  5
175
100
AcDbEntity
  8
レイヤー_1
  6
CONTINUOUS
 62
       3
100
AcDbLine
 10
-94.26783891
 20
-10.90013155
 30
0.0
 11
-94.42772619
 21
-10.63605745
 31
0.0
  0
LINE
  5
176
100
AcDbEntity
  8
レイヤー_1
  6
CONTINUOUS
 62
       3
100
AcDbLine
 10
-94.42772619
 20
-10.63605745
 30
0.0
 11
-94.60957129
 21
-10.38788945
 31
0.0
  0
LINE
  5
177
100
AcDbEntity
  8
レイヤー_1
  6
CONTINUOUS
 62
       3
100
AcDbLine
 10
-94.60957129
 20
-10.38788945
 30
0.0
 11
-94.81203152
 21
-10.15697263
 31
0.0
  0
LINE
  5
178
100
AcDbEntity
  8
レイヤー_1
  6
CONTINUOUS
 62
       3
100
AcDbLine
 10
-94.81203152
 20
-10.15697263
 30
0.0
 11
-95.0337642
 21
-9.9446521
 31
0.0
  0
LINE
  5
179
100
AcDbEntity
  8
レイヤー_1
  6
CONTINUOUS
 62
       3
100
AcDbLine
 10
-95.0337642
 20
-9.9446521
 30
0.0
 11
-95.27342663
 21
-9.75227294
 31
0.0
  0
LINE
  5
17A
100
AcDbEntity
  8
レイヤー_1
  6
CONTINUOUS
 62
       3
100
AcDbLine
 10
-95.27342663
 20
-9.75227294
 30
0.0
 11
-95.52967614
 21
-9.58118026
 31
0.0
  0
LINE
  5
17B
100
AcDbEntity
  8
レイヤー_1
  6
CONTINUOUS
 62
       3
100
AcDbLine
 10
-95.52967614
 20
-9.58118026
 30
0.0
 11
-95.80117006
 21
-9.43271915
 31
0.0
  0
LINE
  5
17C
100
AcDbEntity
  8
レイヤー_1
  6
CONTINUOUS
 62
       3
100
AcDbLine
 10
-95.80117006
 20
-9.43271915
 30
0.0
 11
-96.08656569
 21
-9.30823469
 31
0.0
  0
LINE
  5
17D
100
AcDbEntity
  8
レイヤー_1
  6
CONTINUOUS
 62
       3
100
AcDbLine
 10
-96.08656569
 20
-9.30823469
 30
0.0
 11
-96.38452034
 21
-9.20907198
 31
0.0
  0
LINE
  5
17E
100
AcDbEntity
  8
レイヤー_1
  6
CONTINUOUS
 62
       3
100
AcDbLine
 10
-96.38452034
 20
-9.20907198
 30
0.0
 11
-96.69369134
 21
-9.13657613
 31
0.0
  0
LINE
  5
17F
100
AcDbEntity
  8
レイヤー_1
  6
CONTINUOUS
 62
       3
100
AcDbLine
 10
-96.69369134
 20
-9.13657613
 30
0.0
 11
-97.01273602
 21
-9.09209221
 31
0.0
  0
LINE
  5
180
100
AcDbEntity
  8
レイヤー_1
  6
CONTINUOUS
 62
       3
100
AcDbLine
 10
-97.01273602
 20
-9.09209221
 30
0.0
 11
-97.34031167
 21
-9.07696533
 31
0.0
  0
LINE
  5
181
100
AcDbEntity
  8
レイヤー_1
  6
CONTINUOUS
 62
       3
100
AcDbLine
 10
-91.39493813
 20
-25.71505397
 30
0.0
 11
-91.72258347
 21
-25.73017282
 31
0.0
  0
LINE
  5
182
100
AcDbEntity
  8
レイヤー_1
  6
CONTINUOUS
 62
       3
100
AcDbLine
 10
-91.72258347
 20
-25.73017282
 30
0.0
 11
-92.04168986
 21
-25.77463424
 31
0.0
  0
LINE
  5
183
100
AcDbEntity
  8
レイヤー_1
  6
CONTINUOUS
 62
       3
100
AcDbLine
 10
-92.04168986
 20
-25.77463424
 30
0.0
 11
-92.35091513
 21
-25.84709554
 31
0.0
  0
LINE
  5
184
100
AcDbEntity
  8
レイヤー_1
  6
CONTINUOUS
 62
       3
100
AcDbLine
 10
-92.35091513
 20
-25.84709554
 30
0.0
 11
-92.64891705
 21
-25.94621406
 31
0.0
  0
LINE
  5
185
100
AcDbEntity
  8
レイヤー_1
  6
CONTINUOUS
 62
       3
100
AcDbLine
 10
-92.64891705
 20
-25.94621406
 30
0.0
 11
-92.93435343
 21
-26.07064709
 31
0.0
  0
LINE
  5
186
100
AcDbEntity
  8
レイヤー_1
  6
CONTINUOUS
 62
       3
100
AcDbLine
 10
-92.93435343
 20
-26.07064709
 30
0.0
 11
-93.20588209
 21
-26.21905196
 31
0.0
  0
LINE
  5
187
100
AcDbEntity
  8
レイヤー_1
  6
CONTINUOUS
 62
       3
100
AcDbLine
 10
-93.20588209
 20
-26.21905196
 30
0.0
 11
-93.46216079
 21
-26.39008598
 31
0.0
  0
LINE
  5
188
100
AcDbEntity
  8
レイヤー_1
  6
CONTINUOUS
 62
       3
100
AcDbLine
 10
-93.46216079
 20
-26.39008598
 30
0.0
 11
-93.70184735
 21
-26.58240648
 31
0.0
  0
LINE
  5
189
100
AcDbEntity
  8
レイヤー_1
  6
CONTINUOUS
 62
       3
100
AcDbLine
 10
-93.70184735
 20
-26.58240648
 30
0.0
 11
-93.92359956
 21
-26.79467077
 31
0.0
  0
LINE
  5
18A
100
AcDbEntity
  8
レイヤー_1
  6
CONTINUOUS
 62
       3
100
AcDbLine
 10
-93.92359956
 20
-26.79467077
 30
0.0
 11
-94.12607525
 21
-27.02553616
 31
0.0
  0
LINE
  5
18B
100
AcDbEntity
  8
レイヤー_1
  6
CONTINUOUS
 62
       3
100
AcDbLine
 10
-94.12607525
 20
-27.02553616
 30
0.0
 11
-94.30793217
 21
-27.27365997
 31
0.0
  0
LINE
  5
18C
100
AcDbEntity
  8
レイヤー_1
  6
CONTINUOUS
 62
       3
100
AcDbLine
 10
-94.30793217
 20
-27.27365997
 30
0.0
 11
-94.46782816
 21
-27.53769952
 31
0.0
  0
LINE
  5
18D
100
AcDbEntity
  8
レイヤー_1
  6
CONTINUOUS
 62
       3
100
AcDbLine
 10
-94.46782816
 20
-27.53769952
 30
0.0
 11
-94.60442098
 21
-27.81631212
 31
0.0
  0
LINE
  5
18E
100
AcDbEntity
  8
レイヤー_1
  6
CONTINUOUS
 62
       3
100
AcDbLine
 10
-94.60442098
 20
-27.81631212
 30
0.0
 11
-94.71636847
 21
-28.1081551
 31
0.0
  0
LINE
  5
18F
100
AcDbEntity
  8
レイヤー_1
  6
CONTINUOUS
 62
       3
100
AcDbLine
 10
-94.71636847
 20
-28.1081551
 30
0.0
 11
-94.8023284
 21
-28.41188577
 31
0.0
  0
LINE
  5
190
100
AcDbEntity
  8
レイヤー_1
  6
CONTINUOUS
 62
       3
100
AcDbLine
 10
-94.8023284
 20
-28.41188577
 30
0.0
 11
-94.86095858
 21
-28.72616144
 31
0.0
  0
LINE
  5
191
100
AcDbEntity
  8
レイヤー_1
  6
CONTINUOUS
 62
       3
100
AcDbLine
 10
-94.86095858
 20
-28.72616144
 30
0.0
 11
-94.89091681
 21
-29.04963943
 31
0.0
  0
LINE
  5
192
100
AcDbEntity
  8
レイヤー_1
  6
CONTINUOUS
 62
       3
100
AcDbLine
 10
-94.89091681
 20
-29.04963943
 30
0.0
 11
-94.89091681
 21
-29.37918103
 31
0.0
  0
LINE
  5
193
100
AcDbEntity
  8
レイヤー_1
  6
CONTINUOUS
 62
       3
100
AcDbLine
 10
-94.89091681
 20
-29.37918103
 30
0.0
 11
-94.86095858
 21
-29.70266694
 31
0.0
  0
LINE
  5
194
100
AcDbEntity
  8
レイヤー_1
  6
CONTINUOUS
 62
       3
100
AcDbLine
 10
-94.86095858
 20
-29.70266694
 30
0.0
 11
-94.8023284
 21
-30.01695751
 31
0.0
  0
LINE
  5
195
100
AcDbEntity
  8
レイヤー_1
  6
CONTINUOUS
 62
       3
100
AcDbLine
 10
-94.8023284
 20
-30.01695751
 30
0.0
 11
-94.71636847
 21
-30.32070911
 31
0.0
  0
LINE
  5
196
100
AcDbEntity
  8
レイヤー_1
  6
CONTINUOUS
 62
       3
100
AcDbLine
 10
-94.71636847
 20
-30.32070911
 30
0.0
 11
-94.60442098
 21
-30.61257808
 31
0.0
  0
LINE
  5
197
100
AcDbEntity
  8
レイヤー_1
  6
CONTINUOUS
 62
       3
100
AcDbLine
 10
-94.60442098
 20
-30.61257808
 30
0.0
 11
-94.46782816
 21
-30.89122078
 31
0.0
  0
LINE
  5
198
100
AcDbEntity
  8
レイヤー_1
  6
CONTINUOUS
 62
       3
100
AcDbLine
 10
-94.46782816
 20
-30.89122078
 30
0.0
 11
-94.30793217
 21
-31.15529356
 31
0.0
  0
LINE
  5
199
100
AcDbEntity
  8
レイヤー_1
  6
CONTINUOUS
 62
       3
100
AcDbLine
 10
-94.30793217
 20
-31.15529356
 30
0.0
 11
-94.12607525
 21
-31.40345276
 31
0.0
  0
LINE
  5
19A
100
AcDbEntity
  8
レイヤー_1
  6
CONTINUOUS
 62
       3
100
AcDbLine
 10
-94.12607525
 20
-31.40345276
 30
0.0
 11
-93.92359956
 21
-31.63435475
 31
0.0
  0
LINE
  5
19B
100
AcDbEntity
  8
レイヤー_1
  6
CONTINUOUS
 62
       3
100
AcDbLine
 10
-93.92359956
 20
-31.63435475
 30
0.0
 11
-93.70184735
 21
-31.84665588
 31
0.0
  0
LINE
  5
19C
100
AcDbEntity
  8
レイヤー_1
  6
CONTINUOUS
 62
       3
100
AcDbLine
 10
-93.70184735
 20
-31.84665588
 30
0.0
 11
-93.46216079
 21
-32.0390125
 31
0.0
  0
LINE
  5
19D
100
AcDbEntity
  8
レイヤー_1
  6
CONTINUOUS
 62
       3
100
AcDbLine
 10
-93.46216079
 20
-32.0390125
 30
0.0
 11
-93.20588209
 21
-32.21008095
 31
0.0
  0
LINE
  5
19E
100
AcDbEntity
  8
レイヤー_1
  6
CONTINUOUS
 62
       3
100
AcDbLine
 10
-93.20588209
 20
-32.21008095
 30
0.0
 11
-92.93435343
 21
-32.3585176
 31
0.0
  0
LINE
  5
19F
100
AcDbEntity
  8
レイヤー_1
  6
CONTINUOUS
 62
       3
100
AcDbLine
 10
-92.93435343
 20
-32.3585176
 30
0.0
 11
-92.64891705
 21
-32.4829788
 31
0.0
  0
LINE
  5
1A0
100
AcDbEntity
  8
レイヤー_1
  6
CONTINUOUS
 62
       3
100
AcDbLine
 10
-92.64891705
 20
-32.4829788
 30
0.0
 11
-92.35091513
 21
-32.58212089
 31
0.0
  0
LINE
  5
1A1
100
AcDbEntity
  8
レイヤー_1
  6
CONTINUOUS
 62
       3
100
AcDbLine
 10
-92.35091513
 20
-32.58212089
 30
0.0
 11
-92.04168986
 21
-32.65460024
 31
0.0
  0
LINE
  5
1A2
100
AcDbEntity
  8
レイヤー_1
  6
CONTINUOUS
 62
       3
100
AcDbLine
 10
-92.04168986
 20
-32.65460024
 30
0.0
 11
-91.72258347
 21
-32.69907318
 31
0.0
  0
LINE
  5
1A3
100
AcDbEntity
  8
レイヤー_1
  6
CONTINUOUS
 62
       3
100
AcDbLine
 10
-91.72258347
 20
-32.69907318
 30
0.0
 11
-91.39493813
 21
-32.71419609
 31
0.0
  0
LINE
  5
1A4
100
AcDbEntity
  8
レイヤー_1
  6
CONTINUOUS
 62
       3
100
AcDbLine
 10
-91.39493813
 20
-32.71419609
 30
0.0
 11
-91.06749373
 21
-32.69907318
 31
0.0
  0
LINE
  5
1A5
100
AcDbEntity
  8
レイヤー_1
  6
CONTINUOUS
 62
       3
100
AcDbLine
 10
-91.06749373
 20
-32.69907318
 30
0.0
 11
-90.74854946
 21
-32.65460024
 31
0.0
  0
LINE
  5
1A6
100
AcDbEntity
  8
レイヤー_1
  6
CONTINUOUS
 62
       3
100
AcDbLine
 10
-90.74854946
 20
-32.65460024
 30
0.0
 11
-90.43945091
 21
-32.58212089
 31
0.0
  0
LINE
  5
1A7
100
AcDbEntity
  8
レイヤー_1
  6
CONTINUOUS
 62
       3
100
AcDbLine
 10
-90.43945091
 20
-32.58212089
 30
0.0
 11
-90.14154362
 21
-32.4829788
 31
0.0
  0
LINE
  5
1A8
100
AcDbEntity
  8
レイヤー_1
  6
CONTINUOUS
 62
       3
100
AcDbLine
 10
-90.14154362
 20
-32.4829788
 30
0.0
 11
-89.85617318
 21
-32.3585176
 31
0.0
  0
LINE
  5
1A9
100
AcDbEntity
  8
レイヤー_1
  6
CONTINUOUS
 62
       3
100
AcDbLine
 10
-89.85617318
 20
-32.3585176
 30
0.0
 11
-89.58468516
 21
-32.21008095
 31
0.0
  0
LINE
  5
1AA
100
AcDbEntity
  8
レイヤー_1
  6
CONTINUOUS
 62
       3
100
AcDbLine
 10
-89.58468516
 20
-32.21008095
 30
0.0
 11
-89.32842516
 21
-32.0390125
 31
0.0
  0
LINE
  5
1AB
100
AcDbEntity
  8
レイヤー_1
  6
CONTINUOUS
 62
       3
100
AcDbLine
 10
-89.32842516
 20
-32.0390125
 30
0.0
 11
-89.08873875
 21
-31.84665588
 31
0.0
  0
LINE
  5
1AC
100
AcDbEntity
  8
レイヤー_1
  6
CONTINUOUS
 62
       3
100
AcDbLine
 10
-89.08873875
 20
-31.84665588
 30
0.0
 11
-88.86697148
 21
-31.63435475
 31
0.0
  0
LINE
  5
1AD
100
AcDbEntity
  8
レイヤー_1
  6
CONTINUOUS
 62
       3
100
AcDbLine
 10
-88.86697148
 20
-31.63435475
 30
0.0
 11
-88.66446895
 21
-31.40345276
 31
0.0
  0
LINE
  5
1AE
100
AcDbEntity
  8
レイヤー_1
  6
CONTINUOUS
 62
       3
100
AcDbLine
 10
-88.66446895
 20
-31.40345276
 30
0.0
 11
-88.48257673
 21
-31.15529356
 31
0.0
  0
LINE
  5
1AF
100
AcDbEntity
  8
レイヤー_1
  6
CONTINUOUS
 62
       3
100
AcDbLine
 10
-88.48257673
 20
-31.15529356
 30
0.0
 11
-88.32264039
 21
-30.89122078
 31
0.0
  0
LINE
  5
1B0
100
AcDbEntity
  8
レイヤー_1
  6
CONTINUOUS
 62
       3
100
AcDbLine
 10
-88.32264039
 20
-30.89122078
 30
0.0
 11
-88.1860055
 21
-30.61257808
 31
0.0
  0
LINE
  5
1B1
100
AcDbEntity
  8
レイヤー_1
  6
CONTINUOUS
 62
       3
100
AcDbLine
 10
-88.1860055
 20
-30.61257808
 30
0.0
 11
-88.07401767
 21
-30.32070911
 31
0.0
  0
LINE
  5
1B2
100
AcDbEntity
  8
レイヤー_1
  6
CONTINUOUS
 62
       3
100
AcDbLine
 10
-88.07401767
 20
-30.32070911
 30
0.0
 11
-87.98802244
 21
-30.01695751
 31
0.0
  0
LINE
  5
1B3
100
AcDbEntity
  8
レイヤー_1
  6
CONTINUOUS
 62
       3
100
AcDbLine
 10
-87.98802244
 20
-30.01695751
 30
0.0
 11
-87.92936539
 21
-29.70266694
 31
0.0
  0
LINE
  5
1B4
100
AcDbEntity
  8
レイヤー_1
  6
CONTINUOUS
 62
       3
100
AcDbLine
 10
-87.92936539
 20
-29.70266694
 30
0.0
 11
-87.89939212
 21
-29.37918103
 31
0.0
  0
LINE
  5
1B5
100
AcDbEntity
  8
レイヤー_1
  6
CONTINUOUS
 62
       3
100
AcDbLine
 10
-87.89939212
 20
-29.37918103
 30
0.0
 11
-87.89939212
 21
-29.04963943
 31
0.0
  0
LINE
  5
1B6
100
AcDbEntity
  8
レイヤー_1
  6
CONTINUOUS
 62
       3
100
AcDbLine
 10
-87.89939212
 20
-29.04963943
 30
0.0
 11
-87.92936539
 21
-28.72616144
 31
0.0
  0
LINE
  5
1B7
100
AcDbEntity
  8
レイヤー_1
  6
CONTINUOUS
 62
       3
100
AcDbLine
 10
-87.92936539
 20
-28.72616144
 30
0.0
 11
-87.98802244
 21
-28.41188577
 31
0.0
  0
LINE
  5
1B8
100
AcDbEntity
  8
レイヤー_1
  6
CONTINUOUS
 62
       3
100
AcDbLine
 10
-87.98802244
 20
-28.41188577
 30
0.0
 11
-88.07401767
 21
-28.1081551
 31
0.0
  0
LINE
  5
1B9
100
AcDbEntity
  8
レイヤー_1
  6
CONTINUOUS
 62
       3
100
AcDbLine
 10
-88.07401767
 20
-28.1081551
 30
0.0
 11
-88.1860055
 21
-27.81631212
 31
0.0
  0
LINE
  5
1BA
100
AcDbEntity
  8
レイヤー_1
  6
CONTINUOUS
 62
       3
100
AcDbLine
 10
-88.1860055
 20
-27.81631212
 30
0.0
 11
-88.32264039
 21
-27.53769952
 31
0.0
  0
LINE
  5
1BB
100
AcDbEntity
  8
レイヤー_1
  6
CONTINUOUS
 62
       3
100
AcDbLine
 10
-88.32264039
 20
-27.53769952
 30
0.0
 11
-88.48257673
 21
-27.27365997
 31
0.0
  0
LINE
  5
1BC
100
AcDbEntity
  8
レイヤー_1
  6
CONTINUOUS
 62
       3
100
AcDbLine
 10
-88.48257673
 20
-27.27365997
 30
0.0
 11
-88.66446895
 21
-27.02553616
 31
0.0
  0
LINE
  5
1BD
100
AcDbEntity
  8
レイヤー_1
  6
CONTINUOUS
 62
       3
100
AcDbLine
 10
-88.66446895
 20
-27.02553616
 30
0.0
 11
-88.86697148
 21
-26.79467077
 31
0.0
  0
LINE
  5
1BE
100
AcDbEntity
  8
レイヤー_1
  6
CONTINUOUS
 62
       3
100
AcDbLine
 10
-88.86697148
 20
-26.79467077
 30
0.0
 11
-89.08873875
 21
-26.58240648
 31
0.0
  0
LINE
  5
1BF
100
AcDbEntity
  8
レイヤー_1
  6
CONTINUOUS
 62
       3
100
AcDbLine
 10
-89.08873875
 20
-26.58240648
 30
0.0
 11
-89.32842516
 21
-26.39008598
 31
0.0
  0
LINE
  5
1C0
100
AcDbEntity
  8
レイヤー_1
  6
CONTINUOUS
 62
       3
100
AcDbLine
 10
-89.32842516
 20
-26.39008598
 30
0.0
 11
-89.58468516
 21
-26.21905196
 31
0.0
  0
LINE
  5
1C1
100
AcDbEntity
  8
レイヤー_1
  6
CONTINUOUS
 62
       3
100
AcDbLine
 10
-89.58468516
 20
-26.21905196
 30
0.0
 11
-89.85617318
 21
-26.07064709
 31
0.0
  0
LINE
  5
1C2
100
AcDbEntity
  8
レイヤー_1
  6
CONTINUOUS
 62
       3
100
AcDbLine
 10
-89.85617318
 20
-26.07064709
 30
0.0
 11
-90.14154362
 21
-25.94621406
 31
0.0
  0
LINE
  5
1C3
100
AcDbEntity
  8
レイヤー_1
  6
CONTINUOUS
 62
       3
100
AcDbLine
 10
-90.14154362
 20
-25.94621406
 30
0.0
 11
-90.43945091
 21
-25.84709554
 31
0.0
  0
LINE
  5
1C4
100
AcDbEntity
  8
レイヤー_1
  6
CONTINUOUS
 62
       3
100
AcDbLine
 10
-90.43945091
 20
-25.84709554
 30
0.0
 11
-90.74854946
 21
-25.77463424
 31
0.0
  0
LINE
  5
1C5
100
AcDbEntity
  8
レイヤー_1
  6
CONTINUOUS
 62
       3
100
AcDbLine
 10
-90.74854946
 20
-25.77463424
 30
0.0
 11
-91.06749373
 21
-25.73017282
 31
0.0
  0
LINE
  5
1C6
100
AcDbEntity
  8
レイヤー_1
  6
CONTINUOUS
 62
       3
100
AcDbLine
 10
-91.06749373
 20
-25.73017282
 30
0.0
 11
-91.39493813
 21
-25.71505397
 31
0.0
  0
LINE
  5
1C7
100
AcDbEntity
  8
レイヤー_1
  6
CONTINUOUS
 62
       3
100
AcDbLine
 10
-79.59031846
 20
-25.71505397
 30
0.0
 11
-79.91790628
 21
-25.73017282
 31
0.0
  0
LINE
  5
1C8
100
AcDbEntity
  8
レイヤー_1
  6
CONTINUOUS
 62
       3
100
AcDbLine
 10
-79.91790628
 20
-25.73017282
 30
0.0
 11
-80.23698554
 21
-25.77463424
 31
0.0
  0
LINE
  5
1C9
100
AcDbEntity
  8
レイヤー_1
  6
CONTINUOUS
 62
       3
100
AcDbLine
 10
-80.23698554
 20
-25.77463424
 30
0.0
 11
-80.54621066
 21
-25.84709554
 31
0.0
  0
LINE
  5
1CA
100
AcDbEntity
  8
レイヤー_1
  6
CONTINUOUS
 62
       3
100
AcDbLine
 10
-80.54621066
 20
-25.84709554
 30
0.0
 11
-80.84423607
 21
-25.94621406
 31
0.0
  0
LINE
  5
1CB
100
AcDbEntity
  8
レイヤー_1
  6
CONTINUOUS
 62
       3
100
AcDbLine
 10
-80.84423607
 20
-25.94621406
 30
0.0
 11
-81.12971617
 21
-26.07064709
 31
0.0
  0
LINE
  5
1CC
100
AcDbEntity
  8
レイヤー_1
  6
CONTINUOUS
 62
       3
100
AcDbLine
 10
-81.12971617
 20
-26.07064709
 30
0.0
 11
-81.40130544
 21
-26.21905196
 31
0.0
  0
LINE
  5
1CD
100
AcDbEntity
  8
レイヤー_1
  6
CONTINUOUS
 62
       3
100
AcDbLine
 10
-81.40130544
 20
-26.21905196
 30
0.0
 11
-81.65765824
 21
-26.39008598
 31
0.0
  0
LINE
  5
1CE
100
AcDbEntity
  8
レイヤー_1
  6
CONTINUOUS
 62
       3
100
AcDbLine
 10
-81.65765824
 20
-26.39008598
 30
0.0
 11
-81.89742904
 21
-26.58240648
 31
0.0
  0
LINE
  5
1CF
100
AcDbEntity
  8
レイヤー_1
  6
CONTINUOUS
 62
       3
100
AcDbLine
 10
-81.89742904
 20
-26.58240648
 30
0.0
 11
-82.11927223
 21
-26.79467077
 31
0.0
  0
LINE
  5
1D0
100
AcDbEntity
  8
レイヤー_1
  6
CONTINUOUS
 62
       3
100
AcDbLine
 10
-82.11927223
 20
-26.79467077
 30
0.0
 11
-82.32184226
 21
-27.02553616
 31
0.0
  0
LINE
  5
1D1
100
AcDbEntity
  8
レイヤー_1
  6
CONTINUOUS
 62
       3
100
AcDbLine
 10
-82.32184226
 20
-27.02553616
 30
0.0
 11
-82.50379354
 21
-27.27365997
 31
0.0
  0
LINE
  5
1D2
100
AcDbEntity
  8
レイヤー_1
  6
CONTINUOUS
 62
       3
100
AcDbLine
 10
-82.50379354
 20
-27.27365997
 30
0.0
 11
-82.66378049
 21
-27.53769952
 31
0.0
  0
LINE
  5
1D3
100
AcDbEntity
  8
レイヤー_1
  6
CONTINUOUS
 62
       3
100
AcDbLine
 10
-82.66378049
 20
-27.53769952
 30
0.0
 11
-82.80045757
 21
-27.81631212
 31
0.0
  0
LINE
  5
1D4
100
AcDbEntity
  8
レイヤー_1
  6
CONTINUOUS
 62
       3
100
AcDbLine
 10
-82.80045757
 20
-27.81631212
 30
0.0
 11
-82.91247915
 21
-28.1081551
 31
0.0
  0
LINE
  5
1D5
100
AcDbEntity
  8
レイヤー_1
  6
CONTINUOUS
 62
       3
100
AcDbLine
 10
-82.91247915
 20
-28.1081551
 30
0.0
 11
-82.99849969
 21
-28.41188577
 31
0.0
  0
LINE
  5
1D6
100
AcDbEntity
  8
レイヤー_1
  6
CONTINUOUS
 62
       3
100
AcDbLine
 10
-82.99849969
 20
-28.41188577
 30
0.0
 11
-83.05717361
 21
-28.72616144
 31
0.0
  0
LINE
  5
1D7
100
AcDbEntity
  8
レイヤー_1
  6
CONTINUOUS
 62
       3
100
AcDbLine
 10
-83.05717361
 20
-28.72616144
 30
0.0
 11
-83.08715532
 21
-29.04963943
 31
0.0
  0
LINE
  5
1D8
100
AcDbEntity
  8
レイヤー_1
  6
CONTINUOUS
 62
       3
100
AcDbLine
 10
-83.08715532
 20
-29.04963943
 30
0.0
 11
-83.08715532
 21
-29.37918103
 31
0.0
  0
LINE
  5
1D9
100
AcDbEntity
  8
レイヤー_1
  6
CONTINUOUS
 62
       3
100
AcDbLine
 10
-83.08715532
 20
-29.37918103
 30
0.0
 11
-83.05717361
 21
-29.70266694
 31
0.0
  0
LINE
  5
1DA
100
AcDbEntity
  8
レイヤー_1
  6
CONTINUOUS
 62
       3
100
AcDbLine
 10
-83.05717361
 20
-29.70266694
 30
0.0
 11
-82.99849969
 21
-30.01695751
 31
0.0
  0
LINE
  5
1DB
100
AcDbEntity
  8
レイヤー_1
  6
CONTINUOUS
 62
       3
100
AcDbLine
 10
-82.99849969
 20
-30.01695751
 30
0.0
 11
-82.91247915
 21
-30.32070911
 31
0.0
  0
LINE
  5
1DC
100
AcDbEntity
  8
レイヤー_1
  6
CONTINUOUS
 62
       3
100
AcDbLine
 10
-82.91247915
 20
-30.32070911
 30
0.0
 11
-82.80045757
 21
-30.61257808
 31
0.0
  0
LINE
  5
1DD
100
AcDbEntity
  8
レイヤー_1
  6
CONTINUOUS
 62
       3
100
AcDbLine
 10
-82.80045757
 20
-30.61257808
 30
0.0
 11
-82.66378049
 21
-30.89122078
 31
0.0
  0
LINE
  5
1DE
100
AcDbEntity
  8
レイヤー_1
  6
CONTINUOUS
 62
       3
100
AcDbLine
 10
-82.66378049
 20
-30.89122078
 30
0.0
 11
-82.50379354
 21
-31.15529356
 31
0.0
  0
LINE
  5
1DF
100
AcDbEntity
  8
レイヤー_1
  6
CONTINUOUS
 62
       3
100
AcDbLine
 10
-82.50379354
 20
-31.15529356
 30
0.0
 11
-82.32184226
 21
-31.40345276
 31
0.0
  0
LINE
  5
1E0
100
AcDbEntity
  8
レイヤー_1
  6
CONTINUOUS
 62
       3
100
AcDbLine
 10
-82.32184226
 20
-31.40345276
 30
0.0
 11
-82.11927223
 21
-31.63435475
 31
0.0
  0
LINE
  5
1E1
100
AcDbEntity
  8
レイヤー_1
  6
CONTINUOUS
 62
       3
100
AcDbLine
 10
-82.11927223
 20
-31.63435475
 30
0.0
 11
-81.89742904
 21
-31.84665588
 31
0.0
  0
LINE
  5
1E2
100
AcDbEntity
  8
レイヤー_1
  6
CONTINUOUS
 62
       3
100
AcDbLine
 10
-81.89742904
 20
-31.84665588
 30
0.0
 11
-81.65765824
 21
-32.0390125
 31
0.0
  0
LINE
  5
1E3
100
AcDbEntity
  8
レイヤー_1
  6
CONTINUOUS
 62
       3
100
AcDbLine
 10
-81.65765824
 20
-32.0390125
 30
0.0
 11
-81.40130544
 21
-32.21008095
 31
0.0
  0
LINE
  5
1E4
100
AcDbEntity
  8
レイヤー_1
  6
CONTINUOUS
 62
       3
100
AcDbLine
 10
-81.40130544
 20
-32.21008095
 30
0.0
 11
-81.12971617
 21
-32.3585176
 31
0.0
  0
LINE
  5
1E5
100
AcDbEntity
  8
レイヤー_1
  6
CONTINUOUS
 62
       3
100
AcDbLine
 10
-81.12971617
 20
-32.3585176
 30
0.0
 11
-80.84423607
 21
-32.4829788
 31
0.0
  0
LINE
  5
1E6
100
AcDbEntity
  8
レイヤー_1
  6
CONTINUOUS
 62
       3
100
AcDbLine
 10
-80.84423607
 20
-32.4829788
 30
0.0
 11
-80.54621066
 21
-32.58212089
 31
0.0
  0
LINE
  5
1E7
100
AcDbEntity
  8
レイヤー_1
  6
CONTINUOUS
 62
       3
100
AcDbLine
 10
-80.54621066
 20
-32.58212089
 30
0.0
 11
-80.23698554
 21
-32.65460024
 31
0.0
  0
LINE
  5
1E8
100
AcDbEntity
  8
レイヤー_1
  6
CONTINUOUS
 62
       3
100
AcDbLine
 10
-80.23698554
 20
-32.65460024
 30
0.0
 11
-79.91790628
 21
-32.69907318
 31
0.0
  0
LINE
  5
1E9
100
AcDbEntity
  8
レイヤー_1
  6
CONTINUOUS
 62
       3
100
AcDbLine
 10
-79.91790628
 20
-32.69907318
 30
0.0
 11
-79.59031846
 21
-32.71419609
 31
0.0
  0
LINE
  5
1EA
100
AcDbEntity
  8
レイヤー_1
  6
CONTINUOUS
 62
       3
100
AcDbLine
 10
-79.59031846
 20
-32.71419609
 30
0.0
 11
-79.26274281
 21
-32.69907318
 31
0.0
  0
LINE
  5
1EB
100
AcDbEntity
  8
レイヤー_1
  6
CONTINUOUS
 62
       3
100
AcDbLine
 10
-79.26274281
 20
-32.69907318
 30
0.0
 11
-78.94369814
 21
-32.65460024
 31
0.0
  0
LINE
  5
1EC
100
AcDbEntity
  8
レイヤー_1
  6
CONTINUOUS
 62
       3
100
AcDbLine
 10
-78.94369814
 20
-32.65460024
 30
0.0
 11
-78.63452713
 21
-32.58212089
 31
0.0
  0
LINE
  5
1ED
100
AcDbEntity
  8
レイヤー_1
  6
CONTINUOUS
 62
       3
100
AcDbLine
 10
-78.63452713
 20
-32.58212089
 30
0.0
 11
-78.33657247
 21
-32.4829788
 31
0.0
  0
LINE
  5
1EE
100
AcDbEntity
  8
レイヤー_1
  6
CONTINUOUS
 62
       3
100
AcDbLine
 10
-78.33657247
 20
-32.4829788
 30
0.0
 11
-78.05117685
 21
-32.3585176
 31
0.0
  0
LINE
  5
1EF
100
AcDbEntity
  8
レイヤー_1
  6
CONTINUOUS
 62
       3
100
AcDbLine
 10
-78.05117685
 20
-32.3585176
 30
0.0
 11
-77.77968294
 21
-32.21008095
 31
0.0
  0
LINE
  5
1F0
100
AcDbEntity
  8
レイヤー_1
  6
CONTINUOUS
 62
       3
100
AcDbLine
 10
-77.77968294
 20
-32.21008095
 30
0.0
 11
-77.52343342
 21
-32.0390125
 31
0.0
  0
LINE
  5
1F1
100
AcDbEntity
  8
レイヤー_1
  6
CONTINUOUS
 62
       3
100
AcDbLine
 10
-77.52343342
 20
-32.0390125
 30
0.0
 11
-77.28377098
 21
-31.84665588
 31
0.0
  0
LINE
  5
1F2
100
AcDbEntity
  8
レイヤー_1
  6
CONTINUOUS
 62
       3
100
AcDbLine
 10
-77.28377098
 20
-31.84665588
 30
0.0
 11
-77.06203831
 21
-31.63435475
 31
0.0
  0
LINE
  5
1F3
100
AcDbEntity
  8
レイヤー_1
  6
CONTINUOUS
 62
       3
100
AcDbLine
 10
-77.06203831
 20
-31.63435475
 30
0.0
 11
-76.85957808
 21
-31.40345276
 31
0.0
  0
LINE
  5
1F4
100
AcDbEntity
  8
レイヤー_1
  6
CONTINUOUS
 62
       3
100
AcDbLine
 10
-76.85957808
 20
-31.40345276
 30
0.0
 11
-76.67773299
 21
-31.15529356
 31
0.0
  0
LINE
  5
1F5
100
AcDbEntity
  8
レイヤー_1
  6
CONTINUOUS
 62
       3
100
AcDbLine
 10
-76.67773299
 20
-31.15529356
 30
0.0
 11
-76.5178457
 21
-30.89122078
 31
0.0
  0
LINE
  5
1F6
100
AcDbEntity
  8
レイヤー_1
  6
CONTINUOUS
 62
       3
100
AcDbLine
 10
-76.5178457
 20
-30.89122078
 30
0.0
 11
-76.38125892
 21
-30.61257808
 31
0.0
  0
LINE
  5
1F7
100
AcDbEntity
  8
レイヤー_1
  6
CONTINUOUS
 62
       3
100
AcDbLine
 10
-76.38125892
 20
-30.61257808
 30
0.0
 11
-76.26931531
 21
-30.32070911
 31
0.0
  0
LINE
  5
1F8
100
AcDbEntity
  8
レイヤー_1
  6
CONTINUOUS
 62
       3
100
AcDbLine
 10
-76.26931531
 20
-30.32070911
 30
0.0
 11
-76.18335756
 21
-30.01695751
 31
0.0
  0
LINE
  5
1F9
100
AcDbEntity
  8
レイヤー_1
  6
CONTINUOUS
 62
       3
100
AcDbLine
 10
-76.18335756
 20
-30.01695751
 30
0.0
 11
-76.12472837
 21
-29.70266694
 31
0.0
  0
LINE
  5
1FA
100
AcDbEntity
  8
レイヤー_1
  6
CONTINUOUS
 62
       3
100
AcDbLine
 10
-76.12472837
 20
-29.70266694
 30
0.0
 11
-76.0947704
 21
-29.37918103
 31
0.0
  0
LINE
  5
1FB
100
AcDbEntity
  8
レイヤー_1
  6
CONTINUOUS
 62
       3
100
AcDbLine
 10
-76.0947704
 20
-29.37918103
 30
0.0
 11
-76.0947704
 21
-29.04963943
 31
0.0
  0
LINE
  5
1FC
100
AcDbEntity
  8
レイヤー_1
  6
CONTINUOUS
 62
       3
100
AcDbLine
 10
-76.0947704
 20
-29.04963943
 30
0.0
 11
-76.12472837
 21
-28.72616144
 31
0.0
  0
LINE
  5
1FD
100
AcDbEntity
  8
レイヤー_1
  6
CONTINUOUS
 62
       3
100
AcDbLine
 10
-76.12472837
 20
-28.72616144
 30
0.0
 11
-76.18335756
 21
-28.41188577
 31
0.0
  0
LINE
  5
1FE
100
AcDbEntity
  8
レイヤー_1
  6
CONTINUOUS
 62
       3
100
AcDbLine
 10
-76.18335756
 20
-28.41188577
 30
0.0
 11
-76.26931531
 21
-28.1081551
 31
0.0
  0
LINE
  5
1FF
100
AcDbEntity
  8
レイヤー_1
  6
CONTINUOUS
 62
       3
100
AcDbLine
 10
-76.26931531
 20
-28.1081551
 30
0.0
 11
-76.38125892
 21
-27.81631212
 31
0.0
  0
LINE
  5
200
100
AcDbEntity
  8
レイヤー_1
  6
CONTINUOUS
 62
       3
100
AcDbLine
 10
-76.38125892
 20
-27.81631212
 30
0.0
 11
-76.5178457
 21
-27.53769952
 31
0.0
  0
LINE
  5
201
100
AcDbEntity
  8
レイヤー_1
  6
CONTINUOUS
 62
       3
100
AcDbLine
 10
-76.5178457
 20
-27.53769952
 30
0.0
 11
-76.67773299
 21
-27.27365997
 31
0.0
  0
LINE
  5
202
100
AcDbEntity
  8
レイヤー_1
  6
CONTINUOUS
 62
       3
100
AcDbLine
 10
-76.67773299
 20
-27.27365997
 30
0.0
 11
-76.85957808
 21
-27.02553616
 31
0.0
  0
LINE
  5
203
100
AcDbEntity
  8
レイヤー_1
  6
CONTINUOUS
 62
       3
100
AcDbLine
 10
-76.85957808
 20
-27.02553616
 30
0.0
 11
-77.06203831
 21
-26.79467077
 31
0.0
  0
LINE
  5
204
100
AcDbEntity
  8
レイヤー_1
  6
CONTINUOUS
 62
       3
100
AcDbLine
 10
-77.06203831
 20
-26.79467077
 30
0.0
 11
-77.28377098
 21
-26.58240648
 31
0.0
  0
LINE
  5
205
100
AcDbEntity
  8
レイヤー_1
  6
CONTINUOUS
 62
       3
100
AcDbLine
 10
-77.28377098
 20
-26.58240648
 30
0.0
 11
-77.52343342
 21
-26.39008598
 31
0.0
  0
LINE
  5
206
100
AcDbEntity
  8
レイヤー_1
  6
CONTINUOUS
 62
       3
100
AcDbLine
 10
-77.52343342
 20
-26.39008598
 30
0.0
 11
-77.77968294
 21
-26.21905196
 31
0.0
  0
LINE
  5
207
100
AcDbEntity
  8
レイヤー_1
  6
CONTINUOUS
 62
       3
100
AcDbLine
 10
-77.77968294
 20
-26.21905196
 30
0.0
 11
-78.05117685
 21
-26.07064709
 31
0.0
  0
LINE
  5
208
100
AcDbEntity
  8
レイヤー_1
  6
CONTINUOUS
 62
       3
100
AcDbLine
 10
-78.05117685
 20
-26.07064709
 30
0.0
 11
-78.33657247
 21
-25.94621406
 31
0.0
  0
LINE
  5
209
100
AcDbEntity
  8
レイヤー_1
  6
CONTINUOUS
 62
       3
100
AcDbLine
 10
-78.33657247
 20
-25.94621406
 30
0.0
 11
-78.63452713
 21
-25.84709554
 31
0.0
  0
LINE
  5
20A
100
AcDbEntity
  8
レイヤー_1
  6
CONTINUOUS
 62
       3
100
AcDbLine
 10
-78.63452713
 20
-25.84709554
 30
0.0
 11
-78.94369814
 21
-25.77463424
 31
0.0
  0
LINE
  5
20B
100
AcDbEntity
  8
レイヤー_1
  6
CONTINUOUS
 62
       3
100
AcDbLine
 10
-78.94369814
 20
-25.77463424
 30
0.0
 11
-79.26274281
 21
-25.73017282
 31
0.0
  0
LINE
  5
20C
100
AcDbEntity
  8
レイヤー_1
  6
CONTINUOUS
 62
       3
100
AcDbLine
 10
-79.26274281
 20
-25.73017282
 30
0.0
 11
-79.59031846
 21
-25.71505397
 31
0.0
  0
LINE
  5
20D
100
AcDbEntity
  8
レイヤー_1
  6
CONTINUOUS
 62
       3
100
AcDbLine
 10
-103.34123737
 20
25.73227946
 30
0.0
 11
-103.01378891
 21
25.74741048
 31
0.0
  0
LINE
  5
20E
100
AcDbEntity
  8
レイヤー_1
  6
CONTINUOUS
 62
       3
100
AcDbLine
 10
-103.01378891
 20
25.74741048
 30
0.0
 11
-102.69483311
 21
25.79190648
 31
0.0
  0
LINE
  5
20F
100
AcDbEntity
  8
レイヤー_1
  6
CONTINUOUS
 62
       3
100
AcDbLine
 10
-102.69483311
 20
25.79190648
 30
0.0
 11
-102.38571651
 21
25.86442191
 31
0.0
  0
LINE
  5
210
100
AcDbEntity
  8
レイヤー_1
  6
CONTINUOUS
 62
       3
100
AcDbLine
 10
-102.38571651
 20
25.86442191
 30
0.0
 11
-102.08778564
 21
25.96361117
 31
0.0
  0
LINE
  5
211
100
AcDbEntity
  8
レイヤー_1
  6
CONTINUOUS
 62
       3
100
AcDbLine
 10
-102.08778564
 20
25.96361117
 30
0.0
 11
-101.80238704
 21
26.08812869
 31
0.0
  0
LINE
  5
212
100
AcDbEntity
  8
レイヤー_1
  6
CONTINUOUS
 62
       3
100
AcDbLine
 10
-101.80238704
 20
26.08812869
 30
0.0
 11
-101.53086725
 21
26.2366289
 31
0.0
  0
LINE
  5
213
100
AcDbEntity
  8
レイヤー_1
  6
CONTINUOUS
 62
       3
100
AcDbLine
 10
-101.53086725
 20
26.2366289
 30
0.0
 11
-101.27457282
 21
26.40776622
 31
0.0
  0
LINE
  5
214
100
AcDbEntity
  8
レイヤー_1
  6
CONTINUOUS
 62
       3
100
AcDbLine
 10
-101.27457282
 20
26.40776622
 30
0.0
 11
-101.03485028
 21
26.60019507
 31
0.0
  0
LINE
  5
215
100
AcDbEntity
  8
レイヤー_1
  6
CONTINUOUS
 62
       3
100
AcDbLine
 10
-101.03485028
 20
26.60019507
 30
0.0
 11
-100.81304617
 21
26.81256988
 31
0.0
  0
LINE
  5
216
100
AcDbEntity
  8
レイヤー_1
  6
CONTINUOUS
 62
       3
100
AcDbLine
 10
-100.81304617
 20
26.81256988
 30
0.0
 11
-100.61050704
 21
27.04354507
 31
0.0
  0
LINE
  5
217
100
AcDbEntity
  8
レイヤー_1
  6
CONTINUOUS
 62
       3
100
AcDbLine
 10
-100.61050704
 20
27.04354507
 30
0.0
 11
-100.42857942
 21
27.29177507
 31
0.0
  0
LINE
  5
218
100
AcDbEntity
  8
レイヤー_1
  6
CONTINUOUS
 62
       3
100
AcDbLine
 10
-100.42857942
 20
27.29177507
 30
0.0
 11
-100.26860985
 21
27.55591429
 31
0.0
  0
LINE
  5
219
100
AcDbEntity
  8
レイヤー_1
  6
CONTINUOUS
 62
       3
100
AcDbLine
 10
-100.26860985
 20
27.55591429
 30
0.0
 11
-100.13194489
 21
27.83461718
 31
0.0
  0
LINE
  5
21A
100
AcDbEntity
  8
レイヤー_1
  6
CONTINUOUS
 62
       3
100
AcDbLine
 10
-100.13194489
 20
27.83461718
 30
0.0
 11
-100.01993104
 21
28.12653814
 31
0.0
  0
LINE
  5
21B
100
AcDbEntity
  8
レイヤー_1
  6
CONTINUOUS
 62
       3
100
AcDbLine
 10
-100.01993104
 20
28.12653814
 30
0.0
 11
-99.93391489
 21
28.4303316
 31
0.0
  0
LINE
  5
21C
100
AcDbEntity
  8
レイヤー_1
  6
CONTINUOUS
 62
       3
100
AcDbLine
 10
-99.93391489
 20
28.4303316
 30
0.0
 11
-99.87524294
 21
28.74465198
 31
0.0
  0
LINE
  5
21D
100
AcDbEntity
  8
レイヤー_1
  6
CONTINUOUS
 62
       3
100
AcDbLine
 10
-99.87524294
 20
28.74465198
 30
0.0
 11
-99.84526175
 21
29.06815372
 31
0.0
  0
LINE
  5
21E
100
AcDbEntity
  8
レイヤー_1
  6
CONTINUOUS
 62
       3
100
AcDbLine
 10
-99.84526175
 20
29.06815372
 30
0.0
 11
-99.84526175
 21
29.39769738
 31
0.0
  0
LINE
  5
21F
100
AcDbEntity
  8
レイヤー_1
  6
CONTINUOUS
 62
       3
100
AcDbLine
 10
-99.84526175
 20
29.39769738
 30
0.0
 11
-99.87524294
 21
29.72117538
 31
0.0
  0
LINE
  5
220
100
AcDbEntity
  8
レイヤー_1
  6
CONTINUOUS
 62
       3
100
AcDbLine
 10
-99.87524294
 20
29.72117538
 30
0.0
 11
-99.93391489
 21
30.03545105
 31
0.0
  0
LINE
  5
221
100
AcDbEntity
  8
レイヤー_1
  6
CONTINUOUS
 62
       3
100
AcDbLine
 10
-99.93391489
 20
30.03545105
 30
0.0
 11
-100.01993104
 21
30.33918172
 31
0.0
  0
LINE
  5
222
100
AcDbEntity
  8
レイヤー_1
  6
CONTINUOUS
 62
       3
100
AcDbLine
 10
-100.01993104
 20
30.33918172
 30
0.0
 11
-100.13194489
 21
30.63102469
 31
0.0
  0
LINE
  5
223
100
AcDbEntity
  8
レイヤー_1
  6
CONTINUOUS
 62
       3
100
AcDbLine
 10
-100.13194489
 20
30.63102469
 30
0.0
 11
-100.26860985
 21
30.9096373
 31
0.0
  0
LINE
  5
224
100
AcDbEntity
  8
レイヤー_1
  6
CONTINUOUS
 62
       3
100
AcDbLine
 10
-100.26860985
 20
30.9096373
 30
0.0
 11
-100.42857942
 21
31.17367685
 31
0.0
  0
LINE
  5
225
100
AcDbEntity
  8
レイヤー_1
  6
CONTINUOUS
 62
       3
100
AcDbLine
 10
-100.42857942
 20
31.17367685
 30
0.0
 11
-100.61050704
 21
31.42180066
 31
0.0
  0
LINE
  5
226
100
AcDbEntity
  8
レイヤー_1
  6
CONTINUOUS
 62
       3
100
AcDbLine
 10
-100.61050704
 20
31.42180066
 30
0.0
 11
-100.81304617
 21
31.65266605
 31
0.0
  0
LINE
  5
227
100
AcDbEntity
  8
レイヤー_1
  6
CONTINUOUS
 62
       3
100
AcDbLine
 10
-100.81304617
 20
31.65266605
 30
0.0
 11
-101.03485028
 21
31.86493034
 31
0.0
  0
LINE
  5
228
100
AcDbEntity
  8
レイヤー_1
  6
CONTINUOUS
 62
       3
100
AcDbLine
 10
-101.03485028
 20
31.86493034
 30
0.0
 11
-101.27457282
 21
32.05725083
 31
0.0
  0
LINE
  5
229
100
AcDbEntity
  8
レイヤー_1
  6
CONTINUOUS
 62
       3
100
AcDbLine
 10
-101.27457282
 20
32.05725083
 30
0.0
 11
-101.53086725
 21
32.22828486
 31
0.0
  0
LINE
  5
22A
100
AcDbEntity
  8
レイヤー_1
  6
CONTINUOUS
 62
       3
100
AcDbLine
 10
-101.53086725
 20
32.22828486
 30
0.0
 11
-101.80238704
 21
32.37668973
 31
0.0
  0
LINE
  5
22B
100
AcDbEntity
  8
レイヤー_1
  6
CONTINUOUS
 62
       3
100
AcDbLine
 10
-101.80238704
 20
32.37668973
 30
0.0
 11
-102.08778564
 21
32.50112276
 31
0.0
  0
LINE
  5
22C
100
AcDbEntity
  8
レイヤー_1
  6
CONTINUOUS
 62
       3
100
AcDbLine
 10
-102.08778564
 20
32.50112276
 30
0.0
 11
-102.38571651
 21
32.60024127
 31
0.0
  0
LINE
  5
22D
100
AcDbEntity
  8
レイヤー_1
  6
CONTINUOUS
 62
       3
100
AcDbLine
 10
-102.38571651
 20
32.60024127
 30
0.0
 11
-102.69483311
 21
32.67270258
 31
0.0
  0
LINE
  5
22E
100
AcDbEntity
  8
レイヤー_1
  6
CONTINUOUS
 62
       3
100
AcDbLine
 10
-102.69483311
 20
32.67270258
 30
0.0
 11
-103.01378891
 21
32.717164
 31
0.0
  0
LINE
  5
22F
100
AcDbEntity
  8
レイヤー_1
  6
CONTINUOUS
 62
       3
100
AcDbLine
 10
-103.01378891
 20
32.717164
 30
0.0
 11
-103.34123737
 21
32.73228284
 31
0.0
  0
LINE
  5
230
100
AcDbEntity
  8
レイヤー_1
  6
CONTINUOUS
 62
       3
100
AcDbLine
 10
-103.34123737
 20
32.73228284
 30
0.0
 11
-103.66881302
 21
32.717164
 31
0.0
  0
LINE
  5
231
100
AcDbEntity
  8
レイヤー_1
  6
CONTINUOUS
 62
       3
100
AcDbLine
 10
-103.66881302
 20
32.717164
 30
0.0
 11
-103.98785768
 21
32.67270258
 31
0.0
  0
LINE
  5
232
100
AcDbEntity
  8
レイヤー_1
  6
CONTINUOUS
 62
       3
100
AcDbLine
 10
-103.98785768
 20
32.67270258
 30
0.0
 11
-104.29702869
 21
32.60024127
 31
0.0
  0
LINE
  5
233
100
AcDbEntity
  8
レイヤー_1
  6
CONTINUOUS
 62
       3
100
AcDbLine
 10
-104.29702869
 20
32.60024127
 30
0.0
 11
-104.59498335
 21
32.50112276
 31
0.0
  0
LINE
  5
234
100
AcDbEntity
  8
レイヤー_1
  6
CONTINUOUS
 62
       3
100
AcDbLine
 10
-104.59498335
 20
32.50112276
 30
0.0
 11
-104.88037897
 21
32.37668973
 31
0.0
  0
LINE
  5
235
100
AcDbEntity
  8
レイヤー_1
  6
CONTINUOUS
 62
       3
100
AcDbLine
 10
-104.88037897
 20
32.37668973
 30
0.0
 11
-105.15187289
 21
32.22828486
 31
0.0
  0
LINE
  5
236
100
AcDbEntity
  8
レイヤー_1
  6
CONTINUOUS
 62
       3
100
AcDbLine
 10
-105.15187289
 20
32.22828486
 30
0.0
 11
-105.40812239
 21
32.05725083
 31
0.0
  0
LINE
  5
237
100
AcDbEntity
  8
レイヤー_1
  6
CONTINUOUS
 62
       3
100
AcDbLine
 10
-105.40812239
 20
32.05725083
 30
0.0
 11
-105.64778484
 21
31.86493034
 31
0.0
  0
LINE
  5
238
100
AcDbEntity
  8
レイヤー_1
  6
CONTINUOUS
 62
       3
100
AcDbLine
 10
-105.64778484
 20
31.86493034
 30
0.0
 11
-105.86951751
 21
31.65266605
 31
0.0
  0
LINE
  5
239
100
AcDbEntity
  8
レイヤー_1
  6
CONTINUOUS
 62
       3
100
AcDbLine
 10
-105.86951751
 20
31.65266605
 30
0.0
 11
-106.07197773
 21
31.42180066
 31
0.0
  0
LINE
  5
23A
100
AcDbEntity
  8
レイヤー_1
  6
CONTINUOUS
 62
       3
100
AcDbLine
 10
-106.07197773
 20
31.42180066
 30
0.0
 11
-106.25382283
 21
31.17367685
 31
0.0
  0
LINE
  5
23B
100
AcDbEntity
  8
レイヤー_1
  6
CONTINUOUS
 62
       3
100
AcDbLine
 10
-106.25382283
 20
31.17367685
 30
0.0
 11
-106.41371012
 21
30.9096373
 31
0.0
  0
LINE
  5
23C
100
AcDbEntity
  8
レイヤー_1
  6
CONTINUOUS
 62
       3
100
AcDbLine
 10
-106.41371012
 20
30.9096373
 30
0.0
 11
-106.55029691
 21
30.63102469
 31
0.0
  0
LINE
  5
23D
100
AcDbEntity
  8
レイヤー_1
  6
CONTINUOUS
 62
       3
100
AcDbLine
 10
-106.55029691
 20
30.63102469
 30
0.0
 11
-106.66224051
 21
30.33918172
 31
0.0
  0
LINE
  5
23E
100
AcDbEntity
  8
レイヤー_1
  6
CONTINUOUS
 62
       3
100
AcDbLine
 10
-106.66224051
 20
30.33918172
 30
0.0
 11
-106.74819826
 21
30.03545105
 31
0.0
  0
LINE
  5
23F
100
AcDbEntity
  8
レイヤー_1
  6
CONTINUOUS
 62
       3
100
AcDbLine
 10
-106.74819826
 20
30.03545105
 30
0.0
 11
-106.80682745
 21
29.72117538
 31
0.0
  0
LINE
  5
240
100
AcDbEntity
  8
レイヤー_1
  6
CONTINUOUS
 62
       3
100
AcDbLine
 10
-106.80682745
 20
29.72117538
 30
0.0
 11
-106.83678542
 21
29.39769738
 31
0.0
  0
LINE
  5
241
100
AcDbEntity
  8
レイヤー_1
  6
CONTINUOUS
 62
       3
100
AcDbLine
 10
-106.83678542
 20
29.39769738
 30
0.0
 11
-106.83678542
 21
29.06815372
 31
0.0
  0
LINE
  5
242
100
AcDbEntity
  8
レイヤー_1
  6
CONTINUOUS
 62
       3
100
AcDbLine
 10
-106.83678542
 20
29.06815372
 30
0.0
 11
-106.80682745
 21
28.74465198
 31
0.0
  0
LINE
  5
243
100
AcDbEntity
  8
レイヤー_1
  6
CONTINUOUS
 62
       3
100
AcDbLine
 10
-106.80682745
 20
28.74465198
 30
0.0
 11
-106.74819826
 21
28.4303316
 31
0.0
  0
LINE
  5
244
100
AcDbEntity
  8
レイヤー_1
  6
CONTINUOUS
 62
       3
100
AcDbLine
 10
-106.74819826
 20
28.4303316
 30
0.0
 11
-106.66224051
 21
28.12653814
 31
0.0
  0
LINE
  5
245
100
AcDbEntity
  8
レイヤー_1
  6
CONTINUOUS
 62
       3
100
AcDbLine
 10
-106.66224051
 20
28.12653814
 30
0.0
 11
-106.55029691
 21
27.83461718
 31
0.0
  0
LINE
  5
246
100
AcDbEntity
  8
レイヤー_1
  6
CONTINUOUS
 62
       3
100
AcDbLine
 10
-106.55029691
 20
27.83461718
 30
0.0
 11
-106.41371012
 21
27.55591429
 31
0.0
  0
LINE
  5
247
100
AcDbEntity
  8
レイヤー_1
  6
CONTINUOUS
 62
       3
100
AcDbLine
 10
-106.41371012
 20
27.55591429
 30
0.0
 11
-106.25382283
 21
27.29177507
 31
0.0
  0
LINE
  5
248
100
AcDbEntity
  8
レイヤー_1
  6
CONTINUOUS
 62
       3
100
AcDbLine
 10
-106.25382283
 20
27.29177507
 30
0.0
 11
-106.07197773
 21
27.04354507
 31
0.0
  0
LINE
  5
249
100
AcDbEntity
  8
レイヤー_1
  6
CONTINUOUS
 62
       3
100
AcDbLine
 10
-106.07197773
 20
27.04354507
 30
0.0
 11
-105.86951751
 21
26.81256988
 31
0.0
  0
LINE
  5
24A
100
AcDbEntity
  8
レイヤー_1
  6
CONTINUOUS
 62
       3
100
AcDbLine
 10
-105.86951751
 20
26.81256988
 30
0.0
 11
-105.64778484
 21
26.60019507
 31
0.0
  0
LINE
  5
24B
100
AcDbEntity
  8
レイヤー_1
  6
CONTINUOUS
 62
       3
100
AcDbLine
 10
-105.64778484
 20
26.60019507
 30
0.0
 11
-105.40812239
 21
26.40776622
 31
0.0
  0
LINE
  5
24C
100
AcDbEntity
  8
レイヤー_1
  6
CONTINUOUS
 62
       3
100
AcDbLine
 10
-105.40812239
 20
26.40776622
 30
0.0
 11
-105.15187289
 21
26.2366289
 31
0.0
  0
LINE
  5
24D
100
AcDbEntity
  8
レイヤー_1
  6
CONTINUOUS
 62
       3
100
AcDbLine
 10
-105.15187289
 20
26.2366289
 30
0.0
 11
-104.88037897
 21
26.08812869
 31
0.0
  0
LINE
  5
24E
100
AcDbEntity
  8
レイヤー_1
  6
CONTINUOUS
 62
       3
100
AcDbLine
 10
-104.88037897
 20
26.08812869
 30
0.0
 11
-104.59498335
 21
25.96361117
 31
0.0
  0
LINE
  5
24F
100
AcDbEntity
  8
レイヤー_1
  6
CONTINUOUS
 62
       3
100
AcDbLine
 10
-104.59498335
 20
25.96361117
 30
0.0
 11
-104.29702869
 21
25.86442191
 31
0.0
  0
LINE
  5
250
100
AcDbEntity
  8
レイヤー_1
  6
CONTINUOUS
 62
       3
100
AcDbLine
 10
-104.29702869
 20
25.86442191
 30
0.0
 11
-103.98785768
 21
25.79190648
 31
0.0
  0
LINE
  5
251
100
AcDbEntity
  8
レイヤー_1
  6
CONTINUOUS
 62
       3
100
AcDbLine
 10
-103.98785768
 20
25.79190648
 30
0.0
 11
-103.66881302
 21
25.74741048
 31
0.0
  0
LINE
  5
252
100
AcDbEntity
  8
レイヤー_1
  6
CONTINUOUS
 62
       3
100
AcDbLine
 10
-103.66881302
 20
25.74741048
 30
0.0
 11
-103.34123737
 21
25.73227946
 31
0.0
  0
LINE
  5
253
100
AcDbEntity
  8
レイヤー_1
  6
CONTINUOUS
 62
       3
100
AcDbLine
 10
-91.53618704
 20
25.73227946
 30
0.0
 11
-91.20860329
 21
25.74741048
 31
0.0
  0
LINE
  5
254
100
AcDbEntity
  8
レイヤー_1
  6
CONTINUOUS
 62
       3
100
AcDbLine
 10
-91.20860329
 20
25.74741048
 30
0.0
 11
-90.88953556
 21
25.79190648
 31
0.0
  0
LINE
  5
255
100
AcDbEntity
  8
レイヤー_1
  6
CONTINUOUS
 62
       3
100
AcDbLine
 10
-90.88953556
 20
25.79190648
 30
0.0
 11
-90.58032847
 21
25.86442191
 31
0.0
  0
LINE
  5
256
100
AcDbEntity
  8
レイヤー_1
  6
CONTINUOUS
 62
       3
100
AcDbLine
 10
-90.58032847
 20
25.86442191
 30
0.0
 11
-90.28232665
 21
25.96361117
 31
0.0
  0
LINE
  5
257
100
AcDbEntity
  8
レイヤー_1
  6
CONTINUOUS
 62
       3
100
AcDbLine
 10
-90.28232665
 20
25.96361117
 30
0.0
 11
-89.9968747
 21
26.08812869
 31
0.0
  0
LINE
  5
258
100
AcDbEntity
  8
レイヤー_1
  6
CONTINUOUS
 62
       3
100
AcDbLine
 10
-89.9968747
 20
26.08812869
 30
0.0
 11
-89.72531721
 21
26.2366289
 31
0.0
  0
LINE
  5
259
100
AcDbEntity
  8
レイヤー_1
  6
CONTINUOUS
 62
       3
100
AcDbLine
 10
-89.72531721
 20
26.2366289
 30
0.0
 11
-89.46899885
 21
26.40776622
 31
0.0
  0
LINE
  5
25A
100
AcDbEntity
  8
レイヤー_1
  6
CONTINUOUS
 62
       3
100
AcDbLine
 10
-89.46899885
 20
26.40776622
 30
0.0
 11
-89.22926416
 21
26.60019507
 31
0.0
  0
LINE
  5
25B
100
AcDbEntity
  8
レイヤー_1
  6
CONTINUOUS
 62
       3
100
AcDbLine
 10
-89.22926416
 20
26.60019507
 30
0.0
 11
-89.00745782
 21
26.81256988
 31
0.0
  0
LINE
  5
25C
100
AcDbEntity
  8
レイヤー_1
  6
CONTINUOUS
 62
       3
100
AcDbLine
 10
-89.00745782
 20
26.81256988
 30
0.0
 11
-88.80492438
 21
27.04354507
 31
0.0
  0
LINE
  5
25D
100
AcDbEntity
  8
レイヤー_1
  6
CONTINUOUS
 62
       3
100
AcDbLine
 10
-88.80492438
 20
27.04354507
 30
0.0
 11
-88.62300849
 21
27.29177507
 31
0.0
  0
LINE
  5
25E
100
AcDbEntity
  8
レイヤー_1
  6
CONTINUOUS
 62
       3
100
AcDbLine
 10
-88.62300849
 20
27.29177507
 30
0.0
 11
-88.46305477
 21
27.55591429
 31
0.0
  0
LINE
  5
25F
100
AcDbEntity
  8
レイヤー_1
  6
CONTINUOUS
 62
       3
100
AcDbLine
 10
-88.46305477
 20
27.55591429
 30
0.0
 11
-88.32640779
 21
27.83461718
 31
0.0
  0
LINE
  5
260
100
AcDbEntity
  8
レイヤー_1
  6
CONTINUOUS
 62
       3
100
AcDbLine
 10
-88.32640779
 20
27.83461718
 30
0.0
 11
-88.21441219
 21
28.12653814
 31
0.0
  0
LINE
  5
261
100
AcDbEntity
  8
レイヤー_1
  6
CONTINUOUS
 62
       3
100
AcDbLine
 10
-88.21441219
 20
28.12653814
 30
0.0
 11
-88.1284126
 21
28.4303316
 31
0.0
  0
LINE
  5
262
100
AcDbEntity
  8
レイヤー_1
  6
CONTINUOUS
 62
       3
100
AcDbLine
 10
-88.1284126
 20
28.4303316
 30
0.0
 11
-88.06975359
 21
28.74465198
 31
0.0
  0
LINE
  5
263
100
AcDbEntity
  8
レイヤー_1
  6
CONTINUOUS
 62
       3
100
AcDbLine
 10
-88.06975359
 20
28.74465198
 30
0.0
 11
-88.03977979
 21
29.06815372
 31
0.0
  0
LINE
  5
264
100
AcDbEntity
  8
レイヤー_1
  6
CONTINUOUS
 62
       3
100
AcDbLine
 10
-88.03977979
 20
29.06815372
 30
0.0
 11
-88.03977979
 21
29.39769738
 31
0.0
  0
LINE
  5
265
100
AcDbEntity
  8
レイヤー_1
  6
CONTINUOUS
 62
       3
100
AcDbLine
 10
-88.03977979
 20
29.39769738
 30
0.0
 11
-88.06975359
 21
29.72117538
 31
0.0
  0
LINE
  5
266
100
AcDbEntity
  8
レイヤー_1
  6
CONTINUOUS
 62
       3
100
AcDbLine
 10
-88.06975359
 20
29.72117538
 30
0.0
 11
-88.1284126
 21
30.03545105
 31
0.0
  0
LINE
  5
267
100
AcDbEntity
  8
レイヤー_1
  6
CONTINUOUS
 62
       3
100
AcDbLine
 10
-88.1284126
 20
30.03545105
 30
0.0
 11
-88.21441219
 21
30.33918172
 31
0.0
  0
LINE
  5
268
100
AcDbEntity
  8
レイヤー_1
  6
CONTINUOUS
 62
       3
100
AcDbLine
 10
-88.21441219
 20
30.33918172
 30
0.0
 11
-88.32640779
 21
30.63102469
 31
0.0
  0
LINE
  5
269
100
AcDbEntity
  8
レイヤー_1
  6
CONTINUOUS
 62
       3
100
AcDbLine
 10
-88.32640779
 20
30.63102469
 30
0.0
 11
-88.46305477
 21
30.9096373
 31
0.0
  0
LINE
  5
26A
100
AcDbEntity
  8
レイヤー_1
  6
CONTINUOUS
 62
       3
100
AcDbLine
 10
-88.46305477
 20
30.9096373
 30
0.0
 11
-88.62300849
 21
31.17367685
 31
0.0
  0
LINE
  5
26B
100
AcDbEntity
  8
レイヤー_1
  6
CONTINUOUS
 62
       3
100
AcDbLine
 10
-88.62300849
 20
31.17367685
 30
0.0
 11
-88.80492438
 21
31.42180066
 31
0.0
  0
LINE
  5
26C
100
AcDbEntity
  8
レイヤー_1
  6
CONTINUOUS
 62
       3
100
AcDbLine
 10
-88.80492438
 20
31.42180066
 30
0.0
 11
-89.00745782
 21
31.65266605
 31
0.0
  0
LINE
  5
26D
100
AcDbEntity
  8
レイヤー_1
  6
CONTINUOUS
 62
       3
100
AcDbLine
 10
-89.00745782
 20
31.65266605
 30
0.0
 11
-89.22926416
 21
31.86493034
 31
0.0
  0
LINE
  5
26E
100
AcDbEntity
  8
レイヤー_1
  6
CONTINUOUS
 62
       3
100
AcDbLine
 10
-89.22926416
 20
31.86493034
 30
0.0
 11
-89.46899885
 21
32.05725083
 31
0.0
  0
LINE
  5
26F
100
AcDbEntity
  8
レイヤー_1
  6
CONTINUOUS
 62
       3
100
AcDbLine
 10
-89.46899885
 20
32.05725083
 30
0.0
 11
-89.72531721
 21
32.22828486
 31
0.0
  0
LINE
  5
270
100
AcDbEntity
  8
レイヤー_1
  6
CONTINUOUS
 62
       3
100
AcDbLine
 10
-89.72531721
 20
32.22828486
 30
0.0
 11
-89.9968747
 21
32.37668973
 31
0.0
  0
LINE
  5
271
100
AcDbEntity
  8
レイヤー_1
  6
CONTINUOUS
 62
       3
100
AcDbLine
 10
-89.9968747
 20
32.37668973
 30
0.0
 11
-90.28232665
 21
32.50112276
 31
0.0
  0
LINE
  5
272
100
AcDbEntity
  8
レイヤー_1
  6
CONTINUOUS
 62
       3
100
AcDbLine
 10
-90.28232665
 20
32.50112276
 30
0.0
 11
-90.58032847
 21
32.60024127
 31
0.0
  0
LINE
  5
273
100
AcDbEntity
  8
レイヤー_1
  6
CONTINUOUS
 62
       3
100
AcDbLine
 10
-90.58032847
 20
32.60024127
 30
0.0
 11
-90.88953556
 21
32.67270258
 31
0.0
  0
LINE
  5
274
100
AcDbEntity
  8
レイヤー_1
  6
CONTINUOUS
 62
       3
100
AcDbLine
 10
-90.88953556
 20
32.67270258
 30
0.0
 11
-91.20860329
 21
32.717164
 31
0.0
  0
LINE
  5
275
100
AcDbEntity
  8
レイヤー_1
  6
CONTINUOUS
 62
       3
100
AcDbLine
 10
-91.20860329
 20
32.717164
 30
0.0
 11
-91.53618704
 21
32.73228284
 31
0.0
  0
LINE
  5
276
100
AcDbEntity
  8
レイヤー_1
  6
CONTINUOUS
 62
       3
100
AcDbLine
 10
-91.53618704
 20
32.73228284
 30
0.0
 11
-91.8636355
 21
32.717164
 31
0.0
  0
LINE
  5
277
100
AcDbEntity
  8
レイヤー_1
  6
CONTINUOUS
 62
       3
100
AcDbLine
 10
-91.8636355
 20
32.717164
 30
0.0
 11
-92.1825913
 21
32.67270258
 31
0.0
  0
LINE
  5
278
100
AcDbEntity
  8
レイヤー_1
  6
CONTINUOUS
 62
       3
100
AcDbLine
 10
-92.1825913
 20
32.67270258
 30
0.0
 11
-92.4917079
 21
32.60024127
 31
0.0
  0
LINE
  5
279
100
AcDbEntity
  8
レイヤー_1
  6
CONTINUOUS
 62
       3
100
AcDbLine
 10
-92.4917079
 20
32.60024127
 30
0.0
 11
-92.78963878
 21
32.50112276
 31
0.0
  0
LINE
  5
27A
100
AcDbEntity
  8
レイヤー_1
  6
CONTINUOUS
 62
       3
100
AcDbLine
 10
-92.78963878
 20
32.50112276
 30
0.0
 11
-93.07503737
 21
32.37668973
 31
0.0
  0
LINE
  5
27B
100
AcDbEntity
  8
レイヤー_1
  6
CONTINUOUS
 62
       3
100
AcDbLine
 10
-93.07503737
 20
32.37668973
 30
0.0
 11
-93.34655717
 21
32.22828486
 31
0.0
  0
LINE
  5
27C
100
AcDbEntity
  8
レイヤー_1
  6
CONTINUOUS
 62
       3
100
AcDbLine
 10
-93.34655717
 20
32.22828486
 30
0.0
 11
-93.6028516
 21
32.05725083
 31
0.0
  0
LINE
  5
27D
100
AcDbEntity
  8
レイヤー_1
  6
CONTINUOUS
 62
       3
100
AcDbLine
 10
-93.6028516
 20
32.05725083
 30
0.0
 11
-93.84257414
 21
31.86493034
 31
0.0
  0
LINE
  5
27E
100
AcDbEntity
  8
レイヤー_1
  6
CONTINUOUS
 62
       3
100
AcDbLine
 10
-93.84257414
 20
31.86493034
 30
0.0
 11
-94.06437825
 21
31.65266605
 31
0.0
  0
LINE
  5
27F
100
AcDbEntity
  8
レイヤー_1
  6
CONTINUOUS
 62
       3
100
AcDbLine
 10
-94.06437825
 20
31.65266605
 30
0.0
 11
-94.26691737
 21
31.42180066
 31
0.0
  0
LINE
  5
280
100
AcDbEntity
  8
レイヤー_1
  6
CONTINUOUS
 62
       3
100
AcDbLine
 10
-94.26691737
 20
31.42180066
 30
0.0
 11
-94.448845
 21
31.17367685
 31
0.0
  0
LINE
  5
281
100
AcDbEntity
  8
レイヤー_1
  6
CONTINUOUS
 62
       3
100
AcDbLine
 10
-94.448845
 20
31.17367685
 30
0.0
 11
-94.60881456
 21
30.9096373
 31
0.0
  0
LINE
  5
282
100
AcDbEntity
  8
レイヤー_1
  6
CONTINUOUS
 62
       3
100
AcDbLine
 10
-94.60881456
 20
30.9096373
 30
0.0
 11
-94.74547953
 21
30.63102469
 31
0.0
  0
LINE
  5
283
100
AcDbEntity
  8
レイヤー_1
  6
CONTINUOUS
 62
       3
100
AcDbLine
 10
-94.74547953
 20
30.63102469
 30
0.0
 11
-94.85749337
 21
30.33918172
 31
0.0
  0
LINE
  5
284
100
AcDbEntity
  8
レイヤー_1
  6
CONTINUOUS
 62
       3
100
AcDbLine
 10
-94.85749337
 20
30.33918172
 30
0.0
 11
-94.94350952
 21
30.03545105
 31
0.0
  0
LINE
  5
285
100
AcDbEntity
  8
レイヤー_1
  6
CONTINUOUS
 62
       3
100
AcDbLine
 10
-94.94350952
 20
30.03545105
 30
0.0
 11
-95.00218147
 21
29.72117538
 31
0.0
  0
LINE
  5
286
100
AcDbEntity
  8
レイヤー_1
  6
CONTINUOUS
 62
       3
100
AcDbLine
 10
-95.00218147
 20
29.72117538
 30
0.0
 11
-95.03216266
 21
29.39769738
 31
0.0
  0
LINE
  5
287
100
AcDbEntity
  8
レイヤー_1
  6
CONTINUOUS
 62
       3
100
AcDbLine
 10
-95.03216266
 20
29.39769738
 30
0.0
 11
-95.03216266
 21
29.06815372
 31
0.0
  0
LINE
  5
288
100
AcDbEntity
  8
レイヤー_1
  6
CONTINUOUS
 62
       3
100
AcDbLine
 10
-95.03216266
 20
29.06815372
 30
0.0
 11
-95.00218147
 21
28.74465198
 31
0.0
  0
LINE
  5
289
100
AcDbEntity
  8
レイヤー_1
  6
CONTINUOUS
 62
       3
100
AcDbLine
 10
-95.00218147
 20
28.74465198
 30
0.0
 11
-94.94350952
 21
28.4303316
 31
0.0
  0
LINE
  5
28A
100
AcDbEntity
  8
レイヤー_1
  6
CONTINUOUS
 62
       3
100
AcDbLine
 10
-94.94350952
 20
28.4303316
 30
0.0
 11
-94.85749337
 21
28.12653814
 31
0.0
  0
LINE
  5
28B
100
AcDbEntity
  8
レイヤー_1
  6
CONTINUOUS
 62
       3
100
AcDbLine
 10
-94.85749337
 20
28.12653814
 30
0.0
 11
-94.74547953
 21
27.83461718
 31
0.0
  0
LINE
  5
28C
100
AcDbEntity
  8
レイヤー_1
  6
CONTINUOUS
 62
       3
100
AcDbLine
 10
-94.74547953
 20
27.83461718
 30
0.0
 11
-94.60881456
 21
27.55591429
 31
0.0
  0
LINE
  5
28D
100
AcDbEntity
  8
レイヤー_1
  6
CONTINUOUS
 62
       3
100
AcDbLine
 10
-94.60881456
 20
27.55591429
 30
0.0
 11
-94.448845
 21
27.29177507
 31
0.0
  0
LINE
  5
28E
100
AcDbEntity
  8
レイヤー_1
  6
CONTINUOUS
 62
       3
100
AcDbLine
 10
-94.448845
 20
27.29177507
 30
0.0
 11
-94.26691737
 21
27.04354507
 31
0.0
  0
LINE
  5
28F
100
AcDbEntity
  8
レイヤー_1
  6
CONTINUOUS
 62
       3
100
AcDbLine
 10
-94.26691737
 20
27.04354507
 30
0.0
 11
-94.06437825
 21
26.81256988
 31
0.0
  0
LINE
  5
290
100
AcDbEntity
  8
レイヤー_1
  6
CONTINUOUS
 62
       3
100
AcDbLine
 10
-94.06437825
 20
26.81256988
 30
0.0
 11
-93.84257414
 21
26.60019507
 31
0.0
  0
LINE
  5
291
100
AcDbEntity
  8
レイヤー_1
  6
CONTINUOUS
 62
       3
100
AcDbLine
 10
-93.84257414
 20
26.60019507
 30
0.0
 11
-93.6028516
 21
26.40776622
 31
0.0
  0
LINE
  5
292
100
AcDbEntity
  8
レイヤー_1
  6
CONTINUOUS
 62
       3
100
AcDbLine
 10
-93.6028516
 20
26.40776622
 30
0.0
 11
-93.34655717
 21
26.2366289
 31
0.0
  0
LINE
  5
293
100
AcDbEntity
  8
レイヤー_1
  6
CONTINUOUS
 62
       3
100
AcDbLine
 10
-93.34655717
 20
26.2366289
 30
0.0
 11
-93.07503737
 21
26.08812869
 31
0.0
  0
LINE
  5
294
100
AcDbEntity
  8
レイヤー_1
  6
CONTINUOUS
 62
       3
100
AcDbLine
 10
-93.07503737
 20
26.08812869
 30
0.0
 11
-92.78963878
 21
25.96361117
 31
0.0
  0
LINE
  5
295
100
AcDbEntity
  8
レイヤー_1
  6
CONTINUOUS
 62
       3
100
AcDbLine
 10
-92.78963878
 20
25.96361117
 30
0.0
 11
-92.4917079
 21
25.86442191
 31
0.0
  0
LINE
  5
296
100
AcDbEntity
  8
レイヤー_1
  6
CONTINUOUS
 62
       3
100
AcDbLine
 10
-92.4917079
 20
25.86442191
 30
0.0
 11
-92.1825913
 21
25.79190648
 31
0.0
  0
LINE
  5
297
100
AcDbEntity
  8
レイヤー_1
  6
CONTINUOUS
 62
       3
100
AcDbLine
 10
-92.1825913
 20
25.79190648
 30
0.0
 11
-91.8636355
 21
25.74741048
 31
0.0
  0
LINE
  5
298
100
AcDbEntity
  8
レイヤー_1
  6
CONTINUOUS
 62
       3
100
AcDbLine
 10
-91.8636355
 20
25.74741048
 30
0.0
 11
-91.53618704
 21
25.73227946
 31
0.0
  0
LINE
  5
299
100
AcDbEntity
  8
レイヤー_1
  6
CONTINUOUS
 62
       3
100
AcDbLine
 10
-79.73156737
 20
25.73227946
 30
0.0
 11
-79.40391392
 21
25.74741048
 31
0.0
  0
LINE
  5
29A
100
AcDbEntity
  8
レイヤー_1
  6
CONTINUOUS
 62
       3
100
AcDbLine
 10
-79.40391392
 20
25.74741048
 30
0.0
 11
-79.08478446
 21
25.79190648
 31
0.0
  0
LINE
  5
29B
100
AcDbEntity
  8
レイヤー_1
  6
CONTINUOUS
 62
       3
100
AcDbLine
 10
-79.08478446
 20
25.79190648
 30
0.0
 11
-78.77552311
 21
25.86442191
 31
0.0
  0
LINE
  5
29C
100
AcDbEntity
  8
レイヤー_1
  6
CONTINUOUS
 62
       3
100
AcDbLine
 10
-78.77552311
 20
25.86442191
 30
0.0
 11
-78.47747403
 21
25.96361117
 31
0.0
  0
LINE
  5
29D
100
AcDbEntity
  8
レイヤー_1
  6
CONTINUOUS
 62
       3
100
AcDbLine
 10
-78.47747403
 20
25.96361117
 30
0.0
 11
-78.19198132
 21
26.08812869
 31
0.0
  0
LINE
  5
29E
100
AcDbEntity
  8
レイヤー_1
  6
CONTINUOUS
 62
       3
100
AcDbLine
 10
-78.19198132
 20
26.08812869
 30
0.0
 11
-77.9203891
 21
26.2366289
 31
0.0
  0
LINE
  5
29F
100
AcDbEntity
  8
レイヤー_1
  6
CONTINUOUS
 62
       3
100
AcDbLine
 10
-77.9203891
 20
26.2366289
 30
0.0
 11
-77.66404155
 21
26.40776622
 31
0.0
  0
LINE
  5
2A0
100
AcDbEntity
  8
レイヤー_1
  6
CONTINUOUS
 62
       3
100
AcDbLine
 10
-77.66404155
 20
26.40776622
 30
0.0
 11
-77.42428274
 21
26.60019507
 31
0.0
  0
LINE
  5
2A1
100
AcDbEntity
  8
レイヤー_1
  6
CONTINUOUS
 62
       3
100
AcDbLine
 10
-77.42428274
 20
26.60019507
 30
0.0
 11
-77.20245685
 21
26.81256988
 31
0.0
  0
LINE
  5
2A2
100
AcDbEntity
  8
レイヤー_1
  6
CONTINUOUS
 62
       3
100
AcDbLine
 10
-77.20245685
 20
26.81256988
 30
0.0
 11
-76.99990797
 21
27.04354507
 31
0.0
  0
LINE
  5
2A3
100
AcDbEntity
  8
レイヤー_1
  6
CONTINUOUS
 62
       3
100
AcDbLine
 10
-76.99990797
 20
27.04354507
 30
0.0
 11
-76.81798025
 21
27.29177507
 31
0.0
  0
LINE
  5
2A4
100
AcDbEntity
  8
レイヤー_1
  6
CONTINUOUS
 62
       3
100
AcDbLine
 10
-76.81798025
 20
27.29177507
 30
0.0
 11
-76.65801781
 21
27.55591429
 31
0.0
  0
LINE
  5
2A5
100
AcDbEntity
  8
レイヤー_1
  6
CONTINUOUS
 62
       3
100
AcDbLine
 10
-76.65801781
 20
27.55591429
 30
0.0
 11
-76.5213648
 21
27.83461718
 31
0.0
  0
LINE
  5
2A6
100
AcDbEntity
  8
レイヤー_1
  6
CONTINUOUS
 62
       3
100
AcDbLine
 10
-76.5213648
 20
27.83461718
 30
0.0
 11
-76.40936533
 21
28.12653814
 31
0.0
  0
LINE
  5
2A7
100
AcDbEntity
  8
レイヤー_1
  6
CONTINUOUS
 62
       3
100
AcDbLine
 10
-76.40936533
 20
28.12653814
 30
0.0
 11
-76.32336353
 21
28.4303316
 31
0.0
  0
LINE
  5
2A8
100
AcDbEntity
  8
レイヤー_1
  6
CONTINUOUS
 62
       3
100
AcDbLine
 10
-76.32336353
 20
28.4303316
 30
0.0
 11
-76.26470353
 21
28.74465198
 31
0.0
  0
LINE
  5
2A9
100
AcDbEntity
  8
レイヤー_1
  6
CONTINUOUS
 62
       3
100
AcDbLine
 10
-76.26470353
 20
28.74465198
 30
0.0
 11
-76.23472947
 21
29.06815372
 31
0.0
  0
LINE
  5
2AA
100
AcDbEntity
  8
レイヤー_1
  6
CONTINUOUS
 62
       3
100
AcDbLine
 10
-76.23472947
 20
29.06815372
 30
0.0
 11
-76.23472947
 21
29.39769738
 31
0.0
  0
LINE
  5
2AB
100
AcDbEntity
  8
レイヤー_1
  6
CONTINUOUS
 62
       3
100
AcDbLine
 10
-76.23472947
 20
29.39769738
 30
0.0
 11
-76.26470353
 21
29.72117538
 31
0.0
  0
LINE
  5
2AC
100
AcDbEntity
  8
レイヤー_1
  6
CONTINUOUS
 62
       3
100
AcDbLine
 10
-76.26470353
 20
29.72117538
 30
0.0
 11
-76.32336353
 21
30.03545105
 31
0.0
  0
LINE
  5
2AD
100
AcDbEntity
  8
レイヤー_1
  6
CONTINUOUS
 62
       3
100
AcDbLine
 10
-76.32336353
 20
30.03545105
 30
0.0
 11
-76.40936533
 21
30.33918172
 31
0.0
  0
LINE
  5
2AE
100
AcDbEntity
  8
レイヤー_1
  6
CONTINUOUS
 62
       3
100
AcDbLine
 10
-76.40936533
 20
30.33918172
 30
0.0
 11
-76.5213648
 21
30.63102469
 31
0.0
  0
LINE
  5
2AF
100
AcDbEntity
  8
レイヤー_1
  6
CONTINUOUS
 62
       3
100
AcDbLine
 10
-76.5213648
 20
30.63102469
 30
0.0
 11
-76.65801781
 21
30.9096373
 31
0.0
  0
LINE
  5
2B0
100
AcDbEntity
  8
レイヤー_1
  6
CONTINUOUS
 62
       3
100
AcDbLine
 10
-76.65801781
 20
30.9096373
 30
0.0
 11
-76.81798025
 21
31.17367685
 31
0.0
  0
LINE
  5
2B1
100
AcDbEntity
  8
レイヤー_1
  6
CONTINUOUS
 62
       3
100
AcDbLine
 10
-76.81798025
 20
31.17367685
 30
0.0
 11
-76.99990797
 21
31.42180066
 31
0.0
  0
LINE
  5
2B2
100
AcDbEntity
  8
レイヤー_1
  6
CONTINUOUS
 62
       3
100
AcDbLine
 10
-76.99990797
 20
31.42180066
 30
0.0
 11
-77.20245685
 21
31.65266605
 31
0.0
  0
LINE
  5
2B3
100
AcDbEntity
  8
レイヤー_1
  6
CONTINUOUS
 62
       3
100
AcDbLine
 10
-77.20245685
 20
31.65266605
 30
0.0
 11
-77.42428274
 21
31.86493034
 31
0.0
  0
LINE
  5
2B4
100
AcDbEntity
  8
レイヤー_1
  6
CONTINUOUS
 62
       3
100
AcDbLine
 10
-77.42428274
 20
31.86493034
 30
0.0
 11
-77.66404155
 21
32.05725083
 31
0.0
  0
LINE
  5
2B5
100
AcDbEntity
  8
レイヤー_1
  6
CONTINUOUS
 62
       3
100
AcDbLine
 10
-77.66404155
 20
32.05725083
 30
0.0
 11
-77.9203891
 21
32.22828486
 31
0.0
  0
LINE
  5
2B6
100
AcDbEntity
  8
レイヤー_1
  6
CONTINUOUS
 62
       3
100
AcDbLine
 10
-77.9203891
 20
32.22828486
 30
0.0
 11
-78.19198132
 21
32.37668973
 31
0.0
  0
LINE
  5
2B7
100
AcDbEntity
  8
レイヤー_1
  6
CONTINUOUS
 62
       3
100
AcDbLine
 10
-78.19198132
 20
32.37668973
 30
0.0
 11
-78.47747403
 21
32.50112276
 31
0.0
  0
LINE
  5
2B8
100
AcDbEntity
  8
レイヤー_1
  6
CONTINUOUS
 62
       3
100
AcDbLine
 10
-78.47747403
 20
32.50112276
 30
0.0
 11
-78.77552311
 21
32.60024127
 31
0.0
  0
LINE
  5
2B9
100
AcDbEntity
  8
レイヤー_1
  6
CONTINUOUS
 62
       3
100
AcDbLine
 10
-78.77552311
 20
32.60024127
 30
0.0
 11
-79.08478446
 21
32.67270258
 31
0.0
  0
LINE
  5
2BA
100
AcDbEntity
  8
レイヤー_1
  6
CONTINUOUS
 62
       3
100
AcDbLine
 10
-79.08478446
 20
32.67270258
 30
0.0
 11
-79.40391392
 21
32.717164
 31
0.0
  0
LINE
  5
2BB
100
AcDbEntity
  8
レイヤー_1
  6
CONTINUOUS
 62
       3
100
AcDbLine
 10
-79.40391392
 20
32.717164
 30
0.0
 11
-79.73156737
 21
32.73228284
 31
0.0
  0
LINE
  5
2BC
100
AcDbEntity
  8
レイヤー_1
  6
CONTINUOUS
 62
       3
100
AcDbLine
 10
-79.73156737
 20
32.73228284
 30
0.0
 11
-80.05901176
 21
32.717164
 31
0.0
  0
LINE
  5
2BD
100
AcDbEntity
  8
レイヤー_1
  6
CONTINUOUS
 62
       3
100
AcDbLine
 10
-80.05901176
 20
32.717164
 30
0.0
 11
-80.37795603
 21
32.67270258
 31
0.0
  0
LINE
  5
2BE
100
AcDbEntity
  8
レイヤー_1
  6
CONTINUOUS
 62
       3
100
AcDbLine
 10
-80.37795603
 20
32.67270258
 30
0.0
 11
-80.6870546
 21
32.60024127
 31
0.0
  0
LINE
  5
2BF
100
AcDbEntity
  8
レイヤー_1
  6
CONTINUOUS
 62
       3
100
AcDbLine
 10
-80.6870546
 20
32.60024127
 30
0.0
 11
-80.98496189
 21
32.50112276
 31
0.0
  0
LINE
  5
2C0
100
AcDbEntity
  8
レイヤー_1
  6
CONTINUOUS
 62
       3
100
AcDbLine
 10
-80.98496189
 20
32.50112276
 30
0.0
 11
-81.27033232
 21
32.37668973
 31
0.0
  0
LINE
  5
2C1
100
AcDbEntity
  8
レイヤー_1
  6
CONTINUOUS
 62
       3
100
AcDbLine
 10
-81.27033232
 20
32.37668973
 30
0.0
 11
-81.54182033
 21
32.22828486
 31
0.0
  0
LINE
  5
2C2
100
AcDbEntity
  8
レイヤー_1
  6
CONTINUOUS
 62
       3
100
AcDbLine
 10
-81.54182033
 20
32.22828486
 30
0.0
 11
-81.79808034
 21
32.05725083
 31
0.0
  0
LINE
  5
2C3
100
AcDbEntity
  8
レイヤー_1
  6
CONTINUOUS
 62
       3
100
AcDbLine
 10
-81.79808034
 20
32.05725083
 30
0.0
 11
-82.03776676
 21
31.86493034
 31
0.0
  0
LINE
  5
2C4
100
AcDbEntity
  8
レイヤー_1
  6
CONTINUOUS
 62
       3
100
AcDbLine
 10
-82.03776676
 20
31.86493034
 30
0.0
 11
-82.25953402
 21
31.65266605
 31
0.0
  0
LINE
  5
2C5
100
AcDbEntity
  8
レイヤー_1
  6
CONTINUOUS
 62
       3
100
AcDbLine
 10
-82.25953402
 20
31.65266605
 30
0.0
 11
-82.46203655
 21
31.42180066
 31
0.0
  0
LINE
  5
2C6
100
AcDbEntity
  8
レイヤー_1
  6
CONTINUOUS
 62
       3
100
AcDbLine
 10
-82.46203655
 20
31.42180066
 30
0.0
 11
-82.64392878
 21
31.17367685
 31
0.0
  0
LINE
  5
2C7
100
AcDbEntity
  8
レイヤー_1
  6
CONTINUOUS
 62
       3
100
AcDbLine
 10
-82.64392878
 20
31.17367685
 30
0.0
 11
-82.80386512
 21
30.9096373
 31
0.0
  0
LINE
  5
2C8
100
AcDbEntity
  8
レイヤー_1
  6
CONTINUOUS
 62
       3
100
AcDbLine
 10
-82.80386512
 20
30.9096373
 30
0.0
 11
-82.94049999
 21
30.63102469
 31
0.0
  0
LINE
  5
2C9
100
AcDbEntity
  8
レイヤー_1
  6
CONTINUOUS
 62
       3
100
AcDbLine
 10
-82.94049999
 20
30.63102469
 30
0.0
 11
-83.05248783
 21
30.33918172
 31
0.0
  0
LINE
  5
2CA
100
AcDbEntity
  8
レイヤー_1
  6
CONTINUOUS
 62
       3
100
AcDbLine
 10
-83.05248783
 20
30.33918172
 30
0.0
 11
-83.13848305
 21
30.03545105
 31
0.0
  0
LINE
  5
2CB
100
AcDbEntity
  8
レイヤー_1
  6
CONTINUOUS
 62
       3
100
AcDbLine
 10
-83.13848305
 20
30.03545105
 30
0.0
 11
-83.1971401
 21
29.72117538
 31
0.0
  0
LINE
  5
2CC
100
AcDbEntity
  8
レイヤー_1
  6
CONTINUOUS
 62
       3
100
AcDbLine
 10
-83.1971401
 20
29.72117538
 30
0.0
 11
-83.22711338
 21
29.39769738
 31
0.0
  0
LINE
  5
2CD
100
AcDbEntity
  8
レイヤー_1
  6
CONTINUOUS
 62
       3
100
AcDbLine
 10
-83.22711338
 20
29.39769738
 30
0.0
 11
-83.22711338
 21
29.06815372
 31
0.0
  0
LINE
  5
2CE
100
AcDbEntity
  8
レイヤー_1
  6
CONTINUOUS
 62
       3
100
AcDbLine
 10
-83.22711338
 20
29.06815372
 30
0.0
 11
-83.1971401
 21
28.74465198
 31
0.0
  0
LINE
  5
2CF
100
AcDbEntity
  8
レイヤー_1
  6
CONTINUOUS
 62
       3
100
AcDbLine
 10
-83.1971401
 20
28.74465198
 30
0.0
 11
-83.13848305
 21
28.4303316
 31
0.0
  0
LINE
  5
2D0
100
AcDbEntity
  8
レイヤー_1
  6
CONTINUOUS
 62
       3
100
AcDbLine
 10
-83.13848305
 20
28.4303316
 30
0.0
 11
-83.05248783
 21
28.12653814
 31
0.0
  0
LINE
  5
2D1
100
AcDbEntity
  8
レイヤー_1
  6
CONTINUOUS
 62
       3
100
AcDbLine
 10
-83.05248783
 20
28.12653814
 30
0.0
 11
-82.94049999
 21
27.83461718
 31
0.0
  0
LINE
  5
2D2
100
AcDbEntity
  8
レイヤー_1
  6
CONTINUOUS
 62
       3
100
AcDbLine
 10
-82.94049999
 20
27.83461718
 30
0.0
 11
-82.80386512
 21
27.55591429
 31
0.0
  0
LINE
  5
2D3
100
AcDbEntity
  8
レイヤー_1
  6
CONTINUOUS
 62
       3
100
AcDbLine
 10
-82.80386512
 20
27.55591429
 30
0.0
 11
-82.64392878
 21
27.29177507
 31
0.0
  0
LINE
  5
2D4
100
AcDbEntity
  8
レイヤー_1
  6
CONTINUOUS
 62
       3
100
AcDbLine
 10
-82.64392878
 20
27.29177507
 30
0.0
 11
-82.46203655
 21
27.04354507
 31
0.0
  0
LINE
  5
2D5
100
AcDbEntity
  8
レイヤー_1
  6
CONTINUOUS
 62
       3
100
AcDbLine
 10
-82.46203655
 20
27.04354507
 30
0.0
 11
-82.25953402
 21
26.81256988
 31
0.0
  0
LINE
  5
2D6
100
AcDbEntity
  8
レイヤー_1
  6
CONTINUOUS
 62
       3
100
AcDbLine
 10
-82.25953402
 20
26.81256988
 30
0.0
 11
-82.03776676
 21
26.60019507
 31
0.0
  0
LINE
  5
2D7
100
AcDbEntity
  8
レイヤー_1
  6
CONTINUOUS
 62
       3
100
AcDbLine
 10
-82.03776676
 20
26.60019507
 30
0.0
 11
-81.79808034
 21
26.40776622
 31
0.0
  0
LINE
  5
2D8
100
AcDbEntity
  8
レイヤー_1
  6
CONTINUOUS
 62
       3
100
AcDbLine
 10
-81.79808034
 20
26.40776622
 30
0.0
 11
-81.54182033
 21
26.2366289
 31
0.0
  0
LINE
  5
2D9
100
AcDbEntity
  8
レイヤー_1
  6
CONTINUOUS
 62
       3
100
AcDbLine
 10
-81.54182033
 20
26.2366289
 30
0.0
 11
-81.27033232
 21
26.08812869
 31
0.0
  0
LINE
  5
2DA
100
AcDbEntity
  8
レイヤー_1
  6
CONTINUOUS
 62
       3
100
AcDbLine
 10
-81.27033232
 20
26.08812869
 30
0.0
 11
-80.98496189
 21
25.96361117
 31
0.0
  0
LINE
  5
2DB
100
AcDbEntity
  8
レイヤー_1
  6
CONTINUOUS
 62
       3
100
AcDbLine
 10
-80.98496189
 20
25.96361117
 30
0.0
 11
-80.6870546
 21
25.86442191
 31
0.0
  0
LINE
  5
2DC
100
AcDbEntity
  8
レイヤー_1
  6
CONTINUOUS
 62
       3
100
AcDbLine
 10
-80.6870546
 20
25.86442191
 30
0.0
 11
-80.37795603
 21
25.79190648
 31
0.0
  0
LINE
  5
2DD
100
AcDbEntity
  8
レイヤー_1
  6
CONTINUOUS
 62
       3
100
AcDbLine
 10
-80.37795603
 20
25.79190648
 30
0.0
 11
-80.05901176
 21
25.74741048
 31
0.0
  0
LINE
  5
2DE
100
AcDbEntity
  8
レイヤー_1
  6
CONTINUOUS
 62
       3
100
AcDbLine
 10
-80.05901176
 20
25.74741048
 30
0.0
 11
-79.73156737
 21
25.73227946
 31
0.0
  0
LINE
  5
2DF
100
AcDbEntity
  8
レイヤー_1
  6
CONTINUOUS
 62
       3
100
AcDbLine
 10
-80.1833428
 20
-48.11633301
 30
0.0
 11
-80.3086517
 21
-48.25206374
 31
0.0
  0
LINE
  5
2E0
100
AcDbEntity
  8
レイヤー_1
  6
CONTINUOUS
 62
       3
100
AcDbLine
 10
-80.3086517
 20
-48.25206374
 30
0.0
 11
-80.42077018
 21
-48.39516095
 31
0.0
  0
LINE
  5
2E1
100
AcDbEntity
  8
レイヤー_1
  6
CONTINUOUS
 62
       3
100
AcDbLine
 10
-80.42077018
 20
-48.39516095
 30
0.0
 11
-80.51969825
 21
-48.54480685
 31
0.0
  0
LINE
  5
2E2
100
AcDbEntity
  8
レイヤー_1
  6
CONTINUOUS
 62
       3
100
AcDbLine
 10
-80.51969825
 20
-48.54480685
 30
0.0
 11
-80.60543591
 21
-48.70018367
 31
0.0
  0
LINE
  5
2E3
100
AcDbEntity
  8
レイヤー_1
  6
CONTINUOUS
 62
       3
100
AcDbLine
 10
-80.60543591
 20
-48.70018367
 30
0.0
 11
-80.67798316
 21
-48.86047363
 31
0.0
  0
LINE
  5
2E4
100
AcDbEntity
  8
レイヤー_1
  6
CONTINUOUS
 62
       3
100
AcDbLine
 10
-80.67798316
 20
-48.86047363
 30
0.0
 11
-80.73734
 21
-49.02485895
 31
0.0
  0
LINE
  5
2E5
100
AcDbEntity
  8
レイヤー_1
  6
CONTINUOUS
 62
       3
100
AcDbLine
 10
-80.73734
 20
-49.02485895
 30
0.0
 11
-80.78350644
 21
-49.19252184
 31
0.0
  0
LINE
  5
2E6
100
AcDbEntity
  8
レイヤー_1
  6
CONTINUOUS
 62
       3
100
AcDbLine
 10
-80.78350644
 20
-49.19252184
 30
0.0
 11
-80.81648245
 21
-49.36264453
 31
0.0
  0
LINE
  5
2E7
100
AcDbEntity
  8
レイヤー_1
  6
CONTINUOUS
 62
       3
100
AcDbLine
 10
-80.81648245
 20
-49.36264453
 30
0.0
 11
-80.83626807
 21
-49.53440924
 31
0.0
  0
LINE
  5
2E8
100
AcDbEntity
  8
レイヤー_1
  6
CONTINUOUS
 62
       3
100
AcDbLine
 10
-80.83626807
 20
-49.53440924
 30
0.0
 11
-80.84286328
 21
-49.70699819
 31
0.0
  0
LINE
  5
2E9
100
AcDbEntity
  8
レイヤー_1
  6
CONTINUOUS
 62
       3
100
AcDbLine
 10
-80.84286328
 20
-49.70699819
 30
0.0
 11
-80.83626807
 21
-49.8795936
 31
0.0
  0
LINE
  5
2EA
100
AcDbEntity
  8
レイヤー_1
  6
CONTINUOUS
 62
       3
100
AcDbLine
 10
-80.83626807
 20
-49.8795936
 30
0.0
 11
-80.81648245
 21
-50.05137768
 31
0.0
  0
LINE
  5
2EB
100
AcDbEntity
  8
レイヤー_1
  6
CONTINUOUS
 62
       3
100
AcDbLine
 10
-80.81648245
 20
-50.05137768
 30
0.0
 11
-80.78350644
 21
-50.22153267
 31
0.0
  0
LINE
  5
2EC
100
AcDbEntity
  8
レイヤー_1
  6
CONTINUOUS
 62
       3
100
AcDbLine
 10
-80.78350644
 20
-50.22153267
 30
0.0
 11
-80.73734
 21
-50.38924078
 31
0.0
  0
LINE
  5
2ED
100
AcDbEntity
  8
レイヤー_1
  6
CONTINUOUS
 62
       3
100
AcDbLine
 10
-80.73734
 20
-50.38924078
 30
0.0
 11
-80.67798316
 21
-50.55368423
 31
0.0
  0
LINE
  5
2EE
100
AcDbEntity
  8
レイヤー_1
  6
CONTINUOUS
 62
       3
100
AcDbLine
 10
-80.67798316
 20
-50.55368423
 30
0.0
 11
-80.60543591
 21
-50.71404524
 31
0.0
  0
LINE
  5
2EF
100
AcDbEntity
  8
レイヤー_1
  6
CONTINUOUS
 62
       3
100
AcDbLine
 10
-80.60543591
 20
-50.71404524
 30
0.0
 11
-80.51969825
 21
-50.86950604
 31
0.0
  0
LINE
  5
2F0
100
AcDbEntity
  8
レイヤー_1
  6
CONTINUOUS
 62
       3
100
AcDbLine
 10
-80.51969825
 20
-50.86950604
 30
0.0
 11
-80.42077018
 21
-51.01924884
 31
0.0
  0
LINE
  5
2F1
100
AcDbEntity
  8
レイヤー_1
  6
CONTINUOUS
 62
       3
100
AcDbLine
 10
-80.42077018
 20
-51.01924884
 30
0.0
 11
-80.3086517
 21
-51.16245586
 31
0.0
  0
LINE
  5
2F2
100
AcDbEntity
  8
レイヤー_1
  6
CONTINUOUS
 62
       3
100
AcDbLine
 10
-80.3086517
 20
-51.16245586
 30
0.0
 11
-80.1833428
 21
-51.29830932
 31
0.0
  0
LINE
  5
2F3
100
AcDbEntity
  8
レイヤー_1
  6
CONTINUOUS
 62
       3
100
AcDbLine
 10
-80.1833428
 20
-51.29830932
 30
0.0
 11
-80.04767037
 21
-51.42349548
 31
0.0
  0
LINE
  5
2F4
100
AcDbEntity
  8
レイヤー_1
  6
CONTINUOUS
 62
       3
100
AcDbLine
 10
-80.04767037
 20
-51.42349548
 30
0.0
 11
-79.9046195
 21
-51.53550415
 31
0.0
  0
LINE
  5
2F5
100
AcDbEntity
  8
レイヤー_1
  6
CONTINUOUS
 62
       3
100
AcDbLine
 10
-79.9046195
 20
-51.53550415
 30
0.0
 11
-79.75500898
 21
-51.63433532
 31
0.0
  0
LINE
  5
2F6
100
AcDbEntity
  8
レイヤー_1
  6
CONTINUOUS
 62
       3
100
AcDbLine
 10
-79.75500898
 20
-51.63433532
 30
0.0
 11
-79.59965751
 21
-51.71998901
 31
0.0
  0
LINE
  5
2F7
100
AcDbEntity
  8
レイヤー_1
  6
CONTINUOUS
 62
       3
100
AcDbLine
 10
-79.59965751
 20
-51.71998901
 30
0.0
 11
-79.43938386
 21
-51.79246521
 31
0.0
  0
LINE
  5
2F8
100
AcDbEntity
  8
レイヤー_1
  6
CONTINUOUS
 62
       3
100
AcDbLine
 10
-79.43938386
 20
-51.79246521
 30
0.0
 11
-79.27500678
 21
-51.85176391
 31
0.0
  0
LINE
  5
2F9
100
AcDbEntity
  8
レイヤー_1
  6
CONTINUOUS
 62
       3
100
AcDbLine
 10
-79.27500678
 20
-51.85176391
 30
0.0
 11
-79.10734502
 21
-51.89788513
 31
0.0
  0
LINE
  5
2FA
100
AcDbEntity
  8
レイヤー_1
  6
CONTINUOUS
 62
       3
100
AcDbLine
 10
-79.10734502
 20
-51.89788513
 30
0.0
 11
-78.93721731
 21
-51.93082885
 31
0.0
  0
LINE
  5
2FB
100
AcDbEntity
  8
レイヤー_1
  6
CONTINUOUS
 62
       3
100
AcDbLine
 10
-78.93721731
 20
-51.93082885
 30
0.0
 11
-78.76544244
 21
-51.95059509
 31
0.0
  0
LINE
  5
2FC
100
AcDbEntity
  8
レイヤー_1
  6
CONTINUOUS
 62
       3
100
AcDbLine
 10
-78.76544244
 20
-51.95059509
 30
0.0
 11
-78.59283912
 21
-51.95718384
 31
0.0
  0
LINE
  5
2FD
100
AcDbEntity
  8
レイヤー_1
  6
CONTINUOUS
 62
       3
100
AcDbLine
 10
-78.59283912
 20
-51.95718384
 30
0.0
 11
-78.42022611
 21
-51.95059509
 31
0.0
  0
LINE
  5
2FE
100
AcDbEntity
  8
レイヤー_1
  6
CONTINUOUS
 62
       3
100
AcDbLine
 10
-78.42022611
 20
-51.95059509
 30
0.0
 11
-78.24842216
 21
-51.93082885
 31
0.0
  0
LINE
  5
2FF
100
AcDbEntity
  8
レイヤー_1
  6
CONTINUOUS
 62
       3
100
AcDbLine
 10
-78.24842216
 20
-51.93082885
 30
0.0
 11
-78.07824601
 21
-51.89788513
 31
0.0
  0
LINE
  5
300
100
AcDbEntity
  8
レイヤー_1
  6
CONTINUOUS
 62
       3
100
AcDbLine
 10
-78.07824601
 20
-51.89788513
 30
0.0
 11
-77.91051642
 21
-51.85176391
 31
0.0
  0
LINE
  5
301
100
AcDbEntity
  8
レイヤー_1
  6
CONTINUOUS
 62
       3
100
AcDbLine
 10
-77.91051642
 20
-51.85176391
 30
0.0
 11
-77.74605214
 21
-51.79246521
 31
0.0
  0
LINE
  5
302
100
AcDbEntity
  8
レイヤー_1
  6
CONTINUOUS
 62
       3
100
AcDbLine
 10
-77.74605214
 20
-51.79246521
 30
0.0
 11
-77.5856719
 21
-51.71998901
 31
0.0
  0
LINE
  5
303
100
AcDbEntity
  8
レイヤー_1
  6
CONTINUOUS
 62
       3
100
AcDbLine
 10
-77.5856719
 20
-51.71998901
 30
0.0
 11
-77.43019449
 21
-51.63433532
 31
0.0
  0
LINE
  5
304
100
AcDbEntity
  8
レイヤー_1
  6
CONTINUOUS
 62
       3
100
AcDbLine
 10
-77.43019449
 20
-51.63433532
 30
0.0
 11
-77.28043861
 21
-51.53550415
 31
0.0
  0
LINE
  5
305
100
AcDbEntity
  8
レイヤー_1
  6
CONTINUOUS
 62
       3
100
AcDbLine
 10
-77.28043861
 20
-51.53550415
 30
0.0
 11
-77.13722302
 21
-51.42349548
 31
0.0
  0
LINE
  5
306
100
AcDbEntity
  8
レイヤー_1
  6
CONTINUOUS
 62
       3
100
AcDbLine
 10
-77.13722302
 20
-51.42349548
 30
0.0
 11
-77.00136649
 21
-51.29830932
 31
0.0
  0
LINE
  5
307
100
AcDbEntity
  8
レイヤー_1
  6
CONTINUOUS
 62
       3
100
AcDbLine
 10
-75.58758543
 20
-49.88366699
 30
0.0
 11
-75.46239927
 21
-49.74793012
 31
0.0
  0
LINE
  5
308
100
AcDbEntity
  8
レイヤー_1
  6
CONTINUOUS
 62
       3
100
AcDbLine
 10
-75.46239927
 20
-49.74793012
 30
0.0
 11
-75.35039061
 21
-49.60481579
 31
0.0
  0
LINE
  5
309
100
AcDbEntity
  8
レイヤー_1
  6
CONTINUOUS
 62
       3
100
AcDbLine
 10
-75.35039061
 20
-49.60481579
 30
0.0
 11
-75.25155943
 21
-49.45514373
 31
0.0
  0
LINE
  5
30A
100
AcDbEntity
  8
レイヤー_1
  6
CONTINUOUS
 62
       3
100
AcDbLine
 10
-75.25155943
 20
-49.45514373
 30
0.0
 11
-75.16590575
 21
-49.29973364
 31
0.0
  0
LINE
  5
30B
100
AcDbEntity
  8
レイヤー_1
  6
CONTINUOUS
 62
       3
100
AcDbLine
 10
-75.16590575
 20
-49.29973364
 30
0.0
 11
-75.09342955
 21
-49.13940525
 31
0.0
  0
LINE
  5
30C
100
AcDbEntity
  8
レイヤー_1
  6
CONTINUOUS
 62
       3
100
AcDbLine
 10
-75.09342955
 20
-49.13940525
 30
0.0
 11
-75.03413084
 21
-48.97497827
 31
0.0
  0
LINE
  5
30D
100
AcDbEntity
  8
レイヤー_1
  6
CONTINUOUS
 62
       3
100
AcDbLine
 10
-75.03413084
 20
-48.97497827
 30
0.0
 11
-74.98800963
 21
-48.80727242
 31
0.0
  0
LINE
  5
30E
100
AcDbEntity
  8
レイヤー_1
  6
CONTINUOUS
 62
       3
100
AcDbLine
 10
-74.98800963
 20
-48.80727242
 30
0.0
 11
-74.9550659
 21
-48.63710742
 31
0.0
  0
LINE
  5
30F
100
AcDbEntity
  8
レイヤー_1
  6
CONTINUOUS
 62
       3
100
AcDbLine
 10
-74.9550659
 20
-48.63710742
 30
0.0
 11
-74.93529967
 21
-48.46530298
 31
0.0
  0
LINE
  5
310
100
AcDbEntity
  8
レイヤー_1
  6
CONTINUOUS
 62
       3
100
AcDbLine
 10
-74.93529967
 20
-48.46530298
 30
0.0
 11
-74.92871092
 21
-48.29267883
 31
0.0
  0
LINE
  5
311
100
AcDbEntity
  8
レイヤー_1
  6
CONTINUOUS
 62
       3
100
AcDbLine
 10
-74.92871092
 20
-48.29267883
 30
0.0
 11
-74.93529967
 21
-48.12005468
 31
0.0
  0
LINE
  5
312
100
AcDbEntity
  8
レイヤー_1
  6
CONTINUOUS
 62
       3
100
AcDbLine
 10
-74.93529967
 20
-48.12005468
 30
0.0
 11
-74.9550659
 21
-47.94825024
 31
0.0
  0
LINE
  5
313
100
AcDbEntity
  8
レイヤー_1
  6
CONTINUOUS
 62
       3
100
AcDbLine
 10
-74.9550659
 20
-47.94825024
 30
0.0
 11
-74.98800963
 21
-47.77808524
 31
0.0
  0
LINE
  5
314
100
AcDbEntity
  8
レイヤー_1
  6
CONTINUOUS
 62
       3
100
AcDbLine
 10
-74.98800963
 20
-47.77808524
 30
0.0
 11
-75.03413084
 21
-47.61037939
 31
0.0
  0
LINE
  5
315
100
AcDbEntity
  8
レイヤー_1
  6
CONTINUOUS
 62
       3
100
AcDbLine
 10
-75.03413084
 20
-47.61037939
 30
0.0
 11
-75.09342955
 21
-47.44595241
 31
0.0
  0
LINE
  5
316
100
AcDbEntity
  8
レイヤー_1
  6
CONTINUOUS
 62
       3
100
AcDbLine
 10
-75.09342955
 20
-47.44595241
 30
0.0
 11
-75.16590575
 21
-47.28562402
 31
0.0
  0
LINE
  5
317
100
AcDbEntity
  8
レイヤー_1
  6
CONTINUOUS
 62
       3
100
AcDbLine
 10
-75.16590575
 20
-47.28562402
 30
0.0
 11
-75.25155943
 21
-47.13021393
 31
0.0
  0
LINE
  5
318
100
AcDbEntity
  8
レイヤー_1
  6
CONTINUOUS
 62
       3
100
AcDbLine
 10
-75.25155943
 20
-47.13021393
 30
0.0
 11
-75.35039061
 21
-46.98054187
 31
0.0
  0
LINE
  5
319
100
AcDbEntity
  8
レイヤー_1
  6
CONTINUOUS
 62
       3
100
AcDbLine
 10
-75.35039061
 20
-46.98054187
 30
0.0
 11
-75.46239927
 21
-46.83742754
 31
0.0
  0
LINE
  5
31A
100
AcDbEntity
  8
レイヤー_1
  6
CONTINUOUS
 62
       3
100
AcDbLine
 10
-75.46239927
 20
-46.83742754
 30
0.0
 11
-75.58758543
 21
-46.70169067
 31
0.0
  0
LINE
  5
31B
100
AcDbEntity
  8
レイヤー_1
  6
CONTINUOUS
 62
       3
100
AcDbLine
 10
-75.58758543
 20
-46.70169067
 30
0.0
 11
-75.72332536
 21
-46.57650452
 31
0.0
  0
LINE
  5
31C
100
AcDbEntity
  8
レイヤー_1
  6
CONTINUOUS
 62
       3
100
AcDbLine
 10
-75.72332536
 20
-46.57650452
 30
0.0
 11
-75.86644825
 21
-46.46449585
 31
0.0
  0
LINE
  5
31D
100
AcDbEntity
  8
レイヤー_1
  6
CONTINUOUS
 62
       3
100
AcDbLine
 10
-75.86644825
 20
-46.46449585
 30
0.0
 11
-76.01613339
 21
-46.36566467
 31
0.0
  0
LINE
  5
31E
100
AcDbEntity
  8
レイヤー_1
  6
CONTINUOUS
 62
       3
100
AcDbLine
 10
-76.01613339
 20
-46.36566467
 30
0.0
 11
-76.17156013
 21
-46.28001098
 31
0.0
  0
LINE
  5
31F
100
AcDbEntity
  8
レイヤー_1
  6
CONTINUOUS
 62
       3
100
AcDbLine
 10
-76.17156013
 20
-46.28001098
 30
0.0
 11
-76.33190773
 21
-46.20753479
 31
0.0
  0
LINE
  5
320
100
AcDbEntity
  8
レイヤー_1
  6
CONTINUOUS
 62
       3
100
AcDbLine
 10
-76.33190773
 20
-46.20753479
 30
0.0
 11
-76.49635555
 21
-46.14823608
 31
0.0
  0
LINE
  5
321
100
AcDbEntity
  8
レイヤー_1
  6
CONTINUOUS
 62
       3
100
AcDbLine
 10
-76.49635555
 20
-46.14823608
 30
0.0
 11
-76.66408287
 21
-46.10211487
 31
0.0
  0
LINE
  5
322
100
AcDbEntity
  8
レイヤー_1
  6
CONTINUOUS
 62
       3
100
AcDbLine
 10
-76.66408287
 20
-46.10211487
 30
0.0
 11
-76.83426902
 21
-46.06917114
 31
0.0
  0
LINE
  5
323
100
AcDbEntity
  8
レイヤー_1
  6
CONTINUOUS
 62
       3
100
AcDbLine
 10
-76.83426902
 20
-46.06917114
 30
0.0
 11
-77.00609332
 21
-46.04940491
 31
0.0
  0
LINE
  5
324
100
AcDbEntity
  8
レイヤー_1
  6
CONTINUOUS
 62
       3
100
AcDbLine
 10
-77.00609332
 20
-46.04940491
 30
0.0
 11
-77.17873508
 21
-46.04281616
 31
0.0
  0
LINE
  5
325
100
AcDbEntity
  8
レイヤー_1
  6
CONTINUOUS
 62
       3
100
AcDbLine
 10
-77.17873508
 20
-46.04281616
 30
0.0
 11
-77.35137361
 21
-46.04940491
 31
0.0
  0
LINE
  5
326
100
AcDbEntity
  8
レイヤー_1
  6
CONTINUOUS
 62
       3
100
AcDbLine
 10
-77.35137361
 20
-46.04940491
 30
0.0
 11
-77.52318822
 21
-46.06917114
 31
0.0
  0
LINE
  5
327
100
AcDbEntity
  8
レイヤー_1
  6
CONTINUOUS
 62
       3
100
AcDbLine
 10
-77.52318822
 20
-46.06917114
 30
0.0
 11
-77.69335822
 21
-46.10211487
 31
0.0
  0
LINE
  5
328
100
AcDbEntity
  8
レイヤー_1
  6
CONTINUOUS
 62
       3
100
AcDbLine
 10
-77.69335822
 20
-46.10211487
 30
0.0
 11
-77.86106294
 21
-46.14823608
 31
0.0
  0
LINE
  5
329
100
AcDbEntity
  8
レイヤー_1
  6
CONTINUOUS
 62
       3
100
AcDbLine
 10
-77.86106294
 20
-46.14823608
 30
0.0
 11
-78.02548169
 21
-46.20753479
 31
0.0
  0
LINE
  5
32A
100
AcDbEntity
  8
レイヤー_1
  6
CONTINUOUS
 62
       3
100
AcDbLine
 10
-78.02548169
 20
-46.20753479
 30
0.0
 11
-78.18579377
 21
-46.28001098
 31
0.0
  0
LINE
  5
32B
100
AcDbEntity
  8
レイヤー_1
  6
CONTINUOUS
 62
       3
100
AcDbLine
 10
-78.18579377
 20
-46.28001098
 30
0.0
 11
-78.3411785
 21
-46.36566467
 31
0.0
  0
LINE
  5
32C
100
AcDbEntity
  8
レイヤー_1
  6
CONTINUOUS
 62
       3
100
AcDbLine
 10
-78.3411785
 20
-46.36566467
 30
0.0
 11
-78.4908152
 21
-46.46449585
 31
0.0
  0
LINE
  5
32D
100
AcDbEntity
  8
レイヤー_1
  6
CONTINUOUS
 62
       3
100
AcDbLine
 10
-78.4908152
 20
-46.46449585
 30
0.0
 11
-78.63388317
 21
-46.57650452
 31
0.0
  0
LINE
  5
32E
100
AcDbEntity
  8
レイヤー_1
  6
CONTINUOUS
 62
       3
100
AcDbLine
 10
-78.63388317
 20
-46.57650452
 30
0.0
 11
-78.76956175
 21
-46.70169067
 31
0.0
  0
LINE
  5
32F
100
AcDbEntity
  8
レイヤー_1
  6
CONTINUOUS
 62
       3
100
AcDbLine
 10
-102.63560144
 20
50.00058492
 30
0.0
 11
-102.64305944
 21
50.18502791
 31
0.0
  0
LINE
  5
330
100
AcDbEntity
  8
レイヤー_1
  6
CONTINUOUS
 62
       3
100
AcDbLine
 10
-102.64305944
 20
50.18502791
 30
0.0
 11
-102.66504754
 21
50.36538264
 31
0.0
  0
LINE
  5
331
100
AcDbEntity
  8
レイヤー_1
  6
CONTINUOUS
 62
       3
100
AcDbLine
 10
-102.66504754
 20
50.36538264
 30
0.0
 11
-102.70098699
 21
50.5410684
 31
0.0
  0
LINE
  5
332
100
AcDbEntity
  8
レイヤー_1
  6
CONTINUOUS
 62
       3
100
AcDbLine
 10
-102.70098699
 20
50.5410684
 30
0.0
 11
-102.75029902
 21
50.71150449
 31
0.0
  0
LINE
  5
333
100
AcDbEntity
  8
レイヤー_1
  6
CONTINUOUS
 62
       3
100
AcDbLine
 10
-102.75029902
 20
50.71150449
 30
0.0
 11
-102.81240483
 21
50.87611018
 31
0.0
  0
LINE
  5
334
100
AcDbEntity
  8
レイヤー_1
  6
CONTINUOUS
 62
       3
100
AcDbLine
 10
-102.81240483
 20
50.87611018
 30
0.0
 11
-102.88672565
 21
51.03430477
 31
0.0
  0
LINE
  5
335
100
AcDbEntity
  8
レイヤー_1
  6
CONTINUOUS
 62
       3
100
AcDbLine
 10
-102.88672565
 20
51.03430477
 30
0.0
 11
-102.97268273
 21
51.18550754
 31
0.0
  0
LINE
  5
336
100
AcDbEntity
  8
レイヤー_1
  6
CONTINUOUS
 62
       3
100
AcDbLine
 10
-102.97268273
 20
51.18550754
 30
0.0
 11
-103.06969725
 21
51.32913776
 31
0.0
  0
LINE
  5
337
100
AcDbEntity
  8
レイヤー_1
  6
CONTINUOUS
 62
       3
100
AcDbLine
 10
-103.06969725
 20
51.32913776
 30
0.0
 11
-103.17719049
 21
51.46461474
 31
0.0
  0
LINE
  5
338
100
AcDbEntity
  8
レイヤー_1
  6
CONTINUOUS
 62
       3
100
AcDbLine
 10
-103.17719049
 20
51.46461474
 30
0.0
 11
-103.29458361
 21
51.59135776
 31
0.0
  0
LINE
  5
339
100
AcDbEntity
  8
レイヤー_1
  6
CONTINUOUS
 62
       3
100
AcDbLine
 10
-103.29458361
 20
51.59135776
 30
0.0
 11
-103.4212979
 21
51.7087861
 31
0.0
  0
LINE
  5
33A
100
AcDbEntity
  8
レイヤー_1
  6
CONTINUOUS
 62
       3
100
AcDbLine
 10
-103.4212979
 20
51.7087861
 30
0.0
 11
-103.55675453
 21
51.81631905
 31
0.0
  0
LINE
  5
33B
100
AcDbEntity
  8
レイヤー_1
  6
CONTINUOUS
 62
       3
100
AcDbLine
 10
-103.55675453
 20
51.81631905
 30
0.0
 11
-103.70037475
 21
51.9133759
 31
0.0
  0
LINE
  5
33C
100
AcDbEntity
  8
レイヤー_1
  6
CONTINUOUS
 62
       3
100
AcDbLine
 10
-103.70037475
 20
51.9133759
 30
0.0
 11
-103.85157977
 21
51.99937592
 31
0.0
  0
LINE
  5
33D
100
AcDbEntity
  8
レイヤー_1
  6
CONTINUOUS
 62
       3
100
AcDbLine
 10
-103.85157977
 20
51.99937592
 30
0.0
 11
-104.00979083
 21
52.07373842
 31
0.0
  0
LINE
  5
33E
100
AcDbEntity
  8
レイヤー_1
  6
CONTINUOUS
 62
       3
100
AcDbLine
 10
-104.00979083
 20
52.07373842
 30
0.0
 11
-104.17442914
 21
52.13588266
 31
0.0
  0
LINE
  5
33F
100
AcDbEntity
  8
レイヤー_1
  6
CONTINUOUS
 62
       3
100
AcDbLine
 10
-104.17442914
 20
52.13588266
 30
0.0
 11
-104.34491594
 21
52.18522795
 31
0.0
  0
LINE
  5
340
100
AcDbEntity
  8
レイヤー_1
  6
CONTINUOUS
 62
       3
100
AcDbLine
 10
-104.34491594
 20
52.18522795
 30
0.0
 11
-104.52067243
 21
52.22119356
 31
0.0
  0
LINE
  5
341
100
AcDbEntity
  8
レイヤー_1
  6
CONTINUOUS
 62
       3
100
AcDbLine
 10
-104.52067243
 20
52.22119356
 30
0.0
 11
-104.70111986
 21
52.24319879
 31
0.0
  0
LINE
  5
342
100
AcDbEntity
  8
レイヤー_1
  6
CONTINUOUS
 62
       3
100
AcDbLine
 10
-104.70111986
 20
52.24319879
 30
0.0
 11
-104.88567944
 21
52.25066291
 31
0.0
  0
LINE
  5
343
100
AcDbEntity
  8
レイヤー_1
  6
CONTINUOUS
 62
       3
100
AcDbLine
 10
-104.88567944
 20
52.25066291
 30
0.0
 11
-105.07017759
 21
52.24319879
 31
0.0
  0
LINE
  5
344
100
AcDbEntity
  8
レイヤー_1
  6
CONTINUOUS
 62
       3
100
AcDbLine
 10
-105.07017759
 20
52.24319879
 30
0.0
 11
-105.25056974
 21
52.22119356
 31
0.0
  0
LINE
  5
345
100
AcDbEntity
  8
レイヤー_1
  6
CONTINUOUS
 62
       3
100
AcDbLine
 10
-105.25056974
 20
52.22119356
 30
0.0
 11
-105.42627677
 21
52.18522795
 31
0.0
  0
LINE
  5
346
100
AcDbEntity
  8
レイヤー_1
  6
CONTINUOUS
 62
       3
100
AcDbLine
 10
-105.42627677
 20
52.18522795
 30
0.0
 11
-105.59671959
 21
52.13588266
 31
0.0
  0
LINE
  5
347
100
AcDbEntity
  8
レイヤー_1
  6
CONTINUOUS
 62
       3
100
AcDbLine
 10
-105.59671959
 20
52.13588266
 30
0.0
 11
-105.76131909
 21
52.07373842
 31
0.0
  0
LINE
  5
348
100
AcDbEntity
  8
レイヤー_1
  6
CONTINUOUS
 62
       3
100
AcDbLine
 10
-105.76131909
 20
52.07373842
 30
0.0
 11
-105.91949618
 21
51.99937592
 31
0.0
  0
LINE
  5
349
100
AcDbEntity
  8
レイヤー_1
  6
CONTINUOUS
 62
       3
100
AcDbLine
 10
-105.91949618
 20
51.99937592
 30
0.0
 11
-106.07067176
 21
51.9133759
 31
0.0
  0
LINE
  5
34A
100
AcDbEntity
  8
レイヤー_1
  6
CONTINUOUS
 62
       3
100
AcDbLine
 10
-106.07067176
 20
51.9133759
 30
0.0
 11
-106.21426674
 21
51.81631905
 31
0.0
  0
LINE
  5
34B
100
AcDbEntity
  8
レイヤー_1
  6
CONTINUOUS
 62
       3
100
AcDbLine
 10
-106.21426674
 20
51.81631905
 30
0.0
 11
-106.349702
 21
51.7087861
 31
0.0
  0
LINE
  5
34C
100
AcDbEntity
  8
レイヤー_1
  6
CONTINUOUS
 62
       3
100
AcDbLine
 10
-106.349702
 20
51.7087861
 30
0.0
 11
-106.47639845
 21
51.59135776
 31
0.0
  0
LINE
  5
34D
100
AcDbEntity
  8
レイヤー_1
  6
CONTINUOUS
 62
       3
100
AcDbLine
 10
-106.47639845
 20
51.59135776
 30
0.0
 11
-106.593777
 21
51.46461474
 31
0.0
  0
LINE
  5
34E
100
AcDbEntity
  8
レイヤー_1
  6
CONTINUOUS
 62
       3
100
AcDbLine
 10
-106.593777
 20
51.46461474
 30
0.0
 11
-106.70125853
 21
51.32913776
 31
0.0
  0
LINE
  5
34F
100
AcDbEntity
  8
レイヤー_1
  6
CONTINUOUS
 62
       3
100
AcDbLine
 10
-106.70125853
 20
51.32913776
 30
0.0
 11
-106.79826398
 21
51.18550754
 31
0.0
  0
LINE
  5
350
100
AcDbEntity
  8
レイヤー_1
  6
CONTINUOUS
 62
       3
100
AcDbLine
 10
-106.79826398
 20
51.18550754
 30
0.0
 11
-106.88421421
 21
51.03430477
 31
0.0
  0
LINE
  5
351
100
AcDbEntity
  8
レイヤー_1
  6
CONTINUOUS
 62
       3
100
AcDbLine
 10
-106.88421421
 20
51.03430477
 30
0.0
 11
-106.95853015
 21
50.87611018
 31
0.0
  0
LINE
  5
352
100
AcDbEntity
  8
レイヤー_1
  6
CONTINUOUS
 62
       3
100
AcDbLine
 10
-106.95853015
 20
50.87611018
 30
0.0
 11
-107.02063266
 21
50.71150449
 31
0.0
  0
LINE
  5
353
100
AcDbEntity
  8
レイヤー_1
  6
CONTINUOUS
 62
       3
100
AcDbLine
 10
-107.02063266
 20
50.71150449
 30
0.0
 11
-107.0699427
 21
50.5410684
 31
0.0
  0
LINE
  5
354
100
AcDbEntity
  8
レイヤー_1
  6
CONTINUOUS
 62
       3
100
AcDbLine
 10
-107.0699427
 20
50.5410684
 30
0.0
 11
-107.10588113
 21
50.36538264
 31
0.0
  0
LINE
  5
355
100
AcDbEntity
  8
レイヤー_1
  6
CONTINUOUS
 62
       3
100
AcDbLine
 10
-107.10588113
 20
50.36538264
 30
0.0
 11
-107.12786886
 21
50.18502791
 31
0.0
  0
LINE
  5
356
100
AcDbEntity
  8
レイヤー_1
  6
CONTINUOUS
 62
       3
100
AcDbLine
 10
-107.12786886
 20
50.18502791
 30
0.0
 11
-107.13532678
 21
50.00058492
 31
0.0
  0
LINE
  5
357
100
AcDbEntity
  8
レイヤー_1
  6
CONTINUOUS
 62
       3
100
AcDbLine
 10
-107.13532678
 20
47.99941508
 30
0.0
 11
-107.12786886
 21
47.81503976
 31
0.0
  0
LINE
  5
358
100
AcDbEntity
  8
レイヤー_1
  6
CONTINUOUS
 62
       3
100
AcDbLine
 10
-107.12786886
 20
47.81503976
 30
0.0
 11
-107.10588113
 21
47.63475818
 31
0.0
  0
LINE
  5
359
100
AcDbEntity
  8
レイヤー_1
  6
CONTINUOUS
 62
       3
100
AcDbLine
 10
-107.10588113
 20
47.63475818
 30
0.0
 11
-107.0699427
 21
47.45915009
 31
0.0
  0
LINE
  5
35A
100
AcDbEntity
  8
レイヤー_1
  6
CONTINUOUS
 62
       3
100
AcDbLine
 10
-107.0699427
 20
47.45915009
 30
0.0
 11
-107.02063266
 21
47.28879524
 31
0.0
  0
LINE
  5
35B
100
AcDbEntity
  8
レイヤー_1
  6
CONTINUOUS
 62
       3
100
AcDbLine
 10
-107.02063266
 20
47.28879524
 30
0.0
 11
-106.95853015
 21
47.12427336
 31
0.0
  0
LINE
  5
35C
100
AcDbEntity
  8
レイヤー_1
  6
CONTINUOUS
 62
       3
100
AcDbLine
 10
-106.95853015
 20
47.12427336
 30
0.0
 11
-106.88421421
 21
46.9661642
 31
0.0
  0
LINE
  5
35D
100
AcDbEntity
  8
レイヤー_1
  6
CONTINUOUS
 62
       3
100
AcDbLine
 10
-106.88421421
 20
46.9661642
 30
0.0
 11
-106.79826398
 21
46.81504751
 31
0.0
  0
LINE
  5
35E
100
AcDbEntity
  8
レイヤー_1
  6
CONTINUOUS
 62
       3
100
AcDbLine
 10
-106.79826398
 20
46.81504751
 30
0.0
 11
-106.70125853
 21
46.67150303
 31
0.0
  0
LINE
  5
35F
100
AcDbEntity
  8
レイヤー_1
  6
CONTINUOUS
 62
       3
100
AcDbLine
 10
-106.70125853
 20
46.67150303
 30
0.0
 11
-106.593777
 21
46.53611051
 31
0.0
  0
LINE
  5
360
100
AcDbEntity
  8
レイヤー_1
  6
CONTINUOUS
 62
       3
100
AcDbLine
 10
-106.593777
 20
46.53611051
 30
0.0
 11
-106.47639845
 21
46.40944969
 31
0.0
  0
LINE
  5
361
100
AcDbEntity
  8
レイヤー_1
  6
CONTINUOUS
 62
       3
100
AcDbLine
 10
-106.47639845
 20
46.40944969
 30
0.0
 11
-106.349702
 21
46.29210031
 31
0.0
  0
LINE
  5
362
100
AcDbEntity
  8
レイヤー_1
  6
CONTINUOUS
 62
       3
100
AcDbLine
 10
-106.349702
 20
46.29210031
 30
0.0
 11
-106.21426674
 21
46.18464213
 31
0.0
  0
LINE
  5
363
100
AcDbEntity
  8
レイヤー_1
  6
CONTINUOUS
 62
       3
100
AcDbLine
 10
-106.21426674
 20
46.18464213
 30
0.0
 11
-106.07067176
 21
46.08765489
 31
0.0
  0
LINE
  5
364
100
AcDbEntity
  8
レイヤー_1
  6
CONTINUOUS
 62
       3
100
AcDbLine
 10
-106.07067176
 20
46.08765489
 30
0.0
 11
-105.91949618
 21
46.00171833
 31
0.0
  0
LINE
  5
365
100
AcDbEntity
  8
レイヤー_1
  6
CONTINUOUS
 62
       3
100
AcDbLine
 10
-105.91949618
 20
46.00171833
 30
0.0
 11
-105.76131909
 21
45.92741219
 31
0.0
  0
LINE
  5
366
100
AcDbEntity
  8
レイヤー_1
  6
CONTINUOUS
 62
       3
100
AcDbLine
 10
-105.76131909
 20
45.92741219
 30
0.0
 11
-105.59671959
 21
45.86531623
 31
0.0
  0
LINE
  5
367
100
AcDbEntity
  8
レイヤー_1
  6
CONTINUOUS
 62
       3
100
AcDbLine
 10
-105.59671959
 20
45.86531623
 30
0.0
 11
-105.42627677
 21
45.81601019
 31
0.0
  0
LINE
  5
368
100
AcDbEntity
  8
レイヤー_1
  6
CONTINUOUS
 62
       3
100
AcDbLine
 10
-105.42627677
 20
45.81601019
 30
0.0
 11
-105.25056974
 21
45.7800738
 31
0.0
  0
LINE
  5
369
100
AcDbEntity
  8
レイヤー_1
  6
CONTINUOUS
 62
       3
100
AcDbLine
 10
-105.25056974
 20
45.7800738
 30
0.0
 11
-105.07017759
 21
45.75808683
 31
0.0
  0
LINE
  5
36A
100
AcDbEntity
  8
レイヤー_1
  6
CONTINUOUS
 62
       3
100
AcDbLine
 10
-105.07017759
 20
45.75808683
 30
0.0
 11
-104.88567944
 21
45.750629
 31
0.0
  0
LINE
  5
36B
100
AcDbEntity
  8
レイヤー_1
  6
CONTINUOUS
 62
       3
100
AcDbLine
 10
-104.88567944
 20
45.750629
 30
0.0
 11
-104.70111986
 21
45.75808683
 31
0.0
  0
LINE
  5
36C
100
AcDbEntity
  8
レイヤー_1
  6
CONTINUOUS
 62
       3
100
AcDbLine
 10
-104.70111986
 20
45.75808683
 30
0.0
 11
-104.52067243
 21
45.7800738
 31
0.0
  0
LINE
  5
36D
100
AcDbEntity
  8
レイヤー_1
  6
CONTINUOUS
 62
       3
100
AcDbLine
 10
-104.52067243
 20
45.7800738
 30
0.0
 11
-104.34491594
 21
45.81601019
 31
0.0
  0
LINE
  5
36E
100
AcDbEntity
  8
レイヤー_1
  6
CONTINUOUS
 62
       3
100
AcDbLine
 10
-104.34491594
 20
45.81601019
 30
0.0
 11
-104.17442914
 21
45.86531623
 31
0.0
  0
LINE
  5
36F
100
AcDbEntity
  8
レイヤー_1
  6
CONTINUOUS
 62
       3
100
AcDbLine
 10
-104.17442914
 20
45.86531623
 30
0.0
 11
-104.00979083
 21
45.92741219
 31
0.0
  0
LINE
  5
370
100
AcDbEntity
  8
レイヤー_1
  6
CONTINUOUS
 62
       3
100
AcDbLine
 10
-104.00979083
 20
45.92741219
 30
0.0
 11
-103.85157977
 21
46.00171833
 31
0.0
  0
LINE
  5
371
100
AcDbEntity
  8
レイヤー_1
  6
CONTINUOUS
 62
       3
100
AcDbLine
 10
-103.85157977
 20
46.00171833
 30
0.0
 11
-103.70037475
 21
46.08765489
 31
0.0
  0
LINE
  5
372
100
AcDbEntity
  8
レイヤー_1
  6
CONTINUOUS
 62
       3
100
AcDbLine
 10
-103.70037475
 20
46.08765489
 30
0.0
 11
-103.55675453
 21
46.18464213
 31
0.0
  0
LINE
  5
373
100
AcDbEntity
  8
レイヤー_1
  6
CONTINUOUS
 62
       3
100
AcDbLine
 10
-103.55675453
 20
46.18464213
 30
0.0
 11
-103.4212979
 21
46.29210031
 31
0.0
  0
LINE
  5
374
100
AcDbEntity
  8
レイヤー_1
  6
CONTINUOUS
 62
       3
100
AcDbLine
 10
-103.4212979
 20
46.29210031
 30
0.0
 11
-103.29458361
 21
46.40944969
 31
0.0
  0
LINE
  5
375
100
AcDbEntity
  8
レイヤー_1
  6
CONTINUOUS
 62
       3
100
AcDbLine
 10
-103.29458361
 20
46.40944969
 30
0.0
 11
-103.17719049
 21
46.53611051
 31
0.0
  0
LINE
  5
376
100
AcDbEntity
  8
レイヤー_1
  6
CONTINUOUS
 62
       3
100
AcDbLine
 10
-103.17719049
 20
46.53611051
 30
0.0
 11
-103.06969725
 21
46.67150303
 31
0.0
  0
LINE
  5
377
100
AcDbEntity
  8
レイヤー_1
  6
CONTINUOUS
 62
       3
100
AcDbLine
 10
-103.06969725
 20
46.67150303
 30
0.0
 11
-102.97268273
 21
46.81504751
 31
0.0
  0
LINE
  5
378
100
AcDbEntity
  8
レイヤー_1
  6
CONTINUOUS
 62
       3
100
AcDbLine
 10
-102.97268273
 20
46.81504751
 30
0.0
 11
-102.88672565
 21
46.9661642
 31
0.0
  0
LINE
  5
379
100
AcDbEntity
  8
レイヤー_1
  6
CONTINUOUS
 62
       3
100
AcDbLine
 10
-102.88672565
 20
46.9661642
 30
0.0
 11
-102.81240483
 21
47.12427336
 31
0.0
  0
LINE
  5
37A
100
AcDbEntity
  8
レイヤー_1
  6
CONTINUOUS
 62
       3
100
AcDbLine
 10
-102.81240483
 20
47.12427336
 30
0.0
 11
-102.75029902
 21
47.28879524
 31
0.0
  0
LINE
  5
37B
100
AcDbEntity
  8
レイヤー_1
  6
CONTINUOUS
 62
       3
100
AcDbLine
 10
-102.75029902
 20
47.28879524
 30
0.0
 11
-102.70098699
 21
47.45915009
 31
0.0
  0
LINE
  5
37C
100
AcDbEntity
  8
レイヤー_1
  6
CONTINUOUS
 62
       3
100
AcDbLine
 10
-102.70098699
 20
47.45915009
 30
0.0
 11
-102.66504754
 21
47.63475818
 31
0.0
  0
LINE
  5
37D
100
AcDbEntity
  8
レイヤー_1
  6
CONTINUOUS
 62
       3
100
AcDbLine
 10
-102.66504754
 20
47.63475818
 30
0.0
 11
-102.64305944
 21
47.81503976
 31
0.0
  0
LINE
  5
37E
100
AcDbEntity
  8
レイヤー_1
  6
CONTINUOUS
 62
       3
100
AcDbLine
 10
-102.64305944
 20
47.81503976
 30
0.0
 11
-102.63560144
 21
47.99941508
 31
0.0
  0
LINE
  5
37F
100
AcDbEntity
  8
レイヤー_1
  6
CENTERX2
 62
       3
100
AcDbLine
 10
-113.46421981
 20
0.0
 30
0.0
 11
-69.4742262
 21
0.0
 31
0.0
  0
LINE
  5
380
100
AcDbEntity
  8
レイヤー_1
  6
CENTERX2
 62
       3
100
AcDbLine
 10
-91.38546411
 20
42.62875026
 30
0.0
 11
-91.38546411
 21
-44.68633354
 31
0.0
  0
LINE
  5
381
100
AcDbEntity
  8
レイヤー_1
  6
CENTERX2
 62
       3
100
AcDbLine
 10
-11.00320435
 20
0.0
 30
0.0
 11
109.38522675
 21
0.0
 31
0.0
  0
TEXT
  5
382
100
AcDbEntity
  8
0
 62
       7
100
AcDbText
 10
115.17149321
 20
-101.62579186
 30
0.0
 40
5.0
  1
000
 41
0.8
 72
       5
 11
127.17149321
 21
-101.62579186
 31
0.0
100
AcDbText
  0
ENDSEC
  0
SECTION
  2
OBJECTS
  0
DICTIONARY
  5
19
100
AcDbDictionary
  3
ACAD_GROUP
350
1A
  3
ACAD_MLINESTYLE
350
1B
  0
DICTIONARY
  5
1A
102
{ACAD_REACTORS
330
19
102
}
100
AcDbDictionary
  0
DICTIONARY
  5
1B
102
{ACAD_REACTORS
330
19
102
}
100
AcDbDictionary
  3
STANDARD
350
1C
  0
MLINESTYLE
  5
1C
102
{ACAD_REACTORS
330
1B
102
}
100
AcDbMlineStyle
  2
STANDARD
 70
       0
  3

 62
       0
 51
90.0
 52
90.0
 71
       2
 49
0.5
 62
     256
  6
BYLAYER
 49
-0.5
 62
     256
  6
BYLAYER
  0
ENDSEC
  0
EOF
