  0
SECTION
  2
HEADER
  9
$ACADVER
  1
AC1014
  9
$ACADMAINTVER
 70
       0
  9
$DWGCODEPAGE
  3
ANSI_932
  9
$INSBASE
 10
0.0
 20
0.0
 30
0.0
  9
$EXTMIN
 10
-182.81675091
 20
-70.35707838
 30
0.0
  9
$EXTMAX
 10
182.81675091
 20
67.85707838
 30
0.0
  9
$LIMMIN
 10
-194.24279784
 20
-74.67627078
  9
$LIMMAX
 10
194.24279784
 20
72.17627078
  9
$ORTHOMODE
 70
       0
  9
$REGENMODE
 70
       1
  9
$FILLMODE
 70
       1
  9
$QTEXTMODE
 70
       0
  9
$MIRRTEXT
 70
       1
  9
$DRAGMODE
 70
       2
  9
$LTSCALE
 40
1.0
  9
$OSMODE
 70
       0
  9
$ATTMODE
 70
       1
  9
$TEXTSIZE
 40
0.2
  9
$TRACEWID
 40
0.05
  9
$TEXTSTYLE
  7
STANDARD
  9
$CLAYER
  8
0
  9
$CELTYPE
  6
CONTINUOUS
  9
$CECOLOR
 62
     256
  9
$CELTSCALE
 40
1.0
  9
$DELOBJ
 70
       1
  9
$DISPSILH
 70
       0
  9
$DIMSCALE
 40
1.0
  9
$DIMASZ
 40
0.18
  9
$DIMEXO
 40
0.0625
  9
$DIMDLI
 40
0.38
  9
$DIMRND
 40
0.0
  9
$DIMDLE
 40
0.0
  9
$DIMEXE
 40
0.18
  9
$DIMTP
 40
0.0
  9
$DIMTM
 40
0.0
  9
$DIMTXT
 40
0.18
  9
$DIMCEN
 40
0.09
  9
$DIMTSZ
 40
0.0
  9
$DIMTOL
 70
       0
  9
$DIMLIM
 70
       0
  9
$DIMTIH
 70
       1
  9
$DIMTOH
 70
       1
  9
$DIMSE1
 70
       0
  9
$DIMSE2
 70
       0
  9
$DIMTAD
 70
       0
  9
$DIMZIN
 70
       0
  9
$DIMBLK
  1

  9
$DIMASO
 70
       1
  9
$DIMSHO
 70
       1
  9
$DIMPOST
  1

  9
$DIMAPOST
  1

  9
$DIMALT
 70
       0
  9
$DIMALTD
 70
       2
  9
$DIMALTF
 40
25.4
  9
$DIMLFAC
 40
1.0
  9
$DIMTOFL
 70
       0
  9
$DIMTVP
 40
0.0
  9
$DIMTIX
 70
       0
  9
$DIMSOXD
 70
       0
  9
$DIMSAH
 70
       0
  9
$DIMBLK1
  1

  9
$DIMBLK2
  1

  9
$DIMSTYLE
  2
STANDARD
  9
$DIMCLRD
 70
       0
  9
$DIMCLRE
 70
       0
  9
$DIMCLRT
 70
       0
  9
$DIMTFAC
 40
1.0
  9
$DIMGAP
 40
0.09
  9
$DIMJUST
 70
       0
  9
$DIMSD1
 70
       0
  9
$DIMSD2
 70
       0
  9
$DIMTOLJ
 70
       1
  9
$DIMTZIN
 70
       0
  9
$DIMALTZ
 70
       0
  9
$DIMALTTZ
 70
       0
  9
$DIMFIT
 70
       3
  9
$DIMUPT
 70
       0
  9
$DIMUNIT
 70
       2
  9
$DIMDEC
 70
       4
  9
$DIMTDEC
 70
       4
  9
$DIMALTU
 70
       2
  9
$DIMALTTD
 70
       2
  9
$DIMTXSTY
  7
STANDARD
  9
$DIMAUNIT
 70
       0
  9
$LUNITS
 70
       2
  9
$LUPREC
 70
       4
  9
$SKETCHINC
 40
0.1
  9
$FILLETRAD
 40
0.0
  9
$AUNITS
 70
       0
  9
$AUPREC
 70
       0
  9
$MENU
  1
acad
  9
$ELEVATION
 40
0.0
  9
$PELEVATION
 40
0.0
  9
$THICKNESS
 40
0.0
  9
$LIMCHECK
 70
       0
  9
$BLIPMODE
 70
       1
  9
$CHAMFERA
 40
0.0
  9
$CHAMFERB
 40
0.0
  9
$CHAMFERC
 40
0.0
  9
$CHAMFERD
 40
0.0
  9
$SKPOLY
 70
       0
  9
$TDCREATE
 40
0.000000000
  9
$TDUPDATE
 40
0.000000000
  9
$TDINDWG
 40
0.0000000000
  9
$TDUSRTIMER
 40
0.0000000000
  9
$USRTIMER
 70
       1
  9
$ANGBASE
 50
0.0
  9
$ANGDIR
 70
       0
  9
$PDMODE
 70
       0
  9
$PDSIZE
 40
1.0
  9
$PLINEWID
 40
0.0
  9
$COORDS
 70
       1
  9
$SPLFRAME
 70
       0
  9
$SPLINETYPE
 70
       6
  9
$SPLINESEGS
 70
       8
  9
$ATTDIA
 70
       0
  9
$ATTREQ
 70
       1
  9
$HANDLING
 70
       1
  9
$HANDSEED
  5
159
  9
$SURFTAB1
 70
       6
  9
$SURFTAB2
 70
       6
  9
$SURFTYPE
 70
       6
  9
$SURFU
 70
       6
  9
$SURFV
 70
       6
  9
$UCSNAME
  2

  9
$UCSORG
 10
0.0
 20
0.0
 30
0.0
  9
$UCSXDIR
 10
1.0
 20
0.0
 30
0.0
  9
$UCSYDIR
 10
0.0
 20
1.0
 30
0.0
  9
$PUCSNAME
  2

  9
$PUCSORG
 10
0.0
 20
0.0
 30
0.0
  9
$PUCSXDIR
 10
1.0
 20
0.0
 30
0.0
  9
$PUCSYDIR
 10
0.0
 20
1.0
 30
0.0
  9
$USERI1
 70
       0
  9
$USERI2
 70
       0
  9
$USERI3
 70
       0
  9
$USERI4
 70
       0
  9
$USERI5
 70
       0
  9
$USERR1
 40
0.0
  9
$USERR2
 40
0.0
  9
$USERR3
 40
0.0
  9
$USERR4
 40
0.0
  9
$USERR5
 40
0.0
  9
$WORLDVIEW
 70
       1
  9
$SHADEDGE
 70
       3
  9
$SHADEDIF
 70
      70
  9
$TILEMODE
 70
       1
  9
$MAXACTVP
 70
      16
  9
$PINSBASE
 10
0.0
 20
0.0
 30
0.0
  9
$PLIMCHECK
 70
       0
  9
$PEXTMIN
 10
1.00000000E+20
 20
1.00000000E+20
 30
1.00000000E+20
  9
$PEXTMAX
 10
-1.00000000E+20
 20
-1.00000000E+20
 30
-1.00000000E+20
  9
$PLIMMIN
 10
0.0
 20
0.0
  9
$PLIMMAX
 10
12.0
 20
9.0
  9
$UNITMODE
 70
       0
  9
$VISRETAIN
 70
       0
  9
$PLINEGEN
 70
       1
  9
$PSLTSCALE
 70
       0
  9
$TREEDEPTH
 70
    3020
  9
$PICKSTYLE
 70
       1
  9
$CMLSTYLE
  2
STANDARD
  9
$CMLJUST
 70
       0
  9
$CMLSCALE
 40
1.0
  9
$PROXYGRAPHICS
 70
       0
  9
$MEASUREMENT
 70
       0
  0
ENDSEC
  0
SECTION
  2
CLASSES
  0
CLASS
  1
LWPOLYLINE
  2
AcDbPolyline
  3
"AutoCAD"
 90
        0
280
       0
281
       1
  0
CLASS
  1
IMAGE
  2
AcDbRasterImage
  3
ISM
 90
      127
280
       0
281
       1
  0
CLASS
  1
OLE2FRAME
  2
AcDbOle2Frame
  3
""
 90
        0
280
       0
281
       1
  0
CLASS
  1
HATCH
  2
AcDbHatch
  3
"ACAD_SEDONA"
 90
        0
280
       0
281
       1
  0
CLASS
  1
DICTIONARYVAR
  2
AcDbDictionaryVar
  3
"AutoCAD"
 90
        0
280
       0
281
       0
  0
CLASS
  1
RASTERVARIABLES
  2
AcDbRasterVariables
  3
ISM
 90
        0
280
       0
281
       0
  0
CLASS
  1
IMAGEDEF
  2
AcDbRasterImageDef
  3
ISM
 90
        0
280
       0
281
       0
  0
CLASS
  1
IMAGEDEF_REACTOR
  2
AcDbRasterImageDefReactor
  3
ISM
 90
        1
280
       0
281
       0
  0
CLASS
  1
IDBUFFER
  2
AcDbIdBuffer
  3
"Acad"
 90
        0
280
       0
281
       0
  0
CLASS
  1
SPATIAL_FILTER
  2
AcDbSpatialFilter
  3
"Acad"
 90
        0
280
       0
281
       0
  0
CLASS
  1
XRECORD
  2
AcDbXrecord
  3
"<Built In>"
 90
        0
280
       0
281
       0
  0
CLASS
  1
SORTENTSTABLE
  2
AcDbSortentsTable
  3
"AutoCAD"
 90
        0
280
       0
281
       0
  0
CLASS
  1
LAYER_INDEX
  2
AcDbLayerIndex
  3
"Acad"
 90
        0
280
       0
281
       0
  0
CLASS
  1
SPATIAL_INDEX
  2
AcDbSpatialIndex
  3
"Acad"
 90
        0
280
       0
281
       0
  0
CLASS
  1
OBJECT_PTR
  2
CAseDLPNTableRecord
  3
"ASE-LPNTableRecord"
 90
        1
280
       0
281
       0
  0
CLASS
  1
LAYOUT
  2
AcDbLayout
  3
"AutoCAD 2000"
 90
        1
280
       0
281
       0
  0
CLASS
  1
PLOTSETTINGS
  2
AcDbPlotSettings
  3
"AutoCAD 2000"
 90
        1
280
       0
281
       0
  0
CLASS
  1
ACDBDICTIONARYWDFLT
  2
AcDbDictionaryWithDefault
  3
"AutoCAD 2000"
 90
        1
280
       0
281
       0
  0
CLASS
  1
ACDBPLACEHOLDER
  2
AcDbPlaceHolder
  3
"AutoCAD 2000"
 90
        1
280
       0
281
       0
  0
CLASS
  1
VBA_PROJECT
  2
AcDbVbaProject
  3
"acadvba"
 90
        1
280
       0
281
       0
  0
CLASS
  1
WIPEOUT
  2
AcDbWipeout
  3
WipeOut|AutoCAD Express Tool|expresstools@autodesk.com
 90
      127
280
       0
281
       1
  0
CLASS
  1
WIPEOUTVARIABLES
  2
AcDbWipeoutVariables
  3
WipeOut|AutoCAD Express Tool|expresstools@autodesk.com
 90
        0
280
       0
281
       0
  0
CLASS
  1
RTEXT
  2
RText
  3
RText|AutoCAD Express Tool|expresstools@autodesk.com
 90
        0
280
       0
281
       1
  0
CLASS
  1
ARCALIGNEDTEXT
  2
AcDbArcAlignedText
  3
ATEXT|AutoCAD Express Tool|expresstools@autodesk.com
 90
        0
280
       0
281
       1
  0
ENDSEC
  0
SECTION
  2
TABLES
  0
TABLE
  2
VPORT
  5
7
100
AcDbSymbolTable
 70
       1
  0
VPORT
  5
15
100
AcDbSymbolTableRecord
100
AcDbViewportTableRecord
  2
*ACTIVE
 70
       0
 10
0.0
 20
0.0
 11
1.0
 21
1.0
 12
0.0
 22
-1.25
 13
0.0
 23
0.0
 14
1.0
 24
1.0
 15
0.0
 25
0.0
 16
0.0
 26
0.0
 36
1.0
 17
0.0
 27
0.0
 37
0.0
 40
146.85254156
 41
2.64541282
 42
50.0
 43
0.0
 44
0.0
 50
0.0
 51
0.0
 71
       0
 72
     100
 73
       1
 74
       1
 75
       0
 76
       0
 77
       0
 78
       0
  0
ENDTAB
  0
TABLE
  2
LTYPE
  5
4
100
AcDbSymbolTable
 70
      30
  0
LTYPE
  5
11
100
AcDbSymbolTableRecord
100
AcDbLinetypeTableRecord
  2
BYBLOCK
 70
      64
  3

 72
      65
 73
       0
 40
0.0
  0
LTYPE
  5
12
100
AcDbSymbolTableRecord
100
AcDbLinetypeTableRecord
  2
BYLAYER
 70
      64
  3

 72
      65
 73
       0
 40
0.0
  0
LTYPE
  5
13
100
AcDbSymbolTableRecord
100
AcDbLinetypeTableRecord
  2
CONTINUOUS
 70
      64
  3
Solid line
 72
      65
 73
       0
 40
0.0
  0
LTYPE
  5
1D
100
AcDbSymbolTableRecord
100
AcDbLinetypeTableRecord
  2
HIDDENX2
 70
      64
  3
CADPAC LINETYPE
 72
      65
 73
       2
 40
14.62534007
 49
10.96900505
 74
       0
 49
-3.65633502
 74
       0
  0
LTYPE
  5
1E
100
AcDbSymbolTableRecord
100
AcDbLinetypeTableRecord
  2
HIDDEN
 70
      64
  3
CADPAC LINETYPE
 72
      65
 73
       2
 40
10.96900505
 49
7.31267004
 74
       0
 49
-3.65633502
 74
       0
  0
LTYPE
  5
1F
100
AcDbSymbolTableRecord
100
AcDbLinetypeTableRecord
  2
HIDDEN2
 70
      64
  3
CADPAC LINETYPE
 72
      65
 73
       2
 40
9.14083755
 49
5.48450253
 74
       0
 49
-3.65633502
 74
       0
  0
LTYPE
  5
20
100
AcDbSymbolTableRecord
100
AcDbLinetypeTableRecord
  2
DASHED
 70
      64
  3
CADPAC LINETYPE
 72
      65
 73
       2
 40
10.96900505
 49
7.31267004
 74
       0
 49
-3.65633502
 74
       0
  0
LTYPE
  5
21
100
AcDbSymbolTableRecord
100
AcDbLinetypeTableRecord
  2
DASHED2
 70
      64
  3
CADPAC LINETYPE
 72
      65
 73
       2
 40
8.22675379
 49
5.48450253
 74
       0
 49
-2.74225126
 74
       0
  0
LTYPE
  5
22
100
AcDbSymbolTableRecord
100
AcDbLinetypeTableRecord
  2
DASHEDX2
 70
      64
  3
CADPAC LINETYPE
 72
      65
 73
       2
 40
16.45350758
 49
10.96900505
 74
       0
 49
-5.48450253
 74
       0
  0
LTYPE
  5
23
100
AcDbSymbolTableRecord
100
AcDbLinetypeTableRecord
  2
DOTX2
 70
      64
  3
CADPAC LINETYPE
 72
      65
 73
       2
 40
4.57041877
 49
0.0
 74
       0
 49
-4.57041877
 74
       0
  0
LTYPE
  5
24
100
AcDbSymbolTableRecord
100
AcDbLinetypeTableRecord
  2
DOT
 70
      64
  3
CADPAC LINETYPE
 72
      65
 73
       2
 40
3.65633502
 49
0.0
 74
       0
 49
-3.65633502
 74
       0
  0
LTYPE
  5
25
100
AcDbSymbolTableRecord
100
AcDbLinetypeTableRecord
  2
DOT2
 70
      64
  3
CADPAC LINETYPE
 72
      65
 73
       2
 40
2.74225126
 49
0.0
 74
       0
 49
-2.74225126
 74
       0
  0
LTYPE
  5
26
100
AcDbSymbolTableRecord
100
AcDbLinetypeTableRecord
  2
CENTERX2
 70
      64
  3
CADPAC LINETYPE
 72
      65
 73
       4
 40
21.93801011
 49
9.14083755
 74
       0
 49
-4.57041877
 74
       0
 49
3.65633502
 74
       0
 49
-4.57041877
 74
       0
  0
LTYPE
  5
27
100
AcDbSymbolTableRecord
100
AcDbLinetypeTableRecord
  2
CENTER
 70
      64
  3
CADPAC LINETYPE
 72
      65
 73
       4
 40
16.81914108
 49
7.31267004
 74
       0
 49
-3.65633502
 74
       0
 49
2.19380101
 74
       0
 49
-3.65633502
 74
       0
  0
LTYPE
  5
28
100
AcDbSymbolTableRecord
100
AcDbLinetypeTableRecord
  2
CENTER2
 70
      64
  3
CADPAC LINETYPE
 72
      65
 73
       4
 40
11.70027206
 49
5.48450253
 74
       0
 49
-2.74225126
 74
       0
 49
0.731267
 74
       0
 49
-2.74225126
 74
       0
  0
LTYPE
  5
29
100
AcDbSymbolTableRecord
100
AcDbLinetypeTableRecord
  2
DASHDOTX2
 70
      64
  3
CADPAC LINETYPE
 72
      65
 73
       4
 40
18.28167509
 49
9.14083755
 74
       0
 49
-4.57041877
 74
       0
 49
0.0
 74
       0
 49
-4.57041877
 74
       0
  0
LTYPE
  5
2A
100
AcDbSymbolTableRecord
100
AcDbLinetypeTableRecord
  2
DASHDOT
 70
      64
  3
CADPAC LINETYPE
 72
      65
 73
       4
 40
14.62534007
 49
7.31267004
 74
       0
 49
-3.65633502
 74
       0
 49
0.0
 74
       0
 49
-3.65633502
 74
       0
  0
LTYPE
  5
2B
100
AcDbSymbolTableRecord
100
AcDbLinetypeTableRecord
  2
DASHDOT2
 70
      64
  3
CADPAC LINETYPE
 72
      65
 73
       4
 40
10.96900505
 49
5.48450253
 74
       0
 49
-2.74225126
 74
       0
 49
0.0
 74
       0
 49
-2.74225126
 74
       0
  0
LTYPE
  5
2C
100
AcDbSymbolTableRecord
100
AcDbLinetypeTableRecord
  2
DIVIDEX2
 70
      64
  3
CADPAC LINETYPE
 72
      65
 73
       6
 40
22.85209386
 49
9.14083755
 74
       0
 49
-4.57041877
 74
       0
 49
0.0
 74
       0
 49
-4.57041877
 74
       0
 49
0.0
 74
       0
 49
-4.57041877
 74
       0
  0
LTYPE
  5
2D
100
AcDbSymbolTableRecord
100
AcDbLinetypeTableRecord
  2
DIVIDE
 70
      64
  3
CADPAC LINETYPE
 72
      65
 73
       6
 40
18.28167509
 49
7.31267004
 74
       0
 49
-3.65633502
 74
       0
 49
0.0
 74
       0
 49
-3.65633502
 74
       0
 49
0.0
 74
       0
 49
-3.65633502
 74
       0
  0
LTYPE
  5
2E
100
AcDbSymbolTableRecord
100
AcDbLinetypeTableRecord
  2
DIVIDE2
 70
      64
  3
CADPAC LINETYPE
 72
      65
 73
       6
 40
13.71125632
 49
5.48450253
 74
       0
 49
-2.74225126
 74
       0
 49
0.0
 74
       0
 49
-2.74225126
 74
       0
 49
0.0
 74
       0
 49
-2.74225126
 74
       0
  0
LTYPE
  5
2F
100
AcDbSymbolTableRecord
100
AcDbLinetypeTableRecord
  2
BORDERX2
 70
      64
  3
CADPAC LINETYPE
 72
      65
 73
       6
 40
31.99293141
 49
9.14083755
 74
       0
 49
-4.57041877
 74
       0
 49
9.14083755
 74
       0
 49
-4.57041877
 74
       0
 49
0.0
 74
       0
 49
-4.57041877
 74
       0
  0
LTYPE
  5
30
100
AcDbSymbolTableRecord
100
AcDbLinetypeTableRecord
  2
BORDER
 70
      64
  3
CADPAC LINETYPE
 72
      65
 73
       6
 40
25.59434513
 49
7.31267004
 74
       0
 49
-3.65633502
 74
       0
 49
7.31267004
 74
       0
 49
-3.65633502
 74
       0
 49
0.0
 74
       0
 49
-3.65633502
 74
       0
  0
LTYPE
  5
31
100
AcDbSymbolTableRecord
100
AcDbLinetypeTableRecord
  2
BORDER2
 70
      64
  3
CADPAC LINETYPE
 72
      65
 73
       6
 40
19.19575885
 49
5.48450253
 74
       0
 49
-2.74225126
 74
       0
 49
5.48450253
 74
       0
 49
-2.74225126
 74
       0
 49
0.0
 74
       0
 49
-2.74225126
 74
       0
  0
LTYPE
  5
32
100
AcDbSymbolTableRecord
100
AcDbLinetypeTableRecord
  2
PHANTOMX2
 70
      64
  3
CADPAC LINETYPE
 72
      65
 73
       6
 40
27.42251264
 49
9.14083755
 74
       0
 49
-3.65633502
 74
       0
 49
3.65633502
 74
       0
 49
-3.65633502
 74
       0
 49
3.65633502
 74
       0
 49
-3.65633502
 74
       0
  0
LTYPE
  5
33
100
AcDbSymbolTableRecord
100
AcDbLinetypeTableRecord
  2
PHANTOM
 70
      64
  3
CADPAC LINETYPE
 72
      65
 73
       6
 40
22.66927711
 49
7.31267004
 74
       0
 49
-3.65633502
 74
       0
 49
2.19380101
 74
       0
 49
-3.65633502
 74
       0
 49
2.19380101
 74
       0
 49
-3.65633502
 74
       0
  0
LTYPE
  5
34
100
AcDbSymbolTableRecord
100
AcDbLinetypeTableRecord
  2
PHANTOM2
 70
      64
  3
CADPAC LINETYPE
 72
      65
 73
       6
 40
19.3785756
 49
5.48450253
 74
       0
 49
-3.65633502
 74
       0
 49
1.46253401
 74
       0
 49
-3.65633502
 74
       0
 49
1.46253401
 74
       0
 49
-3.65633502
 74
       0
  0
LTYPE
  5
35
100
AcDbSymbolTableRecord
100
AcDbLinetypeTableRecord
  2
ACAD_ISO06W100
 70
      64
  3
CADPAC LINETYPE
 72
      65
 73
       8
 40
24.68026137
 49
9.14083755
 74
       0
 49
-4.57041877
 74
       0
 49
0.0
 74
       0
 49
-3.65633502
 74
       0
 49
0.0
 74
       0
 49
-3.65633502
 74
       0
 49
0.0
 74
       0
 49
-3.65633502
 74
       0
  0
LTYPE
  5
36
100
AcDbSymbolTableRecord
100
AcDbLinetypeTableRecord
  2
ACAD_ISO13W100
 70
      64
  3
CADPAC LINETYPE
 72
      65
 73
       8
 40
29.25068015
 49
7.31267004
 74
       0
 49
-3.65633502
 74
       0
 49
7.31267004
 74
       0
 49
-3.65633502
 74
       0
 49
0.0
 74
       0
 49
-3.65633502
 74
       0
 49
0.0
 74
       0
 49
-3.65633502
 74
       0
  0
LTYPE
  5
37
100
AcDbSymbolTableRecord
100
AcDbLinetypeTableRecord
  2
ACAD_ISO14W100
 70
      64
  3
CADPAC LINETYPE
 72
      65
 73
       8
 40
21.93801011
 49
7.31267004
 74
       0
 49
-3.65633502
 74
       0
 49
0.0
 74
       0
 49
-3.65633502
 74
       0
 49
0.0
 74
       0
 49
-3.65633502
 74
       0
 49
0.0
 74
       0
 49
-3.65633502
 74
       0
  0
ENDTAB
  0
TABLE
  2
LAYER
  5
2
100
AcDbSymbolTable
 70
       4
  0
LAYER
  5
14
100
AcDbSymbolTableRecord
100
AcDbLayerTableRecord
  2
0
 70
       0
 62
       7
  6
CONTINUOUS
  0
LAYER
  5
38
100
AcDbSymbolTableRecord
100
AcDbLayerTableRecord
  2
SLD-0_0
 70
       0
 62
       7
  6
CONTINUOUS
  0
LAYER
  5
39
100
AcDbSymbolTableRecord
100
AcDbLayerTableRecord
  2
SLD-0
 70
       0
 62
       7
  6
CONTINUOUS
  0
LAYER
  5
3A
100
AcDbSymbolTableRecord
100
AcDbLayerTableRecord
  2
レイヤー_1
 70
       0
 62
       7
  6
CONTINUOUS
  0
ENDTAB
  0
TABLE
  2
STYLE
  5
3
100
AcDbSymbolTable
 70
       1
  0
STYLE
  5
17
100
AcDbSymbolTableRecord
100
AcDbTextStyleTableRecord
  2
STANDARD
 70
       0
 40
0.0
 41
1.0
 50
0.0
 71
       0
 42
5.0
  3
txt.shx
  4
bigfont.shx
  0
ENDTAB
  0
TABLE
  2
VIEW
  5
5
100
AcDbSymbolTable
 70
       1
  0
VIEW
  5
3B
100
AcDbSymbolTableRecord
100
AcDbViewTableRecord
  2
QQQQ
 70
       0
 40
146.85254156
 10
0.0
 20
-1.25
 41
388.48559568
 11
0.0
 21
0.0
 31
1.0
 12
100.0
 22
100.0
 32
0.0
 42
50.0
 43
0.0
 44
0.0
 50
0.0
 71
       0
  0
ENDTAB
  0
TABLE
  2
UCS
  5
6
100
AcDbSymbolTable
 70
       0
  0
ENDTAB
  0
TABLE
  2
APPID
  5
8
100
AcDbSymbolTable
 70
       1
  0
APPID
  5
16
100
AcDbSymbolTableRecord
100
AcDbRegAppTableRecord
  2
ACAD
 70
       0
  0
ENDTAB
  0
TABLE
  2
DIMSTYLE
  5
9
100
AcDbSymbolTable
 70
       1
  0
DIMSTYLE
105
18
100
AcDbSymbolTableRecord
100
AcDbDimStyleTableRecord
  2
STANDARD
 70
       0
  3

  4

  5

  6

  7

 40
1.0
 41
0.18
 42
0.0625
 43
0.38
 44
0.18
 45
0.0
 46
0.0
 47
0.0
 48
0.0
 71
       0
 72
       0
 73
       1
 74
       1
 75
       0
 76
       0
 77
       0
 78
       0
140
0.18
141
0.09
142
0.0
143
25.4
144
1.0
145
0.0
146
1.0
147
0.09
170
       0
171
       2
172
       0
173
       0
174
       0
175
       0
176
       0
177
       0
178
       0
270
       2
271
       4
272
       4
273
       2
274
       2
275
       0
280
       0
281
       0
282
       0
283
       1
284
       0
285
       0
286
       0
287
       0
288
       0
340
17
  0
ENDTAB
  0
TABLE
  2
BLOCK_RECORD
  5
1
100
AcDbSymbolTable
 70
       0
  0
BLOCK_RECORD
  5
A
100
AcDbSymbolTableRecord
100
AcDbBlockTableRecord
  2
*MODEL_SPACE
  0
BLOCK_RECORD
  5
B
100
AcDbSymbolTableRecord
100
AcDbBlockTableRecord
  2
*PAPER_SPACE
  0
ENDTAB
  0
ENDSEC
  0
SECTION
  2
BLOCKS
  0
BLOCK
  5
D
100
AcDbEntity
  8
0
100
AcDbBlockBegin
  2
*MODEL_SPACE
 70
       0
 10
0.0
 20
0.0
 30
0.0
  3
*MODEL_SPACE
  1

  0
ENDBLK
  5
E
100
AcDbEntity
  8
0
100
AcDbBlockEnd
  0
BLOCK
  5
F
100
AcDbEntity
 67
       1
  8
0
100
AcDbBlockBegin
  2
*PAPER_SPACE
 70
       0
 10
0.0
 20
0.0
 30
0.0
  3
*PAPER_SPACE
  1

  0
ENDBLK
  5
10
100
AcDbEntity
 67
       1
  8
0
100
AcDbBlockEnd
  0
ENDSEC
  0
SECTION
  2
ENTITIES
  0
LINE
  5
3C
100
AcDbEntity
  8
レイヤー_1
  6
CONTINUOUS
 62
       7
100
AcDbLine
 10
33.55211251
 20
64.69911207
 30
0.0
 11
-68.44788749
 21
64.69911207
 31
0.0
  0
LINE
  5
3D
100
AcDbEntity
  8
レイヤー_1
  6
CONTINUOUS
 62
       7
100
AcDbLine
 10
33.55211251
 20
-15.30088793
 30
0.0
 11
-68.44788749
 21
-15.30088793
 31
0.0
  0
LINE
  5
3E
100
AcDbEntity
  8
レイヤー_1
  6
CONTINUOUS
 62
       7
100
AcDbLine
 10
33.55211251
 20
-15.30088793
 30
0.0
 11
33.55211251
 21
64.69911207
 31
0.0
  0
LINE
  5
3F
100
AcDbEntity
  8
0
  6
CONTINUOUS
 62
       7
100
AcDbLine
 10
-161.78533727
 20
61.69911207
 30
0.0
 11
-161.78533727
 21
-12.30088793
 31
0.0
  0
LINE
  5
40
100
AcDbEntity
  8
0
  6
CONTINUOUS
 62
       7
100
AcDbLine
 10
-117.78533727
 20
-12.30088793
 30
0.0
 11
-161.78533727
 21
-12.30088793
 31
0.0
  0
LINE
  5
41
100
AcDbEntity
  8
0
  6
CONTINUOUS
 62
       7
100
AcDbLine
 10
-117.78533727
 20
61.69911207
 30
0.0
 11
-161.78533727
 21
61.69911207
 31
0.0
  0
LINE
  5
42
100
AcDbEntity
  8
0
  6
CONTINUOUS
 62
       7
100
AcDbLine
 10
-117.78533727
 20
61.69911207
 30
0.0
 11
-117.78533727
 21
-12.30088793
 31
0.0
  0
LINE
  5
43
100
AcDbEntity
  8
0
  6
CONTINUOUS
 62
       7
100
AcDbLine
 10
-69.44788749
 20
-14.30088793
 30
0.0
 11
-69.44788749
 21
63.69911207
 31
0.0
  0
LINE
  5
44
100
AcDbEntity
  8
0
  6
CONTINUOUS
 62
       7
100
AcDbLine
 10
-66.44788749
 20
-15.30088793
 30
0.0
 11
-66.44788749
 21
64.69911207
 31
0.0
  0
ARC
  5
45
100
AcDbEntity
  8
0
  6
CONTINUOUS
 62
       7
100
AcDbCircle
 10
-68.44788749
 20
-14.30088793
 30
0.0
 40
1.0
100
AcDbArc
 50
180.0
 51
270.0
  0
ARC
  5
46
100
AcDbEntity
  8
0
  6
CONTINUOUS
 62
       7
100
AcDbCircle
 10
-68.44788749
 20
63.69911207
 30
0.0
 40
1.0
100
AcDbArc
 50
90.0
 51
180.0
  0
LINE
  5
47
100
AcDbEntity
  8
SLD-0_0
  6
CONTINUOUS
 62
       7
100
AcDbLine
 10
-151.7853372
 20
-15.80088644
 30
0.0
 11
-152.28533565
 21
-15.30088793
 31
0.0
  0
LINE
  5
48
100
AcDbEntity
  8
SLD-0_0
  6
CONTINUOUS
 62
       7
100
AcDbLine
 10
-145.28533707
 20
-17.80088677
 30
0.0
 11
-145.28533707
 21
-15.80088644
 31
0.0
  0
LINE
  5
49
100
AcDbEntity
  8
SLD-0_0
  6
CONTINUOUS
 62
       7
100
AcDbLine
 10
-137.28533762
 20
-19.80088709
 30
0.0
 11
-142.28533751
 21
-19.80088709
 31
0.0
  0
LINE
  5
4A
100
AcDbEntity
  8
SLD-0_0
  6
CONTINUOUS
 62
       7
100
AcDbLine
 10
-134.28533713
 20
-15.80088644
 30
0.0
 11
-134.28533713
 21
-17.80088677
 31
0.0
  0
LINE
  5
4B
100
AcDbEntity
  8
SLD-0_0
  6
CONTINUOUS
 62
       7
100
AcDbLine
 10
-175.78533741
 20
63.19911347
 30
0.0
 11
-164.78533727
 21
63.19911207
 31
0.0
  0
LINE
  5
4C
100
AcDbEntity
  8
SLD-0_0
  6
CONTINUOUS
 62
       7
100
AcDbLine
 10
-103.78533678
 20
-13.80088611
 30
0.0
 11
-114.78533727
 21
-13.80088793
 31
0.0
  0
LINE
  5
4D
100
AcDbEntity
  8
SLD-0_0
  6
CONTINUOUS
 62
       7
100
AcDbLine
 10
-164.98533713
 20
-6.60088717
 30
0.0
 11
-172.78533692
 21
-6.60088717
 31
0.0
  0
LINE
  5
4E
100
AcDbEntity
  8
SLD-0_0
  6
CONTINUOUS
 62
       7
100
AcDbLine
 10
-106.78533914
 20
-6.60088717
 30
0.0
 11
-114.58533706
 21
-6.60088717
 31
0.0
  0
LINE
  5
4F
100
AcDbEntity
  8
SLD-0_0
  6
CONTINUOUS
 62
       7
100
AcDbLine
 10
-172.78533692
 20
-5.60088886
 30
0.0
 11
-164.98533713
 21
-5.60088886
 31
0.0
  0
LINE
  5
50
100
AcDbEntity
  8
SLD-0_0
  6
CONTINUOUS
 62
       7
100
AcDbLine
 10
-114.58533706
 20
-5.60088886
 30
0.0
 11
-106.78533914
 21
-5.60088886
 31
0.0
  0
LINE
  5
51
100
AcDbEntity
  8
SLD-0_0
  6
CONTINUOUS
 62
       7
100
AcDbLine
 10
-175.78533741
 20
63.19911347
 30
0.0
 11
-175.78533741
 21
-13.80088611
 31
0.0
  0
LINE
  5
52
100
AcDbEntity
  8
SLD-0_0
  6
CONTINUOUS
 62
       7
100
AcDbLine
 10
-172.78533692
 20
2.19911279
 30
0.0
 11
-164.98533713
 21
2.19911279
 31
0.0
  0
LINE
  5
53
100
AcDbEntity
  8
SLD-0_0
  6
CONTINUOUS
 62
       7
100
AcDbLine
 10
-164.98533713
 20
9.39911173
 30
0.0
 11
-172.78533692
 21
9.39911173
 31
0.0
  0
LINE
  5
54
100
AcDbEntity
  8
SLD-0_0
  6
CONTINUOUS
 62
       7
100
AcDbLine
 10
-172.78533692
 20
10.3991119
 30
0.0
 11
-164.98533713
 21
10.3991119
 31
0.0
  0
LINE
  5
55
100
AcDbEntity
  8
SLD-0_0
  6
CONTINUOUS
 62
       7
100
AcDbLine
 10
-144.38533766
 20
-15.80088644
 30
0.0
 11
-135.18533746
 21
-15.80088644
 31
0.0
  0
LINE
  5
56
100
AcDbEntity
  8
SLD-0_0
  6
CONTINUOUS
 62
       7
100
AcDbLine
 10
-114.78533727
 20
-0.80088771
 30
0.0
 11
-114.58533706
 21
-0.80088771
 31
0.0
  0
LINE
  5
57
100
AcDbEntity
  8
SLD-0_0
  6
CONTINUOUS
 62
       7
100
AcDbLine
 10
-106.78533914
 20
2.19911279
 30
0.0
 11
-114.58533706
 21
2.19911279
 31
0.0
  0
LINE
  5
58
100
AcDbEntity
  8
SLD-0_0
  6
CONTINUOUS
 62
       7
100
AcDbLine
 10
-106.78533914
 20
-0.80088771
 30
0.0
 11
-103.78533678
 21
-0.80088771
 31
0.0
  0
LINE
  5
59
100
AcDbEntity
  8
SLD-0_0
  6
CONTINUOUS
 62
       7
100
AcDbLine
 10
-113.28533741
 20
28.69911201
 30
0.0
 11
-113.28533741
 21
20.69911209
 31
0.0
  0
LINE
  5
5A
100
AcDbEntity
  8
SLD-0_0
  6
CONTINUOUS
 62
       7
100
AcDbLine
 10
-106.78533914
 20
50.19911134
 30
0.0
 11
-103.78533678
 21
50.19911134
 31
0.0
  0
LINE
  5
5B
100
AcDbEntity
  8
SLD-0_0
  6
CONTINUOUS
 62
       7
100
AcDbLine
 10
-114.58533706
 20
31.19911195
 30
0.0
 11
-106.78533914
 21
31.19911195
 31
0.0
  0
LINE
  5
5C
100
AcDbEntity
  8
SLD-0_0
  6
CONTINUOUS
 62
       7
100
AcDbLine
 10
-114.78533727
 20
50.19911134
 30
0.0
 11
-114.58533706
 21
50.19911134
 31
0.0
  0
LINE
  5
5D
100
AcDbEntity
  8
SLD-0_0
  6
CONTINUOUS
 62
       7
100
AcDbLine
 10
-144.38533766
 20
65.1991138
 30
0.0
 11
-135.18533746
 21
65.1991138
 31
0.0
  0
LINE
  5
5E
100
AcDbEntity
  8
SLD-0_0
  6
CONTINUOUS
 62
       7
100
AcDbLine
 10
-164.78533727
 20
50.19911134
 30
0.0
 11
-164.98533713
 21
50.19911134
 31
0.0
  0
LINE
  5
5F
100
AcDbEntity
  8
SLD-0_0
  6
CONTINUOUS
 62
       7
100
AcDbLine
 10
-172.78533692
 20
47.19911271
 30
0.0
 11
-164.98533713
 21
47.19911271
 31
0.0
  0
LINE
  5
60
100
AcDbEntity
  8
SLD-0_0
  6
CONTINUOUS
 62
       7
100
AcDbLine
 10
-172.78533692
 20
50.19911134
 30
0.0
 11
-175.78533741
 21
50.19911134
 31
0.0
  0
LINE
  5
61
100
AcDbEntity
  8
SLD-0_0
  6
CONTINUOUS
 62
       7
100
AcDbLine
 10
-166.28533771
 20
20.69911209
 30
0.0
 11
-166.28533771
 21
28.69911201
 31
0.0
  0
LINE
  5
62
100
AcDbEntity
  8
SLD-0_0
  6
CONTINUOUS
 62
       7
100
AcDbLine
 10
-172.78533692
 20
-0.80088771
 30
0.0
 11
-175.78533741
 21
-0.80088771
 31
0.0
  0
LINE
  5
63
100
AcDbEntity
  8
SLD-0_0
  6
CONTINUOUS
 62
       7
100
AcDbLine
 10
-164.98533713
 20
18.19911215
 30
0.0
 11
-172.78533692
 21
18.19911215
 31
0.0
  0
LINE
  5
64
100
AcDbEntity
  8
SLD-0_0
  6
CONTINUOUS
 62
       7
100
AcDbLine
 10
-164.78533727
 20
-0.80088771
 30
0.0
 11
-164.98533713
 21
-0.80088771
 31
0.0
  0
LINE
  5
65
100
AcDbEntity
  8
SLD-0_0
  6
CONTINUOUS
 62
       7
100
AcDbLine
 10
-138.03533727
 20
64.69911207
 30
0.0
 11
-138.03533727
 21
65.1991138
 31
0.0
  0
LINE
  5
66
100
AcDbEntity
  8
SLD-0_0
  6
CONTINUOUS
 62
       7
100
AcDbLine
 10
-141.53533692
 20
-15.30088793
 30
0.0
 11
-141.53533692
 21
-15.80088644
 31
0.0
  0
LINE
  5
67
100
AcDbEntity
  8
SLD-0_0
  6
CONTINUOUS
 62
       7
100
AcDbLine
 10
-127.28533848
 20
-15.30088793
 30
0.0
 11
-127.78533699
 21
-15.80088644
 31
0.0
  0
LINE
  5
68
100
AcDbEntity
  8
SLD-0_0
  6
CONTINUOUS
 62
       7
100
AcDbLine
 10
-145.28533707
 20
-15.80088644
 30
0.0
 11
-151.7853372
 21
-15.80088644
 31
0.0
  0
LINE
  5
69
100
AcDbEntity
  8
SLD-0_0
  6
CONTINUOUS
 62
       7
100
AcDbLine
 10
-142.28533751
 20
-19.80088709
 30
0.0
 11
-145.28533707
 21
-17.80088677
 31
0.0
  0
LINE
  5
6A
100
AcDbEntity
  8
SLD-0_0
  6
CONTINUOUS
 62
       7
100
AcDbLine
 10
-134.28533713
 20
-17.80088677
 30
0.0
 11
-137.28533762
 21
-19.80088709
 31
0.0
  0
LINE
  5
6B
100
AcDbEntity
  8
SLD-0_0
  6
CONTINUOUS
 62
       7
100
AcDbLine
 10
-127.78533699
 20
-15.80088644
 30
0.0
 11
-134.28533713
 21
-15.80088644
 31
0.0
  0
LINE
  5
6C
100
AcDbEntity
  8
SLD-0_0
  6
CONTINUOUS
 62
       7
100
AcDbLine
 10
-164.78533727
 20
-13.80088793
 30
0.0
 11
-175.78533741
 21
-13.80088611
 31
0.0
  0
LINE
  5
6D
100
AcDbEntity
  8
SLD-0_0
  6
CONTINUOUS
 62
       7
100
AcDbLine
 10
-114.78533727
 20
63.19911207
 30
0.0
 11
-103.78533678
 21
63.19911347
 31
0.0
  0
LINE
  5
6E
100
AcDbEntity
  8
SLD-0_0
  6
CONTINUOUS
 62
       7
100
AcDbLine
 10
-172.78533692
 20
55.9991108
 30
0.0
 11
-164.98533713
 21
55.9991108
 31
0.0
  0
LINE
  5
6F
100
AcDbEntity
  8
SLD-0_0
  6
CONTINUOUS
 62
       7
100
AcDbLine
 10
-114.58533706
 20
55.9991108
 30
0.0
 11
-106.78533914
 21
55.9991108
 31
0.0
  0
LINE
  5
70
100
AcDbEntity
  8
SLD-0_0
  6
CONTINUOUS
 62
       7
100
AcDbLine
 10
-164.98533713
 20
54.9991125
 30
0.0
 11
-172.78533692
 21
54.9991125
 31
0.0
  0
LINE
  5
71
100
AcDbEntity
  8
SLD-0_0
  6
CONTINUOUS
 62
       7
100
AcDbLine
 10
-106.78533914
 20
54.9991125
 30
0.0
 11
-114.58533706
 21
54.9991125
 31
0.0
  0
LINE
  5
72
100
AcDbEntity
  8
SLD-0_0
  6
CONTINUOUS
 62
       7
100
AcDbLine
 10
-103.78533678
 20
63.19911347
 30
0.0
 11
-103.78533678
 21
-13.80088611
 31
0.0
  0
LINE
  5
73
100
AcDbEntity
  8
SLD-0_0
  6
CONTINUOUS
 62
       7
100
AcDbLine
 10
-106.78533914
 20
47.19911271
 30
0.0
 11
-114.58533706
 21
47.19911271
 31
0.0
  0
LINE
  5
74
100
AcDbEntity
  8
SLD-0_0
  6
CONTINUOUS
 62
       7
100
AcDbLine
 10
-114.58533706
 20
39.9991119
 30
0.0
 11
-106.78533914
 21
39.9991119
 31
0.0
  0
LINE
  5
75
100
AcDbEntity
  8
SLD-0_0
  6
CONTINUOUS
 62
       7
100
AcDbLine
 10
-106.78533914
 20
38.99911174
 30
0.0
 11
-114.58533706
 21
38.99911174
 31
0.0
  0
LINE
  5
76
100
AcDbEntity
  8
SLD-0_0
  6
CONTINUOUS
 62
       7
100
AcDbLine
 10
-144.38533766
 20
-15.80088644
 30
0.0
 11
-144.38533766
 21
-15.30088793
 31
0.0
  0
LINE
  5
77
100
AcDbEntity
  8
SLD-0_0
  6
CONTINUOUS
 62
       7
100
AcDbLine
 10
-135.18533746
 20
-15.30088793
 30
0.0
 11
-135.18533746
 21
-15.80088644
 31
0.0
  0
LINE
  5
78
100
AcDbEntity
  8
SLD-0_0
  6
CONTINUOUS
 62
       7
100
AcDbLine
 10
-114.58533706
 20
2.19911279
 30
0.0
 11
-114.58533706
 21
-13.80088611
 31
0.0
  0
LINE
  5
79
100
AcDbEntity
  8
SLD-0_0
  6
CONTINUOUS
 62
       7
100
AcDbLine
 10
-106.78533914
 20
-13.80088611
 30
0.0
 11
-106.78533914
 21
2.19911279
 31
0.0
  0
LINE
  5
7A
100
AcDbEntity
  8
SLD-0_0
  6
CONTINUOUS
 62
       7
100
AcDbLine
 10
-113.28533741
 20
20.69911209
 30
0.0
 11
-103.78533678
 21
20.69911209
 31
0.0
  0
LINE
  5
7B
100
AcDbEntity
  8
SLD-0_0
  6
CONTINUOUS
 62
       7
100
AcDbLine
 10
-103.78533678
 20
28.69911201
 30
0.0
 11
-113.28533741
 21
28.69911201
 31
0.0
  0
LINE
  5
7C
100
AcDbEntity
  8
SLD-0_0
  6
CONTINUOUS
 62
       7
100
AcDbLine
 10
-106.78533914
 20
31.19911195
 30
0.0
 11
-106.78533914
 21
63.19911347
 31
0.0
  0
LINE
  5
7D
100
AcDbEntity
  8
SLD-0_0
  6
CONTINUOUS
 62
       7
100
AcDbLine
 10
-114.58533706
 20
63.19911347
 30
0.0
 11
-114.58533706
 21
31.19911195
 31
0.0
  0
LINE
  5
7E
100
AcDbEntity
  8
SLD-0_0
  6
CONTINUOUS
 62
       7
100
AcDbLine
 10
-135.18533746
 20
65.1991138
 30
0.0
 11
-135.18533746
 21
64.69911207
 31
0.0
  0
LINE
  5
7F
100
AcDbEntity
  8
SLD-0_0
  6
CONTINUOUS
 62
       7
100
AcDbLine
 10
-144.38533766
 20
64.84602141
 30
0.0
 11
-144.38533766
 21
65.1991138
 31
0.0
  0
LINE
  5
80
100
AcDbEntity
  8
SLD-0_0
  6
CONTINUOUS
 62
       7
100
AcDbLine
 10
-164.98533713
 20
47.19911271
 30
0.0
 11
-164.98533713
 21
63.19911347
 31
0.0
  0
LINE
  5
81
100
AcDbEntity
  8
SLD-0_0
  6
CONTINUOUS
 62
       7
100
AcDbLine
 10
-172.78533692
 20
63.19911347
 30
0.0
 11
-172.78533692
 21
47.19911271
 31
0.0
  0
LINE
  5
82
100
AcDbEntity
  8
SLD-0_0
  6
CONTINUOUS
 62
       7
100
AcDbLine
 10
-166.28533771
 20
28.69911201
 30
0.0
 11
-175.78533741
 21
28.69911201
 31
0.0
  0
LINE
  5
83
100
AcDbEntity
  8
SLD-0_0
  6
CONTINUOUS
 62
       7
100
AcDbLine
 10
-175.78533741
 20
20.69911209
 30
0.0
 11
-166.28533771
 21
20.69911209
 31
0.0
  0
LINE
  5
84
100
AcDbEntity
  8
SLD-0_0
  6
CONTINUOUS
 62
       7
100
AcDbLine
 10
-172.78533692
 20
18.19911215
 30
0.0
 11
-172.78533692
 21
-13.80088611
 31
0.0
  0
LINE
  5
85
100
AcDbEntity
  8
SLD-0_0
  6
CONTINUOUS
 62
       7
100
AcDbLine
 10
-164.98533713
 20
-13.80088611
 30
0.0
 11
-164.98533713
 21
18.19911215
 31
0.0
  0
LINE
  5
86
100
AcDbEntity
  8
SLD-0_0
  6
CONTINUOUS
 62
       7
100
AcDbLine
 10
-141.53533692
 20
64.69911207
 30
0.0
 11
-141.53533692
 21
65.1991138
 31
0.0
  0
LINE
  5
87
100
AcDbEntity
  8
SLD-0_0
  6
CONTINUOUS
 62
       7
100
AcDbLine
 10
-138.03533727
 20
-15.30088793
 30
0.0
 11
-138.03533727
 21
-15.80088644
 31
0.0
  0
LINE
  5
88
100
AcDbEntity
  8
SLD-0_0
  6
CONTINUOUS
 62
       7
100
AcDbLine
 10
-116.28533727
 20
-15.30088793
 30
0.0
 11
-163.28533727
 21
-15.30088793
 31
0.0
  0
LINE
  5
89
100
AcDbEntity
  8
SLD-0_0
  6
CONTINUOUS
 62
       7
100
AcDbLine
 10
-164.78533727
 20
63.19911207
 30
0.0
 11
-164.78533727
 21
-13.80088793
 31
0.0
  0
LINE
  5
8A
100
AcDbEntity
  8
SLD-0_0
  6
CONTINUOUS
 62
       7
100
AcDbLine
 10
-116.28533727
 20
64.69911207
 30
0.0
 11
-163.28533727
 21
64.69911207
 31
0.0
  0
LINE
  5
8B
100
AcDbEntity
  8
SLD-0_0
  6
CONTINUOUS
 62
       7
100
AcDbLine
 10
-114.78533727
 20
63.19911207
 30
0.0
 11
-114.78533727
 21
-13.80088793
 31
0.0
  0
LINE
  5
8C
100
AcDbEntity
  8
SLD-0_0
  6
CONTINUOUS
 62
       7
100
AcDbLine
 10
-114.78719432
 20
62.702391
 30
0.0
 11
-114.78719432
 21
47.70933545
 31
0.0
  0
CIRCLE
  5
8D
100
AcDbEntity
  8
SLD-0_0
  6
CONTINUOUS
 62
       7
100
AcDbCircle
 10
-168.88533729
 20
-1.70088797
 30
0.0
 40
3.5
  0
CIRCLE
  5
8E
100
AcDbEntity
  8
SLD-0_0
  6
CONTINUOUS
 62
       7
100
AcDbCircle
 10
-110.68533729
 20
-1.70088797
 30
0.0
 40
3.5
  0
CIRCLE
  5
8F
100
AcDbEntity
  8
SLD-0_0
  6
CONTINUOUS
 62
       7
100
AcDbCircle
 10
-109.78533729
 20
24.69911203
 30
0.0
 40
2.25
  0
CIRCLE
  5
90
100
AcDbEntity
  8
SLD-0_0
  6
CONTINUOUS
 62
       7
100
AcDbCircle
 10
-110.68533729
 20
35.09911203
 30
0.0
 40
3.5
  0
CIRCLE
  5
91
100
AcDbEntity
  8
SLD-0_0
  6
CONTINUOUS
 62
       7
100
AcDbCircle
 10
-168.88533729
 20
51.09911203
 30
0.0
 40
3.5
  0
CIRCLE
  5
92
100
AcDbEntity
  8
SLD-0_0
  6
CONTINUOUS
 62
       7
100
AcDbCircle
 10
-110.68533729
 20
51.09911203
 30
0.0
 40
3.5
  0
CIRCLE
  5
93
100
AcDbEntity
  8
SLD-0_0
  6
CONTINUOUS
 62
       7
100
AcDbCircle
 10
-169.78533729
 20
24.69911203
 30
0.0
 40
2.25
  0
CIRCLE
  5
94
100
AcDbEntity
  8
SLD-0_0
  6
CONTINUOUS
 62
       7
100
AcDbCircle
 10
-168.88533729
 20
14.29911203
 30
0.0
 40
3.5
  0
ARC
  5
95
100
AcDbEntity
  8
SLD-0_0
  6
CONTINUOUS
 62
       7
100
AcDbCircle
 10
-163.28533727
 20
-13.80088793
 30
0.0
 40
1.5
100
AcDbArc
 50
180.0
 51
270.0
  0
ARC
  5
96
100
AcDbEntity
  8
SLD-0_0
  6
CONTINUOUS
 62
       7
100
AcDbCircle
 10
-116.28533727
 20
63.19911207
 30
0.0
 40
1.5
100
AcDbArc
 50
0.0
 51
90.0
  0
ARC
  5
97
100
AcDbEntity
  8
SLD-0_0
  6
CONTINUOUS
 62
       7
100
AcDbCircle
 10
-163.28533727
 20
63.19911207
 30
0.0
 40
1.5
100
AcDbArc
 50
90.0
 51
180.0
  0
ARC
  5
98
100
AcDbEntity
  8
SLD-0_0
  6
CONTINUOUS
 62
       7
100
AcDbCircle
 10
-116.28533727
 20
-13.80088793
 30
0.0
 40
1.5
100
AcDbArc
 50
270.0
 51
360.0
  0
LINE
  5
99
100
AcDbEntity
  8
SLD-0
  6
CONTINUOUS
 62
       7
100
AcDbLine
 10
58.55211232
 20
-19.80088706
 30
0.0
 11
62.55211251
 21
-19.80088706
 31
0.0
  0
LINE
  5
9A
100
AcDbEntity
  8
SLD-0
  6
CONTINUOUS
 62
       7
100
AcDbLine
 10
58.55211232
 20
-17.80088674
 30
0.0
 11
62.55211251
 21
-17.80088674
 31
0.0
  0
LINE
  5
9B
100
AcDbEntity
  8
SLD-0
  6
CONTINUOUS
 62
       7
100
AcDbLine
 10
60.60211233
 20
8.94911159
 30
0.0
 11
62.55211251
 21
6.99911211
 31
0.0
  0
LINE
  5
9C
100
AcDbEntity
  8
SLD-0
  6
CONTINUOUS
 62
       7
100
AcDbLine
 10
59.55211237
 20
8.94911159
 30
0.0
 11
60.60211233
 21
8.94911159
 31
0.0
  0
LINE
  5
9D
100
AcDbEntity
  8
SLD-0
  6
CONTINUOUS
 62
       7
100
AcDbLine
 10
59.55211237
 20
6.99911211
 30
0.0
 11
59.55211237
 21
8.94911159
 31
0.0
  0
LINE
  5
9E
100
AcDbEntity
  8
SLD-0
  6
CONTINUOUS
 62
       7
100
AcDbLine
 10
58.55211232
 20
-13.80088608
 30
0.0
 11
58.55211232
 21
-19.80088706
 31
0.0
  0
LINE
  5
9F
100
AcDbEntity
  8
SLD-0
  6
CONTINUOUS
 62
       7
100
AcDbLine
 10
33.55211195
 20
65.19911383
 30
0.0
 11
34.05211296
 21
64.69911282
 31
0.0
  0
LINE
  5
A0
100
AcDbEntity
  8
SLD-0
  6
CONTINUOUS
 62
       7
100
AcDbLine
 10
34.05211296
 20
59.19911285
 30
0.0
 11
33.55211251
 21
59.19911285
 31
0.0
  0
LINE
  5
A1
100
AcDbEntity
  8
SLD-0
  6
CONTINUOUS
 62
       7
100
AcDbLine
 10
22.05211286
 20
65.19911383
 30
0.0
 11
33.55211195
 21
65.19911383
 31
0.0
  0
LINE
  5
A2
100
AcDbEntity
  8
SLD-0
  6
CONTINUOUS
 62
       7
100
AcDbLine
 10
22.05211286
 20
64.69911207
 30
0.0
 11
22.05211286
 21
65.19911383
 31
0.0
  0
LINE
  5
A3
100
AcDbEntity
  8
SLD-0
  6
CONTINUOUS
 62
       7
100
AcDbLine
 10
33.55211195
 20
-15.80088641
 30
0.0
 11
34.05211296
 21
-15.30088912
 31
0.0
  0
LINE
  5
A4
100
AcDbEntity
  8
SLD-0
  6
CONTINUOUS
 62
       7
100
AcDbLine
 10
34.05211296
 20
-9.80088915
 30
0.0
 11
33.55211251
 21
-9.80088915
 31
0.0
  0
LINE
  5
A5
100
AcDbEntity
  8
SLD-0
  6
CONTINUOUS
 62
       7
100
AcDbLine
 10
22.05211286
 20
-15.30088793
 30
0.0
 11
22.05211286
 21
-15.80088641
 31
0.0
  0
LINE
  5
A6
100
AcDbEntity
  8
SLD-0
  6
CONTINUOUS
 62
       7
100
AcDbLine
 10
22.05211286
 20
-15.80088641
 30
0.0
 11
33.55211195
 21
-15.80088641
 31
0.0
  0
LINE
  5
A7
100
AcDbEntity
  8
SLD-0
  6
CONTINUOUS
 62
       7
100
AcDbLine
 10
34.05211296
 20
-15.80088641
 30
0.0
 11
62.55211251
 21
-15.80088641
 31
0.0
  0
LINE
  5
A8
100
AcDbEntity
  8
SLD-0
  6
CONTINUOUS
 62
       7
100
AcDbLine
 10
34.05211296
 20
65.19911383
 30
0.0
 11
34.05211296
 21
-15.80088641
 31
0.0
  0
LINE
  5
A9
100
AcDbEntity
  8
SLD-0
  6
CONTINUOUS
 62
       7
100
AcDbLine
 10
34.05211296
 20
65.19911383
 30
0.0
 11
62.55211251
 21
65.19911383
 31
0.0
  0
LINE
  5
AA
100
AcDbEntity
  8
SLD-0
  6
CONTINUOUS
 62
       7
100
AcDbLine
 10
59.55211237
 20
42.39911158
 30
0.0
 11
59.55211237
 21
40.4491121
 31
0.0
  0
LINE
  5
AB
100
AcDbEntity
  8
SLD-0
  6
CONTINUOUS
 62
       7
100
AcDbLine
 10
59.55211237
 20
40.4491121
 30
0.0
 11
60.60211233
 21
40.4491121
 31
0.0
  0
LINE
  5
AC
100
AcDbEntity
  8
SLD-0
  6
CONTINUOUS
 62
       7
100
AcDbLine
 10
60.60211233
 20
40.4491121
 30
0.0
 11
62.55211251
 21
42.39911158
 31
0.0
  0
LINE
  5
AD
100
AcDbEntity
  8
SLD-0
  6
CONTINUOUS
 62
       7
100
AcDbLine
 10
62.55211251
 20
63.1991135
 30
0.0
 11
44.05211274
 21
63.1991135
 31
0.0
  0
LINE
  5
AE
100
AcDbEntity
  8
SLD-0
  6
CONTINUOUS
 62
       7
100
AcDbLine
 10
62.55211251
 20
42.39911158
 30
0.0
 11
62.55211251
 21
65.19911383
 31
0.0
  0
LINE
  5
AF
100
AcDbEntity
  8
SLD-0
  6
CONTINUOUS
 62
       7
100
AcDbLine
 10
62.55211251
 20
6.99911211
 30
0.0
 11
58.55211232
 21
6.99911211
 31
0.0
  0
LINE
  5
B0
100
AcDbEntity
  8
SLD-0
  6
CONTINUOUS
 62
       7
100
AcDbLine
 10
44.05211274
 20
-13.80088608
 30
0.0
 11
62.55211251
 21
-13.80088608
 31
0.0
  0
LINE
  5
B1
100
AcDbEntity
  8
SLD-0
  6
CONTINUOUS
 62
       7
100
AcDbLine
 10
62.55211251
 20
29.6991122
 30
0.0
 11
62.55211251
 21
33.69911239
 31
0.0
  0
LINE
  5
B2
100
AcDbEntity
  8
SLD-0
  6
CONTINUOUS
 62
       7
100
AcDbLine
 10
62.55211251
 20
19.69911196
 30
0.0
 11
58.55211232
 21
19.69911196
 31
0.0
  0
LINE
  5
B3
100
AcDbEntity
  8
SLD-0
  6
CONTINUOUS
 62
       7
100
AcDbLine
 10
62.55211251
 20
15.69911224
 30
0.0
 11
58.55211232
 21
15.69911224
 31
0.0
  0
LINE
  5
B4
100
AcDbEntity
  8
SLD-0
  6
CONTINUOUS
 62
       7
100
AcDbLine
 10
62.55211251
 20
29.6991122
 30
0.0
 11
58.55211232
 21
29.6991122
 31
0.0
  0
LINE
  5
B5
100
AcDbEntity
  8
SLD-0
  6
CONTINUOUS
 62
       7
100
AcDbLine
 10
62.55211251
 20
15.69911224
 30
0.0
 11
62.55211251
 21
19.69911196
 31
0.0
  0
LINE
  5
B6
100
AcDbEntity
  8
SLD-0
  6
CONTINUOUS
 62
       7
100
AcDbLine
 10
62.55211251
 20
-19.80088706
 30
0.0
 11
62.55211251
 21
6.99911211
 31
0.0
  0
LINE
  5
B7
100
AcDbEntity
  8
SLD-0
  6
CONTINUOUS
 62
       7
100
AcDbLine
 10
62.55211251
 20
33.69911239
 30
0.0
 11
58.55211232
 21
33.69911239
 31
0.0
  0
LINE
  5
B8
100
AcDbEntity
  8
SLD-0
  6
CONTINUOUS
 62
       7
100
AcDbLine
 10
58.55211232
 20
42.39911158
 30
0.0
 11
62.55211251
 21
42.39911158
 31
0.0
  0
LINE
  5
B9
100
AcDbEntity
  8
SLD-0
  6
CONTINUOUS
 62
       7
100
AcDbLine
 10
44.05211274
 20
63.1991135
 30
0.0
 11
44.05211274
 21
50.19911137
 31
0.0
  0
LINE
  5
BA
100
AcDbEntity
  8
SLD-0
  6
CONTINUOUS
 62
       7
100
AcDbLine
 10
44.05211274
 20
50.19911137
 30
0.0
 11
34.05211296
 21
50.19911137
 31
0.0
  0
LINE
  5
BB
100
AcDbEntity
  8
SLD-0
  6
CONTINUOUS
 62
       7
100
AcDbLine
 10
38.05211175
 20
28.69911204
 30
0.0
 11
34.05211296
 21
28.69911204
 31
0.0
  0
LINE
  5
BC
100
AcDbEntity
  8
SLD-0
  6
CONTINUOUS
 62
       7
100
AcDbLine
 10
38.05211175
 20
20.69911212
 30
0.0
 11
38.05211175
 21
28.69911204
 31
0.0
  0
LINE
  5
BD
100
AcDbEntity
  8
SLD-0
  6
CONTINUOUS
 62
       7
100
AcDbLine
 10
38.05211175
 20
20.69911212
 30
0.0
 11
34.05211296
 21
20.69911212
 31
0.0
  0
LINE
  5
BE
100
AcDbEntity
  8
SLD-0
  6
CONTINUOUS
 62
       7
100
AcDbLine
 10
44.05211274
 20
-0.80088768
 30
0.0
 11
34.05211296
 21
-0.80088768
 31
0.0
  0
LINE
  5
BF
100
AcDbEntity
  8
SLD-0
  6
CONTINUOUS
 62
       7
100
AcDbLine
 10
44.05211274
 20
-13.80088608
 30
0.0
 11
44.05211274
 21
-0.80088768
 31
0.0
  0
LINE
  5
C0
100
AcDbEntity
  8
SLD-0
  6
CONTINUOUS
 62
       7
100
AcDbLine
 10
58.55211232
 20
6.99911211
 30
0.0
 11
58.55211232
 21
15.69911224
 31
0.0
  0
LINE
  5
C1
100
AcDbEntity
  8
SLD-0
  6
CONTINUOUS
 62
       7
100
AcDbLine
 10
58.55211232
 20
19.69911196
 30
0.0
 11
58.55211232
 21
29.6991122
 31
0.0
  0
LINE
  5
C2
100
AcDbEntity
  8
SLD-0
  6
CONTINUOUS
 62
       7
100
AcDbLine
 10
58.55211232
 20
33.69911239
 30
0.0
 11
58.55211232
 21
42.39911158
 31
0.0
  0
LINE
  5
C3
100
AcDbEntity
  8
SLD-0
  6
CONTINUOUS
 62
       7
100
AcDbLine
 10
33.55211251
 20
7.19911177
 30
0.0
 11
34.05211296
 21
7.19911177
 31
0.0
  0
LINE
  5
C4
100
AcDbEntity
  8
SLD-0
  6
CONTINUOUS
 62
       7
100
AcDbLine
 10
34.05211296
 20
42.19911192
 30
0.0
 11
33.55211251
 21
42.19911192
 31
0.0
  0
LINE
  5
C5
100
AcDbEntity
  8
SLD-0
  6
CONTINUOUS
 62
       7
100
AcDbLine
 10
153.78533753
 20
-13.80088608
 30
0.0
 11
151.7853372
 21
-15.80088641
 31
0.0
  0
LINE
  5
C6
100
AcDbEntity
  8
SLD-0
  6
CONTINUOUS
 62
       7
100
AcDbLine
 10
127.78533699
 20
-15.80088641
 30
0.0
 11
125.78533689
 21
-13.80088608
 31
0.0
  0
LINE
  5
C7
100
AcDbEntity
  8
SLD-0
  6
CONTINUOUS
 62
       7
100
AcDbLine
 10
134.28533712
 20
-15.80088641
 30
0.0
 11
127.78533699
 21
-15.80088641
 31
0.0
  0
LINE
  5
C8
100
AcDbEntity
  8
SLD-0
  6
CONTINUOUS
 62
       7
100
AcDbLine
 10
134.28533712
 20
-17.80088674
 30
0.0
 11
134.28533712
 21
-15.80088641
 31
0.0
  0
LINE
  5
C9
100
AcDbEntity
  8
SLD-0
  6
CONTINUOUS
 62
       7
100
AcDbLine
 10
137.28533668
 20
-19.80088706
 30
0.0
 11
134.28533712
 21
-17.80088674
 31
0.0
  0
LINE
  5
CA
100
AcDbEntity
  8
SLD-0
  6
CONTINUOUS
 62
       7
100
AcDbLine
 10
142.28533657
 20
-19.80088706
 30
0.0
 11
137.28533668
 21
-19.80088706
 31
0.0
  0
LINE
  5
CB
100
AcDbEntity
  8
SLD-0
  6
CONTINUOUS
 62
       7
100
AcDbLine
 10
145.28533706
 20
-17.80088674
 30
0.0
 11
142.28533657
 21
-19.80088706
 31
0.0
  0
LINE
  5
CC
100
AcDbEntity
  8
SLD-0
  6
CONTINUOUS
 62
       7
100
AcDbLine
 10
145.28533706
 20
-15.80088641
 30
0.0
 11
145.28533706
 21
-17.80088674
 31
0.0
  0
LINE
  5
CD
100
AcDbEntity
  8
SLD-0
  6
CONTINUOUS
 62
       7
100
AcDbLine
 10
151.7853372
 20
-15.80088641
 30
0.0
 11
145.28533706
 21
-15.80088641
 31
0.0
  0
LINE
  5
CE
100
AcDbEntity
  8
SLD-0
  6
CONTINUOUS
 62
       7
100
AcDbLine
 10
103.78533678
 20
63.1991135
 30
0.0
 11
135.18533653
 21
63.1991135
 31
0.0
  0
LINE
  5
CF
100
AcDbEntity
  8
SLD-0
  6
CONTINUOUS
 62
       7
100
AcDbLine
 10
135.18533653
 20
-13.80088608
 30
0.0
 11
103.78533678
 21
-13.80088608
 31
0.0
  0
LINE
  5
D0
100
AcDbEntity
  8
SLD-0
  6
CONTINUOUS
 62
       7
100
AcDbLine
 10
175.78533741
 20
-13.80088608
 30
0.0
 11
144.38533673
 21
-13.80088608
 31
0.0
  0
LINE
  5
D1
100
AcDbEntity
  8
SLD-0
  6
CONTINUOUS
 62
       7
100
AcDbLine
 10
144.38533673
 20
63.1991135
 30
0.0
 11
175.78533741
 21
63.1991135
 31
0.0
  0
LINE
  5
D2
100
AcDbEntity
  8
SLD-0
  6
CONTINUOUS
 62
       7
100
AcDbLine
 10
114.58533706
 20
-6.60088714
 30
0.0
 11
106.78533727
 21
-6.60088714
 31
0.0
  0
LINE
  5
D3
100
AcDbEntity
  8
SLD-0
  6
CONTINUOUS
 62
       7
100
AcDbLine
 10
106.78533727
 20
55.99911083
 30
0.0
 11
114.58533706
 21
55.99911083
 31
0.0
  0
LINE
  5
D4
100
AcDbEntity
  8
SLD-0
  6
CONTINUOUS
 62
       7
100
AcDbLine
 10
124.88533691
 20
-6.60088714
 30
0.0
 11
117.08533701
 21
-6.60088714
 31
0.0
  0
LINE
  5
D5
100
AcDbEntity
  8
SLD-0
  6
CONTINUOUS
 62
       7
100
AcDbLine
 10
117.08533701
 20
55.99911083
 30
0.0
 11
124.88533691
 21
55.99911083
 31
0.0
  0
LINE
  5
D6
100
AcDbEntity
  8
SLD-0
  6
CONTINUOUS
 62
       7
100
AcDbLine
 10
127.38533697
 20
55.99911083
 30
0.0
 11
135.18533653
 21
55.99911083
 31
0.0
  0
LINE
  5
D7
100
AcDbEntity
  8
SLD-0
  6
CONTINUOUS
 62
       7
100
AcDbLine
 10
135.18533653
 20
-6.60088714
 30
0.0
 11
127.38533697
 21
-6.60088714
 31
0.0
  0
LINE
  5
D8
100
AcDbEntity
  8
SLD-0
  6
CONTINUOUS
 62
       7
100
AcDbLine
 10
152.18533652
 20
-6.60088714
 30
0.0
 11
144.38533673
 21
-6.60088714
 31
0.0
  0
LINE
  5
D9
100
AcDbEntity
  8
SLD-0
  6
CONTINUOUS
 62
       7
100
AcDbLine
 10
144.38533673
 20
55.99911083
 30
0.0
 11
152.18533652
 21
55.99911083
 31
0.0
  0
LINE
  5
DA
100
AcDbEntity
  8
SLD-0
  6
CONTINUOUS
 62
       7
100
AcDbLine
 10
162.48533579
 20
-6.60088714
 30
0.0
 11
154.685336
 21
-6.60088714
 31
0.0
  0
LINE
  5
DB
100
AcDbEntity
  8
SLD-0
  6
CONTINUOUS
 62
       7
100
AcDbLine
 10
154.685336
 20
55.99911083
 30
0.0
 11
162.48533579
 21
55.99911083
 31
0.0
  0
LINE
  5
DC
100
AcDbEntity
  8
SLD-0
  6
CONTINUOUS
 62
       7
100
AcDbLine
 10
172.78533505
 20
-6.60088714
 30
0.0
 11
164.98533713
 21
-6.60088714
 31
0.0
  0
LINE
  5
DD
100
AcDbEntity
  8
SLD-0
  6
CONTINUOUS
 62
       7
100
AcDbLine
 10
164.98533713
 20
55.99911083
 30
0.0
 11
172.78533505
 21
55.99911083
 31
0.0
  0
LINE
  5
DE
100
AcDbEntity
  8
SLD-0
  6
CONTINUOUS
 62
       7
100
AcDbLine
 10
106.78533727
 20
-5.60088883
 30
0.0
 11
114.58533706
 21
-5.60088883
 31
0.0
  0
LINE
  5
DF
100
AcDbEntity
  8
SLD-0
  6
CONTINUOUS
 62
       7
100
AcDbLine
 10
114.58533706
 20
54.99911253
 30
0.0
 11
106.78533727
 21
54.99911253
 31
0.0
  0
LINE
  5
E0
100
AcDbEntity
  8
SLD-0
  6
CONTINUOUS
 62
       7
100
AcDbLine
 10
124.88533691
 20
54.99911253
 30
0.0
 11
117.08533701
 21
54.99911253
 31
0.0
  0
LINE
  5
E1
100
AcDbEntity
  8
SLD-0
  6
CONTINUOUS
 62
       7
100
AcDbLine
 10
117.08533701
 20
-5.60088883
 30
0.0
 11
124.88533691
 21
-5.60088883
 31
0.0
  0
LINE
  5
E2
100
AcDbEntity
  8
SLD-0
  6
CONTINUOUS
 62
       7
100
AcDbLine
 10
127.38533697
 20
-5.60088883
 30
0.0
 11
135.18533653
 21
-5.60088883
 31
0.0
  0
LINE
  5
E3
100
AcDbEntity
  8
SLD-0
  6
CONTINUOUS
 62
       7
100
AcDbLine
 10
135.18533653
 20
54.99911253
 30
0.0
 11
127.38533697
 21
54.99911253
 31
0.0
  0
LINE
  5
E4
100
AcDbEntity
  8
SLD-0
  6
CONTINUOUS
 62
       7
100
AcDbLine
 10
144.38533673
 20
-5.60088883
 30
0.0
 11
152.18533652
 21
-5.60088883
 31
0.0
  0
LINE
  5
E5
100
AcDbEntity
  8
SLD-0
  6
CONTINUOUS
 62
       7
100
AcDbLine
 10
152.18533652
 20
54.99911253
 30
0.0
 11
144.38533673
 21
54.99911253
 31
0.0
  0
LINE
  5
E6
100
AcDbEntity
  8
SLD-0
  6
CONTINUOUS
 62
       7
100
AcDbLine
 10
154.685336
 20
-5.60088883
 30
0.0
 11
162.48533579
 21
-5.60088883
 31
0.0
  0
LINE
  5
E7
100
AcDbEntity
  8
SLD-0
  6
CONTINUOUS
 62
       7
100
AcDbLine
 10
162.48533579
 20
54.99911253
 30
0.0
 11
154.685336
 21
54.99911253
 31
0.0
  0
LINE
  5
E8
100
AcDbEntity
  8
SLD-0
  6
CONTINUOUS
 62
       7
100
AcDbLine
 10
164.98533713
 20
-5.60088883
 30
0.0
 11
172.78533505
 21
-5.60088883
 31
0.0
  0
LINE
  5
E9
100
AcDbEntity
  8
SLD-0
  6
CONTINUOUS
 62
       7
100
AcDbLine
 10
172.78533505
 20
54.99911253
 30
0.0
 11
164.98533713
 21
54.99911253
 31
0.0
  0
LINE
  5
EA
100
AcDbEntity
  8
SLD-0
  6
CONTINUOUS
 62
       7
100
AcDbLine
 10
103.78533678
 20
63.1991135
 30
0.0
 11
103.78533678
 21
-13.80088608
 31
0.0
  0
LINE
  5
EB
100
AcDbEntity
  8
SLD-0
  6
CONTINUOUS
 62
       7
100
AcDbLine
 10
175.78533741
 20
63.1991135
 30
0.0
 11
175.78533741
 21
-13.80088608
 31
0.0
  0
LINE
  5
EC
100
AcDbEntity
  8
SLD-0
  6
CONTINUOUS
 62
       7
100
AcDbLine
 10
106.78533727
 20
2.19911282
 30
0.0
 11
114.58533706
 21
2.19911282
 31
0.0
  0
LINE
  5
ED
100
AcDbEntity
  8
SLD-0
  6
CONTINUOUS
 62
       7
100
AcDbLine
 10
172.78533505
 20
47.19911274
 30
0.0
 11
164.98533713
 21
47.19911274
 31
0.0
  0
LINE
  5
EE
100
AcDbEntity
  8
SLD-0
  6
CONTINUOUS
 62
       7
100
AcDbLine
 10
114.58533706
 20
9.39911176
 30
0.0
 11
106.78533727
 21
9.39911176
 31
0.0
  0
LINE
  5
EF
100
AcDbEntity
  8
SLD-0
  6
CONTINUOUS
 62
       7
100
AcDbLine
 10
164.98533713
 20
39.99911193
 30
0.0
 11
172.78533505
 21
39.99911193
 31
0.0
  0
LINE
  5
F0
100
AcDbEntity
  8
SLD-0
  6
CONTINUOUS
 62
       7
100
AcDbLine
 10
106.78533727
 20
10.39911193
 30
0.0
 11
114.58533706
 21
10.39911193
 31
0.0
  0
LINE
  5
F1
100
AcDbEntity
  8
SLD-0
  6
CONTINUOUS
 62
       7
100
AcDbLine
 10
172.78533505
 20
38.99911177
 30
0.0
 11
164.98533713
 21
38.99911177
 31
0.0
  0
LINE
  5
F2
100
AcDbEntity
  8
SLD-0
  6
CONTINUOUS
 62
       7
100
AcDbLine
 10
127.38533697
 20
-0.80088768
 30
0.0
 11
124.88533691
 21
-0.80088768
 31
0.0
  0
LINE
  5
F3
100
AcDbEntity
  8
SLD-0
  6
CONTINUOUS
 62
       7
100
AcDbLine
 10
127.38533697
 20
2.19911282
 30
0.0
 11
127.38533697
 21
-13.80088608
 31
0.0
  0
LINE
  5
F4
100
AcDbEntity
  8
SLD-0
  6
CONTINUOUS
 62
       7
100
AcDbLine
 10
135.18533653
 20
2.19911282
 30
0.0
 11
127.38533697
 21
2.19911282
 31
0.0
  0
LINE
  5
F5
100
AcDbEntity
  8
SLD-0
  6
CONTINUOUS
 62
       7
100
AcDbLine
 10
135.18533653
 20
-15.80088641
 30
0.0
 11
135.18533653
 21
2.19911282
 31
0.0
  0
LINE
  5
F6
100
AcDbEntity
  8
SLD-0
  6
CONTINUOUS
 62
       7
100
AcDbLine
 10
135.18533653
 20
-15.80088641
 30
0.0
 11
144.38533673
 21
-15.80088641
 31
0.0
  0
LINE
  5
F7
100
AcDbEntity
  8
SLD-0
  6
CONTINUOUS
 62
       7
100
AcDbLine
 10
144.38533673
 20
2.19911282
 30
0.0
 11
144.38533673
 21
-15.80088641
 31
0.0
  0
LINE
  5
F8
100
AcDbEntity
  8
SLD-0
  6
CONTINUOUS
 62
       7
100
AcDbLine
 10
152.18533652
 20
2.19911282
 30
0.0
 11
144.38533673
 21
2.19911282
 31
0.0
  0
LINE
  5
F9
100
AcDbEntity
  8
SLD-0
  6
CONTINUOUS
 62
       7
100
AcDbLine
 10
152.18533652
 20
-13.80088608
 30
0.0
 11
152.18533652
 21
2.19911282
 31
0.0
  0
LINE
  5
FA
100
AcDbEntity
  8
SLD-0
  6
CONTINUOUS
 62
       7
100
AcDbLine
 10
152.18533652
 20
-0.80088768
 30
0.0
 11
154.685336
 21
-0.80088768
 31
0.0
  0
LINE
  5
FB
100
AcDbEntity
  8
SLD-0
  6
CONTINUOUS
 62
       7
100
AcDbLine
 10
154.685336
 20
2.19911282
 30
0.0
 11
154.685336
 21
-13.80088608
 31
0.0
  0
LINE
  5
FC
100
AcDbEntity
  8
SLD-0
  6
CONTINUOUS
 62
       7
100
AcDbLine
 10
162.48533579
 20
2.19911282
 30
0.0
 11
154.685336
 21
2.19911282
 31
0.0
  0
LINE
  5
FD
100
AcDbEntity
  8
SLD-0
  6
CONTINUOUS
 62
       7
100
AcDbLine
 10
162.48533579
 20
-13.80088608
 30
0.0
 11
162.48533579
 21
2.19911282
 31
0.0
  0
LINE
  5
FE
100
AcDbEntity
  8
SLD-0
  6
CONTINUOUS
 62
       7
100
AcDbLine
 10
162.48533579
 20
-0.80088768
 30
0.0
 11
164.98533713
 21
-0.80088768
 31
0.0
  0
LINE
  5
FF
100
AcDbEntity
  8
SLD-0
  6
CONTINUOUS
 62
       7
100
AcDbLine
 10
164.98533713
 20
2.19911282
 30
0.0
 11
164.98533713
 21
-13.80088608
 31
0.0
  0
LINE
  5
100
100
AcDbEntity
  8
SLD-0
  6
CONTINUOUS
 62
       7
100
AcDbLine
 10
172.78533505
 20
2.19911282
 30
0.0
 11
164.98533713
 21
2.19911282
 31
0.0
  0
LINE
  5
101
100
AcDbEntity
  8
SLD-0
  6
CONTINUOUS
 62
       7
100
AcDbLine
 10
172.78533505
 20
-13.80088608
 30
0.0
 11
172.78533505
 21
2.19911282
 31
0.0
  0
LINE
  5
102
100
AcDbEntity
  8
SLD-0
  6
CONTINUOUS
 62
       7
100
AcDbLine
 10
172.78533505
 20
-0.80088768
 30
0.0
 11
175.78533741
 21
-0.80088768
 31
0.0
  0
LINE
  5
103
100
AcDbEntity
  8
SLD-0
  6
CONTINUOUS
 62
       7
100
AcDbLine
 10
166.28533678
 20
20.69911212
 30
0.0
 11
175.78533741
 21
20.69911212
 31
0.0
  0
LINE
  5
104
100
AcDbEntity
  8
SLD-0
  6
CONTINUOUS
 62
       7
100
AcDbLine
 10
166.28533678
 20
28.69911204
 30
0.0
 11
166.28533678
 21
20.69911212
 31
0.0
  0
LINE
  5
105
100
AcDbEntity
  8
SLD-0
  6
CONTINUOUS
 62
       7
100
AcDbLine
 10
175.78533741
 20
28.69911204
 30
0.0
 11
166.28533678
 21
28.69911204
 31
0.0
  0
LINE
  5
106
100
AcDbEntity
  8
SLD-0
  6
CONTINUOUS
 62
       7
100
AcDbLine
 10
172.78533505
 20
50.19911137
 30
0.0
 11
175.78533741
 21
50.19911137
 31
0.0
  0
LINE
  5
107
100
AcDbEntity
  8
SLD-0
  6
CONTINUOUS
 62
       7
100
AcDbLine
 10
172.78533505
 20
31.19911198
 30
0.0
 11
172.78533505
 21
63.1991135
 31
0.0
  0
LINE
  5
108
100
AcDbEntity
  8
SLD-0
  6
CONTINUOUS
 62
       7
100
AcDbLine
 10
164.98533713
 20
31.19911198
 30
0.0
 11
172.78533505
 21
31.19911198
 31
0.0
  0
LINE
  5
109
100
AcDbEntity
  8
SLD-0
  6
CONTINUOUS
 62
       7
100
AcDbLine
 10
164.98533713
 20
63.1991135
 30
0.0
 11
164.98533713
 21
31.19911198
 31
0.0
  0
LINE
  5
10A
100
AcDbEntity
  8
SLD-0
  6
CONTINUOUS
 62
       7
100
AcDbLine
 10
162.48533579
 20
50.19911137
 30
0.0
 11
164.98533713
 21
50.19911137
 31
0.0
  0
LINE
  5
10B
100
AcDbEntity
  8
SLD-0
  6
CONTINUOUS
 62
       7
100
AcDbLine
 10
162.48533579
 20
47.19911274
 30
0.0
 11
162.48533579
 21
63.1991135
 31
0.0
  0
LINE
  5
10C
100
AcDbEntity
  8
SLD-0
  6
CONTINUOUS
 62
       7
100
AcDbLine
 10
154.685336
 20
47.19911274
 30
0.0
 11
162.48533579
 21
47.19911274
 31
0.0
  0
LINE
  5
10D
100
AcDbEntity
  8
SLD-0
  6
CONTINUOUS
 62
       7
100
AcDbLine
 10
154.685336
 20
63.1991135
 30
0.0
 11
154.685336
 21
47.19911274
 31
0.0
  0
LINE
  5
10E
100
AcDbEntity
  8
SLD-0
  6
CONTINUOUS
 62
       7
100
AcDbLine
 10
152.18533652
 20
50.19911137
 30
0.0
 11
154.685336
 21
50.19911137
 31
0.0
  0
LINE
  5
10F
100
AcDbEntity
  8
SLD-0
  6
CONTINUOUS
 62
       7
100
AcDbLine
 10
152.18533652
 20
47.19911274
 30
0.0
 11
152.18533652
 21
63.1991135
 31
0.0
  0
LINE
  5
110
100
AcDbEntity
  8
SLD-0
  6
CONTINUOUS
 62
       7
100
AcDbLine
 10
144.38533673
 20
47.19911274
 30
0.0
 11
152.18533652
 21
47.19911274
 31
0.0
  0
LINE
  5
111
100
AcDbEntity
  8
SLD-0
  6
CONTINUOUS
 62
       7
100
AcDbLine
 10
144.38533673
 20
65.19911383
 30
0.0
 11
144.38533673
 21
47.19911274
 31
0.0
  0
LINE
  5
112
100
AcDbEntity
  8
SLD-0
  6
CONTINUOUS
 62
       7
100
AcDbLine
 10
135.18533653
 20
65.19911383
 30
0.0
 11
144.38533673
 21
65.19911383
 31
0.0
  0
LINE
  5
113
100
AcDbEntity
  8
SLD-0
  6
CONTINUOUS
 62
       7
100
AcDbLine
 10
135.18533653
 20
47.19911274
 30
0.0
 11
135.18533653
 21
65.19911383
 31
0.0
  0
LINE
  5
114
100
AcDbEntity
  8
SLD-0
  6
CONTINUOUS
 62
       7
100
AcDbLine
 10
127.38533697
 20
47.19911274
 30
0.0
 11
135.18533653
 21
47.19911274
 31
0.0
  0
LINE
  5
115
100
AcDbEntity
  8
SLD-0
  6
CONTINUOUS
 62
       7
100
AcDbLine
 10
127.38533697
 20
63.1991135
 30
0.0
 11
127.38533697
 21
47.19911274
 31
0.0
  0
LINE
  5
116
100
AcDbEntity
  8
SLD-0
  6
CONTINUOUS
 62
       7
100
AcDbLine
 10
127.38533697
 20
50.19911137
 30
0.0
 11
124.88533691
 21
50.19911137
 31
0.0
  0
LINE
  5
117
100
AcDbEntity
  8
SLD-0
  6
CONTINUOUS
 62
       7
100
AcDbLine
 10
124.88533691
 20
47.19911274
 30
0.0
 11
124.88533691
 21
63.1991135
 31
0.0
  0
LINE
  5
118
100
AcDbEntity
  8
SLD-0
  6
CONTINUOUS
 62
       7
100
AcDbLine
 10
117.08533701
 20
47.19911274
 30
0.0
 11
124.88533691
 21
47.19911274
 31
0.0
  0
LINE
  5
119
100
AcDbEntity
  8
SLD-0
  6
CONTINUOUS
 62
       7
100
AcDbLine
 10
117.08533701
 20
63.1991135
 30
0.0
 11
117.08533701
 21
47.19911274
 31
0.0
  0
LINE
  5
11A
100
AcDbEntity
  8
SLD-0
  6
CONTINUOUS
 62
       7
100
AcDbLine
 10
117.08533701
 20
50.19911137
 30
0.0
 11
114.58533706
 21
50.19911137
 31
0.0
  0
LINE
  5
11B
100
AcDbEntity
  8
SLD-0
  6
CONTINUOUS
 62
       7
100
AcDbLine
 10
114.58533706
 20
47.19911274
 30
0.0
 11
114.58533706
 21
63.1991135
 31
0.0
  0
LINE
  5
11C
100
AcDbEntity
  8
SLD-0
  6
CONTINUOUS
 62
       7
100
AcDbLine
 10
106.78533727
 20
47.19911274
 30
0.0
 11
114.58533706
 21
47.19911274
 31
0.0
  0
LINE
  5
11D
100
AcDbEntity
  8
SLD-0
  6
CONTINUOUS
 62
       7
100
AcDbLine
 10
106.78533727
 20
63.1991135
 30
0.0
 11
106.78533727
 21
47.19911274
 31
0.0
  0
LINE
  5
11E
100
AcDbEntity
  8
SLD-0
  6
CONTINUOUS
 62
       7
100
AcDbLine
 10
106.78533727
 20
50.19911137
 30
0.0
 11
103.78533678
 21
50.19911137
 31
0.0
  0
LINE
  5
11F
100
AcDbEntity
  8
SLD-0
  6
CONTINUOUS
 62
       7
100
AcDbLine
 10
113.28533648
 20
28.69911204
 30
0.0
 11
103.78533678
 21
28.69911204
 31
0.0
  0
LINE
  5
120
100
AcDbEntity
  8
SLD-0
  6
CONTINUOUS
 62
       7
100
AcDbLine
 10
113.28533648
 20
20.69911212
 30
0.0
 11
113.28533648
 21
28.69911204
 31
0.0
  0
LINE
  5
121
100
AcDbEntity
  8
SLD-0
  6
CONTINUOUS
 62
       7
100
AcDbLine
 10
103.78533678
 20
20.69911212
 30
0.0
 11
113.28533648
 21
20.69911212
 31
0.0
  0
LINE
  5
122
100
AcDbEntity
  8
SLD-0
  6
CONTINUOUS
 62
       7
100
AcDbLine
 10
106.78533727
 20
-0.80088768
 30
0.0
 11
103.78533678
 21
-0.80088768
 31
0.0
  0
LINE
  5
123
100
AcDbEntity
  8
SLD-0
  6
CONTINUOUS
 62
       7
100
AcDbLine
 10
106.78533727
 20
18.19911218
 30
0.0
 11
106.78533727
 21
-13.80088608
 31
0.0
  0
LINE
  5
124
100
AcDbEntity
  8
SLD-0
  6
CONTINUOUS
 62
       7
100
AcDbLine
 10
114.58533706
 20
18.19911218
 30
0.0
 11
106.78533727
 21
18.19911218
 31
0.0
  0
LINE
  5
125
100
AcDbEntity
  8
SLD-0
  6
CONTINUOUS
 62
       7
100
AcDbLine
 10
114.58533706
 20
-13.80088608
 30
0.0
 11
114.58533706
 21
18.19911218
 31
0.0
  0
LINE
  5
126
100
AcDbEntity
  8
SLD-0
  6
CONTINUOUS
 62
       7
100
AcDbLine
 10
117.08533701
 20
-0.80088768
 30
0.0
 11
114.58533706
 21
-0.80088768
 31
0.0
  0
LINE
  5
127
100
AcDbEntity
  8
SLD-0
  6
CONTINUOUS
 62
       7
100
AcDbLine
 10
117.08533701
 20
2.19911282
 30
0.0
 11
117.08533701
 21
-13.80088608
 31
0.0
  0
LINE
  5
128
100
AcDbEntity
  8
SLD-0
  6
CONTINUOUS
 62
       7
100
AcDbLine
 10
124.88533691
 20
2.19911282
 30
0.0
 11
117.08533701
 21
2.19911282
 31
0.0
  0
LINE
  5
129
100
AcDbEntity
  8
SLD-0
  6
CONTINUOUS
 62
       7
100
AcDbLine
 10
124.88533691
 20
-13.80088608
 30
0.0
 11
124.88533691
 21
2.19911282
 31
0.0
  0
LINE
  5
12A
100
AcDbEntity
  8
SLD-0
  6
CONTINUOUS
 62
       7
100
AcDbLine
 10
140.78533726
 20
19.69911196
 30
0.0
 11
140.78533726
 21
20.82612878
 31
0.0
  0
LINE
  5
12B
100
AcDbEntity
  8
SLD-0
  6
CONTINUOUS
 62
       7
100
AcDbLine
 10
138.78533693
 20
19.69911196
 30
0.0
 11
140.78533726
 21
19.69911196
 31
0.0
  0
LINE
  5
12C
100
AcDbEntity
  8
SLD-0
  6
CONTINUOUS
 62
       7
100
AcDbLine
 10
138.78533693
 20
20.82612869
 30
0.0
 11
138.78533693
 21
19.69911196
 31
0.0
  0
LINE
  5
12D
100
AcDbEntity
  8
SLD-0
  6
CONTINUOUS
 62
       7
100
AcDbLine
 10
138.03533727
 20
-4.80088833
 30
0.0
 11
141.53533692
 21
-4.80088833
 31
0.0
  0
LINE
  5
12E
100
AcDbEntity
  8
SLD-0
  6
CONTINUOUS
 62
       7
100
AcDbLine
 10
138.03533727
 20
54.19911389
 30
0.0
 11
141.53533692
 21
54.19911389
 31
0.0
  0
LINE
  5
12F
100
AcDbEntity
  8
SLD-0
  6
CONTINUOUS
 62
       7
100
AcDbLine
 10
138.03533727
 20
-8.80088712
 30
0.0
 11
141.53533692
 21
-8.80088712
 31
0.0
  0
LINE
  5
130
100
AcDbEntity
  8
SLD-0
  6
CONTINUOUS
 62
       7
100
AcDbLine
 10
138.03533727
 20
58.19911082
 30
0.0
 11
141.53533692
 21
58.19911082
 31
0.0
  0
LINE
  5
131
100
AcDbEntity
  8
SLD-0
  6
CONTINUOUS
 62
       7
100
AcDbLine
 10
138.03533727
 20
54.19911389
 30
0.0
 11
138.03533727
 21
65.19911383
 31
0.0
  0
LINE
  5
132
100
AcDbEntity
  8
SLD-0
  6
CONTINUOUS
 62
       7
100
AcDbLine
 10
141.53533692
 20
54.19911389
 30
0.0
 11
141.53533692
 21
65.19911383
 31
0.0
  0
LINE
  5
133
100
AcDbEntity
  8
SLD-0
  6
CONTINUOUS
 62
       7
100
AcDbLine
 10
138.03533727
 20
63.1991135
 30
0.0
 11
141.53533692
 21
63.1991135
 31
0.0
  0
LINE
  5
134
100
AcDbEntity
  8
SLD-0
  6
CONTINUOUS
 62
       7
100
AcDbLine
 10
138.03533727
 20
-4.80088833
 30
0.0
 11
138.03533727
 21
-15.80088641
 31
0.0
  0
LINE
  5
135
100
AcDbEntity
  8
SLD-0
  6
CONTINUOUS
 62
       7
100
AcDbLine
 10
141.53533692
 20
-4.80088833
 30
0.0
 11
141.53533692
 21
-15.80088641
 31
0.0
  0
LINE
  5
136
100
AcDbEntity
  8
SLD-0
  6
CONTINUOUS
 62
       7
100
AcDbLine
 10
138.03533727
 20
-13.80088608
 30
0.0
 11
141.53533692
 21
-13.80088608
 31
0.0
  0
CIRCLE
  5
137
100
AcDbEntity
  8
SLD-0
  6
CONTINUOUS
 62
       7
100
AcDbCircle
 10
110.6853369
 20
51.09911206
 30
0.0
 40
3.5
  0
CIRCLE
  5
138
100
AcDbEntity
  8
SLD-0
  6
CONTINUOUS
 62
       7
100
AcDbCircle
 10
110.6853369
 20
-1.70088794
 30
0.0
 40
3.5
  0
CIRCLE
  5
139
100
AcDbEntity
  8
SLD-0
  6
CONTINUOUS
 62
       7
100
AcDbCircle
 10
120.9853369
 20
-1.70088794
 30
0.0
 40
3.5
  0
CIRCLE
  5
13A
100
AcDbEntity
  8
SLD-0
  6
CONTINUOUS
 62
       7
100
AcDbCircle
 10
120.9853369
 20
51.09911206
 30
0.0
 40
3.5
  0
CIRCLE
  5
13B
100
AcDbEntity
  8
SLD-0
  6
CONTINUOUS
 62
       7
100
AcDbCircle
 10
131.2853369
 20
-1.70088794
 30
0.0
 40
3.5
  0
CIRCLE
  5
13C
100
AcDbEntity
  8
SLD-0
  6
CONTINUOUS
 62
       7
100
AcDbCircle
 10
131.2853369
 20
51.09911206
 30
0.0
 40
3.5
  0
CIRCLE
  5
13D
100
AcDbEntity
  8
SLD-0
  6
CONTINUOUS
 62
       7
100
AcDbCircle
 10
148.2853369
 20
51.19911206
 30
0.0
 40
3.5
  0
CIRCLE
  5
13E
100
AcDbEntity
  8
SLD-0
  6
CONTINUOUS
 62
       7
100
AcDbCircle
 10
148.2853369
 20
-1.70088794
 30
0.0
 40
3.5
  0
CIRCLE
  5
13F
100
AcDbEntity
  8
SLD-0
  6
CONTINUOUS
 62
       7
100
AcDbCircle
 10
158.5853369
 20
-1.70088794
 30
0.0
 40
3.5
  0
CIRCLE
  5
140
100
AcDbEntity
  8
SLD-0
  6
CONTINUOUS
 62
       7
100
AcDbCircle
 10
158.5853369
 20
51.09911206
 30
0.0
 40
3.5
  0
CIRCLE
  5
141
100
AcDbEntity
  8
SLD-0
  6
CONTINUOUS
 62
       7
100
AcDbCircle
 10
168.8853369
 20
51.09911206
 30
0.0
 40
3.5
  0
CIRCLE
  5
142
100
AcDbEntity
  8
SLD-0
  6
CONTINUOUS
 62
       7
100
AcDbCircle
 10
168.8853369
 20
-1.70088794
 30
0.0
 40
3.5
  0
CIRCLE
  5
143
100
AcDbEntity
  8
SLD-0
  6
CONTINUOUS
 62
       7
100
AcDbCircle
 10
109.7853369
 20
24.69911206
 30
0.0
 40
2.25
  0
CIRCLE
  5
144
100
AcDbEntity
  8
SLD-0
  6
CONTINUOUS
 62
       7
100
AcDbCircle
 10
169.7853369
 20
24.69911206
 30
0.0
 40
2.25
  0
CIRCLE
  5
145
100
AcDbEntity
  8
SLD-0
  6
CONTINUOUS
 62
       7
100
AcDbCircle
 10
110.6853369
 20
14.29911206
 30
0.0
 40
3.5
  0
CIRCLE
  5
146
100
AcDbEntity
  8
SLD-0
  6
CONTINUOUS
 62
       7
100
AcDbCircle
 10
168.8853369
 20
35.09911206
 30
0.0
 40
3.5
  0
CIRCLE
  5
147
100
AcDbEntity
  8
SLD-0
  6
CONTINUOUS
 62
       7
100
AcDbCircle
 10
148.0594608
 20
27.46759519
 30
0.0
 40
1.0
  0
CIRCLE
  5
148
100
AcDbEntity
  8
SLD-0
  6
CONTINUOUS
 62
       7
100
AcDbCircle
 10
139.70919788
 20
33.42377984
 30
0.0
 40
1.0
  0
CIRCLE
  5
149
100
AcDbEntity
  8
SLD-0
  6
CONTINUOUS
 62
       7
100
AcDbCircle
 10
131.46415651
 20
27.32277016
 30
0.0
 40
1.0
  0
CIRCLE
  5
14A
100
AcDbEntity
  8
SLD-0
  6
CONTINUOUS
 62
       7
100
AcDbCircle
 10
134.71870362
 20
17.59595416
 30
0.0
 40
1.0
  0
CIRCLE
  5
14B
100
AcDbEntity
  8
SLD-0
  6
CONTINUOUS
 62
       7
100
AcDbCircle
 10
144.97516572
 20
17.68546095
 30
0.0
 40
1.0
  0
CIRCLE
  5
14C
100
AcDbEntity
  8
SLD-0
  6
CONTINUOUS
 62
       7
100
AcDbCircle
 10
151.92059182
 20
15.88233327
 30
0.0
 40
1.0
  0
CIRCLE
  5
14D
100
AcDbEntity
  8
SLD-0
  6
CONTINUOUS
 62
       7
100
AcDbCircle
 10
154.7853369
 20
24.69911206
 30
0.0
 40
1.0
  0
CIRCLE
  5
14E
100
AcDbEntity
  8
SLD-0
  6
CONTINUOUS
 62
       7
100
AcDbCircle
 10
151.92059182
 20
33.51589084
 30
0.0
 40
1.0
  0
CIRCLE
  5
14F
100
AcDbEntity
  8
SLD-0
  6
CONTINUOUS
 62
       7
100
AcDbCircle
 10
144.42059182
 20
38.9649598
 30
0.0
 40
1.0
  0
CIRCLE
  5
150
100
AcDbEntity
  8
SLD-0
  6
CONTINUOUS
 62
       7
100
AcDbCircle
 10
135.15008199
 20
38.9649598
 30
0.0
 40
1.0
  0
CIRCLE
  5
151
100
AcDbEntity
  8
SLD-0
  6
CONTINUOUS
 62
       7
100
AcDbCircle
 10
127.65008199
 20
33.51589084
 30
0.0
 40
1.0
  0
CIRCLE
  5
152
100
AcDbEntity
  8
SLD-0
  6
CONTINUOUS
 62
       7
100
AcDbCircle
 10
124.7853369
 20
24.69911206
 30
0.0
 40
1.0
  0
CIRCLE
  5
153
100
AcDbEntity
  8
SLD-0
  6
CONTINUOUS
 62
       7
100
AcDbCircle
 10
127.65008199
 20
15.88233327
 30
0.0
 40
1.0
  0
CIRCLE
  5
154
100
AcDbEntity
  8
SLD-0
  6
CONTINUOUS
 62
       7
100
AcDbCircle
 10
135.15008199
 20
10.43326431
 30
0.0
 40
1.0
  0
CIRCLE
  5
155
100
AcDbEntity
  8
SLD-0
  6
CONTINUOUS
 62
       7
100
AcDbCircle
 10
144.42059182
 20
10.43326431
 30
0.0
 40
1.0
  0
ARC
  5
156
100
AcDbEntity
  8
SLD-0
  6
CONTINUOUS
 62
       7
100
AcDbCircle
 10
139.78533692
 20
24.6991121
 30
0.0
 40
4.00000006
100
AcDbArc
 50
284.477517
 51
615.52248818
  0
CIRCLE
  5
157
100
AcDbEntity
  8
SLD-0
  6
CONTINUOUS
 62
       7
100
AcDbCircle
 10
139.78533692
 20
24.6991121
 30
0.0
 40
17.5
  0
TEXT
  5
158
100
AcDbEntity
  8
SLD-0
 62
       7
100
AcDbText
 10
98.60237484
 20
-67.69911383
 30
0.0
 40
5.0
  1
000
 72
       5
 11
113.60237484
 21
-67.69911383
 31
0.0
100
AcDbText
  0
ENDSEC
  0
SECTION
  2
OBJECTS
  0
DICTIONARY
  5
19
100
AcDbDictionary
  3
ACAD_GROUP
350
1A
  3
ACAD_MLINESTYLE
350
1B
  0
DICTIONARY
  5
1A
102
{ACAD_REACTORS
330
19
102
}
100
AcDbDictionary
  0
DICTIONARY
  5
1B
102
{ACAD_REACTORS
330
19
102
}
100
AcDbDictionary
  3
STANDARD
350
1C
  0
MLINESTYLE
  5
1C
102
{ACAD_REACTORS
330
1B
102
}
100
AcDbMlineStyle
  2
STANDARD
 70
       0
  3

 62
       0
 51
90.0
 52
90.0
 71
       2
 49
0.5
 62
     256
  6
BYLAYER
 49
-0.5
 62
     256
  6
BYLAYER
  0
ENDSEC
  0
EOF
