  0
SECTION
  2
HEADER
  9
$ACADVER
  1
AC1014
  9
$ACADMAINTVER
 70
       0
  9
$DWGCODEPAGE
  3
ANSI_932
  9
$INSBASE
 10
0.0
 20
0.0
 30
0.0
  9
$EXTMIN
 10
-154.42439707
 20
-105.33314184
 30
0.0
  9
$EXTMAX
 10
154.42439707
 20
45.51964543
 30
0.0
  9
$LIMMIN
 10
-164.07592188
 20
-110.04729144
  9
$LIMMAX
 10
164.07592188
 20
50.23379504
  9
$ORTHOMODE
 70
       0
  9
$REGENMODE
 70
       1
  9
$FILLMODE
 70
       1
  9
$QTEXTMODE
 70
       0
  9
$MIRRTEXT
 70
       1
  9
$DRAGMODE
 70
       2
  9
$LTSCALE
 40
1.0
  9
$OSMODE
 70
       0
  9
$ATTMODE
 70
       1
  9
$TEXTSIZE
 40
0.2
  9
$TRACEWID
 40
0.05
  9
$TEXTSTYLE
  7
STANDARD
  9
$CLAYER
  8
0
  9
$CELTYPE
  6
CONTINUOUS
  9
$CECOLOR
 62
     256
  9
$CELTSCALE
 40
1.0
  9
$DELOBJ
 70
       1
  9
$DISPSILH
 70
       0
  9
$DIMSCALE
 40
1.0
  9
$DIMASZ
 40
0.18
  9
$DIMEXO
 40
0.0625
  9
$DIMDLI
 40
0.38
  9
$DIMRND
 40
0.0
  9
$DIMDLE
 40
0.0
  9
$DIMEXE
 40
0.18
  9
$DIMTP
 40
0.0
  9
$DIMTM
 40
0.0
  9
$DIMTXT
 40
0.18
  9
$DIMCEN
 40
0.09
  9
$DIMTSZ
 40
0.0
  9
$DIMTOL
 70
       0
  9
$DIMLIM
 70
       0
  9
$DIMTIH
 70
       1
  9
$DIMTOH
 70
       1
  9
$DIMSE1
 70
       0
  9
$DIMSE2
 70
       0
  9
$DIMTAD
 70
       0
  9
$DIMZIN
 70
       0
  9
$DIMBLK
  1

  9
$DIMASO
 70
       1
  9
$DIMSHO
 70
       1
  9
$DIMPOST
  1

  9
$DIMAPOST
  1

  9
$DIMALT
 70
       0
  9
$DIMALTD
 70
       2
  9
$DIMALTF
 40
25.4
  9
$DIMLFAC
 40
1.0
  9
$DIMTOFL
 70
       0
  9
$DIMTVP
 40
0.0
  9
$DIMTIX
 70
       0
  9
$DIMSOXD
 70
       0
  9
$DIMSAH
 70
       0
  9
$DIMBLK1
  1

  9
$DIMBLK2
  1

  9
$DIMSTYLE
  2
STANDARD
  9
$DIMCLRD
 70
       0
  9
$DIMCLRE
 70
       0
  9
$DIMCLRT
 70
       0
  9
$DIMTFAC
 40
1.0
  9
$DIMGAP
 40
0.09
  9
$DIMJUST
 70
       0
  9
$DIMSD1
 70
       0
  9
$DIMSD2
 70
       0
  9
$DIMTOLJ
 70
       1
  9
$DIMTZIN
 70
       0
  9
$DIMALTZ
 70
       0
  9
$DIMALTTZ
 70
       0
  9
$DIMFIT
 70
       3
  9
$DIMUPT
 70
       0
  9
$DIMUNIT
 70
       2
  9
$DIMDEC
 70
       4
  9
$DIMTDEC
 70
       4
  9
$DIMALTU
 70
       2
  9
$DIMALTTD
 70
       2
  9
$DIMTXSTY
  7
STANDARD
  9
$DIMAUNIT
 70
       0
  9
$LUNITS
 70
       2
  9
$LUPREC
 70
       4
  9
$SKETCHINC
 40
0.1
  9
$FILLETRAD
 40
0.0
  9
$AUNITS
 70
       0
  9
$AUPREC
 70
       0
  9
$MENU
  1
acad
  9
$ELEVATION
 40
0.0
  9
$PELEVATION
 40
0.0
  9
$THICKNESS
 40
0.0
  9
$LIMCHECK
 70
       0
  9
$BLIPMODE
 70
       1
  9
$CHAMFERA
 40
0.0
  9
$CHAMFERB
 40
0.0
  9
$CHAMFERC
 40
0.0
  9
$CHAMFERD
 40
0.0
  9
$SKPOLY
 70
       0
  9
$TDCREATE
 40
0.000000000
  9
$TDUPDATE
 40
0.000000000
  9
$TDINDWG
 40
0.0000000000
  9
$TDUSRTIMER
 40
0.0000000000
  9
$USRTIMER
 70
       1
  9
$ANGBASE
 50
0.0
  9
$ANGDIR
 70
       0
  9
$PDMODE
 70
       0
  9
$PDSIZE
 40
1.0
  9
$PLINEWID
 40
0.0
  9
$COORDS
 70
       1
  9
$SPLFRAME
 70
       0
  9
$SPLINETYPE
 70
       6
  9
$SPLINESEGS
 70
       8
  9
$ATTDIA
 70
       0
  9
$ATTREQ
 70
       1
  9
$HANDLING
 70
       1
  9
$HANDSEED
  5
757
  9
$SURFTAB1
 70
       6
  9
$SURFTAB2
 70
       6
  9
$SURFTYPE
 70
       6
  9
$SURFU
 70
       6
  9
$SURFV
 70
       6
  9
$UCSNAME
  2

  9
$UCSORG
 10
0.0
 20
0.0
 30
0.0
  9
$UCSXDIR
 10
1.0
 20
0.0
 30
0.0
  9
$UCSYDIR
 10
0.0
 20
1.0
 30
0.0
  9
$PUCSNAME
  2

  9
$PUCSORG
 10
0.0
 20
0.0
 30
0.0
  9
$PUCSXDIR
 10
1.0
 20
0.0
 30
0.0
  9
$PUCSYDIR
 10
0.0
 20
1.0
 30
0.0
  9
$USERI1
 70
       0
  9
$USERI2
 70
       0
  9
$USERI3
 70
       0
  9
$USERI4
 70
       0
  9
$USERI5
 70
       0
  9
$USERR1
 40
0.0
  9
$USERR2
 40
0.0
  9
$USERR3
 40
0.0
  9
$USERR4
 40
0.0
  9
$USERR5
 40
0.0
  9
$WORLDVIEW
 70
       1
  9
$SHADEDGE
 70
       3
  9
$SHADEDIF
 70
      70
  9
$TILEMODE
 70
       1
  9
$MAXACTVP
 70
      16
  9
$PINSBASE
 10
0.0
 20
0.0
 30
0.0
  9
$PLIMCHECK
 70
       0
  9
$PEXTMIN
 10
1.00000000E+20
 20
1.00000000E+20
 30
1.00000000E+20
  9
$PEXTMAX
 10
-1.00000000E+20
 20
-1.00000000E+20
 30
-1.00000000E+20
  9
$PLIMMIN
 10
0.0
 20
0.0
  9
$PLIMMAX
 10
12.0
 20
9.0
  9
$UNITMODE
 70
       0
  9
$VISRETAIN
 70
       0
  9
$PLINEGEN
 70
       1
  9
$PSLTSCALE
 70
       0
  9
$TREEDEPTH
 70
    3020
  9
$PICKSTYLE
 70
       1
  9
$CMLSTYLE
  2
STANDARD
  9
$CMLJUST
 70
       0
  9
$CMLSCALE
 40
1.0
  9
$PROXYGRAPHICS
 70
       0
  9
$MEASUREMENT
 70
       0
  0
ENDSEC
  0
SECTION
  2
CLASSES
  0
CLASS
  1
LWPOLYLINE
  2
AcDbPolyline
  3
"AutoCAD"
 90
        0
280
       0
281
       1
  0
CLASS
  1
IMAGE
  2
AcDbRasterImage
  3
ISM
 90
      127
280
       0
281
       1
  0
CLASS
  1
OLE2FRAME
  2
AcDbOle2Frame
  3
""
 90
        0
280
       0
281
       1
  0
CLASS
  1
HATCH
  2
AcDbHatch
  3
"ACAD_SEDONA"
 90
        0
280
       0
281
       1
  0
CLASS
  1
DICTIONARYVAR
  2
AcDbDictionaryVar
  3
"AutoCAD"
 90
        0
280
       0
281
       0
  0
CLASS
  1
RASTERVARIABLES
  2
AcDbRasterVariables
  3
ISM
 90
        0
280
       0
281
       0
  0
CLASS
  1
IMAGEDEF
  2
AcDbRasterImageDef
  3
ISM
 90
        0
280
       0
281
       0
  0
CLASS
  1
IMAGEDEF_REACTOR
  2
AcDbRasterImageDefReactor
  3
ISM
 90
        1
280
       0
281
       0
  0
CLASS
  1
IDBUFFER
  2
AcDbIdBuffer
  3
"Acad"
 90
        0
280
       0
281
       0
  0
CLASS
  1
SPATIAL_FILTER
  2
AcDbSpatialFilter
  3
"Acad"
 90
        0
280
       0
281
       0
  0
CLASS
  1
XRECORD
  2
AcDbXrecord
  3
"<Built In>"
 90
        0
280
       0
281
       0
  0
CLASS
  1
SORTENTSTABLE
  2
AcDbSortentsTable
  3
"AutoCAD"
 90
        0
280
       0
281
       0
  0
CLASS
  1
LAYER_INDEX
  2
AcDbLayerIndex
  3
"Acad"
 90
        0
280
       0
281
       0
  0
CLASS
  1
SPATIAL_INDEX
  2
AcDbSpatialIndex
  3
"Acad"
 90
        0
280
       0
281
       0
  0
CLASS
  1
OBJECT_PTR
  2
CAseDLPNTableRecord
  3
"ASE-LPNTableRecord"
 90
        1
280
       0
281
       0
  0
CLASS
  1
LAYOUT
  2
AcDbLayout
  3
"AutoCAD 2000"
 90
        1
280
       0
281
       0
  0
CLASS
  1
PLOTSETTINGS
  2
AcDbPlotSettings
  3
"AutoCAD 2000"
 90
        1
280
       0
281
       0
  0
CLASS
  1
ACDBDICTIONARYWDFLT
  2
AcDbDictionaryWithDefault
  3
"AutoCAD 2000"
 90
        1
280
       0
281
       0
  0
CLASS
  1
ACDBPLACEHOLDER
  2
AcDbPlaceHolder
  3
"AutoCAD 2000"
 90
        1
280
       0
281
       0
  0
CLASS
  1
VBA_PROJECT
  2
AcDbVbaProject
  3
"acadvba"
 90
        1
280
       0
281
       0
  0
CLASS
  1
WIPEOUT
  2
AcDbWipeout
  3
WipeOut|AutoCAD Express Tool|expresstools@autodesk.com
 90
      127
280
       0
281
       1
  0
CLASS
  1
WIPEOUTVARIABLES
  2
AcDbWipeoutVariables
  3
WipeOut|AutoCAD Express Tool|expresstools@autodesk.com
 90
        0
280
       0
281
       0
  0
CLASS
  1
RTEXT
  2
RText
  3
RText|AutoCAD Express Tool|expresstools@autodesk.com
 90
        0
280
       0
281
       1
  0
CLASS
  1
ARCALIGNEDTEXT
  2
AcDbArcAlignedText
  3
ATEXT|AutoCAD Express Tool|expresstools@autodesk.com
 90
        0
280
       0
281
       1
  0
ENDSEC
  0
SECTION
  2
TABLES
  0
TABLE
  2
VPORT
  5
7
100
AcDbSymbolTable
 70
       1
  0
VPORT
  5
15
100
AcDbSymbolTableRecord
100
AcDbViewportTableRecord
  2
*ACTIVE
 70
       0
 10
0.0
 20
0.0
 11
1.0
 21
1.0
 12
0.0
 22
-29.9067482
 13
0.0
 23
0.0
 14
1.0
 24
1.0
 15
0.0
 25
0.0
 16
0.0
 26
0.0
 36
1.0
 17
0.0
 27
0.0
 37
0.0
 40
160.28108648
 41
2.04735225
 42
50.0
 43
0.0
 44
0.0
 50
0.0
 51
0.0
 71
       0
 72
     100
 73
       1
 74
       1
 75
       0
 76
       0
 77
       0
 78
       0
  0
ENDTAB
  0
TABLE
  2
LTYPE
  5
4
100
AcDbSymbolTable
 70
      30
  0
LTYPE
  5
11
100
AcDbSymbolTableRecord
100
AcDbLinetypeTableRecord
  2
BYBLOCK
 70
      64
  3

 72
      65
 73
       0
 40
0.0
  0
LTYPE
  5
12
100
AcDbSymbolTableRecord
100
AcDbLinetypeTableRecord
  2
BYLAYER
 70
      64
  3

 72
      65
 73
       0
 40
0.0
  0
LTYPE
  5
13
100
AcDbSymbolTableRecord
100
AcDbLinetypeTableRecord
  2
CONTINUOUS
 70
      64
  3
Solid line
 72
      65
 73
       0
 40
0.0
  0
LTYPE
  5
1D
100
AcDbSymbolTableRecord
100
AcDbLinetypeTableRecord
  2
HIDDENX2
 70
      64
  3
CADPAC LINETYPE
 72
      65
 73
       2
 40
11.88
 49
8.91
 74
       0
 49
-2.97
 74
       0
  0
LTYPE
  5
1E
100
AcDbSymbolTableRecord
100
AcDbLinetypeTableRecord
  2
HIDDEN
 70
      64
  3
CADPAC LINETYPE
 72
      65
 73
       2
 40
8.91
 49
5.94
 74
       0
 49
-2.97
 74
       0
  0
LTYPE
  5
1F
100
AcDbSymbolTableRecord
100
AcDbLinetypeTableRecord
  2
HIDDEN2
 70
      64
  3
CADPAC LINETYPE
 72
      65
 73
       2
 40
7.425
 49
4.455
 74
       0
 49
-2.97
 74
       0
  0
LTYPE
  5
20
100
AcDbSymbolTableRecord
100
AcDbLinetypeTableRecord
  2
DASHED
 70
      64
  3
CADPAC LINETYPE
 72
      65
 73
       2
 40
8.91
 49
5.94
 74
       0
 49
-2.97
 74
       0
  0
LTYPE
  5
21
100
AcDbSymbolTableRecord
100
AcDbLinetypeTableRecord
  2
DASHED2
 70
      64
  3
CADPAC LINETYPE
 72
      65
 73
       2
 40
6.6825
 49
4.455
 74
       0
 49
-2.2275
 74
       0
  0
LTYPE
  5
22
100
AcDbSymbolTableRecord
100
AcDbLinetypeTableRecord
  2
DASHEDX2
 70
      64
  3
CADPAC LINETYPE
 72
      65
 73
       2
 40
13.365
 49
8.91
 74
       0
 49
-4.455
 74
       0
  0
LTYPE
  5
23
100
AcDbSymbolTableRecord
100
AcDbLinetypeTableRecord
  2
DOTX2
 70
      64
  3
CADPAC LINETYPE
 72
      65
 73
       2
 40
3.7125
 49
0.0
 74
       0
 49
-3.7125
 74
       0
  0
LTYPE
  5
24
100
AcDbSymbolTableRecord
100
AcDbLinetypeTableRecord
  2
DOT
 70
      64
  3
CADPAC LINETYPE
 72
      65
 73
       2
 40
2.97
 49
0.0
 74
       0
 49
-2.97
 74
       0
  0
LTYPE
  5
25
100
AcDbSymbolTableRecord
100
AcDbLinetypeTableRecord
  2
DOT2
 70
      64
  3
CADPAC LINETYPE
 72
      65
 73
       2
 40
2.2275
 49
0.0
 74
       0
 49
-2.2275
 74
       0
  0
LTYPE
  5
26
100
AcDbSymbolTableRecord
100
AcDbLinetypeTableRecord
  2
CENTERX2
 70
      64
  3
CADPAC LINETYPE
 72
      65
 73
       4
 40
17.82
 49
7.425
 74
       0
 49
-3.7125
 74
       0
 49
2.97
 74
       0
 49
-3.7125
 74
       0
  0
LTYPE
  5
27
100
AcDbSymbolTableRecord
100
AcDbLinetypeTableRecord
  2
CENTER
 70
      64
  3
CADPAC LINETYPE
 72
      65
 73
       4
 40
13.662
 49
5.94
 74
       0
 49
-2.97
 74
       0
 49
1.782
 74
       0
 49
-2.97
 74
       0
  0
LTYPE
  5
28
100
AcDbSymbolTableRecord
100
AcDbLinetypeTableRecord
  2
CENTER2
 70
      64
  3
CADPAC LINETYPE
 72
      65
 73
       4
 40
9.504
 49
4.455
 74
       0
 49
-2.2275
 74
       0
 49
0.594
 74
       0
 49
-2.2275
 74
       0
  0
LTYPE
  5
29
100
AcDbSymbolTableRecord
100
AcDbLinetypeTableRecord
  2
DASHDOTX2
 70
      64
  3
CADPAC LINETYPE
 72
      65
 73
       4
 40
14.85
 49
7.425
 74
       0
 49
-3.7125
 74
       0
 49
0.0
 74
       0
 49
-3.7125
 74
       0
  0
LTYPE
  5
2A
100
AcDbSymbolTableRecord
100
AcDbLinetypeTableRecord
  2
DASHDOT
 70
      64
  3
CADPAC LINETYPE
 72
      65
 73
       4
 40
11.88
 49
5.94
 74
       0
 49
-2.97
 74
       0
 49
0.0
 74
       0
 49
-2.97
 74
       0
  0
LTYPE
  5
2B
100
AcDbSymbolTableRecord
100
AcDbLinetypeTableRecord
  2
DASHDOT2
 70
      64
  3
CADPAC LINETYPE
 72
      65
 73
       4
 40
8.91
 49
4.455
 74
       0
 49
-2.2275
 74
       0
 49
0.0
 74
       0
 49
-2.2275
 74
       0
  0
LTYPE
  5
2C
100
AcDbSymbolTableRecord
100
AcDbLinetypeTableRecord
  2
DIVIDEX2
 70
      64
  3
CADPAC LINETYPE
 72
      65
 73
       6
 40
18.5625
 49
7.425
 74
       0
 49
-3.7125
 74
       0
 49
0.0
 74
       0
 49
-3.7125
 74
       0
 49
0.0
 74
       0
 49
-3.7125
 74
       0
  0
LTYPE
  5
2D
100
AcDbSymbolTableRecord
100
AcDbLinetypeTableRecord
  2
DIVIDE
 70
      64
  3
CADPAC LINETYPE
 72
      65
 73
       6
 40
14.85
 49
5.94
 74
       0
 49
-2.97
 74
       0
 49
0.0
 74
       0
 49
-2.97
 74
       0
 49
0.0
 74
       0
 49
-2.97
 74
       0
  0
LTYPE
  5
2E
100
AcDbSymbolTableRecord
100
AcDbLinetypeTableRecord
  2
DIVIDE2
 70
      64
  3
CADPAC LINETYPE
 72
      65
 73
       6
 40
11.1375
 49
4.455
 74
       0
 49
-2.2275
 74
       0
 49
0.0
 74
       0
 49
-2.2275
 74
       0
 49
0.0
 74
       0
 49
-2.2275
 74
       0
  0
LTYPE
  5
2F
100
AcDbSymbolTableRecord
100
AcDbLinetypeTableRecord
  2
BORDERX2
 70
      64
  3
CADPAC LINETYPE
 72
      65
 73
       6
 40
25.9875
 49
7.425
 74
       0
 49
-3.7125
 74
       0
 49
7.425
 74
       0
 49
-3.7125
 74
       0
 49
0.0
 74
       0
 49
-3.7125
 74
       0
  0
LTYPE
  5
30
100
AcDbSymbolTableRecord
100
AcDbLinetypeTableRecord
  2
BORDER
 70
      64
  3
CADPAC LINETYPE
 72
      65
 73
       6
 40
20.79
 49
5.94
 74
       0
 49
-2.97
 74
       0
 49
5.94
 74
       0
 49
-2.97
 74
       0
 49
0.0
 74
       0
 49
-2.97
 74
       0
  0
LTYPE
  5
31
100
AcDbSymbolTableRecord
100
AcDbLinetypeTableRecord
  2
BORDER2
 70
      64
  3
CADPAC LINETYPE
 72
      65
 73
       6
 40
15.5925
 49
4.455
 74
       0
 49
-2.2275
 74
       0
 49
4.455
 74
       0
 49
-2.2275
 74
       0
 49
0.0
 74
       0
 49
-2.2275
 74
       0
  0
LTYPE
  5
32
100
AcDbSymbolTableRecord
100
AcDbLinetypeTableRecord
  2
PHANTOMX2
 70
      64
  3
CADPAC LINETYPE
 72
      65
 73
       6
 40
22.275
 49
7.425
 74
       0
 49
-2.97
 74
       0
 49
2.97
 74
       0
 49
-2.97
 74
       0
 49
2.97
 74
       0
 49
-2.97
 74
       0
  0
LTYPE
  5
33
100
AcDbSymbolTableRecord
100
AcDbLinetypeTableRecord
  2
PHANTOM
 70
      64
  3
CADPAC LINETYPE
 72
      65
 73
       6
 40
18.414
 49
5.94
 74
       0
 49
-2.97
 74
       0
 49
1.782
 74
       0
 49
-2.97
 74
       0
 49
1.782
 74
       0
 49
-2.97
 74
       0
  0
LTYPE
  5
34
100
AcDbSymbolTableRecord
100
AcDbLinetypeTableRecord
  2
PHANTOM2
 70
      64
  3
CADPAC LINETYPE
 72
      65
 73
       6
 40
15.741
 49
4.455
 74
       0
 49
-2.97
 74
       0
 49
1.188
 74
       0
 49
-2.97
 74
       0
 49
1.188
 74
       0
 49
-2.97
 74
       0
  0
LTYPE
  5
35
100
AcDbSymbolTableRecord
100
AcDbLinetypeTableRecord
  2
ACAD_ISO06W100
 70
      64
  3
CADPAC LINETYPE
 72
      65
 73
       8
 40
20.0475
 49
7.425
 74
       0
 49
-3.7125
 74
       0
 49
0.0
 74
       0
 49
-2.97
 74
       0
 49
0.0
 74
       0
 49
-2.97
 74
       0
 49
0.0
 74
       0
 49
-2.97
 74
       0
  0
LTYPE
  5
36
100
AcDbSymbolTableRecord
100
AcDbLinetypeTableRecord
  2
ACAD_ISO13W100
 70
      64
  3
CADPAC LINETYPE
 72
      65
 73
       8
 40
23.76
 49
5.94
 74
       0
 49
-2.97
 74
       0
 49
5.94
 74
       0
 49
-2.97
 74
       0
 49
0.0
 74
       0
 49
-2.97
 74
       0
 49
0.0
 74
       0
 49
-2.97
 74
       0
  0
LTYPE
  5
37
100
AcDbSymbolTableRecord
100
AcDbLinetypeTableRecord
  2
ACAD_ISO14W100
 70
      64
  3
CADPAC LINETYPE
 72
      65
 73
       8
 40
17.82
 49
5.94
 74
       0
 49
-2.97
 74
       0
 49
0.0
 74
       0
 49
-2.97
 74
       0
 49
0.0
 74
       0
 49
-2.97
 74
       0
 49
0.0
 74
       0
 49
-2.97
 74
       0
  0
ENDTAB
  0
TABLE
  2
LAYER
  5
2
100
AcDbSymbolTable
 70
       2
  0
LAYER
  5
14
100
AcDbSymbolTableRecord
100
AcDbLayerTableRecord
  2
0
 70
       0
 62
       7
  6
CONTINUOUS
  0
LAYER
  5
38
100
AcDbSymbolTableRecord
100
AcDbLayerTableRecord
  2
レイヤー_1
 70
       0
 62
       7
  6
CONTINUOUS
  0
ENDTAB
  0
TABLE
  2
STYLE
  5
3
100
AcDbSymbolTable
 70
       1
  0
STYLE
  5
17
100
AcDbSymbolTableRecord
100
AcDbTextStyleTableRecord
  2
STANDARD
 70
       0
 40
0.0
 41
0.8
 50
0.0
 71
       0
 42
5.0
  3
txt.shx
  4
bigfont.shx
  0
ENDTAB
  0
TABLE
  2
VIEW
  5
5
100
AcDbSymbolTable
 70
       1
  0
VIEW
  5
39
100
AcDbSymbolTableRecord
100
AcDbViewTableRecord
  2
QQQQ
 70
       0
 40
160.28108648
 10
0.0
 20
-29.9067482
 41
328.15184377
 11
0.0
 21
0.0
 31
1.0
 12
100.0
 22
100.0
 32
0.0
 42
50.0
 43
0.0
 44
0.0
 50
0.0
 71
       0
  0
ENDTAB
  0
TABLE
  2
UCS
  5
6
100
AcDbSymbolTable
 70
       0
  0
ENDTAB
  0
TABLE
  2
APPID
  5
8
100
AcDbSymbolTable
 70
       1
  0
APPID
  5
16
100
AcDbSymbolTableRecord
100
AcDbRegAppTableRecord
  2
ACAD
 70
       0
  0
ENDTAB
  0
TABLE
  2
DIMSTYLE
  5
9
100
AcDbSymbolTable
 70
       1
  0
DIMSTYLE
105
18
100
AcDbSymbolTableRecord
100
AcDbDimStyleTableRecord
  2
STANDARD
 70
       0
  3

  4

  5

  6

  7

 40
1.0
 41
0.18
 42
0.0625
 43
0.38
 44
0.18
 45
0.0
 46
0.0
 47
0.0
 48
0.0
 71
       0
 72
       0
 73
       1
 74
       1
 75
       0
 76
       0
 77
       0
 78
       0
140
0.18
141
0.09
142
0.0
143
25.4
144
1.0
145
0.0
146
1.0
147
0.09
170
       0
171
       2
172
       0
173
       0
174
       0
175
       0
176
       0
177
       0
178
       0
270
       2
271
       4
272
       4
273
       2
274
       2
275
       0
280
       0
281
       0
282
       0
283
       1
284
       0
285
       0
286
       0
287
       0
288
       0
340
17
  0
ENDTAB
  0
TABLE
  2
BLOCK_RECORD
  5
1
100
AcDbSymbolTable
 70
       0
  0
BLOCK_RECORD
  5
A
100
AcDbSymbolTableRecord
100
AcDbBlockTableRecord
  2
*MODEL_SPACE
  0
BLOCK_RECORD
  5
B
100
AcDbSymbolTableRecord
100
AcDbBlockTableRecord
  2
*PAPER_SPACE
  0
ENDTAB
  0
ENDSEC
  0
SECTION
  2
BLOCKS
  0
BLOCK
  5
D
100
AcDbEntity
  8
0
100
AcDbBlockBegin
  2
*MODEL_SPACE
 70
       0
 10
0.0
 20
0.0
 30
0.0
  3
*MODEL_SPACE
  1

  0
ENDBLK
  5
E
100
AcDbEntity
  8
0
100
AcDbBlockEnd
  0
BLOCK
  5
F
100
AcDbEntity
 67
       1
  8
0
100
AcDbBlockBegin
  2
*PAPER_SPACE
 70
       0
 10
0.0
 20
0.0
 30
0.0
  3
*PAPER_SPACE
  1

  0
ENDBLK
  5
10
100
AcDbEntity
 67
       1
  8
0
100
AcDbBlockEnd
  0
ENDSEC
  0
SECTION
  2
ENTITIES
  0
LINE
  5
3A
100
AcDbEntity
  8
レイヤー_1
  6
CONTINUOUS
 62
       3
100
AcDbLine
 10
-99.98499718
 20
40.59557089
 30
0.0
 11
-146.98499718
 21
40.59557089
 31
0.0
  0
LINE
  5
3B
100
AcDbEntity
  8
レイヤー_1
  6
CONTINUOUS
 62
       3
100
AcDbLine
 10
-99.98499718
 20
-39.40442911
 30
0.0
 11
-146.98499718
 21
-39.40442911
 31
0.0
  0
LINE
  5
3C
100
AcDbEntity
  8
レイヤー_1
  6
CONTINUOUS
 62
       3
100
AcDbLine
 10
-148.48499718
 20
39.09557089
 30
0.0
 11
-148.48499718
 21
-37.90442911
 31
0.0
  0
LINE
  5
3D
100
AcDbEntity
  8
レイヤー_1
  6
CONTINUOUS
 62
       3
100
AcDbLine
 10
-98.48499718
 20
39.09557089
 30
0.0
 11
-98.48499718
 21
-37.90442911
 31
0.0
  0
LINE
  5
3E
100
AcDbEntity
  8
レイヤー_1
  6
CONTINUOUS
 62
       3
100
AcDbLine
 10
34.8524526
 20
40.59557089
 30
0.0
 11
-67.1475474
 21
40.59557089
 31
0.0
  0
LINE
  5
3F
100
AcDbEntity
  8
レイヤー_1
  6
CONTINUOUS
 62
       3
100
AcDbLine
 10
34.8524526
 20
-39.40442911
 30
0.0
 11
-67.1475474
 21
-39.40442911
 31
0.0
  0
LINE
  5
40
100
AcDbEntity
  8
レイヤー_1
  6
CONTINUOUS
 62
       3
100
AcDbLine
 10
-68.1475474
 20
-38.40442911
 30
0.0
 11
-68.1475474
 21
39.59557089
 31
0.0
  0
LINE
  5
41
100
AcDbEntity
  8
レイヤー_1
  6
CONTINUOUS
 62
       3
100
AcDbLine
 10
54.8524526
 20
-39.40442911
 30
0.0
 11
54.8524526
 21
-16.88505892
 31
0.0
  0
LINE
  5
42
100
AcDbEntity
  8
レイヤー_1
  6
CONTINUOUS
 62
       3
100
AcDbLine
 10
54.8524526
 20
18.09816316
 30
0.0
 11
54.8524526
 21
40.58344014
 31
0.0
  0
LINE
  5
43
100
AcDbEntity
  8
レイヤー_1
  6
CONTINUOUS
 62
       3
100
AcDbLine
 10
100.48338653
 20
38.57064309
 30
0.0
 11
146.47799509
 21
38.57064309
 31
0.0
  0
LINE
  5
44
100
AcDbEntity
  8
レイヤー_1
  6
CONTINUOUS
 62
       3
100
AcDbLine
 10
100.48338653
 20
-37.40189446
 30
0.0
 11
146.47799509
 21
-37.40189446
 31
0.0
  0
ARC
  5
45
100
AcDbEntity
  8
レイヤー_1
  6
CONTINUOUS
 62
       3
100
AcDbCircle
 10
-146.98499718
 20
39.09557089
 30
0.0
 40
1.5
100
AcDbArc
 50
90.0
 51
180.0
  0
ARC
  5
46
100
AcDbEntity
  8
レイヤー_1
  6
CONTINUOUS
 62
       3
100
AcDbCircle
 10
-146.98499718
 20
-37.90442911
 30
0.0
 40
1.5
100
AcDbArc
 50
180.0
 51
270.0
  0
ARC
  5
47
100
AcDbEntity
  8
レイヤー_1
  6
CONTINUOUS
 62
       3
100
AcDbCircle
 10
-99.98499718
 20
-37.90442911
 30
0.0
 40
1.5
100
AcDbArc
 50
270.0
 51
360.0
  0
ARC
  5
48
100
AcDbEntity
  8
レイヤー_1
  6
CONTINUOUS
 62
       3
100
AcDbCircle
 10
-99.98499718
 20
39.09557089
 30
0.0
 40
1.5
100
AcDbArc
 50
0.0
 51
90.0
  0
ARC
  5
49
100
AcDbEntity
  8
レイヤー_1
  6
CONTINUOUS
 62
       3
100
AcDbCircle
 10
-67.1475474
 20
-38.40442911
 30
0.0
 40
1.0
100
AcDbArc
 50
180.0
 51
270.0
  0
ARC
  5
4A
100
AcDbEntity
  8
レイヤー_1
  6
CONTINUOUS
 62
       3
100
AcDbCircle
 10
-67.1475474
 20
39.59557089
 30
0.0
 40
1.0
100
AcDbArc
 50
90.0
 51
180.0
  0
CIRCLE
  5
4B
100
AcDbEntity
  8
レイヤー_1
  6
CONTINUOUS
 62
       3
100
AcDbCircle
 10
123.48499718
 20
0.59557088
 30
0.0
 40
14.0
  0
LINE
  5
4C
100
AcDbEntity
  8
レイヤー_1
  6
CONTINUOUS
 62
       3
100
AcDbLine
 10
-101.99147708
 20
-36.3998023
 30
0.0
 11
-101.93916307
 21
-36.39710582
 31
0.0
  0
LINE
  5
4D
100
AcDbEntity
  8
レイヤー_1
  6
CONTINUOUS
 62
       3
100
AcDbLine
 10
-101.93916307
 20
-36.39710582
 30
0.0
 11
-101.88839989
 21
-36.3891947
 31
0.0
  0
LINE
  5
4E
100
AcDbEntity
  8
レイヤー_1
  6
CONTINUOUS
 62
       3
100
AcDbLine
 10
-101.88839989
 20
-36.3891947
 30
0.0
 11
-101.83945781
 21
-36.37633652
 31
0.0
  0
LINE
  5
4F
100
AcDbEntity
  8
レイヤー_1
  6
CONTINUOUS
 62
       3
100
AcDbLine
 10
-101.83945781
 20
-36.37633652
 30
0.0
 11
-101.79260708
 21
-36.35879881
 31
0.0
  0
LINE
  5
50
100
AcDbEntity
  8
レイヤー_1
  6
CONTINUOUS
 62
       3
100
AcDbLine
 10
-101.79260708
 20
-36.35879881
 30
0.0
 11
-101.74811796
 21
-36.33684912
 31
0.0
  0
LINE
  5
51
100
AcDbEntity
  8
レイヤー_1
  6
CONTINUOUS
 62
       3
100
AcDbLine
 10
-101.74811796
 20
-36.33684912
 30
0.0
 11
-101.70626071
 21
-36.31075499
 31
0.0
  0
LINE
  5
52
100
AcDbEntity
  8
レイヤー_1
  6
CONTINUOUS
 62
       3
100
AcDbLine
 10
-101.70626071
 20
-36.31075499
 30
0.0
 11
-101.66730557
 21
-36.28078398
 31
0.0
  0
LINE
  5
53
100
AcDbEntity
  8
レイヤー_1
  6
CONTINUOUS
 62
       3
100
AcDbLine
 10
-101.66730557
 20
-36.28078398
 30
0.0
 11
-101.6315228
 21
-36.24720362
 31
0.0
  0
LINE
  5
54
100
AcDbEntity
  8
レイヤー_1
  6
CONTINUOUS
 62
       3
100
AcDbLine
 10
-101.6315228
 20
-36.24720362
 30
0.0
 11
-101.59918267
 21
-36.21028148
 31
0.0
  0
LINE
  5
55
100
AcDbEntity
  8
レイヤー_1
  6
CONTINUOUS
 62
       3
100
AcDbLine
 10
-101.59918267
 20
-36.21028148
 30
0.0
 11
-101.57055543
 21
-36.17028509
 31
0.0
  0
LINE
  5
56
100
AcDbEntity
  8
レイヤー_1
  6
CONTINUOUS
 62
       3
100
AcDbLine
 10
-101.57055543
 20
-36.17028509
 30
0.0
 11
-101.54591133
 21
-36.12748199
 31
0.0
  0
LINE
  5
57
100
AcDbEntity
  8
レイヤー_1
  6
CONTINUOUS
 62
       3
100
AcDbLine
 10
-101.54591133
 20
-36.12748199
 30
0.0
 11
-101.52552062
 21
-36.08213975
 31
0.0
  0
LINE
  5
58
100
AcDbEntity
  8
レイヤー_1
  6
CONTINUOUS
 62
       3
100
AcDbLine
 10
-101.52552062
 20
-36.08213975
 30
0.0
 11
-101.50965358
 21
-36.0345259
 31
0.0
  0
LINE
  5
59
100
AcDbEntity
  8
レイヤー_1
  6
CONTINUOUS
 62
       3
100
AcDbLine
 10
-101.50965358
 20
-36.0345259
 30
0.0
 11
-101.49858044
 21
-35.98490799
 31
0.0
  0
LINE
  5
5A
100
AcDbEntity
  8
レイヤー_1
  6
CONTINUOUS
 62
       3
100
AcDbLine
 10
-101.49858044
 20
-35.98490799
 30
0.0
 11
-101.49257147
 21
-35.93355356
 31
0.0
  0
LINE
  5
5B
100
AcDbEntity
  8
レイヤー_1
  6
CONTINUOUS
 62
       3
100
AcDbLine
 10
-101.49257147
 20
-35.93355356
 30
0.0
 11
-101.4915076
 21
-35.77659356
 31
0.0
  0
LINE
  5
5C
100
AcDbEntity
  8
レイヤー_1
  6
CONTINUOUS
 62
       3
100
AcDbLine
 10
-101.4915076
 20
-35.77659356
 30
0.0
 11
-101.4915076
 21
-34.30457648
 31
0.0
  0
LINE
  5
5D
100
AcDbEntity
  8
レイヤー_1
  6
CONTINUOUS
 62
       3
100
AcDbLine
 10
-101.4915076
 20
-34.30457648
 30
0.0
 11
-101.4915076
 21
-31.35456337
 31
0.0
  0
LINE
  5
5E
100
AcDbEntity
  8
レイヤー_1
  6
CONTINUOUS
 62
       3
100
AcDbLine
 10
-101.4915076
 20
-31.35456337
 30
0.0
 11
-101.4915076
 21
-27.15614585
 31
0.0
  0
LINE
  5
5F
100
AcDbEntity
  8
レイヤー_1
  6
CONTINUOUS
 62
       3
100
AcDbLine
 10
-101.4915076
 20
-27.15614585
 30
0.0
 11
-101.4915076
 21
-21.93891554
 31
0.0
  0
LINE
  5
60
100
AcDbEntity
  8
レイヤー_1
  6
CONTINUOUS
 62
       3
100
AcDbLine
 10
-101.4915076
 20
-21.93891554
 30
0.0
 11
-101.4915076
 21
-15.93246404
 31
0.0
  0
LINE
  5
61
100
AcDbEntity
  8
レイヤー_1
  6
CONTINUOUS
 62
       3
100
AcDbLine
 10
-101.4915076
 20
-15.93246404
 30
0.0
 11
-101.4915076
 21
-9.36638298
 31
0.0
  0
LINE
  5
62
100
AcDbEntity
  8
レイヤー_1
  6
CONTINUOUS
 62
       3
100
AcDbLine
 10
-101.4915076
 20
-9.36638298
 30
0.0
 11
-101.4915076
 21
-2.47026398
 31
0.0
  0
LINE
  5
63
100
AcDbEntity
  8
レイヤー_1
  6
CONTINUOUS
 62
       3
100
AcDbLine
 10
-101.4915076
 20
-2.47026398
 30
0.0
 11
-101.4915076
 21
4.52630135
 31
0.0
  0
LINE
  5
64
100
AcDbEntity
  8
レイヤー_1
  6
CONTINUOUS
 62
       3
100
AcDbLine
 10
-101.4915076
 20
4.52630135
 30
0.0
 11
-101.4915076
 21
11.39372142
 31
0.0
  0
LINE
  5
65
100
AcDbEntity
  8
レイヤー_1
  6
CONTINUOUS
 62
       3
100
AcDbLine
 10
-101.4915076
 20
11.39372142
 30
0.0
 11
-101.4915076
 21
17.90240457
 31
0.0
  0
LINE
  5
66
100
AcDbEntity
  8
レイヤー_1
  6
CONTINUOUS
 62
       3
100
AcDbLine
 10
-101.4915076
 20
17.90240457
 30
0.0
 11
-101.4915076
 21
23.82275921
 31
0.0
  0
LINE
  5
67
100
AcDbEntity
  8
レイヤー_1
  6
CONTINUOUS
 62
       3
100
AcDbLine
 10
-101.4915076
 20
23.82275921
 30
0.0
 11
-101.4915076
 21
28.92519371
 31
0.0
  0
LINE
  5
68
100
AcDbEntity
  8
レイヤー_1
  6
CONTINUOUS
 62
       3
100
AcDbLine
 10
-101.4915076
 20
28.92519371
 30
0.0
 11
-101.4915076
 21
32.98011648
 31
0.0
  0
LINE
  5
69
100
AcDbEntity
  8
レイヤー_1
  6
CONTINUOUS
 62
       3
100
AcDbLine
 10
-101.4915076
 20
32.98011648
 30
0.0
 11
-101.4915076
 21
35.75793588
 31
0.0
  0
LINE
  5
6A
100
AcDbEntity
  8
レイヤー_1
  6
CONTINUOUS
 62
       3
100
AcDbLine
 10
-101.4915076
 20
35.75793588
 30
0.0
 11
-101.4915076
 21
37.02906029
 31
0.0
  0
LINE
  5
6B
100
AcDbEntity
  8
レイヤー_1
  6
CONTINUOUS
 62
       3
100
AcDbLine
 10
-101.4915076
 20
37.02906029
 30
0.0
 11
-101.49303641
 21
37.1238796
 31
0.0
  0
LINE
  5
6C
100
AcDbEntity
  8
レイヤー_1
  6
CONTINUOUS
 62
       3
100
AcDbLine
 10
-101.49303641
 20
37.1238796
 30
0.0
 11
-101.49969318
 21
37.17503161
 31
0.0
  0
LINE
  5
6D
100
AcDbEntity
  8
レイヤー_1
  6
CONTINUOUS
 62
       3
100
AcDbLine
 10
-101.49969318
 20
37.17503161
 30
0.0
 11
-101.51138033
 21
37.22441364
 31
0.0
  0
LINE
  5
6E
100
AcDbEntity
  8
レイヤー_1
  6
CONTINUOUS
 62
       3
100
AcDbLine
 10
-101.51138033
 20
37.22441364
 30
0.0
 11
-101.52782762
 21
37.27175818
 31
0.0
  0
LINE
  5
6F
100
AcDbEntity
  8
レイヤー_1
  6
CONTINUOUS
 62
       3
100
AcDbLine
 10
-101.52782762
 20
37.27175818
 30
0.0
 11
-101.54876477
 21
37.31679766
 31
0.0
  0
LINE
  5
70
100
AcDbEntity
  8
レイヤー_1
  6
CONTINUOUS
 62
       3
100
AcDbLine
 10
-101.54876477
 20
37.31679766
 30
0.0
 11
-101.57392155
 21
37.35926455
 31
0.0
  0
LINE
  5
71
100
AcDbEntity
  8
レイヤー_1
  6
CONTINUOUS
 62
       3
100
AcDbLine
 10
-101.57392155
 20
37.35926455
 30
0.0
 11
-101.60302768
 21
37.39889129
 31
0.0
  0
LINE
  5
72
100
AcDbEntity
  8
レイヤー_1
  6
CONTINUOUS
 62
       3
100
AcDbLine
 10
-101.60302768
 20
37.39889129
 30
0.0
 11
-101.63581292
 21
37.43541034
 31
0.0
  0
LINE
  5
73
100
AcDbEntity
  8
レイヤー_1
  6
CONTINUOUS
 62
       3
100
AcDbLine
 10
-101.63581292
 20
37.43541034
 30
0.0
 11
-101.67200701
 21
37.46855414
 31
0.0
  0
LINE
  5
74
100
AcDbEntity
  8
レイヤー_1
  6
CONTINUOUS
 62
       3
100
AcDbLine
 10
-101.67200701
 20
37.46855414
 30
0.0
 11
-101.7113397
 21
37.4980552
 31
0.0
  0
LINE
  5
75
100
AcDbEntity
  8
レイヤー_1
  6
CONTINUOUS
 62
       3
100
AcDbLine
 10
-101.7113397
 20
37.4980552
 30
0.0
 11
-101.75354072
 21
37.5236459
 31
0.0
  0
LINE
  5
76
100
AcDbEntity
  8
レイヤー_1
  6
CONTINUOUS
 62
       3
100
AcDbLine
 10
-101.75354072
 20
37.5236459
 30
0.0
 11
-101.79833982
 21
37.54505871
 31
0.0
  0
LINE
  5
77
100
AcDbEntity
  8
レイヤー_1
  6
CONTINUOUS
 62
       3
100
AcDbLine
 10
-101.79833982
 20
37.54505871
 30
0.0
 11
-101.84546675
 21
37.56202613
 31
0.0
  0
LINE
  5
78
100
AcDbEntity
  8
レイヤー_1
  6
CONTINUOUS
 62
       3
100
AcDbLine
 10
-101.84546675
 20
37.56202613
 30
0.0
 11
-101.89465124
 21
37.57428056
 31
0.0
  0
LINE
  5
79
100
AcDbEntity
  8
レイヤー_1
  6
CONTINUOUS
 62
       3
100
AcDbLine
 10
-101.89465124
 20
37.57428056
 30
0.0
 11
-101.94562305
 21
37.58155448
 31
0.0
  0
LINE
  5
7A
100
AcDbEntity
  8
レイヤー_1
  6
CONTINUOUS
 62
       3
100
AcDbLine
 10
-101.94562305
 20
37.58155448
 30
0.0
 11
-101.99968674
 21
37.58362324
 31
0.0
  0
LINE
  5
7B
100
AcDbEntity
  8
レイヤー_1
  6
CONTINUOUS
 62
       3
100
AcDbLine
 10
-101.99968674
 20
37.58362324
 30
0.0
 11
-102.62793463
 21
37.58362324
 31
0.0
  0
LINE
  5
7C
100
AcDbEntity
  8
レイヤー_1
  6
CONTINUOUS
 62
       3
100
AcDbLine
 10
-102.62793463
 20
37.58362324
 30
0.0
 11
-104.16052141
 21
37.58362324
 31
0.0
  0
LINE
  5
7D
100
AcDbEntity
  8
レイヤー_1
  6
CONTINUOUS
 62
       3
100
AcDbLine
 10
-104.16052141
 20
37.58362324
 30
0.0
 11
-106.46221884
 21
37.58362324
 31
0.0
  0
LINE
  5
7E
100
AcDbEntity
  8
レイヤー_1
  6
CONTINUOUS
 62
       3
100
AcDbLine
 10
-106.46221884
 20
37.58362324
 30
0.0
 11
-109.39779866
 21
37.58362324
 31
0.0
  0
LINE
  5
7F
100
AcDbEntity
  8
レイヤー_1
  6
CONTINUOUS
 62
       3
100
AcDbLine
 10
-109.39779866
 20
37.58362324
 30
0.0
 11
-112.83203264
 21
37.58362324
 31
0.0
  0
LINE
  5
80
100
AcDbEntity
  8
レイヤー_1
  6
CONTINUOUS
 62
       3
100
AcDbLine
 10
-112.83203264
 20
37.58362324
 30
0.0
 11
-116.62969253
 21
37.58362324
 31
0.0
  0
LINE
  5
81
100
AcDbEntity
  8
レイヤー_1
  6
CONTINUOUS
 62
       3
100
AcDbLine
 10
-116.62969253
 20
37.58362324
 30
0.0
 11
-120.65555008
 21
37.58362324
 31
0.0
  0
LINE
  5
82
100
AcDbEntity
  8
レイヤー_1
  6
CONTINUOUS
 62
       3
100
AcDbLine
 10
-120.65555008
 20
37.58362324
 30
0.0
 11
-124.77437706
 21
37.58362324
 31
0.0
  0
LINE
  5
83
100
AcDbEntity
  8
レイヤー_1
  6
CONTINUOUS
 62
       3
100
AcDbLine
 10
-124.77437706
 20
37.58362324
 30
0.0
 11
-128.8509452
 21
37.58362324
 31
0.0
  0
LINE
  5
84
100
AcDbEntity
  8
レイヤー_1
  6
CONTINUOUS
 62
       3
100
AcDbLine
 10
-128.8509452
 20
37.58362324
 30
0.0
 11
-132.75002627
 21
37.58362324
 31
0.0
  0
LINE
  5
85
100
AcDbEntity
  8
レイヤー_1
  6
CONTINUOUS
 62
       3
100
AcDbLine
 10
-132.75002627
 20
37.58362324
 30
0.0
 11
-136.33639203
 21
37.58362324
 31
0.0
  0
LINE
  5
86
100
AcDbEntity
  8
レイヤー_1
  6
CONTINUOUS
 62
       3
100
AcDbLine
 10
-136.33639203
 20
37.58362324
 30
0.0
 11
-139.47481422
 21
37.58362324
 31
0.0
  0
LINE
  5
87
100
AcDbEntity
  8
レイヤー_1
  6
CONTINUOUS
 62
       3
100
AcDbLine
 10
-139.47481422
 20
37.58362324
 30
0.0
 11
-142.0300646
 21
37.58362324
 31
0.0
  0
LINE
  5
88
100
AcDbEntity
  8
レイヤー_1
  6
CONTINUOUS
 62
       3
100
AcDbLine
 10
-142.0300646
 20
37.58362324
 30
0.0
 11
-143.86691494
 21
37.58362324
 31
0.0
  0
LINE
  5
89
100
AcDbEntity
  8
レイヤー_1
  6
CONTINUOUS
 62
       3
100
AcDbLine
 10
-143.86691494
 20
37.58362324
 30
0.0
 11
-144.85013698
 21
37.58362324
 31
0.0
  0
LINE
  5
8A
100
AcDbEntity
  8
レイヤー_1
  6
CONTINUOUS
 62
       3
100
AcDbLine
 10
-144.85013698
 20
37.58362324
 30
0.0
 11
-145.00571252
 21
37.58294355
 31
0.0
  0
LINE
  5
8B
100
AcDbEntity
  8
レイヤー_1
  6
CONTINUOUS
 62
       3
100
AcDbLine
 10
-145.00571252
 20
37.58294355
 30
0.0
 11
-145.0572849
 21
37.57760629
 31
0.0
  0
LINE
  5
8C
100
AcDbEntity
  8
レイヤー_1
  6
CONTINUOUS
 62
       3
100
AcDbLine
 10
-145.0572849
 20
37.57760629
 30
0.0
 11
-145.10717131
 21
37.5671882
 31
0.0
  0
LINE
  5
8D
100
AcDbEntity
  8
レイヤー_1
  6
CONTINUOUS
 62
       3
100
AcDbLine
 10
-145.10717131
 20
37.5671882
 30
0.0
 11
-145.1551015
 21
37.55195681
 31
0.0
  0
LINE
  5
8E
100
AcDbEntity
  8
レイヤー_1
  6
CONTINUOUS
 62
       3
100
AcDbLine
 10
-145.1551015
 20
37.55195681
 30
0.0
 11
-145.2008052
 21
37.53217967
 31
0.0
  0
LINE
  5
8F
100
AcDbEntity
  8
レイヤー_1
  6
CONTINUOUS
 62
       3
100
AcDbLine
 10
-145.2008052
 20
37.53217967
 30
0.0
 11
-145.24401217
 21
37.50812432
 31
0.0
  0
LINE
  5
90
100
AcDbEntity
  8
レイヤー_1
  6
CONTINUOUS
 62
       3
100
AcDbLine
 10
-145.24401217
 20
37.50812432
 30
0.0
 11
-145.28445216
 21
37.48005831
 31
0.0
  0
LINE
  5
91
100
AcDbEntity
  8
レイヤー_1
  6
CONTINUOUS
 62
       3
100
AcDbLine
 10
-145.28445216
 20
37.48005831
 30
0.0
 11
-145.32185488
 21
37.44824918
 31
0.0
  0
LINE
  5
92
100
AcDbEntity
  8
レイヤー_1
  6
CONTINUOUS
 62
       3
100
AcDbLine
 10
-145.32185488
 20
37.44824918
 30
0.0
 11
-145.35595011
 21
37.41296449
 31
0.0
  0
LINE
  5
93
100
AcDbEntity
  8
レイヤー_1
  6
CONTINUOUS
 62
       3
100
AcDbLine
 10
-145.35595011
 20
37.41296449
 30
0.0
 11
-145.38646758
 21
37.37447178
 31
0.0
  0
LINE
  5
94
100
AcDbEntity
  8
レイヤー_1
  6
CONTINUOUS
 62
       3
100
AcDbLine
 10
-145.38646758
 20
37.37447178
 30
0.0
 11
-145.41313704
 21
37.33303858
 31
0.0
  0
LINE
  5
95
100
AcDbEntity
  8
レイヤー_1
  6
CONTINUOUS
 62
       3
100
AcDbLine
 10
-145.41313704
 20
37.33303858
 30
0.0
 11
-145.43568822
 21
37.28893247
 31
0.0
  0
LINE
  5
96
100
AcDbEntity
  8
レイヤー_1
  6
CONTINUOUS
 62
       3
100
AcDbLine
 10
-145.43568822
 20
37.28893247
 30
0.0
 11
-145.45385088
 21
37.24242098
 31
0.0
  0
LINE
  5
97
100
AcDbEntity
  8
レイヤー_1
  6
CONTINUOUS
 62
       3
100
AcDbLine
 10
-145.45385088
 20
37.24242098
 30
0.0
 11
-145.46735475
 21
37.19377166
 31
0.0
  0
LINE
  5
98
100
AcDbEntity
  8
レイヤー_1
  6
CONTINUOUS
 62
       3
100
AcDbLine
 10
-145.46735475
 20
37.19377166
 30
0.0
 11
-145.4759296
 21
37.14325204
 31
0.0
  0
LINE
  5
99
100
AcDbEntity
  8
レイヤー_1
  6
CONTINUOUS
 62
       3
100
AcDbLine
 10
-145.4759296
 20
37.14325204
 30
0.0
 11
-145.47930513
 21
37.0911297
 31
0.0
  0
LINE
  5
9A
100
AcDbEntity
  8
レイヤー_1
  6
CONTINUOUS
 62
       3
100
AcDbLine
 10
-145.47930513
 20
37.0911297
 30
0.0
 11
-145.47934803
 21
36.42350493
 31
0.0
  0
LINE
  5
9B
100
AcDbEntity
  8
レイヤー_1
  6
CONTINUOUS
 62
       3
100
AcDbLine
 10
-145.47934803
 20
36.42350493
 30
0.0
 11
-145.47934803
 21
34.18379088
 31
0.0
  0
LINE
  5
9C
100
AcDbEntity
  8
レイヤー_1
  6
CONTINUOUS
 62
       3
100
AcDbLine
 10
-145.47934803
 20
34.18379088
 30
0.0
 11
-145.47934803
 21
30.58087661
 31
0.0
  0
LINE
  5
9D
100
AcDbEntity
  8
レイヤー_1
  6
CONTINUOUS
 62
       3
100
AcDbLine
 10
-145.47934803
 20
30.58087661
 30
0.0
 11
-145.47934803
 21
25.84435374
 31
0.0
  0
LINE
  5
9E
100
AcDbEntity
  8
レイヤー_1
  6
CONTINUOUS
 62
       3
100
AcDbLine
 10
-145.47934803
 20
25.84435374
 30
0.0
 11
-145.47934803
 21
20.20381388
 31
0.0
  0
LINE
  5
9F
100
AcDbEntity
  8
レイヤー_1
  6
CONTINUOUS
 62
       3
100
AcDbLine
 10
-145.47934803
 20
20.20381388
 30
0.0
 11
-145.47934803
 21
13.88884866
 31
0.0
  0
LINE
  5
A0
100
AcDbEntity
  8
レイヤー_1
  6
CONTINUOUS
 62
       3
100
AcDbLine
 10
-145.47934803
 20
13.88884866
 30
0.0
 11
-145.47934803
 21
7.12904967
 31
0.0
  0
LINE
  5
A1
100
AcDbEntity
  8
レイヤー_1
  6
CONTINUOUS
 62
       3
100
AcDbLine
 10
-145.47934803
 20
7.12904967
 30
0.0
 11
-145.47934803
 21
0.15400855
 31
0.0
  0
LINE
  5
A2
100
AcDbEntity
  8
レイヤー_1
  6
CONTINUOUS
 62
       3
100
AcDbLine
 10
-145.47934803
 20
0.15400855
 30
0.0
 11
-145.47934803
 21
-6.8066831
 31
0.0
  0
LINE
  5
A3
100
AcDbEntity
  8
レイヤー_1
  6
CONTINUOUS
 62
       3
100
AcDbLine
 10
-145.47934803
 20
-6.8066831
 30
0.0
 11
-145.47934803
 21
-13.52343365
 31
0.0
  0
LINE
  5
A4
100
AcDbEntity
  8
レイヤー_1
  6
CONTINUOUS
 62
       3
100
AcDbLine
 10
-145.47934803
 20
-13.52343365
 30
0.0
 11
-145.47934803
 21
-19.7666515
 31
0.0
  0
LINE
  5
A5
100
AcDbEntity
  8
レイヤー_1
  6
CONTINUOUS
 62
       3
100
AcDbLine
 10
-145.47934803
 20
-19.7666515
 30
0.0
 11
-145.47934803
 21
-25.30674503
 31
0.0
  0
LINE
  5
A6
100
AcDbEntity
  8
レイヤー_1
  6
CONTINUOUS
 62
       3
100
AcDbLine
 10
-145.47934803
 20
-25.30674503
 30
0.0
 11
-145.47934803
 21
-29.9141226
 31
0.0
  0
LINE
  5
A7
100
AcDbEntity
  8
レイヤー_1
  6
CONTINUOUS
 62
       3
100
AcDbLine
 10
-145.47934803
 20
-29.9141226
 30
0.0
 11
-145.47934803
 21
-33.35919263
 31
0.0
  0
LINE
  5
A8
100
AcDbEntity
  8
レイヤー_1
  6
CONTINUOUS
 62
       3
100
AcDbLine
 10
-145.47934803
 20
-33.35919263
 30
0.0
 11
-145.47934803
 21
-35.41236349
 31
0.0
  0
LINE
  5
A9
100
AcDbEntity
  8
レイヤー_1
  6
CONTINUOUS
 62
       3
100
AcDbLine
 10
-145.47934803
 20
-35.41236349
 30
0.0
 11
-145.47917676
 21
-35.91390256
 31
0.0
  0
LINE
  5
AA
100
AcDbEntity
  8
レイヤー_1
  6
CONTINUOUS
 62
       3
100
AcDbLine
 10
-145.47917676
 20
-35.91390256
 30
0.0
 11
-145.47513653
 21
-35.9658392
 31
0.0
  0
LINE
  5
AB
100
AcDbEntity
  8
レイヤー_1
  6
CONTINUOUS
 62
       3
100
AcDbLine
 10
-145.47513653
 20
-35.9658392
 30
0.0
 11
-145.46593078
 21
-36.01613966
 31
0.0
  0
LINE
  5
AC
100
AcDbEntity
  8
レイヤー_1
  6
CONTINUOUS
 62
       3
100
AcDbLine
 10
-145.46593078
 20
-36.01613966
 30
0.0
 11
-145.45182978
 21
-36.06453638
 31
0.0
  0
LINE
  5
AD
100
AcDbEntity
  8
レイヤー_1
  6
CONTINUOUS
 62
       3
100
AcDbLine
 10
-145.45182978
 20
-36.06453638
 30
0.0
 11
-145.43310378
 21
-36.11076184
 31
0.0
  0
LINE
  5
AE
100
AcDbEntity
  8
レイヤー_1
  6
CONTINUOUS
 62
       3
100
AcDbLine
 10
-145.43310378
 20
-36.11076184
 30
0.0
 11
-145.41002303
 21
-36.15454847
 31
0.0
  0
LINE
  5
AF
100
AcDbEntity
  8
レイヤー_1
  6
CONTINUOUS
 62
       3
100
AcDbLine
 10
-145.41002303
 20
-36.15454847
 30
0.0
 11
-145.3828578
 21
-36.19562873
 31
0.0
  0
LINE
  5
B0
100
AcDbEntity
  8
レイヤー_1
  6
CONTINUOUS
 62
       3
100
AcDbLine
 10
-145.3828578
 20
-36.19562873
 30
0.0
 11
-145.35187833
 21
-36.23373507
 31
0.0
  0
LINE
  5
B1
100
AcDbEntity
  8
レイヤー_1
  6
CONTINUOUS
 62
       3
100
AcDbLine
 10
-145.35187833
 20
-36.23373507
 30
0.0
 11
-145.31735488
 21
-36.26859993
 31
0.0
  0
LINE
  5
B2
100
AcDbEntity
  8
レイヤー_1
  6
CONTINUOUS
 62
       3
100
AcDbLine
 10
-145.31735488
 20
-36.26859993
 30
0.0
 11
-145.27955771
 21
-36.2999558
 31
0.0
  0
LINE
  5
B3
100
AcDbEntity
  8
レイヤー_1
  6
CONTINUOUS
 62
       3
100
AcDbLine
 10
-145.27955771
 20
-36.2999558
 30
0.0
 11
-145.23875708
 21
-36.32753512
 31
0.0
  0
LINE
  5
B4
100
AcDbEntity
  8
レイヤー_1
  6
CONTINUOUS
 62
       3
100
AcDbLine
 10
-145.23875708
 20
-36.32753512
 30
0.0
 11
-145.19522323
 21
-36.35107032
 31
0.0
  0
LINE
  5
B5
100
AcDbEntity
  8
レイヤー_1
  6
CONTINUOUS
 62
       3
100
AcDbLine
 10
-145.19522323
 20
-36.35107032
 30
0.0
 11
-145.14922644
 21
-36.37029388
 31
0.0
  0
LINE
  5
B6
100
AcDbEntity
  8
レイヤー_1
  6
CONTINUOUS
 62
       3
100
AcDbLine
 10
-145.14922644
 20
-36.37029388
 30
0.0
 11
-145.10103694
 21
-36.38493825
 31
0.0
  0
LINE
  5
B7
100
AcDbEntity
  8
レイヤー_1
  6
CONTINUOUS
 62
       3
100
AcDbLine
 10
-145.10103694
 20
-36.38493825
 30
0.0
 11
-145.05092501
 21
-36.39473587
 31
0.0
  0
LINE
  5
B8
100
AcDbEntity
  8
レイヤー_1
  6
CONTINUOUS
 62
       3
100
AcDbLine
 10
-145.05092501
 20
-36.39473587
 30
0.0
 11
-144.99916089
 21
-36.3994192
 31
0.0
  0
LINE
  5
B9
100
AcDbEntity
  8
レイヤー_1
  6
CONTINUOUS
 62
       3
100
AcDbLine
 10
-144.99916089
 20
-36.3994192
 30
0.0
 11
-144.77853907
 21
-36.3998023
 31
0.0
  0
LINE
  5
BA
100
AcDbEntity
  8
レイヤー_1
  6
CONTINUOUS
 62
       3
100
AcDbLine
 10
-144.77853907
 20
-36.3998023
 30
0.0
 11
-143.68121822
 21
-36.3998023
 31
0.0
  0
LINE
  5
BB
100
AcDbEntity
  8
レイヤー_1
  6
CONTINUOUS
 62
       3
100
AcDbLine
 10
-143.68121822
 20
-36.3998023
 30
0.0
 11
-141.74717257
 21
-36.3998023
 31
0.0
  0
LINE
  5
BC
100
AcDbEntity
  8
レイヤー_1
  6
CONTINUOUS
 62
       3
100
AcDbLine
 10
-141.74717257
 20
-36.3998023
 30
0.0
 11
-139.11163042
 21
-36.3998023
 31
0.0
  0
LINE
  5
BD
100
AcDbEntity
  8
レイヤー_1
  6
CONTINUOUS
 62
       3
100
AcDbLine
 10
-139.11163042
 20
-36.3998023
 30
0.0
 11
-135.90981999
 21
-36.3998023
 31
0.0
  0
LINE
  5
BE
100
AcDbEntity
  8
レイヤー_1
  6
CONTINUOUS
 62
       3
100
AcDbLine
 10
-135.90981999
 20
-36.3998023
 30
0.0
 11
-132.27696952
 21
-36.3998023
 31
0.0
  0
LINE
  5
BF
100
AcDbEntity
  8
レイヤー_1
  6
CONTINUOUS
 62
       3
100
AcDbLine
 10
-132.27696952
 20
-36.3998023
 30
0.0
 11
-128.34830728
 21
-36.3998023
 31
0.0
  0
LINE
  5
C0
100
AcDbEntity
  8
レイヤー_1
  6
CONTINUOUS
 62
       3
100
AcDbLine
 10
-128.34830728
 20
-36.3998023
 30
0.0
 11
-124.25906148
 21
-36.3998023
 31
0.0
  0
LINE
  5
C1
100
AcDbEntity
  8
レイヤー_1
  6
CONTINUOUS
 62
       3
100
AcDbLine
 10
-124.25906148
 20
-36.3998023
 30
0.0
 11
-120.14446039
 21
-36.3998023
 31
0.0
  0
LINE
  5
C2
100
AcDbEntity
  8
レイヤー_1
  6
CONTINUOUS
 62
       3
100
AcDbLine
 10
-120.14446039
 20
-36.3998023
 30
0.0
 11
-116.13973225
 21
-36.3998023
 31
0.0
  0
LINE
  5
C3
100
AcDbEntity
  8
レイヤー_1
  6
CONTINUOUS
 62
       3
100
AcDbLine
 10
-116.13973225
 20
-36.3998023
 30
0.0
 11
-112.3801053
 21
-36.3998023
 31
0.0
  0
LINE
  5
C4
100
AcDbEntity
  8
レイヤー_1
  6
CONTINUOUS
 62
       3
100
AcDbLine
 10
-112.3801053
 20
-36.3998023
 30
0.0
 11
-109.0008078
 21
-36.3998023
 31
0.0
  0
LINE
  5
C5
100
AcDbEntity
  8
レイヤー_1
  6
CONTINUOUS
 62
       3
100
AcDbLine
 10
-109.0008078
 20
-36.3998023
 30
0.0
 11
-106.13706798
 21
-36.3998023
 31
0.0
  0
LINE
  5
C6
100
AcDbEntity
  8
レイヤー_1
  6
CONTINUOUS
 62
       3
100
AcDbLine
 10
-106.13706798
 20
-36.3998023
 30
0.0
 11
-103.92411409
 21
-36.3998023
 31
0.0
  0
LINE
  5
C7
100
AcDbEntity
  8
レイヤー_1
  6
CONTINUOUS
 62
       3
100
AcDbLine
 10
-103.92411409
 20
-36.3998023
 30
0.0
 11
-102.49717438
 21
-36.3998023
 31
0.0
  0
LINE
  5
C8
100
AcDbEntity
  8
レイヤー_1
  6
CONTINUOUS
 62
       3
100
AcDbLine
 10
-102.49717438
 20
-36.3998023
 30
0.0
 11
-101.99147708
 21
-36.3998023
 31
0.0
  0
LINE
  5
C9
100
AcDbEntity
  8
レイヤー_1
  6
CONTINUOUS
 62
       3
100
AcDbLine
 10
-119.98305762
 20
40.59722052
 30
0.0
 11
-119.98305762
 21
42.5966678
 31
0.0
  0
LINE
  5
CA
100
AcDbEntity
  8
レイヤー_1
  6
CONTINUOUS
 62
       3
100
AcDbLine
 10
-119.98305762
 20
42.5966678
 30
0.0
 11
-126.98133846
 21
42.5966678
 31
0.0
  0
LINE
  5
CB
100
AcDbEntity
  8
レイヤー_1
  6
CONTINUOUS
 62
       3
100
AcDbLine
 10
-126.98133846
 20
42.5966678
 30
0.0
 11
-126.98133846
 21
40.59722052
 31
0.0
  0
LINE
  5
CC
100
AcDbEntity
  8
レイヤー_1
  6
CONTINUOUS
 62
       3
100
AcDbLine
 10
-121.98164364
 20
40.58946905
 30
0.0
 11
-121.98164364
 21
42.58977762
 31
0.0
  0
LINE
  5
CD
100
AcDbEntity
  8
レイヤー_1
  6
CONTINUOUS
 62
       3
100
AcDbLine
 10
-124.9810299
 20
42.58977762
 30
0.0
 11
-124.9810299
 21
40.58946905
 31
0.0
  0
LINE
  5
CE
100
AcDbEntity
  8
レイヤー_1
  6
CONTINUOUS
 62
       3
100
AcDbLine
 10
-110.68646745
 20
-39.4030643
 30
0.0
 11
-110.98403757
 21
-39.70106506
 31
0.0
  0
LINE
  5
CF
100
AcDbEntity
  8
レイヤー_1
  6
CONTINUOUS
 62
       3
100
AcDbLine
 10
-110.98403757
 20
-39.70106506
 30
0.0
 11
-117.96164784
 21
-39.70106506
 31
0.0
  0
LINE
  5
D0
100
AcDbEntity
  8
レイヤー_1
  6
CONTINUOUS
 62
       3
100
AcDbLine
 10
-117.96164784
 20
-39.70106506
 30
0.0
 11
-117.96164784
 21
-40.89177618
 31
0.0
  0
LINE
  5
D1
100
AcDbEntity
  8
レイヤー_1
  6
CONTINUOUS
 62
       3
100
AcDbLine
 10
-117.96164784
 20
-40.89177618
 30
0.0
 11
-120.9692162
 21
-42.38996208
 31
0.0
  0
LINE
  5
D2
100
AcDbEntity
  8
レイヤー_1
  6
CONTINUOUS
 62
       3
100
AcDbLine
 10
-120.9692162
 20
-42.38996208
 30
0.0
 11
-125.9732174
 21
-42.38996208
 31
0.0
  0
LINE
  5
D3
100
AcDbEntity
  8
レイヤー_1
  6
CONTINUOUS
 62
       3
100
AcDbLine
 10
-125.9732174
 20
-42.38996208
 30
0.0
 11
-128.97131174
 21
-40.89091491
 31
0.0
  0
LINE
  5
D4
100
AcDbEntity
  8
レイヤー_1
  6
CONTINUOUS
 62
       3
100
AcDbLine
 10
-128.97131174
 20
-40.89091491
 30
0.0
 11
-128.97131174
 21
-39.70106506
 31
0.0
  0
LINE
  5
D5
100
AcDbEntity
  8
レイヤー_1
  6
CONTINUOUS
 62
       3
100
AcDbLine
 10
-128.97131174
 20
-39.70106506
 30
0.0
 11
-135.97992787
 21
-39.70106506
 31
0.0
  0
LINE
  5
D6
100
AcDbEntity
  8
レイヤー_1
  6
CONTINUOUS
 62
       3
100
AcDbLine
 10
-135.97992787
 20
-39.70106506
 30
0.0
 11
-136.26673207
 21
-39.41426085
 31
0.0
  0
LINE
  5
D7
100
AcDbEntity
  8
レイヤー_1
  6
CONTINUOUS
 62
       3
100
AcDbLine
 10
-121.98164364
 20
-39.39057582
 30
0.0
 11
-121.98164364
 21
-41.39002312
 31
0.0
  0
LINE
  5
D8
100
AcDbEntity
  8
レイヤー_1
  6
CONTINUOUS
 62
       3
100
AcDbLine
 10
-124.9810299
 20
-41.39002312
 30
0.0
 11
-124.9810299
 21
-39.39057582
 31
0.0
  0
LINE
  5
D9
100
AcDbEntity
  8
レイヤー_1
  6
CONTINUOUS
 62
       3
100
AcDbLine
 10
-119.98305762
 20
-39.39875792
 30
0.0
 11
-119.98305762
 21
-41.39777458
 31
0.0
  0
LINE
  5
DA
100
AcDbEntity
  8
レイヤー_1
  6
CONTINUOUS
 62
       3
100
AcDbLine
 10
-119.98305762
 20
-41.39777458
 30
0.0
 11
-126.98133846
 21
-41.39777458
 31
0.0
  0
LINE
  5
DB
100
AcDbEntity
  8
レイヤー_1
  6
CONTINUOUS
 62
       3
100
AcDbLine
 10
-126.98133846
 20
-41.39777458
 30
0.0
 11
-126.98133846
 21
-39.39875792
 31
0.0
  0
LINE
  5
DC
100
AcDbEntity
  8
レイヤー_1
  6
CONTINUOUS
 62
       3
100
AcDbLine
 10
34.8524526
 20
-39.40442911
 30
0.0
 11
34.8524526
 21
40.59557089
 31
0.0
  0
LINE
  5
DD
100
AcDbEntity
  8
レイヤー_1
  6
CONTINUOUS
 62
       3
100
AcDbLine
 10
-65.10957673
 20
40.58344014
 30
0.0
 11
-65.10957673
 21
-39.39229837
 31
0.0
  0
LINE
  5
DE
100
AcDbEntity
  8
レイヤー_1
  6
CONTINUOUS
 62
       3
100
AcDbLine
 10
36.37173971
 20
4.74023606
 30
0.0
 11
40.37752448
 21
4.74023606
 31
0.0
  0
LINE
  5
DF
100
AcDbEntity
  8
レイヤー_1
  6
CONTINUOUS
 62
       3
100
AcDbLine
 10
40.37752448
 20
4.74023606
 30
0.0
 11
40.37752448
 21
-3.55383132
 31
0.0
  0
LINE
  5
E0
100
AcDbEntity
  8
レイヤー_1
  6
CONTINUOUS
 62
       3
100
AcDbLine
 10
40.37752448
 20
-3.55383132
 30
0.0
 11
36.37173971
 21
-3.55383132
 31
0.0
  0
LINE
  5
E1
100
AcDbEntity
  8
レイヤー_1
  6
CONTINUOUS
 62
       3
100
AcDbLine
 10
36.37173971
 20
-3.55383132
 30
0.0
 11
36.37173971
 21
-37.4186893
 31
0.0
  0
LINE
  5
E2
100
AcDbEntity
  8
レイヤー_1
  6
CONTINUOUS
 62
       3
100
AcDbLine
 10
36.37173971
 20
-37.4186893
 30
0.0
 11
37.87035624
 21
-39.39229837
 31
0.0
  0
LINE
  5
E3
100
AcDbEntity
  8
レイヤー_1
  6
CONTINUOUS
 62
       3
100
AcDbLine
 10
37.87035624
 20
-39.39229837
 30
0.0
 11
54.86587354
 21
-39.39229837
 31
0.0
  0
LINE
  5
E4
100
AcDbEntity
  8
レイヤー_1
  6
CONTINUOUS
 62
       3
100
AcDbLine
 10
54.8524526
 20
-16.88505892
 30
0.0
 11
50.8755917
 21
-16.88505892
 31
0.0
  0
LINE
  5
E5
100
AcDbEntity
  8
レイヤー_1
  6
CONTINUOUS
 62
       3
100
AcDbLine
 10
50.8755917
 20
-16.88505892
 30
0.0
 11
50.8755917
 21
-8.4131385
 31
0.0
  0
LINE
  5
E6
100
AcDbEntity
  8
レイヤー_1
  6
CONTINUOUS
 62
       3
100
AcDbLine
 10
50.8755917
 20
-8.4131385
 30
0.0
 11
54.86587354
 21
-8.4131385
 31
0.0
  0
LINE
  5
E7
100
AcDbEntity
  8
レイヤー_1
  6
CONTINUOUS
 62
       3
100
AcDbLine
 10
54.86587354
 20
-8.4131385
 30
0.0
 11
54.86587354
 21
-4.41381328
 31
0.0
  0
LINE
  5
E8
100
AcDbEntity
  8
レイヤー_1
  6
CONTINUOUS
 62
       3
100
AcDbLine
 10
54.86587354
 20
-4.41381328
 30
0.0
 11
50.86956278
 21
-4.41381328
 31
0.0
  0
LINE
  5
E9
100
AcDbEntity
  8
レイヤー_1
  6
CONTINUOUS
 62
       3
100
AcDbLine
 10
50.86956278
 20
-4.41381328
 30
0.0
 11
50.86956278
 21
5.58428445
 31
0.0
  0
LINE
  5
EA
100
AcDbEntity
  8
レイヤー_1
  6
CONTINUOUS
 62
       3
100
AcDbLine
 10
50.86956278
 20
5.58428445
 30
0.0
 11
54.86587354
 21
5.58428445
 31
0.0
  0
LINE
  5
EB
100
AcDbEntity
  8
レイヤー_1
  6
CONTINUOUS
 62
       3
100
AcDbLine
 10
54.86587354
 20
5.58428445
 30
0.0
 11
54.86587354
 21
9.59006923
 31
0.0
  0
LINE
  5
EC
100
AcDbEntity
  8
レイヤー_1
  6
CONTINUOUS
 62
       3
100
AcDbLine
 10
54.86587354
 20
9.59006923
 30
0.0
 11
50.8755917
 21
9.59006923
 31
0.0
  0
LINE
  5
ED
100
AcDbEntity
  8
レイヤー_1
  6
CONTINUOUS
 62
       3
100
AcDbLine
 10
50.8755917
 20
9.59006923
 30
0.0
 11
50.8755917
 21
18.09816316
 31
0.0
  0
LINE
  5
EE
100
AcDbEntity
  8
レイヤー_1
  6
CONTINUOUS
 62
       3
100
AcDbLine
 10
50.8755917
 20
18.09816316
 30
0.0
 11
54.8524526
 21
18.09816316
 31
0.0
  0
LINE
  5
EF
100
AcDbEntity
  8
レイヤー_1
  6
CONTINUOUS
 62
       3
100
AcDbLine
 10
54.8524526
 20
40.58344014
 30
0.0
 11
37.87035624
 21
40.58344014
 31
0.0
  0
LINE
  5
F0
100
AcDbEntity
  8
レイヤー_1
  6
CONTINUOUS
 62
       3
100
AcDbLine
 10
37.87035624
 20
40.58344014
 30
0.0
 11
36.36054315
 21
38.56547545
 31
0.0
  0
LINE
  5
F1
100
AcDbEntity
  8
レイヤー_1
  6
CONTINUOUS
 62
       3
100
AcDbLine
 10
36.36054315
 20
38.56547545
 30
0.0
 11
36.37173971
 21
4.74023606
 31
0.0
  0
LINE
  5
F2
100
AcDbEntity
  8
レイヤー_1
  6
CONTINUOUS
 62
       3
100
AcDbLine
 10
36.37432353
 20
-17.85786777
 30
0.0
 11
34.87484572
 21
-17.85786777
 31
0.0
  0
LINE
  5
F3
100
AcDbEntity
  8
レイヤー_1
  6
CONTINUOUS
 62
       3
100
AcDbLine
 10
34.87484572
 20
-22.38601515
 30
0.0
 11
36.37432353
 21
-22.38601515
 31
0.0
  0
LINE
  5
F4
100
AcDbEntity
  8
レイヤー_1
  6
CONTINUOUS
 62
       3
100
AcDbLine
 10
36.37432353
 20
23.57672627
 30
0.0
 11
34.87484572
 21
23.57672627
 31
0.0
  0
LINE
  5
F5
100
AcDbEntity
  8
レイヤー_1
  6
CONTINUOUS
 62
       3
100
AcDbLine
 10
34.87484572
 20
19.04900954
 30
0.0
 11
36.37432353
 21
19.04900954
 31
0.0
  0
LINE
  5
F6
100
AcDbEntity
  8
レイヤー_1
  6
CONTINUOUS
 62
       3
100
AcDbLine
 10
36.37173971
 20
4.74023606
 30
0.0
 11
36.37173971
 21
-3.55383132
 31
0.0
  0
LINE
  5
F7
100
AcDbEntity
  8
レイヤー_1
  6
CONTINUOUS
 62
       3
100
AcDbLine
 10
34.85848151
 20
40.89163095
 30
0.0
 11
34.85848151
 21
41.04135401
 31
0.0
  0
LINE
  5
F8
100
AcDbEntity
  8
レイヤー_1
  6
CONTINUOUS
 62
       3
100
AcDbLine
 10
34.85848151
 20
41.04135401
 30
0.0
 11
34.85848151
 21
41.20880277
 31
0.0
  0
LINE
  5
F9
100
AcDbEntity
  8
レイヤー_1
  6
CONTINUOUS
 62
       3
100
AcDbLine
 10
34.85848151
 20
41.20880277
 30
0.0
 11
34.85848151
 21
41.38830502
 31
0.0
  0
LINE
  5
FA
100
AcDbEntity
  8
レイヤー_1
  6
CONTINUOUS
 62
       3
100
AcDbLine
 10
34.85848151
 20
41.38830502
 30
0.0
 11
34.85848151
 21
41.5741885
 31
0.0
  0
LINE
  5
FB
100
AcDbEntity
  8
レイヤー_1
  6
CONTINUOUS
 62
       3
100
AcDbLine
 10
34.85848151
 20
41.5741885
 30
0.0
 11
34.85848151
 21
41.76078103
 31
0.0
  0
LINE
  5
FC
100
AcDbEntity
  8
レイヤー_1
  6
CONTINUOUS
 62
       3
100
AcDbLine
 10
34.85848151
 20
41.76078103
 30
0.0
 11
34.85848151
 21
41.94241034
 31
0.0
  0
LINE
  5
FD
100
AcDbEntity
  8
レイヤー_1
  6
CONTINUOUS
 62
       3
100
AcDbLine
 10
34.85848151
 20
41.94241034
 30
0.0
 11
34.85848151
 21
42.11340424
 31
0.0
  0
LINE
  5
FE
100
AcDbEntity
  8
レイヤー_1
  6
CONTINUOUS
 62
       3
100
AcDbLine
 10
34.85848151
 20
42.11340424
 30
0.0
 11
34.85848151
 21
42.26809051
 31
0.0
  0
LINE
  5
FF
100
AcDbEntity
  8
レイヤー_1
  6
CONTINUOUS
 62
       3
100
AcDbLine
 10
34.85848151
 20
42.26809051
 30
0.0
 11
34.85848151
 21
42.40079689
 31
0.0
  0
LINE
  5
100
100
AcDbEntity
  8
レイヤー_1
  6
CONTINUOUS
 62
       3
100
AcDbLine
 10
34.85848151
 20
42.40079689
 30
0.0
 11
34.85848151
 21
42.50585121
 31
0.0
  0
LINE
  5
101
100
AcDbEntity
  8
レイヤー_1
  6
CONTINUOUS
 62
       3
100
AcDbLine
 10
34.85848151
 20
42.50585121
 30
0.0
 11
34.85848151
 21
42.57758121
 31
0.0
  0
LINE
  5
102
100
AcDbEntity
  8
レイヤー_1
  6
CONTINUOUS
 62
       3
100
AcDbLine
 10
34.85848151
 20
42.57758121
 30
0.0
 11
34.85848151
 21
42.61031465
 31
0.0
  0
LINE
  5
103
100
AcDbEntity
  8
レイヤー_1
  6
CONTINUOUS
 62
       3
100
AcDbLine
 10
34.85848151
 20
42.61031465
 30
0.0
 11
34.82134705
 21
42.6117401
 31
0.0
  0
LINE
  5
104
100
AcDbEntity
  8
レイヤー_1
  6
CONTINUOUS
 62
       3
100
AcDbLine
 10
34.82134705
 20
42.6117401
 30
0.0
 11
34.66486273
 21
42.6117401
 31
0.0
  0
LINE
  5
105
100
AcDbEntity
  8
レイヤー_1
  6
CONTINUOUS
 62
       3
100
AcDbLine
 10
34.66486273
 20
42.6117401
 30
0.0
 11
34.40149403
 21
42.6117401
 31
0.0
  0
LINE
  5
106
100
AcDbEntity
  8
レイヤー_1
  6
CONTINUOUS
 62
       3
100
AcDbLine
 10
34.40149403
 20
42.6117401
 30
0.0
 11
34.04800712
 21
42.6117401
 31
0.0
  0
LINE
  5
107
100
AcDbEntity
  8
レイヤー_1
  6
CONTINUOUS
 62
       3
100
AcDbLine
 10
34.04800712
 20
42.6117401
 30
0.0
 11
33.62116819
 21
42.6117401
 31
0.0
  0
LINE
  5
108
100
AcDbEntity
  8
レイヤー_1
  6
CONTINUOUS
 62
       3
100
AcDbLine
 10
33.62116819
 20
42.6117401
 30
0.0
 11
33.13774341
 21
42.6117401
 31
0.0
  0
LINE
  5
109
100
AcDbEntity
  8
レイヤー_1
  6
CONTINUOUS
 62
       3
100
AcDbLine
 10
33.13774341
 20
42.6117401
 30
0.0
 11
32.61449896
 21
42.6117401
 31
0.0
  0
LINE
  5
10A
100
AcDbEntity
  8
レイヤー_1
  6
CONTINUOUS
 62
       3
100
AcDbLine
 10
32.61449896
 20
42.6117401
 30
0.0
 11
32.06820101
 21
42.6117401
 31
0.0
  0
LINE
  5
10B
100
AcDbEntity
  8
レイヤー_1
  6
CONTINUOUS
 62
       3
100
AcDbLine
 10
32.06820101
 20
42.6117401
 30
0.0
 11
31.51561575
 21
42.6117401
 31
0.0
  0
LINE
  5
10C
100
AcDbEntity
  8
レイヤー_1
  6
CONTINUOUS
 62
       3
100
AcDbLine
 10
31.51561575
 20
42.6117401
 30
0.0
 11
30.97350935
 21
42.6117401
 31
0.0
  0
LINE
  5
10D
100
AcDbEntity
  8
レイヤー_1
  6
CONTINUOUS
 62
       3
100
AcDbLine
 10
30.97350935
 20
42.6117401
 30
0.0
 11
30.45864798
 21
42.6117401
 31
0.0
  0
LINE
  5
10E
100
AcDbEntity
  8
レイヤー_1
  6
CONTINUOUS
 62
       3
100
AcDbLine
 10
30.45864798
 20
42.6117401
 30
0.0
 11
29.98779784
 21
42.6117401
 31
0.0
  0
LINE
  5
10F
100
AcDbEntity
  8
レイヤー_1
  6
CONTINUOUS
 62
       3
100
AcDbLine
 10
29.98779784
 20
42.6117401
 30
0.0
 11
29.57772508
 21
42.6117401
 31
0.0
  0
LINE
  5
110
100
AcDbEntity
  8
レイヤー_1
  6
CONTINUOUS
 62
       3
100
AcDbLine
 10
29.57772508
 20
42.6117401
 30
0.0
 11
29.2451959
 21
42.6117401
 31
0.0
  0
LINE
  5
111
100
AcDbEntity
  8
レイヤー_1
  6
CONTINUOUS
 62
       3
100
AcDbLine
 10
29.2451959
 20
42.6117401
 30
0.0
 11
29.00697646
 21
42.6117401
 31
0.0
  0
LINE
  5
112
100
AcDbEntity
  8
レイヤー_1
  6
CONTINUOUS
 62
       3
100
AcDbLine
 10
29.00697646
 20
42.6117401
 30
0.0
 11
28.87983295
 21
42.6117401
 31
0.0
  0
LINE
  5
113
100
AcDbEntity
  8
レイヤー_1
  6
CONTINUOUS
 62
       3
100
AcDbLine
 10
28.87983295
 20
42.6117401
 30
0.0
 11
28.8631541
 21
42.60891876
 31
0.0
  0
LINE
  5
114
100
AcDbEntity
  8
レイヤー_1
  6
CONTINUOUS
 62
       3
100
AcDbLine
 10
28.8631541
 20
42.60891876
 30
0.0
 11
28.8631541
 21
42.58741158
 31
0.0
  0
LINE
  5
115
100
AcDbEntity
  8
レイヤー_1
  6
CONTINUOUS
 62
       3
100
AcDbLine
 10
28.8631541
 20
42.58741158
 30
0.0
 11
28.8631541
 21
42.54711516
 31
0.0
  0
LINE
  5
116
100
AcDbEntity
  8
レイヤー_1
  6
CONTINUOUS
 62
       3
100
AcDbLine
 10
28.8631541
 20
42.54711516
 30
0.0
 11
28.8631541
 21
42.4908656
 31
0.0
  0
LINE
  5
117
100
AcDbEntity
  8
レイヤー_1
  6
CONTINUOUS
 62
       3
100
AcDbLine
 10
28.8631541
 20
42.4908656
 30
0.0
 11
28.8631541
 21
42.42149905
 31
0.0
  0
LINE
  5
118
100
AcDbEntity
  8
レイヤー_1
  6
CONTINUOUS
 62
       3
100
AcDbLine
 10
28.8631541
 20
42.42149905
 30
0.0
 11
28.8631541
 21
42.34185156
 31
0.0
  0
LINE
  5
119
100
AcDbEntity
  8
レイヤー_1
  6
CONTINUOUS
 62
       3
100
AcDbLine
 10
28.8631541
 20
42.34185156
 30
0.0
 11
28.8631541
 21
42.25475929
 31
0.0
  0
LINE
  5
11A
100
AcDbEntity
  8
レイヤー_1
  6
CONTINUOUS
 62
       3
100
AcDbLine
 10
28.8631541
 20
42.25475929
 30
0.0
 11
28.8631541
 21
42.16305836
 31
0.0
  0
LINE
  5
11B
100
AcDbEntity
  8
レイヤー_1
  6
CONTINUOUS
 62
       3
100
AcDbLine
 10
28.8631541
 20
42.16305836
 30
0.0
 11
28.8631541
 21
42.06958484
 31
0.0
  0
LINE
  5
11C
100
AcDbEntity
  8
レイヤー_1
  6
CONTINUOUS
 62
       3
100
AcDbLine
 10
28.8631541
 20
42.06958484
 30
0.0
 11
28.8631541
 21
41.97717488
 31
0.0
  0
LINE
  5
11D
100
AcDbEntity
  8
レイヤー_1
  6
CONTINUOUS
 62
       3
100
AcDbLine
 10
28.8631541
 20
41.97717488
 30
0.0
 11
28.8631541
 21
41.88866454
 31
0.0
  0
LINE
  5
11E
100
AcDbEntity
  8
レイヤー_1
  6
CONTINUOUS
 62
       3
100
AcDbLine
 10
28.8631541
 20
41.88866454
 30
0.0
 11
28.8631541
 21
41.80689
 31
0.0
  0
LINE
  5
11F
100
AcDbEntity
  8
レイヤー_1
  6
CONTINUOUS
 62
       3
100
AcDbLine
 10
28.8631541
 20
41.80689
 30
0.0
 11
28.8631541
 21
41.73468732
 31
0.0
  0
LINE
  5
120
100
AcDbEntity
  8
レイヤー_1
  6
CONTINUOUS
 62
       3
100
AcDbLine
 10
28.8631541
 20
41.73468732
 30
0.0
 11
28.8631541
 21
41.67489262
 31
0.0
  0
LINE
  5
121
100
AcDbEntity
  8
レイヤー_1
  6
CONTINUOUS
 62
       3
100
AcDbLine
 10
28.8631541
 20
41.67489262
 30
0.0
 11
28.8631541
 21
41.63034203
 31
0.0
  0
LINE
  5
122
100
AcDbEntity
  8
レイヤー_1
  6
CONTINUOUS
 62
       3
100
AcDbLine
 10
28.8631541
 20
41.63034203
 30
0.0
 11
28.8631541
 21
41.60387167
 31
0.0
  0
LINE
  5
123
100
AcDbEntity
  8
レイヤー_1
  6
CONTINUOUS
 62
       3
100
AcDbLine
 10
28.8631541
 20
41.60387167
 30
0.0
 11
28.89419176
 21
41.59687739
 31
0.0
  0
LINE
  5
124
100
AcDbEntity
  8
レイヤー_1
  6
CONTINUOUS
 62
       3
100
AcDbLine
 10
28.89419176
 20
41.59687739
 30
0.0
 11
29.00864313
 21
41.58051065
 31
0.0
  0
LINE
  5
125
100
AcDbEntity
  8
レイヤー_1
  6
CONTINUOUS
 62
       3
100
AcDbLine
 10
29.00864313
 20
41.58051065
 30
0.0
 11
29.10757567
 21
41.54464567
 31
0.0
  0
LINE
  5
126
100
AcDbEntity
  8
レイヤー_1
  6
CONTINUOUS
 62
       3
100
AcDbLine
 10
29.10757567
 20
41.54464567
 30
0.0
 11
29.19098938
 21
41.49211852
 31
0.0
  0
LINE
  5
127
100
AcDbEntity
  8
レイヤー_1
  6
CONTINUOUS
 62
       3
100
AcDbLine
 10
29.19098938
 20
41.49211852
 30
0.0
 11
29.25888426
 21
41.42576533
 31
0.0
  0
LINE
  5
128
100
AcDbEntity
  8
レイヤー_1
  6
CONTINUOUS
 62
       3
100
AcDbLine
 10
29.25888426
 20
41.42576533
 30
0.0
 11
29.31126032
 21
41.34842219
 31
0.0
  0
LINE
  5
129
100
AcDbEntity
  8
レイヤー_1
  6
CONTINUOUS
 62
       3
100
AcDbLine
 10
29.31126032
 20
41.34842219
 30
0.0
 11
29.34811754
 21
41.26292523
 31
0.0
  0
LINE
  5
12A
100
AcDbEntity
  8
レイヤー_1
  6
CONTINUOUS
 62
       3
100
AcDbLine
 10
29.34811754
 20
41.26292523
 30
0.0
 11
29.36945593
 21
41.17211058
 31
0.0
  0
LINE
  5
12B
100
AcDbEntity
  8
レイヤー_1
  6
CONTINUOUS
 62
       3
100
AcDbLine
 10
29.36945593
 20
41.17211058
 30
0.0
 11
29.37527549
 21
41.07881432
 31
0.0
  0
LINE
  5
12C
100
AcDbEntity
  8
レイヤー_1
  6
CONTINUOUS
 62
       3
100
AcDbLine
 10
29.37527549
 20
41.07881432
 30
0.0
 11
29.36557622
 21
40.98587258
 31
0.0
  0
LINE
  5
12D
100
AcDbEntity
  8
レイヤー_1
  6
CONTINUOUS
 62
       3
100
AcDbLine
 10
29.36557622
 20
40.98587258
 30
0.0
 11
29.34035812
 21
40.89612145
 31
0.0
  0
LINE
  5
12E
100
AcDbEntity
  8
レイヤー_1
  6
CONTINUOUS
 62
       3
100
AcDbLine
 10
29.34035812
 20
40.89612145
 30
0.0
 11
29.29962119
 21
40.81239707
 31
0.0
  0
LINE
  5
12F
100
AcDbEntity
  8
レイヤー_1
  6
CONTINUOUS
 62
       3
100
AcDbLine
 10
29.29962119
 20
40.81239707
 30
0.0
 11
29.24336543
 21
40.73753554
 31
0.0
  0
LINE
  5
130
100
AcDbEntity
  8
レイヤー_1
  6
CONTINUOUS
 62
       3
100
AcDbLine
 10
29.24336543
 20
40.73753554
 30
0.0
 11
29.17159084
 21
40.67437297
 31
0.0
  0
LINE
  5
131
100
AcDbEntity
  8
レイヤー_1
  6
CONTINUOUS
 62
       3
100
AcDbLine
 10
29.17159084
 20
40.67437297
 30
0.0
 11
29.08429743
 21
40.62574546
 31
0.0
  0
LINE
  5
132
100
AcDbEntity
  8
レイヤー_1
  6
CONTINUOUS
 62
       3
100
AcDbLine
 10
29.08429743
 20
40.62574546
 30
0.0
 11
28.98148518
 21
40.59448914
 31
0.0
  0
LINE
  5
133
100
AcDbEntity
  8
レイヤー_1
  6
CONTINUOUS
 62
       3
100
AcDbLine
 10
28.98148518
 20
40.59448914
 30
0.0
 11
28.8631541
 21
40.58344014
 31
0.0
  0
LINE
  5
134
100
AcDbEntity
  8
レイヤー_1
  6
CONTINUOUS
 62
       3
100
AcDbLine
 10
54.85553826
 20
38.56547545
 30
0.0
 11
37.87035624
 21
38.55557081
 31
0.0
  0
LINE
  5
135
100
AcDbEntity
  8
レイヤー_1
  6
CONTINUOUS
 62
       3
100
AcDbLine
 10
37.87035624
 20
38.55557081
 30
0.0
 11
36.37173971
 21
36.63751389
 31
0.0
  0
LINE
  5
136
100
AcDbEntity
  8
レイヤー_1
  6
CONTINUOUS
 62
       3
100
AcDbLine
 10
36.37173971
 20
36.63751389
 30
0.0
 11
34.85073005
 21
36.63751389
 31
0.0
  0
LINE
  5
137
100
AcDbEntity
  8
レイヤー_1
  6
CONTINUOUS
 62
       3
100
AcDbLine
 10
51.37426927
 20
-37.39931064
 30
0.0
 11
51.37426927
 21
-42.6186303
 31
0.0
  0
LINE
  5
138
100
AcDbEntity
  8
レイヤー_1
  6
CONTINUOUS
 62
       3
100
AcDbLine
 10
51.37426927
 20
-42.6186303
 30
0.0
 11
54.87362501
 21
-42.6186303
 31
0.0
  0
LINE
  5
139
100
AcDbEntity
  8
レイヤー_1
  6
CONTINUOUS
 62
       3
100
AcDbLine
 10
54.87362501
 20
-42.6186303
 30
0.0
 11
54.87362501
 21
-37.39931064
 31
0.0
  0
LINE
  5
13A
100
AcDbEntity
  8
レイヤー_1
  6
CONTINUOUS
 62
       3
100
AcDbLine
 10
54.84348042
 20
-40.89091491
 30
0.0
 11
51.38288201
 21
-40.89091491
 31
0.0
  0
LINE
  5
13B
100
AcDbEntity
  8
レイヤー_1
  6
CONTINUOUS
 62
       3
100
AcDbLine
 10
25.84008281
 20
40.59722052
 30
0.0
 11
25.73788328
 21
40.60263649
 31
0.0
  0
LINE
  5
13C
100
AcDbEntity
  8
レイヤー_1
  6
CONTINUOUS
 62
       3
100
AcDbLine
 10
25.73788328
 20
40.60263649
 30
0.0
 11
25.63864733
 21
40.61850508
 31
0.0
  0
LINE
  5
13D
100
AcDbEntity
  8
レイヤー_1
  6
CONTINUOUS
 62
       3
100
AcDbLine
 10
25.63864733
 20
40.61850508
 30
0.0
 11
25.54287582
 21
40.6442573
 31
0.0
  0
LINE
  5
13E
100
AcDbEntity
  8
レイヤー_1
  6
CONTINUOUS
 62
       3
100
AcDbLine
 10
25.54287582
 20
40.6442573
 30
0.0
 11
25.45106962
 21
40.67932414
 31
0.0
  0
LINE
  5
13F
100
AcDbEntity
  8
レイヤー_1
  6
CONTINUOUS
 62
       3
100
AcDbLine
 10
25.45106962
 20
40.67932414
 30
0.0
 11
25.3637296
 21
40.72313662
 31
0.0
  0
LINE
  5
140
100
AcDbEntity
  8
レイヤー_1
  6
CONTINUOUS
 62
       3
100
AcDbLine
 10
25.3637296
 20
40.72313662
 30
0.0
 11
25.28135662
 21
40.77512572
 31
0.0
  0
LINE
  5
141
100
AcDbEntity
  8
レイヤー_1
  6
CONTINUOUS
 62
       3
100
AcDbLine
 10
25.28135662
 20
40.77512572
 30
0.0
 11
25.20445155
 21
40.83472246
 31
0.0
  0
LINE
  5
142
100
AcDbEntity
  8
レイヤー_1
  6
CONTINUOUS
 62
       3
100
AcDbLine
 10
25.20445155
 20
40.83472246
 30
0.0
 11
25.13351526
 21
40.90135786
 31
0.0
  0
LINE
  5
143
100
AcDbEntity
  8
レイヤー_1
  6
CONTINUOUS
 62
       3
100
AcDbLine
 10
25.13351526
 20
40.90135786
 30
0.0
 11
25.06904861
 21
40.97446288
 31
0.0
  0
LINE
  5
144
100
AcDbEntity
  8
レイヤー_1
  6
CONTINUOUS
 62
       3
100
AcDbLine
 10
25.06904861
 20
40.97446288
 30
0.0
 11
25.01155248
 21
41.05346857
 31
0.0
  0
LINE
  5
145
100
AcDbEntity
  8
レイヤー_1
  6
CONTINUOUS
 62
       3
100
AcDbLine
 10
25.01155248
 20
41.05346857
 30
0.0
 11
24.96152774
 21
41.13780592
 31
0.0
  0
LINE
  5
146
100
AcDbEntity
  8
レイヤー_1
  6
CONTINUOUS
 62
       3
100
AcDbLine
 10
24.96152774
 20
41.13780592
 30
0.0
 11
24.91947524
 21
41.22690592
 31
0.0
  0
LINE
  5
147
100
AcDbEntity
  8
レイヤー_1
  6
CONTINUOUS
 62
       3
100
AcDbLine
 10
24.91947524
 20
41.22690592
 30
0.0
 11
24.88589586
 21
41.32019958
 31
0.0
  0
LINE
  5
148
100
AcDbEntity
  8
レイヤー_1
  6
CONTINUOUS
 62
       3
100
AcDbLine
 10
24.88589586
 20
41.32019958
 30
0.0
 11
24.86129047
 21
41.41711792
 31
0.0
  0
LINE
  5
149
100
AcDbEntity
  8
レイヤー_1
  6
CONTINUOUS
 62
       3
100
AcDbLine
 10
24.86129047
 20
41.41711792
 30
0.0
 11
24.84615993
 21
41.51709193
 31
0.0
  0
LINE
  5
14A
100
AcDbEntity
  8
レイヤー_1
  6
CONTINUOUS
 62
       3
100
AcDbLine
 10
24.84615993
 20
41.51709193
 30
0.0
 11
24.84100512
 21
41.6195526
 31
0.0
  0
LINE
  5
14B
100
AcDbEntity
  8
レイヤー_1
  6
CONTINUOUS
 62
       3
100
AcDbLine
 10
24.84100512
 20
41.61061962
 30
0.0
 11
24.84100512
 21
41.60857135
 31
0.0
  0
LINE
  5
14C
100
AcDbEntity
  8
レイヤー_1
  6
CONTINUOUS
 62
       3
100
AcDbLine
 10
24.84100512
 20
41.60857135
 30
0.0
 11
24.84100512
 21
41.6065231
 31
0.0
  0
LINE
  5
14D
100
AcDbEntity
  8
レイヤー_1
  6
CONTINUOUS
 62
       3
100
AcDbLine
 10
24.84100512
 20
41.59759012
 30
0.0
 11
24.84615993
 21
41.7000363
 31
0.0
  0
LINE
  5
14E
100
AcDbEntity
  8
レイヤー_1
  6
CONTINUOUS
 62
       3
100
AcDbLine
 10
24.84615993
 20
41.7000363
 30
0.0
 11
24.86129047
 21
41.79996929
 31
0.0
  0
LINE
  5
14F
100
AcDbEntity
  8
レイヤー_1
  6
CONTINUOUS
 62
       3
100
AcDbLine
 10
24.86129047
 20
41.79996929
 30
0.0
 11
24.88589586
 21
41.89682391
 31
0.0
  0
LINE
  5
150
100
AcDbEntity
  8
レイヤー_1
  6
CONTINUOUS
 62
       3
100
AcDbLine
 10
24.88589586
 20
41.89682391
 30
0.0
 11
24.91947524
 21
41.99003495
 31
0.0
  0
LINE
  5
151
100
AcDbEntity
  8
レイヤー_1
  6
CONTINUOUS
 62
       3
100
AcDbLine
 10
24.91947524
 20
41.99003495
 30
0.0
 11
24.96152774
 21
42.07903717
 31
0.0
  0
LINE
  5
152
100
AcDbEntity
  8
レイヤー_1
  6
CONTINUOUS
 62
       3
100
AcDbLine
 10
24.96152774
 20
42.07903717
 30
0.0
 11
25.01155248
 21
42.16326537
 31
0.0
  0
LINE
  5
153
100
AcDbEntity
  8
レイヤー_1
  6
CONTINUOUS
 62
       3
100
AcDbLine
 10
25.01155248
 20
42.16326537
 30
0.0
 11
25.06904861
 21
42.24215437
 31
0.0
  0
LINE
  5
154
100
AcDbEntity
  8
レイヤー_1
  6
CONTINUOUS
 62
       3
100
AcDbLine
 10
25.06904861
 20
42.24215437
 30
0.0
 11
25.13351526
 21
42.31513892
 31
0.0
  0
LINE
  5
155
100
AcDbEntity
  8
レイヤー_1
  6
CONTINUOUS
 62
       3
100
AcDbLine
 10
25.13351526
 20
42.31513892
 30
0.0
 11
25.20445155
 21
42.3816538
 31
0.0
  0
LINE
  5
156
100
AcDbEntity
  8
レイヤー_1
  6
CONTINUOUS
 62
       3
100
AcDbLine
 10
25.20445155
 20
42.3816538
 30
0.0
 11
25.28135662
 21
42.44113386
 31
0.0
  0
LINE
  5
157
100
AcDbEntity
  8
レイヤー_1
  6
CONTINUOUS
 62
       3
100
AcDbLine
 10
25.28135662
 20
42.44113386
 30
0.0
 11
25.3637296
 21
42.49301383
 31
0.0
  0
LINE
  5
158
100
AcDbEntity
  8
レイヤー_1
  6
CONTINUOUS
 62
       3
100
AcDbLine
 10
25.3637296
 20
42.49301383
 30
0.0
 11
25.45106962
 21
42.53672853
 31
0.0
  0
LINE
  5
159
100
AcDbEntity
  8
レイヤー_1
  6
CONTINUOUS
 62
       3
100
AcDbLine
 10
25.45106962
 20
42.53672853
 30
0.0
 11
25.54287582
 21
42.57171274
 31
0.0
  0
LINE
  5
15A
100
AcDbEntity
  8
レイヤー_1
  6
CONTINUOUS
 62
       3
100
AcDbLine
 10
25.54287582
 20
42.57171274
 30
0.0
 11
25.63864733
 21
42.59740124
 31
0.0
  0
LINE
  5
15B
100
AcDbEntity
  8
レイヤー_1
  6
CONTINUOUS
 62
       3
100
AcDbLine
 10
25.63864733
 20
42.59740124
 30
0.0
 11
25.73788328
 21
42.61322881
 31
0.0
  0
LINE
  5
15C
100
AcDbEntity
  8
レイヤー_1
  6
CONTINUOUS
 62
       3
100
AcDbLine
 10
25.73788328
 20
42.61322881
 30
0.0
 11
25.84008281
 21
42.6186303
 31
0.0
  0
LINE
  5
15D
100
AcDbEntity
  8
レイヤー_1
  6
CONTINUOUS
 62
       3
100
AcDbLine
 10
25.84008281
 20
42.6186303
 30
0.0
 11
25.97482086
 21
42.6186303
 31
0.0
  0
LINE
  5
15E
100
AcDbEntity
  8
レイヤー_1
  6
CONTINUOUS
 62
       3
100
AcDbLine
 10
25.97482086
 20
42.6186303
 30
0.0
 11
26.35560232
 21
42.6186303
 31
0.0
  0
LINE
  5
15F
100
AcDbEntity
  8
レイヤー_1
  6
CONTINUOUS
 62
       3
100
AcDbLine
 10
26.35560232
 20
42.6186303
 30
0.0
 11
26.94727813
 21
42.6186303
 31
0.0
  0
LINE
  5
160
100
AcDbEntity
  8
レイヤー_1
  6
CONTINUOUS
 62
       3
100
AcDbLine
 10
26.94727813
 20
42.6186303
 30
0.0
 11
27.71469922
 21
42.6186303
 31
0.0
  0
LINE
  5
161
100
AcDbEntity
  8
レイヤー_1
  6
CONTINUOUS
 62
       3
100
AcDbLine
 10
27.71469922
 20
42.6186303
 30
0.0
 11
28.62271654
 21
42.6186303
 31
0.0
  0
LINE
  5
162
100
AcDbEntity
  8
レイヤー_1
  6
CONTINUOUS
 62
       3
100
AcDbLine
 10
28.62271654
 20
42.6186303
 30
0.0
 11
29.63618104
 21
42.6186303
 31
0.0
  0
LINE
  5
163
100
AcDbEntity
  8
レイヤー_1
  6
CONTINUOUS
 62
       3
100
AcDbLine
 10
29.63618104
 20
42.6186303
 30
0.0
 11
30.71994365
 21
42.6186303
 31
0.0
  0
LINE
  5
164
100
AcDbEntity
  8
レイヤー_1
  6
CONTINUOUS
 62
       3
100
AcDbLine
 10
30.71994365
 20
42.6186303
 30
0.0
 11
31.83885532
 21
42.6186303
 31
0.0
  0
LINE
  5
165
100
AcDbEntity
  8
レイヤー_1
  6
CONTINUOUS
 62
       3
100
AcDbLine
 10
31.83885532
 20
42.6186303
 30
0.0
 11
32.95776699
 21
42.6186303
 31
0.0
  0
LINE
  5
166
100
AcDbEntity
  8
レイヤー_1
  6
CONTINUOUS
 62
       3
100
AcDbLine
 10
32.95776699
 20
42.6186303
 30
0.0
 11
34.0415296
 21
42.6186303
 31
0.0
  0
LINE
  5
167
100
AcDbEntity
  8
レイヤー_1
  6
CONTINUOUS
 62
       3
100
AcDbLine
 10
34.0415296
 20
42.6186303
 30
0.0
 11
35.0549941
 21
42.6186303
 31
0.0
  0
LINE
  5
168
100
AcDbEntity
  8
レイヤー_1
  6
CONTINUOUS
 62
       3
100
AcDbLine
 10
35.0549941
 20
42.6186303
 30
0.0
 11
35.96301142
 21
42.6186303
 31
0.0
  0
LINE
  5
169
100
AcDbEntity
  8
レイヤー_1
  6
CONTINUOUS
 62
       3
100
AcDbLine
 10
35.96301142
 20
42.6186303
 30
0.0
 11
36.73043252
 21
42.6186303
 31
0.0
  0
LINE
  5
16A
100
AcDbEntity
  8
レイヤー_1
  6
CONTINUOUS
 62
       3
100
AcDbLine
 10
36.73043252
 20
42.6186303
 30
0.0
 11
37.32210832
 21
42.6186303
 31
0.0
  0
LINE
  5
16B
100
AcDbEntity
  8
レイヤー_1
  6
CONTINUOUS
 62
       3
100
AcDbLine
 10
37.32210832
 20
42.6186303
 30
0.0
 11
37.70288978
 21
42.6186303
 31
0.0
  0
LINE
  5
16C
100
AcDbEntity
  8
レイヤー_1
  6
CONTINUOUS
 62
       3
100
AcDbLine
 10
37.70288978
 20
42.6186303
 30
0.0
 11
37.83762784
 21
42.6186303
 31
0.0
  0
LINE
  5
16D
100
AcDbEntity
  8
レイヤー_1
  6
CONTINUOUS
 62
       3
100
AcDbLine
 10
37.83762784
 20
42.6186303
 30
0.0
 11
37.85361649
 21
42.59571127
 31
0.0
  0
LINE
  5
16E
100
AcDbEntity
  8
レイヤー_1
  6
CONTINUOUS
 62
       3
100
AcDbLine
 10
37.85361649
 20
42.59571127
 30
0.0
 11
37.89880183
 21
42.53094017
 31
0.0
  0
LINE
  5
16F
100
AcDbEntity
  8
レイヤー_1
  6
CONTINUOUS
 62
       3
100
AcDbLine
 10
37.89880183
 20
42.53094017
 30
0.0
 11
37.96901289
 21
42.43029581
 31
0.0
  0
LINE
  5
170
100
AcDbEntity
  8
レイヤー_1
  6
CONTINUOUS
 62
       3
100
AcDbLine
 10
37.96901289
 20
42.43029581
 30
0.0
 11
38.06007873
 21
42.2997571
 31
0.0
  0
LINE
  5
171
100
AcDbEntity
  8
レイヤー_1
  6
CONTINUOUS
 62
       3
100
AcDbLine
 10
38.06007873
 20
42.2997571
 30
0.0
 11
38.16782837
 21
42.1453029
 31
0.0
  0
LINE
  5
172
100
AcDbEntity
  8
レイヤー_1
  6
CONTINUOUS
 62
       3
100
AcDbLine
 10
38.16782837
 20
42.1453029
 30
0.0
 11
38.28809089
 21
41.97291207
 31
0.0
  0
LINE
  5
173
100
AcDbEntity
  8
レイヤー_1
  6
CONTINUOUS
 62
       3
100
AcDbLine
 10
38.28809089
 20
41.97291207
 30
0.0
 11
38.41669531
 21
41.7885635
 31
0.0
  0
LINE
  5
174
100
AcDbEntity
  8
レイヤー_1
  6
CONTINUOUS
 62
       3
100
AcDbLine
 10
38.41669531
 20
41.7885635
 30
0.0
 11
38.54947069
 21
41.59823608
 31
0.0
  0
LINE
  5
175
100
AcDbEntity
  8
レイヤー_1
  6
CONTINUOUS
 62
       3
100
AcDbLine
 10
38.54947069
 20
41.59823608
 30
0.0
 11
38.68224607
 21
41.40790863
 31
0.0
  0
LINE
  5
176
100
AcDbEntity
  8
レイヤー_1
  6
CONTINUOUS
 62
       3
100
AcDbLine
 10
38.68224607
 20
41.40790863
 30
0.0
 11
38.81085049
 21
41.22356007
 31
0.0
  0
LINE
  5
177
100
AcDbEntity
  8
レイヤー_1
  6
CONTINUOUS
 62
       3
100
AcDbLine
 10
38.81085049
 20
41.22356007
 30
0.0
 11
38.931113
 21
41.05116926
 31
0.0
  0
LINE
  5
178
100
AcDbEntity
  8
レイヤー_1
  6
CONTINUOUS
 62
       3
100
AcDbLine
 10
38.931113
 20
41.05116926
 30
0.0
 11
39.03886265
 21
40.89671504
 31
0.0
  0
LINE
  5
179
100
AcDbEntity
  8
レイヤー_1
  6
CONTINUOUS
 62
       3
100
AcDbLine
 10
39.03886265
 20
40.89671504
 30
0.0
 11
39.12992849
 21
40.76617633
 31
0.0
  0
LINE
  5
17A
100
AcDbEntity
  8
レイヤー_1
  6
CONTINUOUS
 62
       3
100
AcDbLine
 10
39.12992849
 20
40.76617633
 30
0.0
 11
39.20013955
 21
40.66553199
 31
0.0
  0
LINE
  5
17B
100
AcDbEntity
  8
レイヤー_1
  6
CONTINUOUS
 62
       3
100
AcDbLine
 10
39.20013955
 20
40.66553199
 30
0.0
 11
39.24532489
 21
40.60076086
 31
0.0
  0
LINE
  5
17C
100
AcDbEntity
  8
レイヤー_1
  6
CONTINUOUS
 62
       3
100
AcDbLine
 10
39.24532489
 20
40.60076086
 30
0.0
 11
39.26131353
 21
40.57784186
 31
0.0
  0
LINE
  5
17D
100
AcDbEntity
  8
レイヤー_1
  6
CONTINUOUS
 62
       3
100
AcDbLine
 10
34.85073005
 20
-40.03107112
 30
0.0
 11
34.85073005
 21
-40.21442255
 31
0.0
  0
LINE
  5
17E
100
AcDbEntity
  8
レイヤー_1
  6
CONTINUOUS
 62
       3
100
AcDbLine
 10
34.85073005
 20
-40.21442255
 30
0.0
 11
34.85073005
 21
-40.40429208
 31
0.0
  0
LINE
  5
17F
100
AcDbEntity
  8
レイヤー_1
  6
CONTINUOUS
 62
       3
100
AcDbLine
 10
34.85073005
 20
-40.40429208
 30
0.0
 11
34.85073005
 21
-40.59488585
 31
0.0
  0
LINE
  5
180
100
AcDbEntity
  8
レイヤー_1
  6
CONTINUOUS
 62
       3
100
AcDbLine
 10
34.85073005
 20
-40.59488585
 30
0.0
 11
34.85073005
 21
-40.78040999
 31
0.0
  0
LINE
  5
181
100
AcDbEntity
  8
レイヤー_1
  6
CONTINUOUS
 62
       3
100
AcDbLine
 10
34.85073005
 20
-40.78040999
 30
0.0
 11
34.85073005
 21
-40.95507063
 31
0.0
  0
LINE
  5
182
100
AcDbEntity
  8
レイヤー_1
  6
CONTINUOUS
 62
       3
100
AcDbLine
 10
34.85073005
 20
-40.95507063
 30
0.0
 11
34.85073005
 21
-41.11307394
 31
0.0
  0
LINE
  5
183
100
AcDbEntity
  8
レイヤー_1
  6
CONTINUOUS
 62
       3
100
AcDbLine
 10
34.85073005
 20
-41.11307394
 30
0.0
 11
34.85073005
 21
-41.24862606
 31
0.0
  0
LINE
  5
184
100
AcDbEntity
  8
レイヤー_1
  6
CONTINUOUS
 62
       3
100
AcDbLine
 10
34.85073005
 20
-41.24862606
 30
0.0
 11
34.85073005
 21
-41.35593313
 31
0.0
  0
LINE
  5
185
100
AcDbEntity
  8
レイヤー_1
  6
CONTINUOUS
 62
       3
100
AcDbLine
 10
34.85073005
 20
-41.35593313
 30
0.0
 11
34.85073005
 21
-41.42920127
 31
0.0
  0
LINE
  5
186
100
AcDbEntity
  8
レイヤー_1
  6
CONTINUOUS
 62
       3
100
AcDbLine
 10
34.85073005
 20
-41.42920127
 30
0.0
 11
34.85073005
 21
-41.46263665
 31
0.0
  0
LINE
  5
187
100
AcDbEntity
  8
レイヤー_1
  6
CONTINUOUS
 62
       3
100
AcDbLine
 10
34.85073005
 20
-41.46263665
 30
0.0
 11
34.8136436
 21
-41.46409266
 31
0.0
  0
LINE
  5
188
100
AcDbEntity
  8
レイヤー_1
  6
CONTINUOUS
 62
       3
100
AcDbLine
 10
34.8136436
 20
-41.46409266
 30
0.0
 11
34.6573616
 21
-41.46409266
 31
0.0
  0
LINE
  5
189
100
AcDbEntity
  8
レイヤー_1
  6
CONTINUOUS
 62
       3
100
AcDbLine
 10
34.6573616
 20
-41.46409266
 30
0.0
 11
34.39433341
 21
-41.46409266
 31
0.0
  0
LINE
  5
18A
100
AcDbEntity
  8
レイヤー_1
  6
CONTINUOUS
 62
       3
100
AcDbLine
 10
34.39433341
 20
-41.46409266
 30
0.0
 11
34.04130353
 21
-41.46409266
 31
0.0
  0
LINE
  5
18B
100
AcDbEntity
  8
レイヤー_1
  6
CONTINUOUS
 62
       3
100
AcDbLine
 10
34.04130353
 20
-41.46409266
 30
0.0
 11
33.61501647
 21
-41.46409266
 31
0.0
  0
LINE
  5
18C
100
AcDbEntity
  8
レイヤー_1
  6
CONTINUOUS
 62
       3
100
AcDbLine
 10
33.61501647
 20
-41.46409266
 30
0.0
 11
33.13221672
 21
-41.46409266
 31
0.0
  0
LINE
  5
18D
100
AcDbEntity
  8
レイヤー_1
  6
CONTINUOUS
 62
       3
100
AcDbLine
 10
33.13221672
 20
-41.46409266
 30
0.0
 11
32.60964878
 21
-41.46409266
 31
0.0
  0
LINE
  5
18E
100
AcDbEntity
  8
レイヤー_1
  6
CONTINUOUS
 62
       3
100
AcDbLine
 10
32.60964878
 20
-41.46409266
 30
0.0
 11
32.06405715
 21
-41.46409266
 31
0.0
  0
LINE
  5
18F
100
AcDbEntity
  8
レイヤー_1
  6
CONTINUOUS
 62
       3
100
AcDbLine
 10
32.06405715
 20
-41.46409266
 30
0.0
 11
31.51218633
 21
-41.46409266
 31
0.0
  0
LINE
  5
190
100
AcDbEntity
  8
レイヤー_1
  6
CONTINUOUS
 62
       3
100
AcDbLine
 10
31.51218633
 20
-41.46409266
 30
0.0
 11
30.97078083
 21
-41.46409266
 31
0.0
  0
LINE
  5
191
100
AcDbEntity
  8
レイヤー_1
  6
CONTINUOUS
 62
       3
100
AcDbLine
 10
30.97078083
 20
-41.46409266
 30
0.0
 11
30.45658514
 21
-41.46409266
 31
0.0
  0
LINE
  5
192
100
AcDbEntity
  8
レイヤー_1
  6
CONTINUOUS
 62
       3
100
AcDbLine
 10
30.45658514
 20
-41.46409266
 30
0.0
 11
29.98634376
 21
-41.46409266
 31
0.0
  0
LINE
  5
193
100
AcDbEntity
  8
レイヤー_1
  6
CONTINUOUS
 62
       3
100
AcDbLine
 10
29.98634376
 20
-41.46409266
 30
0.0
 11
29.5768012
 21
-41.46409266
 31
0.0
  0
LINE
  5
194
100
AcDbEntity
  8
レイヤー_1
  6
CONTINUOUS
 62
       3
100
AcDbLine
 10
29.5768012
 20
-41.46409266
 30
0.0
 11
29.24470195
 21
-41.46409266
 31
0.0
  0
LINE
  5
195
100
AcDbEntity
  8
レイヤー_1
  6
CONTINUOUS
 62
       3
100
AcDbLine
 10
29.24470195
 20
-41.46409266
 30
0.0
 11
29.00679051
 21
-41.46409266
 31
0.0
  0
LINE
  5
196
100
AcDbEntity
  8
レイヤー_1
  6
CONTINUOUS
 62
       3
100
AcDbLine
 10
29.00679051
 20
-41.46409266
 30
0.0
 11
28.87981139
 21
-41.46409266
 31
0.0
  0
LINE
  5
197
100
AcDbEntity
  8
レイヤー_1
  6
CONTINUOUS
 62
       3
100
AcDbLine
 10
28.87981139
 20
-41.46409266
 30
0.0
 11
28.8631541
 21
-41.46127132
 31
0.0
  0
LINE
  5
198
100
AcDbEntity
  8
レイヤー_1
  6
CONTINUOUS
 62
       3
100
AcDbLine
 10
28.8631541
 20
-41.46127132
 30
0.0
 11
28.8631541
 21
-41.43976414
 31
0.0
  0
LINE
  5
199
100
AcDbEntity
  8
レイヤー_1
  6
CONTINUOUS
 62
       3
100
AcDbLine
 10
28.8631541
 20
-41.43976414
 30
0.0
 11
28.8631541
 21
-41.39946772
 31
0.0
  0
LINE
  5
19A
100
AcDbEntity
  8
レイヤー_1
  6
CONTINUOUS
 62
       3
100
AcDbLine
 10
28.8631541
 20
-41.39946772
 30
0.0
 11
28.8631541
 21
-41.34321818
 31
0.0
  0
LINE
  5
19B
100
AcDbEntity
  8
レイヤー_1
  6
CONTINUOUS
 62
       3
100
AcDbLine
 10
28.8631541
 20
-41.34321818
 30
0.0
 11
28.8631541
 21
-41.27385161
 31
0.0
  0
LINE
  5
19C
100
AcDbEntity
  8
レイヤー_1
  6
CONTINUOUS
 62
       3
100
AcDbLine
 10
28.8631541
 20
-41.27385161
 30
0.0
 11
28.8631541
 21
-41.19420414
 31
0.0
  0
LINE
  5
19D
100
AcDbEntity
  8
レイヤー_1
  6
CONTINUOUS
 62
       3
100
AcDbLine
 10
28.8631541
 20
-41.19420414
 30
0.0
 11
28.8631541
 21
-41.10711188
 31
0.0
  0
LINE
  5
19E
100
AcDbEntity
  8
レイヤー_1
  6
CONTINUOUS
 62
       3
100
AcDbLine
 10
28.8631541
 20
-41.10711188
 30
0.0
 11
28.8631541
 21
-41.01541092
 31
0.0
  0
LINE
  5
19F
100
AcDbEntity
  8
レイヤー_1
  6
CONTINUOUS
 62
       3
100
AcDbLine
 10
28.8631541
 20
-41.01541092
 30
0.0
 11
28.8631541
 21
-40.92193742
 31
0.0
  0
LINE
  5
1A0
100
AcDbEntity
  8
レイヤー_1
  6
CONTINUOUS
 62
       3
100
AcDbLine
 10
28.8631541
 20
-40.92193742
 30
0.0
 11
28.8631541
 21
-40.82952744
 31
0.0
  0
LINE
  5
1A1
100
AcDbEntity
  8
レイヤー_1
  6
CONTINUOUS
 62
       3
100
AcDbLine
 10
28.8631541
 20
-40.82952744
 30
0.0
 11
28.8631541
 21
-40.74101712
 31
0.0
  0
LINE
  5
1A2
100
AcDbEntity
  8
レイヤー_1
  6
CONTINUOUS
 62
       3
100
AcDbLine
 10
28.8631541
 20
-40.74101712
 30
0.0
 11
28.8631541
 21
-40.65924258
 31
0.0
  0
LINE
  5
1A3
100
AcDbEntity
  8
レイヤー_1
  6
CONTINUOUS
 62
       3
100
AcDbLine
 10
28.8631541
 20
-40.65924258
 30
0.0
 11
28.8631541
 21
-40.58703988
 31
0.0
  0
LINE
  5
1A4
100
AcDbEntity
  8
レイヤー_1
  6
CONTINUOUS
 62
       3
100
AcDbLine
 10
28.8631541
 20
-40.58703988
 30
0.0
 11
28.8631541
 21
-40.5272452
 31
0.0
  0
LINE
  5
1A5
100
AcDbEntity
  8
レイヤー_1
  6
CONTINUOUS
 62
       3
100
AcDbLine
 10
28.8631541
 20
-40.5272452
 30
0.0
 11
28.8631541
 21
-40.48269461
 31
0.0
  0
LINE
  5
1A6
100
AcDbEntity
  8
レイヤー_1
  6
CONTINUOUS
 62
       3
100
AcDbLine
 10
28.8631541
 20
-40.48269461
 30
0.0
 11
28.8631541
 21
-40.45622423
 31
0.0
  0
LINE
  5
1A7
100
AcDbEntity
  8
レイヤー_1
  6
CONTINUOUS
 62
       3
100
AcDbLine
 10
28.8631541
 20
-40.45622423
 30
0.0
 11
28.89419176
 21
-40.44923056
 31
0.0
  0
LINE
  5
1A8
100
AcDbEntity
  8
レイヤー_1
  6
CONTINUOUS
 62
       3
100
AcDbLine
 10
28.89419176
 20
-40.44923056
 30
0.0
 11
29.00864313
 21
-40.43287774
 31
0.0
  0
LINE
  5
1A9
100
AcDbEntity
  8
レイヤー_1
  6
CONTINUOUS
 62
       3
100
AcDbLine
 10
29.00864313
 20
-40.43287774
 30
0.0
 11
29.10757567
 21
-40.39704321
 31
0.0
  0
LINE
  5
1AA
100
AcDbEntity
  8
レイヤー_1
  6
CONTINUOUS
 62
       3
100
AcDbLine
 10
29.10757567
 20
-40.39704321
 30
0.0
 11
29.19098938
 21
-40.34456065
 31
0.0
  0
LINE
  5
1AB
100
AcDbEntity
  8
レイヤー_1
  6
CONTINUOUS
 62
       3
100
AcDbLine
 10
29.19098938
 20
-40.34456065
 30
0.0
 11
29.25888426
 21
-40.27826382
 31
0.0
  0
LINE
  5
1AC
100
AcDbEntity
  8
レイヤー_1
  6
CONTINUOUS
 62
       3
100
AcDbLine
 10
29.25888426
 20
-40.27826382
 30
0.0
 11
29.31126032
 21
-40.20098637
 31
0.0
  0
LINE
  5
1AD
100
AcDbEntity
  8
レイヤー_1
  6
CONTINUOUS
 62
       3
100
AcDbLine
 10
29.31126032
 20
-40.20098637
 30
0.0
 11
29.34811754
 21
-40.11556203
 31
0.0
  0
LINE
  5
1AE
100
AcDbEntity
  8
レイヤー_1
  6
CONTINUOUS
 62
       3
100
AcDbLine
 10
29.34811754
 20
-40.11556203
 30
0.0
 11
29.36945593
 21
-40.02482448
 31
0.0
  0
LINE
  5
1AF
100
AcDbEntity
  8
レイヤー_1
  6
CONTINUOUS
 62
       3
100
AcDbLine
 10
29.36945593
 20
-40.02482448
 30
0.0
 11
29.37527549
 21
-39.93160746
 31
0.0
  0
LINE
  5
1B0
100
AcDbEntity
  8
レイヤー_1
  6
CONTINUOUS
 62
       3
100
AcDbLine
 10
29.37527549
 20
-39.93160746
 30
0.0
 11
29.36557622
 21
-39.83874465
 31
0.0
  0
LINE
  5
1B1
100
AcDbEntity
  8
レイヤー_1
  6
CONTINUOUS
 62
       3
100
AcDbLine
 10
29.36557622
 20
-39.83874465
 30
0.0
 11
29.34035812
 21
-39.74906975
 31
0.0
  0
LINE
  5
1B2
100
AcDbEntity
  8
レイヤー_1
  6
CONTINUOUS
 62
       3
100
AcDbLine
 10
29.34035812
 20
-39.74906975
 30
0.0
 11
29.29962119
 21
-39.66541647
 31
0.0
  0
LINE
  5
1B3
100
AcDbEntity
  8
レイヤー_1
  6
CONTINUOUS
 62
       3
100
AcDbLine
 10
29.29962119
 20
-39.66541647
 30
0.0
 11
29.24336543
 21
-39.59061852
 31
0.0
  0
LINE
  5
1B4
100
AcDbEntity
  8
レイヤー_1
  6
CONTINUOUS
 62
       3
100
AcDbLine
 10
29.24336543
 20
-39.59061852
 30
0.0
 11
29.17159084
 21
-39.52750959
 31
0.0
  0
LINE
  5
1B5
100
AcDbEntity
  8
レイヤー_1
  6
CONTINUOUS
 62
       3
100
AcDbLine
 10
29.17159084
 20
-39.52750959
 30
0.0
 11
29.08429743
 21
-39.47892339
 31
0.0
  0
LINE
  5
1B6
100
AcDbEntity
  8
レイヤー_1
  6
CONTINUOUS
 62
       3
100
AcDbLine
 10
29.08429743
 20
-39.47892339
 30
0.0
 11
28.98148518
 21
-39.44769362
 31
0.0
  0
LINE
  5
1B7
100
AcDbEntity
  8
レイヤー_1
  6
CONTINUOUS
 62
       3
100
AcDbLine
 10
28.98148518
 20
-39.44769362
 30
0.0
 11
28.8631541
 21
-39.43665397
 31
0.0
  0
LINE
  5
1B8
100
AcDbEntity
  8
レイヤー_1
  6
CONTINUOUS
 62
       3
100
AcDbLine
 10
54.85553826
 20
-37.4186893
 30
0.0
 11
37.87035624
 21
-37.40792337
 31
0.0
  0
LINE
  5
1B9
100
AcDbEntity
  8
レイヤー_1
  6
CONTINUOUS
 62
       3
100
AcDbLine
 10
37.87035624
 20
-37.40792337
 30
0.0
 11
36.37173971
 21
-35.48986645
 31
0.0
  0
LINE
  5
1BA
100
AcDbEntity
  8
レイヤー_1
  6
CONTINUOUS
 62
       3
100
AcDbLine
 10
36.37173971
 20
-35.48986645
 30
0.0
 11
34.85073005
 21
-35.48986645
 31
0.0
  0
LINE
  5
1BB
100
AcDbEntity
  8
レイヤー_1
  6
CONTINUOUS
 62
       3
100
AcDbLine
 10
25.84008281
 20
-39.45043435
 30
0.0
 11
25.73788328
 21
-39.45584066
 31
0.0
  0
LINE
  5
1BC
100
AcDbEntity
  8
レイヤー_1
  6
CONTINUOUS
 62
       3
100
AcDbLine
 10
25.73788328
 20
-39.45584066
 30
0.0
 11
25.63864733
 21
-39.47168192
 31
0.0
  0
LINE
  5
1BD
100
AcDbEntity
  8
レイヤー_1
  6
CONTINUOUS
 62
       3
100
AcDbLine
 10
25.63864733
 20
-39.47168192
 30
0.0
 11
25.54287582
 21
-39.49739166
 31
0.0
  0
LINE
  5
1BE
100
AcDbEntity
  8
レイヤー_1
  6
CONTINUOUS
 62
       3
100
AcDbLine
 10
25.54287582
 20
-39.49739166
 30
0.0
 11
25.45106962
 21
-39.5324034
 31
0.0
  0
LINE
  5
1BF
100
AcDbEntity
  8
レイヤー_1
  6
CONTINUOUS
 62
       3
100
AcDbLine
 10
25.45106962
 20
-39.5324034
 30
0.0
 11
25.3637296
 21
-39.57615069
 31
0.0
  0
LINE
  5
1C0
100
AcDbEntity
  8
レイヤー_1
  6
CONTINUOUS
 62
       3
100
AcDbLine
 10
25.3637296
 20
-39.57615069
 30
0.0
 11
25.28135662
 21
-39.62806704
 31
0.0
  0
LINE
  5
1C1
100
AcDbEntity
  8
レイヤー_1
  6
CONTINUOUS
 62
       3
100
AcDbLine
 10
25.28135662
 20
-39.62806704
 30
0.0
 11
25.20445155
 21
-39.687586
 31
0.0
  0
LINE
  5
1C2
100
AcDbEntity
  8
レイヤー_1
  6
CONTINUOUS
 62
       3
100
AcDbLine
 10
25.20445155
 20
-39.687586
 30
0.0
 11
25.13351526
 21
-39.75414106
 31
0.0
  0
LINE
  5
1C3
100
AcDbEntity
  8
レイヤー_1
  6
CONTINUOUS
 62
       3
100
AcDbLine
 10
25.13351526
 20
-39.75414106
 30
0.0
 11
25.06904861
 21
-39.82716577
 31
0.0
  0
LINE
  5
1C4
100
AcDbEntity
  8
レイヤー_1
  6
CONTINUOUS
 62
       3
100
AcDbLine
 10
25.06904861
 20
-39.82716577
 30
0.0
 11
25.01155248
 21
-39.90609366
 31
0.0
  0
LINE
  5
1C5
100
AcDbEntity
  8
レイヤー_1
  6
CONTINUOUS
 62
       3
100
AcDbLine
 10
25.01155248
 20
-39.90609366
 30
0.0
 11
24.96152774
 21
-39.99035824
 31
0.0
  0
LINE
  5
1C6
100
AcDbEntity
  8
レイヤー_1
  6
CONTINUOUS
 62
       3
100
AcDbLine
 10
24.96152774
 20
-39.99035824
 30
0.0
 11
24.91947524
 21
-40.07939305
 31
0.0
  0
LINE
  5
1C7
100
AcDbEntity
  8
レイヤー_1
  6
CONTINUOUS
 62
       3
100
AcDbLine
 10
24.91947524
 20
-40.07939305
 30
0.0
 11
24.88589586
 21
-40.17263164
 31
0.0
  0
LINE
  5
1C8
100
AcDbEntity
  8
レイヤー_1
  6
CONTINUOUS
 62
       3
100
AcDbLine
 10
24.88589586
 20
-40.17263164
 30
0.0
 11
24.86129047
 21
-40.26950749
 31
0.0
  0
LINE
  5
1C9
100
AcDbEntity
  8
レイヤー_1
  6
CONTINUOUS
 62
       3
100
AcDbLine
 10
24.86129047
 20
-40.26950749
 30
0.0
 11
24.84615993
 21
-40.36945416
 31
0.0
  0
LINE
  5
1CA
100
AcDbEntity
  8
レイヤー_1
  6
CONTINUOUS
 62
       3
100
AcDbLine
 10
24.84615993
 20
-40.36945416
 30
0.0
 11
24.84100512
 21
-40.47190516
 31
0.0
  0
LINE
  5
1CB
100
AcDbEntity
  8
レイヤー_1
  6
CONTINUOUS
 62
       3
100
AcDbLine
 10
24.84100512
 20
-40.46297218
 30
0.0
 11
24.84100512
 21
-40.46092393
 31
0.0
  0
LINE
  5
1CC
100
AcDbEntity
  8
レイヤー_1
  6
CONTINUOUS
 62
       3
100
AcDbLine
 10
24.84100512
 20
-40.46092393
 30
0.0
 11
24.84100512
 21
-40.45887566
 31
0.0
  0
LINE
  5
1CD
100
AcDbEntity
  8
レイヤー_1
  6
CONTINUOUS
 62
       3
100
AcDbLine
 10
24.84100512
 20
-40.44994268
 30
0.0
 11
24.84615993
 21
-40.55239853
 31
0.0
  0
LINE
  5
1CE
100
AcDbEntity
  8
レイヤー_1
  6
CONTINUOUS
 62
       3
100
AcDbLine
 10
24.84615993
 20
-40.55239853
 30
0.0
 11
24.86129047
 21
-40.65235886
 31
0.0
  0
LINE
  5
1CF
100
AcDbEntity
  8
レイヤー_1
  6
CONTINUOUS
 62
       3
100
AcDbLine
 10
24.86129047
 20
-40.65235886
 30
0.0
 11
24.88589586
 21
-40.74925597
 31
0.0
  0
LINE
  5
1D0
100
AcDbEntity
  8
レイヤー_1
  6
CONTINUOUS
 62
       3
100
AcDbLine
 10
24.88589586
 20
-40.74925597
 30
0.0
 11
24.91947524
 21
-40.84252208
 31
0.0
  0
LINE
  5
1D1
100
AcDbEntity
  8
レイヤー_1
  6
CONTINUOUS
 62
       3
100
AcDbLine
 10
24.91947524
 20
-40.84252208
 30
0.0
 11
24.96152774
 21
-40.93158949
 31
0.0
  0
LINE
  5
1D2
100
AcDbEntity
  8
レイヤー_1
  6
CONTINUOUS
 62
       3
100
AcDbLine
 10
24.96152774
 20
-40.93158949
 30
0.0
 11
25.01155248
 21
-41.01589046
 31
0.0
  0
LINE
  5
1D3
100
AcDbEntity
  8
レイヤー_1
  6
CONTINUOUS
 62
       3
100
AcDbLine
 10
25.01155248
 20
-41.01589046
 30
0.0
 11
25.06904861
 21
-41.09485725
 31
0.0
  0
LINE
  5
1D4
100
AcDbEntity
  8
レイヤー_1
  6
CONTINUOUS
 62
       3
100
AcDbLine
 10
25.06904861
 20
-41.09485725
 30
0.0
 11
25.13351526
 21
-41.16792211
 31
0.0
  0
LINE
  5
1D5
100
AcDbEntity
  8
レイヤー_1
  6
CONTINUOUS
 62
       3
100
AcDbLine
 10
25.13351526
 20
-41.16792211
 30
0.0
 11
25.20445155
 21
-41.23451735
 31
0.0
  0
LINE
  5
1D6
100
AcDbEntity
  8
レイヤー_1
  6
CONTINUOUS
 62
       3
100
AcDbLine
 10
25.20445155
 20
-41.23451735
 30
0.0
 11
25.28135662
 21
-41.29407518
 31
0.0
  0
LINE
  5
1D7
100
AcDbEntity
  8
レイヤー_1
  6
CONTINUOUS
 62
       3
100
AcDbLine
 10
25.28135662
 20
-41.29407518
 30
0.0
 11
25.3637296
 21
-41.34602791
 31
0.0
  0
LINE
  5
1D8
100
AcDbEntity
  8
レイヤー_1
  6
CONTINUOUS
 62
       3
100
AcDbLine
 10
25.3637296
 20
-41.34602791
 30
0.0
 11
25.45106962
 21
-41.38980779
 31
0.0
  0
LINE
  5
1D9
100
AcDbEntity
  8
レイヤー_1
  6
CONTINUOUS
 62
       3
100
AcDbLine
 10
25.45106962
 20
-41.38980779
 30
0.0
 11
25.54287582
 21
-41.4248471
 31
0.0
  0
LINE
  5
1DA
100
AcDbEntity
  8
レイヤー_1
  6
CONTINUOUS
 62
       3
100
AcDbLine
 10
25.54287582
 20
-41.4248471
 30
0.0
 11
25.63864733
 21
-41.45057807
 31
0.0
  0
LINE
  5
1DB
100
AcDbEntity
  8
レイヤー_1
  6
CONTINUOUS
 62
       3
100
AcDbLine
 10
25.63864733
 20
-41.45057807
 30
0.0
 11
25.73788328
 21
-41.466433
 31
0.0
  0
LINE
  5
1DC
100
AcDbEntity
  8
レイヤー_1
  6
CONTINUOUS
 62
       3
100
AcDbLine
 10
25.73788328
 20
-41.466433
 30
0.0
 11
25.84008281
 21
-41.47184413
 31
0.0
  0
LINE
  5
1DD
100
AcDbEntity
  8
レイヤー_1
  6
CONTINUOUS
 62
       3
100
AcDbLine
 10
25.84008281
 20
-41.47184413
 30
0.0
 11
25.97482086
 21
-41.47184413
 31
0.0
  0
LINE
  5
1DE
100
AcDbEntity
  8
レイヤー_1
  6
CONTINUOUS
 62
       3
100
AcDbLine
 10
25.97482086
 20
-41.47184413
 30
0.0
 11
26.35560232
 21
-41.47184413
 31
0.0
  0
LINE
  5
1DF
100
AcDbEntity
  8
レイヤー_1
  6
CONTINUOUS
 62
       3
100
AcDbLine
 10
26.35560232
 20
-41.47184413
 30
0.0
 11
26.94727813
 21
-41.47184413
 31
0.0
  0
LINE
  5
1E0
100
AcDbEntity
  8
レイヤー_1
  6
CONTINUOUS
 62
       3
100
AcDbLine
 10
26.94727813
 20
-41.47184413
 30
0.0
 11
27.71469922
 21
-41.47184413
 31
0.0
  0
LINE
  5
1E1
100
AcDbEntity
  8
レイヤー_1
  6
CONTINUOUS
 62
       3
100
AcDbLine
 10
27.71469922
 20
-41.47184413
 30
0.0
 11
28.62271654
 21
-41.47184413
 31
0.0
  0
LINE
  5
1E2
100
AcDbEntity
  8
レイヤー_1
  6
CONTINUOUS
 62
       3
100
AcDbLine
 10
28.62271654
 20
-41.47184413
 30
0.0
 11
29.63618104
 21
-41.47184413
 31
0.0
  0
LINE
  5
1E3
100
AcDbEntity
  8
レイヤー_1
  6
CONTINUOUS
 62
       3
100
AcDbLine
 10
29.63618104
 20
-41.47184413
 30
0.0
 11
30.71994365
 21
-41.47184413
 31
0.0
  0
LINE
  5
1E4
100
AcDbEntity
  8
レイヤー_1
  6
CONTINUOUS
 62
       3
100
AcDbLine
 10
30.71994365
 20
-41.47184413
 30
0.0
 11
31.83885532
 21
-41.47184413
 31
0.0
  0
LINE
  5
1E5
100
AcDbEntity
  8
レイヤー_1
  6
CONTINUOUS
 62
       3
100
AcDbLine
 10
31.83885532
 20
-41.47184413
 30
0.0
 11
32.95776699
 21
-41.47184413
 31
0.0
  0
LINE
  5
1E6
100
AcDbEntity
  8
レイヤー_1
  6
CONTINUOUS
 62
       3
100
AcDbLine
 10
32.95776699
 20
-41.47184413
 30
0.0
 11
34.0415296
 21
-41.47184413
 31
0.0
  0
LINE
  5
1E7
100
AcDbEntity
  8
レイヤー_1
  6
CONTINUOUS
 62
       3
100
AcDbLine
 10
34.0415296
 20
-41.47184413
 30
0.0
 11
35.0549941
 21
-41.47184413
 31
0.0
  0
LINE
  5
1E8
100
AcDbEntity
  8
レイヤー_1
  6
CONTINUOUS
 62
       3
100
AcDbLine
 10
35.0549941
 20
-41.47184413
 30
0.0
 11
35.96301142
 21
-41.47184413
 31
0.0
  0
LINE
  5
1E9
100
AcDbEntity
  8
レイヤー_1
  6
CONTINUOUS
 62
       3
100
AcDbLine
 10
35.96301142
 20
-41.47184413
 30
0.0
 11
36.73043252
 21
-41.47184413
 31
0.0
  0
LINE
  5
1EA
100
AcDbEntity
  8
レイヤー_1
  6
CONTINUOUS
 62
       3
100
AcDbLine
 10
36.73043252
 20
-41.47184413
 30
0.0
 11
37.32210832
 21
-41.47184413
 31
0.0
  0
LINE
  5
1EB
100
AcDbEntity
  8
レイヤー_1
  6
CONTINUOUS
 62
       3
100
AcDbLine
 10
37.32210832
 20
-41.47184413
 30
0.0
 11
37.70288978
 21
-41.47184413
 31
0.0
  0
LINE
  5
1EC
100
AcDbEntity
  8
レイヤー_1
  6
CONTINUOUS
 62
       3
100
AcDbLine
 10
37.70288978
 20
-41.47184413
 30
0.0
 11
37.83762784
 21
-41.47184413
 31
0.0
  0
LINE
  5
1ED
100
AcDbEntity
  8
レイヤー_1
  6
CONTINUOUS
 62
       3
100
AcDbLine
 10
37.83762784
 20
-41.47184413
 30
0.0
 11
37.86055168
 21
-41.44891544
 31
0.0
  0
LINE
  5
1EE
100
AcDbEntity
  8
レイヤー_1
  6
CONTINUOUS
 62
       3
100
AcDbLine
 10
37.86055168
 20
-41.44891544
 30
0.0
 11
37.92533647
 21
-41.38411699
 31
0.0
  0
LINE
  5
1EF
100
AcDbEntity
  8
レイヤー_1
  6
CONTINUOUS
 62
       3
100
AcDbLine
 10
37.92533647
 20
-41.38411699
 30
0.0
 11
38.02600206
 21
-41.28343018
 31
0.0
  0
LINE
  5
1F0
100
AcDbEntity
  8
レイヤー_1
  6
CONTINUOUS
 62
       3
100
AcDbLine
 10
38.02600206
 20
-41.28343018
 30
0.0
 11
38.15656832
 21
-41.15283636
 31
0.0
  0
LINE
  5
1F1
100
AcDbEntity
  8
レイヤー_1
  6
CONTINUOUS
 62
       3
100
AcDbLine
 10
38.15656832
 20
-41.15283636
 30
0.0
 11
38.31105511
 21
-40.99831697
 31
0.0
  0
LINE
  5
1F2
100
AcDbEntity
  8
レイヤー_1
  6
CONTINUOUS
 62
       3
100
AcDbLine
 10
38.31105511
 20
-40.99831697
 30
0.0
 11
38.48348231
 21
-40.82585341
 31
0.0
  0
LINE
  5
1F3
100
AcDbEntity
  8
レイヤー_1
  6
CONTINUOUS
 62
       3
100
AcDbLine
 10
38.48348231
 20
-40.82585341
 30
0.0
 11
38.66786977
 21
-40.64142704
 31
0.0
  0
LINE
  5
1F4
100
AcDbEntity
  8
レイヤー_1
  6
CONTINUOUS
 62
       3
100
AcDbLine
 10
38.66786977
 20
-40.64142704
 30
0.0
 11
38.85823737
 21
-40.45101928
 31
0.0
  0
LINE
  5
1F5
100
AcDbEntity
  8
レイヤー_1
  6
CONTINUOUS
 62
       3
100
AcDbLine
 10
38.85823737
 20
-40.45101928
 30
0.0
 11
39.04860497
 21
-40.26061151
 31
0.0
  0
LINE
  5
1F6
100
AcDbEntity
  8
レイヤー_1
  6
CONTINUOUS
 62
       3
100
AcDbLine
 10
39.04860497
 20
-40.26061151
 30
0.0
 11
39.23299244
 21
-40.07618516
 31
0.0
  0
LINE
  5
1F7
100
AcDbEntity
  8
レイヤー_1
  6
CONTINUOUS
 62
       3
100
AcDbLine
 10
39.23299244
 20
-40.07618516
 30
0.0
 11
39.40541963
 21
-39.90372158
 31
0.0
  0
LINE
  5
1F8
100
AcDbEntity
  8
レイヤー_1
  6
CONTINUOUS
 62
       3
100
AcDbLine
 10
39.40541963
 20
-39.90372158
 30
0.0
 11
39.55990643
 21
-39.74920219
 31
0.0
  0
LINE
  5
1F9
100
AcDbEntity
  8
レイヤー_1
  6
CONTINUOUS
 62
       3
100
AcDbLine
 10
39.55990643
 20
-39.74920219
 30
0.0
 11
39.69047269
 21
-39.61860839
 31
0.0
  0
LINE
  5
1FA
100
AcDbEntity
  8
レイヤー_1
  6
CONTINUOUS
 62
       3
100
AcDbLine
 10
39.69047269
 20
-39.61860839
 30
0.0
 11
39.79113828
 21
-39.51792156
 31
0.0
  0
LINE
  5
1FB
100
AcDbEntity
  8
レイヤー_1
  6
CONTINUOUS
 62
       3
100
AcDbLine
 10
39.79113828
 20
-39.51792156
 30
0.0
 11
39.85592306
 21
-39.45312311
 31
0.0
  0
LINE
  5
1FC
100
AcDbEntity
  8
レイヤー_1
  6
CONTINUOUS
 62
       3
100
AcDbLine
 10
39.85592306
 20
-39.45312311
 30
0.0
 11
39.87884691
 21
-39.43019442
 31
0.0
  0
LINE
  5
1FD
100
AcDbEntity
  8
レイヤー_1
  6
CONTINUOUS
 62
       3
100
AcDbLine
 10
52.37420824
 20
-16.86309645
 30
0.0
 11
52.37420824
 21
-14.86364916
 31
0.0
  0
LINE
  5
1FE
100
AcDbEntity
  8
レイヤー_1
  6
CONTINUOUS
 62
       3
100
AcDbLine
 10
52.37420824
 20
-14.86364916
 30
0.0
 11
52.86857944
 21
-14.86364916
 31
0.0
  0
LINE
  5
1FF
100
AcDbEntity
  8
レイヤー_1
  6
CONTINUOUS
 62
       3
100
AcDbLine
 10
52.86857944
 20
-14.86364916
 30
0.0
 11
54.87362501
 21
-16.86309645
 31
0.0
  0
LINE
  5
200
100
AcDbEntity
  8
レイヤー_1
  6
CONTINUOUS
 62
       3
100
AcDbLine
 10
52.37420824
 20
18.09816316
 30
0.0
 11
52.37420824
 21
16.09871589
 31
0.0
  0
LINE
  5
201
100
AcDbEntity
  8
レイヤー_1
  6
CONTINUOUS
 62
       3
100
AcDbLine
 10
52.37420824
 20
16.09871589
 30
0.0
 11
52.86857944
 21
16.09871589
 31
0.0
  0
LINE
  5
202
100
AcDbEntity
  8
レイヤー_1
  6
CONTINUOUS
 62
       3
100
AcDbLine
 10
52.86857944
 20
16.09871589
 30
0.0
 11
54.87362501
 21
18.09816316
 31
0.0
  0
LINE
  5
203
100
AcDbEntity
  8
レイヤー_1
  6
CONTINUOUS
 62
       3
100
AcDbLine
 10
143.78306915
 20
25.84962802
 30
0.0
 11
143.99476999
 21
25.98617783
 31
0.0
  0
LINE
  5
204
100
AcDbEntity
  8
レイヤー_1
  6
CONTINUOUS
 62
       3
100
AcDbLine
 10
143.99476999
 20
25.98617783
 30
0.0
 11
144.18818242
 21
26.14016734
 31
0.0
  0
LINE
  5
205
100
AcDbEntity
  8
レイヤー_1
  6
CONTINUOUS
 62
       3
100
AcDbLine
 10
144.18818242
 20
26.14016734
 30
0.0
 11
144.36286567
 21
26.30995566
 31
0.0
  0
LINE
  5
206
100
AcDbEntity
  8
レイヤー_1
  6
CONTINUOUS
 62
       3
100
AcDbLine
 10
144.36286567
 20
26.30995566
 30
0.0
 11
144.51837899
 21
26.49390195
 31
0.0
  0
LINE
  5
207
100
AcDbEntity
  8
レイヤー_1
  6
CONTINUOUS
 62
       3
100
AcDbLine
 10
144.51837899
 20
26.49390195
 30
0.0
 11
144.65428158
 21
26.69036539
 31
0.0
  0
LINE
  5
208
100
AcDbEntity
  8
レイヤー_1
  6
CONTINUOUS
 62
       3
100
AcDbLine
 10
144.65428158
 20
26.69036539
 30
0.0
 11
144.77013267
 21
26.89770508
 31
0.0
  0
LINE
  5
209
100
AcDbEntity
  8
レイヤー_1
  6
CONTINUOUS
 62
       3
100
AcDbLine
 10
144.77013267
 20
26.89770508
 30
0.0
 11
144.86549152
 21
27.11428022
 31
0.0
  0
LINE
  5
20A
100
AcDbEntity
  8
レイヤー_1
  6
CONTINUOUS
 62
       3
100
AcDbLine
 10
144.86549152
 20
27.11428022
 30
0.0
 11
144.93991732
 21
27.33844995
 31
0.0
  0
LINE
  5
20B
100
AcDbEntity
  8
レイヤー_1
  6
CONTINUOUS
 62
       3
100
AcDbLine
 10
144.93991732
 20
27.33844995
 30
0.0
 11
144.99296932
 21
27.56857339
 31
0.0
  0
LINE
  5
20C
100
AcDbEntity
  8
レイヤー_1
  6
CONTINUOUS
 62
       3
100
AcDbLine
 10
144.99296932
 20
27.56857339
 30
0.0
 11
145.02420674
 21
27.8030097
 31
0.0
  0
LINE
  5
20D
100
AcDbEntity
  8
レイヤー_1
  6
CONTINUOUS
 62
       3
100
AcDbLine
 10
145.02420674
 20
27.8030097
 30
0.0
 11
145.03318881
 21
28.04011805
 31
0.0
  0
LINE
  5
20E
100
AcDbEntity
  8
レイヤー_1
  6
CONTINUOUS
 62
       3
100
AcDbLine
 10
145.03318881
 20
28.04011805
 30
0.0
 11
145.01947477
 21
28.27825757
 31
0.0
  0
LINE
  5
20F
100
AcDbEntity
  8
レイヤー_1
  6
CONTINUOUS
 62
       3
100
AcDbLine
 10
145.01947477
 20
28.27825757
 30
0.0
 11
144.98262384
 21
28.51578741
 31
0.0
  0
LINE
  5
210
100
AcDbEntity
  8
レイヤー_1
  6
CONTINUOUS
 62
       3
100
AcDbLine
 10
144.98262384
 20
28.51578741
 30
0.0
 11
144.92219524
 21
28.75106673
 31
0.0
  0
LINE
  5
211
100
AcDbEntity
  8
レイヤー_1
  6
CONTINUOUS
 62
       3
100
AcDbLine
 10
144.92219524
 20
28.75106673
 30
0.0
 11
144.83774819
 21
28.98245468
 31
0.0
  0
LINE
  5
212
100
AcDbEntity
  8
レイヤー_1
  6
CONTINUOUS
 62
       3
100
AcDbLine
 10
144.83774819
 20
28.98245468
 30
0.0
 11
144.72884196
 21
29.20831042
 31
0.0
  0
LINE
  5
213
100
AcDbEntity
  8
レイヤー_1
  6
CONTINUOUS
 62
       3
100
AcDbLine
 10
144.72884196
 20
29.20831042
 30
0.0
 11
144.59697969
 21
29.42418792
 31
0.0
  0
LINE
  5
214
100
AcDbEntity
  8
レイヤー_1
  6
CONTINUOUS
 62
       3
100
AcDbLine
 10
144.59697969
 20
29.42418792
 30
0.0
 11
144.44716126
 21
29.62220254
 31
0.0
  0
LINE
  5
215
100
AcDbEntity
  8
レイヤー_1
  6
CONTINUOUS
 62
       3
100
AcDbLine
 10
144.44716126
 20
29.62220254
 30
0.0
 11
144.28116343
 21
29.80159048
 31
0.0
  0
LINE
  5
216
100
AcDbEntity
  8
レイヤー_1
  6
CONTINUOUS
 62
       3
100
AcDbLine
 10
144.28116343
 20
29.80159048
 30
0.0
 11
144.10062165
 21
29.96191221
 31
0.0
  0
LINE
  5
217
100
AcDbEntity
  8
レイヤー_1
  6
CONTINUOUS
 62
       3
100
AcDbLine
 10
144.10062165
 20
29.96191221
 30
0.0
 11
143.90717134
 21
30.10272816
 31
0.0
  0
LINE
  5
218
100
AcDbEntity
  8
レイヤー_1
  6
CONTINUOUS
 62
       3
100
AcDbLine
 10
143.90717134
 20
30.10272816
 30
0.0
 11
143.70244794
 21
30.22359872
 31
0.0
  0
LINE
  5
219
100
AcDbEntity
  8
レイヤー_1
  6
CONTINUOUS
 62
       3
100
AcDbLine
 10
143.70244794
 20
30.22359872
 30
0.0
 11
143.48808687
 21
30.32408437
 31
0.0
  0
LINE
  5
21A
100
AcDbEntity
  8
レイヤー_1
  6
CONTINUOUS
 62
       3
100
AcDbLine
 10
143.48808687
 20
30.32408437
 30
0.0
 11
143.26572359
 21
30.40374552
 31
0.0
  0
LINE
  5
21B
100
AcDbEntity
  8
レイヤー_1
  6
CONTINUOUS
 62
       3
100
AcDbLine
 10
143.26572359
 20
30.40374552
 30
0.0
 11
143.0369935
 21
30.4621426
 31
0.0
  0
LINE
  5
21C
100
AcDbEntity
  8
レイヤー_1
  6
CONTINUOUS
 62
       3
100
AcDbLine
 10
143.0369935
 20
30.4621426
 30
0.0
 11
142.80353204
 21
30.49883605
 31
0.0
  0
LINE
  5
21D
100
AcDbEntity
  8
レイヤー_1
  6
CONTINUOUS
 62
       3
100
AcDbLine
 10
142.80353204
 20
30.49883605
 30
0.0
 11
142.56697464
 21
30.51338631
 31
0.0
  0
LINE
  5
21E
100
AcDbEntity
  8
レイヤー_1
  6
CONTINUOUS
 62
       3
100
AcDbLine
 10
142.56697464
 20
30.51338631
 30
0.0
 11
142.32895673
 21
30.50535379
 31
0.0
  0
LINE
  5
21F
100
AcDbEntity
  8
レイヤー_1
  6
CONTINUOUS
 62
       3
100
AcDbLine
 10
142.32895673
 20
30.50535379
 30
0.0
 11
142.09111376
 21
30.47429895
 31
0.0
  0
LINE
  5
220
100
AcDbEntity
  8
レイヤー_1
  6
CONTINUOUS
 62
       3
100
AcDbLine
 10
142.09111376
 20
30.47429895
 30
0.0
 11
141.85508113
 21
30.4197822
 31
0.0
  0
LINE
  5
221
100
AcDbEntity
  8
レイヤー_1
  6
CONTINUOUS
 62
       3
100
AcDbLine
 10
141.85508113
 20
30.4197822
 30
0.0
 11
141.62249428
 21
30.34136399
 31
0.0
  0
LINE
  5
222
100
AcDbEntity
  8
レイヤー_1
  6
CONTINUOUS
 62
       3
100
AcDbLine
 10
141.62249428
 20
30.34136399
 30
0.0
 11
141.39498865
 21
30.23860472
 31
0.0
  0
LINE
  5
223
100
AcDbEntity
  8
レイヤー_1
  6
CONTINUOUS
 62
       3
100
AcDbLine
 10
141.39498865
 20
30.23860472
 30
0.0
 11
141.17561814
 21
30.11196865
 31
0.0
  0
LINE
  5
224
100
AcDbEntity
  8
レイヤー_1
  6
CONTINUOUS
 62
       3
100
AcDbLine
 10
141.17561814
 20
30.11196865
 30
0.0
 11
140.97312823
 21
29.96650269
 31
0.0
  0
LINE
  5
225
100
AcDbEntity
  8
レイヤー_1
  6
CONTINUOUS
 62
       3
100
AcDbLine
 10
140.97312823
 20
29.96650269
 30
0.0
 11
140.78911339
 21
29.80442455
 31
0.0
  0
LINE
  5
226
100
AcDbEntity
  8
レイヤー_1
  6
CONTINUOUS
 62
       3
100
AcDbLine
 10
140.78911339
 20
29.80442455
 30
0.0
 11
140.624018
 21
29.62737329
 31
0.0
  0
LINE
  5
227
100
AcDbEntity
  8
レイヤー_1
  6
CONTINUOUS
 62
       3
100
AcDbLine
 10
140.624018
 20
29.62737329
 30
0.0
 11
140.47828646
 21
29.43698793
 31
0.0
  0
LINE
  5
228
100
AcDbEntity
  8
レイヤー_1
  6
CONTINUOUS
 62
       3
100
AcDbLine
 10
140.47828646
 20
29.43698793
 30
0.0
 11
140.35236313
 21
29.23490753
 31
0.0
  0
LINE
  5
229
100
AcDbEntity
  8
レイヤー_1
  6
CONTINUOUS
 62
       3
100
AcDbLine
 10
140.35236313
 20
29.23490753
 30
0.0
 11
140.24669242
 21
29.02277112
 31
0.0
  0
LINE
  5
22A
100
AcDbEntity
  8
レイヤー_1
  6
CONTINUOUS
 62
       3
100
AcDbLine
 10
140.24669242
 20
29.02277112
 30
0.0
 11
140.16171869
 21
28.80221775
 31
0.0
  0
LINE
  5
22B
100
AcDbEntity
  8
レイヤー_1
  6
CONTINUOUS
 62
       3
100
AcDbLine
 10
140.16171869
 20
28.80221775
 30
0.0
 11
140.09788634
 21
28.57488645
 31
0.0
  0
LINE
  5
22C
100
AcDbEntity
  8
レイヤー_1
  6
CONTINUOUS
 62
       3
100
AcDbLine
 10
140.09788634
 20
28.57488645
 30
0.0
 11
140.05563975
 21
28.34241628
 31
0.0
  0
LINE
  5
22D
100
AcDbEntity
  8
レイヤー_1
  6
CONTINUOUS
 62
       3
100
AcDbLine
 10
140.05563975
 20
28.34241628
 30
0.0
 11
140.03542332
 21
28.1064463
 31
0.0
  0
LINE
  5
22E
100
AcDbEntity
  8
レイヤー_1
  6
CONTINUOUS
 62
       3
100
AcDbLine
 10
140.03542332
 20
28.1064463
 30
0.0
 11
140.0376814
 21
27.86861555
 31
0.0
  0
LINE
  5
22F
100
AcDbEntity
  8
レイヤー_1
  6
CONTINUOUS
 62
       3
100
AcDbLine
 10
140.0376814
 20
27.86861555
 30
0.0
 11
140.06285841
 21
27.63056303
 31
0.0
  0
LINE
  5
230
100
AcDbEntity
  8
レイヤー_1
  6
CONTINUOUS
 62
       3
100
AcDbLine
 10
140.06285841
 20
27.63056303
 30
0.0
 11
140.11139871
 21
27.39392781
 31
0.0
  0
LINE
  5
231
100
AcDbEntity
  8
レイヤー_1
  6
CONTINUOUS
 62
       3
100
AcDbLine
 10
140.11139871
 20
27.39392781
 30
0.0
 11
140.18374668
 21
27.16034896
 31
0.0
  0
LINE
  5
232
100
AcDbEntity
  8
レイヤー_1
  6
CONTINUOUS
 62
       3
100
AcDbLine
 10
140.18374668
 20
27.16034896
 30
0.0
 11
140.28034673
 21
26.93146549
 31
0.0
  0
LINE
  5
233
100
AcDbEntity
  8
レイヤー_1
  6
CONTINUOUS
 62
       3
100
AcDbLine
 10
140.28034673
 20
26.93146549
 30
0.0
 11
140.40141215
 21
26.70927417
 31
0.0
  0
LINE
  5
234
100
AcDbEntity
  8
レイヤー_1
  6
CONTINUOUS
 62
       3
100
AcDbLine
 10
140.40141215
 20
26.70927417
 30
0.0
 11
140.54255463
 21
26.50217646
 31
0.0
  0
LINE
  5
235
100
AcDbEntity
  8
レイヤー_1
  6
CONTINUOUS
 62
       3
100
AcDbLine
 10
140.54255463
 20
26.50217646
 30
0.0
 11
140.70072432
 21
26.31346832
 31
0.0
  0
LINE
  5
236
100
AcDbEntity
  8
レイヤー_1
  6
CONTINUOUS
 62
       3
100
AcDbLine
 10
140.70072432
 20
26.31346832
 30
0.0
 11
140.87427857
 21
26.14359113
 31
0.0
  0
LINE
  5
237
100
AcDbEntity
  8
レイヤー_1
  6
CONTINUOUS
 62
       3
100
AcDbLine
 10
140.87427857
 20
26.14359113
 30
0.0
 11
141.06157471
 21
25.99298624
 31
0.0
  0
LINE
  5
238
100
AcDbEntity
  8
レイヤー_1
  6
CONTINUOUS
 62
       3
100
AcDbLine
 10
141.06157471
 20
25.99298624
 30
0.0
 11
141.26097009
 21
25.86209505
 31
0.0
  0
LINE
  5
239
100
AcDbEntity
  8
レイヤー_1
  6
CONTINUOUS
 62
       3
100
AcDbLine
 10
141.26097009
 20
25.86209505
 30
0.0
 11
141.47082205
 21
25.75135891
 31
0.0
  0
LINE
  5
23A
100
AcDbEntity
  8
レイヤー_1
  6
CONTINUOUS
 62
       3
100
AcDbLine
 10
141.47082205
 20
25.75135891
 30
0.0
 11
141.68948793
 21
25.6612192
 31
0.0
  0
LINE
  5
23B
100
AcDbEntity
  8
レイヤー_1
  6
CONTINUOUS
 62
       3
100
AcDbLine
 10
141.68948793
 20
25.6612192
 30
0.0
 11
141.91532508
 21
25.5921173
 31
0.0
  0
LINE
  5
23C
100
AcDbEntity
  8
レイヤー_1
  6
CONTINUOUS
 62
       3
100
AcDbLine
 10
141.91532508
 20
25.5921173
 30
0.0
 11
142.14669084
 21
25.54449457
 31
0.0
  0
LINE
  5
23D
100
AcDbEntity
  8
レイヤー_1
  6
CONTINUOUS
 62
       3
100
AcDbLine
 10
142.14669084
 20
25.54449457
 30
0.0
 11
142.38194255
 21
25.51879243
 31
0.0
  0
LINE
  5
23E
100
AcDbEntity
  8
レイヤー_1
  6
CONTINUOUS
 62
       3
100
AcDbLine
 10
142.38194255
 20
25.51879243
 30
0.0
 11
142.61943758
 21
25.51545219
 31
0.0
  0
LINE
  5
23F
100
AcDbEntity
  8
レイヤー_1
  6
CONTINUOUS
 62
       3
100
AcDbLine
 10
142.61943758
 20
25.51545219
 30
0.0
 11
142.85753324
 21
25.53491525
 31
0.0
  0
LINE
  5
240
100
AcDbEntity
  8
レイヤー_1
  6
CONTINUOUS
 62
       3
100
AcDbLine
 10
142.85753324
 20
25.53491525
 30
0.0
 11
143.09458688
 21
25.57762299
 31
0.0
  0
LINE
  5
241
100
AcDbEntity
  8
レイヤー_1
  6
CONTINUOUS
 62
       3
100
AcDbLine
 10
143.09458688
 20
25.57762299
 30
0.0
 11
143.32895585
 21
25.64401678
 31
0.0
  0
LINE
  5
242
100
AcDbEntity
  8
レイヤー_1
  6
CONTINUOUS
 62
       3
100
AcDbLine
 10
143.32895585
 20
25.64401678
 30
0.0
 11
143.55899748
 21
25.73453801
 31
0.0
  0
LINE
  5
243
100
AcDbEntity
  8
レイヤー_1
  6
CONTINUOUS
 62
       3
100
AcDbLine
 10
143.55899748
 20
25.73453801
 30
0.0
 11
143.78306915
 21
25.84962802
 31
0.0
  0
LINE
  5
244
100
AcDbEntity
  8
レイヤー_1
  6
CONTINUOUS
 62
       3
100
AcDbLine
 10
139.01936337
 20
24.53274027
 30
0.0
 11
146.01807485
 21
24.53274027
 31
0.0
  0
LINE
  5
245
100
AcDbEntity
  8
レイヤー_1
  6
CONTINUOUS
 62
       3
100
AcDbLine
 10
146.01807485
 20
24.53274027
 30
0.0
 11
146.01807485
 21
31.53102111
 31
0.0
  0
LINE
  5
246
100
AcDbEntity
  8
レイヤー_1
  6
CONTINUOUS
 62
       3
100
AcDbLine
 10
146.01807485
 20
31.53102111
 30
0.0
 11
139.01936337
 21
31.53102111
 31
0.0
  0
LINE
  5
247
100
AcDbEntity
  8
レイヤー_1
  6
CONTINUOUS
 62
       3
100
AcDbLine
 10
139.01936337
 20
31.53102111
 30
0.0
 11
139.01936337
 21
24.53274027
 31
0.0
  0
LINE
  5
248
100
AcDbEntity
  8
レイヤー_1
  6
CONTINUOUS
 62
       3
100
AcDbLine
 10
138.48020592
 20
38.57064309
 30
0.0
 11
138.48020592
 21
23.57414246
 31
0.0
  0
LINE
  5
249
100
AcDbEntity
  8
レイヤー_1
  6
CONTINUOUS
 62
       3
100
AcDbLine
 10
138.48020592
 20
23.57414246
 30
0.0
 11
146.47799509
 21
23.57414246
 31
0.0
  0
LINE
  5
24A
100
AcDbEntity
  8
レイヤー_1
  6
CONTINUOUS
 62
       3
100
AcDbLine
 10
146.47799509
 20
23.57414246
 30
0.0
 11
146.47799509
 21
38.57064309
 31
0.0
  0
LINE
  5
24B
100
AcDbEntity
  8
レイヤー_1
  6
CONTINUOUS
 62
       3
100
AcDbLine
 10
121.98767255
 20
-31.91773309
 30
0.0
 11
124.98748946
 21
-31.91773309
 31
0.0
  0
LINE
  5
24C
100
AcDbEntity
  8
レイヤー_1
  6
CONTINUOUS
 62
       3
100
AcDbLine
 10
124.98748946
 20
-31.91773309
 30
0.0
 11
124.98748946
 21
-41.39002312
 31
0.0
  0
LINE
  5
24D
100
AcDbEntity
  8
レイヤー_1
  6
CONTINUOUS
 62
       3
100
AcDbLine
 10
124.98748946
 20
-41.39002312
 30
0.0
 11
121.98767255
 21
-41.39002312
 31
0.0
  0
LINE
  5
24E
100
AcDbEntity
  8
レイヤー_1
  6
CONTINUOUS
 62
       3
100
AcDbLine
 10
121.98767255
 20
-41.39002312
 30
0.0
 11
121.98767255
 21
-31.91773309
 31
0.0
  0
LINE
  5
24F
100
AcDbEntity
  8
レイヤー_1
  6
CONTINUOUS
 62
       3
100
AcDbLine
 10
133.78626333
 20
25.84962802
 30
0.0
 11
133.99795498
 21
25.98617783
 31
0.0
  0
LINE
  5
250
100
AcDbEntity
  8
レイヤー_1
  6
CONTINUOUS
 62
       3
100
AcDbLine
 10
133.99795498
 20
25.98617783
 30
0.0
 11
134.19134228
 21
26.14016734
 31
0.0
  0
LINE
  5
251
100
AcDbEntity
  8
レイヤー_1
  6
CONTINUOUS
 62
       3
100
AcDbLine
 10
134.19134228
 20
26.14016734
 30
0.0
 11
134.36598805
 21
26.30995566
 31
0.0
  0
LINE
  5
252
100
AcDbEntity
  8
レイヤー_1
  6
CONTINUOUS
 62
       3
100
AcDbLine
 10
134.36598805
 20
26.30995566
 30
0.0
 11
134.52145515
 21
26.49390195
 31
0.0
  0
LINE
  5
253
100
AcDbEntity
  8
レイヤー_1
  6
CONTINUOUS
 62
       3
100
AcDbLine
 10
134.52145515
 20
26.49390195
 30
0.0
 11
134.6573064
 21
26.69036539
 31
0.0
  0
LINE
  5
254
100
AcDbEntity
  8
レイヤー_1
  6
CONTINUOUS
 62
       3
100
AcDbLine
 10
134.6573064
 20
26.69036539
 30
0.0
 11
134.77310467
 21
26.89770508
 31
0.0
  0
LINE
  5
255
100
AcDbEntity
  8
レイヤー_1
  6
CONTINUOUS
 62
       3
100
AcDbLine
 10
134.77310467
 20
26.89770508
 30
0.0
 11
134.86841276
 21
27.11428022
 31
0.0
  0
LINE
  5
256
100
AcDbEntity
  8
レイヤー_1
  6
CONTINUOUS
 62
       3
100
AcDbLine
 10
134.86841276
 20
27.11428022
 30
0.0
 11
134.94279357
 21
27.33844995
 31
0.0
  0
LINE
  5
257
100
AcDbEntity
  8
レイヤー_1
  6
CONTINUOUS
 62
       3
100
AcDbLine
 10
134.94279357
 20
27.33844995
 30
0.0
 11
134.99580989
 21
27.56857339
 31
0.0
  0
LINE
  5
258
100
AcDbEntity
  8
レイヤー_1
  6
CONTINUOUS
 62
       3
100
AcDbLine
 10
134.99580989
 20
27.56857339
 30
0.0
 11
135.02702458
 21
27.8030097
 31
0.0
  0
LINE
  5
259
100
AcDbEntity
  8
レイヤー_1
  6
CONTINUOUS
 62
       3
100
AcDbLine
 10
135.02702458
 20
27.8030097
 30
0.0
 11
135.03600048
 21
28.04011805
 31
0.0
  0
LINE
  5
25A
100
AcDbEntity
  8
レイヤー_1
  6
CONTINUOUS
 62
       3
100
AcDbLine
 10
135.03600048
 20
28.04011805
 30
0.0
 11
135.02230044
 21
28.27825757
 31
0.0
  0
LINE
  5
25B
100
AcDbEntity
  8
レイヤー_1
  6
CONTINUOUS
 62
       3
100
AcDbLine
 10
135.02230044
 20
28.27825757
 30
0.0
 11
134.98548728
 21
28.51578741
 31
0.0
  0
LINE
  5
25C
100
AcDbEntity
  8
レイヤー_1
  6
CONTINUOUS
 62
       3
100
AcDbLine
 10
134.98548728
 20
28.51578741
 30
0.0
 11
134.92512387
 21
28.75106673
 31
0.0
  0
LINE
  5
25D
100
AcDbEntity
  8
レイヤー_1
  6
CONTINUOUS
 62
       3
100
AcDbLine
 10
134.92512387
 20
28.75106673
 30
0.0
 11
134.84077303
 21
28.98245468
 31
0.0
  0
LINE
  5
25E
100
AcDbEntity
  8
レイヤー_1
  6
CONTINUOUS
 62
       3
100
AcDbLine
 10
134.84077303
 20
28.98245468
 30
0.0
 11
134.7319976
 21
29.20831042
 31
0.0
  0
LINE
  5
25F
100
AcDbEntity
  8
レイヤー_1
  6
CONTINUOUS
 62
       3
100
AcDbLine
 10
134.7319976
 20
29.20831042
 30
0.0
 11
134.60016863
 21
29.42418792
 31
0.0
  0
LINE
  5
260
100
AcDbEntity
  8
レイヤー_1
  6
CONTINUOUS
 62
       3
100
AcDbLine
 10
134.60016863
 20
29.42418792
 30
0.0
 11
134.4503287
 21
29.62220254
 31
0.0
  0
LINE
  5
261
100
AcDbEntity
  8
レイヤー_1
  6
CONTINUOUS
 62
       3
100
AcDbLine
 10
134.4503287
 20
29.62220254
 30
0.0
 11
134.28429613
 21
29.80159048
 31
0.0
  0
LINE
  5
262
100
AcDbEntity
  8
レイヤー_1
  6
CONTINUOUS
 62
       3
100
AcDbLine
 10
134.28429613
 20
29.80159048
 30
0.0
 11
134.10370997
 21
29.96191221
 31
0.0
  0
LINE
  5
263
100
AcDbEntity
  8
レイヤー_1
  6
CONTINUOUS
 62
       3
100
AcDbLine
 10
134.10370997
 20
29.96191221
 30
0.0
 11
133.91020928
 21
30.10272816
 31
0.0
  0
LINE
  5
264
100
AcDbEntity
  8
レイヤー_1
  6
CONTINUOUS
 62
       3
100
AcDbLine
 10
133.91020928
 20
30.10272816
 30
0.0
 11
133.70543308
 21
30.22359872
 31
0.0
  0
LINE
  5
265
100
AcDbEntity
  8
レイヤー_1
  6
CONTINUOUS
 62
       3
100
AcDbLine
 10
133.70543308
 20
30.22359872
 30
0.0
 11
133.49102042
 21
30.32408437
 31
0.0
  0
LINE
  5
266
100
AcDbEntity
  8
レイヤー_1
  6
CONTINUOUS
 62
       3
100
AcDbLine
 10
133.49102042
 20
30.32408437
 30
0.0
 11
133.26861035
 21
30.40374552
 31
0.0
  0
LINE
  5
267
100
AcDbEntity
  8
レイヤー_1
  6
CONTINUOUS
 62
       3
100
AcDbLine
 10
133.26861035
 20
30.40374552
 30
0.0
 11
133.03984191
 21
30.4621426
 31
0.0
  0
LINE
  5
268
100
AcDbEntity
  8
レイヤー_1
  6
CONTINUOUS
 62
       3
100
AcDbLine
 10
133.03984191
 20
30.4621426
 30
0.0
 11
132.80635415
 21
30.49883605
 31
0.0
  0
LINE
  5
269
100
AcDbEntity
  8
レイヤー_1
  6
CONTINUOUS
 62
       3
100
AcDbLine
 10
132.80635415
 20
30.49883605
 30
0.0
 11
132.5697861
 21
30.51338631
 31
0.0
  0
LINE
  5
26A
100
AcDbEntity
  8
レイヤー_1
  6
CONTINUOUS
 62
       3
100
AcDbLine
 10
132.5697861
 20
30.51338631
 30
0.0
 11
132.33177681
 21
30.50535379
 31
0.0
  0
LINE
  5
26B
100
AcDbEntity
  8
レイヤー_1
  6
CONTINUOUS
 62
       3
100
AcDbLine
 10
132.33177681
 20
30.50535379
 30
0.0
 11
132.09396533
 21
30.47429895
 31
0.0
  0
LINE
  5
26C
100
AcDbEntity
  8
レイヤー_1
  6
CONTINUOUS
 62
       3
100
AcDbLine
 10
132.09396533
 20
30.47429895
 30
0.0
 11
131.8579907
 21
30.4197822
 31
0.0
  0
LINE
  5
26D
100
AcDbEntity
  8
レイヤー_1
  6
CONTINUOUS
 62
       3
100
AcDbLine
 10
131.8579907
 20
30.4197822
 30
0.0
 11
131.62549196
 21
30.34136399
 31
0.0
  0
LINE
  5
26E
100
AcDbEntity
  8
レイヤー_1
  6
CONTINUOUS
 62
       3
100
AcDbLine
 10
131.62549196
 20
30.34136399
 30
0.0
 11
131.39810815
 21
30.23860472
 31
0.0
  0
LINE
  5
26F
100
AcDbEntity
  8
レイヤー_1
  6
CONTINUOUS
 62
       3
100
AcDbLine
 10
131.39810815
 20
30.23860472
 30
0.0
 11
131.17873763
 21
30.11196865
 31
0.0
  0
LINE
  5
270
100
AcDbEntity
  8
レイヤー_1
  6
CONTINUOUS
 62
       3
100
AcDbLine
 10
131.17873763
 20
30.11196865
 30
0.0
 11
130.9761259
 21
29.96650269
 31
0.0
  0
LINE
  5
271
100
AcDbEntity
  8
レイヤー_1
  6
CONTINUOUS
 62
       3
100
AcDbLine
 10
130.9761259
 20
29.96650269
 30
0.0
 11
130.79202296
 21
29.80442455
 31
0.0
  0
LINE
  5
272
100
AcDbEntity
  8
レイヤー_1
  6
CONTINUOUS
 62
       3
100
AcDbLine
 10
130.79202296
 20
29.80442455
 30
0.0
 11
130.62686958
 21
29.62737329
 31
0.0
  0
LINE
  5
273
100
AcDbEntity
  8
レイヤー_1
  6
CONTINUOUS
 62
       3
100
AcDbLine
 10
130.62686958
 20
29.62737329
 30
0.0
 11
130.48110653
 21
29.43698793
 31
0.0
  0
LINE
  5
274
100
AcDbEntity
  8
レイヤー_1
  6
CONTINUOUS
 62
       3
100
AcDbLine
 10
130.48110653
 20
29.43698793
 30
0.0
 11
130.35517459
 21
29.23490753
 31
0.0
  0
LINE
  5
275
100
AcDbEntity
  8
レイヤー_1
  6
CONTINUOUS
 62
       3
100
AcDbLine
 10
130.35517459
 20
29.23490753
 30
0.0
 11
130.24951452
 21
29.02277112
 31
0.0
  0
LINE
  5
276
100
AcDbEntity
  8
レイヤー_1
  6
CONTINUOUS
 62
       3
100
AcDbLine
 10
130.24951452
 20
29.02277112
 30
0.0
 11
130.1645671
 21
28.80221775
 31
0.0
  0
LINE
  5
277
100
AcDbEntity
  8
レイヤー_1
  6
CONTINUOUS
 62
       3
100
AcDbLine
 10
130.1645671
 20
28.80221775
 30
0.0
 11
130.10077309
 21
28.57488645
 31
0.0
  0
LINE
  5
278
100
AcDbEntity
  8
レイヤー_1
  6
CONTINUOUS
 62
       3
100
AcDbLine
 10
130.10077309
 20
28.57488645
 30
0.0
 11
130.0585733
 21
28.34241628
 31
0.0
  0
LINE
  5
279
100
AcDbEntity
  8
レイヤー_1
  6
CONTINUOUS
 62
       3
100
AcDbLine
 10
130.0585733
 20
28.34241628
 30
0.0
 11
130.03840844
 21
28.1064463
 31
0.0
  0
LINE
  5
27A
100
AcDbEntity
  8
レイヤー_1
  6
CONTINUOUS
 62
       3
100
AcDbLine
 10
130.03840844
 20
28.1064463
 30
0.0
 11
130.04071934
 21
27.86861555
 31
0.0
  0
LINE
  5
27B
100
AcDbEntity
  8
レイヤー_1
  6
CONTINUOUS
 62
       3
100
AcDbLine
 10
130.04071934
 20
27.86861555
 30
0.0
 11
130.06594674
 21
27.63056303
 31
0.0
  0
LINE
  5
27C
100
AcDbEntity
  8
レイヤー_1
  6
CONTINUOUS
 62
       3
100
AcDbLine
 10
130.06594674
 20
27.63056303
 30
0.0
 11
130.11453141
 21
27.39392781
 31
0.0
  0
LINE
  5
27D
100
AcDbEntity
  8
レイヤー_1
  6
CONTINUOUS
 62
       3
100
AcDbLine
 10
130.11453141
 20
27.39392781
 30
0.0
 11
130.18691413
 21
27.16034896
 31
0.0
  0
LINE
  5
27E
100
AcDbEntity
  8
レイヤー_1
  6
CONTINUOUS
 62
       3
100
AcDbLine
 10
130.18691413
 20
27.16034896
 30
0.0
 11
130.28353567
 21
26.93146549
 31
0.0
  0
LINE
  5
27F
100
AcDbEntity
  8
レイヤー_1
  6
CONTINUOUS
 62
       3
100
AcDbLine
 10
130.28353567
 20
26.93146549
 30
0.0
 11
130.40460572
 21
26.70927417
 31
0.0
  0
LINE
  5
280
100
AcDbEntity
  8
レイヤー_1
  6
CONTINUOUS
 62
       3
100
AcDbLine
 10
130.40460572
 20
26.70927417
 30
0.0
 11
130.54573468
 21
26.50217646
 31
0.0
  0
LINE
  5
281
100
AcDbEntity
  8
レイヤー_1
  6
CONTINUOUS
 62
       3
100
AcDbLine
 10
130.54573468
 20
26.50217646
 30
0.0
 11
130.70387582
 21
26.31346832
 31
0.0
  0
LINE
  5
282
100
AcDbEntity
  8
レイヤー_1
  6
CONTINUOUS
 62
       3
100
AcDbLine
 10
130.70387582
 20
26.31346832
 30
0.0
 11
130.87739006
 21
26.14359113
 31
0.0
  0
LINE
  5
283
100
AcDbEntity
  8
レイヤー_1
  6
CONTINUOUS
 62
       3
100
AcDbLine
 10
130.87739006
 20
26.14359113
 30
0.0
 11
131.06463837
 21
25.99298624
 31
0.0
  0
LINE
  5
284
100
AcDbEntity
  8
レイヤー_1
  6
CONTINUOUS
 62
       3
100
AcDbLine
 10
131.06463837
 20
25.99298624
 30
0.0
 11
131.2639817
 21
25.86209505
 31
0.0
  0
LINE
  5
285
100
AcDbEntity
  8
レイヤー_1
  6
CONTINUOUS
 62
       3
100
AcDbLine
 10
131.2639817
 20
25.86209505
 30
0.0
 11
131.47378101
 21
25.75135891
 31
0.0
  0
LINE
  5
286
100
AcDbEntity
  8
レイヤー_1
  6
CONTINUOUS
 62
       3
100
AcDbLine
 10
131.47378101
 20
25.75135891
 30
0.0
 11
131.69239725
 21
25.6612192
 31
0.0
  0
LINE
  5
287
100
AcDbEntity
  8
レイヤー_1
  6
CONTINUOUS
 62
       3
100
AcDbLine
 10
131.69239725
 20
25.6612192
 30
0.0
 11
131.91819139
 21
25.5921173
 31
0.0
  0
LINE
  5
288
100
AcDbEntity
  8
レイヤー_1
  6
CONTINUOUS
 62
       3
100
AcDbLine
 10
131.91819139
 20
25.5921173
 30
0.0
 11
132.14952437
 21
25.54449457
 31
0.0
  0
LINE
  5
289
100
AcDbEntity
  8
レイヤー_1
  6
CONTINUOUS
 62
       3
100
AcDbLine
 10
132.14952437
 20
25.54449457
 30
0.0
 11
132.38475716
 21
25.51879243
 31
0.0
  0
LINE
  5
28A
100
AcDbEntity
  8
レイヤー_1
  6
CONTINUOUS
 62
       3
100
AcDbLine
 10
132.38475716
 20
25.51879243
 30
0.0
 11
132.62225071
 21
25.51545219
 31
0.0
  0
LINE
  5
28B
100
AcDbEntity
  8
レイヤー_1
  6
CONTINUOUS
 62
       3
100
AcDbLine
 10
132.62225071
 20
25.51545219
 30
0.0
 11
132.86036597
 21
25.53491525
 31
0.0
  0
LINE
  5
28C
100
AcDbEntity
  8
レイヤー_1
  6
CONTINUOUS
 62
       3
100
AcDbLine
 10
132.86036597
 20
25.53491525
 30
0.0
 11
133.09746391
 21
25.57762299
 31
0.0
  0
LINE
  5
28D
100
AcDbEntity
  8
レイヤー_1
  6
CONTINUOUS
 62
       3
100
AcDbLine
 10
133.09746391
 20
25.57762299
 30
0.0
 11
133.33190548
 21
25.64401678
 31
0.0
  0
LINE
  5
28E
100
AcDbEntity
  8
レイヤー_1
  6
CONTINUOUS
 62
       3
100
AcDbLine
 10
133.33190548
 20
25.64401678
 30
0.0
 11
133.56205163
 21
25.73453801
 31
0.0
  0
LINE
  5
28F
100
AcDbEntity
  8
レイヤー_1
  6
CONTINUOUS
 62
       3
100
AcDbLine
 10
133.56205163
 20
25.73453801
 30
0.0
 11
133.78626333
 21
25.84962802
 31
0.0
  0
LINE
  5
290
100
AcDbEntity
  8
レイヤー_1
  6
CONTINUOUS
 62
       3
100
AcDbLine
 10
129.02255754
 20
24.53274027
 30
0.0
 11
136.02126902
 21
24.53274027
 31
0.0
  0
LINE
  5
291
100
AcDbEntity
  8
レイヤー_1
  6
CONTINUOUS
 62
       3
100
AcDbLine
 10
136.02126902
 20
24.53274027
 30
0.0
 11
136.02126902
 21
31.53102111
 31
0.0
  0
LINE
  5
292
100
AcDbEntity
  8
レイヤー_1
  6
CONTINUOUS
 62
       3
100
AcDbLine
 10
136.02126902
 20
31.53102111
 30
0.0
 11
129.02255754
 21
31.53102111
 31
0.0
  0
LINE
  5
293
100
AcDbEntity
  8
レイヤー_1
  6
CONTINUOUS
 62
       3
100
AcDbLine
 10
129.02255754
 20
31.53102111
 30
0.0
 11
129.02255754
 21
24.53274027
 31
0.0
  0
LINE
  5
294
100
AcDbEntity
  8
レイヤー_1
  6
CONTINUOUS
 62
       3
100
AcDbLine
 10
128.4834001
 20
38.57064309
 30
0.0
 11
128.4834001
 21
23.57414246
 31
0.0
  0
LINE
  5
295
100
AcDbEntity
  8
レイヤー_1
  6
CONTINUOUS
 62
       3
100
AcDbLine
 10
128.4834001
 20
23.57414246
 30
0.0
 11
136.480328
 21
23.57414246
 31
0.0
  0
LINE
  5
296
100
AcDbEntity
  8
レイヤー_1
  6
CONTINUOUS
 62
       3
100
AcDbLine
 10
136.480328
 20
23.57414246
 30
0.0
 11
136.480328
 21
38.57064309
 31
0.0
  0
LINE
  5
297
100
AcDbEntity
  8
レイヤー_1
  6
CONTINUOUS
 62
       3
100
AcDbLine
 10
115.78305559
 20
25.84962802
 30
0.0
 11
115.99475643
 21
25.98617783
 31
0.0
  0
LINE
  5
298
100
AcDbEntity
  8
レイヤー_1
  6
CONTINUOUS
 62
       3
100
AcDbLine
 10
115.99475643
 20
25.98617783
 30
0.0
 11
116.18816886
 21
26.14016734
 31
0.0
  0
LINE
  5
299
100
AcDbEntity
  8
レイヤー_1
  6
CONTINUOUS
 62
       3
100
AcDbLine
 10
116.18816886
 20
26.14016734
 30
0.0
 11
116.36285212
 21
26.30995566
 31
0.0
  0
LINE
  5
29A
100
AcDbEntity
  8
レイヤー_1
  6
CONTINUOUS
 62
       3
100
AcDbLine
 10
116.36285212
 20
26.30995566
 30
0.0
 11
116.51836543
 21
26.49390195
 31
0.0
  0
LINE
  5
29B
100
AcDbEntity
  8
レイヤー_1
  6
CONTINUOUS
 62
       3
100
AcDbLine
 10
116.51836543
 20
26.49390195
 30
0.0
 11
116.65426802
 21
26.69036539
 31
0.0
  0
LINE
  5
29C
100
AcDbEntity
  8
レイヤー_1
  6
CONTINUOUS
 62
       3
100
AcDbLine
 10
116.65426802
 20
26.69036539
 30
0.0
 11
116.77011913
 21
26.89770508
 31
0.0
  0
LINE
  5
29D
100
AcDbEntity
  8
レイヤー_1
  6
CONTINUOUS
 62
       3
100
AcDbLine
 10
116.77011913
 20
26.89770508
 30
0.0
 11
116.86547795
 21
27.11428022
 31
0.0
  0
LINE
  5
29E
100
AcDbEntity
  8
レイヤー_1
  6
CONTINUOUS
 62
       3
100
AcDbLine
 10
116.86547795
 20
27.11428022
 30
0.0
 11
116.93990377
 21
27.33844995
 31
0.0
  0
LINE
  5
29F
100
AcDbEntity
  8
レイヤー_1
  6
CONTINUOUS
 62
       3
100
AcDbLine
 10
116.93990377
 20
27.33844995
 30
0.0
 11
116.99295577
 21
27.56857339
 31
0.0
  0
LINE
  5
2A0
100
AcDbEntity
  8
レイヤー_1
  6
CONTINUOUS
 62
       3
100
AcDbLine
 10
116.99295577
 20
27.56857339
 30
0.0
 11
117.02419319
 21
27.8030097
 31
0.0
  0
LINE
  5
2A1
100
AcDbEntity
  8
レイヤー_1
  6
CONTINUOUS
 62
       3
100
AcDbLine
 10
117.02419319
 20
27.8030097
 30
0.0
 11
117.03317526
 21
28.04011805
 31
0.0
  0
LINE
  5
2A2
100
AcDbEntity
  8
レイヤー_1
  6
CONTINUOUS
 62
       3
100
AcDbLine
 10
117.03317526
 20
28.04011805
 30
0.0
 11
117.01946122
 21
28.27825757
 31
0.0
  0
LINE
  5
2A3
100
AcDbEntity
  8
レイヤー_1
  6
CONTINUOUS
 62
       3
100
AcDbLine
 10
117.01946122
 20
28.27825757
 30
0.0
 11
116.98261028
 21
28.51578741
 31
0.0
  0
LINE
  5
2A4
100
AcDbEntity
  8
レイヤー_1
  6
CONTINUOUS
 62
       3
100
AcDbLine
 10
116.98261028
 20
28.51578741
 30
0.0
 11
116.92218168
 21
28.75106673
 31
0.0
  0
LINE
  5
2A5
100
AcDbEntity
  8
レイヤー_1
  6
CONTINUOUS
 62
       3
100
AcDbLine
 10
116.92218168
 20
28.75106673
 30
0.0
 11
116.83773465
 21
28.98245468
 31
0.0
  0
LINE
  5
2A6
100
AcDbEntity
  8
レイヤー_1
  6
CONTINUOUS
 62
       3
100
AcDbLine
 10
116.83773465
 20
28.98245468
 30
0.0
 11
116.72882841
 21
29.20831042
 31
0.0
  0
LINE
  5
2A7
100
AcDbEntity
  8
レイヤー_1
  6
CONTINUOUS
 62
       3
100
AcDbLine
 10
116.72882841
 20
29.20831042
 30
0.0
 11
116.5968524
 21
29.42418792
 31
0.0
  0
LINE
  5
2A8
100
AcDbEntity
  8
レイヤー_1
  6
CONTINUOUS
 62
       3
100
AcDbLine
 10
116.5968524
 20
29.42418792
 30
0.0
 11
116.44689941
 21
29.62220254
 31
0.0
  0
LINE
  5
2A9
100
AcDbEntity
  8
レイヤー_1
  6
CONTINUOUS
 62
       3
100
AcDbLine
 10
116.44689941
 20
29.62220254
 30
0.0
 11
116.28078661
 21
29.80159048
 31
0.0
  0
LINE
  5
2AA
100
AcDbEntity
  8
レイヤー_1
  6
CONTINUOUS
 62
       3
100
AcDbLine
 10
116.28078661
 20
29.80159048
 30
0.0
 11
116.10014943
 21
29.96191221
 31
0.0
  0
LINE
  5
2AB
100
AcDbEntity
  8
レイヤー_1
  6
CONTINUOUS
 62
       3
100
AcDbLine
 10
116.10014943
 20
29.96191221
 30
0.0
 11
115.90662328
 21
30.10272816
 31
0.0
  0
LINE
  5
2AC
100
AcDbEntity
  8
レイヤー_1
  6
CONTINUOUS
 62
       3
100
AcDbLine
 10
115.90662328
 20
30.10272816
 30
0.0
 11
115.70184363
 21
30.22359872
 31
0.0
  0
LINE
  5
2AD
100
AcDbEntity
  8
レイヤー_1
  6
CONTINUOUS
 62
       3
100
AcDbLine
 10
115.70184363
 20
30.22359872
 30
0.0
 11
115.48744587
 21
30.32408437
 31
0.0
  0
LINE
  5
2AE
100
AcDbEntity
  8
レイヤー_1
  6
CONTINUOUS
 62
       3
100
AcDbLine
 10
115.48744587
 20
30.32408437
 30
0.0
 11
115.26506546
 21
30.40374552
 31
0.0
  0
LINE
  5
2AF
100
AcDbEntity
  8
レイヤー_1
  6
CONTINUOUS
 62
       3
100
AcDbLine
 10
115.26506546
 20
30.40374552
 30
0.0
 11
115.0363378
 21
30.4621426
 31
0.0
  0
LINE
  5
2B0
100
AcDbEntity
  8
レイヤー_1
  6
CONTINUOUS
 62
       3
100
AcDbLine
 10
115.0363378
 20
30.4621426
 30
0.0
 11
114.80289837
 21
30.49883605
 31
0.0
  0
LINE
  5
2B1
100
AcDbEntity
  8
レイヤー_1
  6
CONTINUOUS
 62
       3
100
AcDbLine
 10
114.80289837
 20
30.49883605
 30
0.0
 11
114.56638255
 21
30.51338631
 31
0.0
  0
LINE
  5
2B2
100
AcDbEntity
  8
レイヤー_1
  6
CONTINUOUS
 62
       3
100
AcDbLine
 10
114.56638255
 20
30.51338631
 30
0.0
 11
114.32842581
 21
30.50535379
 31
0.0
  0
LINE
  5
2B3
100
AcDbEntity
  8
レイヤー_1
  6
CONTINUOUS
 62
       3
100
AcDbLine
 10
114.32842581
 20
30.50535379
 30
0.0
 11
114.09066355
 21
30.47429895
 31
0.0
  0
LINE
  5
2B4
100
AcDbEntity
  8
レイヤー_1
  6
CONTINUOUS
 62
       3
100
AcDbLine
 10
114.09066355
 20
30.47429895
 30
0.0
 11
113.85473121
 21
30.4197822
 31
0.0
  0
LINE
  5
2B5
100
AcDbEntity
  8
レイヤー_1
  6
CONTINUOUS
 62
       3
100
AcDbLine
 10
113.85473121
 20
30.4197822
 30
0.0
 11
113.62226424
 21
30.34136399
 31
0.0
  0
LINE
  5
2B6
100
AcDbEntity
  8
レイヤー_1
  6
CONTINUOUS
 62
       3
100
AcDbLine
 10
113.62226424
 20
30.34136399
 30
0.0
 11
113.39489805
 21
30.23860472
 31
0.0
  0
LINE
  5
2B7
100
AcDbEntity
  8
レイヤー_1
  6
CONTINUOUS
 62
       3
100
AcDbLine
 10
113.39489805
 20
30.23860472
 30
0.0
 11
113.17560457
 21
30.11196865
 31
0.0
  0
LINE
  5
2B8
100
AcDbEntity
  8
レイヤー_1
  6
CONTINUOUS
 62
       3
100
AcDbLine
 10
113.17560457
 20
30.11196865
 30
0.0
 11
112.97311467
 21
29.96650269
 31
0.0
  0
LINE
  5
2B9
100
AcDbEntity
  8
レイヤー_1
  6
CONTINUOUS
 62
       3
100
AcDbLine
 10
112.97311467
 20
29.96650269
 30
0.0
 11
112.78909983
 21
29.80442455
 31
0.0
  0
LINE
  5
2BA
100
AcDbEntity
  8
レイヤー_1
  6
CONTINUOUS
 62
       3
100
AcDbLine
 10
112.78909983
 20
29.80442455
 30
0.0
 11
112.62400445
 21
29.62737329
 31
0.0
  0
LINE
  5
2BB
100
AcDbEntity
  8
レイヤー_1
  6
CONTINUOUS
 62
       3
100
AcDbLine
 10
112.62400445
 20
29.62737329
 30
0.0
 11
112.4782729
 21
29.43698793
 31
0.0
  0
LINE
  5
2BC
100
AcDbEntity
  8
レイヤー_1
  6
CONTINUOUS
 62
       3
100
AcDbLine
 10
112.4782729
 20
29.43698793
 30
0.0
 11
112.35234958
 21
29.23490753
 31
0.0
  0
LINE
  5
2BD
100
AcDbEntity
  8
レイヤー_1
  6
CONTINUOUS
 62
       3
100
AcDbLine
 10
112.35234958
 20
29.23490753
 30
0.0
 11
112.24667886
 21
29.02277112
 31
0.0
  0
LINE
  5
2BE
100
AcDbEntity
  8
レイヤー_1
  6
CONTINUOUS
 62
       3
100
AcDbLine
 10
112.24667886
 20
29.02277112
 30
0.0
 11
112.16170514
 21
28.80221775
 31
0.0
  0
LINE
  5
2BF
100
AcDbEntity
  8
レイヤー_1
  6
CONTINUOUS
 62
       3
100
AcDbLine
 10
112.16170514
 20
28.80221775
 30
0.0
 11
112.09787279
 21
28.57488645
 31
0.0
  0
LINE
  5
2C0
100
AcDbEntity
  8
レイヤー_1
  6
CONTINUOUS
 62
       3
100
AcDbLine
 10
112.09787279
 20
28.57488645
 30
0.0
 11
112.0556262
 21
28.34241628
 31
0.0
  0
LINE
  5
2C1
100
AcDbEntity
  8
レイヤー_1
  6
CONTINUOUS
 62
       3
100
AcDbLine
 10
112.0556262
 20
28.34241628
 30
0.0
 11
112.03540976
 21
28.1064463
 31
0.0
  0
LINE
  5
2C2
100
AcDbEntity
  8
レイヤー_1
  6
CONTINUOUS
 62
       3
100
AcDbLine
 10
112.03540976
 20
28.1064463
 30
0.0
 11
112.03766785
 21
27.86861555
 31
0.0
  0
LINE
  5
2C3
100
AcDbEntity
  8
レイヤー_1
  6
CONTINUOUS
 62
       3
100
AcDbLine
 10
112.03766785
 20
27.86861555
 30
0.0
 11
112.06284485
 21
27.63056303
 31
0.0
  0
LINE
  5
2C4
100
AcDbEntity
  8
レイヤー_1
  6
CONTINUOUS
 62
       3
100
AcDbLine
 10
112.06284485
 20
27.63056303
 30
0.0
 11
112.11138515
 21
27.39392781
 31
0.0
  0
LINE
  5
2C5
100
AcDbEntity
  8
レイヤー_1
  6
CONTINUOUS
 62
       3
100
AcDbLine
 10
112.11138515
 20
27.39392781
 30
0.0
 11
112.18373314
 21
27.16034896
 31
0.0
  0
LINE
  5
2C6
100
AcDbEntity
  8
レイヤー_1
  6
CONTINUOUS
 62
       3
100
AcDbLine
 10
112.18373314
 20
27.16034896
 30
0.0
 11
112.28033318
 21
26.93146549
 31
0.0
  0
LINE
  5
2C7
100
AcDbEntity
  8
レイヤー_1
  6
CONTINUOUS
 62
       3
100
AcDbLine
 10
112.28033318
 20
26.93146549
 30
0.0
 11
112.40139798
 21
26.70927417
 31
0.0
  0
LINE
  5
2C8
100
AcDbEntity
  8
レイヤー_1
  6
CONTINUOUS
 62
       3
100
AcDbLine
 10
112.40139798
 20
26.70927417
 30
0.0
 11
112.54252696
 21
26.50217646
 31
0.0
  0
LINE
  5
2C9
100
AcDbEntity
  8
レイヤー_1
  6
CONTINUOUS
 62
       3
100
AcDbLine
 10
112.54252696
 20
26.50217646
 30
0.0
 11
112.70066808
 21
26.31346832
 31
0.0
  0
LINE
  5
2CA
100
AcDbEntity
  8
レイヤー_1
  6
CONTINUOUS
 62
       3
100
AcDbLine
 10
112.70066808
 20
26.31346832
 30
0.0
 11
112.87418233
 21
26.14359113
 31
0.0
  0
LINE
  5
2CB
100
AcDbEntity
  8
レイヤー_1
  6
CONTINUOUS
 62
       3
100
AcDbLine
 10
112.87418233
 20
26.14359113
 30
0.0
 11
113.06143063
 21
25.99298624
 31
0.0
  0
LINE
  5
2CC
100
AcDbEntity
  8
レイヤー_1
  6
CONTINUOUS
 62
       3
100
AcDbLine
 10
113.06143063
 20
25.99298624
 30
0.0
 11
113.26077397
 21
25.86209505
 31
0.0
  0
LINE
  5
2CD
100
AcDbEntity
  8
レイヤー_1
  6
CONTINUOUS
 62
       3
100
AcDbLine
 10
113.26077397
 20
25.86209505
 30
0.0
 11
113.47057328
 21
25.75135891
 31
0.0
  0
LINE
  5
2CE
100
AcDbEntity
  8
レイヤー_1
  6
CONTINUOUS
 62
       3
100
AcDbLine
 10
113.47057328
 20
25.75135891
 30
0.0
 11
113.68918952
 21
25.6612192
 31
0.0
  0
LINE
  5
2CF
100
AcDbEntity
  8
レイヤー_1
  6
CONTINUOUS
 62
       3
100
AcDbLine
 10
113.68918952
 20
25.6612192
 30
0.0
 11
113.91498365
 21
25.5921173
 31
0.0
  0
LINE
  5
2D0
100
AcDbEntity
  8
レイヤー_1
  6
CONTINUOUS
 62
       3
100
AcDbLine
 10
113.91498365
 20
25.5921173
 30
0.0
 11
114.14631664
 21
25.54449457
 31
0.0
  0
LINE
  5
2D1
100
AcDbEntity
  8
レイヤー_1
  6
CONTINUOUS
 62
       3
100
AcDbLine
 10
114.14631664
 20
25.54449457
 30
0.0
 11
114.38154943
 21
25.51879243
 31
0.0
  0
LINE
  5
2D2
100
AcDbEntity
  8
レイヤー_1
  6
CONTINUOUS
 62
       3
100
AcDbLine
 10
114.38154943
 20
25.51879243
 30
0.0
 11
114.61904297
 21
25.51545219
 31
0.0
  0
LINE
  5
2D3
100
AcDbEntity
  8
レイヤー_1
  6
CONTINUOUS
 62
       3
100
AcDbLine
 10
114.61904297
 20
25.51545219
 30
0.0
 11
114.85715824
 21
25.53491525
 31
0.0
  0
LINE
  5
2D4
100
AcDbEntity
  8
レイヤー_1
  6
CONTINUOUS
 62
       3
100
AcDbLine
 10
114.85715824
 20
25.53491525
 30
0.0
 11
115.09425618
 21
25.57762299
 31
0.0
  0
LINE
  5
2D5
100
AcDbEntity
  8
レイヤー_1
  6
CONTINUOUS
 62
       3
100
AcDbLine
 10
115.09425618
 20
25.57762299
 30
0.0
 11
115.32869775
 21
25.64401678
 31
0.0
  0
LINE
  5
2D6
100
AcDbEntity
  8
レイヤー_1
  6
CONTINUOUS
 62
       3
100
AcDbLine
 10
115.32869775
 20
25.64401678
 30
0.0
 11
115.5588439
 21
25.73453801
 31
0.0
  0
LINE
  5
2D7
100
AcDbEntity
  8
レイヤー_1
  6
CONTINUOUS
 62
       3
100
AcDbLine
 10
115.5588439
 20
25.73453801
 30
0.0
 11
115.78305559
 21
25.84962802
 31
0.0
  0
LINE
  5
2D8
100
AcDbEntity
  8
レイヤー_1
  6
CONTINUOUS
 62
       3
100
AcDbLine
 10
111.01934981
 20
24.53274027
 30
0.0
 11
118.01806129
 21
24.53274027
 31
0.0
  0
LINE
  5
2D9
100
AcDbEntity
  8
レイヤー_1
  6
CONTINUOUS
 62
       3
100
AcDbLine
 10
118.01806129
 20
24.53274027
 30
0.0
 11
118.01806129
 21
31.53102111
 31
0.0
  0
LINE
  5
2DA
100
AcDbEntity
  8
レイヤー_1
  6
CONTINUOUS
 62
       3
100
AcDbLine
 10
118.01806129
 20
31.53102111
 30
0.0
 11
111.01934981
 21
31.53102111
 31
0.0
  0
LINE
  5
2DB
100
AcDbEntity
  8
レイヤー_1
  6
CONTINUOUS
 62
       3
100
AcDbLine
 10
111.01934981
 20
31.53102111
 30
0.0
 11
111.01934981
 21
24.53274027
 31
0.0
  0
LINE
  5
2DC
100
AcDbEntity
  8
レイヤー_1
  6
CONTINUOUS
 62
       3
100
AcDbLine
 10
110.48019237
 20
38.57064309
 30
0.0
 11
110.48019237
 21
23.57414246
 31
0.0
  0
LINE
  5
2DD
100
AcDbEntity
  8
レイヤー_1
  6
CONTINUOUS
 62
       3
100
AcDbLine
 10
110.48019237
 20
23.57414246
 30
0.0
 11
118.47712026
 21
23.57414246
 31
0.0
  0
LINE
  5
2DE
100
AcDbEntity
  8
レイヤー_1
  6
CONTINUOUS
 62
       3
100
AcDbLine
 10
118.47712026
 20
23.57414246
 30
0.0
 11
118.47712026
 21
38.57064309
 31
0.0
  0
LINE
  5
2DF
100
AcDbEntity
  8
レイヤー_1
  6
CONTINUOUS
 62
       3
100
AcDbLine
 10
105.7853885
 20
25.84962802
 30
0.0
 11
105.99722957
 21
25.98617783
 31
0.0
  0
LINE
  5
2E0
100
AcDbEntity
  8
レイヤー_1
  6
CONTINUOUS
 62
       3
100
AcDbLine
 10
105.99722957
 20
25.98617783
 30
0.0
 11
106.19074792
 21
26.14016734
 31
0.0
  0
LINE
  5
2E1
100
AcDbEntity
  8
レイヤー_1
  6
CONTINUOUS
 62
       3
100
AcDbLine
 10
106.19074792
 20
26.14016734
 30
0.0
 11
106.36550759
 21
26.30995566
 31
0.0
  0
LINE
  5
2E2
100
AcDbEntity
  8
レイヤー_1
  6
CONTINUOUS
 62
       3
100
AcDbLine
 10
106.36550759
 20
26.30995566
 30
0.0
 11
106.52107262
 21
26.49390195
 31
0.0
  0
LINE
  5
2E3
100
AcDbEntity
  8
レイヤー_1
  6
CONTINUOUS
 62
       3
100
AcDbLine
 10
106.52107262
 20
26.49390195
 30
0.0
 11
106.65700706
 21
26.69036539
 31
0.0
  0
LINE
  5
2E4
100
AcDbEntity
  8
レイヤー_1
  6
CONTINUOUS
 62
       3
100
AcDbLine
 10
106.65700706
 20
26.69036539
 30
0.0
 11
106.77287495
 21
26.89770508
 31
0.0
  0
LINE
  5
2E5
100
AcDbEntity
  8
レイヤー_1
  6
CONTINUOUS
 62
       3
100
AcDbLine
 10
106.77287495
 20
26.89770508
 30
0.0
 11
106.86824036
 21
27.11428022
 31
0.0
  0
LINE
  5
2E6
100
AcDbEntity
  8
レイヤー_1
  6
CONTINUOUS
 62
       3
100
AcDbLine
 10
106.86824036
 20
27.11428022
 30
0.0
 11
106.9426673
 21
27.33844995
 31
0.0
  0
LINE
  5
2E7
100
AcDbEntity
  8
レイヤー_1
  6
CONTINUOUS
 62
       3
100
AcDbLine
 10
106.9426673
 20
27.33844995
 30
0.0
 11
106.99571984
 21
27.56857339
 31
0.0
  0
LINE
  5
2E8
100
AcDbEntity
  8
レイヤー_1
  6
CONTINUOUS
 62
       3
100
AcDbLine
 10
106.99571984
 20
27.56857339
 30
0.0
 11
107.02696202
 21
27.8030097
 31
0.0
  0
LINE
  5
2E9
100
AcDbEntity
  8
レイヤー_1
  6
CONTINUOUS
 62
       3
100
AcDbLine
 10
107.02696202
 20
27.8030097
 30
0.0
 11
107.03595788
 21
28.04011805
 31
0.0
  0
LINE
  5
2EA
100
AcDbEntity
  8
レイヤー_1
  6
CONTINUOUS
 62
       3
100
AcDbLine
 10
107.03595788
 20
28.04011805
 30
0.0
 11
107.02227146
 21
28.27825757
 31
0.0
  0
LINE
  5
2EB
100
AcDbEntity
  8
レイヤー_1
  6
CONTINUOUS
 62
       3
100
AcDbLine
 10
107.02227146
 20
28.27825757
 30
0.0
 11
106.98546684
 21
28.51578741
 31
0.0
  0
LINE
  5
2EC
100
AcDbEntity
  8
レイヤー_1
  6
CONTINUOUS
 62
       3
100
AcDbLine
 10
106.98546684
 20
28.51578741
 30
0.0
 11
106.92510802
 21
28.75106673
 31
0.0
  0
LINE
  5
2ED
100
AcDbEntity
  8
レイヤー_1
  6
CONTINUOUS
 62
       3
100
AcDbLine
 10
106.92510802
 20
28.75106673
 30
0.0
 11
106.84075908
 21
28.98245468
 31
0.0
  0
LINE
  5
2EE
100
AcDbEntity
  8
レイヤー_1
  6
CONTINUOUS
 62
       3
100
AcDbLine
 10
106.84075908
 20
28.98245468
 30
0.0
 11
106.73198404
 21
29.20831042
 31
0.0
  0
LINE
  5
2EF
100
AcDbEntity
  8
レイヤー_1
  6
CONTINUOUS
 62
       3
100
AcDbLine
 10
106.73198404
 20
29.20831042
 30
0.0
 11
106.60004656
 21
29.42418792
 31
0.0
  0
LINE
  5
2F0
100
AcDbEntity
  8
レイヤー_1
  6
CONTINUOUS
 62
       3
100
AcDbLine
 10
106.60004656
 20
29.42418792
 30
0.0
 11
106.45009359
 21
29.62220254
 31
0.0
  0
LINE
  5
2F1
100
AcDbEntity
  8
レイヤー_1
  6
CONTINUOUS
 62
       3
100
AcDbLine
 10
106.45009359
 20
29.62220254
 30
0.0
 11
106.28398079
 21
29.80159048
 31
0.0
  0
LINE
  5
2F2
100
AcDbEntity
  8
レイヤー_1
  6
CONTINUOUS
 62
       3
100
AcDbLine
 10
106.28398079
 20
29.80159048
 30
0.0
 11
106.1033436
 21
29.96191221
 31
0.0
  0
LINE
  5
2F3
100
AcDbEntity
  8
レイヤー_1
  6
CONTINUOUS
 62
       3
100
AcDbLine
 10
106.1033436
 20
29.96191221
 30
0.0
 11
105.90981746
 21
30.10272816
 31
0.0
  0
LINE
  5
2F4
100
AcDbEntity
  8
レイヤー_1
  6
CONTINUOUS
 62
       3
100
AcDbLine
 10
105.90981746
 20
30.10272816
 30
0.0
 11
105.7050378
 21
30.22359872
 31
0.0
  0
LINE
  5
2F5
100
AcDbEntity
  8
レイヤー_1
  6
CONTINUOUS
 62
       3
100
AcDbLine
 10
105.7050378
 20
30.22359872
 30
0.0
 11
105.49064004
 21
30.32408437
 31
0.0
  0
LINE
  5
2F6
100
AcDbEntity
  8
レイヤー_1
  6
CONTINUOUS
 62
       3
100
AcDbLine
 10
105.49064004
 20
30.32408437
 30
0.0
 11
105.26825963
 21
30.40374552
 31
0.0
  0
LINE
  5
2F7
100
AcDbEntity
  8
レイヤー_1
  6
CONTINUOUS
 62
       3
100
AcDbLine
 10
105.26825963
 20
30.40374552
 30
0.0
 11
105.03953199
 21
30.4621426
 31
0.0
  0
LINE
  5
2F8
100
AcDbEntity
  8
レイヤー_1
  6
CONTINUOUS
 62
       3
100
AcDbLine
 10
105.03953199
 20
30.4621426
 30
0.0
 11
104.80609254
 21
30.49883605
 31
0.0
  0
LINE
  5
2F9
100
AcDbEntity
  8
レイヤー_1
  6
CONTINUOUS
 62
       3
100
AcDbLine
 10
104.80609254
 20
30.49883605
 30
0.0
 11
104.56957673
 21
30.51338631
 31
0.0
  0
LINE
  5
2FA
100
AcDbEntity
  8
レイヤー_1
  6
CONTINUOUS
 62
       3
100
AcDbLine
 10
104.56957673
 20
30.51338631
 30
0.0
 11
104.33161997
 21
30.50535379
 31
0.0
  0
LINE
  5
2FB
100
AcDbEntity
  8
レイヤー_1
  6
CONTINUOUS
 62
       3
100
AcDbLine
 10
104.33161997
 20
30.50535379
 30
0.0
 11
104.09385772
 21
30.47429895
 31
0.0
  0
LINE
  5
2FC
100
AcDbEntity
  8
レイヤー_1
  6
CONTINUOUS
 62
       3
100
AcDbLine
 10
104.09385772
 20
30.47429895
 30
0.0
 11
103.85792539
 21
30.4197822
 31
0.0
  0
LINE
  5
2FD
100
AcDbEntity
  8
レイヤー_1
  6
CONTINUOUS
 62
       3
100
AcDbLine
 10
103.85792539
 20
30.4197822
 30
0.0
 11
103.6254584
 21
30.34136399
 31
0.0
  0
LINE
  5
2FE
100
AcDbEntity
  8
レイヤー_1
  6
CONTINUOUS
 62
       3
100
AcDbLine
 10
103.6254584
 20
30.34136399
 30
0.0
 11
103.39809221
 21
30.23860472
 31
0.0
  0
LINE
  5
2FF
100
AcDbEntity
  8
レイヤー_1
  6
CONTINUOUS
 62
       3
100
AcDbLine
 10
103.39809221
 20
30.23860472
 30
0.0
 11
103.17872404
 21
30.11196865
 31
0.0
  0
LINE
  5
300
100
AcDbEntity
  8
レイヤー_1
  6
CONTINUOUS
 62
       3
100
AcDbLine
 10
103.17872404
 20
30.11196865
 30
0.0
 11
102.97611166
 21
29.96650269
 31
0.0
  0
LINE
  5
301
100
AcDbEntity
  8
レイヤー_1
  6
CONTINUOUS
 62
       3
100
AcDbLine
 10
102.97611166
 20
29.96650269
 30
0.0
 11
102.79200626
 21
29.80442455
 31
0.0
  0
LINE
  5
302
100
AcDbEntity
  8
レイヤー_1
  6
CONTINUOUS
 62
       3
100
AcDbLine
 10
102.79200626
 20
29.80442455
 30
0.0
 11
102.62684741
 21
29.62737329
 31
0.0
  0
LINE
  5
303
100
AcDbEntity
  8
レイヤー_1
  6
CONTINUOUS
 62
       3
100
AcDbLine
 10
102.62684741
 20
29.62737329
 30
0.0
 11
102.48107468
 21
29.43698793
 31
0.0
  0
LINE
  5
304
100
AcDbEntity
  8
レイヤー_1
  6
CONTINUOUS
 62
       3
100
AcDbLine
 10
102.48107468
 20
29.43698793
 30
0.0
 11
102.35512764
 21
29.23490753
 31
0.0
  0
LINE
  5
305
100
AcDbEntity
  8
レイヤー_1
  6
CONTINUOUS
 62
       3
100
AcDbLine
 10
102.35512764
 20
29.23490753
 30
0.0
 11
102.24944583
 21
29.02277112
 31
0.0
  0
LINE
  5
306
100
AcDbEntity
  8
レイヤー_1
  6
CONTINUOUS
 62
       3
100
AcDbLine
 10
102.24944583
 20
29.02277112
 30
0.0
 11
102.16446887
 21
28.80221775
 31
0.0
  0
LINE
  5
307
100
AcDbEntity
  8
レイヤー_1
  6
CONTINUOUS
 62
       3
100
AcDbLine
 10
102.16446887
 20
28.80221775
 30
0.0
 11
102.10063628
 21
28.57488645
 31
0.0
  0
LINE
  5
308
100
AcDbEntity
  8
レイヤー_1
  6
CONTINUOUS
 62
       3
100
AcDbLine
 10
102.10063628
 20
28.57488645
 30
0.0
 11
102.05838765
 21
28.34241628
 31
0.0
  0
LINE
  5
309
100
AcDbEntity
  8
レイヤー_1
  6
CONTINUOUS
 62
       3
100
AcDbLine
 10
102.05838765
 20
28.34241628
 30
0.0
 11
102.03816253
 21
28.1064463
 31
0.0
  0
LINE
  5
30A
100
AcDbEntity
  8
レイヤー_1
  6
CONTINUOUS
 62
       3
100
AcDbLine
 10
102.03816253
 20
28.1064463
 30
0.0
 11
102.04040052
 21
27.86861555
 31
0.0
  0
LINE
  5
30B
100
AcDbEntity
  8
レイヤー_1
  6
CONTINUOUS
 62
       3
100
AcDbLine
 10
102.04040052
 20
27.86861555
 30
0.0
 11
102.06554116
 21
27.63056303
 31
0.0
  0
LINE
  5
30C
100
AcDbEntity
  8
レイヤー_1
  6
CONTINUOUS
 62
       3
100
AcDbLine
 10
102.06554116
 20
27.63056303
 30
0.0
 11
102.11402402
 21
27.39392781
 31
0.0
  0
LINE
  5
30D
100
AcDbEntity
  8
レイヤー_1
  6
CONTINUOUS
 62
       3
100
AcDbLine
 10
102.11402402
 20
27.39392781
 30
0.0
 11
102.18628867
 21
27.16034896
 31
0.0
  0
LINE
  5
30E
100
AcDbEntity
  8
レイヤー_1
  6
CONTINUOUS
 62
       3
100
AcDbLine
 10
102.18628867
 20
27.16034896
 30
0.0
 11
102.28277467
 21
26.93146549
 31
0.0
  0
LINE
  5
30F
100
AcDbEntity
  8
レイヤー_1
  6
CONTINUOUS
 62
       3
100
AcDbLine
 10
102.28277467
 20
26.93146549
 30
0.0
 11
102.40377003
 21
26.70927417
 31
0.0
  0
LINE
  5
310
100
AcDbEntity
  8
レイヤー_1
  6
CONTINUOUS
 62
       3
100
AcDbLine
 10
102.40377003
 20
26.70927417
 30
0.0
 11
102.54504333
 21
26.50217646
 31
0.0
  0
LINE
  5
311
100
AcDbEntity
  8
レイヤー_1
  6
CONTINUOUS
 62
       3
100
AcDbLine
 10
102.54504333
 20
26.50217646
 30
0.0
 11
102.70330922
 21
26.31346832
 31
0.0
  0
LINE
  5
312
100
AcDbEntity
  8
レイヤー_1
  6
CONTINUOUS
 62
       3
100
AcDbLine
 10
102.70330922
 20
26.31346832
 30
0.0
 11
102.87692864
 21
26.14359113
 31
0.0
  0
LINE
  5
313
100
AcDbEntity
  8
レイヤー_1
  6
CONTINUOUS
 62
       3
100
AcDbLine
 10
102.87692864
 20
26.14359113
 30
0.0
 11
103.06426257
 21
25.99298624
 31
0.0
  0
LINE
  5
314
100
AcDbEntity
  8
レイヤー_1
  6
CONTINUOUS
 62
       3
100
AcDbLine
 10
103.06426257
 20
25.99298624
 30
0.0
 11
103.26367195
 21
25.86209505
 31
0.0
  0
LINE
  5
315
100
AcDbEntity
  8
レイヤー_1
  6
CONTINUOUS
 62
       3
100
AcDbLine
 10
103.26367195
 20
25.86209505
 30
0.0
 11
103.47351772
 21
25.75135891
 31
0.0
  0
LINE
  5
316
100
AcDbEntity
  8
レイヤー_1
  6
CONTINUOUS
 62
       3
100
AcDbLine
 10
103.47351772
 20
25.75135891
 30
0.0
 11
103.69216088
 21
25.6612192
 31
0.0
  0
LINE
  5
317
100
AcDbEntity
  8
レイヤー_1
  6
CONTINUOUS
 62
       3
100
AcDbLine
 10
103.69216088
 20
25.6612192
 30
0.0
 11
103.91796236
 21
25.5921173
 31
0.0
  0
LINE
  5
318
100
AcDbEntity
  8
レイヤー_1
  6
CONTINUOUS
 62
       3
100
AcDbLine
 10
103.91796236
 20
25.5921173
 30
0.0
 11
104.14928311
 21
25.54449457
 31
0.0
  0
LINE
  5
319
100
AcDbEntity
  8
レイヤー_1
  6
CONTINUOUS
 62
       3
100
AcDbLine
 10
104.14928311
 20
25.54449457
 30
0.0
 11
104.3844841
 21
25.51879243
 31
0.0
  0
LINE
  5
31A
100
AcDbEntity
  8
レイヤー_1
  6
CONTINUOUS
 62
       3
100
AcDbLine
 10
104.3844841
 20
25.51879243
 30
0.0
 11
104.62192627
 21
25.51545219
 31
0.0
  0
LINE
  5
31B
100
AcDbEntity
  8
レイヤー_1
  6
CONTINUOUS
 62
       3
100
AcDbLine
 10
104.62192627
 20
25.51545219
 30
0.0
 11
104.8599706
 21
25.53491525
 31
0.0
  0
LINE
  5
31C
100
AcDbEntity
  8
レイヤー_1
  6
CONTINUOUS
 62
       3
100
AcDbLine
 10
104.8599706
 20
25.53491525
 30
0.0
 11
105.09697803
 21
25.57762299
 31
0.0
  0
LINE
  5
31D
100
AcDbEntity
  8
レイヤー_1
  6
CONTINUOUS
 62
       3
100
AcDbLine
 10
105.09697803
 20
25.57762299
 30
0.0
 11
105.33130952
 21
25.64401678
 31
0.0
  0
LINE
  5
31E
100
AcDbEntity
  8
レイヤー_1
  6
CONTINUOUS
 62
       3
100
AcDbLine
 10
105.33130952
 20
25.64401678
 30
0.0
 11
105.56132601
 21
25.73453801
 31
0.0
  0
LINE
  5
31F
100
AcDbEntity
  8
レイヤー_1
  6
CONTINUOUS
 62
       3
100
AcDbLine
 10
105.56132601
 20
25.73453801
 30
0.0
 11
105.7853885
 21
25.84962802
 31
0.0
  0
LINE
  5
320
100
AcDbEntity
  8
レイヤー_1
  6
CONTINUOUS
 62
       3
100
AcDbLine
 10
101.02254398
 20
24.53274027
 30
0.0
 11
108.02125546
 21
24.53274027
 31
0.0
  0
LINE
  5
321
100
AcDbEntity
  8
レイヤー_1
  6
CONTINUOUS
 62
       3
100
AcDbLine
 10
108.02125546
 20
24.53274027
 30
0.0
 11
108.02125546
 21
31.53102111
 31
0.0
  0
LINE
  5
322
100
AcDbEntity
  8
レイヤー_1
  6
CONTINUOUS
 62
       3
100
AcDbLine
 10
108.02125546
 20
31.53102111
 30
0.0
 11
101.02254398
 21
31.53102111
 31
0.0
  0
LINE
  5
323
100
AcDbEntity
  8
レイヤー_1
  6
CONTINUOUS
 62
       3
100
AcDbLine
 10
101.02254398
 20
31.53102111
 30
0.0
 11
101.02254398
 21
24.53274027
 31
0.0
  0
LINE
  5
324
100
AcDbEntity
  8
レイヤー_1
  6
CONTINUOUS
 62
       3
100
AcDbLine
 10
100.48338653
 20
38.57064309
 30
0.0
 11
100.48338653
 21
23.57414246
 31
0.0
  0
LINE
  5
325
100
AcDbEntity
  8
レイヤー_1
  6
CONTINUOUS
 62
       3
100
AcDbLine
 10
100.48338653
 20
23.57414246
 30
0.0
 11
108.48031443
 21
23.57414246
 31
0.0
  0
LINE
  5
326
100
AcDbEntity
  8
レイヤー_1
  6
CONTINUOUS
 62
       3
100
AcDbLine
 10
108.48031443
 20
23.57414246
 30
0.0
 11
108.48031443
 21
38.57064309
 31
0.0
  0
LINE
  5
327
100
AcDbEntity
  8
レイヤー_1
  6
CONTINUOUS
 62
       3
100
AcDbLine
 10
143.78306915
 20
-29.10998026
 30
0.0
 11
143.99476999
 21
-28.97336501
 31
0.0
  0
LINE
  5
328
100
AcDbEntity
  8
レイヤー_1
  6
CONTINUOUS
 62
       3
100
AcDbLine
 10
143.99476999
 20
-28.97336501
 30
0.0
 11
144.18818242
 21
-28.81933584
 31
0.0
  0
LINE
  5
329
100
AcDbEntity
  8
レイヤー_1
  6
CONTINUOUS
 62
       3
100
AcDbLine
 10
144.18818242
 20
-28.81933584
 30
0.0
 11
144.36286567
 21
-28.64952996
 31
0.0
  0
LINE
  5
32A
100
AcDbEntity
  8
レイヤー_1
  6
CONTINUOUS
 62
       3
100
AcDbLine
 10
144.36286567
 20
-28.64952996
 30
0.0
 11
144.51837899
 21
-28.46558461
 31
0.0
  0
LINE
  5
32B
100
AcDbEntity
  8
レイヤー_1
  6
CONTINUOUS
 62
       3
100
AcDbLine
 10
144.51837899
 20
-28.46558461
 30
0.0
 11
144.65428158
 21
-28.26913705
 31
0.0
  0
LINE
  5
32C
100
AcDbEntity
  8
レイヤー_1
  6
CONTINUOUS
 62
       3
100
AcDbLine
 10
144.65428158
 20
-28.26913705
 30
0.0
 11
144.77013267
 21
-28.06182448
 31
0.0
  0
LINE
  5
32D
100
AcDbEntity
  8
レイヤー_1
  6
CONTINUOUS
 62
       3
100
AcDbLine
 10
144.77013267
 20
-28.06182448
 30
0.0
 11
144.86549152
 21
-27.84528419
 31
0.0
  0
LINE
  5
32E
100
AcDbEntity
  8
レイヤー_1
  6
CONTINUOUS
 62
       3
100
AcDbLine
 10
144.86549152
 20
-27.84528419
 30
0.0
 11
144.93991732
 21
-27.62115337
 31
0.0
  0
LINE
  5
32F
100
AcDbEntity
  8
レイヤー_1
  6
CONTINUOUS
 62
       3
100
AcDbLine
 10
144.93991732
 20
-27.62115337
 30
0.0
 11
144.99296932
 21
-27.39106926
 31
0.0
  0
LINE
  5
330
100
AcDbEntity
  8
レイヤー_1
  6
CONTINUOUS
 62
       3
100
AcDbLine
 10
144.99296932
 20
-27.39106926
 30
0.0
 11
145.02420674
 21
-27.15666915
 31
0.0
  0
LINE
  5
331
100
AcDbEntity
  8
レイヤー_1
  6
CONTINUOUS
 62
       3
100
AcDbLine
 10
145.02420674
 20
-27.15666915
 30
0.0
 11
145.03318881
 21
-26.9195902
 31
0.0
  0
LINE
  5
332
100
AcDbEntity
  8
レイヤー_1
  6
CONTINUOUS
 62
       3
100
AcDbLine
 10
145.03318881
 20
-26.9195902
 30
0.0
 11
145.01947477
 21
-26.68146971
 31
0.0
  0
LINE
  5
333
100
AcDbEntity
  8
レイヤー_1
  6
CONTINUOUS
 62
       3
100
AcDbLine
 10
145.01947477
 20
-26.68146971
 30
0.0
 11
144.98262384
 21
-26.44394489
 31
0.0
  0
LINE
  5
334
100
AcDbEntity
  8
レイヤー_1
  6
CONTINUOUS
 62
       3
100
AcDbLine
 10
144.98262384
 20
-26.44394489
 30
0.0
 11
144.92219524
 21
-26.20865298
 31
0.0
  0
LINE
  5
335
100
AcDbEntity
  8
レイヤー_1
  6
CONTINUOUS
 62
       3
100
AcDbLine
 10
144.92219524
 20
-26.20865298
 30
0.0
 11
144.83774819
 21
-25.97723122
 31
0.0
  0
LINE
  5
336
100
AcDbEntity
  8
レイヤー_1
  6
CONTINUOUS
 62
       3
100
AcDbLine
 10
144.83774819
 20
-25.97723122
 30
0.0
 11
144.72884196
 21
-25.75131684
 31
0.0
  0
LINE
  5
337
100
AcDbEntity
  8
レイヤー_1
  6
CONTINUOUS
 62
       3
100
AcDbLine
 10
144.72884196
 20
-25.75131684
 30
0.0
 11
144.59697969
 21
-25.53547194
 31
0.0
  0
LINE
  5
338
100
AcDbEntity
  8
レイヤー_1
  6
CONTINUOUS
 62
       3
100
AcDbLine
 10
144.59697969
 20
-25.53547194
 30
0.0
 11
144.44716126
 21
-25.33750261
 31
0.0
  0
LINE
  5
339
100
AcDbEntity
  8
レイヤー_1
  6
CONTINUOUS
 62
       3
100
AcDbLine
 10
144.44716126
 20
-25.33750261
 30
0.0
 11
144.28116343
 21
-25.15813585
 31
0.0
  0
LINE
  5
33A
100
AcDbEntity
  8
レイヤー_1
  6
CONTINUOUS
 62
       3
100
AcDbLine
 10
144.28116343
 20
-25.15813585
 30
0.0
 11
144.10062165
 21
-24.99781426
 31
0.0
  0
LINE
  5
33B
100
AcDbEntity
  8
レイヤー_1
  6
CONTINUOUS
 62
       3
100
AcDbLine
 10
144.10062165
 20
-24.99781426
 30
0.0
 11
143.90717134
 21
-24.85698037
 31
0.0
  0
LINE
  5
33C
100
AcDbEntity
  8
レイヤー_1
  6
CONTINUOUS
 62
       3
100
AcDbLine
 10
143.90717134
 20
-24.85698037
 30
0.0
 11
143.70244794
 21
-24.73607681
 31
0.0
  0
LINE
  5
33D
100
AcDbEntity
  8
レイヤー_1
  6
CONTINUOUS
 62
       3
100
AcDbLine
 10
143.70244794
 20
-24.73607681
 30
0.0
 11
143.48808687
 21
-24.63554613
 31
0.0
  0
LINE
  5
33E
100
AcDbEntity
  8
レイヤー_1
  6
CONTINUOUS
 62
       3
100
AcDbLine
 10
143.48808687
 20
-24.63554613
 30
0.0
 11
143.26572359
 21
-24.55583092
 31
0.0
  0
LINE
  5
33F
100
AcDbEntity
  8
レイヤー_1
  6
CONTINUOUS
 62
       3
100
AcDbLine
 10
143.26572359
 20
-24.55583092
 30
0.0
 11
143.0369935
 21
-24.49737375
 31
0.0
  0
LINE
  5
340
100
AcDbEntity
  8
レイヤー_1
  6
CONTINUOUS
 62
       3
100
AcDbLine
 10
143.0369935
 20
-24.49737375
 30
0.0
 11
142.80353204
 21
-24.4606172
 31
0.0
  0
LINE
  5
341
100
AcDbEntity
  8
レイヤー_1
  6
CONTINUOUS
 62
       3
100
AcDbLine
 10
142.80353204
 20
-24.4606172
 30
0.0
 11
142.56697464
 21
-24.44600385
 31
0.0
  0
LINE
  5
342
100
AcDbEntity
  8
レイヤー_1
  6
CONTINUOUS
 62
       3
100
AcDbLine
 10
142.56697464
 20
-24.44600385
 30
0.0
 11
142.32895673
 21
-24.45397627
 31
0.0
  0
LINE
  5
343
100
AcDbEntity
  8
レイヤー_1
  6
CONTINUOUS
 62
       3
100
AcDbLine
 10
142.32895673
 20
-24.45397627
 30
0.0
 11
142.09111376
 21
-24.48497705
 31
0.0
  0
LINE
  5
344
100
AcDbEntity
  8
レイヤー_1
  6
CONTINUOUS
 62
       3
100
AcDbLine
 10
142.09111376
 20
-24.48497705
 30
0.0
 11
141.85508113
 21
-24.53944875
 31
0.0
  0
LINE
  5
345
100
AcDbEntity
  8
レイヤー_1
  6
CONTINUOUS
 62
       3
100
AcDbLine
 10
141.85508113
 20
-24.53944875
 30
0.0
 11
141.62249428
 21
-24.61783398
 31
0.0
  0
LINE
  5
346
100
AcDbEntity
  8
レイヤー_1
  6
CONTINUOUS
 62
       3
100
AcDbLine
 10
141.62249428
 20
-24.61783398
 30
0.0
 11
141.39498865
 21
-24.72057528
 31
0.0
  0
LINE
  5
347
100
AcDbEntity
  8
レイヤー_1
  6
CONTINUOUS
 62
       3
100
AcDbLine
 10
141.39498865
 20
-24.72057528
 30
0.0
 11
141.17561814
 21
-24.84724871
 31
0.0
  0
LINE
  5
348
100
AcDbEntity
  8
レイヤー_1
  6
CONTINUOUS
 62
       3
100
AcDbLine
 10
141.17561814
 20
-24.84724871
 30
0.0
 11
140.97312823
 21
-24.99279319
 31
0.0
  0
LINE
  5
349
100
AcDbEntity
  8
レイヤー_1
  6
CONTINUOUS
 62
       3
100
AcDbLine
 10
140.97312823
 20
-24.99279319
 30
0.0
 11
140.78911339
 21
-25.15494715
 31
0.0
  0
LINE
  5
34A
100
AcDbEntity
  8
レイヤー_1
  6
CONTINUOUS
 62
       3
100
AcDbLine
 10
140.78911339
 20
-25.15494715
 30
0.0
 11
140.624018
 21
-25.33206971
 31
0.0
  0
LINE
  5
34B
100
AcDbEntity
  8
レイヤー_1
  6
CONTINUOUS
 62
       3
100
AcDbLine
 10
140.624018
 20
-25.33206971
 30
0.0
 11
140.47828646
 21
-25.52252003
 31
0.0
  0
LINE
  5
34C
100
AcDbEntity
  8
レイヤー_1
  6
CONTINUOUS
 62
       3
100
AcDbLine
 10
140.47828646
 20
-25.52252003
 30
0.0
 11
140.35236313
 21
-25.72465728
 31
0.0
  0
LINE
  5
34D
100
AcDbEntity
  8
レイヤー_1
  6
CONTINUOUS
 62
       3
100
AcDbLine
 10
140.35236313
 20
-25.72465728
 30
0.0
 11
140.24669242
 21
-25.93684062
 31
0.0
  0
LINE
  5
34E
100
AcDbEntity
  8
レイヤー_1
  6
CONTINUOUS
 62
       3
100
AcDbLine
 10
140.24669242
 20
-25.93684062
 30
0.0
 11
140.16171869
 21
-26.15742915
 31
0.0
  0
LINE
  5
34F
100
AcDbEntity
  8
レイヤー_1
  6
CONTINUOUS
 62
       3
100
AcDbLine
 10
140.16171869
 20
-26.15742915
 30
0.0
 11
140.09788634
 21
-26.38478205
 31
0.0
  0
LINE
  5
350
100
AcDbEntity
  8
レイヤー_1
  6
CONTINUOUS
 62
       3
100
AcDbLine
 10
140.09788634
 20
-26.38478205
 30
0.0
 11
140.05563975
 21
-26.61725849
 31
0.0
  0
LINE
  5
351
100
AcDbEntity
  8
レイヤー_1
  6
CONTINUOUS
 62
       3
100
AcDbLine
 10
140.05563975
 20
-26.61725849
 30
0.0
 11
140.03542332
 21
-26.85321757
 31
0.0
  0
LINE
  5
352
100
AcDbEntity
  8
レイヤー_1
  6
CONTINUOUS
 62
       3
100
AcDbLine
 10
140.03542332
 20
-26.85321757
 30
0.0
 11
140.0376814
 21
-27.09101848
 31
0.0
  0
LINE
  5
353
100
AcDbEntity
  8
レイヤー_1
  6
CONTINUOUS
 62
       3
100
AcDbLine
 10
140.0376814
 20
-27.09101848
 30
0.0
 11
140.06285841
 21
-27.32902035
 31
0.0
  0
LINE
  5
354
100
AcDbEntity
  8
レイヤー_1
  6
CONTINUOUS
 62
       3
100
AcDbLine
 10
140.06285841
 20
-27.32902035
 30
0.0
 11
140.11139871
 21
-27.56558234
 31
0.0
  0
LINE
  5
355
100
AcDbEntity
  8
レイヤー_1
  6
CONTINUOUS
 62
       3
100
AcDbLine
 10
140.11139871
 20
-27.56558234
 30
0.0
 11
140.18374668
 21
-27.7990636
 31
0.0
  0
LINE
  5
356
100
AcDbEntity
  8
レイヤー_1
  6
CONTINUOUS
 62
       3
100
AcDbLine
 10
140.18374668
 20
-27.7990636
 30
0.0
 11
140.28034673
 21
-28.02782327
 31
0.0
  0
LINE
  5
357
100
AcDbEntity
  8
レイヤー_1
  6
CONTINUOUS
 62
       3
100
AcDbLine
 10
140.28034673
 20
-28.02782327
 30
0.0
 11
140.40141215
 21
-28.24994202
 31
0.0
  0
LINE
  5
358
100
AcDbEntity
  8
レイヤー_1
  6
CONTINUOUS
 62
       3
100
AcDbLine
 10
140.40141215
 20
-28.24994202
 30
0.0
 11
140.54255463
 21
-28.45717073
 31
0.0
  0
LINE
  5
359
100
AcDbEntity
  8
レイヤー_1
  6
CONTINUOUS
 62
       3
100
AcDbLine
 10
140.54255463
 20
-28.45717073
 30
0.0
 11
140.70072432
 21
-28.64597601
 31
0.0
  0
LINE
  5
35A
100
AcDbEntity
  8
レイヤー_1
  6
CONTINUOUS
 62
       3
100
AcDbLine
 10
140.70072432
 20
-28.64597601
 30
0.0
 11
140.87427857
 21
-28.81592069
 31
0.0
  0
LINE
  5
35B
100
AcDbEntity
  8
レイヤー_1
  6
CONTINUOUS
 62
       3
100
AcDbLine
 10
140.87427857
 20
-28.81592069
 30
0.0
 11
141.06157471
 21
-28.96656761
 31
0.0
  0
LINE
  5
35C
100
AcDbEntity
  8
レイヤー_1
  6
CONTINUOUS
 62
       3
100
AcDbLine
 10
141.06157471
 20
-28.96656761
 30
0.0
 11
141.26097009
 21
-29.09747963
 31
0.0
  0
LINE
  5
35D
100
AcDbEntity
  8
レイヤー_1
  6
CONTINUOUS
 62
       3
100
AcDbLine
 10
141.26097009
 20
-29.09747963
 30
0.0
 11
141.47082205
 21
-29.20821959
 31
0.0
  0
LINE
  5
35E
100
AcDbEntity
  8
レイヤー_1
  6
CONTINUOUS
 62
       3
100
AcDbLine
 10
141.47082205
 20
-29.20821959
 30
0.0
 11
141.68948793
 21
-29.29835029
 31
0.0
  0
LINE
  5
35F
100
AcDbEntity
  8
レイヤー_1
  6
CONTINUOUS
 62
       3
100
AcDbLine
 10
141.68948793
 20
-29.29835029
 30
0.0
 11
141.91532508
 21
-29.36743464
 31
0.0
  0
LINE
  5
360
100
AcDbEntity
  8
レイヤー_1
  6
CONTINUOUS
 62
       3
100
AcDbLine
 10
141.91532508
 20
-29.36743464
 30
0.0
 11
142.14669084
 21
-29.41503541
 31
0.0
  0
LINE
  5
361
100
AcDbEntity
  8
レイヤー_1
  6
CONTINUOUS
 62
       3
100
AcDbLine
 10
142.14669084
 20
-29.41503541
 30
0.0
 11
142.38194255
 21
-29.44071549
 31
0.0
  0
LINE
  5
362
100
AcDbEntity
  8
レイヤー_1
  6
CONTINUOUS
 62
       3
100
AcDbLine
 10
142.38194255
 20
-29.44071549
 30
0.0
 11
142.61943758
 21
-29.44403769
 31
0.0
  0
LINE
  5
363
100
AcDbEntity
  8
レイヤー_1
  6
CONTINUOUS
 62
       3
100
AcDbLine
 10
142.61943758
 20
-29.44403769
 30
0.0
 11
142.85753324
 21
-29.42456488
 31
0.0
  0
LINE
  5
364
100
AcDbEntity
  8
レイヤー_1
  6
CONTINUOUS
 62
       3
100
AcDbLine
 10
142.85753324
 20
-29.42456488
 30
0.0
 11
143.09458688
 21
-29.3818599
 31
0.0
  0
LINE
  5
365
100
AcDbEntity
  8
レイヤー_1
  6
CONTINUOUS
 62
       3
100
AcDbLine
 10
143.09458688
 20
-29.3818599
 30
0.0
 11
143.32895585
 21
-29.31548556
 31
0.0
  0
LINE
  5
366
100
AcDbEntity
  8
レイヤー_1
  6
CONTINUOUS
 62
       3
100
AcDbLine
 10
143.32895585
 20
-29.31548556
 30
0.0
 11
143.55899748
 21
-29.22500475
 31
0.0
  0
LINE
  5
367
100
AcDbEntity
  8
レイヤー_1
  6
CONTINUOUS
 62
       3
100
AcDbLine
 10
143.55899748
 20
-29.22500475
 30
0.0
 11
143.78306915
 21
-29.10998026
 31
0.0
  0
LINE
  5
368
100
AcDbEntity
  8
レイヤー_1
  6
CONTINUOUS
 62
       3
100
AcDbLine
 10
139.01936337
 20
-30.42729865
 30
0.0
 11
146.01807485
 21
-30.42729865
 31
0.0
  0
LINE
  5
369
100
AcDbEntity
  8
レイヤー_1
  6
CONTINUOUS
 62
       3
100
AcDbLine
 10
146.01807485
 20
-30.42729865
 30
0.0
 11
146.01807485
 21
-23.42901782
 31
0.0
  0
LINE
  5
36A
100
AcDbEntity
  8
レイヤー_1
  6
CONTINUOUS
 62
       3
100
AcDbLine
 10
146.01807485
 20
-23.42901782
 30
0.0
 11
139.01936337
 21
-23.42901782
 31
0.0
  0
LINE
  5
36B
100
AcDbEntity
  8
レイヤー_1
  6
CONTINUOUS
 62
       3
100
AcDbLine
 10
139.01936337
 20
-23.42901782
 30
0.0
 11
139.01936337
 21
-30.42729865
 31
0.0
  0
LINE
  5
36C
100
AcDbEntity
  8
レイヤー_1
  6
CONTINUOUS
 62
       3
100
AcDbLine
 10
138.48020592
 20
-37.40189446
 30
0.0
 11
138.48020592
 21
-22.40453255
 31
0.0
  0
LINE
  5
36D
100
AcDbEntity
  8
レイヤー_1
  6
CONTINUOUS
 62
       3
100
AcDbLine
 10
138.48020592
 20
-22.40453255
 30
0.0
 11
146.47799509
 21
-22.40453255
 31
0.0
  0
LINE
  5
36E
100
AcDbEntity
  8
レイヤー_1
  6
CONTINUOUS
 62
       3
100
AcDbLine
 10
146.47799509
 20
-22.40453255
 30
0.0
 11
146.47799509
 21
-37.40189446
 31
0.0
  0
LINE
  5
36F
100
AcDbEntity
  8
レイヤー_1
  6
CONTINUOUS
 62
       3
100
AcDbLine
 10
133.78626333
 20
-29.10998026
 30
0.0
 11
133.99795498
 21
-28.97336501
 31
0.0
  0
LINE
  5
370
100
AcDbEntity
  8
レイヤー_1
  6
CONTINUOUS
 62
       3
100
AcDbLine
 10
133.99795498
 20
-28.97336501
 30
0.0
 11
134.19134228
 21
-28.81933584
 31
0.0
  0
LINE
  5
371
100
AcDbEntity
  8
レイヤー_1
  6
CONTINUOUS
 62
       3
100
AcDbLine
 10
134.19134228
 20
-28.81933584
 30
0.0
 11
134.36598805
 21
-28.64952996
 31
0.0
  0
LINE
  5
372
100
AcDbEntity
  8
レイヤー_1
  6
CONTINUOUS
 62
       3
100
AcDbLine
 10
134.36598805
 20
-28.64952996
 30
0.0
 11
134.52145515
 21
-28.46558461
 31
0.0
  0
LINE
  5
373
100
AcDbEntity
  8
レイヤー_1
  6
CONTINUOUS
 62
       3
100
AcDbLine
 10
134.52145515
 20
-28.46558461
 30
0.0
 11
134.6573064
 21
-28.26913705
 31
0.0
  0
LINE
  5
374
100
AcDbEntity
  8
レイヤー_1
  6
CONTINUOUS
 62
       3
100
AcDbLine
 10
134.6573064
 20
-28.26913705
 30
0.0
 11
134.77310467
 21
-28.06182448
 31
0.0
  0
LINE
  5
375
100
AcDbEntity
  8
レイヤー_1
  6
CONTINUOUS
 62
       3
100
AcDbLine
 10
134.77310467
 20
-28.06182448
 30
0.0
 11
134.86841276
 21
-27.84528419
 31
0.0
  0
LINE
  5
376
100
AcDbEntity
  8
レイヤー_1
  6
CONTINUOUS
 62
       3
100
AcDbLine
 10
134.86841276
 20
-27.84528419
 30
0.0
 11
134.94279357
 21
-27.62115337
 31
0.0
  0
LINE
  5
377
100
AcDbEntity
  8
レイヤー_1
  6
CONTINUOUS
 62
       3
100
AcDbLine
 10
134.94279357
 20
-27.62115337
 30
0.0
 11
134.99580989
 21
-27.39106926
 31
0.0
  0
LINE
  5
378
100
AcDbEntity
  8
レイヤー_1
  6
CONTINUOUS
 62
       3
100
AcDbLine
 10
134.99580989
 20
-27.39106926
 30
0.0
 11
135.02702458
 21
-27.15666915
 31
0.0
  0
LINE
  5
379
100
AcDbEntity
  8
レイヤー_1
  6
CONTINUOUS
 62
       3
100
AcDbLine
 10
135.02702458
 20
-27.15666915
 30
0.0
 11
135.03600048
 21
-26.9195902
 31
0.0
  0
LINE
  5
37A
100
AcDbEntity
  8
レイヤー_1
  6
CONTINUOUS
 62
       3
100
AcDbLine
 10
135.03600048
 20
-26.9195902
 30
0.0
 11
135.02230044
 21
-26.68146971
 31
0.0
  0
LINE
  5
37B
100
AcDbEntity
  8
レイヤー_1
  6
CONTINUOUS
 62
       3
100
AcDbLine
 10
135.02230044
 20
-26.68146971
 30
0.0
 11
134.98548728
 21
-26.44394489
 31
0.0
  0
LINE
  5
37C
100
AcDbEntity
  8
レイヤー_1
  6
CONTINUOUS
 62
       3
100
AcDbLine
 10
134.98548728
 20
-26.44394489
 30
0.0
 11
134.92512387
 21
-26.20865298
 31
0.0
  0
LINE
  5
37D
100
AcDbEntity
  8
レイヤー_1
  6
CONTINUOUS
 62
       3
100
AcDbLine
 10
134.92512387
 20
-26.20865298
 30
0.0
 11
134.84077303
 21
-25.97723122
 31
0.0
  0
LINE
  5
37E
100
AcDbEntity
  8
レイヤー_1
  6
CONTINUOUS
 62
       3
100
AcDbLine
 10
134.84077303
 20
-25.97723122
 30
0.0
 11
134.7319976
 21
-25.75131684
 31
0.0
  0
LINE
  5
37F
100
AcDbEntity
  8
レイヤー_1
  6
CONTINUOUS
 62
       3
100
AcDbLine
 10
134.7319976
 20
-25.75131684
 30
0.0
 11
134.60016863
 21
-25.53547194
 31
0.0
  0
LINE
  5
380
100
AcDbEntity
  8
レイヤー_1
  6
CONTINUOUS
 62
       3
100
AcDbLine
 10
134.60016863
 20
-25.53547194
 30
0.0
 11
134.4503287
 21
-25.33750261
 31
0.0
  0
LINE
  5
381
100
AcDbEntity
  8
レイヤー_1
  6
CONTINUOUS
 62
       3
100
AcDbLine
 10
134.4503287
 20
-25.33750261
 30
0.0
 11
134.28429613
 21
-25.15813585
 31
0.0
  0
LINE
  5
382
100
AcDbEntity
  8
レイヤー_1
  6
CONTINUOUS
 62
       3
100
AcDbLine
 10
134.28429613
 20
-25.15813585
 30
0.0
 11
134.10370997
 21
-24.99781426
 31
0.0
  0
LINE
  5
383
100
AcDbEntity
  8
レイヤー_1
  6
CONTINUOUS
 62
       3
100
AcDbLine
 10
134.10370997
 20
-24.99781426
 30
0.0
 11
133.91020928
 21
-24.85698037
 31
0.0
  0
LINE
  5
384
100
AcDbEntity
  8
レイヤー_1
  6
CONTINUOUS
 62
       3
100
AcDbLine
 10
133.91020928
 20
-24.85698037
 30
0.0
 11
133.70543308
 21
-24.73607681
 31
0.0
  0
LINE
  5
385
100
AcDbEntity
  8
レイヤー_1
  6
CONTINUOUS
 62
       3
100
AcDbLine
 10
133.70543308
 20
-24.73607681
 30
0.0
 11
133.49102042
 21
-24.63554613
 31
0.0
  0
LINE
  5
386
100
AcDbEntity
  8
レイヤー_1
  6
CONTINUOUS
 62
       3
100
AcDbLine
 10
133.49102042
 20
-24.63554613
 30
0.0
 11
133.26861035
 21
-24.55583092
 31
0.0
  0
LINE
  5
387
100
AcDbEntity
  8
レイヤー_1
  6
CONTINUOUS
 62
       3
100
AcDbLine
 10
133.26861035
 20
-24.55583092
 30
0.0
 11
133.03984191
 21
-24.49737375
 31
0.0
  0
LINE
  5
388
100
AcDbEntity
  8
レイヤー_1
  6
CONTINUOUS
 62
       3
100
AcDbLine
 10
133.03984191
 20
-24.49737375
 30
0.0
 11
132.80635415
 21
-24.4606172
 31
0.0
  0
LINE
  5
389
100
AcDbEntity
  8
レイヤー_1
  6
CONTINUOUS
 62
       3
100
AcDbLine
 10
132.80635415
 20
-24.4606172
 30
0.0
 11
132.5697861
 21
-24.44600385
 31
0.0
  0
LINE
  5
38A
100
AcDbEntity
  8
レイヤー_1
  6
CONTINUOUS
 62
       3
100
AcDbLine
 10
132.5697861
 20
-24.44600385
 30
0.0
 11
132.33177681
 21
-24.45397627
 31
0.0
  0
LINE
  5
38B
100
AcDbEntity
  8
レイヤー_1
  6
CONTINUOUS
 62
       3
100
AcDbLine
 10
132.33177681
 20
-24.45397627
 30
0.0
 11
132.09396533
 21
-24.48497705
 31
0.0
  0
LINE
  5
38C
100
AcDbEntity
  8
レイヤー_1
  6
CONTINUOUS
 62
       3
100
AcDbLine
 10
132.09396533
 20
-24.48497705
 30
0.0
 11
131.8579907
 21
-24.53944875
 31
0.0
  0
LINE
  5
38D
100
AcDbEntity
  8
レイヤー_1
  6
CONTINUOUS
 62
       3
100
AcDbLine
 10
131.8579907
 20
-24.53944875
 30
0.0
 11
131.62549196
 21
-24.61783398
 31
0.0
  0
LINE
  5
38E
100
AcDbEntity
  8
レイヤー_1
  6
CONTINUOUS
 62
       3
100
AcDbLine
 10
131.62549196
 20
-24.61783398
 30
0.0
 11
131.39810815
 21
-24.72057528
 31
0.0
  0
LINE
  5
38F
100
AcDbEntity
  8
レイヤー_1
  6
CONTINUOUS
 62
       3
100
AcDbLine
 10
131.39810815
 20
-24.72057528
 30
0.0
 11
131.17873763
 21
-24.84724871
 31
0.0
  0
LINE
  5
390
100
AcDbEntity
  8
レイヤー_1
  6
CONTINUOUS
 62
       3
100
AcDbLine
 10
131.17873763
 20
-24.84724871
 30
0.0
 11
130.9761259
 21
-24.99279319
 31
0.0
  0
LINE
  5
391
100
AcDbEntity
  8
レイヤー_1
  6
CONTINUOUS
 62
       3
100
AcDbLine
 10
130.9761259
 20
-24.99279319
 30
0.0
 11
130.79202296
 21
-25.15494715
 31
0.0
  0
LINE
  5
392
100
AcDbEntity
  8
レイヤー_1
  6
CONTINUOUS
 62
       3
100
AcDbLine
 10
130.79202296
 20
-25.15494715
 30
0.0
 11
130.62686958
 21
-25.33206971
 31
0.0
  0
LINE
  5
393
100
AcDbEntity
  8
レイヤー_1
  6
CONTINUOUS
 62
       3
100
AcDbLine
 10
130.62686958
 20
-25.33206971
 30
0.0
 11
130.48110653
 21
-25.52252003
 31
0.0
  0
LINE
  5
394
100
AcDbEntity
  8
レイヤー_1
  6
CONTINUOUS
 62
       3
100
AcDbLine
 10
130.48110653
 20
-25.52252003
 30
0.0
 11
130.35517459
 21
-25.72465728
 31
0.0
  0
LINE
  5
395
100
AcDbEntity
  8
レイヤー_1
  6
CONTINUOUS
 62
       3
100
AcDbLine
 10
130.35517459
 20
-25.72465728
 30
0.0
 11
130.24951452
 21
-25.93684062
 31
0.0
  0
LINE
  5
396
100
AcDbEntity
  8
レイヤー_1
  6
CONTINUOUS
 62
       3
100
AcDbLine
 10
130.24951452
 20
-25.93684062
 30
0.0
 11
130.1645671
 21
-26.15742915
 31
0.0
  0
LINE
  5
397
100
AcDbEntity
  8
レイヤー_1
  6
CONTINUOUS
 62
       3
100
AcDbLine
 10
130.1645671
 20
-26.15742915
 30
0.0
 11
130.10077309
 21
-26.38478205
 31
0.0
  0
LINE
  5
398
100
AcDbEntity
  8
レイヤー_1
  6
CONTINUOUS
 62
       3
100
AcDbLine
 10
130.10077309
 20
-26.38478205
 30
0.0
 11
130.0585733
 21
-26.61725849
 31
0.0
  0
LINE
  5
399
100
AcDbEntity
  8
レイヤー_1
  6
CONTINUOUS
 62
       3
100
AcDbLine
 10
130.0585733
 20
-26.61725849
 30
0.0
 11
130.03840844
 21
-26.85321757
 31
0.0
  0
LINE
  5
39A
100
AcDbEntity
  8
レイヤー_1
  6
CONTINUOUS
 62
       3
100
AcDbLine
 10
130.03840844
 20
-26.85321757
 30
0.0
 11
130.04071934
 21
-27.09101848
 31
0.0
  0
LINE
  5
39B
100
AcDbEntity
  8
レイヤー_1
  6
CONTINUOUS
 62
       3
100
AcDbLine
 10
130.04071934
 20
-27.09101848
 30
0.0
 11
130.06594674
 21
-27.32902035
 31
0.0
  0
LINE
  5
39C
100
AcDbEntity
  8
レイヤー_1
  6
CONTINUOUS
 62
       3
100
AcDbLine
 10
130.06594674
 20
-27.32902035
 30
0.0
 11
130.11453141
 21
-27.56558234
 31
0.0
  0
LINE
  5
39D
100
AcDbEntity
  8
レイヤー_1
  6
CONTINUOUS
 62
       3
100
AcDbLine
 10
130.11453141
 20
-27.56558234
 30
0.0
 11
130.18691413
 21
-27.7990636
 31
0.0
  0
LINE
  5
39E
100
AcDbEntity
  8
レイヤー_1
  6
CONTINUOUS
 62
       3
100
AcDbLine
 10
130.18691413
 20
-27.7990636
 30
0.0
 11
130.28353567
 21
-28.02782327
 31
0.0
  0
LINE
  5
39F
100
AcDbEntity
  8
レイヤー_1
  6
CONTINUOUS
 62
       3
100
AcDbLine
 10
130.28353567
 20
-28.02782327
 30
0.0
 11
130.40460572
 21
-28.24994202
 31
0.0
  0
LINE
  5
3A0
100
AcDbEntity
  8
レイヤー_1
  6
CONTINUOUS
 62
       3
100
AcDbLine
 10
130.40460572
 20
-28.24994202
 30
0.0
 11
130.54573468
 21
-28.45717073
 31
0.0
  0
LINE
  5
3A1
100
AcDbEntity
  8
レイヤー_1
  6
CONTINUOUS
 62
       3
100
AcDbLine
 10
130.54573468
 20
-28.45717073
 30
0.0
 11
130.70387582
 21
-28.64597601
 31
0.0
  0
LINE
  5
3A2
100
AcDbEntity
  8
レイヤー_1
  6
CONTINUOUS
 62
       3
100
AcDbLine
 10
130.70387582
 20
-28.64597601
 30
0.0
 11
130.87739006
 21
-28.81592069
 31
0.0
  0
LINE
  5
3A3
100
AcDbEntity
  8
レイヤー_1
  6
CONTINUOUS
 62
       3
100
AcDbLine
 10
130.87739006
 20
-28.81592069
 30
0.0
 11
131.06463837
 21
-28.96656761
 31
0.0
  0
LINE
  5
3A4
100
AcDbEntity
  8
レイヤー_1
  6
CONTINUOUS
 62
       3
100
AcDbLine
 10
131.06463837
 20
-28.96656761
 30
0.0
 11
131.2639817
 21
-29.09747963
 31
0.0
  0
LINE
  5
3A5
100
AcDbEntity
  8
レイヤー_1
  6
CONTINUOUS
 62
       3
100
AcDbLine
 10
131.2639817
 20
-29.09747963
 30
0.0
 11
131.47378101
 21
-29.20821959
 31
0.0
  0
LINE
  5
3A6
100
AcDbEntity
  8
レイヤー_1
  6
CONTINUOUS
 62
       3
100
AcDbLine
 10
131.47378101
 20
-29.20821959
 30
0.0
 11
131.69239725
 21
-29.29835029
 31
0.0
  0
LINE
  5
3A7
100
AcDbEntity
  8
レイヤー_1
  6
CONTINUOUS
 62
       3
100
AcDbLine
 10
131.69239725
 20
-29.29835029
 30
0.0
 11
131.91819139
 21
-29.36743464
 31
0.0
  0
LINE
  5
3A8
100
AcDbEntity
  8
レイヤー_1
  6
CONTINUOUS
 62
       3
100
AcDbLine
 10
131.91819139
 20
-29.36743464
 30
0.0
 11
132.14952437
 21
-29.41503541
 31
0.0
  0
LINE
  5
3A9
100
AcDbEntity
  8
レイヤー_1
  6
CONTINUOUS
 62
       3
100
AcDbLine
 10
132.14952437
 20
-29.41503541
 30
0.0
 11
132.38475716
 21
-29.44071549
 31
0.0
  0
LINE
  5
3AA
100
AcDbEntity
  8
レイヤー_1
  6
CONTINUOUS
 62
       3
100
AcDbLine
 10
132.38475716
 20
-29.44071549
 30
0.0
 11
132.62225071
 21
-29.44403769
 31
0.0
  0
LINE
  5
3AB
100
AcDbEntity
  8
レイヤー_1
  6
CONTINUOUS
 62
       3
100
AcDbLine
 10
132.62225071
 20
-29.44403769
 30
0.0
 11
132.86036597
 21
-29.42456488
 31
0.0
  0
LINE
  5
3AC
100
AcDbEntity
  8
レイヤー_1
  6
CONTINUOUS
 62
       3
100
AcDbLine
 10
132.86036597
 20
-29.42456488
 30
0.0
 11
133.09746391
 21
-29.3818599
 31
0.0
  0
LINE
  5
3AD
100
AcDbEntity
  8
レイヤー_1
  6
CONTINUOUS
 62
       3
100
AcDbLine
 10
133.09746391
 20
-29.3818599
 30
0.0
 11
133.33190548
 21
-29.31548556
 31
0.0
  0
LINE
  5
3AE
100
AcDbEntity
  8
レイヤー_1
  6
CONTINUOUS
 62
       3
100
AcDbLine
 10
133.33190548
 20
-29.31548556
 30
0.0
 11
133.56205163
 21
-29.22500475
 31
0.0
  0
LINE
  5
3AF
100
AcDbEntity
  8
レイヤー_1
  6
CONTINUOUS
 62
       3
100
AcDbLine
 10
133.56205163
 20
-29.22500475
 30
0.0
 11
133.78626333
 21
-29.10998026
 31
0.0
  0
LINE
  5
3B0
100
AcDbEntity
  8
レイヤー_1
  6
CONTINUOUS
 62
       3
100
AcDbLine
 10
129.02255754
 20
-30.42729865
 30
0.0
 11
136.02126902
 21
-30.42729865
 31
0.0
  0
LINE
  5
3B1
100
AcDbEntity
  8
レイヤー_1
  6
CONTINUOUS
 62
       3
100
AcDbLine
 10
136.02126902
 20
-30.42729865
 30
0.0
 11
136.02126902
 21
-23.42901782
 31
0.0
  0
LINE
  5
3B2
100
AcDbEntity
  8
レイヤー_1
  6
CONTINUOUS
 62
       3
100
AcDbLine
 10
136.02126902
 20
-23.42901782
 30
0.0
 11
129.02255754
 21
-23.42901782
 31
0.0
  0
LINE
  5
3B3
100
AcDbEntity
  8
レイヤー_1
  6
CONTINUOUS
 62
       3
100
AcDbLine
 10
129.02255754
 20
-23.42901782
 30
0.0
 11
129.02255754
 21
-30.42729865
 31
0.0
  0
LINE
  5
3B4
100
AcDbEntity
  8
レイヤー_1
  6
CONTINUOUS
 62
       3
100
AcDbLine
 10
128.4834001
 20
-37.40189446
 30
0.0
 11
128.4834001
 21
-22.40453255
 31
0.0
  0
LINE
  5
3B5
100
AcDbEntity
  8
レイヤー_1
  6
CONTINUOUS
 62
       3
100
AcDbLine
 10
128.4834001
 20
-22.40453255
 30
0.0
 11
136.480328
 21
-22.40453255
 31
0.0
  0
LINE
  5
3B6
100
AcDbEntity
  8
レイヤー_1
  6
CONTINUOUS
 62
       3
100
AcDbLine
 10
136.480328
 20
-22.40453255
 30
0.0
 11
136.480328
 21
-37.40189446
 31
0.0
  0
LINE
  5
3B7
100
AcDbEntity
  8
レイヤー_1
  6
CONTINUOUS
 62
       3
100
AcDbLine
 10
115.78305559
 20
-29.10998026
 30
0.0
 11
115.99475643
 21
-28.97336501
 31
0.0
  0
LINE
  5
3B8
100
AcDbEntity
  8
レイヤー_1
  6
CONTINUOUS
 62
       3
100
AcDbLine
 10
115.99475643
 20
-28.97336501
 30
0.0
 11
116.18816886
 21
-28.81933584
 31
0.0
  0
LINE
  5
3B9
100
AcDbEntity
  8
レイヤー_1
  6
CONTINUOUS
 62
       3
100
AcDbLine
 10
116.18816886
 20
-28.81933584
 30
0.0
 11
116.36285212
 21
-28.64952996
 31
0.0
  0
LINE
  5
3BA
100
AcDbEntity
  8
レイヤー_1
  6
CONTINUOUS
 62
       3
100
AcDbLine
 10
116.36285212
 20
-28.64952996
 30
0.0
 11
116.51836543
 21
-28.46558461
 31
0.0
  0
LINE
  5
3BB
100
AcDbEntity
  8
レイヤー_1
  6
CONTINUOUS
 62
       3
100
AcDbLine
 10
116.51836543
 20
-28.46558461
 30
0.0
 11
116.65426802
 21
-28.26913705
 31
0.0
  0
LINE
  5
3BC
100
AcDbEntity
  8
レイヤー_1
  6
CONTINUOUS
 62
       3
100
AcDbLine
 10
116.65426802
 20
-28.26913705
 30
0.0
 11
116.77011913
 21
-28.06182448
 31
0.0
  0
LINE
  5
3BD
100
AcDbEntity
  8
レイヤー_1
  6
CONTINUOUS
 62
       3
100
AcDbLine
 10
116.77011913
 20
-28.06182448
 30
0.0
 11
116.86547795
 21
-27.84528419
 31
0.0
  0
LINE
  5
3BE
100
AcDbEntity
  8
レイヤー_1
  6
CONTINUOUS
 62
       3
100
AcDbLine
 10
116.86547795
 20
-27.84528419
 30
0.0
 11
116.93990377
 21
-27.62115337
 31
0.0
  0
LINE
  5
3BF
100
AcDbEntity
  8
レイヤー_1
  6
CONTINUOUS
 62
       3
100
AcDbLine
 10
116.93990377
 20
-27.62115337
 30
0.0
 11
116.99295577
 21
-27.39106926
 31
0.0
  0
LINE
  5
3C0
100
AcDbEntity
  8
レイヤー_1
  6
CONTINUOUS
 62
       3
100
AcDbLine
 10
116.99295577
 20
-27.39106926
 30
0.0
 11
117.02419319
 21
-27.15666915
 31
0.0
  0
LINE
  5
3C1
100
AcDbEntity
  8
レイヤー_1
  6
CONTINUOUS
 62
       3
100
AcDbLine
 10
117.02419319
 20
-27.15666915
 30
0.0
 11
117.03317526
 21
-26.9195902
 31
0.0
  0
LINE
  5
3C2
100
AcDbEntity
  8
レイヤー_1
  6
CONTINUOUS
 62
       3
100
AcDbLine
 10
117.03317526
 20
-26.9195902
 30
0.0
 11
117.01946122
 21
-26.68146971
 31
0.0
  0
LINE
  5
3C3
100
AcDbEntity
  8
レイヤー_1
  6
CONTINUOUS
 62
       3
100
AcDbLine
 10
117.01946122
 20
-26.68146971
 30
0.0
 11
116.98261028
 21
-26.44394489
 31
0.0
  0
LINE
  5
3C4
100
AcDbEntity
  8
レイヤー_1
  6
CONTINUOUS
 62
       3
100
AcDbLine
 10
116.98261028
 20
-26.44394489
 30
0.0
 11
116.92218168
 21
-26.20865298
 31
0.0
  0
LINE
  5
3C5
100
AcDbEntity
  8
レイヤー_1
  6
CONTINUOUS
 62
       3
100
AcDbLine
 10
116.92218168
 20
-26.20865298
 30
0.0
 11
116.83773465
 21
-25.97723122
 31
0.0
  0
LINE
  5
3C6
100
AcDbEntity
  8
レイヤー_1
  6
CONTINUOUS
 62
       3
100
AcDbLine
 10
116.83773465
 20
-25.97723122
 30
0.0
 11
116.72882841
 21
-25.75131684
 31
0.0
  0
LINE
  5
3C7
100
AcDbEntity
  8
レイヤー_1
  6
CONTINUOUS
 62
       3
100
AcDbLine
 10
116.72882841
 20
-25.75131684
 30
0.0
 11
116.5968524
 21
-25.53547194
 31
0.0
  0
LINE
  5
3C8
100
AcDbEntity
  8
レイヤー_1
  6
CONTINUOUS
 62
       3
100
AcDbLine
 10
116.5968524
 20
-25.53547194
 30
0.0
 11
116.44689941
 21
-25.33750261
 31
0.0
  0
LINE
  5
3C9
100
AcDbEntity
  8
レイヤー_1
  6
CONTINUOUS
 62
       3
100
AcDbLine
 10
116.44689941
 20
-25.33750261
 30
0.0
 11
116.28078661
 21
-25.15813585
 31
0.0
  0
LINE
  5
3CA
100
AcDbEntity
  8
レイヤー_1
  6
CONTINUOUS
 62
       3
100
AcDbLine
 10
116.28078661
 20
-25.15813585
 30
0.0
 11
116.10014943
 21
-24.99781426
 31
0.0
  0
LINE
  5
3CB
100
AcDbEntity
  8
レイヤー_1
  6
CONTINUOUS
 62
       3
100
AcDbLine
 10
116.10014943
 20
-24.99781426
 30
0.0
 11
115.90662328
 21
-24.85698037
 31
0.0
  0
LINE
  5
3CC
100
AcDbEntity
  8
レイヤー_1
  6
CONTINUOUS
 62
       3
100
AcDbLine
 10
115.90662328
 20
-24.85698037
 30
0.0
 11
115.70184363
 21
-24.73607681
 31
0.0
  0
LINE
  5
3CD
100
AcDbEntity
  8
レイヤー_1
  6
CONTINUOUS
 62
       3
100
AcDbLine
 10
115.70184363
 20
-24.73607681
 30
0.0
 11
115.48744587
 21
-24.63554613
 31
0.0
  0
LINE
  5
3CE
100
AcDbEntity
  8
レイヤー_1
  6
CONTINUOUS
 62
       3
100
AcDbLine
 10
115.48744587
 20
-24.63554613
 30
0.0
 11
115.26506546
 21
-24.55583092
 31
0.0
  0
LINE
  5
3CF
100
AcDbEntity
  8
レイヤー_1
  6
CONTINUOUS
 62
       3
100
AcDbLine
 10
115.26506546
 20
-24.55583092
 30
0.0
 11
115.0363378
 21
-24.49737375
 31
0.0
  0
LINE
  5
3D0
100
AcDbEntity
  8
レイヤー_1
  6
CONTINUOUS
 62
       3
100
AcDbLine
 10
115.0363378
 20
-24.49737375
 30
0.0
 11
114.80289837
 21
-24.4606172
 31
0.0
  0
LINE
  5
3D1
100
AcDbEntity
  8
レイヤー_1
  6
CONTINUOUS
 62
       3
100
AcDbLine
 10
114.80289837
 20
-24.4606172
 30
0.0
 11
114.56638255
 21
-24.44600385
 31
0.0
  0
LINE
  5
3D2
100
AcDbEntity
  8
レイヤー_1
  6
CONTINUOUS
 62
       3
100
AcDbLine
 10
114.56638255
 20
-24.44600385
 30
0.0
 11
114.32842581
 21
-24.45397627
 31
0.0
  0
LINE
  5
3D3
100
AcDbEntity
  8
レイヤー_1
  6
CONTINUOUS
 62
       3
100
AcDbLine
 10
114.32842581
 20
-24.45397627
 30
0.0
 11
114.09066355
 21
-24.48497705
 31
0.0
  0
LINE
  5
3D4
100
AcDbEntity
  8
レイヤー_1
  6
CONTINUOUS
 62
       3
100
AcDbLine
 10
114.09066355
 20
-24.48497705
 30
0.0
 11
113.85473121
 21
-24.53944875
 31
0.0
  0
LINE
  5
3D5
100
AcDbEntity
  8
レイヤー_1
  6
CONTINUOUS
 62
       3
100
AcDbLine
 10
113.85473121
 20
-24.53944875
 30
0.0
 11
113.62226424
 21
-24.61783398
 31
0.0
  0
LINE
  5
3D6
100
AcDbEntity
  8
レイヤー_1
  6
CONTINUOUS
 62
       3
100
AcDbLine
 10
113.62226424
 20
-24.61783398
 30
0.0
 11
113.39489805
 21
-24.72057528
 31
0.0
  0
LINE
  5
3D7
100
AcDbEntity
  8
レイヤー_1
  6
CONTINUOUS
 62
       3
100
AcDbLine
 10
113.39489805
 20
-24.72057528
 30
0.0
 11
113.17560457
 21
-24.84724871
 31
0.0
  0
LINE
  5
3D8
100
AcDbEntity
  8
レイヤー_1
  6
CONTINUOUS
 62
       3
100
AcDbLine
 10
113.17560457
 20
-24.84724871
 30
0.0
 11
112.97311467
 21
-24.99279319
 31
0.0
  0
LINE
  5
3D9
100
AcDbEntity
  8
レイヤー_1
  6
CONTINUOUS
 62
       3
100
AcDbLine
 10
112.97311467
 20
-24.99279319
 30
0.0
 11
112.78909983
 21
-25.15494715
 31
0.0
  0
LINE
  5
3DA
100
AcDbEntity
  8
レイヤー_1
  6
CONTINUOUS
 62
       3
100
AcDbLine
 10
112.78909983
 20
-25.15494715
 30
0.0
 11
112.62400445
 21
-25.33206971
 31
0.0
  0
LINE
  5
3DB
100
AcDbEntity
  8
レイヤー_1
  6
CONTINUOUS
 62
       3
100
AcDbLine
 10
112.62400445
 20
-25.33206971
 30
0.0
 11
112.4782729
 21
-25.52252003
 31
0.0
  0
LINE
  5
3DC
100
AcDbEntity
  8
レイヤー_1
  6
CONTINUOUS
 62
       3
100
AcDbLine
 10
112.4782729
 20
-25.52252003
 30
0.0
 11
112.35234958
 21
-25.72465728
 31
0.0
  0
LINE
  5
3DD
100
AcDbEntity
  8
レイヤー_1
  6
CONTINUOUS
 62
       3
100
AcDbLine
 10
112.35234958
 20
-25.72465728
 30
0.0
 11
112.24667886
 21
-25.93684062
 31
0.0
  0
LINE
  5
3DE
100
AcDbEntity
  8
レイヤー_1
  6
CONTINUOUS
 62
       3
100
AcDbLine
 10
112.24667886
 20
-25.93684062
 30
0.0
 11
112.16170514
 21
-26.15742915
 31
0.0
  0
LINE
  5
3DF
100
AcDbEntity
  8
レイヤー_1
  6
CONTINUOUS
 62
       3
100
AcDbLine
 10
112.16170514
 20
-26.15742915
 30
0.0
 11
112.09787279
 21
-26.38478205
 31
0.0
  0
LINE
  5
3E0
100
AcDbEntity
  8
レイヤー_1
  6
CONTINUOUS
 62
       3
100
AcDbLine
 10
112.09787279
 20
-26.38478205
 30
0.0
 11
112.0556262
 21
-26.61725849
 31
0.0
  0
LINE
  5
3E1
100
AcDbEntity
  8
レイヤー_1
  6
CONTINUOUS
 62
       3
100
AcDbLine
 10
112.0556262
 20
-26.61725849
 30
0.0
 11
112.03540976
 21
-26.85321757
 31
0.0
  0
LINE
  5
3E2
100
AcDbEntity
  8
レイヤー_1
  6
CONTINUOUS
 62
       3
100
AcDbLine
 10
112.03540976
 20
-26.85321757
 30
0.0
 11
112.03766785
 21
-27.09101848
 31
0.0
  0
LINE
  5
3E3
100
AcDbEntity
  8
レイヤー_1
  6
CONTINUOUS
 62
       3
100
AcDbLine
 10
112.03766785
 20
-27.09101848
 30
0.0
 11
112.06284485
 21
-27.32902035
 31
0.0
  0
LINE
  5
3E4
100
AcDbEntity
  8
レイヤー_1
  6
CONTINUOUS
 62
       3
100
AcDbLine
 10
112.06284485
 20
-27.32902035
 30
0.0
 11
112.11138515
 21
-27.56558234
 31
0.0
  0
LINE
  5
3E5
100
AcDbEntity
  8
レイヤー_1
  6
CONTINUOUS
 62
       3
100
AcDbLine
 10
112.11138515
 20
-27.56558234
 30
0.0
 11
112.18373314
 21
-27.7990636
 31
0.0
  0
LINE
  5
3E6
100
AcDbEntity
  8
レイヤー_1
  6
CONTINUOUS
 62
       3
100
AcDbLine
 10
112.18373314
 20
-27.7990636
 30
0.0
 11
112.28033318
 21
-28.02782327
 31
0.0
  0
LINE
  5
3E7
100
AcDbEntity
  8
レイヤー_1
  6
CONTINUOUS
 62
       3
100
AcDbLine
 10
112.28033318
 20
-28.02782327
 30
0.0
 11
112.40139798
 21
-28.24994202
 31
0.0
  0
LINE
  5
3E8
100
AcDbEntity
  8
レイヤー_1
  6
CONTINUOUS
 62
       3
100
AcDbLine
 10
112.40139798
 20
-28.24994202
 30
0.0
 11
112.54252696
 21
-28.45717073
 31
0.0
  0
LINE
  5
3E9
100
AcDbEntity
  8
レイヤー_1
  6
CONTINUOUS
 62
       3
100
AcDbLine
 10
112.54252696
 20
-28.45717073
 30
0.0
 11
112.70066808
 21
-28.64597601
 31
0.0
  0
LINE
  5
3EA
100
AcDbEntity
  8
レイヤー_1
  6
CONTINUOUS
 62
       3
100
AcDbLine
 10
112.70066808
 20
-28.64597601
 30
0.0
 11
112.87418233
 21
-28.81592069
 31
0.0
  0
LINE
  5
3EB
100
AcDbEntity
  8
レイヤー_1
  6
CONTINUOUS
 62
       3
100
AcDbLine
 10
112.87418233
 20
-28.81592069
 30
0.0
 11
113.06143063
 21
-28.96656761
 31
0.0
  0
LINE
  5
3EC
100
AcDbEntity
  8
レイヤー_1
  6
CONTINUOUS
 62
       3
100
AcDbLine
 10
113.06143063
 20
-28.96656761
 30
0.0
 11
113.26077397
 21
-29.09747963
 31
0.0
  0
LINE
  5
3ED
100
AcDbEntity
  8
レイヤー_1
  6
CONTINUOUS
 62
       3
100
AcDbLine
 10
113.26077397
 20
-29.09747963
 30
0.0
 11
113.47057328
 21
-29.20821959
 31
0.0
  0
LINE
  5
3EE
100
AcDbEntity
  8
レイヤー_1
  6
CONTINUOUS
 62
       3
100
AcDbLine
 10
113.47057328
 20
-29.20821959
 30
0.0
 11
113.68918952
 21
-29.29835029
 31
0.0
  0
LINE
  5
3EF
100
AcDbEntity
  8
レイヤー_1
  6
CONTINUOUS
 62
       3
100
AcDbLine
 10
113.68918952
 20
-29.29835029
 30
0.0
 11
113.91498365
 21
-29.36743464
 31
0.0
  0
LINE
  5
3F0
100
AcDbEntity
  8
レイヤー_1
  6
CONTINUOUS
 62
       3
100
AcDbLine
 10
113.91498365
 20
-29.36743464
 30
0.0
 11
114.14631664
 21
-29.41503541
 31
0.0
  0
LINE
  5
3F1
100
AcDbEntity
  8
レイヤー_1
  6
CONTINUOUS
 62
       3
100
AcDbLine
 10
114.14631664
 20
-29.41503541
 30
0.0
 11
114.38154943
 21
-29.44071549
 31
0.0
  0
LINE
  5
3F2
100
AcDbEntity
  8
レイヤー_1
  6
CONTINUOUS
 62
       3
100
AcDbLine
 10
114.38154943
 20
-29.44071549
 30
0.0
 11
114.61904297
 21
-29.44403769
 31
0.0
  0
LINE
  5
3F3
100
AcDbEntity
  8
レイヤー_1
  6
CONTINUOUS
 62
       3
100
AcDbLine
 10
114.61904297
 20
-29.44403769
 30
0.0
 11
114.85715824
 21
-29.42456488
 31
0.0
  0
LINE
  5
3F4
100
AcDbEntity
  8
レイヤー_1
  6
CONTINUOUS
 62
       3
100
AcDbLine
 10
114.85715824
 20
-29.42456488
 30
0.0
 11
115.09425618
 21
-29.3818599
 31
0.0
  0
LINE
  5
3F5
100
AcDbEntity
  8
レイヤー_1
  6
CONTINUOUS
 62
       3
100
AcDbLine
 10
115.09425618
 20
-29.3818599
 30
0.0
 11
115.32869775
 21
-29.31548556
 31
0.0
  0
LINE
  5
3F6
100
AcDbEntity
  8
レイヤー_1
  6
CONTINUOUS
 62
       3
100
AcDbLine
 10
115.32869775
 20
-29.31548556
 30
0.0
 11
115.5588439
 21
-29.22500475
 31
0.0
  0
LINE
  5
3F7
100
AcDbEntity
  8
レイヤー_1
  6
CONTINUOUS
 62
       3
100
AcDbLine
 10
115.5588439
 20
-29.22500475
 30
0.0
 11
115.78305559
 21
-29.10998026
 31
0.0
  0
LINE
  5
3F8
100
AcDbEntity
  8
レイヤー_1
  6
CONTINUOUS
 62
       3
100
AcDbLine
 10
111.01934981
 20
-30.42729865
 30
0.0
 11
118.01806129
 21
-30.42729865
 31
0.0
  0
LINE
  5
3F9
100
AcDbEntity
  8
レイヤー_1
  6
CONTINUOUS
 62
       3
100
AcDbLine
 10
118.01806129
 20
-30.42729865
 30
0.0
 11
118.01806129
 21
-23.42901782
 31
0.0
  0
LINE
  5
3FA
100
AcDbEntity
  8
レイヤー_1
  6
CONTINUOUS
 62
       3
100
AcDbLine
 10
118.01806129
 20
-23.42901782
 30
0.0
 11
111.01934981
 21
-23.42901782
 31
0.0
  0
LINE
  5
3FB
100
AcDbEntity
  8
レイヤー_1
  6
CONTINUOUS
 62
       3
100
AcDbLine
 10
111.01934981
 20
-23.42901782
 30
0.0
 11
111.01934981
 21
-30.42729865
 31
0.0
  0
LINE
  5
3FC
100
AcDbEntity
  8
レイヤー_1
  6
CONTINUOUS
 62
       3
100
AcDbLine
 10
110.48019237
 20
-37.40189446
 30
0.0
 11
110.48019237
 21
-22.40453255
 31
0.0
  0
LINE
  5
3FD
100
AcDbEntity
  8
レイヤー_1
  6
CONTINUOUS
 62
       3
100
AcDbLine
 10
110.48019237
 20
-22.40453255
 30
0.0
 11
118.47712026
 21
-22.40453255
 31
0.0
  0
LINE
  5
3FE
100
AcDbEntity
  8
レイヤー_1
  6
CONTINUOUS
 62
       3
100
AcDbLine
 10
118.47712026
 20
-22.40453255
 30
0.0
 11
118.47712026
 21
-37.40189446
 31
0.0
  0
LINE
  5
3FF
100
AcDbEntity
  8
レイヤー_1
  6
CONTINUOUS
 62
       3
100
AcDbLine
 10
105.7853885
 20
-29.10998026
 30
0.0
 11
105.99722957
 21
-28.97336501
 31
0.0
  0
LINE
  5
400
100
AcDbEntity
  8
レイヤー_1
  6
CONTINUOUS
 62
       3
100
AcDbLine
 10
105.99722957
 20
-28.97336501
 30
0.0
 11
106.19074792
 21
-28.81933584
 31
0.0
  0
LINE
  5
401
100
AcDbEntity
  8
レイヤー_1
  6
CONTINUOUS
 62
       3
100
AcDbLine
 10
106.19074792
 20
-28.81933584
 30
0.0
 11
106.36550759
 21
-28.64952996
 31
0.0
  0
LINE
  5
402
100
AcDbEntity
  8
レイヤー_1
  6
CONTINUOUS
 62
       3
100
AcDbLine
 10
106.36550759
 20
-28.64952996
 30
0.0
 11
106.52107262
 21
-28.46558461
 31
0.0
  0
LINE
  5
403
100
AcDbEntity
  8
レイヤー_1
  6
CONTINUOUS
 62
       3
100
AcDbLine
 10
106.52107262
 20
-28.46558461
 30
0.0
 11
106.65700706
 21
-28.26913705
 31
0.0
  0
LINE
  5
404
100
AcDbEntity
  8
レイヤー_1
  6
CONTINUOUS
 62
       3
100
AcDbLine
 10
106.65700706
 20
-28.26913705
 30
0.0
 11
106.77287495
 21
-28.06182448
 31
0.0
  0
LINE
  5
405
100
AcDbEntity
  8
レイヤー_1
  6
CONTINUOUS
 62
       3
100
AcDbLine
 10
106.77287495
 20
-28.06182448
 30
0.0
 11
106.86824036
 21
-27.84528419
 31
0.0
  0
LINE
  5
406
100
AcDbEntity
  8
レイヤー_1
  6
CONTINUOUS
 62
       3
100
AcDbLine
 10
106.86824036
 20
-27.84528419
 30
0.0
 11
106.9426673
 21
-27.62115337
 31
0.0
  0
LINE
  5
407
100
AcDbEntity
  8
レイヤー_1
  6
CONTINUOUS
 62
       3
100
AcDbLine
 10
106.9426673
 20
-27.62115337
 30
0.0
 11
106.99571984
 21
-27.39106926
 31
0.0
  0
LINE
  5
408
100
AcDbEntity
  8
レイヤー_1
  6
CONTINUOUS
 62
       3
100
AcDbLine
 10
106.99571984
 20
-27.39106926
 30
0.0
 11
107.02696202
 21
-27.15666915
 31
0.0
  0
LINE
  5
409
100
AcDbEntity
  8
レイヤー_1
  6
CONTINUOUS
 62
       3
100
AcDbLine
 10
107.02696202
 20
-27.15666915
 30
0.0
 11
107.03595788
 21
-26.9195902
 31
0.0
  0
LINE
  5
40A
100
AcDbEntity
  8
レイヤー_1
  6
CONTINUOUS
 62
       3
100
AcDbLine
 10
107.03595788
 20
-26.9195902
 30
0.0
 11
107.02227146
 21
-26.68146971
 31
0.0
  0
LINE
  5
40B
100
AcDbEntity
  8
レイヤー_1
  6
CONTINUOUS
 62
       3
100
AcDbLine
 10
107.02227146
 20
-26.68146971
 30
0.0
 11
106.98546684
 21
-26.44394489
 31
0.0
  0
LINE
  5
40C
100
AcDbEntity
  8
レイヤー_1
  6
CONTINUOUS
 62
       3
100
AcDbLine
 10
106.98546684
 20
-26.44394489
 30
0.0
 11
106.92510802
 21
-26.20865298
 31
0.0
  0
LINE
  5
40D
100
AcDbEntity
  8
レイヤー_1
  6
CONTINUOUS
 62
       3
100
AcDbLine
 10
106.92510802
 20
-26.20865298
 30
0.0
 11
106.84075908
 21
-25.97723122
 31
0.0
  0
LINE
  5
40E
100
AcDbEntity
  8
レイヤー_1
  6
CONTINUOUS
 62
       3
100
AcDbLine
 10
106.84075908
 20
-25.97723122
 30
0.0
 11
106.73198404
 21
-25.75131684
 31
0.0
  0
LINE
  5
40F
100
AcDbEntity
  8
レイヤー_1
  6
CONTINUOUS
 62
       3
100
AcDbLine
 10
106.73198404
 20
-25.75131684
 30
0.0
 11
106.60004656
 21
-25.53547194
 31
0.0
  0
LINE
  5
410
100
AcDbEntity
  8
レイヤー_1
  6
CONTINUOUS
 62
       3
100
AcDbLine
 10
106.60004656
 20
-25.53547194
 30
0.0
 11
106.45009359
 21
-25.33750261
 31
0.0
  0
LINE
  5
411
100
AcDbEntity
  8
レイヤー_1
  6
CONTINUOUS
 62
       3
100
AcDbLine
 10
106.45009359
 20
-25.33750261
 30
0.0
 11
106.28398079
 21
-25.15813585
 31
0.0
  0
LINE
  5
412
100
AcDbEntity
  8
レイヤー_1
  6
CONTINUOUS
 62
       3
100
AcDbLine
 10
106.28398079
 20
-25.15813585
 30
0.0
 11
106.1033436
 21
-24.99781426
 31
0.0
  0
LINE
  5
413
100
AcDbEntity
  8
レイヤー_1
  6
CONTINUOUS
 62
       3
100
AcDbLine
 10
106.1033436
 20
-24.99781426
 30
0.0
 11
105.90981746
 21
-24.85698037
 31
0.0
  0
LINE
  5
414
100
AcDbEntity
  8
レイヤー_1
  6
CONTINUOUS
 62
       3
100
AcDbLine
 10
105.90981746
 20
-24.85698037
 30
0.0
 11
105.7050378
 21
-24.73607681
 31
0.0
  0
LINE
  5
415
100
AcDbEntity
  8
レイヤー_1
  6
CONTINUOUS
 62
       3
100
AcDbLine
 10
105.7050378
 20
-24.73607681
 30
0.0
 11
105.49064004
 21
-24.63554613
 31
0.0
  0
LINE
  5
416
100
AcDbEntity
  8
レイヤー_1
  6
CONTINUOUS
 62
       3
100
AcDbLine
 10
105.49064004
 20
-24.63554613
 30
0.0
 11
105.26825963
 21
-24.55583092
 31
0.0
  0
LINE
  5
417
100
AcDbEntity
  8
レイヤー_1
  6
CONTINUOUS
 62
       3
100
AcDbLine
 10
105.26825963
 20
-24.55583092
 30
0.0
 11
105.03953199
 21
-24.49737375
 31
0.0
  0
LINE
  5
418
100
AcDbEntity
  8
レイヤー_1
  6
CONTINUOUS
 62
       3
100
AcDbLine
 10
105.03953199
 20
-24.49737375
 30
0.0
 11
104.80609254
 21
-24.4606172
 31
0.0
  0
LINE
  5
419
100
AcDbEntity
  8
レイヤー_1
  6
CONTINUOUS
 62
       3
100
AcDbLine
 10
104.80609254
 20
-24.4606172
 30
0.0
 11
104.56957673
 21
-24.44600385
 31
0.0
  0
LINE
  5
41A
100
AcDbEntity
  8
レイヤー_1
  6
CONTINUOUS
 62
       3
100
AcDbLine
 10
104.56957673
 20
-24.44600385
 30
0.0
 11
104.33161997
 21
-24.45397627
 31
0.0
  0
LINE
  5
41B
100
AcDbEntity
  8
レイヤー_1
  6
CONTINUOUS
 62
       3
100
AcDbLine
 10
104.33161997
 20
-24.45397627
 30
0.0
 11
104.09385772
 21
-24.48497705
 31
0.0
  0
LINE
  5
41C
100
AcDbEntity
  8
レイヤー_1
  6
CONTINUOUS
 62
       3
100
AcDbLine
 10
104.09385772
 20
-24.48497705
 30
0.0
 11
103.85792539
 21
-24.53944875
 31
0.0
  0
LINE
  5
41D
100
AcDbEntity
  8
レイヤー_1
  6
CONTINUOUS
 62
       3
100
AcDbLine
 10
103.85792539
 20
-24.53944875
 30
0.0
 11
103.6254584
 21
-24.61783398
 31
0.0
  0
LINE
  5
41E
100
AcDbEntity
  8
レイヤー_1
  6
CONTINUOUS
 62
       3
100
AcDbLine
 10
103.6254584
 20
-24.61783398
 30
0.0
 11
103.39809221
 21
-24.72057528
 31
0.0
  0
LINE
  5
41F
100
AcDbEntity
  8
レイヤー_1
  6
CONTINUOUS
 62
       3
100
AcDbLine
 10
103.39809221
 20
-24.72057528
 30
0.0
 11
103.17872404
 21
-24.84724871
 31
0.0
  0
LINE
  5
420
100
AcDbEntity
  8
レイヤー_1
  6
CONTINUOUS
 62
       3
100
AcDbLine
 10
103.17872404
 20
-24.84724871
 30
0.0
 11
102.97611166
 21
-24.99279319
 31
0.0
  0
LINE
  5
421
100
AcDbEntity
  8
レイヤー_1
  6
CONTINUOUS
 62
       3
100
AcDbLine
 10
102.97611166
 20
-24.99279319
 30
0.0
 11
102.79200626
 21
-25.15494715
 31
0.0
  0
LINE
  5
422
100
AcDbEntity
  8
レイヤー_1
  6
CONTINUOUS
 62
       3
100
AcDbLine
 10
102.79200626
 20
-25.15494715
 30
0.0
 11
102.62684741
 21
-25.33206971
 31
0.0
  0
LINE
  5
423
100
AcDbEntity
  8
レイヤー_1
  6
CONTINUOUS
 62
       3
100
AcDbLine
 10
102.62684741
 20
-25.33206971
 30
0.0
 11
102.48107468
 21
-25.52252003
 31
0.0
  0
LINE
  5
424
100
AcDbEntity
  8
レイヤー_1
  6
CONTINUOUS
 62
       3
100
AcDbLine
 10
102.48107468
 20
-25.52252003
 30
0.0
 11
102.35512764
 21
-25.72465728
 31
0.0
  0
LINE
  5
425
100
AcDbEntity
  8
レイヤー_1
  6
CONTINUOUS
 62
       3
100
AcDbLine
 10
102.35512764
 20
-25.72465728
 30
0.0
 11
102.24944583
 21
-25.93684062
 31
0.0
  0
LINE
  5
426
100
AcDbEntity
  8
レイヤー_1
  6
CONTINUOUS
 62
       3
100
AcDbLine
 10
102.24944583
 20
-25.93684062
 30
0.0
 11
102.16446887
 21
-26.15742915
 31
0.0
  0
LINE
  5
427
100
AcDbEntity
  8
レイヤー_1
  6
CONTINUOUS
 62
       3
100
AcDbLine
 10
102.16446887
 20
-26.15742915
 30
0.0
 11
102.10063628
 21
-26.38478205
 31
0.0
  0
LINE
  5
428
100
AcDbEntity
  8
レイヤー_1
  6
CONTINUOUS
 62
       3
100
AcDbLine
 10
102.10063628
 20
-26.38478205
 30
0.0
 11
102.05838765
 21
-26.61725849
 31
0.0
  0
LINE
  5
429
100
AcDbEntity
  8
レイヤー_1
  6
CONTINUOUS
 62
       3
100
AcDbLine
 10
102.05838765
 20
-26.61725849
 30
0.0
 11
102.03816253
 21
-26.85321757
 31
0.0
  0
LINE
  5
42A
100
AcDbEntity
  8
レイヤー_1
  6
CONTINUOUS
 62
       3
100
AcDbLine
 10
102.03816253
 20
-26.85321757
 30
0.0
 11
102.04040052
 21
-27.09101848
 31
0.0
  0
LINE
  5
42B
100
AcDbEntity
  8
レイヤー_1
  6
CONTINUOUS
 62
       3
100
AcDbLine
 10
102.04040052
 20
-27.09101848
 30
0.0
 11
102.06554116
 21
-27.32902035
 31
0.0
  0
LINE
  5
42C
100
AcDbEntity
  8
レイヤー_1
  6
CONTINUOUS
 62
       3
100
AcDbLine
 10
102.06554116
 20
-27.32902035
 30
0.0
 11
102.11402402
 21
-27.56558234
 31
0.0
  0
LINE
  5
42D
100
AcDbEntity
  8
レイヤー_1
  6
CONTINUOUS
 62
       3
100
AcDbLine
 10
102.11402402
 20
-27.56558234
 30
0.0
 11
102.18628867
 21
-27.7990636
 31
0.0
  0
LINE
  5
42E
100
AcDbEntity
  8
レイヤー_1
  6
CONTINUOUS
 62
       3
100
AcDbLine
 10
102.18628867
 20
-27.7990636
 30
0.0
 11
102.28277467
 21
-28.02782327
 31
0.0
  0
LINE
  5
42F
100
AcDbEntity
  8
レイヤー_1
  6
CONTINUOUS
 62
       3
100
AcDbLine
 10
102.28277467
 20
-28.02782327
 30
0.0
 11
102.40377003
 21
-28.24994202
 31
0.0
  0
LINE
  5
430
100
AcDbEntity
  8
レイヤー_1
  6
CONTINUOUS
 62
       3
100
AcDbLine
 10
102.40377003
 20
-28.24994202
 30
0.0
 11
102.54504333
 21
-28.45717073
 31
0.0
  0
LINE
  5
431
100
AcDbEntity
  8
レイヤー_1
  6
CONTINUOUS
 62
       3
100
AcDbLine
 10
102.54504333
 20
-28.45717073
 30
0.0
 11
102.70330922
 21
-28.64597601
 31
0.0
  0
LINE
  5
432
100
AcDbEntity
  8
レイヤー_1
  6
CONTINUOUS
 62
       3
100
AcDbLine
 10
102.70330922
 20
-28.64597601
 30
0.0
 11
102.87692864
 21
-28.81592069
 31
0.0
  0
LINE
  5
433
100
AcDbEntity
  8
レイヤー_1
  6
CONTINUOUS
 62
       3
100
AcDbLine
 10
102.87692864
 20
-28.81592069
 30
0.0
 11
103.06426257
 21
-28.96656761
 31
0.0
  0
LINE
  5
434
100
AcDbEntity
  8
レイヤー_1
  6
CONTINUOUS
 62
       3
100
AcDbLine
 10
103.06426257
 20
-28.96656761
 30
0.0
 11
103.26367195
 21
-29.09747963
 31
0.0
  0
LINE
  5
435
100
AcDbEntity
  8
レイヤー_1
  6
CONTINUOUS
 62
       3
100
AcDbLine
 10
103.26367195
 20
-29.09747963
 30
0.0
 11
103.47351772
 21
-29.20821959
 31
0.0
  0
LINE
  5
436
100
AcDbEntity
  8
レイヤー_1
  6
CONTINUOUS
 62
       3
100
AcDbLine
 10
103.47351772
 20
-29.20821959
 30
0.0
 11
103.69216088
 21
-29.29835029
 31
0.0
  0
LINE
  5
437
100
AcDbEntity
  8
レイヤー_1
  6
CONTINUOUS
 62
       3
100
AcDbLine
 10
103.69216088
 20
-29.29835029
 30
0.0
 11
103.91796236
 21
-29.36743464
 31
0.0
  0
LINE
  5
438
100
AcDbEntity
  8
レイヤー_1
  6
CONTINUOUS
 62
       3
100
AcDbLine
 10
103.91796236
 20
-29.36743464
 30
0.0
 11
104.14928311
 21
-29.41503541
 31
0.0
  0
LINE
  5
439
100
AcDbEntity
  8
レイヤー_1
  6
CONTINUOUS
 62
       3
100
AcDbLine
 10
104.14928311
 20
-29.41503541
 30
0.0
 11
104.3844841
 21
-29.44071549
 31
0.0
  0
LINE
  5
43A
100
AcDbEntity
  8
レイヤー_1
  6
CONTINUOUS
 62
       3
100
AcDbLine
 10
104.3844841
 20
-29.44071549
 30
0.0
 11
104.62192627
 21
-29.44403769
 31
0.0
  0
LINE
  5
43B
100
AcDbEntity
  8
レイヤー_1
  6
CONTINUOUS
 62
       3
100
AcDbLine
 10
104.62192627
 20
-29.44403769
 30
0.0
 11
104.8599706
 21
-29.42456488
 31
0.0
  0
LINE
  5
43C
100
AcDbEntity
  8
レイヤー_1
  6
CONTINUOUS
 62
       3
100
AcDbLine
 10
104.8599706
 20
-29.42456488
 30
0.0
 11
105.09697803
 21
-29.3818599
 31
0.0
  0
LINE
  5
43D
100
AcDbEntity
  8
レイヤー_1
  6
CONTINUOUS
 62
       3
100
AcDbLine
 10
105.09697803
 20
-29.3818599
 30
0.0
 11
105.33130952
 21
-29.31548556
 31
0.0
  0
LINE
  5
43E
100
AcDbEntity
  8
レイヤー_1
  6
CONTINUOUS
 62
       3
100
AcDbLine
 10
105.33130952
 20
-29.31548556
 30
0.0
 11
105.56132601
 21
-29.22500475
 31
0.0
  0
LINE
  5
43F
100
AcDbEntity
  8
レイヤー_1
  6
CONTINUOUS
 62
       3
100
AcDbLine
 10
105.56132601
 20
-29.22500475
 30
0.0
 11
105.7853885
 21
-29.10998026
 31
0.0
  0
LINE
  5
440
100
AcDbEntity
  8
レイヤー_1
  6
CONTINUOUS
 62
       3
100
AcDbLine
 10
101.02254398
 20
-30.42729865
 30
0.0
 11
108.02125546
 21
-30.42729865
 31
0.0
  0
LINE
  5
441
100
AcDbEntity
  8
レイヤー_1
  6
CONTINUOUS
 62
       3
100
AcDbLine
 10
108.02125546
 20
-30.42729865
 30
0.0
 11
108.02125546
 21
-23.42901782
 31
0.0
  0
LINE
  5
442
100
AcDbEntity
  8
レイヤー_1
  6
CONTINUOUS
 62
       3
100
AcDbLine
 10
108.02125546
 20
-23.42901782
 30
0.0
 11
101.02254398
 21
-23.42901782
 31
0.0
  0
LINE
  5
443
100
AcDbEntity
  8
レイヤー_1
  6
CONTINUOUS
 62
       3
100
AcDbLine
 10
101.02254398
 20
-23.42901782
 30
0.0
 11
101.02254398
 21
-30.42729865
 31
0.0
  0
LINE
  5
444
100
AcDbEntity
  8
レイヤー_1
  6
CONTINUOUS
 62
       3
100
AcDbLine
 10
100.48338653
 20
-37.40189446
 30
0.0
 11
100.48338653
 21
-22.40453255
 31
0.0
  0
LINE
  5
445
100
AcDbEntity
  8
レイヤー_1
  6
CONTINUOUS
 62
       3
100
AcDbLine
 10
100.48338653
 20
-22.40453255
 30
0.0
 11
108.48031443
 21
-22.40453255
 31
0.0
  0
LINE
  5
446
100
AcDbEntity
  8
レイヤー_1
  6
CONTINUOUS
 62
       3
100
AcDbLine
 10
108.48031443
 20
-22.40453255
 30
0.0
 11
108.48031443
 21
-37.40189446
 31
0.0
  0
LINE
  5
447
100
AcDbEntity
  8
レイヤー_1
  6
CONTINUOUS
 62
       3
100
AcDbLine
 10
103.47372943
 20
-1.70166186
 30
0.0
 11
103.24714676
 21
-1.69039827
 31
0.0
  0
LINE
  5
448
100
AcDbEntity
  8
レイヤー_1
  6
CONTINUOUS
 62
       3
100
AcDbLine
 10
103.24714676
 20
-1.69039827
 30
0.0
 11
103.02700407
 21
-1.6573269
 31
0.0
  0
LINE
  5
449
100
AcDbEntity
  8
レイヤー_1
  6
CONTINUOUS
 62
       3
100
AcDbLine
 10
103.02700407
 20
-1.6573269
 30
0.0
 11
102.81437917
 21
-1.60352675
 31
0.0
  0
LINE
  5
44A
100
AcDbEntity
  8
レイヤー_1
  6
CONTINUOUS
 62
       3
100
AcDbLine
 10
102.81437917
 20
-1.60352675
 30
0.0
 11
102.61034992
 21
-1.53007691
 31
0.0
  0
LINE
  5
44B
100
AcDbEntity
  8
レイヤー_1
  6
CONTINUOUS
 62
       3
100
AcDbLine
 10
102.61034992
 20
-1.53007691
 30
0.0
 11
102.41599415
 21
-1.43805639
 31
0.0
  0
LINE
  5
44C
100
AcDbEntity
  8
レイヤー_1
  6
CONTINUOUS
 62
       3
100
AcDbLine
 10
102.41599415
 20
-1.43805639
 30
0.0
 11
102.23238972
 21
-1.32854426
 31
0.0
  0
LINE
  5
44D
100
AcDbEntity
  8
レイヤー_1
  6
CONTINUOUS
 62
       3
100
AcDbLine
 10
102.23238972
 20
-1.32854426
 30
0.0
 11
102.06061447
 21
-1.20261957
 31
0.0
  0
LINE
  5
44E
100
AcDbEntity
  8
レイヤー_1
  6
CONTINUOUS
 62
       3
100
AcDbLine
 10
102.06061447
 20
-1.20261957
 30
0.0
 11
101.90174624
 21
-1.06136137
 31
0.0
  0
LINE
  5
44F
100
AcDbEntity
  8
レイヤー_1
  6
CONTINUOUS
 62
       3
100
AcDbLine
 10
101.90174624
 20
-1.06136137
 30
0.0
 11
101.75686287
 21
-0.90584868
 31
0.0
  0
LINE
  5
450
100
AcDbEntity
  8
レイヤー_1
  6
CONTINUOUS
 62
       3
100
AcDbLine
 10
101.75686287
 20
-0.90584868
 30
0.0
 11
101.62704221
 21
-0.73716057
 31
0.0
  0
LINE
  5
451
100
AcDbEntity
  8
レイヤー_1
  6
CONTINUOUS
 62
       3
100
AcDbLine
 10
101.62704221
 20
-0.73716057
 30
0.0
 11
101.51336208
 21
-0.55637609
 31
0.0
  0
LINE
  5
452
100
AcDbEntity
  8
レイヤー_1
  6
CONTINUOUS
 62
       3
100
AcDbLine
 10
101.51336208
 20
-0.55637609
 30
0.0
 11
101.41690035
 21
-0.36457427
 31
0.0
  0
LINE
  5
453
100
AcDbEntity
  8
レイヤー_1
  6
CONTINUOUS
 62
       3
100
AcDbLine
 10
101.41690035
 20
-0.36457427
 30
0.0
 11
101.33873485
 21
-0.16283417
 31
0.0
  0
LINE
  5
454
100
AcDbEntity
  8
レイヤー_1
  6
CONTINUOUS
 62
       3
100
AcDbLine
 10
101.33873485
 20
-0.16283417
 30
0.0
 11
101.27994343
 21
0.04776516
 31
0.0
  0
LINE
  5
455
100
AcDbEntity
  8
レイヤー_1
  6
CONTINUOUS
 62
       3
100
AcDbLine
 10
101.27994343
 20
0.04776516
 30
0.0
 11
101.24160392
 21
0.2661447
 31
0.0
  0
LINE
  5
456
100
AcDbEntity
  8
レイヤー_1
  6
CONTINUOUS
 62
       3
100
AcDbLine
 10
101.24160392
 20
0.2661447
 30
0.0
 11
101.22479417
 21
0.49122535
 31
0.0
  0
LINE
  5
457
100
AcDbEntity
  8
レイヤー_1
  6
CONTINUOUS
 62
       3
100
AcDbLine
 10
101.22479417
 20
0.49122535
 30
0.0
 11
101.23044046
 21
0.71885519
 31
0.0
  0
LINE
  5
458
100
AcDbEntity
  8
レイヤー_1
  6
CONTINUOUS
 62
       3
100
AcDbLine
 10
101.23044046
 20
0.71885519
 30
0.0
 11
101.25814981
 21
0.94062991
 31
0.0
  0
LINE
  5
459
100
AcDbEntity
  8
レイヤー_1
  6
CONTINUOUS
 62
       3
100
AcDbLine
 10
101.25814981
 20
0.94062991
 30
0.0
 11
101.30685001
 21
1.15515736
 31
0.0
  0
LINE
  5
45A
100
AcDbEntity
  8
レイヤー_1
  6
CONTINUOUS
 62
       3
100
AcDbLine
 10
101.30685001
 20
1.15515736
 30
0.0
 11
101.3754632
 21
1.36136027
 31
0.0
  0
LINE
  5
45B
100
AcDbEntity
  8
レイヤー_1
  6
CONTINUOUS
 62
       3
100
AcDbLine
 10
101.3754632
 20
1.36136027
 30
0.0
 11
101.46291155
 21
1.55816141
 31
0.0
  0
LINE
  5
45C
100
AcDbEntity
  8
レイヤー_1
  6
CONTINUOUS
 62
       3
100
AcDbLine
 10
101.46291155
 20
1.55816141
 30
0.0
 11
101.5681172
 21
1.74448354
 31
0.0
  0
LINE
  5
45D
100
AcDbEntity
  8
レイヤー_1
  6
CONTINUOUS
 62
       3
100
AcDbLine
 10
101.5681172
 20
1.74448354
 30
0.0
 11
101.69000234
 21
1.91924942
 31
0.0
  0
LINE
  5
45E
100
AcDbEntity
  8
レイヤー_1
  6
CONTINUOUS
 62
       3
100
AcDbLine
 10
101.69000234
 20
1.91924942
 30
0.0
 11
101.82748908
 21
2.0813818
 31
0.0
  0
LINE
  5
45F
100
AcDbEntity
  8
レイヤー_1
  6
CONTINUOUS
 62
       3
100
AcDbLine
 10
101.82748908
 20
2.0813818
 30
0.0
 11
101.97949962
 21
2.22980344
 31
0.0
  0
LINE
  5
460
100
AcDbEntity
  8
レイヤー_1
  6
CONTINUOUS
 62
       3
100
AcDbLine
 10
101.97949962
 20
2.22980344
 30
0.0
 11
102.1449561
 21
2.36343712
 31
0.0
  0
LINE
  5
461
100
AcDbEntity
  8
レイヤー_1
  6
CONTINUOUS
 62
       3
100
AcDbLine
 10
102.1449561
 20
2.36343712
 30
0.0
 11
102.32278067
 21
2.48120559
 31
0.0
  0
LINE
  5
462
100
AcDbEntity
  8
レイヤー_1
  6
CONTINUOUS
 62
       3
100
AcDbLine
 10
102.32278067
 20
2.48120559
 30
0.0
 11
102.51189548
 21
2.58203159
 31
0.0
  0
LINE
  5
463
100
AcDbEntity
  8
レイヤー_1
  6
CONTINUOUS
 62
       3
100
AcDbLine
 10
102.51189548
 20
2.58203159
 30
0.0
 11
102.71122272
 21
2.6648379
 31
0.0
  0
LINE
  5
464
100
AcDbEntity
  8
レイヤー_1
  6
CONTINUOUS
 62
       3
100
AcDbLine
 10
102.71122272
 20
2.6648379
 30
0.0
 11
102.91968453
 21
2.72854728
 31
0.0
  0
LINE
  5
465
100
AcDbEntity
  8
レイヤー_1
  6
CONTINUOUS
 62
       3
100
AcDbLine
 10
102.91968453
 20
2.72854728
 30
0.0
 11
103.13620306
 21
2.77208247
 31
0.0
  0
LINE
  5
466
100
AcDbEntity
  8
レイヤー_1
  6
CONTINUOUS
 62
       3
100
AcDbLine
 10
103.13620306
 20
2.77208247
 30
0.0
 11
103.35970047
 21
2.79436623
 31
0.0
  0
LINE
  5
467
100
AcDbEntity
  8
レイヤー_1
  6
CONTINUOUS
 62
       3
100
AcDbLine
 10
103.35970047
 20
2.79436623
 30
0.0
 11
103.5876813
 21
2.79436623
 31
0.0
  0
LINE
  5
468
100
AcDbEntity
  8
レイヤー_1
  6
CONTINUOUS
 62
       3
100
AcDbLine
 10
103.5876813
 20
2.79436623
 30
0.0
 11
103.81103863
 21
2.77208247
 31
0.0
  0
LINE
  5
469
100
AcDbEntity
  8
レイヤー_1
  6
CONTINUOUS
 62
       3
100
AcDbLine
 10
103.81103863
 20
2.77208247
 30
0.0
 11
104.02743483
 21
2.72854728
 31
0.0
  0
LINE
  5
46A
100
AcDbEntity
  8
レイヤー_1
  6
CONTINUOUS
 62
       3
100
AcDbLine
 10
104.02743483
 20
2.72854728
 30
0.0
 11
104.23579087
 21
2.6648379
 31
0.0
  0
LINE
  5
46B
100
AcDbEntity
  8
レイヤー_1
  6
CONTINUOUS
 62
       3
100
AcDbLine
 10
104.23579087
 20
2.6648379
 30
0.0
 11
104.43502768
 21
2.58203159
 31
0.0
  0
LINE
  5
46C
100
AcDbEntity
  8
レイヤー_1
  6
CONTINUOUS
 62
       3
100
AcDbLine
 10
104.43502768
 20
2.58203159
 30
0.0
 11
104.62406626
 21
2.48120559
 31
0.0
  0
LINE
  5
46D
100
AcDbEntity
  8
レイヤー_1
  6
CONTINUOUS
 62
       3
100
AcDbLine
 10
104.62406626
 20
2.48120559
 30
0.0
 11
104.80182751
 21
2.36343712
 31
0.0
  0
LINE
  5
46E
100
AcDbEntity
  8
レイヤー_1
  6
CONTINUOUS
 62
       3
100
AcDbLine
 10
104.80182751
 20
2.36343712
 30
0.0
 11
104.96723242
 21
2.22980344
 31
0.0
  0
LINE
  5
46F
100
AcDbEntity
  8
レイヤー_1
  6
CONTINUOUS
 62
       3
100
AcDbLine
 10
104.96723242
 20
2.22980344
 30
0.0
 11
105.11920191
 21
2.0813818
 31
0.0
  0
LINE
  5
470
100
AcDbEntity
  8
レイヤー_1
  6
CONTINUOUS
 62
       3
100
AcDbLine
 10
105.11920191
 20
2.0813818
 30
0.0
 11
105.25665697
 21
1.91924942
 31
0.0
  0
LINE
  5
471
100
AcDbEntity
  8
レイヤー_1
  6
CONTINUOUS
 62
       3
100
AcDbLine
 10
105.25665697
 20
1.91924942
 30
0.0
 11
105.37851852
 21
1.74448354
 31
0.0
  0
LINE
  5
472
100
AcDbEntity
  8
レイヤー_1
  6
CONTINUOUS
 62
       3
100
AcDbLine
 10
105.37851852
 20
1.74448354
 30
0.0
 11
105.48370753
 21
1.55816141
 31
0.0
  0
LINE
  5
473
100
AcDbEntity
  8
レイヤー_1
  6
CONTINUOUS
 62
       3
100
AcDbLine
 10
105.48370753
 20
1.55816141
 30
0.0
 11
105.57114494
 21
1.36136027
 31
0.0
  0
LINE
  5
474
100
AcDbEntity
  8
レイヤー_1
  6
CONTINUOUS
 62
       3
100
AcDbLine
 10
105.57114494
 20
1.36136027
 30
0.0
 11
105.63975174
 21
1.15515736
 31
0.0
  0
LINE
  5
475
100
AcDbEntity
  8
レイヤー_1
  6
CONTINUOUS
 62
       3
100
AcDbLine
 10
105.63975174
 20
1.15515736
 30
0.0
 11
105.68844882
 21
0.94062991
 31
0.0
  0
LINE
  5
476
100
AcDbEntity
  8
レイヤー_1
  6
CONTINUOUS
 62
       3
100
AcDbLine
 10
105.68844882
 20
0.94062991
 30
0.0
 11
105.7161572
 21
0.71885519
 31
0.0
  0
LINE
  5
477
100
AcDbEntity
  8
レイヤー_1
  6
CONTINUOUS
 62
       3
100
AcDbLine
 10
105.7161572
 20
0.71885519
 30
0.0
 11
105.72180341
 21
0.49122535
 31
0.0
  0
LINE
  5
478
100
AcDbEntity
  8
レイヤー_1
  6
CONTINUOUS
 62
       3
100
AcDbLine
 10
105.72180341
 20
0.49122535
 30
0.0
 11
105.70499405
 21
0.2661447
 31
0.0
  0
LINE
  5
479
100
AcDbEntity
  8
レイヤー_1
  6
CONTINUOUS
 62
       3
100
AcDbLine
 10
105.70499405
 20
0.2661447
 30
0.0
 11
105.66665644
 21
0.04776516
 31
0.0
  0
LINE
  5
47A
100
AcDbEntity
  8
レイヤー_1
  6
CONTINUOUS
 62
       3
100
AcDbLine
 10
105.66665644
 20
0.04776516
 30
0.0
 11
105.60786961
 21
-0.16283417
 31
0.0
  0
LINE
  5
47B
100
AcDbEntity
  8
レイヤー_1
  6
CONTINUOUS
 62
       3
100
AcDbLine
 10
105.60786961
 20
-0.16283417
 30
0.0
 11
105.52971263
 21
-0.36457427
 31
0.0
  0
LINE
  5
47C
100
AcDbEntity
  8
レイヤー_1
  6
CONTINUOUS
 62
       3
100
AcDbLine
 10
105.52971263
 20
-0.36457427
 30
0.0
 11
105.43326454
 21
-0.55637609
 31
0.0
  0
LINE
  5
47D
100
AcDbEntity
  8
レイヤー_1
  6
CONTINUOUS
 62
       3
100
AcDbLine
 10
105.43326454
 20
-0.55637609
 30
0.0
 11
105.31960437
 21
-0.73716057
 31
0.0
  0
LINE
  5
47E
100
AcDbEntity
  8
レイヤー_1
  6
CONTINUOUS
 62
       3
100
AcDbLine
 10
105.31960437
 20
-0.73716057
 30
0.0
 11
105.18981119
 21
-0.90584868
 31
0.0
  0
LINE
  5
47F
100
AcDbEntity
  8
レイヤー_1
  6
CONTINUOUS
 62
       3
100
AcDbLine
 10
105.18981119
 20
-0.90584868
 30
0.0
 11
105.04496403
 21
-1.06136137
 31
0.0
  0
LINE
  5
480
100
AcDbEntity
  8
レイヤー_1
  6
CONTINUOUS
 62
       3
100
AcDbLine
 10
105.04496403
 20
-1.06136137
 30
0.0
 11
104.88614194
 21
-1.20261957
 31
0.0
  0
LINE
  5
481
100
AcDbEntity
  8
レイヤー_1
  6
CONTINUOUS
 62
       3
100
AcDbLine
 10
104.88614194
 20
-1.20261957
 30
0.0
 11
104.71442399
 21
-1.32854426
 31
0.0
  0
LINE
  5
482
100
AcDbEntity
  8
レイヤー_1
  6
CONTINUOUS
 62
       3
100
AcDbLine
 10
104.71442399
 20
-1.32854426
 30
0.0
 11
104.5308892
 21
-1.43805639
 31
0.0
  0
LINE
  5
483
100
AcDbEntity
  8
レイヤー_1
  6
CONTINUOUS
 62
       3
100
AcDbLine
 10
104.5308892
 20
-1.43805639
 30
0.0
 11
104.33661661
 21
-1.53007691
 31
0.0
  0
LINE
  5
484
100
AcDbEntity
  8
レイヤー_1
  6
CONTINUOUS
 62
       3
100
AcDbLine
 10
104.33661661
 20
-1.53007691
 30
0.0
 11
104.13268531
 21
-1.60352675
 31
0.0
  0
LINE
  5
485
100
AcDbEntity
  8
レイヤー_1
  6
CONTINUOUS
 62
       3
100
AcDbLine
 10
104.13268531
 20
-1.60352675
 30
0.0
 11
103.92017431
 21
-1.6573269
 31
0.0
  0
LINE
  5
486
100
AcDbEntity
  8
レイヤー_1
  6
CONTINUOUS
 62
       3
100
AcDbLine
 10
103.92017431
 20
-1.6573269
 30
0.0
 11
103.70016267
 21
-1.69039827
 31
0.0
  0
LINE
  5
487
100
AcDbEntity
  8
レイヤー_1
  6
CONTINUOUS
 62
       3
100
AcDbLine
 10
103.70016267
 20
-1.69039827
 30
0.0
 11
103.47372943
 21
-1.70166186
 31
0.0
  0
LINE
  5
488
100
AcDbEntity
  8
レイヤー_1
  6
CONTINUOUS
 62
       3
100
AcDbLine
 10
98.52226594
 20
4.84488084
 30
0.0
 11
107.02045523
 21
4.84488084
 31
0.0
  0
LINE
  5
489
100
AcDbEntity
  8
レイヤー_1
  6
CONTINUOUS
 62
       3
100
AcDbLine
 10
107.02045523
 20
4.84488084
 30
0.0
 11
107.02045523
 21
-3.65330845
 31
0.0
  0
LINE
  5
48A
100
AcDbEntity
  8
レイヤー_1
  6
CONTINUOUS
 62
       3
100
AcDbLine
 10
107.02045523
 20
-3.65330845
 30
0.0
 11
98.52226594
 21
-3.65330845
 31
0.0
  0
LINE
  5
48B
100
AcDbEntity
  8
レイヤー_1
  6
CONTINUOUS
 62
       3
100
AcDbLine
 10
143.46095271
 20
-1.70166186
 30
0.0
 11
143.68754477
 21
-1.69039827
 31
0.0
  0
LINE
  5
48C
100
AcDbEntity
  8
レイヤー_1
  6
CONTINUOUS
 62
       3
100
AcDbLine
 10
143.68754477
 20
-1.69039827
 30
0.0
 11
143.90771401
 21
-1.6573269
 31
0.0
  0
LINE
  5
48D
100
AcDbEntity
  8
レイヤー_1
  6
CONTINUOUS
 62
       3
100
AcDbLine
 10
143.90771401
 20
-1.6573269
 30
0.0
 11
144.1203802
 21
-1.60352675
 31
0.0
  0
LINE
  5
48E
100
AcDbEntity
  8
レイヤー_1
  6
CONTINUOUS
 62
       3
100
AcDbLine
 10
144.1203802
 20
-1.60352675
 30
0.0
 11
144.32446309
 21
-1.53007691
 31
0.0
  0
LINE
  5
48F
100
AcDbEntity
  8
レイヤー_1
  6
CONTINUOUS
 62
       3
100
AcDbLine
 10
144.32446309
 20
-1.53007691
 30
0.0
 11
144.51888242
 21
-1.43805639
 31
0.0
  0
LINE
  5
490
100
AcDbEntity
  8
レイヤー_1
  6
CONTINUOUS
 62
       3
100
AcDbLine
 10
144.51888242
 20
-1.43805639
 30
0.0
 11
144.70255796
 21
-1.32854426
 31
0.0
  0
LINE
  5
491
100
AcDbEntity
  8
レイヤー_1
  6
CONTINUOUS
 62
       3
100
AcDbLine
 10
144.70255796
 20
-1.32854426
 30
0.0
 11
144.87440943
 21
-1.20261957
 31
0.0
  0
LINE
  5
492
100
AcDbEntity
  8
レイヤー_1
  6
CONTINUOUS
 62
       3
100
AcDbLine
 10
144.87440943
 20
-1.20261957
 30
0.0
 11
145.0333566
 21
-1.06136137
 31
0.0
  0
LINE
  5
493
100
AcDbEntity
  8
レイヤー_1
  6
CONTINUOUS
 62
       3
100
AcDbLine
 10
145.0333566
 20
-1.06136137
 30
0.0
 11
145.1783192
 21
-0.90584868
 31
0.0
  0
LINE
  5
494
100
AcDbEntity
  8
レイヤー_1
  6
CONTINUOUS
 62
       3
100
AcDbLine
 10
145.1783192
 20
-0.90584868
 30
0.0
 11
145.308217
 21
-0.73716057
 31
0.0
  0
LINE
  5
495
100
AcDbEntity
  8
レイヤー_1
  6
CONTINUOUS
 62
       3
100
AcDbLine
 10
145.308217
 20
-0.73716057
 30
0.0
 11
145.42196973
 21
-0.55637609
 31
0.0
  0
LINE
  5
496
100
AcDbEntity
  8
レイヤー_1
  6
CONTINUOUS
 62
       3
100
AcDbLine
 10
145.42196973
 20
-0.55637609
 30
0.0
 11
145.51849715
 21
-0.36457427
 31
0.0
  0
LINE
  5
497
100
AcDbEntity
  8
レイヤー_1
  6
CONTINUOUS
 62
       3
100
AcDbLine
 10
145.51849715
 20
-0.36457427
 30
0.0
 11
145.596719
 21
-0.16283417
 31
0.0
  0
LINE
  5
498
100
AcDbEntity
  8
レイヤー_1
  6
CONTINUOUS
 62
       3
100
AcDbLine
 10
145.596719
 20
-0.16283417
 30
0.0
 11
145.65555503
 21
0.04776516
 31
0.0
  0
LINE
  5
499
100
AcDbEntity
  8
レイヤー_1
  6
CONTINUOUS
 62
       3
100
AcDbLine
 10
145.65555503
 20
0.04776516
 30
0.0
 11
145.693925
 21
0.2661447
 31
0.0
  0
LINE
  5
49A
100
AcDbEntity
  8
レイヤー_1
  6
CONTINUOUS
 62
       3
100
AcDbLine
 10
145.693925
 20
0.2661447
 30
0.0
 11
145.71074863
 21
0.49122535
 31
0.0
  0
LINE
  5
49B
100
AcDbEntity
  8
レイヤー_1
  6
CONTINUOUS
 62
       3
100
AcDbLine
 10
145.71074863
 20
0.49122535
 30
0.0
 11
145.70509763
 21
0.71885519
 31
0.0
  0
LINE
  5
49C
100
AcDbEntity
  8
レイヤー_1
  6
CONTINUOUS
 62
       3
100
AcDbLine
 10
145.70509763
 20
0.71885519
 30
0.0
 11
145.67736579
 21
0.94062991
 31
0.0
  0
LINE
  5
49D
100
AcDbEntity
  8
レイヤー_1
  6
CONTINUOUS
 62
       3
100
AcDbLine
 10
145.67736579
 20
0.94062991
 30
0.0
 11
145.62862776
 21
1.15515736
 31
0.0
  0
LINE
  5
49E
100
AcDbEntity
  8
レイヤー_1
  6
CONTINUOUS
 62
       3
100
AcDbLine
 10
145.62862776
 20
1.15515736
 30
0.0
 11
145.55996378
 21
1.36136027
 31
0.0
  0
LINE
  5
49F
100
AcDbEntity
  8
レイヤー_1
  6
CONTINUOUS
 62
       3
100
AcDbLine
 10
145.55996378
 20
1.36136027
 30
0.0
 11
145.47245412
 21
1.55816141
 31
0.0
  0
LINE
  5
4A0
100
AcDbEntity
  8
レイヤー_1
  6
CONTINUOUS
 62
       3
100
AcDbLine
 10
145.47245412
 20
1.55816141
 30
0.0
 11
145.36717901
 21
1.74448354
 31
0.0
  0
LINE
  5
4A1
100
AcDbEntity
  8
レイヤー_1
  6
CONTINUOUS
 62
       3
100
AcDbLine
 10
145.36717901
 20
1.74448354
 30
0.0
 11
145.24521871
 21
1.91924942
 31
0.0
  0
LINE
  5
4A2
100
AcDbEntity
  8
レイヤー_1
  6
CONTINUOUS
 62
       3
100
AcDbLine
 10
145.24521871
 20
1.91924942
 30
0.0
 11
145.10765348
 21
2.0813818
 31
0.0
  0
LINE
  5
4A3
100
AcDbEntity
  8
レイヤー_1
  6
CONTINUOUS
 62
       3
100
AcDbLine
 10
145.10765348
 20
2.0813818
 30
0.0
 11
144.95556357
 21
2.22980344
 31
0.0
  0
LINE
  5
4A4
100
AcDbEntity
  8
レイヤー_1
  6
CONTINUOUS
 62
       3
100
AcDbLine
 10
144.95556357
 20
2.22980344
 30
0.0
 11
144.79002922
 21
2.36343712
 31
0.0
  0
LINE
  5
4A5
100
AcDbEntity
  8
レイヤー_1
  6
CONTINUOUS
 62
       3
100
AcDbLine
 10
144.79002922
 20
2.36343712
 30
0.0
 11
144.61213069
 21
2.48120559
 31
0.0
  0
LINE
  5
4A6
100
AcDbEntity
  8
レイヤー_1
  6
CONTINUOUS
 62
       3
100
AcDbLine
 10
144.61213069
 20
2.48120559
 30
0.0
 11
144.42294821
 21
2.58203159
 31
0.0
  0
LINE
  5
4A7
100
AcDbEntity
  8
レイヤー_1
  6
CONTINUOUS
 62
       3
100
AcDbLine
 10
144.42294821
 20
2.58203159
 30
0.0
 11
144.22356207
 21
2.6648379
 31
0.0
  0
LINE
  5
4A8
100
AcDbEntity
  8
レイヤー_1
  6
CONTINUOUS
 62
       3
100
AcDbLine
 10
144.22356207
 20
2.6648379
 30
0.0
 11
144.01505249
 21
2.72854728
 31
0.0
  0
LINE
  5
4A9
100
AcDbEntity
  8
レイヤー_1
  6
CONTINUOUS
 62
       3
100
AcDbLine
 10
144.01505249
 20
2.72854728
 30
0.0
 11
143.79849974
 21
2.77208247
 31
0.0
  0
LINE
  5
4AA
100
AcDbEntity
  8
レイヤー_1
  6
CONTINUOUS
 62
       3
100
AcDbLine
 10
143.79849974
 20
2.77208247
 30
0.0
 11
143.57498408
 21
2.79436623
 31
0.0
  0
LINE
  5
4AB
100
AcDbEntity
  8
レイヤー_1
  6
CONTINUOUS
 62
       3
100
AcDbLine
 10
143.57498408
 20
2.79436623
 30
0.0
 11
143.34707553
 21
2.79436623
 31
0.0
  0
LINE
  5
4AC
100
AcDbEntity
  8
レイヤー_1
  6
CONTINUOUS
 62
       3
100
AcDbLine
 10
143.34707553
 20
2.79436623
 30
0.0
 11
143.12384003
 21
2.77208247
 31
0.0
  0
LINE
  5
4AD
100
AcDbEntity
  8
レイヤー_1
  6
CONTINUOUS
 62
       3
100
AcDbLine
 10
143.12384003
 20
2.77208247
 30
0.0
 11
142.90753193
 21
2.72854728
 31
0.0
  0
LINE
  5
4AE
100
AcDbEntity
  8
レイヤー_1
  6
CONTINUOUS
 62
       3
100
AcDbLine
 10
142.90753193
 20
2.72854728
 30
0.0
 11
142.69923388
 21
2.6648379
 31
0.0
  0
LINE
  5
4AF
100
AcDbEntity
  8
レイヤー_1
  6
CONTINUOUS
 62
       3
100
AcDbLine
 10
142.69923388
 20
2.6648379
 30
0.0
 11
142.50002856
 21
2.58203159
 31
0.0
  0
LINE
  5
4B0
100
AcDbEntity
  8
レイヤー_1
  6
CONTINUOUS
 62
       3
100
AcDbLine
 10
142.50002856
 20
2.58203159
 30
0.0
 11
142.31099861
 21
2.48120559
 31
0.0
  0
LINE
  5
4B1
100
AcDbEntity
  8
レイヤー_1
  6
CONTINUOUS
 62
       3
100
AcDbLine
 10
142.31099861
 20
2.48120559
 30
0.0
 11
142.13322669
 21
2.36343712
 31
0.0
  0
LINE
  5
4B2
100
AcDbEntity
  8
レイヤー_1
  6
CONTINUOUS
 62
       3
100
AcDbLine
 10
142.13322669
 20
2.36343712
 30
0.0
 11
141.96779549
 21
2.22980344
 31
0.0
  0
LINE
  5
4B3
100
AcDbEntity
  8
レイヤー_1
  6
CONTINUOUS
 62
       3
100
AcDbLine
 10
141.96779549
 20
2.22980344
 30
0.0
 11
141.81578765
 21
2.0813818
 31
0.0
  0
LINE
  5
4B4
100
AcDbEntity
  8
レイヤー_1
  6
CONTINUOUS
 62
       3
100
AcDbLine
 10
141.81578765
 20
2.0813818
 30
0.0
 11
141.67828582
 21
1.91924942
 31
0.0
  0
LINE
  5
4B5
100
AcDbEntity
  8
レイヤー_1
  6
CONTINUOUS
 62
       3
100
AcDbLine
 10
141.67828582
 20
1.91924942
 30
0.0
 11
141.55637265
 21
1.74448354
 31
0.0
  0
LINE
  5
4B6
100
AcDbEntity
  8
レイヤー_1
  6
CONTINUOUS
 62
       3
100
AcDbLine
 10
141.55637265
 20
1.74448354
 30
0.0
 11
141.45113084
 21
1.55816141
 31
0.0
  0
LINE
  5
4B7
100
AcDbEntity
  8
レイヤー_1
  6
CONTINUOUS
 62
       3
100
AcDbLine
 10
141.45113084
 20
1.55816141
 30
0.0
 11
141.36364304
 21
1.36136027
 31
0.0
  0
LINE
  5
4B8
100
AcDbEntity
  8
レイヤー_1
  6
CONTINUOUS
 62
       3
100
AcDbLine
 10
141.36364304
 20
1.36136027
 30
0.0
 11
141.29499189
 21
1.15515736
 31
0.0
  0
LINE
  5
4B9
100
AcDbEntity
  8
レイヤー_1
  6
CONTINUOUS
 62
       3
100
AcDbLine
 10
141.29499189
 20
1.15515736
 30
0.0
 11
141.24626005
 21
0.94062991
 31
0.0
  0
LINE
  5
4BA
100
AcDbEntity
  8
レイヤー_1
  6
CONTINUOUS
 62
       3
100
AcDbLine
 10
141.24626005
 20
0.94062991
 30
0.0
 11
141.2185302
 21
0.71885519
 31
0.0
  0
LINE
  5
4BB
100
AcDbEntity
  8
レイヤー_1
  6
CONTINUOUS
 62
       3
100
AcDbLine
 10
141.2185302
 20
0.71885519
 30
0.0
 11
141.21287935
 21
0.49122535
 31
0.0
  0
LINE
  5
4BC
100
AcDbEntity
  8
レイヤー_1
  6
CONTINUOUS
 62
       3
100
AcDbLine
 10
141.21287935
 20
0.49122535
 30
0.0
 11
141.22970221
 21
0.2661447
 31
0.0
  0
LINE
  5
4BD
100
AcDbEntity
  8
レイヤー_1
  6
CONTINUOUS
 62
       3
100
AcDbLine
 10
141.22970221
 20
0.2661447
 30
0.0
 11
141.26806839
 21
0.04776516
 31
0.0
  0
LINE
  5
4BE
100
AcDbEntity
  8
レイヤー_1
  6
CONTINUOUS
 62
       3
100
AcDbLine
 10
141.26806839
 20
0.04776516
 30
0.0
 11
141.32689521
 21
-0.16283417
 31
0.0
  0
LINE
  5
4BF
100
AcDbEntity
  8
レイヤー_1
  6
CONTINUOUS
 62
       3
100
AcDbLine
 10
141.32689521
 20
-0.16283417
 30
0.0
 11
141.40510003
 21
-0.36457427
 31
0.0
  0
LINE
  5
4C0
100
AcDbEntity
  8
レイヤー_1
  6
CONTINUOUS
 62
       3
100
AcDbLine
 10
141.40510003
 20
-0.36457427
 30
0.0
 11
141.50160016
 21
-0.55637609
 31
0.0
  0
LINE
  5
4C1
100
AcDbEntity
  8
レイヤー_1
  6
CONTINUOUS
 62
       3
100
AcDbLine
 10
141.50160016
 20
-0.55637609
 30
0.0
 11
141.61531299
 21
-0.73716057
 31
0.0
  0
LINE
  5
4C2
100
AcDbEntity
  8
レイヤー_1
  6
CONTINUOUS
 62
       3
100
AcDbLine
 10
141.61531299
 20
-0.73716057
 30
0.0
 11
141.74515581
 21
-0.90584868
 31
0.0
  0
LINE
  5
4C3
100
AcDbEntity
  8
レイヤー_1
  6
CONTINUOUS
 62
       3
100
AcDbLine
 10
141.74515581
 20
-0.90584868
 30
0.0
 11
141.89004597
 21
-1.06136137
 31
0.0
  0
LINE
  5
4C4
100
AcDbEntity
  8
レイヤー_1
  6
CONTINUOUS
 62
       3
100
AcDbLine
 10
141.89004597
 20
-1.06136137
 30
0.0
 11
142.04890085
 21
-1.20261957
 31
0.0
  0
LINE
  5
4C5
100
AcDbEntity
  8
レイヤー_1
  6
CONTINUOUS
 62
       3
100
AcDbLine
 10
142.04890085
 20
-1.20261957
 30
0.0
 11
142.22063774
 21
-1.32854426
 31
0.0
  0
LINE
  5
4C6
100
AcDbEntity
  8
レイヤー_1
  6
CONTINUOUS
 62
       3
100
AcDbLine
 10
142.22063774
 20
-1.32854426
 30
0.0
 11
142.40417399
 21
-1.43805639
 31
0.0
  0
LINE
  5
4C7
100
AcDbEntity
  8
レイヤー_1
  6
CONTINUOUS
 62
       3
100
AcDbLine
 10
142.40417399
 20
-1.43805639
 30
0.0
 11
142.59842696
 21
-1.53007691
 31
0.0
  0
LINE
  5
4C8
100
AcDbEntity
  8
レイヤー_1
  6
CONTINUOUS
 62
       3
100
AcDbLine
 10
142.59842696
 20
-1.53007691
 30
0.0
 11
142.80231398
 21
-1.60352675
 31
0.0
  0
LINE
  5
4C9
100
AcDbEntity
  8
レイヤー_1
  6
CONTINUOUS
 62
       3
100
AcDbLine
 10
142.80231398
 20
-1.60352675
 30
0.0
 11
143.01475239
 21
-1.6573269
 31
0.0
  0
LINE
  5
4CA
100
AcDbEntity
  8
レイヤー_1
  6
CONTINUOUS
 62
       3
100
AcDbLine
 10
143.01475239
 20
-1.6573269
 30
0.0
 11
143.23465952
 21
-1.69039827
 31
0.0
  0
LINE
  5
4CB
100
AcDbEntity
  8
レイヤー_1
  6
CONTINUOUS
 62
       3
100
AcDbLine
 10
143.23465952
 20
-1.69039827
 30
0.0
 11
143.46095271
 21
-1.70166186
 31
0.0
  0
LINE
  5
4CC
100
AcDbEntity
  8
レイヤー_1
  6
CONTINUOUS
 62
       3
100
AcDbLine
 10
148.4787343
 20
4.84488084
 30
0.0
 11
139.98140628
 21
4.84488084
 31
0.0
  0
LINE
  5
4CD
100
AcDbEntity
  8
レイヤー_1
  6
CONTINUOUS
 62
       3
100
AcDbLine
 10
139.98140628
 20
4.84488084
 30
0.0
 11
139.98140628
 21
-3.65330845
 31
0.0
  0
LINE
  5
4CE
100
AcDbEntity
  8
レイヤー_1
  6
CONTINUOUS
 62
       3
100
AcDbLine
 10
139.98140628
 20
-3.65330845
 30
0.0
 11
148.4787343
 21
-3.65330845
 31
0.0
  0
LINE
  5
4CF
100
AcDbEntity
  8
レイヤー_1
  6
CONTINUOUS
 62
       3
100
AcDbLine
 10
126.1364288
 20
6.98988342
 30
0.0
 11
126.27874937
 21
6.93910943
 31
0.0
  0
LINE
  5
4D0
100
AcDbEntity
  8
レイヤー_1
  6
CONTINUOUS
 62
       3
100
AcDbLine
 10
126.27874937
 20
6.93910943
 30
0.0
 11
126.42269063
 21
6.90339559
 31
0.0
  0
LINE
  5
4D1
100
AcDbEntity
  8
レイヤー_1
  6
CONTINUOUS
 62
       3
100
AcDbLine
 10
126.42269063
 20
6.90339559
 30
0.0
 11
126.56730959
 21
6.8823517
 31
0.0
  0
LINE
  5
4D2
100
AcDbEntity
  8
レイヤー_1
  6
CONTINUOUS
 62
       3
100
AcDbLine
 10
126.56730959
 20
6.8823517
 30
0.0
 11
126.71166332
 21
6.87558759
 31
0.0
  0
LINE
  5
4D3
100
AcDbEntity
  8
レイヤー_1
  6
CONTINUOUS
 62
       3
100
AcDbLine
 10
126.71166332
 20
6.87558759
 30
0.0
 11
126.85480882
 21
6.88271302
 31
0.0
  0
LINE
  5
4D4
100
AcDbEntity
  8
レイヤー_1
  6
CONTINUOUS
 62
       3
100
AcDbLine
 10
126.85480882
 20
6.88271302
 30
0.0
 11
126.99580318
 21
6.90333785
 31
0.0
  0
LINE
  5
4D5
100
AcDbEntity
  8
レイヤー_1
  6
CONTINUOUS
 62
       3
100
AcDbLine
 10
126.99580318
 20
6.90333785
 30
0.0
 11
127.13370339
 21
6.93707188
 31
0.0
  0
LINE
  5
4D6
100
AcDbEntity
  8
レイヤー_1
  6
CONTINUOUS
 62
       3
100
AcDbLine
 10
127.13370339
 20
6.93707188
 30
0.0
 11
127.26756651
 21
6.98352489
 31
0.0
  0
LINE
  5
4D7
100
AcDbEntity
  8
レイヤー_1
  6
CONTINUOUS
 62
       3
100
AcDbLine
 10
127.26756651
 20
6.98352489
 30
0.0
 11
127.39644957
 21
7.04230672
 31
0.0
  0
LINE
  5
4D8
100
AcDbEntity
  8
レイヤー_1
  6
CONTINUOUS
 62
       3
100
AcDbLine
 10
127.39644957
 20
7.04230672
 30
0.0
 11
127.51940962
 21
7.11302714
 31
0.0
  0
LINE
  5
4D9
100
AcDbEntity
  8
レイヤー_1
  6
CONTINUOUS
 62
       3
100
AcDbLine
 10
127.51940962
 20
7.11302714
 30
0.0
 11
127.63550368
 21
7.19529602
 31
0.0
  0
LINE
  5
4DA
100
AcDbEntity
  8
レイヤー_1
  6
CONTINUOUS
 62
       3
100
AcDbLine
 10
127.63550368
 20
7.19529602
 30
0.0
 11
127.74378881
 21
7.28872311
 31
0.0
  0
LINE
  5
4DB
100
AcDbEntity
  8
レイヤー_1
  6
CONTINUOUS
 62
       3
100
AcDbLine
 10
127.74378881
 20
7.28872311
 30
0.0
 11
127.84332202
 21
7.39291825
 31
0.0
  0
LINE
  5
4DC
100
AcDbEntity
  8
レイヤー_1
  6
CONTINUOUS
 62
       3
100
AcDbLine
 10
127.84332202
 20
7.39291825
 30
0.0
 11
127.93316039
 21
7.50749123
 31
0.0
  0
LINE
  5
4DD
100
AcDbEntity
  8
レイヤー_1
  6
CONTINUOUS
 62
       3
100
AcDbLine
 10
127.93316039
 20
7.50749123
 30
0.0
 11
128.01236091
 21
7.63205188
 31
0.0
  0
LINE
  5
4DE
100
AcDbEntity
  8
レイヤー_1
  6
CONTINUOUS
 62
       3
100
AcDbLine
 10
128.01236091
 20
7.63205188
 30
0.0
 11
128.07998065
 21
7.76621
 31
0.0
  0
LINE
  5
4DF
100
AcDbEntity
  8
レイヤー_1
  6
CONTINUOUS
 62
       3
100
AcDbLine
 10
128.07998065
 20
7.76621
 30
0.0
 11
128.13453008
 21
7.90786894
 31
0.0
  0
LINE
  5
4E0
100
AcDbEntity
  8
レイヤー_1
  6
CONTINUOUS
 62
       3
100
AcDbLine
 10
128.13453008
 20
7.90786894
 30
0.0
 11
128.17403964
 21
8.05162945
 31
0.0
  0
LINE
  5
4E1
100
AcDbEntity
  8
レイヤー_1
  6
CONTINUOUS
 62
       3
100
AcDbLine
 10
128.17403964
 20
8.05162945
 30
0.0
 11
128.19877192
 21
8.19628701
 31
0.0
  0
LINE
  5
4E2
100
AcDbEntity
  8
レイヤー_1
  6
CONTINUOUS
 62
       3
100
AcDbLine
 10
128.19877192
 20
8.19628701
 30
0.0
 11
128.2091171
 21
8.34090047
 31
0.0
  0
LINE
  5
4E3
100
AcDbEntity
  8
レイヤー_1
  6
CONTINUOUS
 62
       3
100
AcDbLine
 10
128.2091171
 20
8.34090047
 30
0.0
 11
128.20546539
 21
8.48452866
 31
0.0
  0
LINE
  5
4E4
100
AcDbEntity
  8
レイヤー_1
  6
CONTINUOUS
 62
       3
100
AcDbLine
 10
128.20546539
 20
8.48452866
 30
0.0
 11
128.18820695
 21
8.62623042
 31
0.0
  0
LINE
  5
4E5
100
AcDbEntity
  8
レイヤー_1
  6
CONTINUOUS
 62
       3
100
AcDbLine
 10
128.18820695
 20
8.62623042
 30
0.0
 11
128.157732
 21
8.76506463
 31
0.0
  0
LINE
  5
4E6
100
AcDbEntity
  8
レイヤー_1
  6
CONTINUOUS
 62
       3
100
AcDbLine
 10
128.157732
 20
8.76506463
 30
0.0
 11
128.11443072
 21
8.90009011
 31
0.0
  0
LINE
  5
4E7
100
AcDbEntity
  8
レイヤー_1
  6
CONTINUOUS
 62
       3
100
AcDbLine
 10
128.11443072
 20
8.90009011
 30
0.0
 11
128.05869329
 21
9.03036567
 31
0.0
  0
LINE
  5
4E8
100
AcDbEntity
  8
レイヤー_1
  6
CONTINUOUS
 62
       3
100
AcDbLine
 10
128.05869329
 20
9.03036567
 30
0.0
 11
127.99090992
 21
9.15495023
 31
0.0
  0
LINE
  5
4E9
100
AcDbEntity
  8
レイヤー_1
  6
CONTINUOUS
 62
       3
100
AcDbLine
 10
127.99090992
 20
9.15495023
 30
0.0
 11
127.91147079
 21
9.27290257
 31
0.0
  0
LINE
  5
4EA
100
AcDbEntity
  8
レイヤー_1
  6
CONTINUOUS
 62
       3
100
AcDbLine
 10
127.91147079
 20
9.27290257
 30
0.0
 11
127.8207661
 21
9.38328157
 31
0.0
  0
LINE
  5
4EB
100
AcDbEntity
  8
レイヤー_1
  6
CONTINUOUS
 62
       3
100
AcDbLine
 10
127.8207661
 20
9.38328157
 30
0.0
 11
127.71918603
 21
9.48514607
 31
0.0
  0
LINE
  5
4EC
100
AcDbEntity
  8
レイヤー_1
  6
CONTINUOUS
 62
       3
100
AcDbLine
 10
127.71918603
 20
9.48514607
 30
0.0
 11
127.60712078
 21
9.57755488
 31
0.0
  0
LINE
  5
4ED
100
AcDbEntity
  8
レイヤー_1
  6
CONTINUOUS
 62
       3
100
AcDbLine
 10
127.60712078
 20
9.57755488
 30
0.0
 11
127.48496052
 21
9.65956689
 31
0.0
  0
LINE
  5
4EE
100
AcDbEntity
  8
レイヤー_1
  6
CONTINUOUS
 62
       3
100
AcDbLine
 10
127.48496052
 20
9.65956689
 30
0.0
 11
127.35309549
 21
9.73024093
 31
0.0
  0
LINE
  5
4EF
100
AcDbEntity
  8
レイヤー_1
  6
CONTINUOUS
 62
       3
100
AcDbLine
 10
127.35309549
 20
9.73024093
 30
0.0
 11
127.21267212
 21
9.78832719
 31
0.0
  0
LINE
  5
4F0
100
AcDbEntity
  8
レイヤー_1
  6
CONTINUOUS
 62
       3
100
AcDbLine
 10
127.21267212
 20
9.78832719
 30
0.0
 11
127.06930086
 21
9.83153111
 31
0.0
  0
LINE
  5
4F1
100
AcDbEntity
  8
レイヤー_1
  6
CONTINUOUS
 62
       3
100
AcDbLine
 10
127.06930086
 20
9.83153111
 30
0.0
 11
126.92481232
 21
9.85987709
 31
0.0
  0
LINE
  5
4F2
100
AcDbEntity
  8
レイヤー_1
  6
CONTINUOUS
 62
       3
100
AcDbLine
 10
126.92481232
 20
9.85987709
 30
0.0
 11
126.78014464
 21
9.87375347
 31
0.0
  0
LINE
  5
4F3
100
AcDbEntity
  8
レイヤー_1
  6
CONTINUOUS
 62
       3
100
AcDbLine
 10
126.78014464
 20
9.87375347
 30
0.0
 11
126.63623597
 21
9.87354866
 31
0.0
  0
LINE
  5
4F4
100
AcDbEntity
  8
レイヤー_1
  6
CONTINUOUS
 62
       3
100
AcDbLine
 10
126.63623597
 20
9.87354866
 30
0.0
 11
126.49402445
 21
9.859651
 31
0.0
  0
LINE
  5
4F5
100
AcDbEntity
  8
レイヤー_1
  6
CONTINUOUS
 62
       3
100
AcDbLine
 10
126.49402445
 20
9.859651
 30
0.0
 11
126.35444822
 21
9.83244894
 31
0.0
  0
LINE
  5
4F6
100
AcDbEntity
  8
レイヤー_1
  6
CONTINUOUS
 62
       3
100
AcDbLine
 10
126.35444822
 20
9.83244894
 30
0.0
 11
126.21844544
 21
9.7923308
 31
0.0
  0
LINE
  5
4F7
100
AcDbEntity
  8
レイヤー_1
  6
CONTINUOUS
 62
       3
100
AcDbLine
 10
126.21844544
 20
9.7923308
 30
0.0
 11
126.08695424
 21
9.73968501
 31
0.0
  0
LINE
  5
4F8
100
AcDbEntity
  8
レイヤー_1
  6
CONTINUOUS
 62
       3
100
AcDbLine
 10
126.08695424
 20
9.73968501
 30
0.0
 11
125.96091277
 21
9.67489993
 31
0.0
  0
LINE
  5
4F9
100
AcDbEntity
  8
レイヤー_1
  6
CONTINUOUS
 62
       3
100
AcDbLine
 10
125.96091277
 20
9.67489993
 30
0.0
 11
125.84125917
 21
9.59836396
 31
0.0
  0
LINE
  5
4FA
100
AcDbEntity
  8
レイヤー_1
  6
CONTINUOUS
 62
       3
100
AcDbLine
 10
125.84125917
 20
9.59836396
 30
0.0
 11
125.7289316
 21
9.51046548
 31
0.0
  0
LINE
  5
4FB
100
AcDbEntity
  8
レイヤー_1
  6
CONTINUOUS
 62
       3
100
AcDbLine
 10
125.7289316
 20
9.51046548
 30
0.0
 11
125.62486819
 21
9.41159286
 31
0.0
  0
LINE
  5
4FC
100
AcDbEntity
  8
レイヤー_1
  6
CONTINUOUS
 62
       3
100
AcDbLine
 10
125.62486819
 20
9.41159286
 30
0.0
 11
125.53000708
 21
9.30213451
 31
0.0
  0
LINE
  5
4FD
100
AcDbEntity
  8
レイヤー_1
  6
CONTINUOUS
 62
       3
100
AcDbLine
 10
125.53000708
 20
9.30213451
 30
0.0
 11
125.44528643
 21
9.1824788
 31
0.0
  0
LINE
  5
4FE
100
AcDbEntity
  8
レイヤー_1
  6
CONTINUOUS
 62
       3
100
AcDbLine
 10
125.44528643
 20
9.1824788
 30
0.0
 11
125.37164439
 21
9.05301412
 31
0.0
  0
LINE
  5
4FF
100
AcDbEntity
  8
レイヤー_1
  6
CONTINUOUS
 62
       3
100
AcDbLine
 10
125.37164439
 20
9.05301412
 30
0.0
 11
125.31010125
 21
8.91429633
 31
0.0
  0
LINE
  5
500
100
AcDbEntity
  8
レイヤー_1
  6
CONTINUOUS
 62
       3
100
AcDbLine
 10
125.31010125
 20
8.91429633
 30
0.0
 11
125.26305711
 21
8.77133727
 31
0.0
  0
LINE
  5
501
100
AcDbEntity
  8
レイヤー_1
  6
CONTINUOUS
 62
       3
100
AcDbLine
 10
125.26305711
 20
8.77133727
 30
0.0
 11
125.23098686
 21
8.62701059
 31
0.0
  0
LINE
  5
502
100
AcDbEntity
  8
レイヤー_1
  6
CONTINUOUS
 62
       3
100
AcDbLine
 10
125.23098686
 20
8.62701059
 30
0.0
 11
125.2135015
 21
8.48225745
 31
0.0
  0
LINE
  5
503
100
AcDbEntity
  8
レイヤー_1
  6
CONTINUOUS
 62
       3
100
AcDbLine
 10
125.2135015
 20
8.48225745
 30
0.0
 11
125.21021206
 21
8.33801897
 31
0.0
  0
LINE
  5
504
100
AcDbEntity
  8
レイヤー_1
  6
CONTINUOUS
 62
       3
100
AcDbLine
 10
125.21021206
 20
8.33801897
 30
0.0
 11
125.22072955
 21
8.19523634
 31
0.0
  0
LINE
  5
505
100
AcDbEntity
  8
レイヤー_1
  6
CONTINUOUS
 62
       3
100
AcDbLine
 10
125.22072955
 20
8.19523634
 30
0.0
 11
125.24466497
 21
8.05485071
 31
0.0
  0
LINE
  5
506
100
AcDbEntity
  8
レイヤー_1
  6
CONTINUOUS
 62
       3
100
AcDbLine
 10
125.24466497
 20
8.05485071
 30
0.0
 11
125.28162935
 21
7.91780323
 31
0.0
  0
LINE
  5
507
100
AcDbEntity
  8
レイヤー_1
  6
CONTINUOUS
 62
       3
100
AcDbLine
 10
125.28162935
 20
7.91780323
 30
0.0
 11
125.3312337
 21
7.78503506
 31
0.0
  0
LINE
  5
508
100
AcDbEntity
  8
レイヤー_1
  6
CONTINUOUS
 62
       3
100
AcDbLine
 10
125.3312337
 20
7.78503506
 30
0.0
 11
125.39308902
 21
7.65748735
 31
0.0
  0
LINE
  5
509
100
AcDbEntity
  8
レイヤー_1
  6
CONTINUOUS
 62
       3
100
AcDbLine
 10
125.39308902
 20
7.65748735
 30
0.0
 11
125.46680634
 21
7.53610126
 31
0.0
  0
LINE
  5
50A
100
AcDbEntity
  8
レイヤー_1
  6
CONTINUOUS
 62
       3
100
AcDbLine
 10
125.46680634
 20
7.53610126
 30
0.0
 11
125.55199666
 21
7.42181794
 31
0.0
  0
LINE
  5
50B
100
AcDbEntity
  8
レイヤー_1
  6
CONTINUOUS
 62
       3
100
AcDbLine
 10
125.55199666
 20
7.42181794
 30
0.0
 11
125.64827099
 21
7.31557856
 31
0.0
  0
LINE
  5
50C
100
AcDbEntity
  8
レイヤー_1
  6
CONTINUOUS
 62
       3
100
AcDbLine
 10
125.64827099
 20
7.31557856
 30
0.0
 11
125.75524036
 21
7.21832426
 31
0.0
  0
LINE
  5
50D
100
AcDbEntity
  8
レイヤー_1
  6
CONTINUOUS
 62
       3
100
AcDbLine
 10
125.75524036
 20
7.21832426
 30
0.0
 11
125.87251578
 21
7.1309962
 31
0.0
  0
LINE
  5
50E
100
AcDbEntity
  8
レイヤー_1
  6
CONTINUOUS
 62
       3
100
AcDbLine
 10
125.87251578
 20
7.1309962
 30
0.0
 11
125.99970826
 21
7.05453553
 31
0.0
  0
LINE
  5
50F
100
AcDbEntity
  8
レイヤー_1
  6
CONTINUOUS
 62
       3
100
AcDbLine
 10
125.99970826
 20
7.05453553
 30
0.0
 11
126.1364288
 21
6.98988342
 31
0.0
  0
LINE
  5
510
100
AcDbEntity
  8
レイヤー_1
  6
CONTINUOUS
 62
       3
100
AcDbLine
 10
129.88124759
 20
3.24420334
 30
0.0
 11
129.94596502
 21
3.10755761
 31
0.0
  0
LINE
  5
511
100
AcDbEntity
  8
レイヤー_1
  6
CONTINUOUS
 62
       3
100
AcDbLine
 10
129.94596502
 20
3.10755761
 30
0.0
 11
130.02246468
 21
2.98043136
 31
0.0
  0
LINE
  5
512
100
AcDbEntity
  8
レイヤー_1
  6
CONTINUOUS
 62
       3
100
AcDbLine
 10
130.02246468
 20
2.98043136
 30
0.0
 11
130.10980839
 21
2.8632148
 31
0.0
  0
LINE
  5
513
100
AcDbEntity
  8
レイヤー_1
  6
CONTINUOUS
 62
       3
100
AcDbLine
 10
130.10980839
 20
2.8632148
 30
0.0
 11
130.20705802
 21
2.75629812
 31
0.0
  0
LINE
  5
514
100
AcDbEntity
  8
レイヤー_1
  6
CONTINUOUS
 62
       3
100
AcDbLine
 10
130.20705802
 20
2.75629812
 30
0.0
 11
130.31327543
 21
2.66007149
 31
0.0
  0
LINE
  5
515
100
AcDbEntity
  8
レイヤー_1
  6
CONTINUOUS
 62
       3
100
AcDbLine
 10
130.31327543
 20
2.66007149
 30
0.0
 11
130.42752246
 21
2.57492511
 31
0.0
  0
LINE
  5
516
100
AcDbEntity
  8
レイヤー_1
  6
CONTINUOUS
 62
       3
100
AcDbLine
 10
130.42752246
 20
2.57492511
 30
0.0
 11
130.54886096
 21
2.50124919
 31
0.0
  0
LINE
  5
517
100
AcDbEntity
  8
レイヤー_1
  6
CONTINUOUS
 62
       3
100
AcDbLine
 10
130.54886096
 20
2.50124919
 30
0.0
 11
130.67635283
 21
2.4394339
 31
0.0
  0
LINE
  5
518
100
AcDbEntity
  8
レイヤー_1
  6
CONTINUOUS
 62
       3
100
AcDbLine
 10
130.67635283
 20
2.4394339
 30
0.0
 11
130.80905987
 21
2.38986944
 31
0.0
  0
LINE
  5
519
100
AcDbEntity
  8
レイヤー_1
  6
CONTINUOUS
 62
       3
100
AcDbLine
 10
130.80905987
 20
2.38986944
 30
0.0
 11
130.94604397
 21
2.35294601
 31
0.0
  0
LINE
  5
51A
100
AcDbEntity
  8
レイヤー_1
  6
CONTINUOUS
 62
       3
100
AcDbLine
 10
130.94604397
 20
2.35294601
 30
0.0
 11
131.08636697
 21
2.32905378
 31
0.0
  0
LINE
  5
51B
100
AcDbEntity
  8
レイヤー_1
  6
CONTINUOUS
 62
       3
100
AcDbLine
 10
131.08636697
 20
2.32905378
 30
0.0
 11
131.22909073
 21
2.31858296
 31
0.0
  0
LINE
  5
51C
100
AcDbEntity
  8
レイヤー_1
  6
CONTINUOUS
 62
       3
100
AcDbLine
 10
131.22909073
 20
2.31858296
 30
0.0
 11
131.37327711
 21
2.32192373
 31
0.0
  0
LINE
  5
51D
100
AcDbEntity
  8
レイヤー_1
  6
CONTINUOUS
 62
       3
100
AcDbLine
 10
131.37327711
 20
2.32192373
 30
0.0
 11
131.51798794
 21
2.33946628
 31
0.0
  0
LINE
  5
51E
100
AcDbEntity
  8
レイヤー_1
  6
CONTINUOUS
 62
       3
100
AcDbLine
 10
131.51798794
 20
2.33946628
 30
0.0
 11
131.66228512
 21
2.3716008
 31
0.0
  0
LINE
  5
51F
100
AcDbEntity
  8
レイヤー_1
  6
CONTINUOUS
 62
       3
100
AcDbLine
 10
131.66228512
 20
2.3716008
 30
0.0
 11
131.80523046
 21
2.4187175
 31
0.0
  0
LINE
  5
520
100
AcDbEntity
  8
レイヤー_1
  6
CONTINUOUS
 62
       3
100
AcDbLine
 10
131.80523046
 20
2.4187175
 30
0.0
 11
131.94395029
 21
2.48022854
 31
0.0
  0
LINE
  5
521
100
AcDbEntity
  8
レイヤー_1
  6
CONTINUOUS
 62
       3
100
AcDbLine
 10
131.94395029
 20
2.48022854
 30
0.0
 11
132.07342571
 21
2.55382431
 31
0.0
  0
LINE
  5
522
100
AcDbEntity
  8
レイヤー_1
  6
CONTINUOUS
 62
       3
100
AcDbLine
 10
132.07342571
 20
2.55382431
 30
0.0
 11
132.19309878
 21
2.63852066
 31
0.0
  0
LINE
  5
523
100
AcDbEntity
  8
レイヤー_1
  6
CONTINUOUS
 62
       3
100
AcDbLine
 10
132.19309878
 20
2.63852066
 30
0.0
 11
132.30257933
 21
2.73337523
 31
0.0
  0
LINE
  5
524
100
AcDbEntity
  8
レイヤー_1
  6
CONTINUOUS
 62
       3
100
AcDbLine
 10
132.30257933
 20
2.73337523
 30
0.0
 11
132.40147713
 21
2.83744565
 31
0.0
  0
LINE
  5
525
100
AcDbEntity
  8
レイヤー_1
  6
CONTINUOUS
 62
       3
100
AcDbLine
 10
132.40147713
 20
2.83744565
 30
0.0
 11
132.48940202
 21
2.94978957
 31
0.0
  0
LINE
  5
526
100
AcDbEntity
  8
レイヤー_1
  6
CONTINUOUS
 62
       3
100
AcDbLine
 10
132.48940202
 20
2.94978957
 30
0.0
 11
132.56596379
 21
3.06946463
 31
0.0
  0
LINE
  5
527
100
AcDbEntity
  8
レイヤー_1
  6
CONTINUOUS
 62
       3
100
AcDbLine
 10
132.56596379
 20
3.06946463
 30
0.0
 11
132.63077225
 21
3.19552847
 31
0.0
  0
LINE
  5
528
100
AcDbEntity
  8
レイヤー_1
  6
CONTINUOUS
 62
       3
100
AcDbLine
 10
132.63077225
 20
3.19552847
 30
0.0
 11
132.68343722
 21
3.32703873
 31
0.0
  0
LINE
  5
529
100
AcDbEntity
  8
レイヤー_1
  6
CONTINUOUS
 62
       3
100
AcDbLine
 10
132.68343722
 20
3.32703873
 30
0.0
 11
132.7235685
 21
3.46305304
 31
0.0
  0
LINE
  5
52A
100
AcDbEntity
  8
レイヤー_1
  6
CONTINUOUS
 62
       3
100
AcDbLine
 10
132.7235685
 20
3.46305304
 30
0.0
 11
132.75077591
 21
3.60262904
 31
0.0
  0
LINE
  5
52B
100
AcDbEntity
  8
レイヤー_1
  6
CONTINUOUS
 62
       3
100
AcDbLine
 10
132.75077591
 20
3.60262904
 30
0.0
 11
132.76466924
 21
3.74482441
 31
0.0
  0
LINE
  5
52C
100
AcDbEntity
  8
レイヤー_1
  6
CONTINUOUS
 62
       3
100
AcDbLine
 10
132.76466924
 20
3.74482441
 30
0.0
 11
132.76485832
 21
3.88869674
 31
0.0
  0
LINE
  5
52D
100
AcDbEntity
  8
レイヤー_1
  6
CONTINUOUS
 62
       3
100
AcDbLine
 10
132.76485832
 20
3.88869674
 30
0.0
 11
132.75095294
 21
4.03330369
 31
0.0
  0
LINE
  5
52E
100
AcDbEntity
  8
レイヤー_1
  6
CONTINUOUS
 62
       3
100
AcDbLine
 10
132.75095294
 20
4.03330369
 30
0.0
 11
132.72256292
 21
4.1777029
 31
0.0
  0
LINE
  5
52F
100
AcDbEntity
  8
レイヤー_1
  6
CONTINUOUS
 62
       3
100
AcDbLine
 10
132.72256292
 20
4.1777029
 30
0.0
 11
132.67929806
 21
4.320952
 31
0.0
  0
LINE
  5
530
100
AcDbEntity
  8
レイヤー_1
  6
CONTINUOUS
 62
       3
100
AcDbLine
 10
132.67929806
 20
4.320952
 30
0.0
 11
132.62121304
 21
4.46137657
 31
0.0
  0
LINE
  5
531
100
AcDbEntity
  8
レイヤー_1
  6
CONTINUOUS
 62
       3
100
AcDbLine
 10
132.62121304
 20
4.46137657
 30
0.0
 11
132.5506097
 21
4.59337289
 31
0.0
  0
LINE
  5
532
100
AcDbEntity
  8
レイヤー_1
  6
CONTINUOUS
 62
       3
100
AcDbLine
 10
132.5506097
 20
4.59337289
 30
0.0
 11
132.46866131
 21
4.71563958
 31
0.0
  0
LINE
  5
533
100
AcDbEntity
  8
レイヤー_1
  6
CONTINUOUS
 62
       3
100
AcDbLine
 10
132.46866131
 20
4.71563958
 30
0.0
 11
132.37631084
 21
4.82778945
 31
0.0
  0
LINE
  5
534
100
AcDbEntity
  8
レイヤー_1
  6
CONTINUOUS
 62
       3
100
AcDbLine
 10
132.37631084
 20
4.82778945
 30
0.0
 11
132.27450124
 21
4.92943531
 31
0.0
  0
LINE
  5
535
100
AcDbEntity
  8
レイヤー_1
  6
CONTINUOUS
 62
       3
100
AcDbLine
 10
132.27450124
 20
4.92943531
 30
0.0
 11
132.16417547
 21
5.02019
 31
0.0
  0
LINE
  5
536
100
AcDbEntity
  8
レイヤー_1
  6
CONTINUOUS
 62
       3
100
AcDbLine
 10
132.16417547
 20
5.02019
 30
0.0
 11
132.04627651
 21
5.09966632
 31
0.0
  0
LINE
  5
537
100
AcDbEntity
  8
レイヤー_1
  6
CONTINUOUS
 62
       3
100
AcDbLine
 10
132.04627651
 20
5.09966632
 30
0.0
 11
131.92174731
 21
5.1674771
 31
0.0
  0
LINE
  5
538
100
AcDbEntity
  8
レイヤー_1
  6
CONTINUOUS
 62
       3
100
AcDbLine
 10
131.92174731
 20
5.1674771
 30
0.0
 11
131.79153083
 21
5.22323516
 31
0.0
  0
LINE
  5
539
100
AcDbEntity
  8
レイヤー_1
  6
CONTINUOUS
 62
       3
100
AcDbLine
 10
131.79153083
 20
5.22323516
 30
0.0
 11
131.65657003
 21
5.26655332
 31
0.0
  0
LINE
  5
53A
100
AcDbEntity
  8
レイヤー_1
  6
CONTINUOUS
 62
       3
100
AcDbLine
 10
131.65657003
 20
5.26655332
 30
0.0
 11
131.51780787
 21
5.29704439
 31
0.0
  0
LINE
  5
53B
100
AcDbEntity
  8
レイヤー_1
  6
CONTINUOUS
 62
       3
100
AcDbLine
 10
131.51780787
 20
5.29704439
 30
0.0
 11
131.37618734
 21
5.31432119
 31
0.0
  0
LINE
  5
53C
100
AcDbEntity
  8
レイヤー_1
  6
CONTINUOUS
 62
       3
100
AcDbLine
 10
131.37618734
 20
5.31432119
 30
0.0
 11
131.23265137
 21
5.31799656
 31
0.0
  0
LINE
  5
53D
100
AcDbEntity
  8
レイヤー_1
  6
CONTINUOUS
 62
       3
100
AcDbLine
 10
131.23265137
 20
5.31799656
 30
0.0
 11
131.08814294
 21
5.3076833
 31
0.0
  0
LINE
  5
53E
100
AcDbEntity
  8
レイヤー_1
  6
CONTINUOUS
 62
       3
100
AcDbLine
 10
131.08814294
 20
5.3076833
 30
0.0
 11
130.943605
 21
5.28299425
 31
0.0
  0
LINE
  5
53F
100
AcDbEntity
  8
レイヤー_1
  6
CONTINUOUS
 62
       3
100
AcDbLine
 10
130.943605
 20
5.28299425
 30
0.0
 11
130.79998051
 21
5.2435422
 31
0.0
  0
LINE
  5
540
100
AcDbEntity
  8
レイヤー_1
  6
CONTINUOUS
 62
       3
100
AcDbLine
 10
130.79998051
 20
5.2435422
 30
0.0
 11
130.65837673
 21
5.18898899
 31
0.0
  0
LINE
  5
541
100
AcDbEntity
  8
レイヤー_1
  6
CONTINUOUS
 62
       3
100
AcDbLine
 10
130.65837673
 20
5.18898899
 30
0.0
 11
130.52400174
 21
5.1211657
 31
0.0
  0
LINE
  5
542
100
AcDbEntity
  8
レイヤー_1
  6
CONTINUOUS
 62
       3
100
AcDbLine
 10
130.52400174
 20
5.1211657
 30
0.0
 11
130.39925206
 21
5.04180375
 31
0.0
  0
LINE
  5
543
100
AcDbEntity
  8
レイヤー_1
  6
CONTINUOUS
 62
       3
100
AcDbLine
 10
130.39925206
 20
5.04180375
 30
0.0
 11
130.28451669
 21
4.95184072
 31
0.0
  0
LINE
  5
544
100
AcDbEntity
  8
レイヤー_1
  6
CONTINUOUS
 62
       3
100
AcDbLine
 10
130.28451669
 20
4.95184072
 30
0.0
 11
130.1801846
 21
4.85221412
 31
0.0
  0
LINE
  5
545
100
AcDbEntity
  8
レイヤー_1
  6
CONTINUOUS
 62
       3
100
AcDbLine
 10
130.1801846
 20
4.85221412
 30
0.0
 11
130.08664481
 21
4.74386151
 31
0.0
  0
LINE
  5
546
100
AcDbEntity
  8
レイヤー_1
  6
CONTINUOUS
 62
       3
100
AcDbLine
 10
130.08664481
 20
4.74386151
 30
0.0
 11
130.00428626
 21
4.62772045
 31
0.0
  0
LINE
  5
547
100
AcDbEntity
  8
レイヤー_1
  6
CONTINUOUS
 62
       3
100
AcDbLine
 10
130.00428626
 20
4.62772045
 30
0.0
 11
129.93349797
 21
4.50472845
 31
0.0
  0
LINE
  5
548
100
AcDbEntity
  8
レイヤー_1
  6
CONTINUOUS
 62
       3
100
AcDbLine
 10
129.93349797
 20
4.50472845
 30
0.0
 11
129.87466894
 21
4.37582306
 31
0.0
  0
LINE
  5
549
100
AcDbEntity
  8
レイヤー_1
  6
CONTINUOUS
 62
       3
100
AcDbLine
 10
129.87466894
 20
4.37582306
 30
0.0
 11
129.82818812
 21
4.24194184
 31
0.0
  0
LINE
  5
54A
100
AcDbEntity
  8
レイヤー_1
  6
CONTINUOUS
 62
       3
100
AcDbLine
 10
129.82818812
 20
4.24194184
 30
0.0
 11
129.79444451
 21
4.10402232
 31
0.0
  0
LINE
  5
54B
100
AcDbEntity
  8
レイヤー_1
  6
CONTINUOUS
 62
       3
100
AcDbLine
 10
129.79444451
 20
4.10402232
 30
0.0
 11
129.7738271
 21
3.96300206
 31
0.0
  0
LINE
  5
54C
100
AcDbEntity
  8
レイヤー_1
  6
CONTINUOUS
 62
       3
100
AcDbLine
 10
129.7738271
 20
3.96300206
 30
0.0
 11
129.76672487
 21
3.81981856
 31
0.0
  0
LINE
  5
54D
100
AcDbEntity
  8
レイヤー_1
  6
CONTINUOUS
 62
       3
100
AcDbLine
 10
129.76672487
 20
3.81981856
 30
0.0
 11
129.77352683
 21
3.67540941
 31
0.0
  0
LINE
  5
54E
100
AcDbEntity
  8
レイヤー_1
  6
CONTINUOUS
 62
       3
100
AcDbLine
 10
129.77352683
 20
3.67540941
 30
0.0
 11
129.79462194
 21
3.53071213
 31
0.0
  0
LINE
  5
54F
100
AcDbEntity
  8
レイヤー_1
  6
CONTINUOUS
 62
       3
100
AcDbLine
 10
129.79462194
 20
3.53071213
 30
0.0
 11
129.8303992
 21
3.38666426
 31
0.0
  0
LINE
  5
550
100
AcDbEntity
  8
レイヤー_1
  6
CONTINUOUS
 62
       3
100
AcDbLine
 10
129.8303992
 20
3.38666426
 30
0.0
 11
129.88124759
 21
3.24420334
 31
0.0
  0
LINE
  5
551
100
AcDbEntity
  8
レイヤー_1
  6
CONTINUOUS
 62
       3
100
AcDbLine
 10
129.88124759
 20
-2.05263096
 30
0.0
 11
129.8303992
 21
-2.19509646
 31
0.0
  0
LINE
  5
552
100
AcDbEntity
  8
レイヤー_1
  6
CONTINUOUS
 62
       3
100
AcDbLine
 10
129.8303992
 20
-2.19509646
 30
0.0
 11
129.79462194
 21
-2.33915691
 31
0.0
  0
LINE
  5
553
100
AcDbEntity
  8
レイヤー_1
  6
CONTINUOUS
 62
       3
100
AcDbLine
 10
129.79462194
 20
-2.33915691
 30
0.0
 11
129.77352683
 21
-2.48387293
 31
0.0
  0
LINE
  5
554
100
AcDbEntity
  8
レイヤー_1
  6
CONTINUOUS
 62
       3
100
AcDbLine
 10
129.77352683
 20
-2.48387293
 30
0.0
 11
129.76672487
 21
-2.62830519
 31
0.0
  0
LINE
  5
555
100
AcDbEntity
  8
レイヤー_1
  6
CONTINUOUS
 62
       3
100
AcDbLine
 10
129.76672487
 20
-2.62830519
 30
0.0
 11
129.7738271
 21
-2.77151435
 31
0.0
  0
LINE
  5
556
100
AcDbEntity
  8
レイヤー_1
  6
CONTINUOUS
 62
       3
100
AcDbLine
 10
129.7738271
 20
-2.77151435
 30
0.0
 11
129.79444451
 21
-2.91256104
 31
0.0
  0
LINE
  5
557
100
AcDbEntity
  8
レイヤー_1
  6
CONTINUOUS
 62
       3
100
AcDbLine
 10
129.79444451
 20
-2.91256104
 30
0.0
 11
129.82818812
 21
-3.05050593
 31
0.0
  0
LINE
  5
558
100
AcDbEntity
  8
レイヤー_1
  6
CONTINUOUS
 62
       3
100
AcDbLine
 10
129.82818812
 20
-3.05050593
 30
0.0
 11
129.87466894
 21
-3.18440965
 31
0.0
  0
LINE
  5
559
100
AcDbEntity
  8
レイヤー_1
  6
CONTINUOUS
 62
       3
100
AcDbLine
 10
129.87466894
 20
-3.18440965
 30
0.0
 11
129.93349797
 21
-3.31333288
 31
0.0
  0
LINE
  5
55A
100
AcDbEntity
  8
レイヤー_1
  6
CONTINUOUS
 62
       3
100
AcDbLine
 10
129.93349797
 20
-3.31333288
 30
0.0
 11
130.00428626
 21
-3.43633623
 31
0.0
  0
LINE
  5
55B
100
AcDbEntity
  8
レイヤー_1
  6
CONTINUOUS
 62
       3
100
AcDbLine
 10
130.00428626
 20
-3.43633623
 30
0.0
 11
130.08664481
 21
-3.55248039
 31
0.0
  0
LINE
  5
55C
100
AcDbEntity
  8
レイヤー_1
  6
CONTINUOUS
 62
       3
100
AcDbLine
 10
130.08664481
 20
-3.55248039
 30
0.0
 11
130.1801846
 21
-3.660826
 31
0.0
  0
LINE
  5
55D
100
AcDbEntity
  8
レイヤー_1
  6
CONTINUOUS
 62
       3
100
AcDbLine
 10
130.1801846
 20
-3.660826
 30
0.0
 11
130.28451669
 21
-3.76043369
 31
0.0
  0
LINE
  5
55E
100
AcDbEntity
  8
レイヤー_1
  6
CONTINUOUS
 62
       3
100
AcDbLine
 10
130.28451669
 20
-3.76043369
 30
0.0
 11
130.39925206
 21
-3.85036415
 31
0.0
  0
LINE
  5
55F
100
AcDbEntity
  8
レイヤー_1
  6
CONTINUOUS
 62
       3
100
AcDbLine
 10
130.39925206
 20
-3.85036415
 30
0.0
 11
130.52400174
 21
-3.92967799
 31
0.0
  0
LINE
  5
560
100
AcDbEntity
  8
レイヤー_1
  6
CONTINUOUS
 62
       3
100
AcDbLine
 10
130.52400174
 20
-3.92967799
 30
0.0
 11
130.65837673
 21
-3.99743589
 31
0.0
  0
LINE
  5
561
100
AcDbEntity
  8
レイヤー_1
  6
CONTINUOUS
 62
       3
100
AcDbLine
 10
130.65837673
 20
-3.99743589
 30
0.0
 11
130.79998051
 21
-4.05196728
 31
0.0
  0
LINE
  5
562
100
AcDbEntity
  8
レイヤー_1
  6
CONTINUOUS
 62
       3
100
AcDbLine
 10
130.79998051
 20
-4.05196728
 30
0.0
 11
130.943605
 21
-4.09140957
 31
0.0
  0
LINE
  5
563
100
AcDbEntity
  8
レイヤー_1
  6
CONTINUOUS
 62
       3
100
AcDbLine
 10
130.943605
 20
-4.09140957
 30
0.0
 11
131.08814294
 21
-4.11608436
 31
0.0
  0
LINE
  5
564
100
AcDbEntity
  8
レイヤー_1
  6
CONTINUOUS
 62
       3
100
AcDbLine
 10
131.08814294
 20
-4.11608436
 30
0.0
 11
131.23265137
 21
-4.12638184
 31
0.0
  0
LINE
  5
565
100
AcDbEntity
  8
レイヤー_1
  6
CONTINUOUS
 62
       3
100
AcDbLine
 10
131.23265137
 20
-4.12638184
 30
0.0
 11
131.37618734
 21
-4.12269221
 31
0.0
  0
LINE
  5
566
100
AcDbEntity
  8
レイヤー_1
  6
CONTINUOUS
 62
       3
100
AcDbLine
 10
131.37618734
 20
-4.12269221
 30
0.0
 11
131.51780787
 21
-4.10540564
 31
0.0
  0
LINE
  5
567
100
AcDbEntity
  8
レイヤー_1
  6
CONTINUOUS
 62
       3
100
AcDbLine
 10
131.51780787
 20
-4.10540564
 30
0.0
 11
131.65657003
 21
-4.07491234
 31
0.0
  0
LINE
  5
568
100
AcDbEntity
  8
レイヤー_1
  6
CONTINUOUS
 62
       3
100
AcDbLine
 10
131.65657003
 20
-4.07491234
 30
0.0
 11
131.79153083
 21
-4.0316025
 31
0.0
  0
LINE
  5
569
100
AcDbEntity
  8
レイヤー_1
  6
CONTINUOUS
 62
       3
100
AcDbLine
 10
131.79153083
 20
-4.0316025
 30
0.0
 11
131.92174731
 21
-3.97586629
 31
0.0
  0
LINE
  5
56A
100
AcDbEntity
  8
レイヤー_1
  6
CONTINUOUS
 62
       3
100
AcDbLine
 10
131.92174731
 20
-3.97586629
 30
0.0
 11
132.04627651
 21
-3.90809394
 31
0.0
  0
LINE
  5
56B
100
AcDbEntity
  8
レイヤー_1
  6
CONTINUOUS
 62
       3
100
AcDbLine
 10
132.04627651
 20
-3.90809394
 30
0.0
 11
132.16417547
 21
-3.82867559
 31
0.0
  0
LINE
  5
56C
100
AcDbEntity
  8
レイヤー_1
  6
CONTINUOUS
 62
       3
100
AcDbLine
 10
132.16417547
 20
-3.82867559
 30
0.0
 11
132.27450124
 21
-3.73800149
 31
0.0
  0
LINE
  5
56D
100
AcDbEntity
  8
レイヤー_1
  6
CONTINUOUS
 62
       3
100
AcDbLine
 10
132.27450124
 20
-3.73800149
 30
0.0
 11
132.37631084
 21
-3.63646178
 31
0.0
  0
LINE
  5
56E
100
AcDbEntity
  8
レイヤー_1
  6
CONTINUOUS
 62
       3
100
AcDbLine
 10
132.37631084
 20
-3.63646178
 30
0.0
 11
132.46866131
 21
-3.52444667
 31
0.0
  0
LINE
  5
56F
100
AcDbEntity
  8
レイヤー_1
  6
CONTINUOUS
 62
       3
100
AcDbLine
 10
132.46866131
 20
-3.52444667
 30
0.0
 11
132.5506097
 21
-3.40234635
 31
0.0
  0
LINE
  5
570
100
AcDbEntity
  8
レイヤー_1
  6
CONTINUOUS
 62
       3
100
AcDbLine
 10
132.5506097
 20
-3.40234635
 30
0.0
 11
132.62121304
 21
-3.27055104
 31
0.0
  0
LINE
  5
571
100
AcDbEntity
  8
レイヤー_1
  6
CONTINUOUS
 62
       3
100
AcDbLine
 10
132.62121304
 20
-3.27055104
 30
0.0
 11
132.67930043
 21
-3.13016381
 31
0.0
  0
LINE
  5
572
100
AcDbEntity
  8
レイヤー_1
  6
CONTINUOUS
 62
       3
100
AcDbLine
 10
132.67930043
 20
-3.13016381
 30
0.0
 11
132.72258289
 21
-2.98677461
 31
0.0
  0
LINE
  5
573
100
AcDbEntity
  8
レイヤー_1
  6
CONTINUOUS
 62
       3
100
AcDbLine
 10
132.72258289
 20
-2.98677461
 30
0.0
 11
132.75100468
 21
-2.84225309
 31
0.0
  0
LINE
  5
574
100
AcDbEntity
  8
レイヤー_1
  6
CONTINUOUS
 62
       3
100
AcDbLine
 10
132.75100468
 20
-2.84225309
 30
0.0
 11
132.76495236
 21
-2.69754037
 31
0.0
  0
LINE
  5
575
100
AcDbEntity
  8
レイヤー_1
  6
CONTINUOUS
 62
       3
100
AcDbLine
 10
132.76495236
 20
-2.69754037
 30
0.0
 11
132.76481251
 21
-2.55357762
 31
0.0
  0
LINE
  5
576
100
AcDbEntity
  8
レイヤー_1
  6
CONTINUOUS
 62
       3
100
AcDbLine
 10
132.76481251
 20
-2.55357762
 30
0.0
 11
132.75097172
 21
-2.41130602
 31
0.0
  0
LINE
  5
577
100
AcDbEntity
  8
レイヤー_1
  6
CONTINUOUS
 62
       3
100
AcDbLine
 10
132.75097172
 20
-2.41130602
 30
0.0
 11
132.72381655
 21
-2.27166669
 31
0.0
  0
LINE
  5
578
100
AcDbEntity
  8
レイヤー_1
  6
CONTINUOUS
 62
       3
100
AcDbLine
 10
132.72381655
 20
-2.27166669
 30
0.0
 11
132.68373359
 21
-2.1356008
 31
0.0
  0
LINE
  5
579
100
AcDbEntity
  8
レイヤー_1
  6
CONTINUOUS
 62
       3
100
AcDbLine
 10
132.68373359
 20
-2.1356008
 30
0.0
 11
132.63110942
 21
-2.00404951
 31
0.0
  0
LINE
  5
57A
100
AcDbEntity
  8
レイヤー_1
  6
CONTINUOUS
 62
       3
100
AcDbLine
 10
132.63110942
 20
-2.00404951
 30
0.0
 11
132.5663306
 21
-1.87795397
 31
0.0
  0
LINE
  5
57B
100
AcDbEntity
  8
レイヤー_1
  6
CONTINUOUS
 62
       3
100
AcDbLine
 10
132.5663306
 20
-1.87795397
 30
0.0
 11
132.48978374
 21
-1.75825535
 31
0.0
  0
LINE
  5
57C
100
AcDbEntity
  8
レイヤー_1
  6
CONTINUOUS
 62
       3
100
AcDbLine
 10
132.48978374
 20
-1.75825535
 30
0.0
 11
132.40185539
 21
-1.64589478
 31
0.0
  0
LINE
  5
57D
100
AcDbEntity
  8
レイヤー_1
  6
CONTINUOUS
 62
       3
100
AcDbLine
 10
132.40185539
 20
-1.64589478
 30
0.0
 11
132.30293215
 21
-1.54181343
 31
0.0
  0
LINE
  5
57E
100
AcDbEntity
  8
レイヤー_1
  6
CONTINUOUS
 62
       3
100
AcDbLine
 10
132.30293215
 20
-1.54181343
 30
0.0
 11
132.19340058
 21
-1.44695245
 31
0.0
  0
LINE
  5
57F
100
AcDbEntity
  8
レイヤー_1
  6
CONTINUOUS
 62
       3
100
AcDbLine
 10
132.19340058
 20
-1.44695245
 30
0.0
 11
132.07364727
 21
-1.36225301
 31
0.0
  0
LINE
  5
580
100
AcDbEntity
  8
レイヤー_1
  6
CONTINUOUS
 62
       3
100
AcDbLine
 10
132.07364727
 20
-1.36225301
 30
0.0
 11
131.94405879
 21
-1.28865624
 31
0.0
  0
LINE
  5
581
100
AcDbEntity
  8
レイヤー_1
  6
CONTINUOUS
 62
       3
100
AcDbLine
 10
131.94405879
 20
-1.28865624
 30
0.0
 11
131.80523046
 21
-1.22718396
 31
0.0
  0
LINE
  5
582
100
AcDbEntity
  8
レイヤー_1
  6
CONTINUOUS
 62
       3
100
AcDbLine
 10
131.80523046
 20
-1.22718396
 30
0.0
 11
131.66228512
 21
-1.18020484
 31
0.0
  0
LINE
  5
583
100
AcDbEntity
  8
レイヤー_1
  6
CONTINUOUS
 62
       3
100
AcDbLine
 10
131.66228512
 20
-1.18020484
 30
0.0
 11
131.51798794
 21
-1.14818078
 31
0.0
  0
LINE
  5
584
100
AcDbEntity
  8
レイヤー_1
  6
CONTINUOUS
 62
       3
100
AcDbLine
 10
131.51798794
 20
-1.14818078
 30
0.0
 11
131.37327711
 21
-1.13072341
 31
0.0
  0
LINE
  5
585
100
AcDbEntity
  8
レイヤー_1
  6
CONTINUOUS
 62
       3
100
AcDbLine
 10
131.37327711
 20
-1.13072341
 30
0.0
 11
131.22909073
 21
-1.12744435
 31
0.0
  0
LINE
  5
586
100
AcDbEntity
  8
レイヤー_1
  6
CONTINUOUS
 62
       3
100
AcDbLine
 10
131.22909073
 20
-1.12744435
 30
0.0
 11
131.08636697
 21
-1.13795519
 31
0.0
  0
LINE
  5
587
100
AcDbEntity
  8
レイヤー_1
  6
CONTINUOUS
 62
       3
100
AcDbLine
 10
131.08636697
 20
-1.13795519
 30
0.0
 11
130.94604397
 21
-1.16186757
 31
0.0
  0
LINE
  5
588
100
AcDbEntity
  8
レイヤー_1
  6
CONTINUOUS
 62
       3
100
AcDbLine
 10
130.94604397
 20
-1.16186757
 30
0.0
 11
130.80905987
 21
-1.1987931
 31
0.0
  0
LINE
  5
589
100
AcDbEntity
  8
レイヤー_1
  6
CONTINUOUS
 62
       3
100
AcDbLine
 10
130.80905987
 20
-1.1987931
 30
0.0
 11
130.67635283
 21
-1.24834339
 31
0.0
  0
LINE
  5
58A
100
AcDbEntity
  8
レイヤー_1
  6
CONTINUOUS
 62
       3
100
AcDbLine
 10
130.67635283
 20
-1.24834339
 30
0.0
 11
130.54886096
 21
-1.31013007
 31
0.0
  0
LINE
  5
58B
100
AcDbEntity
  8
レイヤー_1
  6
CONTINUOUS
 62
       3
100
AcDbLine
 10
130.54886096
 20
-1.31013007
 30
0.0
 11
130.42752246
 21
-1.38376472
 31
0.0
  0
LINE
  5
58C
100
AcDbEntity
  8
レイヤー_1
  6
CONTINUOUS
 62
       3
100
AcDbLine
 10
130.42752246
 20
-1.38376472
 30
0.0
 11
130.31327543
 21
-1.46885898
 31
0.0
  0
LINE
  5
58D
100
AcDbEntity
  8
レイヤー_1
  6
CONTINUOUS
 62
       3
100
AcDbLine
 10
130.31327543
 20
-1.46885898
 30
0.0
 11
130.20705802
 21
-1.56502447
 31
0.0
  0
LINE
  5
58E
100
AcDbEntity
  8
レイヤー_1
  6
CONTINUOUS
 62
       3
100
AcDbLine
 10
130.20705802
 20
-1.56502447
 30
0.0
 11
130.10980839
 21
-1.6718728
 31
0.0
  0
LINE
  5
58F
100
AcDbEntity
  8
レイヤー_1
  6
CONTINUOUS
 62
       3
100
AcDbLine
 10
130.10980839
 20
-1.6718728
 30
0.0
 11
130.02246468
 21
-1.78901559
 31
0.0
  0
LINE
  5
590
100
AcDbEntity
  8
レイヤー_1
  6
CONTINUOUS
 62
       3
100
AcDbLine
 10
130.02246468
 20
-1.78901559
 30
0.0
 11
129.94596502
 21
-1.91606444
 31
0.0
  0
LINE
  5
591
100
AcDbEntity
  8
レイヤー_1
  6
CONTINUOUS
 62
       3
100
AcDbLine
 10
129.94596502
 20
-1.91606444
 30
0.0
 11
129.88124759
 21
-2.05263096
 31
0.0
  0
LINE
  5
592
100
AcDbEntity
  8
レイヤー_1
  6
CONTINUOUS
 62
       3
100
AcDbLine
 10
126.1364288
 20
-5.79831104
 30
0.0
 11
125.99970845
 21
-5.86311236
 31
0.0
  0
LINE
  5
593
100
AcDbEntity
  8
レイヤー_1
  6
CONTINUOUS
 62
       3
100
AcDbLine
 10
125.99970845
 20
-5.86311236
 30
0.0
 11
125.87251739
 21
-5.93970267
 31
0.0
  0
LINE
  5
594
100
AcDbEntity
  8
レイヤー_1
  6
CONTINUOUS
 62
       3
100
AcDbLine
 10
125.87251739
 20
-5.93970267
 30
0.0
 11
125.75524579
 21
-6.02714082
 31
0.0
  0
LINE
  5
595
100
AcDbEntity
  8
レイヤー_1
  6
CONTINUOUS
 62
       3
100
AcDbLine
 10
125.75524579
 20
-6.02714082
 30
0.0
 11
125.64828384
 21
-6.12448564
 31
0.0
  0
LINE
  5
596
100
AcDbEntity
  8
レイヤー_1
  6
CONTINUOUS
 62
       3
100
AcDbLine
 10
125.64828384
 20
-6.12448564
 30
0.0
 11
125.55202175
 21
-6.23079596
 31
0.0
  0
LINE
  5
597
100
AcDbEntity
  8
レイヤー_1
  6
CONTINUOUS
 62
       3
100
AcDbLine
 10
125.55202175
 20
-6.23079596
 30
0.0
 11
125.46684969
 21
-6.34513065
 31
0.0
  0
LINE
  5
598
100
AcDbEntity
  8
レイヤー_1
  6
CONTINUOUS
 62
       3
100
AcDbLine
 10
125.46684969
 20
-6.34513065
 30
0.0
 11
125.39315786
 21
-6.46654854
 31
0.0
  0
LINE
  5
599
100
AcDbEntity
  8
レイヤー_1
  6
CONTINUOUS
 62
       3
100
AcDbLine
 10
125.39315786
 20
-6.46654854
 30
0.0
 11
125.33133646
 21
-6.59410848
 31
0.0
  0
LINE
  5
59A
100
AcDbEntity
  8
レイヤー_1
  6
CONTINUOUS
 62
       3
100
AcDbLine
 10
125.33133646
 20
-6.59410848
 30
0.0
 11
125.28177567
 21
-6.72686932
 31
0.0
  0
LINE
  5
59B
100
AcDbEntity
  8
レイヤー_1
  6
CONTINUOUS
 62
       3
100
AcDbLine
 10
125.28177567
 20
-6.72686932
 30
0.0
 11
125.24486569
 21
-6.86388988
 31
0.0
  0
LINE
  5
59C
100
AcDbEntity
  8
レイヤー_1
  6
CONTINUOUS
 62
       3
100
AcDbLine
 10
125.24486569
 20
-6.86388988
 30
0.0
 11
125.2209967
 21
-7.00422904
 31
0.0
  0
LINE
  5
59D
100
AcDbEntity
  8
レイヤー_1
  6
CONTINUOUS
 62
       3
100
AcDbLine
 10
125.2209967
 20
-7.00422904
 30
0.0
 11
125.21055889
 21
-7.14694561
 31
0.0
  0
LINE
  5
59E
100
AcDbEntity
  8
レイヤー_1
  6
CONTINUOUS
 62
       3
100
AcDbLine
 10
125.21055889
 20
-7.14694561
 30
0.0
 11
125.21394247
 21
-7.29109846
 31
0.0
  0
LINE
  5
59F
100
AcDbEntity
  8
レイヤー_1
  6
CONTINUOUS
 62
       3
100
AcDbLine
 10
125.21394247
 20
-7.29109846
 30
0.0
 11
125.23153762
 21
-7.43574642
 31
0.0
  0
LINE
  5
5A0
100
AcDbEntity
  8
レイヤー_1
  6
CONTINUOUS
 62
       3
100
AcDbLine
 10
125.23153762
 20
-7.43574642
 30
0.0
 11
125.26373452
 21
-7.57994835
 31
0.0
  0
LINE
  5
5A1
100
AcDbEntity
  8
レイヤー_1
  6
CONTINUOUS
 62
       3
100
AcDbLine
 10
125.26373452
 20
-7.57994835
 30
0.0
 11
125.31092337
 21
-7.72276308
 31
0.0
  0
LINE
  5
5A2
100
AcDbEntity
  8
レイヤー_1
  6
CONTINUOUS
 62
       3
100
AcDbLine
 10
125.31092337
 20
-7.72276308
 30
0.0
 11
125.37239182
 21
-7.86150123
 31
0.0
  0
LINE
  5
5A3
100
AcDbEntity
  8
レイヤー_1
  6
CONTINUOUS
 62
       3
100
AcDbLine
 10
125.37239182
 20
-7.86150123
 30
0.0
 11
125.44589835
 21
-7.99104393
 31
0.0
  0
LINE
  5
5A4
100
AcDbEntity
  8
レイヤー_1
  6
CONTINUOUS
 62
       3
100
AcDbLine
 10
125.44589835
 20
-7.99104393
 30
0.0
 11
125.53050092
 21
-8.1107745
 31
0.0
  0
LINE
  5
5A5
100
AcDbEntity
  8
レイヤー_1
  6
CONTINUOUS
 62
       3
100
AcDbLine
 10
125.53050092
 20
-8.1107745
 30
0.0
 11
125.6252602
 21
-8.22030272
 31
0.0
  0
LINE
  5
5A6
100
AcDbEntity
  8
レイヤー_1
  6
CONTINUOUS
 62
       3
100
AcDbLine
 10
125.6252602
 20
-8.22030272
 30
0.0
 11
125.72923686
 21
-8.31923844
 31
0.0
  0
LINE
  5
5A7
100
AcDbEntity
  8
レイヤー_1
  6
CONTINUOUS
 62
       3
100
AcDbLine
 10
125.72923686
 20
-8.31923844
 30
0.0
 11
125.84149153
 21
-8.40719147
 31
0.0
  0
LINE
  5
5A8
100
AcDbEntity
  8
レイヤー_1
  6
CONTINUOUS
 62
       3
100
AcDbLine
 10
125.84149153
 20
-8.40719147
 30
0.0
 11
125.96108486
 21
-8.48377158
 31
0.0
  0
LINE
  5
5A9
100
AcDbEntity
  8
レイヤー_1
  6
CONTINUOUS
 62
       3
100
AcDbLine
 10
125.96108486
 20
-8.48377158
 30
0.0
 11
126.08707749
 21
-8.54858861
 31
0.0
  0
LINE
  5
5AA
100
AcDbEntity
  8
レイヤー_1
  6
CONTINUOUS
 62
       3
100
AcDbLine
 10
126.08707749
 20
-8.54858861
 30
0.0
 11
126.21853011
 21
-8.60125235
 31
0.0
  0
LINE
  5
5AB
100
AcDbEntity
  8
レイヤー_1
  6
CONTINUOUS
 62
       3
100
AcDbLine
 10
126.21853011
 20
-8.60125235
 30
0.0
 11
126.35450335
 21
-8.64137263
 31
0.0
  0
LINE
  5
5AC
100
AcDbEntity
  8
レイヤー_1
  6
CONTINUOUS
 62
       3
100
AcDbLine
 10
126.35450335
 20
-8.64137263
 30
0.0
 11
126.49405784
 21
-8.66855925
 31
0.0
  0
LINE
  5
5AD
100
AcDbEntity
  8
レイヤー_1
  6
CONTINUOUS
 62
       3
100
AcDbLine
 10
126.49405784
 20
-8.66855925
 30
0.0
 11
126.63625426
 21
-8.682422
 31
0.0
  0
LINE
  5
5AE
100
AcDbEntity
  8
レイヤー_1
  6
CONTINUOUS
 62
       3
100
AcDbLine
 10
126.63625426
 20
-8.682422
 30
0.0
 11
126.78015325
 21
-8.6825707
 31
0.0
  0
LINE
  5
5AF
100
AcDbEntity
  8
レイヤー_1
  6
CONTINUOUS
 62
       3
100
AcDbLine
 10
126.78015325
 20
-8.6825707
 30
0.0
 11
126.92481546
 21
-8.66861518
 31
0.0
  0
LINE
  5
5B0
100
AcDbEntity
  8
レイヤー_1
  6
CONTINUOUS
 62
       3
100
AcDbLine
 10
126.92481546
 20
-8.66861518
 30
0.0
 11
127.06930153
 21
-8.64016523
 31
0.0
  0
LINE
  5
5B1
100
AcDbEntity
  8
レイヤー_1
  6
CONTINUOUS
 62
       3
100
AcDbLine
 10
127.06930153
 20
-8.64016523
 30
0.0
 11
127.21267215
 21
-8.59683065
 31
0.0
  0
LINE
  5
5B2
100
AcDbEntity
  8
レイヤー_1
  6
CONTINUOUS
 62
       3
100
AcDbLine
 10
127.21267215
 20
-8.59683065
 30
0.0
 11
127.35317254
 21
-8.53863122
 31
0.0
  0
LINE
  5
5B3
100
AcDbEntity
  8
レイヤー_1
  6
CONTINUOUS
 62
       3
100
AcDbLine
 10
127.35317254
 20
-8.53863122
 30
0.0
 11
127.48517702
 21
-8.46789692
 31
0.0
  0
LINE
  5
5B4
100
AcDbEntity
  8
レイヤー_1
  6
CONTINUOUS
 62
       3
100
AcDbLine
 10
127.48517702
 20
-8.46789692
 30
0.0
 11
127.60745713
 21
-8.38584332
 31
0.0
  0
LINE
  5
5B5
100
AcDbEntity
  8
レイヤー_1
  6
CONTINUOUS
 62
       3
100
AcDbLine
 10
127.60745713
 20
-8.38584332
 30
0.0
 11
127.71962268
 21
-8.29341099
 31
0.0
  0
LINE
  5
5B6
100
AcDbEntity
  8
レイヤー_1
  6
CONTINUOUS
 62
       3
100
AcDbLine
 10
127.71962268
 20
-8.29341099
 30
0.0
 11
127.82128346
 21
-8.19154042
 31
0.0
  0
LINE
  5
5B7
100
AcDbEntity
  8
レイヤー_1
  6
CONTINUOUS
 62
       3
100
AcDbLine
 10
127.82128346
 20
-8.19154042
 30
0.0
 11
127.91204932
 21
-8.08117222
 31
0.0
  0
LINE
  5
5B8
100
AcDbEntity
  8
レイヤー_1
  6
CONTINUOUS
 62
       3
100
AcDbLine
 10
127.91204932
 20
-8.08117222
 30
0.0
 11
127.99153004
 21
-7.96324692
 31
0.0
  0
LINE
  5
5B9
100
AcDbEntity
  8
レイヤー_1
  6
CONTINUOUS
 62
       3
100
AcDbLine
 10
127.99153004
 20
-7.96324692
 30
0.0
 11
128.05933543
 21
-7.83870509
 31
0.0
  0
LINE
  5
5BA
100
AcDbEntity
  8
レイヤー_1
  6
CONTINUOUS
 62
       3
100
AcDbLine
 10
128.05933543
 20
-7.83870509
 30
0.0
 11
128.1150753
 21
-7.70848728
 31
0.0
  0
LINE
  5
5BB
100
AcDbEntity
  8
レイヤー_1
  6
CONTINUOUS
 62
       3
100
AcDbLine
 10
128.1150753
 20
-7.70848728
 30
0.0
 11
128.15835946
 21
-7.57353401
 31
0.0
  0
LINE
  5
5BC
100
AcDbEntity
  8
レイヤー_1
  6
CONTINUOUS
 62
       3
100
AcDbLine
 10
128.15835946
 20
-7.57353401
 30
0.0
 11
128.18879771
 21
-7.43478587
 31
0.0
  0
LINE
  5
5BD
100
AcDbEntity
  8
レイヤー_1
  6
CONTINUOUS
 62
       3
100
AcDbLine
 10
128.18879771
 20
-7.43478587
 30
0.0
 11
128.20599989
 21
-7.29318342
 31
0.0
  0
LINE
  5
5BE
100
AcDbEntity
  8
レイヤー_1
  6
CONTINUOUS
 62
       3
100
AcDbLine
 10
128.20599989
 20
-7.29318342
 30
0.0
 11
128.20957577
 21
-7.14966717
 31
0.0
  0
LINE
  5
5BF
100
AcDbEntity
  8
レイヤー_1
  6
CONTINUOUS
 62
       3
100
AcDbLine
 10
128.20957577
 20
-7.14966717
 30
0.0
 11
128.19913519
 21
-7.00517773
 31
0.0
  0
LINE
  5
5C0
100
AcDbEntity
  8
レイヤー_1
  6
CONTINUOUS
 62
       3
100
AcDbLine
 10
128.19913519
 20
-7.00517773
 30
0.0
 11
128.17428793
 21
-6.8606556
 31
0.0
  0
LINE
  5
5C1
100
AcDbEntity
  8
レイヤー_1
  6
CONTINUOUS
 62
       3
100
AcDbLine
 10
128.17428793
 20
-6.8606556
 30
0.0
 11
128.13464383
 21
-6.71704136
 31
0.0
  0
LINE
  5
5C2
100
AcDbEntity
  8
レイヤー_1
  6
CONTINUOUS
 62
       3
100
AcDbLine
 10
128.13464383
 20
-6.71704136
 30
0.0
 11
128.07998065
 21
-6.57544047
 31
0.0
  0
LINE
  5
5C3
100
AcDbEntity
  8
レイヤー_1
  6
CONTINUOUS
 62
       3
100
AcDbLine
 10
128.07998065
 20
-6.57544047
 30
0.0
 11
128.01236091
 21
-6.44107223
 31
0.0
  0
LINE
  5
5C4
100
AcDbEntity
  8
レイヤー_1
  6
CONTINUOUS
 62
       3
100
AcDbLine
 10
128.01236091
 20
-6.44107223
 30
0.0
 11
127.93316039
 21
-6.31633684
 31
0.0
  0
LINE
  5
5C5
100
AcDbEntity
  8
レイヤー_1
  6
CONTINUOUS
 62
       3
100
AcDbLine
 10
127.93316039
 20
-6.31633684
 30
0.0
 11
127.84332202
 21
-6.20162147
 31
0.0
  0
LINE
  5
5C6
100
AcDbEntity
  8
レイヤー_1
  6
CONTINUOUS
 62
       3
100
AcDbLine
 10
127.84332202
 20
-6.20162147
 30
0.0
 11
127.74378881
 21
-6.0973133
 31
0.0
  0
LINE
  5
5C7
100
AcDbEntity
  8
レイヤー_1
  6
CONTINUOUS
 62
       3
100
AcDbLine
 10
127.74378881
 20
-6.0973133
 30
0.0
 11
127.63550368
 21
-6.00379952
 31
0.0
  0
LINE
  5
5C8
100
AcDbEntity
  8
レイヤー_1
  6
CONTINUOUS
 62
       3
100
AcDbLine
 10
127.63550368
 20
-6.00379952
 30
0.0
 11
127.51940962
 21
-5.92146731
 31
0.0
  0
LINE
  5
5C9
100
AcDbEntity
  8
レイヤー_1
  6
CONTINUOUS
 62
       3
100
AcDbLine
 10
127.51940962
 20
-5.92146731
 30
0.0
 11
127.39644957
 21
-5.85070384
 31
0.0
  0
LINE
  5
5CA
100
AcDbEntity
  8
レイヤー_1
  6
CONTINUOUS
 62
       3
100
AcDbLine
 10
127.39644957
 20
-5.85070384
 30
0.0
 11
127.26756651
 21
-5.7918963
 31
0.0
  0
LINE
  5
5CB
100
AcDbEntity
  8
レイヤー_1
  6
CONTINUOUS
 62
       3
100
AcDbLine
 10
127.26756651
 20
-5.7918963
 30
0.0
 11
127.13370339
 21
-5.74543188
 31
0.0
  0
LINE
  5
5CC
100
AcDbEntity
  8
レイヤー_1
  6
CONTINUOUS
 62
       3
100
AcDbLine
 10
127.13370339
 20
-5.74543188
 30
0.0
 11
126.99580318
 21
-5.71169773
 31
0.0
  0
LINE
  5
5CD
100
AcDbEntity
  8
レイヤー_1
  6
CONTINUOUS
 62
       3
100
AcDbLine
 10
126.99580318
 20
-5.71169773
 30
0.0
 11
126.85480882
 21
-5.69108106
 31
0.0
  0
LINE
  5
5CE
100
AcDbEntity
  8
レイヤー_1
  6
CONTINUOUS
 62
       3
100
AcDbLine
 10
126.85480882
 20
-5.69108106
 30
0.0
 11
126.71166332
 21
-5.68396903
 31
0.0
  0
LINE
  5
5CF
100
AcDbEntity
  8
レイヤー_1
  6
CONTINUOUS
 62
       3
100
AcDbLine
 10
126.71166332
 20
-5.68396903
 30
0.0
 11
126.56730959
 21
-5.69074883
 31
0.0
  0
LINE
  5
5D0
100
AcDbEntity
  8
レイヤー_1
  6
CONTINUOUS
 62
       3
100
AcDbLine
 10
126.56730959
 20
-5.69074883
 30
0.0
 11
126.42269063
 21
-5.71180765
 31
0.0
  0
LINE
  5
5D1
100
AcDbEntity
  8
レイヤー_1
  6
CONTINUOUS
 62
       3
100
AcDbLine
 10
126.42269063
 20
-5.71180765
 30
0.0
 11
126.27874937
 21
-5.74753266
 31
0.0
  0
LINE
  5
5D2
100
AcDbEntity
  8
レイヤー_1
  6
CONTINUOUS
 62
       3
100
AcDbLine
 10
126.27874937
 20
-5.74753266
 30
0.0
 11
126.1364288
 21
-5.79831104
 31
0.0
  0
LINE
  5
5D3
100
AcDbEntity
  8
レイヤー_1
  6
CONTINUOUS
 62
       3
100
AcDbLine
 10
120.83959448
 20
-5.79917231
 30
0.0
 11
120.69713348
 21
-5.7482445
 31
0.0
  0
LINE
  5
5D4
100
AcDbEntity
  8
レイヤー_1
  6
CONTINUOUS
 62
       3
100
AcDbLine
 10
120.69713348
 20
-5.7482445
 30
0.0
 11
120.55308491
 21
-5.71238845
 31
0.0
  0
LINE
  5
5D5
100
AcDbEntity
  8
レイヤー_1
  6
CONTINUOUS
 62
       3
100
AcDbLine
 10
120.55308491
 20
-5.71238845
 30
0.0
 11
120.40838572
 21
-5.69121574
 31
0.0
  0
LINE
  5
5D6
100
AcDbEntity
  8
レイヤー_1
  6
CONTINUOUS
 62
       3
100
AcDbLine
 10
120.40838572
 20
-5.69121574
 30
0.0
 11
120.26397285
 21
-5.684338
 31
0.0
  0
LINE
  5
5D7
100
AcDbEntity
  8
レイヤー_1
  6
CONTINUOUS
 62
       3
100
AcDbLine
 10
120.26397285
 20
-5.684338
 30
0.0
 11
120.12078324
 21
-5.69136684
 31
0.0
  0
LINE
  5
5D8
100
AcDbEntity
  8
レイヤー_1
  6
CONTINUOUS
 62
       3
100
AcDbLine
 10
120.12078324
 20
-5.69136684
 30
0.0
 11
119.97975383
 21
-5.71191388
 31
0.0
  0
LINE
  5
5D9
100
AcDbEntity
  8
レイヤー_1
  6
CONTINUOUS
 62
       3
100
AcDbLine
 10
119.97975383
 20
-5.71191388
 30
0.0
 11
119.84182157
 21
-5.74559073
 31
0.0
  0
LINE
  5
5DA
100
AcDbEntity
  8
レイヤー_1
  6
CONTINUOUS
 62
       3
100
AcDbLine
 10
119.84182157
 20
-5.74559073
 30
0.0
 11
119.70792338
 21
-5.79200901
 31
0.0
  0
LINE
  5
5DB
100
AcDbEntity
  8
レイヤー_1
  6
CONTINUOUS
 62
       3
100
AcDbLine
 10
119.70792338
 20
-5.79200901
 30
0.0
 11
119.57899623
 21
-5.85078033
 31
0.0
  0
LINE
  5
5DC
100
AcDbEntity
  8
レイヤー_1
  6
CONTINUOUS
 62
       3
100
AcDbLine
 10
119.57899623
 20
-5.85078033
 30
0.0
 11
119.45597703
 21
-5.92151631
 31
0.0
  0
LINE
  5
5DD
100
AcDbEntity
  8
レイヤー_1
  6
CONTINUOUS
 62
       3
100
AcDbLine
 10
119.45597703
 20
-5.92151631
 30
0.0
 11
119.33980274
 21
-6.00382856
 31
0.0
  0
LINE
  5
5DE
100
AcDbEntity
  8
レイヤー_1
  6
CONTINUOUS
 62
       3
100
AcDbLine
 10
119.33980274
 20
-6.00382856
 30
0.0
 11
119.2314103
 21
-6.09732871
 31
0.0
  0
LINE
  5
5DF
100
AcDbEntity
  8
レイヤー_1
  6
CONTINUOUS
 62
       3
100
AcDbLine
 10
119.2314103
 20
-6.09732871
 30
0.0
 11
119.13173664
 21
-6.20162835
 31
0.0
  0
LINE
  5
5E0
100
AcDbEntity
  8
レイヤー_1
  6
CONTINUOUS
 62
       3
100
AcDbLine
 10
119.13173664
 20
-6.20162835
 30
0.0
 11
119.0417187
 21
-6.31633913
 31
0.0
  0
LINE
  5
5E1
100
AcDbEntity
  8
レイヤー_1
  6
CONTINUOUS
 62
       3
100
AcDbLine
 10
119.0417187
 20
-6.31633913
 30
0.0
 11
118.96229344
 21
-6.44107262
 31
0.0
  0
LINE
  5
5E2
100
AcDbEntity
  8
レイヤー_1
  6
CONTINUOUS
 62
       3
100
AcDbLine
 10
118.96229344
 20
-6.44107262
 30
0.0
 11
118.89439777
 21
-6.57544047
 31
0.0
  0
LINE
  5
5E3
100
AcDbEntity
  8
レイヤー_1
  6
CONTINUOUS
 62
       3
100
AcDbLine
 10
118.89439777
 20
-6.57544047
 30
0.0
 11
118.83988459
 21
-6.71704136
 31
0.0
  0
LINE
  5
5E4
100
AcDbEntity
  8
レイヤー_1
  6
CONTINUOUS
 62
       3
100
AcDbLine
 10
118.83988459
 20
-6.71704136
 30
0.0
 11
118.80051155
 21
-6.8606556
 31
0.0
  0
LINE
  5
5E5
100
AcDbEntity
  8
レイヤー_1
  6
CONTINUOUS
 62
       3
100
AcDbLine
 10
118.80051155
 20
-6.8606556
 30
0.0
 11
118.77590044
 21
-7.00517773
 31
0.0
  0
LINE
  5
5E6
100
AcDbEntity
  8
レイヤー_1
  6
CONTINUOUS
 62
       3
100
AcDbLine
 10
118.77590044
 20
-7.00517773
 30
0.0
 11
118.76566348
 21
-7.14966717
 31
0.0
  0
LINE
  5
5E7
100
AcDbEntity
  8
レイヤー_1
  6
CONTINUOUS
 62
       3
100
AcDbLine
 10
118.76566348
 20
-7.14966717
 30
0.0
 11
118.76941288
 21
-7.29318342
 31
0.0
  0
LINE
  5
5E8
100
AcDbEntity
  8
レイヤー_1
  6
CONTINUOUS
 62
       3
100
AcDbLine
 10
118.76941288
 20
-7.29318342
 30
0.0
 11
118.78676086
 21
-7.43478587
 31
0.0
  0
LINE
  5
5E9
100
AcDbEntity
  8
レイヤー_1
  6
CONTINUOUS
 62
       3
100
AcDbLine
 10
118.78676086
 20
-7.43478587
 30
0.0
 11
118.81731966
 21
-7.57353401
 31
0.0
  0
LINE
  5
5EA
100
AcDbEntity
  8
レイヤー_1
  6
CONTINUOUS
 62
       3
100
AcDbLine
 10
118.81731966
 20
-7.57353401
 30
0.0
 11
118.86070147
 21
-7.70848728
 31
0.0
  0
LINE
  5
5EB
100
AcDbEntity
  8
レイヤー_1
  6
CONTINUOUS
 62
       3
100
AcDbLine
 10
118.86070147
 20
-7.70848728
 30
0.0
 11
118.91651851
 21
-7.83870509
 31
0.0
  0
LINE
  5
5EC
100
AcDbEntity
  8
レイヤー_1
  6
CONTINUOUS
 62
       3
100
AcDbLine
 10
118.91651851
 20
-7.83870509
 30
0.0
 11
118.98438301
 21
-7.96324692
 31
0.0
  0
LINE
  5
5ED
100
AcDbEntity
  8
レイヤー_1
  6
CONTINUOUS
 62
       3
100
AcDbLine
 10
118.98438301
 20
-7.96324692
 30
0.0
 11
119.06390718
 21
-8.08117222
 31
0.0
  0
LINE
  5
5EE
100
AcDbEntity
  8
レイヤー_1
  6
CONTINUOUS
 62
       3
100
AcDbLine
 10
119.06390718
 20
-8.08117222
 30
0.0
 11
119.15470324
 21
-8.19154042
 31
0.0
  0
LINE
  5
5EF
100
AcDbEntity
  8
レイヤー_1
  6
CONTINUOUS
 62
       3
100
AcDbLine
 10
119.15470324
 20
-8.19154042
 30
0.0
 11
119.2563834
 21
-8.29341099
 31
0.0
  0
LINE
  5
5F0
100
AcDbEntity
  8
レイヤー_1
  6
CONTINUOUS
 62
       3
100
AcDbLine
 10
119.2563834
 20
-8.29341099
 30
0.0
 11
119.36855989
 21
-8.38584332
 31
0.0
  0
LINE
  5
5F1
100
AcDbEntity
  8
レイヤー_1
  6
CONTINUOUS
 62
       3
100
AcDbLine
 10
119.36855989
 20
-8.38584332
 30
0.0
 11
119.49084492
 21
-8.46789692
 31
0.0
  0
LINE
  5
5F2
100
AcDbEntity
  8
レイヤー_1
  6
CONTINUOUS
 62
       3
100
AcDbLine
 10
119.49084492
 20
-8.46789692
 30
0.0
 11
119.6228507
 21
-8.53863122
 31
0.0
  0
LINE
  5
5F3
100
AcDbEntity
  8
レイヤー_1
  6
CONTINUOUS
 62
       3
100
AcDbLine
 10
119.6228507
 20
-8.53863122
 30
0.0
 11
119.7631994
 21
-8.59683065
 31
0.0
  0
LINE
  5
5F4
100
AcDbEntity
  8
レイヤー_1
  6
CONTINUOUS
 62
       3
100
AcDbLine
 10
119.7631994
 20
-8.59683065
 30
0.0
 11
119.90630875
 21
-8.64016523
 31
0.0
  0
LINE
  5
5F5
100
AcDbEntity
  8
レイヤー_1
  6
CONTINUOUS
 62
       3
100
AcDbLine
 10
119.90630875
 20
-8.64016523
 30
0.0
 11
120.05058686
 21
-8.66861518
 31
0.0
  0
LINE
  5
5F6
100
AcDbEntity
  8
レイヤー_1
  6
CONTINUOUS
 62
       3
100
AcDbLine
 10
120.05058686
 20
-8.66861518
 30
0.0
 11
120.19509079
 21
-8.6825707
 31
0.0
  0
LINE
  5
5F7
100
AcDbEntity
  8
レイヤー_1
  6
CONTINUOUS
 62
       3
100
AcDbLine
 10
120.19509079
 20
-8.6825707
 30
0.0
 11
120.33887755
 21
-8.682422
 31
0.0
  0
LINE
  5
5F8
100
AcDbEntity
  8
レイヤー_1
  6
CONTINUOUS
 62
       3
100
AcDbLine
 10
120.33887755
 20
-8.682422
 30
0.0
 11
120.4810042
 21
-8.66855925
 31
0.0
  0
LINE
  5
5F9
100
AcDbEntity
  8
レイヤー_1
  6
CONTINUOUS
 62
       3
100
AcDbLine
 10
120.4810042
 20
-8.66855925
 30
0.0
 11
120.62052776
 21
-8.64137263
 31
0.0
  0
LINE
  5
5FA
100
AcDbEntity
  8
レイヤー_1
  6
CONTINUOUS
 62
       3
100
AcDbLine
 10
120.62052776
 20
-8.64137263
 30
0.0
 11
120.75650528
 21
-8.60125235
 31
0.0
  0
LINE
  5
5FB
100
AcDbEntity
  8
レイヤー_1
  6
CONTINUOUS
 62
       3
100
AcDbLine
 10
120.75650528
 20
-8.60125235
 30
0.0
 11
120.8879938
 21
-8.54858861
 31
0.0
  0
LINE
  5
5FC
100
AcDbEntity
  8
レイヤー_1
  6
CONTINUOUS
 62
       3
100
AcDbLine
 10
120.8879938
 20
-8.54858861
 30
0.0
 11
121.01405035
 21
-8.48377158
 31
0.0
  0
LINE
  5
5FD
100
AcDbEntity
  8
レイヤー_1
  6
CONTINUOUS
 62
       3
100
AcDbLine
 10
121.01405035
 20
-8.48377158
 30
0.0
 11
121.13373197
 21
-8.40719147
 31
0.0
  0
LINE
  5
5FE
100
AcDbEntity
  8
レイヤー_1
  6
CONTINUOUS
 62
       3
100
AcDbLine
 10
121.13373197
 20
-8.40719147
 30
0.0
 11
121.24609569
 21
-8.31923844
 31
0.0
  0
LINE
  5
5FF
100
AcDbEntity
  8
レイヤー_1
  6
CONTINUOUS
 62
       3
100
AcDbLine
 10
121.24609569
 20
-8.31923844
 30
0.0
 11
121.35019857
 21
-8.22030272
 31
0.0
  0
LINE
  5
600
100
AcDbEntity
  8
レイヤー_1
  6
CONTINUOUS
 62
       3
100
AcDbLine
 10
121.35019857
 20
-8.22030272
 30
0.0
 11
121.44509762
 21
-8.1107745
 31
0.0
  0
LINE
  5
601
100
AcDbEntity
  8
レイヤー_1
  6
CONTINUOUS
 62
       3
100
AcDbLine
 10
121.44509762
 20
-8.1107745
 30
0.0
 11
121.52984992
 21
-7.99104393
 31
0.0
  0
LINE
  5
602
100
AcDbEntity
  8
レイヤー_1
  6
CONTINUOUS
 62
       3
100
AcDbLine
 10
121.52984992
 20
-7.99104393
 30
0.0
 11
121.60351246
 21
-7.86150123
 31
0.0
  0
LINE
  5
603
100
AcDbEntity
  8
レイヤー_1
  6
CONTINUOUS
 62
       3
100
AcDbLine
 10
121.60351246
 20
-7.86150123
 30
0.0
 11
121.66502223
 21
-7.72276308
 31
0.0
  0
LINE
  5
604
100
AcDbEntity
  8
レイヤー_1
  6
CONTINUOUS
 62
       3
100
AcDbLine
 10
121.66502223
 20
-7.72276308
 30
0.0
 11
121.71193595
 21
-7.57994874
 31
0.0
  0
LINE
  5
605
100
AcDbEntity
  8
レイヤー_1
  6
CONTINUOUS
 62
       3
100
AcDbLine
 10
121.71193595
 20
-7.57994874
 30
0.0
 11
121.7439119
 21
-7.43574872
 31
0.0
  0
LINE
  5
606
100
AcDbEntity
  8
レイヤー_1
  6
CONTINUOUS
 62
       3
100
AcDbLine
 10
121.7439119
 20
-7.43574872
 30
0.0
 11
121.76133668
 21
-7.29110536
 31
0.0
  0
LINE
  5
607
100
AcDbEntity
  8
レイヤー_1
  6
CONTINUOUS
 62
       3
100
AcDbLine
 10
121.76133668
 20
-7.29110536
 30
0.0
 11
121.76459685
 21
-7.14696102
 31
0.0
  0
LINE
  5
608
100
AcDbEntity
  8
レイヤー_1
  6
CONTINUOUS
 62
       3
100
AcDbLine
 10
121.76459685
 20
-7.14696102
 30
0.0
 11
121.754079
 21
-7.00425808
 31
0.0
  0
LINE
  5
609
100
AcDbEntity
  8
レイヤー_1
  6
CONTINUOUS
 62
       3
100
AcDbLine
 10
121.754079
 20
-7.00425808
 30
0.0
 11
121.73016971
 21
-6.86393889
 31
0.0
  0
LINE
  5
60A
100
AcDbEntity
  8
レイヤー_1
  6
CONTINUOUS
 62
       3
100
AcDbLine
 10
121.73016971
 20
-6.86393889
 30
0.0
 11
121.69325555
 21
-6.72694581
 31
0.0
  0
LINE
  5
60B
100
AcDbEntity
  8
レイヤー_1
  6
CONTINUOUS
 62
       3
100
AcDbLine
 10
121.69325555
 20
-6.72694581
 30
0.0
 11
121.6437231
 21
-6.59422119
 31
0.0
  0
LINE
  5
60C
100
AcDbEntity
  8
レイヤー_1
  6
CONTINUOUS
 62
       3
100
AcDbLine
 10
121.6437231
 20
-6.59422119
 30
0.0
 11
121.58195893
 21
-6.4667074
 31
0.0
  0
LINE
  5
60D
100
AcDbEntity
  8
レイヤー_1
  6
CONTINUOUS
 62
       3
100
AcDbLine
 10
121.58195893
 20
-6.4667074
 30
0.0
 11
121.50834964
 21
-6.3453468
 31
0.0
  0
LINE
  5
60E
100
AcDbEntity
  8
レイヤー_1
  6
CONTINUOUS
 62
       3
100
AcDbLine
 10
121.50834964
 20
-6.3453468
 30
0.0
 11
121.42328179
 21
-6.23108175
 31
0.0
  0
LINE
  5
60F
100
AcDbEntity
  8
レイヤー_1
  6
CONTINUOUS
 62
       3
100
AcDbLine
 10
121.42328179
 20
-6.23108175
 30
0.0
 11
121.32714197
 21
-6.1248546
 31
0.0
  0
LINE
  5
610
100
AcDbEntity
  8
レイヤー_1
  6
CONTINUOUS
 62
       3
100
AcDbLine
 10
121.32714197
 20
-6.1248546
 30
0.0
 11
121.22031675
 21
-6.02760772
 31
0.0
  0
LINE
  5
611
100
AcDbEntity
  8
レイヤー_1
  6
CONTINUOUS
 62
       3
100
AcDbLine
 10
121.22031675
 20
-6.02760772
 30
0.0
 11
121.10319271
 21
-5.94028347
 31
0.0
  0
LINE
  5
612
100
AcDbEntity
  8
レイヤー_1
  6
CONTINUOUS
 62
       3
100
AcDbLine
 10
121.10319271
 20
-5.94028347
 30
0.0
 11
120.97615643
 21
-5.86382421
 31
0.0
  0
LINE
  5
613
100
AcDbEntity
  8
レイヤー_1
  6
CONTINUOUS
 62
       3
100
AcDbLine
 10
120.97615643
 20
-5.86382421
 30
0.0
 11
120.83959448
 21
-5.79917231
 31
0.0
  0
LINE
  5
614
100
AcDbEntity
  8
レイヤー_1
  6
CONTINUOUS
 62
       3
100
AcDbLine
 10
117.09391443
 20
-2.05349223
 30
0.0
 11
117.0291878
 21
-1.91677628
 31
0.0
  0
LINE
  5
615
100
AcDbEntity
  8
レイヤー_1
  6
CONTINUOUS
 62
       3
100
AcDbLine
 10
117.0291878
 20
-1.91677628
 30
0.0
 11
116.95266302
 21
-1.78959639
 31
0.0
  0
LINE
  5
616
100
AcDbEntity
  8
レイヤー_1
  6
CONTINUOUS
 62
       3
100
AcDbLine
 10
116.95266302
 20
-1.78959639
 30
0.0
 11
116.86528182
 21
-1.67233971
 31
0.0
  0
LINE
  5
617
100
AcDbEntity
  8
レイヤー_1
  6
CONTINUOUS
 62
       3
100
AcDbLine
 10
116.86528182
 20
-1.67233971
 30
0.0
 11
116.76798598
 21
-1.56539345
 31
0.0
  0
LINE
  5
618
100
AcDbEntity
  8
レイヤー_1
  6
CONTINUOUS
 62
       3
100
AcDbLine
 10
116.76798598
 20
-1.56539345
 30
0.0
 11
116.66171724
 21
-1.46914477
 31
0.0
  0
LINE
  5
619
100
AcDbEntity
  8
レイヤー_1
  6
CONTINUOUS
 62
       3
100
AcDbLine
 10
116.66171724
 20
-1.46914477
 30
0.0
 11
116.54741737
 21
-1.38398087
 31
0.0
  0
LINE
  5
61A
100
AcDbEntity
  8
レイヤー_1
  6
CONTINUOUS
 62
       3
100
AcDbLine
 10
116.54741737
 20
-1.38398087
 30
0.0
 11
116.42602812
 21
-1.31028891
 31
0.0
  0
LINE
  5
61B
100
AcDbEntity
  8
レイヤー_1
  6
CONTINUOUS
 62
       3
100
AcDbLine
 10
116.42602812
 20
-1.31028891
 30
0.0
 11
116.29849126
 21
-1.24845609
 31
0.0
  0
LINE
  5
61C
100
AcDbEntity
  8
レイヤー_1
  6
CONTINUOUS
 62
       3
100
AcDbLine
 10
116.29849126
 20
-1.24845609
 30
0.0
 11
116.16574854
 21
-1.19886959
 31
0.0
  0
LINE
  5
61D
100
AcDbEntity
  8
レイヤー_1
  6
CONTINUOUS
 62
       3
100
AcDbLine
 10
116.16574854
 20
-1.19886959
 30
0.0
 11
116.0287417
 21
-1.16191657
 31
0.0
  0
LINE
  5
61E
100
AcDbEntity
  8
レイヤー_1
  6
CONTINUOUS
 62
       3
100
AcDbLine
 10
116.0287417
 20
-1.16191657
 30
0.0
 11
115.88841254
 21
-1.13798425
 31
0.0
  0
LINE
  5
61F
100
AcDbEntity
  8
レイヤー_1
  6
CONTINUOUS
 62
       3
100
AcDbLine
 10
115.88841254
 20
-1.13798425
 30
0.0
 11
115.74570277
 21
-1.12745975
 31
0.0
  0
LINE
  5
620
100
AcDbEntity
  8
レイヤー_1
  6
CONTINUOUS
 62
       3
100
AcDbLine
 10
115.74570277
 20
-1.12745975
 30
0.0
 11
115.60155418
 21
-1.13073031
 31
0.0
  0
LINE
  5
621
100
AcDbEntity
  8
レイヤー_1
  6
CONTINUOUS
 62
       3
100
AcDbLine
 10
115.60155418
 20
-1.13073031
 30
0.0
 11
115.45690852
 21
-1.14818307
 31
0.0
  0
LINE
  5
622
100
AcDbEntity
  8
レイヤー_1
  6
CONTINUOUS
 62
       3
100
AcDbLine
 10
115.45690852
 20
-1.14818307
 30
0.0
 11
115.31270753
 21
-1.18020523
 31
0.0
  0
LINE
  5
623
100
AcDbEntity
  8
レイヤー_1
  6
CONTINUOUS
 62
       3
100
AcDbLine
 10
115.31270753
 20
-1.18020523
 30
0.0
 11
115.16989301
 21
-1.22718396
 31
0.0
  0
LINE
  5
624
100
AcDbEntity
  8
レイヤー_1
  6
CONTINUOUS
 62
       3
100
AcDbLine
 10
115.16989301
 20
-1.22718396
 30
0.0
 11
115.03121165
 21
-1.28876475
 31
0.0
  0
LINE
  5
625
100
AcDbEntity
  8
レイヤー_1
  6
CONTINUOUS
 62
       3
100
AcDbLine
 10
115.03121165
 20
-1.28876475
 30
0.0
 11
114.90173523
 21
-1.36247457
 31
0.0
  0
LINE
  5
626
100
AcDbEntity
  8
レイヤー_1
  6
CONTINUOUS
 62
       3
100
AcDbLine
 10
114.90173523
 20
-1.36247457
 30
0.0
 11
114.78205906
 21
-1.44725425
 31
0.0
  0
LINE
  5
627
100
AcDbEntity
  8
レイヤー_1
  6
CONTINUOUS
 62
       3
100
AcDbLine
 10
114.78205906
 20
-1.44725425
 30
0.0
 11
114.67257211
 21
-1.54216624
 31
0.0
  0
LINE
  5
628
100
AcDbEntity
  8
レイヤー_1
  6
CONTINUOUS
 62
       3
100
AcDbLine
 10
114.67257211
 20
-1.54216624
 30
0.0
 11
114.57366338
 21
-1.64627303
 31
0.0
  0
LINE
  5
629
100
AcDbEntity
  8
レイヤー_1
  6
CONTINUOUS
 62
       3
100
AcDbLine
 10
114.57366338
 20
-1.64627303
 30
0.0
 11
114.48572185
 21
-1.75863707
 31
0.0
  0
LINE
  5
62A
100
AcDbEntity
  8
レイヤー_1
  6
CONTINUOUS
 62
       3
100
AcDbLine
 10
114.48572185
 20
-1.75863707
 30
0.0
 11
114.4091365
 21
-1.87832079
 31
0.0
  0
LINE
  5
62B
100
AcDbEntity
  8
レイヤー_1
  6
CONTINUOUS
 62
       3
100
AcDbLine
 10
114.4091365
 20
-1.87832079
 30
0.0
 11
114.34429634
 21
-2.00438667
 31
0.0
  0
LINE
  5
62C
100
AcDbEntity
  8
レイヤー_1
  6
CONTINUOUS
 62
       3
100
AcDbLine
 10
114.34429634
 20
-2.00438667
 30
0.0
 11
114.29159034
 21
-2.13589717
 31
0.0
  0
LINE
  5
62D
100
AcDbEntity
  8
レイヤー_1
  6
CONTINUOUS
 62
       3
100
AcDbLine
 10
114.29507975
 20
-3.13016618
 30
0.0
 11
114.3532395
 21
-3.27055104
 31
0.0
  0
LINE
  5
62E
100
AcDbEntity
  8
レイヤー_1
  6
CONTINUOUS
 62
       3
100
AcDbLine
 10
114.3532395
 20
-3.27055104
 30
0.0
 11
114.4241054
 21
-3.40234635
 31
0.0
  0
LINE
  5
62F
100
AcDbEntity
  8
レイヤー_1
  6
CONTINUOUS
 62
       3
100
AcDbLine
 10
114.4241054
 20
-3.40234635
 30
0.0
 11
114.50626667
 21
-3.52444667
 31
0.0
  0
LINE
  5
630
100
AcDbEntity
  8
レイヤー_1
  6
CONTINUOUS
 62
       3
100
AcDbLine
 10
114.50626667
 20
-3.52444667
 30
0.0
 11
114.59878637
 21
-3.63646178
 31
0.0
  0
LINE
  5
631
100
AcDbEntity
  8
レイヤー_1
  6
CONTINUOUS
 62
       3
100
AcDbLine
 10
114.59878637
 20
-3.63646178
 30
0.0
 11
114.70072756
 21
-3.73800149
 31
0.0
  0
LINE
  5
632
100
AcDbEntity
  8
レイヤー_1
  6
CONTINUOUS
 62
       3
100
AcDbLine
 10
114.70072756
 20
-3.73800149
 30
0.0
 11
114.81115331
 21
-3.82867559
 31
0.0
  0
LINE
  5
633
100
AcDbEntity
  8
レイヤー_1
  6
CONTINUOUS
 62
       3
100
AcDbLine
 10
114.81115331
 20
-3.82867559
 30
0.0
 11
114.92912667
 21
-3.90809394
 31
0.0
  0
LINE
  5
634
100
AcDbEntity
  8
レイヤー_1
  6
CONTINUOUS
 62
       3
100
AcDbLine
 10
114.92912667
 20
-3.90809394
 30
0.0
 11
115.05371069
 21
-3.97586629
 31
0.0
  0
LINE
  5
635
100
AcDbEntity
  8
レイヤー_1
  6
CONTINUOUS
 62
       3
100
AcDbLine
 10
115.05371069
 20
-3.97586629
 30
0.0
 11
115.18396844
 21
-4.0316025
 31
0.0
  0
LINE
  5
636
100
AcDbEntity
  8
レイヤー_1
  6
CONTINUOUS
 62
       3
100
AcDbLine
 10
115.18396844
 20
-4.0316025
 30
0.0
 11
115.31896298
 21
-4.07491234
 31
0.0
  0
LINE
  5
637
100
AcDbEntity
  8
レイヤー_1
  6
CONTINUOUS
 62
       3
100
AcDbLine
 10
115.31896298
 20
-4.07491234
 30
0.0
 11
115.45775736
 21
-4.10540564
 31
0.0
  0
LINE
  5
638
100
AcDbEntity
  8
レイヤー_1
  6
CONTINUOUS
 62
       3
100
AcDbLine
 10
115.45775736
 20
-4.10540564
 30
0.0
 11
115.59941467
 21
-4.12269221
 31
0.0
  0
LINE
  5
639
100
AcDbEntity
  8
レイヤー_1
  6
CONTINUOUS
 62
       3
100
AcDbLine
 10
115.59941467
 20
-4.12269221
 30
0.0
 11
115.74299793
 21
-4.12638184
 31
0.0
  0
LINE
  5
63A
100
AcDbEntity
  8
レイヤー_1
  6
CONTINUOUS
 62
       3
100
AcDbLine
 10
115.74299793
 20
-4.12638184
 30
0.0
 11
115.88757022
 21
-4.11608436
 31
0.0
  0
LINE
  5
63B
100
AcDbEntity
  8
レイヤー_1
  6
CONTINUOUS
 62
       3
100
AcDbLine
 10
115.88757022
 20
-4.11608436
 30
0.0
 11
116.03219458
 21
-4.09140957
 31
0.0
  0
LINE
  5
63C
100
AcDbEntity
  8
レイヤー_1
  6
CONTINUOUS
 62
       3
100
AcDbLine
 10
116.03219458
 20
-4.09140957
 30
0.0
 11
116.17593411
 21
-4.05196728
 31
0.0
  0
LINE
  5
63D
100
AcDbEntity
  8
レイヤー_1
  6
CONTINUOUS
 62
       3
100
AcDbLine
 10
116.17593411
 20
-4.05196728
 30
0.0
 11
116.31760681
 21
-3.99743589
 31
0.0
  0
LINE
  5
63E
100
AcDbEntity
  8
レイヤー_1
  6
CONTINUOUS
 62
       3
100
AcDbLine
 10
116.31760681
 20
-3.99743589
 30
0.0
 11
116.45182358
 21
-3.92967839
 31
0.0
  0
LINE
  5
63F
100
AcDbEntity
  8
レイヤー_1
  6
CONTINUOUS
 62
       3
100
AcDbLine
 10
116.45182358
 20
-3.92967839
 30
0.0
 11
116.57641803
 21
-3.85036644
 31
0.0
  0
LINE
  5
640
100
AcDbEntity
  8
レイヤー_1
  6
CONTINUOUS
 62
       3
100
AcDbLine
 10
116.57641803
 20
-3.85036644
 30
0.0
 11
116.69100362
 21
-3.76044058
 31
0.0
  0
LINE
  5
641
100
AcDbEntity
  8
レイヤー_1
  6
CONTINUOUS
 62
       3
100
AcDbLine
 10
116.69100362
 20
-3.76044058
 30
0.0
 11
116.79519373
 21
-3.66084141
 31
0.0
  0
LINE
  5
642
100
AcDbEntity
  8
レイヤー_1
  6
CONTINUOUS
 62
       3
100
AcDbLine
 10
116.79519373
 20
-3.66084141
 30
0.0
 11
116.8886018
 21
-3.55250943
 31
0.0
  0
LINE
  5
643
100
AcDbEntity
  8
レイヤー_1
  6
CONTINUOUS
 62
       3
100
AcDbLine
 10
116.8886018
 20
-3.55250943
 30
0.0
 11
116.97084125
 21
-3.43638524
 31
0.0
  0
LINE
  5
644
100
AcDbEntity
  8
レイヤー_1
  6
CONTINUOUS
 62
       3
100
AcDbLine
 10
116.97084125
 20
-3.43638524
 30
0.0
 11
117.0415255
 21
-3.31340937
 31
0.0
  0
LINE
  5
645
100
AcDbEntity
  8
レイヤー_1
  6
CONTINUOUS
 62
       3
100
AcDbLine
 10
117.0415255
 20
-3.31340937
 30
0.0
 11
117.10026798
 21
-3.18452236
 31
0.0
  0
LINE
  5
646
100
AcDbEntity
  8
レイヤー_1
  6
CONTINUOUS
 62
       3
100
AcDbLine
 10
117.10026798
 20
-3.18452236
 30
0.0
 11
117.14668209
 21
-3.05066479
 31
0.0
  0
LINE
  5
647
100
AcDbEntity
  8
レイヤー_1
  6
CONTINUOUS
 62
       3
100
AcDbLine
 10
117.14668209
 20
-3.05066479
 30
0.0
 11
117.18038129
 21
-2.91277719
 31
0.0
  0
LINE
  5
648
100
AcDbEntity
  8
レイヤー_1
  6
CONTINUOUS
 62
       3
100
AcDbLine
 10
117.18038129
 20
-2.91277719
 30
0.0
 11
117.20097896
 21
-2.77180013
 31
0.0
  0
LINE
  5
649
100
AcDbEntity
  8
レイヤー_1
  6
CONTINUOUS
 62
       3
100
AcDbLine
 10
117.20097896
 20
-2.77180013
 30
0.0
 11
117.20808855
 21
-2.62867416
 31
0.0
  0
LINE
  5
64A
100
AcDbEntity
  8
レイヤー_1
  6
CONTINUOUS
 62
       3
100
AcDbLine
 10
117.20808855
 20
-2.62867416
 30
0.0
 11
117.20132347
 21
-2.48433984
 31
0.0
  0
LINE
  5
64B
100
AcDbEntity
  8
レイヤー_1
  6
CONTINUOUS
 62
       3
100
AcDbLine
 10
117.20132347
 20
-2.48433984
 30
0.0
 11
117.18029714
 21
-2.3397377
 31
0.0
  0
LINE
  5
64C
100
AcDbEntity
  8
レイヤー_1
  6
CONTINUOUS
 62
       3
100
AcDbLine
 10
117.18029714
 20
-2.3397377
 30
0.0
 11
117.14462298
 21
-2.19580831
 31
0.0
  0
LINE
  5
64D
100
AcDbEntity
  8
レイヤー_1
  6
CONTINUOUS
 62
       3
100
AcDbLine
 10
117.14462298
 20
-2.19580831
 30
0.0
 11
117.09391443
 21
-2.05349223
 31
0.0
  0
LINE
  5
64E
100
AcDbEntity
  8
レイヤー_1
  6
CONTINUOUS
 62
       3
100
AcDbLine
 10
117.09391443
 20
3.24420334
 30
0.0
 11
117.14462298
 21
3.38652422
 31
0.0
  0
LINE
  5
64F
100
AcDbEntity
  8
レイヤー_1
  6
CONTINUOUS
 62
       3
100
AcDbLine
 10
117.14462298
 20
3.38652422
 30
0.0
 11
117.18029714
 21
3.53046757
 31
0.0
  0
LINE
  5
650
100
AcDbEntity
  8
レイヤー_1
  6
CONTINUOUS
 62
       3
100
AcDbLine
 10
117.18029714
 20
3.53046757
 30
0.0
 11
117.20132347
 21
3.67509226
 31
0.0
  0
LINE
  5
651
100
AcDbEntity
  8
レイヤー_1
  6
CONTINUOUS
 62
       3
100
AcDbLine
 10
117.20132347
 20
3.67509226
 30
0.0
 11
117.20808855
 21
3.81945712
 31
0.0
  0
LINE
  5
652
100
AcDbEntity
  8
レイヤー_1
  6
CONTINUOUS
 62
       3
100
AcDbLine
 10
117.20808855
 20
3.81945712
 30
0.0
 11
117.20097896
 21
3.962621
 31
0.0
  0
LINE
  5
653
100
AcDbEntity
  8
レイヤー_1
  6
CONTINUOUS
 62
       3
100
AcDbLine
 10
117.20097896
 20
3.962621
 30
0.0
 11
117.18038129
 21
4.10364277
 31
0.0
  0
LINE
  5
654
100
AcDbEntity
  8
レイヤー_1
  6
CONTINUOUS
 62
       3
100
AcDbLine
 10
117.18038129
 20
4.10364277
 30
0.0
 11
117.14668209
 21
4.2415812
 31
0.0
  0
LINE
  5
655
100
AcDbEntity
  8
レイヤー_1
  6
CONTINUOUS
 62
       3
100
AcDbLine
 10
117.14668209
 20
4.2415812
 30
0.0
 11
117.10026798
 21
4.37549521
 31
0.0
  0
LINE
  5
656
100
AcDbEntity
  8
レイヤー_1
  6
CONTINUOUS
 62
       3
100
AcDbLine
 10
117.10026798
 20
4.37549521
 30
0.0
 11
117.0415255
 21
4.5044436
 31
0.0
  0
LINE
  5
657
100
AcDbEntity
  8
レイヤー_1
  6
CONTINUOUS
 62
       3
100
AcDbLine
 10
117.0415255
 20
4.5044436
 30
0.0
 11
116.97084125
 21
4.62748524
 31
0.0
  0
LINE
  5
658
100
AcDbEntity
  8
レイヤー_1
  6
CONTINUOUS
 62
       3
100
AcDbLine
 10
116.97084125
 20
4.62748524
 30
0.0
 11
116.8886018
 21
4.74367897
 31
0.0
  0
LINE
  5
659
100
AcDbEntity
  8
レイヤー_1
  6
CONTINUOUS
 62
       3
100
AcDbLine
 10
116.8886018
 20
4.74367897
 30
0.0
 11
116.79519373
 21
4.8520836
 31
0.0
  0
LINE
  5
65A
100
AcDbEntity
  8
レイヤー_1
  6
CONTINUOUS
 62
       3
100
AcDbLine
 10
116.79519373
 20
4.8520836
 30
0.0
 11
116.69100362
 21
4.95175803
 31
0.0
  0
LINE
  5
65B
100
AcDbEntity
  8
レイヤー_1
  6
CONTINUOUS
 62
       3
100
AcDbLine
 10
116.69100362
 20
4.95175803
 30
0.0
 11
116.57641803
 21
5.04176108
 31
0.0
  0
LINE
  5
65C
100
AcDbEntity
  8
レイヤー_1
  6
CONTINUOUS
 62
       3
100
AcDbLine
 10
116.57641803
 20
5.04176108
 30
0.0
 11
116.45182358
 21
5.12115158
 31
0.0
  0
LINE
  5
65D
100
AcDbEntity
  8
レイヤー_1
  6
CONTINUOUS
 62
       3
100
AcDbLine
 10
116.45182358
 20
5.12115158
 30
0.0
 11
116.31760681
 21
5.1889884
 31
0.0
  0
LINE
  5
65E
100
AcDbEntity
  8
レイヤー_1
  6
CONTINUOUS
 62
       3
100
AcDbLine
 10
116.31760681
 20
5.1889884
 30
0.0
 11
116.17593411
 21
5.2435422
 31
0.0
  0
LINE
  5
65F
100
AcDbEntity
  8
レイヤー_1
  6
CONTINUOUS
 62
       3
100
AcDbLine
 10
116.17593411
 20
5.2435422
 30
0.0
 11
116.03219458
 21
5.28299425
 31
0.0
  0
LINE
  5
660
100
AcDbEntity
  8
レイヤー_1
  6
CONTINUOUS
 62
       3
100
AcDbLine
 10
116.03219458
 20
5.28299425
 30
0.0
 11
115.88757022
 21
5.3076833
 31
0.0
  0
LINE
  5
661
100
AcDbEntity
  8
レイヤー_1
  6
CONTINUOUS
 62
       3
100
AcDbLine
 10
115.88757022
 20
5.3076833
 30
0.0
 11
115.74299793
 21
5.31799656
 31
0.0
  0
LINE
  5
662
100
AcDbEntity
  8
レイヤー_1
  6
CONTINUOUS
 62
       3
100
AcDbLine
 10
115.74299793
 20
5.31799656
 30
0.0
 11
115.59941467
 21
5.31432119
 31
0.0
  0
LINE
  5
663
100
AcDbEntity
  8
レイヤー_1
  6
CONTINUOUS
 62
       3
100
AcDbLine
 10
115.59941467
 20
5.31432119
 30
0.0
 11
115.45775736
 21
5.29704439
 31
0.0
  0
LINE
  5
664
100
AcDbEntity
  8
レイヤー_1
  6
CONTINUOUS
 62
       3
100
AcDbLine
 10
115.45775736
 20
5.29704439
 30
0.0
 11
115.31896298
 21
5.26655332
 31
0.0
  0
LINE
  5
665
100
AcDbEntity
  8
レイヤー_1
  6
CONTINUOUS
 62
       3
100
AcDbLine
 10
115.31896298
 20
5.26655332
 30
0.0
 11
115.18396844
 21
5.22323516
 31
0.0
  0
LINE
  5
666
100
AcDbEntity
  8
レイヤー_1
  6
CONTINUOUS
 62
       3
100
AcDbLine
 10
115.18396844
 20
5.22323516
 30
0.0
 11
115.05371069
 21
5.1674771
 31
0.0
  0
LINE
  5
667
100
AcDbEntity
  8
レイヤー_1
  6
CONTINUOUS
 62
       3
100
AcDbLine
 10
115.05371069
 20
5.1674771
 30
0.0
 11
114.92912667
 21
5.09966632
 31
0.0
  0
LINE
  5
668
100
AcDbEntity
  8
レイヤー_1
  6
CONTINUOUS
 62
       3
100
AcDbLine
 10
114.92912667
 20
5.09966632
 30
0.0
 11
114.81115331
 21
5.02019
 31
0.0
  0
LINE
  5
669
100
AcDbEntity
  8
レイヤー_1
  6
CONTINUOUS
 62
       3
100
AcDbLine
 10
114.81115331
 20
5.02019
 30
0.0
 11
114.70072756
 21
4.92943531
 31
0.0
  0
LINE
  5
66A
100
AcDbEntity
  8
レイヤー_1
  6
CONTINUOUS
 62
       3
100
AcDbLine
 10
114.70072756
 20
4.92943531
 30
0.0
 11
114.59878637
 21
4.82778945
 31
0.0
  0
LINE
  5
66B
100
AcDbEntity
  8
レイヤー_1
  6
CONTINUOUS
 62
       3
100
AcDbLine
 10
114.59878637
 20
4.82778945
 30
0.0
 11
114.50626667
 21
4.71563958
 31
0.0
  0
LINE
  5
66C
100
AcDbEntity
  8
レイヤー_1
  6
CONTINUOUS
 62
       3
100
AcDbLine
 10
114.50626667
 20
4.71563958
 30
0.0
 11
114.4241054
 21
4.59337289
 31
0.0
  0
LINE
  5
66D
100
AcDbEntity
  8
レイヤー_1
  6
CONTINUOUS
 62
       3
100
AcDbLine
 10
114.4241054
 20
4.59337289
 30
0.0
 11
114.3532395
 21
4.46137657
 31
0.0
  0
LINE
  5
66E
100
AcDbEntity
  8
レイヤー_1
  6
CONTINUOUS
 62
       3
100
AcDbLine
 10
114.3532395
 20
4.46137657
 30
0.0
 11
114.29507975
 21
4.320952
 31
0.0
  0
LINE
  5
66F
100
AcDbEntity
  8
レイヤー_1
  6
CONTINUOUS
 62
       3
100
AcDbLine
 10
114.29507975
 20
4.320952
 30
0.0
 11
114.251955
 21
4.1777029
 31
0.0
  0
LINE
  5
670
100
AcDbEntity
  8
レイヤー_1
  6
CONTINUOUS
 62
       3
100
AcDbLine
 10
114.251955
 20
4.1777029
 30
0.0
 11
114.2236873
 21
4.03330369
 31
0.0
  0
LINE
  5
671
100
AcDbEntity
  8
レイヤー_1
  6
CONTINUOUS
 62
       3
100
AcDbLine
 10
114.2236873
 20
4.03330369
 30
0.0
 11
114.20988769
 21
3.88869674
 31
0.0
  0
LINE
  5
672
100
AcDbEntity
  8
レイヤー_1
  6
CONTINUOUS
 62
       3
100
AcDbLine
 10
114.20988769
 20
3.88869674
 30
0.0
 11
114.21016717
 21
3.74482441
 31
0.0
  0
LINE
  5
673
100
AcDbEntity
  8
レイヤー_1
  6
CONTINUOUS
 62
       3
100
AcDbLine
 10
114.21016717
 20
3.74482441
 30
0.0
 11
114.22413677
 21
3.60262904
 31
0.0
  0
LINE
  5
674
100
AcDbEntity
  8
レイヤー_1
  6
CONTINUOUS
 62
       3
100
AcDbLine
 10
114.22413677
 20
3.60262904
 30
0.0
 11
114.25140748
 21
3.46305304
 31
0.0
  0
LINE
  5
675
100
AcDbEntity
  8
レイヤー_1
  6
CONTINUOUS
 62
       3
100
AcDbLine
 10
114.25140748
 20
3.46305304
 30
0.0
 11
114.29159034
 21
3.32703873
 31
0.0
  0
LINE
  5
676
100
AcDbEntity
  8
レイヤー_1
  6
CONTINUOUS
 62
       3
100
AcDbLine
 10
114.29159034
 20
3.32703873
 30
0.0
 11
114.34429634
 21
3.19552847
 31
0.0
  0
LINE
  5
677
100
AcDbEntity
  8
レイヤー_1
  6
CONTINUOUS
 62
       3
100
AcDbLine
 10
114.34429634
 20
3.19552847
 30
0.0
 11
114.4091365
 21
3.06946463
 31
0.0
  0
LINE
  5
678
100
AcDbEntity
  8
レイヤー_1
  6
CONTINUOUS
 62
       3
100
AcDbLine
 10
114.4091365
 20
3.06946463
 30
0.0
 11
114.48572185
 21
2.94978957
 31
0.0
  0
LINE
  5
679
100
AcDbEntity
  8
レイヤー_1
  6
CONTINUOUS
 62
       3
100
AcDbLine
 10
114.48572185
 20
2.94978957
 30
0.0
 11
114.57366338
 21
2.83744565
 31
0.0
  0
LINE
  5
67A
100
AcDbEntity
  8
レイヤー_1
  6
CONTINUOUS
 62
       3
100
AcDbLine
 10
114.57366338
 20
2.83744565
 30
0.0
 11
114.67257211
 21
2.73337523
 31
0.0
  0
LINE
  5
67B
100
AcDbEntity
  8
レイヤー_1
  6
CONTINUOUS
 62
       3
100
AcDbLine
 10
114.67257211
 20
2.73337523
 30
0.0
 11
114.78205906
 21
2.63852066
 31
0.0
  0
LINE
  5
67C
100
AcDbEntity
  8
レイヤー_1
  6
CONTINUOUS
 62
       3
100
AcDbLine
 10
114.78205906
 20
2.63852066
 30
0.0
 11
114.90173523
 21
2.55382431
 31
0.0
  0
LINE
  5
67D
100
AcDbEntity
  8
レイヤー_1
  6
CONTINUOUS
 62
       3
100
AcDbLine
 10
114.90173523
 20
2.55382431
 30
0.0
 11
115.03121165
 21
2.48022854
 31
0.0
  0
LINE
  5
67E
100
AcDbEntity
  8
レイヤー_1
  6
CONTINUOUS
 62
       3
100
AcDbLine
 10
115.03121165
 20
2.48022854
 30
0.0
 11
115.16989301
 21
2.4187175
 31
0.0
  0
LINE
  5
67F
100
AcDbEntity
  8
レイヤー_1
  6
CONTINUOUS
 62
       3
100
AcDbLine
 10
115.16989301
 20
2.4187175
 30
0.0
 11
115.31270753
 21
2.3716008
 31
0.0
  0
LINE
  5
680
100
AcDbEntity
  8
レイヤー_1
  6
CONTINUOUS
 62
       3
100
AcDbLine
 10
115.31270753
 20
2.3716008
 30
0.0
 11
115.45690852
 21
2.33946628
 31
0.0
  0
LINE
  5
681
100
AcDbEntity
  8
レイヤー_1
  6
CONTINUOUS
 62
       3
100
AcDbLine
 10
115.45690852
 20
2.33946628
 30
0.0
 11
115.60155418
 21
2.32192373
 31
0.0
  0
LINE
  5
682
100
AcDbEntity
  8
レイヤー_1
  6
CONTINUOUS
 62
       3
100
AcDbLine
 10
115.60155418
 20
2.32192373
 30
0.0
 11
115.74570277
 21
2.31858296
 31
0.0
  0
LINE
  5
683
100
AcDbEntity
  8
レイヤー_1
  6
CONTINUOUS
 62
       3
100
AcDbLine
 10
115.74570277
 20
2.31858296
 30
0.0
 11
115.88841254
 21
2.32905378
 31
0.0
  0
LINE
  5
684
100
AcDbEntity
  8
レイヤー_1
  6
CONTINUOUS
 62
       3
100
AcDbLine
 10
115.88841254
 20
2.32905378
 30
0.0
 11
116.0287417
 21
2.35294601
 31
0.0
  0
LINE
  5
685
100
AcDbEntity
  8
レイヤー_1
  6
CONTINUOUS
 62
       3
100
AcDbLine
 10
116.0287417
 20
2.35294601
 30
0.0
 11
116.16574854
 21
2.38986944
 31
0.0
  0
LINE
  5
686
100
AcDbEntity
  8
レイヤー_1
  6
CONTINUOUS
 62
       3
100
AcDbLine
 10
116.16574854
 20
2.38986944
 30
0.0
 11
116.29849126
 21
2.4394339
 31
0.0
  0
LINE
  5
687
100
AcDbEntity
  8
レイヤー_1
  6
CONTINUOUS
 62
       3
100
AcDbLine
 10
116.29849126
 20
2.4394339
 30
0.0
 11
116.42602812
 21
2.50124919
 31
0.0
  0
LINE
  5
688
100
AcDbEntity
  8
レイヤー_1
  6
CONTINUOUS
 62
       3
100
AcDbLine
 10
116.42602812
 20
2.50124919
 30
0.0
 11
116.54741737
 21
2.57492511
 31
0.0
  0
LINE
  5
689
100
AcDbEntity
  8
レイヤー_1
  6
CONTINUOUS
 62
       3
100
AcDbLine
 10
116.54741737
 20
2.57492511
 30
0.0
 11
116.66171724
 21
2.66007149
 31
0.0
  0
LINE
  5
68A
100
AcDbEntity
  8
レイヤー_1
  6
CONTINUOUS
 62
       3
100
AcDbLine
 10
116.66171724
 20
2.66007149
 30
0.0
 11
116.76798598
 21
2.75629812
 31
0.0
  0
LINE
  5
68B
100
AcDbEntity
  8
レイヤー_1
  6
CONTINUOUS
 62
       3
100
AcDbLine
 10
116.76798598
 20
2.75629812
 30
0.0
 11
116.86528182
 21
2.8632148
 31
0.0
  0
LINE
  5
68C
100
AcDbEntity
  8
レイヤー_1
  6
CONTINUOUS
 62
       3
100
AcDbLine
 10
116.86528182
 20
2.8632148
 30
0.0
 11
116.95266302
 21
2.98043136
 31
0.0
  0
LINE
  5
68D
100
AcDbEntity
  8
レイヤー_1
  6
CONTINUOUS
 62
       3
100
AcDbLine
 10
116.95266302
 20
2.98043136
 30
0.0
 11
117.0291878
 21
3.10755761
 31
0.0
  0
LINE
  5
68E
100
AcDbEntity
  8
レイヤー_1
  6
CONTINUOUS
 62
       3
100
AcDbLine
 10
117.0291878
 20
3.10755761
 30
0.0
 11
117.09391443
 21
3.24420334
 31
0.0
  0
LINE
  5
68F
100
AcDbEntity
  8
レイヤー_1
  6
CONTINUOUS
 62
       3
100
AcDbLine
 10
120.83959448
 20
6.98988342
 30
0.0
 11
120.97615643
 21
7.05453553
 31
0.0
  0
LINE
  5
690
100
AcDbEntity
  8
レイヤー_1
  6
CONTINUOUS
 62
       3
100
AcDbLine
 10
120.97615643
 20
7.05453553
 30
0.0
 11
121.10319271
 21
7.1309962
 31
0.0
  0
LINE
  5
691
100
AcDbEntity
  8
レイヤー_1
  6
CONTINUOUS
 62
       3
100
AcDbLine
 10
121.10319271
 20
7.1309962
 30
0.0
 11
121.22031675
 21
7.21832426
 31
0.0
  0
LINE
  5
692
100
AcDbEntity
  8
レイヤー_1
  6
CONTINUOUS
 62
       3
100
AcDbLine
 10
121.22031675
 20
7.21832426
 30
0.0
 11
121.32714197
 21
7.31557856
 31
0.0
  0
LINE
  5
693
100
AcDbEntity
  8
レイヤー_1
  6
CONTINUOUS
 62
       3
100
AcDbLine
 10
121.32714197
 20
7.31557856
 30
0.0
 11
121.42328179
 21
7.42181794
 31
0.0
  0
LINE
  5
694
100
AcDbEntity
  8
レイヤー_1
  6
CONTINUOUS
 62
       3
100
AcDbLine
 10
121.42328179
 20
7.42181794
 30
0.0
 11
121.50834964
 21
7.53610126
 31
0.0
  0
LINE
  5
695
100
AcDbEntity
  8
レイヤー_1
  6
CONTINUOUS
 62
       3
100
AcDbLine
 10
121.50834964
 20
7.53610126
 30
0.0
 11
121.58195893
 21
7.65748735
 31
0.0
  0
LINE
  5
696
100
AcDbEntity
  8
レイヤー_1
  6
CONTINUOUS
 62
       3
100
AcDbLine
 10
121.58195893
 20
7.65748735
 30
0.0
 11
121.6437231
 21
7.78503506
 31
0.0
  0
LINE
  5
697
100
AcDbEntity
  8
レイヤー_1
  6
CONTINUOUS
 62
       3
100
AcDbLine
 10
121.6437231
 20
7.78503506
 30
0.0
 11
121.69325555
 21
7.91780323
 31
0.0
  0
LINE
  5
698
100
AcDbEntity
  8
レイヤー_1
  6
CONTINUOUS
 62
       3
100
AcDbLine
 10
121.69325555
 20
7.91780323
 30
0.0
 11
121.73016971
 21
8.05485071
 31
0.0
  0
LINE
  5
699
100
AcDbEntity
  8
レイヤー_1
  6
CONTINUOUS
 62
       3
100
AcDbLine
 10
121.73016971
 20
8.05485071
 30
0.0
 11
121.754079
 21
8.19523634
 31
0.0
  0
LINE
  5
69A
100
AcDbEntity
  8
レイヤー_1
  6
CONTINUOUS
 62
       3
100
AcDbLine
 10
121.754079
 20
8.19523634
 30
0.0
 11
121.76459685
 21
8.33801897
 31
0.0
  0
LINE
  5
69B
100
AcDbEntity
  8
レイヤー_1
  6
CONTINUOUS
 62
       3
100
AcDbLine
 10
121.76459685
 20
8.33801897
 30
0.0
 11
121.76133668
 21
8.48225745
 31
0.0
  0
LINE
  5
69C
100
AcDbEntity
  8
レイヤー_1
  6
CONTINUOUS
 62
       3
100
AcDbLine
 10
121.76133668
 20
8.48225745
 30
0.0
 11
121.7439119
 21
8.62701059
 31
0.0
  0
LINE
  5
69D
100
AcDbEntity
  8
レイヤー_1
  6
CONTINUOUS
 62
       3
100
AcDbLine
 10
121.7439119
 20
8.62701059
 30
0.0
 11
121.71193595
 21
8.77133727
 31
0.0
  0
LINE
  5
69E
100
AcDbEntity
  8
レイヤー_1
  6
CONTINUOUS
 62
       3
100
AcDbLine
 10
121.71193595
 20
8.77133727
 30
0.0
 11
121.66502223
 21
8.91429633
 31
0.0
  0
LINE
  5
69F
100
AcDbEntity
  8
レイヤー_1
  6
CONTINUOUS
 62
       3
100
AcDbLine
 10
121.66502223
 20
8.91429633
 30
0.0
 11
121.60351228
 21
9.05301412
 31
0.0
  0
LINE
  5
6A0
100
AcDbEntity
  8
レイヤー_1
  6
CONTINUOUS
 62
       3
100
AcDbLine
 10
121.60351228
 20
9.05301412
 30
0.0
 11
121.52984777
 21
9.1824788
 31
0.0
  0
LINE
  5
6A1
100
AcDbEntity
  8
レイヤー_1
  6
CONTINUOUS
 62
       3
100
AcDbLine
 10
121.52984777
 20
9.1824788
 30
0.0
 11
121.44508928
 21
9.30213451
 31
0.0
  0
LINE
  5
6A2
100
AcDbEntity
  8
レイヤー_1
  6
CONTINUOUS
 62
       3
100
AcDbLine
 10
121.44508928
 20
9.30213451
 30
0.0
 11
121.3501774
 21
9.41159286
 31
0.0
  0
LINE
  5
6A3
100
AcDbEntity
  8
レイヤー_1
  6
CONTINUOUS
 62
       3
100
AcDbLine
 10
121.3501774
 20
9.41159286
 30
0.0
 11
121.24605267
 21
9.51046548
 31
0.0
  0
LINE
  5
6A4
100
AcDbEntity
  8
レイヤー_1
  6
CONTINUOUS
 62
       3
100
AcDbLine
 10
121.24605267
 20
9.51046548
 30
0.0
 11
121.13365565
 21
9.59836396
 31
0.0
  0
LINE
  5
6A5
100
AcDbEntity
  8
レイヤー_1
  6
CONTINUOUS
 62
       3
100
AcDbLine
 10
121.13365565
 20
9.59836396
 30
0.0
 11
121.01392689
 21
9.67489993
 31
0.0
  0
LINE
  5
6A6
100
AcDbEntity
  8
レイヤー_1
  6
CONTINUOUS
 62
       3
100
AcDbLine
 10
121.01392689
 20
9.67489993
 30
0.0
 11
120.88780693
 21
9.73968501
 31
0.0
  0
LINE
  5
6A7
100
AcDbEntity
  8
レイヤー_1
  6
CONTINUOUS
 62
       3
100
AcDbLine
 10
120.88780693
 20
9.73968501
 30
0.0
 11
120.75623635
 21
9.7923308
 31
0.0
  0
LINE
  5
6A8
100
AcDbEntity
  8
レイヤー_1
  6
CONTINUOUS
 62
       3
100
AcDbLine
 10
120.75623635
 20
9.7923308
 30
0.0
 11
120.62015569
 21
9.83244894
 31
0.0
  0
LINE
  5
6A9
100
AcDbEntity
  8
レイヤー_1
  6
CONTINUOUS
 62
       3
100
AcDbLine
 10
120.62015569
 20
9.83244894
 30
0.0
 11
120.4805055
 21
9.859651
 31
0.0
  0
LINE
  5
6AA
100
AcDbEntity
  8
レイヤー_1
  6
CONTINUOUS
 62
       3
100
AcDbLine
 10
120.4805055
 20
9.859651
 30
0.0
 11
120.33822634
 21
9.87354866
 31
0.0
  0
LINE
  5
6AB
100
AcDbEntity
  8
レイヤー_1
  6
CONTINUOUS
 62
       3
100
AcDbLine
 10
120.33822634
 20
9.87354866
 30
0.0
 11
120.19425875
 21
9.87375347
 31
0.0
  0
LINE
  5
6AC
100
AcDbEntity
  8
レイヤー_1
  6
CONTINUOUS
 62
       3
100
AcDbLine
 10
120.19425875
 20
9.87375347
 30
0.0
 11
120.04954331
 21
9.85987709
 31
0.0
  0
LINE
  5
6AD
100
AcDbEntity
  8
レイヤー_1
  6
CONTINUOUS
 62
       3
100
AcDbLine
 10
120.04954331
 20
9.85987709
 30
0.0
 11
119.90502054
 21
9.83153111
 31
0.0
  0
LINE
  5
6AE
100
AcDbEntity
  8
レイヤー_1
  6
CONTINUOUS
 62
       3
100
AcDbLine
 10
119.90502054
 20
9.83153111
 30
0.0
 11
119.76163102
 21
9.78832719
 31
0.0
  0
LINE
  5
6AF
100
AcDbEntity
  8
レイヤー_1
  6
CONTINUOUS
 62
       3
100
AcDbLine
 10
119.76163102
 20
9.78832719
 30
0.0
 11
119.62128232
 21
9.73016626
 31
0.0
  0
LINE
  5
6B0
100
AcDbEntity
  8
レイヤー_1
  6
CONTINUOUS
 62
       3
100
AcDbLine
 10
119.62128232
 20
9.73016626
 30
0.0
 11
119.4895567
 21
9.65937038
 31
0.0
  0
LINE
  5
6B1
100
AcDbEntity
  8
レイヤー_1
  6
CONTINUOUS
 62
       3
100
AcDbLine
 10
119.4895567
 20
9.65937038
 30
0.0
 11
119.36751633
 21
9.57727028
 31
0.0
  0
LINE
  5
6B2
100
AcDbEntity
  8
レイヤー_1
  6
CONTINUOUS
 62
       3
100
AcDbLine
 10
119.36751633
 20
9.57727028
 30
0.0
 11
119.25555137
 21
9.48480345
 31
0.0
  0
LINE
  5
6B3
100
AcDbEntity
  8
レイヤー_1
  6
CONTINUOUS
 62
       3
100
AcDbLine
 10
119.25555137
 20
9.48480345
 30
0.0
 11
119.15405202
 21
9.38290746
 31
0.0
  0
LINE
  5
6B4
100
AcDbEntity
  8
レイヤー_1
  6
CONTINUOUS
 62
       3
100
AcDbLine
 10
119.15405202
 20
9.38290746
 30
0.0
 11
119.06340849
 21
9.27251985
 31
0.0
  0
LINE
  5
6B5
100
AcDbEntity
  8
レイヤー_1
  6
CONTINUOUS
 62
       3
100
AcDbLine
 10
119.06340849
 20
9.27251985
 30
0.0
 11
118.98401093
 21
9.15457817
 31
0.0
  0
LINE
  5
6B6
100
AcDbEntity
  8
レイヤー_1
  6
CONTINUOUS
 62
       3
100
AcDbLine
 10
118.98401093
 20
9.15457817
 30
0.0
 11
118.91624959
 21
9.03001992
 31
0.0
  0
LINE
  5
6B7
100
AcDbEntity
  8
レイヤー_1
  6
CONTINUOUS
 62
       3
100
AcDbLine
 10
118.91624959
 20
9.03001992
 30
0.0
 11
118.86051461
 21
8.89978267
 31
0.0
  0
LINE
  5
6B8
100
AcDbEntity
  8
レイヤー_1
  6
CONTINUOUS
 62
       3
100
AcDbLine
 10
118.86051461
 20
8.89978267
 30
0.0
 11
118.8171962
 21
8.76480399
 31
0.0
  0
LINE
  5
6B9
100
AcDbEntity
  8
レイヤー_1
  6
CONTINUOUS
 62
       3
100
AcDbLine
 10
118.8171962
 20
8.76480399
 30
0.0
 11
118.78668454
 21
8.6260214
 31
0.0
  0
LINE
  5
6BA
100
AcDbEntity
  8
レイヤー_1
  6
CONTINUOUS
 62
       3
100
AcDbLine
 10
118.78668454
 20
8.6260214
 30
0.0
 11
118.76936986
 21
8.48437243
 31
0.0
  0
LINE
  5
6BB
100
AcDbEntity
  8
レイヤー_1
  6
CONTINUOUS
 62
       3
100
AcDbLine
 10
118.76936986
 20
8.48437243
 30
0.0
 11
118.76564231
 21
8.34079462
 31
0.0
  0
LINE
  5
6BC
100
AcDbEntity
  8
レイヤー_1
  6
CONTINUOUS
 62
       3
100
AcDbLine
 10
118.76564231
 20
8.34079462
 30
0.0
 11
118.77589209
 21
8.19622554
 31
0.0
  0
LINE
  5
6BD
100
AcDbEntity
  8
レイヤー_1
  6
CONTINUOUS
 62
       3
100
AcDbLine
 10
118.77589209
 20
8.19622554
 30
0.0
 11
118.80050939
 21
8.05160271
 31
0.0
  0
LINE
  5
6BE
100
AcDbEntity
  8
レイヤー_1
  6
CONTINUOUS
 62
       3
100
AcDbLine
 10
118.80050939
 20
8.05160271
 30
0.0
 11
118.83988442
 21
7.90786369
 31
0.0
  0
LINE
  5
6BF
100
AcDbEntity
  8
レイヤー_1
  6
CONTINUOUS
 62
       3
100
AcDbLine
 10
118.83988442
 20
7.90786369
 30
0.0
 11
118.89439777
 21
7.76621
 31
0.0
  0
LINE
  5
6C0
100
AcDbEntity
  8
レイヤー_1
  6
CONTINUOUS
 62
       3
100
AcDbLine
 10
118.89439777
 20
7.76621
 30
0.0
 11
118.96229344
 21
7.63205188
 31
0.0
  0
LINE
  5
6C1
100
AcDbEntity
  8
レイヤー_1
  6
CONTINUOUS
 62
       3
100
AcDbLine
 10
118.96229344
 20
7.63205188
 30
0.0
 11
119.0417187
 21
7.50749123
 31
0.0
  0
LINE
  5
6C2
100
AcDbEntity
  8
レイヤー_1
  6
CONTINUOUS
 62
       3
100
AcDbLine
 10
119.0417187
 20
7.50749123
 30
0.0
 11
119.13173664
 21
7.39291825
 31
0.0
  0
LINE
  5
6C3
100
AcDbEntity
  8
レイヤー_1
  6
CONTINUOUS
 62
       3
100
AcDbLine
 10
119.13173664
 20
7.39291825
 30
0.0
 11
119.2314103
 21
7.28872311
 31
0.0
  0
LINE
  5
6C4
100
AcDbEntity
  8
レイヤー_1
  6
CONTINUOUS
 62
       3
100
AcDbLine
 10
119.2314103
 20
7.28872311
 30
0.0
 11
119.33980274
 21
7.19529602
 31
0.0
  0
LINE
  5
6C5
100
AcDbEntity
  8
レイヤー_1
  6
CONTINUOUS
 62
       3
100
AcDbLine
 10
119.33980274
 20
7.19529602
 30
0.0
 11
119.45597703
 21
7.11302714
 31
0.0
  0
LINE
  5
6C6
100
AcDbEntity
  8
レイヤー_1
  6
CONTINUOUS
 62
       3
100
AcDbLine
 10
119.45597703
 20
7.11302714
 30
0.0
 11
119.57899623
 21
7.04230672
 31
0.0
  0
LINE
  5
6C7
100
AcDbEntity
  8
レイヤー_1
  6
CONTINUOUS
 62
       3
100
AcDbLine
 10
119.57899623
 20
7.04230672
 30
0.0
 11
119.70792338
 21
6.98352489
 31
0.0
  0
LINE
  5
6C8
100
AcDbEntity
  8
レイヤー_1
  6
CONTINUOUS
 62
       3
100
AcDbLine
 10
119.70792338
 20
6.98352489
 30
0.0
 11
119.84182157
 21
6.93707188
 31
0.0
  0
LINE
  5
6C9
100
AcDbEntity
  8
レイヤー_1
  6
CONTINUOUS
 62
       3
100
AcDbLine
 10
119.84182157
 20
6.93707188
 30
0.0
 11
119.97975383
 21
6.90333785
 31
0.0
  0
LINE
  5
6CA
100
AcDbEntity
  8
レイヤー_1
  6
CONTINUOUS
 62
       3
100
AcDbLine
 10
119.97975383
 20
6.90333785
 30
0.0
 11
120.12078324
 21
6.88271302
 31
0.0
  0
LINE
  5
6CB
100
AcDbEntity
  8
レイヤー_1
  6
CONTINUOUS
 62
       3
100
AcDbLine
 10
120.12078324
 20
6.88271302
 30
0.0
 11
120.26397285
 21
6.87558759
 31
0.0
  0
LINE
  5
6CC
100
AcDbEntity
  8
レイヤー_1
  6
CONTINUOUS
 62
       3
100
AcDbLine
 10
120.26397285
 20
6.87558759
 30
0.0
 11
120.40838572
 21
6.8823517
 31
0.0
  0
LINE
  5
6CD
100
AcDbEntity
  8
レイヤー_1
  6
CONTINUOUS
 62
       3
100
AcDbLine
 10
120.40838572
 20
6.8823517
 30
0.0
 11
120.55308491
 21
6.90339559
 31
0.0
  0
LINE
  5
6CE
100
AcDbEntity
  8
レイヤー_1
  6
CONTINUOUS
 62
       3
100
AcDbLine
 10
120.55308491
 20
6.90339559
 30
0.0
 11
120.69713348
 21
6.93910943
 31
0.0
  0
LINE
  5
6CF
100
AcDbEntity
  8
レイヤー_1
  6
CONTINUOUS
 62
       3
100
AcDbLine
 10
120.69713348
 20
6.93910943
 30
0.0
 11
120.83959448
 21
6.98988342
 31
0.0
  0
LINE
  5
6D0
100
AcDbEntity
  8
レイヤー_1
  6
CONTINUOUS
 62
       3
100
AcDbLine
 10
116.32790437
 20
12.62504071
 30
0.0
 11
115.2215188
 21
11.89190289
 31
0.0
  0
LINE
  5
6D1
100
AcDbEntity
  8
レイヤー_1
  6
CONTINUOUS
 62
       3
100
AcDbLine
 10
122.68961077
 20
-3.82427131
 30
0.0
 11
122.29747839
 21
-3.73565757
 31
0.0
  0
LINE
  5
6D2
100
AcDbEntity
  8
レイヤー_1
  6
CONTINUOUS
 62
       3
100
AcDbLine
 10
122.29747839
 20
-3.73565757
 30
0.0
 11
121.91918687
 21
-3.61355424
 31
0.0
  0
LINE
  5
6D3
100
AcDbEntity
  8
レイヤー_1
  6
CONTINUOUS
 62
       3
100
AcDbLine
 10
121.91918687
 20
-3.61355424
 30
0.0
 11
121.55637399
 21
-3.45962776
 31
0.0
  0
LINE
  5
6D4
100
AcDbEntity
  8
レイヤー_1
  6
CONTINUOUS
 62
       3
100
AcDbLine
 10
121.55637399
 20
-3.45962776
 30
0.0
 11
121.21067755
 21
-3.27554454
 31
0.0
  0
LINE
  5
6D5
100
AcDbEntity
  8
レイヤー_1
  6
CONTINUOUS
 62
       3
100
AcDbLine
 10
121.21067755
 20
-3.27554454
 30
0.0
 11
120.8837353
 21
-3.06297102
 31
0.0
  0
LINE
  5
6D6
100
AcDbEntity
  8
レイヤー_1
  6
CONTINUOUS
 62
       3
100
AcDbLine
 10
120.8837353
 20
-3.06297102
 30
0.0
 11
120.57718507
 21
-2.82357359
 31
0.0
  0
LINE
  5
6D7
100
AcDbEntity
  8
レイヤー_1
  6
CONTINUOUS
 62
       3
100
AcDbLine
 10
120.57718507
 20
-2.82357359
 30
0.0
 11
120.29266459
 21
-2.5590187
 31
0.0
  0
LINE
  5
6D8
100
AcDbEntity
  8
レイヤー_1
  6
CONTINUOUS
 62
       3
100
AcDbLine
 10
120.29266459
 20
-2.5590187
 30
0.0
 11
120.03181168
 21
-2.27097278
 31
0.0
  0
LINE
  5
6D9
100
AcDbEntity
  8
レイヤー_1
  6
CONTINUOUS
 62
       3
100
AcDbLine
 10
120.03181168
 20
-2.27097278
 30
0.0
 11
119.79626411
 21
-1.96110224
 31
0.0
  0
LINE
  5
6DA
100
AcDbEntity
  8
レイヤー_1
  6
CONTINUOUS
 62
       3
100
AcDbLine
 10
119.79626411
 20
-1.96110224
 30
0.0
 11
119.58765965
 21
-1.6310735
 31
0.0
  0
LINE
  5
6DB
100
AcDbEntity
  8
レイヤー_1
  6
CONTINUOUS
 62
       3
100
AcDbLine
 10
119.58765965
 20
-1.6310735
 30
0.0
 11
119.4076361
 21
-1.28255299
 31
0.0
  0
LINE
  5
6DC
100
AcDbEntity
  8
レイヤー_1
  6
CONTINUOUS
 62
       3
100
AcDbLine
 10
119.4076361
 20
-1.28255299
 30
0.0
 11
119.25783122
 21
-0.91720714
 31
0.0
  0
LINE
  5
6DD
100
AcDbEntity
  8
レイヤー_1
  6
CONTINUOUS
 62
       3
100
AcDbLine
 10
119.25783122
 20
-0.91720714
 30
0.0
 11
119.13988281
 21
-0.53670237
 31
0.0
  0
LINE
  5
6DE
100
AcDbEntity
  8
レイヤー_1
  6
CONTINUOUS
 62
       3
100
AcDbLine
 10
119.13988281
 20
-0.53670237
 30
0.0
 11
119.05542866
 21
-0.1427051
 31
0.0
  0
LINE
  5
6DF
100
AcDbEntity
  8
レイヤー_1
  6
CONTINUOUS
 62
       3
100
AcDbLine
 10
119.05542866
 20
-0.1427051
 30
0.0
 11
119.00610653
 21
0.26311824
 31
0.0
  0
LINE
  5
6E0
100
AcDbEntity
  8
レイヤー_1
  6
CONTINUOUS
 62
       3
100
AcDbLine
 10
119.00610653
 20
0.26311824
 30
0.0
 11
118.99369115
 21
0.68743094
 31
0.0
  0
LINE
  5
6E1
100
AcDbEntity
  8
レイヤー_1
  6
CONTINUOUS
 62
       3
100
AcDbLine
 10
118.99369115
 20
0.68743094
 30
0.0
 11
119.02521819
 21
1.1500363
 31
0.0
  0
LINE
  5
6E2
100
AcDbEntity
  8
レイヤー_1
  6
CONTINUOUS
 62
       3
100
AcDbLine
 10
119.02521819
 20
1.1500363
 30
0.0
 11
119.10223642
 21
1.59867299
 31
0.0
  0
LINE
  5
6E3
100
AcDbEntity
  8
レイヤー_1
  6
CONTINUOUS
 62
       3
100
AcDbLine
 10
119.10223642
 20
1.59867299
 30
0.0
 11
119.22241155
 21
2.03100608
 31
0.0
  0
LINE
  5
6E4
100
AcDbEntity
  8
レイヤー_1
  6
CONTINUOUS
 62
       3
100
AcDbLine
 10
119.22241155
 20
2.03100608
 30
0.0
 11
119.38340929
 21
2.44470061
 31
0.0
  0
LINE
  5
6E5
100
AcDbEntity
  8
レイヤー_1
  6
CONTINUOUS
 62
       3
100
AcDbLine
 10
119.38340929
 20
2.44470061
 30
0.0
 11
119.58289534
 21
2.83742162
 31
0.0
  0
LINE
  5
6E6
100
AcDbEntity
  8
レイヤー_1
  6
CONTINUOUS
 62
       3
100
AcDbLine
 10
119.58289534
 20
2.83742162
 30
0.0
 11
119.8185354
 21
3.2068342
 31
0.0
  0
LINE
  5
6E7
100
AcDbEntity
  8
レイヤー_1
  6
CONTINUOUS
 62
       3
100
AcDbLine
 10
119.8185354
 20
3.2068342
 30
0.0
 11
120.08799519
 21
3.55060337
 31
0.0
  0
LINE
  5
6E8
100
AcDbEntity
  8
レイヤー_1
  6
CONTINUOUS
 62
       3
100
AcDbLine
 10
120.08799519
 20
3.55060337
 30
0.0
 11
120.38894039
 21
3.8663942
 31
0.0
  0
LINE
  5
6E9
100
AcDbEntity
  8
レイヤー_1
  6
CONTINUOUS
 62
       3
100
AcDbLine
 10
120.38894039
 20
3.8663942
 30
0.0
 11
120.71903674
 21
4.15187173
 31
0.0
  0
LINE
  5
6EA
100
AcDbEntity
  8
レイヤー_1
  6
CONTINUOUS
 62
       3
100
AcDbLine
 10
120.71903674
 20
4.15187173
 30
0.0
 11
121.07594992
 21
4.40470105
 31
0.0
  0
LINE
  5
6EB
100
AcDbEntity
  8
レイヤー_1
  6
CONTINUOUS
 62
       3
100
AcDbLine
 10
121.07594992
 20
4.40470105
 30
0.0
 11
121.45734565
 21
4.62254718
 31
0.0
  0
LINE
  5
6EC
100
AcDbEntity
  8
レイヤー_1
  6
CONTINUOUS
 62
       3
100
AcDbLine
 10
121.45734565
 20
4.62254718
 30
0.0
 11
121.86088961
 21
4.80307519
 31
0.0
  0
LINE
  5
6ED
100
AcDbEntity
  8
レイヤー_1
  6
CONTINUOUS
 62
       3
100
AcDbLine
 10
121.86088961
 20
4.80307519
 30
0.0
 11
122.28424753
 21
4.94395011
 31
0.0
  0
LINE
  5
6EE
100
AcDbEntity
  8
レイヤー_1
  6
CONTINUOUS
 62
       3
100
AcDbLine
 10
122.28424753
 20
4.94395011
 30
0.0
 11
122.72508511
 21
5.04283702
 31
0.0
  0
LINE
  5
6EF
100
AcDbEntity
  8
レイヤー_1
  6
CONTINUOUS
 62
       3
100
AcDbLine
 10
122.72508511
 20
5.04283702
 30
0.0
 11
123.18106804
 21
5.09740096
 31
0.0
  0
LINE
  5
6F0
100
AcDbEntity
  8
レイヤー_1
  6
CONTINUOUS
 62
       3
100
AcDbLine
 10
123.18106804
 20
5.09740096
 30
0.0
 11
123.64861037
 21
5.10533584
 31
0.0
  0
LINE
  5
6F1
100
AcDbEntity
  8
レイヤー_1
  6
CONTINUOUS
 62
       3
100
AcDbLine
 10
123.64861037
 20
5.10533584
 30
0.0
 11
124.10910686
 21
5.06606509
 31
0.0
  0
LINE
  5
6F2
100
AcDbEntity
  8
レイヤー_1
  6
CONTINUOUS
 62
       3
100
AcDbLine
 10
124.10910686
 20
5.06606509
 30
0.0
 11
124.55521895
 21
4.98169307
 31
0.0
  0
LINE
  5
6F3
100
AcDbEntity
  8
レイヤー_1
  6
CONTINUOUS
 62
       3
100
AcDbLine
 10
124.55521895
 20
4.98169307
 30
0.0
 11
124.98461494
 21
4.85455469
 31
0.0
  0
LINE
  5
6F4
100
AcDbEntity
  8
レイヤー_1
  6
CONTINUOUS
 62
       3
100
AcDbLine
 10
124.98461494
 20
4.85455469
 30
0.0
 11
125.39496314
 21
4.68698494
 31
0.0
  0
LINE
  5
6F5
100
AcDbEntity
  8
レイヤー_1
  6
CONTINUOUS
 62
       3
100
AcDbLine
 10
125.39496314
 20
4.68698494
 30
0.0
 11
125.78393188
 21
4.48131875
 31
0.0
  0
LINE
  5
6F6
100
AcDbEntity
  8
レイヤー_1
  6
CONTINUOUS
 62
       3
100
AcDbLine
 10
125.78393188
 20
4.48131875
 30
0.0
 11
126.14918943
 21
4.23989107
 31
0.0
  0
LINE
  5
6F7
100
AcDbEntity
  8
レイヤー_1
  6
CONTINUOUS
 62
       3
100
AcDbLine
 10
126.14918943
 20
4.23989107
 30
0.0
 11
126.48840413
 21
3.96503683
 31
0.0
  0
LINE
  5
6F8
100
AcDbEntity
  8
レイヤー_1
  6
CONTINUOUS
 62
       3
100
AcDbLine
 10
126.48840413
 20
3.96503683
 30
0.0
 11
126.79924428
 21
3.65909099
 31
0.0
  0
LINE
  5
6F9
100
AcDbEntity
  8
レイヤー_1
  6
CONTINUOUS
 62
       3
100
AcDbLine
 10
126.79924428
 20
3.65909099
 30
0.0
 11
127.07937818
 21
3.32438848
 31
0.0
  0
LINE
  5
6FA
100
AcDbEntity
  8
レイヤー_1
  6
CONTINUOUS
 62
       3
100
AcDbLine
 10
127.07937818
 20
3.32438848
 30
0.0
 11
127.32647414
 21
2.96326428
 31
0.0
  0
LINE
  5
6FB
100
AcDbEntity
  8
レイヤー_1
  6
CONTINUOUS
 62
       3
100
AcDbLine
 10
127.32647414
 20
2.96326428
 30
0.0
 11
127.53820049
 21
2.57805331
 31
0.0
  0
LINE
  5
6FC
100
AcDbEntity
  8
レイヤー_1
  6
CONTINUOUS
 62
       3
100
AcDbLine
 10
127.53820049
 20
2.57805331
 30
0.0
 11
127.71222552
 21
2.17109052
 31
0.0
  0
LINE
  5
6FD
100
AcDbEntity
  8
レイヤー_1
  6
CONTINUOUS
 62
       3
100
AcDbLine
 10
127.71222552
 20
2.17109052
 30
0.0
 11
127.84621754
 21
1.74471084
 31
0.0
  0
LINE
  5
6FE
100
AcDbEntity
  8
レイヤー_1
  6
CONTINUOUS
 62
       3
100
AcDbLine
 10
127.84621754
 20
1.74471084
 30
0.0
 11
127.93784485
 21
1.30124925
 31
0.0
  0
LINE
  5
6FF
100
AcDbEntity
  8
レイヤー_1
  6
CONTINUOUS
 62
       3
100
AcDbLine
 10
127.93784485
 20
1.30124925
 30
0.0
 11
127.98477578
 21
0.84304068
 31
0.0
  0
LINE
  5
700
100
AcDbEntity
  8
レイヤー_1
  6
CONTINUOUS
 62
       3
100
AcDbLine
 10
127.98477578
 20
0.84304068
 30
0.0
 11
127.98602381
 21
0.40081171
 31
0.0
  0
LINE
  5
701
100
AcDbEntity
  8
レイヤー_1
  6
CONTINUOUS
 62
       3
100
AcDbLine
 10
127.98602381
 20
0.40081171
 30
0.0
 11
127.94881542
 21
-0.00844077
 31
0.0
  0
LINE
  5
702
100
AcDbEntity
  8
レイヤー_1
  6
CONTINUOUS
 62
       3
100
AcDbLine
 10
127.94881542
 20
-0.00844077
 30
0.0
 11
127.87596444
 21
-0.40644326
 31
0.0
  0
LINE
  5
703
100
AcDbEntity
  8
レイヤー_1
  6
CONTINUOUS
 62
       3
100
AcDbLine
 10
127.87596444
 20
-0.40644326
 30
0.0
 11
127.76910476
 21
-0.79152935
 31
0.0
  0
LINE
  5
704
100
AcDbEntity
  8
レイヤー_1
  6
CONTINUOUS
 62
       3
100
AcDbLine
 10
127.76910476
 20
-0.79152935
 30
0.0
 11
127.62987023
 21
-1.16203259
 31
0.0
  0
LINE
  5
705
100
AcDbEntity
  8
レイヤー_1
  6
CONTINUOUS
 62
       3
100
AcDbLine
 10
127.62987023
 20
-1.16203259
 30
0.0
 11
127.45989474
 21
-1.51628658
 31
0.0
  0
LINE
  5
706
100
AcDbEntity
  8
レイヤー_1
  6
CONTINUOUS
 62
       3
100
AcDbLine
 10
127.45989474
 20
-1.51628658
 30
0.0
 11
127.26081217
 21
-1.85262489
 31
0.0
  0
LINE
  5
707
100
AcDbEntity
  8
レイヤー_1
  6
CONTINUOUS
 62
       3
100
AcDbLine
 10
127.26081217
 20
-1.85262489
 30
0.0
 11
127.0342564
 21
-2.16938111
 31
0.0
  0
LINE
  5
708
100
AcDbEntity
  8
レイヤー_1
  6
CONTINUOUS
 62
       3
100
AcDbLine
 10
127.0342564
 20
-2.16938111
 30
0.0
 11
126.78186129
 21
-2.46488877
 31
0.0
  0
LINE
  5
709
100
AcDbEntity
  8
レイヤー_1
  6
CONTINUOUS
 62
       3
100
AcDbLine
 10
126.78186129
 20
-2.46488877
 30
0.0
 11
126.50526071
 21
-2.73748149
 31
0.0
  0
LINE
  5
70A
100
AcDbEntity
  8
レイヤー_1
  6
CONTINUOUS
 62
       3
100
AcDbLine
 10
126.50526071
 20
-2.73748149
 30
0.0
 11
126.20608858
 21
-2.98549283
 31
0.0
  0
LINE
  5
70B
100
AcDbEntity
  8
レイヤー_1
  6
CONTINUOUS
 62
       3
100
AcDbLine
 10
126.20608858
 20
-2.98549283
 30
0.0
 11
125.88597874
 21
-3.20725638
 31
0.0
  0
LINE
  5
70C
100
AcDbEntity
  8
レイヤー_1
  6
CONTINUOUS
 62
       3
100
AcDbLine
 10
125.88597874
 20
-3.20725638
 30
0.0
 11
125.54656507
 21
-3.4011057
 31
0.0
  0
LINE
  5
70D
100
AcDbEntity
  8
レイヤー_1
  6
CONTINUOUS
 62
       3
100
AcDbLine
 10
125.54656507
 20
-3.4011057
 30
0.0
 11
125.18948145
 21
-3.56537437
 31
0.0
  0
LINE
  5
70E
100
AcDbEntity
  8
レイヤー_1
  6
CONTINUOUS
 62
       3
100
AcDbLine
 10
125.18948145
 20
-3.56537437
 30
0.0
 11
124.81636175
 21
-3.69839598
 31
0.0
  0
LINE
  5
70F
100
AcDbEntity
  8
レイヤー_1
  6
CONTINUOUS
 62
       3
100
AcDbLine
 10
124.81636175
 20
-3.69839598
 30
0.0
 11
124.42883987
 21
-3.79850408
 31
0.0
  0
LINE
  5
710
100
AcDbEntity
  8
レイヤー_1
  6
CONTINUOUS
 62
       3
100
AcDbLine
 10
124.42883987
 20
-3.79850408
 30
0.0
 11
124.29486241
 21
-3.88013524
 31
0.0
  0
LINE
  5
711
100
AcDbEntity
  8
レイヤー_1
  6
CONTINUOUS
 62
       3
100
AcDbLine
 10
124.29486241
 20
-3.88013524
 30
0.0
 11
124.28515333
 21
-3.96209259
 31
0.0
  0
LINE
  5
712
100
AcDbEntity
  8
レイヤー_1
  6
CONTINUOUS
 62
       3
100
AcDbLine
 10
124.28515333
 20
-3.96209259
 30
0.0
 11
124.26755041
 21
-4.04145429
 31
0.0
  0
LINE
  5
713
100
AcDbEntity
  8
レイヤー_1
  6
CONTINUOUS
 62
       3
100
AcDbLine
 10
124.26755041
 20
-4.04145429
 30
0.0
 11
124.2424625
 21
-4.11778226
 31
0.0
  0
LINE
  5
714
100
AcDbEntity
  8
レイヤー_1
  6
CONTINUOUS
 62
       3
100
AcDbLine
 10
124.2424625
 20
-4.11778226
 30
0.0
 11
124.21029835
 21
-4.19063839
 31
0.0
  0
LINE
  5
715
100
AcDbEntity
  8
レイヤー_1
  6
CONTINUOUS
 62
       3
100
AcDbLine
 10
124.21029835
 20
-4.19063839
 30
0.0
 11
124.17146678
 21
-4.25958462
 31
0.0
  0
LINE
  5
716
100
AcDbEntity
  8
レイヤー_1
  6
CONTINUOUS
 62
       3
100
AcDbLine
 10
124.17146678
 20
-4.25958462
 30
0.0
 11
124.12637656
 21
-4.32418284
 31
0.0
  0
LINE
  5
717
100
AcDbEntity
  8
レイヤー_1
  6
CONTINUOUS
 62
       3
100
AcDbLine
 10
124.12637656
 20
-4.32418284
 30
0.0
 11
124.07543651
 21
-4.38399499
 31
0.0
  0
LINE
  5
718
100
AcDbEntity
  8
レイヤー_1
  6
CONTINUOUS
 62
       3
100
AcDbLine
 10
124.07543651
 20
-4.38399499
 30
0.0
 11
124.0190554
 21
-4.43858296
 31
0.0
  0
LINE
  5
719
100
AcDbEntity
  8
レイヤー_1
  6
CONTINUOUS
 62
       3
100
AcDbLine
 10
124.0190554
 20
-4.43858296
 30
0.0
 11
123.95764205
 21
-4.48750868
 31
0.0
  0
LINE
  5
71A
100
AcDbEntity
  8
レイヤー_1
  6
CONTINUOUS
 62
       3
100
AcDbLine
 10
123.95764205
 20
-4.48750868
 30
0.0
 11
123.89160524
 21
-4.53033404
 31
0.0
  0
LINE
  5
71B
100
AcDbEntity
  8
レイヤー_1
  6
CONTINUOUS
 62
       3
100
AcDbLine
 10
123.89160524
 20
-4.53033404
 30
0.0
 11
123.82135377
 21
-4.56662095
 31
0.0
  0
LINE
  5
71C
100
AcDbEntity
  8
レイヤー_1
  6
CONTINUOUS
 62
       3
100
AcDbLine
 10
123.82135377
 20
-4.56662095
 30
0.0
 11
123.74729642
 21
-4.59593137
 31
0.0
  0
LINE
  5
71D
100
AcDbEntity
  8
レイヤー_1
  6
CONTINUOUS
 62
       3
100
AcDbLine
 10
123.74729642
 20
-4.59593137
 30
0.0
 11
123.669842
 21
-4.61782716
 31
0.0
  0
LINE
  5
71E
100
AcDbEntity
  8
レイヤー_1
  6
CONTINUOUS
 62
       3
100
AcDbLine
 10
123.669842
 20
-4.61782716
 30
0.0
 11
123.58939931
 21
-4.63187026
 31
0.0
  0
LINE
  5
71F
100
AcDbEntity
  8
レイヤー_1
  6
CONTINUOUS
 62
       3
100
AcDbLine
 10
123.58939931
 20
-4.63187026
 30
0.0
 11
123.50637713
 21
-4.63762257
 31
0.0
  0
LINE
  5
720
100
AcDbEntity
  8
レイヤー_1
  6
CONTINUOUS
 62
       3
100
AcDbLine
 10
123.50637713
 20
-4.63762257
 30
0.0
 11
123.42278023
 21
-4.63473731
 31
0.0
  0
LINE
  5
721
100
AcDbEntity
  8
レイヤー_1
  6
CONTINUOUS
 62
       3
100
AcDbLine
 10
123.42278023
 20
-4.63473731
 30
0.0
 11
123.34159425
 21
-4.62343298
 31
0.0
  0
LINE
  5
722
100
AcDbEntity
  8
レイヤー_1
  6
CONTINUOUS
 62
       3
100
AcDbLine
 10
123.34159425
 20
-4.62343298
 30
0.0
 11
123.26325792
 21
-4.60414337
 31
0.0
  0
LINE
  5
723
100
AcDbEntity
  8
レイヤー_1
  6
CONTINUOUS
 62
       3
100
AcDbLine
 10
123.26325792
 20
-4.60414337
 30
0.0
 11
123.18817869
 21
-4.57730268
 31
0.0
  0
LINE
  5
724
100
AcDbEntity
  8
レイヤー_1
  6
CONTINUOUS
 62
       3
100
AcDbLine
 10
123.18817869
 20
-4.57730268
 30
0.0
 11
123.11676409
 21
-4.54334507
 31
0.0
  0
LINE
  5
725
100
AcDbEntity
  8
レイヤー_1
  6
CONTINUOUS
 62
       3
100
AcDbLine
 10
123.11676409
 20
-4.54334507
 30
0.0
 11
123.04942158
 21
-4.50270475
 31
0.0
  0
LINE
  5
726
100
AcDbEntity
  8
レイヤー_1
  6
CONTINUOUS
 62
       3
100
AcDbLine
 10
123.04942158
 20
-4.50270475
 30
0.0
 11
122.98655868
 21
-4.45581586
 31
0.0
  0
LINE
  5
727
100
AcDbEntity
  8
レイヤー_1
  6
CONTINUOUS
 62
       3
100
AcDbLine
 10
122.98655868
 20
-4.45581586
 30
0.0
 11
122.92858287
 21
-4.40311262
 31
0.0
  0
LINE
  5
728
100
AcDbEntity
  8
レイヤー_1
  6
CONTINUOUS
 62
       3
100
AcDbLine
 10
122.92858287
 20
-4.40311262
 30
0.0
 11
122.87590164
 21
-4.34502919
 31
0.0
  0
LINE
  5
729
100
AcDbEntity
  8
レイヤー_1
  6
CONTINUOUS
 62
       3
100
AcDbLine
 10
122.87590164
 20
-4.34502919
 30
0.0
 11
122.82892248
 21
-4.28199976
 31
0.0
  0
LINE
  5
72A
100
AcDbEntity
  8
レイヤー_1
  6
CONTINUOUS
 62
       3
100
AcDbLine
 10
122.82892248
 20
-4.28199976
 30
0.0
 11
122.78805289
 21
-4.21445851
 31
0.0
  0
LINE
  5
72B
100
AcDbEntity
  8
レイヤー_1
  6
CONTINUOUS
 62
       3
100
AcDbLine
 10
122.78805289
 20
-4.21445851
 30
0.0
 11
122.75370038
 21
-4.14283962
 31
0.0
  0
LINE
  5
72C
100
AcDbEntity
  8
レイヤー_1
  6
CONTINUOUS
 62
       3
100
AcDbLine
 10
122.75370038
 20
-4.14283962
 30
0.0
 11
122.72627241
 21
-4.06757728
 31
0.0
  0
LINE
  5
72D
100
AcDbEntity
  8
レイヤー_1
  6
CONTINUOUS
 62
       3
100
AcDbLine
 10
122.72627241
 20
-4.06757728
 30
0.0
 11
122.70617649
 21
-3.98910567
 31
0.0
  0
LINE
  5
72E
100
AcDbEntity
  8
レイヤー_1
  6
CONTINUOUS
 62
       3
100
AcDbLine
 10
122.70617649
 20
-3.98910567
 30
0.0
 11
122.69382012
 21
-3.90785895
 31
0.0
  0
LINE
  5
72F
100
AcDbEntity
  8
レイヤー_1
  6
CONTINUOUS
 62
       3
100
AcDbLine
 10
122.69382012
 20
-3.90785895
 30
0.0
 11
122.68961077
 21
-3.82427131
 31
0.0
  0
LINE
  5
730
100
AcDbEntity
  8
レイヤー_1
  6
CONTINUOUS
 62
       3
100
AcDbLine
 10
125.23639761
 20
-39.38196308
 30
0.0
 11
125.23639761
 21
-17.3871816
 31
0.0
  0
LINE
  5
731
100
AcDbEntity
  8
レイヤー_1
  6
CONTINUOUS
 62
       3
100
AcDbLine
 10
125.23639761
 20
-17.3871816
 30
0.0
 11
121.73790314
 21
-17.3871816
 31
0.0
  0
LINE
  5
732
100
AcDbEntity
  8
レイヤー_1
  6
CONTINUOUS
 62
       3
100
AcDbLine
 10
121.73790314
 20
-17.3871816
 30
0.0
 11
121.73790314
 21
-39.38196308
 31
0.0
  0
LINE
  5
733
100
AcDbEntity
  8
レイヤー_1
  6
CONTINUOUS
 62
       3
100
AcDbLine
 10
121.73790314
 20
-39.38196308
 30
0.0
 11
119.98865591
 21
-39.39229837
 31
0.0
  0
LINE
  5
734
100
AcDbEntity
  8
レイヤー_1
  6
CONTINUOUS
 62
       3
100
AcDbLine
 10
119.98865591
 20
-39.39229837
 30
0.0
 11
119.98262699
 21
-37.41309102
 31
0.0
  0
LINE
  5
735
100
AcDbEntity
  8
レイヤー_1
  6
CONTINUOUS
 62
       3
100
AcDbLine
 10
119.98262699
 20
38.57064309
 30
0.0
 11
119.98865591
 21
40.59119159
 31
0.0
  0
LINE
  5
736
100
AcDbEntity
  8
レイヤー_1
  6
CONTINUOUS
 62
       3
100
AcDbLine
 10
119.98865591
 20
40.59119159
 30
0.0
 11
121.74565461
 21
40.58344014
 31
0.0
  0
LINE
  5
737
100
AcDbEntity
  8
レイヤー_1
  6
CONTINUOUS
 62
       3
100
AcDbLine
 10
121.74565461
 20
40.58344014
 30
0.0
 11
121.74565461
 21
18.55937533
 31
0.0
  0
LINE
  5
738
100
AcDbEntity
  8
レイヤー_1
  6
CONTINUOUS
 62
       3
100
AcDbLine
 10
121.74565461
 20
18.55937533
 30
0.0
 11
125.2234785
 21
18.55937533
 31
0.0
  0
LINE
  5
739
100
AcDbEntity
  8
レイヤー_1
  6
CONTINUOUS
 62
       3
100
AcDbLine
 10
125.2234785
 20
18.55937533
 30
0.0
 11
125.2234785
 21
40.58344014
 31
0.0
  0
LINE
  5
73A
100
AcDbEntity
  8
レイヤー_1
  6
CONTINUOUS
 62
       3
100
AcDbLine
 10
125.2234785
 20
40.58344014
 30
0.0
 11
126.98564483
 21
40.59119159
 31
0.0
  0
LINE
  5
73B
100
AcDbEntity
  8
レイヤー_1
  6
CONTINUOUS
 62
       3
100
AcDbLine
 10
126.98564483
 20
40.59119159
 30
0.0
 11
126.99253503
 21
38.57064309
 31
0.0
  0
LINE
  5
73C
100
AcDbEntity
  8
レイヤー_1
  6
CONTINUOUS
 62
       3
100
AcDbLine
 10
126.99253503
 20
-37.41309102
 30
0.0
 11
126.98564483
 21
-39.39229837
 31
0.0
  0
LINE
  5
73D
100
AcDbEntity
  8
レイヤー_1
  6
CONTINUOUS
 62
       3
100
AcDbLine
 10
126.98564483
 20
-39.39229837
 30
0.0
 11
125.23639761
 21
-39.38196308
 31
0.0
  0
LINE
  5
73E
100
AcDbEntity
  8
レイヤー_1
  6
CONTINUOUS
 62
       3
100
AcDbLine
 10
98.49901153
 20
-22.39721171
 30
0.0
 11
102.99744497
 21
-22.39721171
 31
0.0
  0
LINE
  5
73F
100
AcDbEntity
  8
レイヤー_1
  6
CONTINUOUS
 62
       3
100
AcDbLine
 10
102.99744497
 20
-22.39721171
 30
0.0
 11
102.99744497
 21
-17.89834764
 31
0.0
  0
LINE
  5
740
100
AcDbEntity
  8
レイヤー_1
  6
CONTINUOUS
 62
       3
100
AcDbLine
 10
102.99744497
 20
-17.89834764
 30
0.0
 11
98.49901153
 21
-17.89834764
 31
0.0
  0
LINE
  5
741
100
AcDbEntity
  8
レイヤー_1
  6
CONTINUOUS
 62
       3
100
AcDbLine
 10
98.49901153
 20
-17.89834764
 30
0.0
 11
98.49901153
 21
-22.39721171
 31
0.0
  0
LINE
  5
742
100
AcDbEntity
  8
レイヤー_1
  6
CONTINUOUS
 62
       3
100
AcDbLine
 10
143.98632978
 20
-22.39721171
 30
0.0
 11
148.48476321
 21
-22.39721171
 31
0.0
  0
LINE
  5
743
100
AcDbEntity
  8
レイヤー_1
  6
CONTINUOUS
 62
       3
100
AcDbLine
 10
148.48476321
 20
-22.39721171
 30
0.0
 11
148.48476321
 21
-17.89834764
 31
0.0
  0
LINE
  5
744
100
AcDbEntity
  8
レイヤー_1
  6
CONTINUOUS
 62
       3
100
AcDbLine
 10
148.48476321
 20
-17.89834764
 30
0.0
 11
143.98632978
 21
-17.89834764
 31
0.0
  0
LINE
  5
745
100
AcDbEntity
  8
レイヤー_1
  6
CONTINUOUS
 62
       3
100
AcDbLine
 10
143.98632978
 20
-17.89834764
 30
0.0
 11
143.98632978
 21
-22.39721171
 31
0.0
  0
LINE
  5
746
100
AcDbEntity
  8
レイヤー_1
  6
CONTINUOUS
 62
       3
100
AcDbLine
 10
143.98632978
 20
19.06709628
 30
0.0
 11
148.48476321
 21
19.06709628
 31
0.0
  0
LINE
  5
747
100
AcDbEntity
  8
レイヤー_1
  6
CONTINUOUS
 62
       3
100
AcDbLine
 10
148.48476321
 20
19.06709628
 30
0.0
 11
148.48476321
 21
23.56596035
 31
0.0
  0
LINE
  5
748
100
AcDbEntity
  8
レイヤー_1
  6
CONTINUOUS
 62
       3
100
AcDbLine
 10
148.48476321
 20
23.56596035
 30
0.0
 11
143.98632978
 21
23.56596035
 31
0.0
  0
LINE
  5
749
100
AcDbEntity
  8
レイヤー_1
  6
CONTINUOUS
 62
       3
100
AcDbLine
 10
143.98632978
 20
23.56596035
 30
0.0
 11
143.98632978
 21
19.06709628
 31
0.0
  0
LINE
  5
74A
100
AcDbEntity
  8
レイヤー_1
  6
CONTINUOUS
 62
       3
100
AcDbLine
 10
98.49901153
 20
19.06709628
 30
0.0
 11
102.99744497
 21
19.06709628
 31
0.0
  0
LINE
  5
74B
100
AcDbEntity
  8
レイヤー_1
  6
CONTINUOUS
 62
       3
100
AcDbLine
 10
102.99744497
 20
19.06709628
 30
0.0
 11
102.99744497
 21
23.56596035
 31
0.0
  0
LINE
  5
74C
100
AcDbEntity
  8
レイヤー_1
  6
CONTINUOUS
 62
       3
100
AcDbLine
 10
102.99744497
 20
23.56596035
 30
0.0
 11
98.49901153
 21
23.56596035
 31
0.0
  0
LINE
  5
74D
100
AcDbEntity
  8
レイヤー_1
  6
CONTINUOUS
 62
       3
100
AcDbLine
 10
98.49901153
 20
23.56596035
 30
0.0
 11
98.49901153
 21
19.06709628
 31
0.0
  0
LINE
  5
74E
100
AcDbEntity
  8
0
  6
CONTINUOUS
 62
       3
100
AcDbLine
 10
98.48499718
 20
39.09557089
 30
0.0
 11
98.48499718
 21
-37.90442911
 31
0.0
  0
LINE
  5
74F
100
AcDbEntity
  8
0
  6
CONTINUOUS
 62
       3
100
AcDbLine
 10
146.98499718
 20
40.59557089
 30
0.0
 11
99.98499718
 21
40.59557089
 31
0.0
  0
LINE
  5
750
100
AcDbEntity
  8
0
  6
CONTINUOUS
 62
       3
100
AcDbLine
 10
148.48499718
 20
39.09557089
 30
0.0
 11
148.48499718
 21
-37.90442911
 31
0.0
  0
LINE
  5
751
100
AcDbEntity
  8
0
  6
CONTINUOUS
 62
       3
100
AcDbLine
 10
146.98499718
 20
-39.40442911
 30
0.0
 11
99.98499718
 21
-39.40442911
 31
0.0
  0
ARC
  5
752
100
AcDbEntity
  8
0
  6
CONTINUOUS
 62
       3
100
AcDbCircle
 10
99.98499718
 20
-37.90442911
 30
0.0
 40
1.5
100
AcDbArc
 50
180.0
 51
270.0
  0
ARC
  5
753
100
AcDbEntity
  8
0
  6
CONTINUOUS
 62
       3
100
AcDbCircle
 10
146.98499718
 20
-37.90442911
 30
0.0
 40
1.5
100
AcDbArc
 50
270.0
 51
360.0
  0
ARC
  5
754
100
AcDbEntity
  8
0
  6
CONTINUOUS
 62
       3
100
AcDbCircle
 10
99.98499718
 20
39.09557089
 30
0.0
 40
1.5
100
AcDbArc
 50
90.0
 51
180.0
  0
ARC
  5
755
100
AcDbEntity
  8
0
  6
CONTINUOUS
 62
       3
100
AcDbCircle
 10
146.98499718
 20
39.09557089
 30
0.0
 40
1.5
100
AcDbArc
 50
0.0
 51
90.0
  0
TEXT
  5
756
100
AcDbEntity
  8
0
 62
       7
100
AcDbText
 10
114.90271493
 20
-102.4321267
 30
0.0
 40
5.0
  1
000
 41
0.8
 72
       5
 11
126.90271493
 21
-102.4321267
 31
0.0
100
AcDbText
  0
ENDSEC
  0
SECTION
  2
OBJECTS
  0
DICTIONARY
  5
19
100
AcDbDictionary
  3
ACAD_GROUP
350
1A
  3
ACAD_MLINESTYLE
350
1B
  0
DICTIONARY
  5
1A
102
{ACAD_REACTORS
330
19
102
}
100
AcDbDictionary
  0
DICTIONARY
  5
1B
102
{ACAD_REACTORS
330
19
102
}
100
AcDbDictionary
  3
STANDARD
350
1C
  0
MLINESTYLE
  5
1C
102
{ACAD_REACTORS
330
1B
102
}
100
AcDbMlineStyle
  2
STANDARD
 70
       0
  3

 62
       0
 51
90.0
 52
90.0
 71
       2
 49
0.5
 62
     256
  6
BYLAYER
 49
-0.5
 62
     256
  6
BYLAYER
  0
ENDSEC
  0
EOF
