  0
SECTION
  2
HEADER
  9
$ACADVER
  1
AC1014
  9
$ACADMAINTVER
 70
       0
  9
$DWGCODEPAGE
  3
ANSI_932
  9
$INSBASE
 10
0.0
 20
0.0
 30
0.0
  9
$EXTMIN
 10
-159.53632001
 20
-77.2708832
 30
0.0
  9
$EXTMAX
 10
159.53632001
 20
74.7708832
 30
0.0
  9
$LIMMIN
 10
-169.50734001
 20
-82.0221884
  9
$LIMMAX
 10
169.50734001
 20
79.5221884
  9
$ORTHOMODE
 70
       0
  9
$REGENMODE
 70
       1
  9
$FILLMODE
 70
       1
  9
$QTEXTMODE
 70
       0
  9
$MIRRTEXT
 70
       1
  9
$DRAGMODE
 70
       2
  9
$LTSCALE
 40
1.0
  9
$OSMODE
 70
       0
  9
$ATTMODE
 70
       1
  9
$TEXTSIZE
 40
0.2
  9
$TRACEWID
 40
0.05
  9
$TEXTSTYLE
  7
STANDARD
  9
$CLAYER
  8
0
  9
$CELTYPE
  6
CONTINUOUS
  9
$CECOLOR
 62
     256
  9
$CELTSCALE
 40
1.0
  9
$DELOBJ
 70
       1
  9
$DISPSILH
 70
       0
  9
$DIMSCALE
 40
1.0
  9
$DIMASZ
 40
0.18
  9
$DIMEXO
 40
0.0625
  9
$DIMDLI
 40
0.38
  9
$DIMRND
 40
0.0
  9
$DIMDLE
 40
0.0
  9
$DIMEXE
 40
0.18
  9
$DIMTP
 40
0.0
  9
$DIMTM
 40
0.0
  9
$DIMTXT
 40
0.18
  9
$DIMCEN
 40
0.09
  9
$DIMTSZ
 40
0.0
  9
$DIMTOL
 70
       0
  9
$DIMLIM
 70
       0
  9
$DIMTIH
 70
       1
  9
$DIMTOH
 70
       1
  9
$DIMSE1
 70
       0
  9
$DIMSE2
 70
       0
  9
$DIMTAD
 70
       0
  9
$DIMZIN
 70
       0
  9
$DIMBLK
  1

  9
$DIMASO
 70
       1
  9
$DIMSHO
 70
       1
  9
$DIMPOST
  1

  9
$DIMAPOST
  1

  9
$DIMALT
 70
       0
  9
$DIMALTD
 70
       2
  9
$DIMALTF
 40
25.4
  9
$DIMLFAC
 40
1.0
  9
$DIMTOFL
 70
       0
  9
$DIMTVP
 40
0.0
  9
$DIMTIX
 70
       0
  9
$DIMSOXD
 70
       0
  9
$DIMSAH
 70
       0
  9
$DIMBLK1
  1

  9
$DIMBLK2
  1

  9
$DIMSTYLE
  2
STANDARD
  9
$DIMCLRD
 70
       0
  9
$DIMCLRE
 70
       0
  9
$DIMCLRT
 70
       0
  9
$DIMTFAC
 40
1.0
  9
$DIMGAP
 40
0.09
  9
$DIMJUST
 70
       0
  9
$DIMSD1
 70
       0
  9
$DIMSD2
 70
       0
  9
$DIMTOLJ
 70
       1
  9
$DIMTZIN
 70
       0
  9
$DIMALTZ
 70
       0
  9
$DIMALTTZ
 70
       0
  9
$DIMFIT
 70
       3
  9
$DIMUPT
 70
       0
  9
$DIMUNIT
 70
       2
  9
$DIMDEC
 70
       4
  9
$DIMTDEC
 70
       4
  9
$DIMALTU
 70
       2
  9
$DIMALTTD
 70
       2
  9
$DIMTXSTY
  7
STANDARD
  9
$DIMAUNIT
 70
       0
  9
$LUNITS
 70
       2
  9
$LUPREC
 70
       4
  9
$SKETCHINC
 40
0.1
  9
$FILLETRAD
 40
0.0
  9
$AUNITS
 70
       0
  9
$AUPREC
 70
       0
  9
$MENU
  1
acad
  9
$ELEVATION
 40
0.0
  9
$PELEVATION
 40
0.0
  9
$THICKNESS
 40
0.0
  9
$LIMCHECK
 70
       0
  9
$BLIPMODE
 70
       1
  9
$CHAMFERA
 40
0.0
  9
$CHAMFERB
 40
0.0
  9
$CHAMFERC
 40
0.0
  9
$CHAMFERD
 40
0.0
  9
$SKPOLY
 70
       0
  9
$TDCREATE
 40
0.000000000
  9
$TDUPDATE
 40
0.000000000
  9
$TDINDWG
 40
0.0000000000
  9
$TDUSRTIMER
 40
0.0000000000
  9
$USRTIMER
 70
       1
  9
$ANGBASE
 50
0.0
  9
$ANGDIR
 70
       0
  9
$PDMODE
 70
       0
  9
$PDSIZE
 40
1.0
  9
$PLINEWID
 40
0.0
  9
$COORDS
 70
       1
  9
$SPLFRAME
 70
       0
  9
$SPLINETYPE
 70
       6
  9
$SPLINESEGS
 70
       8
  9
$ATTDIA
 70
       0
  9
$ATTREQ
 70
       1
  9
$HANDLING
 70
       1
  9
$HANDSEED
  5
11E
  9
$SURFTAB1
 70
       6
  9
$SURFTAB2
 70
       6
  9
$SURFTYPE
 70
       6
  9
$SURFU
 70
       6
  9
$SURFV
 70
       6
  9
$UCSNAME
  2

  9
$UCSORG
 10
0.0
 20
0.0
 30
0.0
  9
$UCSXDIR
 10
1.0
 20
0.0
 30
0.0
  9
$UCSYDIR
 10
0.0
 20
1.0
 30
0.0
  9
$PUCSNAME
  2

  9
$PUCSORG
 10
0.0
 20
0.0
 30
0.0
  9
$PUCSXDIR
 10
1.0
 20
0.0
 30
0.0
  9
$PUCSYDIR
 10
0.0
 20
1.0
 30
0.0
  9
$USERI1
 70
       0
  9
$USERI2
 70
       0
  9
$USERI3
 70
       0
  9
$USERI4
 70
       0
  9
$USERI5
 70
       0
  9
$USERR1
 40
0.0
  9
$USERR2
 40
0.0
  9
$USERR3
 40
0.0
  9
$USERR4
 40
0.0
  9
$USERR5
 40
0.0
  9
$WORLDVIEW
 70
       1
  9
$SHADEDGE
 70
       3
  9
$SHADEDIF
 70
      70
  9
$TILEMODE
 70
       1
  9
$MAXACTVP
 70
      16
  9
$PINSBASE
 10
0.0
 20
0.0
 30
0.0
  9
$PLIMCHECK
 70
       0
  9
$PEXTMIN
 10
1.00000000E+20
 20
1.00000000E+20
 30
1.00000000E+20
  9
$PEXTMAX
 10
-1.00000000E+20
 20
-1.00000000E+20
 30
-1.00000000E+20
  9
$PLIMMIN
 10
0.0
 20
0.0
  9
$PLIMMAX
 10
12.0
 20
9.0
  9
$UNITMODE
 70
       0
  9
$VISRETAIN
 70
       0
  9
$PLINEGEN
 70
       1
  9
$PSLTSCALE
 70
       0
  9
$TREEDEPTH
 70
    3020
  9
$PICKSTYLE
 70
       1
  9
$CMLSTYLE
  2
STANDARD
  9
$CMLJUST
 70
       0
  9
$CMLSCALE
 40
1.0
  9
$PROXYGRAPHICS
 70
       0
  9
$MEASUREMENT
 70
       0
  0
ENDSEC
  0
SECTION
  2
CLASSES
  0
CLASS
  1
LWPOLYLINE
  2
AcDbPolyline
  3
"AutoCAD"
 90
        0
280
       0
281
       1
  0
CLASS
  1
IMAGE
  2
AcDbRasterImage
  3
ISM
 90
      127
280
       0
281
       1
  0
CLASS
  1
OLE2FRAME
  2
AcDbOle2Frame
  3
""
 90
        0
280
       0
281
       1
  0
CLASS
  1
HATCH
  2
AcDbHatch
  3
"ACAD_SEDONA"
 90
        0
280
       0
281
       1
  0
CLASS
  1
DICTIONARYVAR
  2
AcDbDictionaryVar
  3
"AutoCAD"
 90
        0
280
       0
281
       0
  0
CLASS
  1
RASTERVARIABLES
  2
AcDbRasterVariables
  3
ISM
 90
        0
280
       0
281
       0
  0
CLASS
  1
IMAGEDEF
  2
AcDbRasterImageDef
  3
ISM
 90
        0
280
       0
281
       0
  0
CLASS
  1
IMAGEDEF_REACTOR
  2
AcDbRasterImageDefReactor
  3
ISM
 90
        1
280
       0
281
       0
  0
CLASS
  1
IDBUFFER
  2
AcDbIdBuffer
  3
"Acad"
 90
        0
280
       0
281
       0
  0
CLASS
  1
SPATIAL_FILTER
  2
AcDbSpatialFilter
  3
"Acad"
 90
        0
280
       0
281
       0
  0
CLASS
  1
XRECORD
  2
AcDbXrecord
  3
"<Built In>"
 90
        0
280
       0
281
       0
  0
CLASS
  1
SORTENTSTABLE
  2
AcDbSortentsTable
  3
"AutoCAD"
 90
        0
280
       0
281
       0
  0
CLASS
  1
LAYER_INDEX
  2
AcDbLayerIndex
  3
"Acad"
 90
        0
280
       0
281
       0
  0
CLASS
  1
SPATIAL_INDEX
  2
AcDbSpatialIndex
  3
"Acad"
 90
        0
280
       0
281
       0
  0
CLASS
  1
OBJECT_PTR
  2
CAseDLPNTableRecord
  3
"ASE-LPNTableRecord"
 90
        1
280
       0
281
       0
  0
CLASS
  1
LAYOUT
  2
AcDbLayout
  3
"AutoCAD 2000"
 90
        1
280
       0
281
       0
  0
CLASS
  1
PLOTSETTINGS
  2
AcDbPlotSettings
  3
"AutoCAD 2000"
 90
        1
280
       0
281
       0
  0
CLASS
  1
ACDBDICTIONARYWDFLT
  2
AcDbDictionaryWithDefault
  3
"AutoCAD 2000"
 90
        1
280
       0
281
       0
  0
CLASS
  1
ACDBPLACEHOLDER
  2
AcDbPlaceHolder
  3
"AutoCAD 2000"
 90
        1
280
       0
281
       0
  0
CLASS
  1
VBA_PROJECT
  2
AcDbVbaProject
  3
"acadvba"
 90
        1
280
       0
281
       0
  0
CLASS
  1
WIPEOUT
  2
AcDbWipeout
  3
WipeOut|AutoCAD Express Tool|expresstools@autodesk.com
 90
      127
280
       0
281
       1
  0
CLASS
  1
WIPEOUTVARIABLES
  2
AcDbWipeoutVariables
  3
WipeOut|AutoCAD Express Tool|expresstools@autodesk.com
 90
        0
280
       0
281
       0
  0
CLASS
  1
RTEXT
  2
RText
  3
RText|AutoCAD Express Tool|expresstools@autodesk.com
 90
        0
280
       0
281
       1
  0
CLASS
  1
ARCALIGNEDTEXT
  2
AcDbArcAlignedText
  3
ATEXT|AutoCAD Express Tool|expresstools@autodesk.com
 90
        0
280
       0
281
       1
  0
ENDSEC
  0
SECTION
  2
TABLES
  0
TABLE
  2
VPORT
  5
7
100
AcDbSymbolTable
 70
       1
  0
VPORT
  5
15
100
AcDbSymbolTableRecord
100
AcDbViewportTableRecord
  2
*ACTIVE
 70
       0
 10
0.0
 20
0.0
 11
1.0
 21
1.0
 12
0.0
 22
-1.25
 13
0.0
 23
0.0
 14
1.0
 24
1.0
 15
0.0
 25
0.0
 16
0.0
 26
0.0
 36
1.0
 17
0.0
 27
0.0
 37
0.0
 40
161.54437681
 41
2.09858546
 42
50.0
 43
0.0
 44
0.0
 50
0.0
 51
0.0
 71
       0
 72
     100
 73
       1
 74
       1
 75
       0
 76
       0
 77
       0
 78
       0
  0
ENDTAB
  0
TABLE
  2
LTYPE
  5
4
100
AcDbSymbolTable
 70
      30
  0
LTYPE
  5
11
100
AcDbSymbolTableRecord
100
AcDbLinetypeTableRecord
  2
BYBLOCK
 70
      64
  3

 72
      65
 73
       0
 40
0.0
  0
LTYPE
  5
12
100
AcDbSymbolTableRecord
100
AcDbLinetypeTableRecord
  2
BYLAYER
 70
      64
  3

 72
      65
 73
       0
 40
0.0
  0
LTYPE
  5
13
100
AcDbSymbolTableRecord
100
AcDbLinetypeTableRecord
  2
CONTINUOUS
 70
      64
  3
Solid line
 72
      65
 73
       0
 40
0.0
  0
LTYPE
  5
1D
100
AcDbSymbolTableRecord
100
AcDbLinetypeTableRecord
  2
HIDDENX2
 70
      64
  3
CADPAC LINETYPE
 72
      65
 73
       2
 40
12.7629056
 49
9.5721792
 74
       0
 49
-3.1907264
 74
       0
  0
LTYPE
  5
1E
100
AcDbSymbolTableRecord
100
AcDbLinetypeTableRecord
  2
HIDDEN
 70
      64
  3
CADPAC LINETYPE
 72
      65
 73
       2
 40
9.5721792
 49
6.3814528
 74
       0
 49
-3.1907264
 74
       0
  0
LTYPE
  5
1F
100
AcDbSymbolTableRecord
100
AcDbLinetypeTableRecord
  2
HIDDEN2
 70
      64
  3
CADPAC LINETYPE
 72
      65
 73
       2
 40
7.976816
 49
4.7860896
 74
       0
 49
-3.1907264
 74
       0
  0
LTYPE
  5
20
100
AcDbSymbolTableRecord
100
AcDbLinetypeTableRecord
  2
DASHED
 70
      64
  3
CADPAC LINETYPE
 72
      65
 73
       2
 40
9.5721792
 49
6.3814528
 74
       0
 49
-3.1907264
 74
       0
  0
LTYPE
  5
21
100
AcDbSymbolTableRecord
100
AcDbLinetypeTableRecord
  2
DASHED2
 70
      64
  3
CADPAC LINETYPE
 72
      65
 73
       2
 40
7.1791344
 49
4.7860896
 74
       0
 49
-2.3930448
 74
       0
  0
LTYPE
  5
22
100
AcDbSymbolTableRecord
100
AcDbLinetypeTableRecord
  2
DASHEDX2
 70
      64
  3
CADPAC LINETYPE
 72
      65
 73
       2
 40
14.3582688
 49
9.5721792
 74
       0
 49
-4.7860896
 74
       0
  0
LTYPE
  5
23
100
AcDbSymbolTableRecord
100
AcDbLinetypeTableRecord
  2
DOTX2
 70
      64
  3
CADPAC LINETYPE
 72
      65
 73
       2
 40
3.988408
 49
0.0
 74
       0
 49
-3.988408
 74
       0
  0
LTYPE
  5
24
100
AcDbSymbolTableRecord
100
AcDbLinetypeTableRecord
  2
DOT
 70
      64
  3
CADPAC LINETYPE
 72
      65
 73
       2
 40
3.1907264
 49
0.0
 74
       0
 49
-3.1907264
 74
       0
  0
LTYPE
  5
25
100
AcDbSymbolTableRecord
100
AcDbLinetypeTableRecord
  2
DOT2
 70
      64
  3
CADPAC LINETYPE
 72
      65
 73
       2
 40
2.3930448
 49
0.0
 74
       0
 49
-2.3930448
 74
       0
  0
LTYPE
  5
26
100
AcDbSymbolTableRecord
100
AcDbLinetypeTableRecord
  2
CENTERX2
 70
      64
  3
CADPAC LINETYPE
 72
      65
 73
       4
 40
19.1443584
 49
7.976816
 74
       0
 49
-3.988408
 74
       0
 49
3.1907264
 74
       0
 49
-3.988408
 74
       0
  0
LTYPE
  5
27
100
AcDbSymbolTableRecord
100
AcDbLinetypeTableRecord
  2
CENTER
 70
      64
  3
CADPAC LINETYPE
 72
      65
 73
       4
 40
14.67734144
 49
6.3814528
 74
       0
 49
-3.1907264
 74
       0
 49
1.91443584
 74
       0
 49
-3.1907264
 74
       0
  0
LTYPE
  5
28
100
AcDbSymbolTableRecord
100
AcDbLinetypeTableRecord
  2
CENTER2
 70
      64
  3
CADPAC LINETYPE
 72
      65
 73
       4
 40
10.21032448
 49
4.7860896
 74
       0
 49
-2.3930448
 74
       0
 49
0.63814528
 74
       0
 49
-2.3930448
 74
       0
  0
LTYPE
  5
29
100
AcDbSymbolTableRecord
100
AcDbLinetypeTableRecord
  2
DASHDOTX2
 70
      64
  3
CADPAC LINETYPE
 72
      65
 73
       4
 40
15.953632
 49
7.976816
 74
       0
 49
-3.988408
 74
       0
 49
0.0
 74
       0
 49
-3.988408
 74
       0
  0
LTYPE
  5
2A
100
AcDbSymbolTableRecord
100
AcDbLinetypeTableRecord
  2
DASHDOT
 70
      64
  3
CADPAC LINETYPE
 72
      65
 73
       4
 40
12.7629056
 49
6.3814528
 74
       0
 49
-3.1907264
 74
       0
 49
0.0
 74
       0
 49
-3.1907264
 74
       0
  0
LTYPE
  5
2B
100
AcDbSymbolTableRecord
100
AcDbLinetypeTableRecord
  2
DASHDOT2
 70
      64
  3
CADPAC LINETYPE
 72
      65
 73
       4
 40
9.5721792
 49
4.7860896
 74
       0
 49
-2.3930448
 74
       0
 49
0.0
 74
       0
 49
-2.3930448
 74
       0
  0
LTYPE
  5
2C
100
AcDbSymbolTableRecord
100
AcDbLinetypeTableRecord
  2
DIVIDEX2
 70
      64
  3
CADPAC LINETYPE
 72
      65
 73
       6
 40
19.94204
 49
7.976816
 74
       0
 49
-3.988408
 74
       0
 49
0.0
 74
       0
 49
-3.988408
 74
       0
 49
0.0
 74
       0
 49
-3.988408
 74
       0
  0
LTYPE
  5
2D
100
AcDbSymbolTableRecord
100
AcDbLinetypeTableRecord
  2
DIVIDE
 70
      64
  3
CADPAC LINETYPE
 72
      65
 73
       6
 40
15.953632
 49
6.3814528
 74
       0
 49
-3.1907264
 74
       0
 49
0.0
 74
       0
 49
-3.1907264
 74
       0
 49
0.0
 74
       0
 49
-3.1907264
 74
       0
  0
LTYPE
  5
2E
100
AcDbSymbolTableRecord
100
AcDbLinetypeTableRecord
  2
DIVIDE2
 70
      64
  3
CADPAC LINETYPE
 72
      65
 73
       6
 40
11.965224
 49
4.7860896
 74
       0
 49
-2.3930448
 74
       0
 49
0.0
 74
       0
 49
-2.3930448
 74
       0
 49
0.0
 74
       0
 49
-2.3930448
 74
       0
  0
LTYPE
  5
2F
100
AcDbSymbolTableRecord
100
AcDbLinetypeTableRecord
  2
BORDERX2
 70
      64
  3
CADPAC LINETYPE
 72
      65
 73
       6
 40
27.918856
 49
7.976816
 74
       0
 49
-3.988408
 74
       0
 49
7.976816
 74
       0
 49
-3.988408
 74
       0
 49
0.0
 74
       0
 49
-3.988408
 74
       0
  0
LTYPE
  5
30
100
AcDbSymbolTableRecord
100
AcDbLinetypeTableRecord
  2
BORDER
 70
      64
  3
CADPAC LINETYPE
 72
      65
 73
       6
 40
22.3350848
 49
6.3814528
 74
       0
 49
-3.1907264
 74
       0
 49
6.3814528
 74
       0
 49
-3.1907264
 74
       0
 49
0.0
 74
       0
 49
-3.1907264
 74
       0
  0
LTYPE
  5
31
100
AcDbSymbolTableRecord
100
AcDbLinetypeTableRecord
  2
BORDER2
 70
      64
  3
CADPAC LINETYPE
 72
      65
 73
       6
 40
16.7513136
 49
4.7860896
 74
       0
 49
-2.3930448
 74
       0
 49
4.7860896
 74
       0
 49
-2.3930448
 74
       0
 49
0.0
 74
       0
 49
-2.3930448
 74
       0
  0
LTYPE
  5
32
100
AcDbSymbolTableRecord
100
AcDbLinetypeTableRecord
  2
PHANTOMX2
 70
      64
  3
CADPAC LINETYPE
 72
      65
 73
       6
 40
23.930448
 49
7.976816
 74
       0
 49
-3.1907264
 74
       0
 49
3.1907264
 74
       0
 49
-3.1907264
 74
       0
 49
3.1907264
 74
       0
 49
-3.1907264
 74
       0
  0
LTYPE
  5
33
100
AcDbSymbolTableRecord
100
AcDbLinetypeTableRecord
  2
PHANTOM
 70
      64
  3
CADPAC LINETYPE
 72
      65
 73
       6
 40
19.78250368
 49
6.3814528
 74
       0
 49
-3.1907264
 74
       0
 49
1.91443584
 74
       0
 49
-3.1907264
 74
       0
 49
1.91443584
 74
       0
 49
-3.1907264
 74
       0
  0
LTYPE
  5
34
100
AcDbSymbolTableRecord
100
AcDbLinetypeTableRecord
  2
PHANTOM2
 70
      64
  3
CADPAC LINETYPE
 72
      65
 73
       6
 40
16.91084992
 49
4.7860896
 74
       0
 49
-3.1907264
 74
       0
 49
1.27629056
 74
       0
 49
-3.1907264
 74
       0
 49
1.27629056
 74
       0
 49
-3.1907264
 74
       0
  0
LTYPE
  5
35
100
AcDbSymbolTableRecord
100
AcDbLinetypeTableRecord
  2
ACAD_ISO06W100
 70
      64
  3
CADPAC LINETYPE
 72
      65
 73
       8
 40
21.5374032
 49
7.976816
 74
       0
 49
-3.988408
 74
       0
 49
0.0
 74
       0
 49
-3.1907264
 74
       0
 49
0.0
 74
       0
 49
-3.1907264
 74
       0
 49
0.0
 74
       0
 49
-3.1907264
 74
       0
  0
LTYPE
  5
36
100
AcDbSymbolTableRecord
100
AcDbLinetypeTableRecord
  2
ACAD_ISO13W100
 70
      64
  3
CADPAC LINETYPE
 72
      65
 73
       8
 40
25.5258112
 49
6.3814528
 74
       0
 49
-3.1907264
 74
       0
 49
6.3814528
 74
       0
 49
-3.1907264
 74
       0
 49
0.0
 74
       0
 49
-3.1907264
 74
       0
 49
0.0
 74
       0
 49
-3.1907264
 74
       0
  0
LTYPE
  5
37
100
AcDbSymbolTableRecord
100
AcDbLinetypeTableRecord
  2
ACAD_ISO14W100
 70
      64
  3
CADPAC LINETYPE
 72
      65
 73
       8
 40
19.1443584
 49
6.3814528
 74
       0
 49
-3.1907264
 74
       0
 49
0.0
 74
       0
 49
-3.1907264
 74
       0
 49
0.0
 74
       0
 49
-3.1907264
 74
       0
 49
0.0
 74
       0
 49
-3.1907264
 74
       0
  0
ENDTAB
  0
TABLE
  2
LAYER
  5
2
100
AcDbSymbolTable
 70
       4
  0
LAYER
  5
14
100
AcDbSymbolTableRecord
100
AcDbLayerTableRecord
  2
0
 70
       0
 62
       7
  6
CONTINUOUS
  0
LAYER
  5
38
100
AcDbSymbolTableRecord
100
AcDbLayerTableRecord
  2
SLD-0_0
 70
       0
 62
       7
  6
CONTINUOUS
  0
LAYER
  5
39
100
AcDbSymbolTableRecord
100
AcDbLayerTableRecord
  2
SLD-0
 70
       0
 62
       7
  6
CONTINUOUS
  0
LAYER
  5
3A
100
AcDbSymbolTableRecord
100
AcDbLayerTableRecord
  2
レイヤー_1
 70
       0
 62
       7
  6
CONTINUOUS
  0
ENDTAB
  0
TABLE
  2
STYLE
  5
3
100
AcDbSymbolTable
 70
       1
  0
STYLE
  5
17
100
AcDbSymbolTableRecord
100
AcDbTextStyleTableRecord
  2
STANDARD
 70
       0
 40
0.0
 41
1.0
 50
0.0
 71
       0
 42
5.0
  3
txt.shx
  4
bigfont.shx
  0
ENDTAB
  0
TABLE
  2
VIEW
  5
5
100
AcDbSymbolTable
 70
       1
  0
VIEW
  5
3B
100
AcDbSymbolTableRecord
100
AcDbViewTableRecord
  2
QQQQ
 70
       0
 40
161.54437681
 10
0.0
 20
-1.25
 41
339.01468003
 11
0.0
 21
0.0
 31
1.0
 12
100.0
 22
100.0
 32
0.0
 42
50.0
 43
0.0
 44
0.0
 50
0.0
 71
       0
  0
ENDTAB
  0
TABLE
  2
UCS
  5
6
100
AcDbSymbolTable
 70
       0
  0
ENDTAB
  0
TABLE
  2
APPID
  5
8
100
AcDbSymbolTable
 70
       1
  0
APPID
  5
16
100
AcDbSymbolTableRecord
100
AcDbRegAppTableRecord
  2
ACAD
 70
       0
  0
ENDTAB
  0
TABLE
  2
DIMSTYLE
  5
9
100
AcDbSymbolTable
 70
       1
  0
DIMSTYLE
105
18
100
AcDbSymbolTableRecord
100
AcDbDimStyleTableRecord
  2
STANDARD
 70
       0
  3

  4

  5

  6

  7

 40
1.0
 41
0.18
 42
0.0625
 43
0.38
 44
0.18
 45
0.0
 46
0.0
 47
0.0
 48
0.0
 71
       0
 72
       0
 73
       1
 74
       1
 75
       0
 76
       0
 77
       0
 78
       0
140
0.18
141
0.09
142
0.0
143
25.4
144
1.0
145
0.0
146
1.0
147
0.09
170
       0
171
       2
172
       0
173
       0
174
       0
175
       0
176
       0
177
       0
178
       0
270
       2
271
       4
272
       4
273
       2
274
       2
275
       0
280
       0
281
       0
282
       0
283
       1
284
       0
285
       0
286
       0
287
       0
288
       0
340
17
  0
ENDTAB
  0
TABLE
  2
BLOCK_RECORD
  5
1
100
AcDbSymbolTable
 70
       0
  0
BLOCK_RECORD
  5
A
100
AcDbSymbolTableRecord
100
AcDbBlockTableRecord
  2
*MODEL_SPACE
  0
BLOCK_RECORD
  5
B
100
AcDbSymbolTableRecord
100
AcDbBlockTableRecord
  2
*PAPER_SPACE
  0
ENDTAB
  0
ENDSEC
  0
SECTION
  2
BLOCKS
  0
BLOCK
  5
D
100
AcDbEntity
  8
0
100
AcDbBlockBegin
  2
*MODEL_SPACE
 70
       0
 10
0.0
 20
0.0
 30
0.0
  3
*MODEL_SPACE
  1

  0
ENDBLK
  5
E
100
AcDbEntity
  8
0
100
AcDbBlockEnd
  0
BLOCK
  5
F
100
AcDbEntity
 67
       1
  8
0
100
AcDbBlockBegin
  2
*PAPER_SPACE
 70
       0
 10
0.0
 20
0.0
 30
0.0
  3
*PAPER_SPACE
  1

  0
ENDBLK
  5
10
100
AcDbEntity
 67
       1
  8
0
100
AcDbBlockEnd
  0
ENDSEC
  0
SECTION
  2
ENTITIES
  0
LINE
  5
3C
100
AcDbEntity
  8
SLD-0
  6
CONTINUOUS
 62
       7
100
AcDbLine
 10
-99.6188556
 20
56.42890583
 30
0.0
 11
-145.6188556
 21
56.42890583
 31
0.0
  0
LINE
  5
3D
100
AcDbEntity
  8
SLD-0
  6
CONTINUOUS
 62
       7
100
AcDbLine
 10
-99.6188556
 20
-7.57109417
 30
0.0
 11
-145.6188556
 21
-7.57109417
 31
0.0
  0
LINE
  5
3E
100
AcDbEntity
  8
SLD-0
  6
CONTINUOUS
 62
       7
100
AcDbLine
 10
-59.28140582
 20
-5.57109417
 30
0.0
 11
-59.28140582
 21
54.42890583
 31
0.0
  0
LINE
  5
3F
100
AcDbEntity
  8
SLD-0
  6
CONTINUOUS
 62
       7
100
AcDbLine
 10
-57.28140582
 20
-7.57109417
 30
0.0
 11
35.71859418
 21
-7.57109417
 31
0.0
  0
LINE
  5
40
100
AcDbEntity
  8
SLD-0
  6
CONTINUOUS
 62
       7
100
AcDbLine
 10
-57.28140582
 20
56.42890583
 30
0.0
 11
35.71859418
 21
56.42890583
 31
0.0
  0
LINE
  5
41
100
AcDbEntity
  8
SLD-0
  6
CONTINUOUS
 62
       7
100
AcDbLine
 10
-142.6188556
 20
50.92890583
 30
0.0
 11
-142.6188556
 21
-2.07109417
 31
0.0
  0
LINE
  5
42
100
AcDbEntity
  8
SLD-0
  6
CONTINUOUS
 62
       7
100
AcDbLine
 10
-103.1188556
 20
-2.57109417
 30
0.0
 11
-142.1188556
 21
-2.57109417
 31
0.0
  0
LINE
  5
43
100
AcDbEntity
  8
SLD-0
  6
CONTINUOUS
 62
       7
100
AcDbLine
 10
-102.6188556
 20
50.92890583
 30
0.0
 11
-102.6188556
 21
-2.07109417
 31
0.0
  0
LINE
  5
44
100
AcDbEntity
  8
SLD-0
  6
CONTINUOUS
 62
       7
100
AcDbLine
 10
-103.1188556
 20
51.42890583
 30
0.0
 11
-142.1188556
 21
51.42890583
 31
0.0
  0
LINE
  5
45
100
AcDbEntity
  8
SLD-0
  6
CONTINUOUS
 62
       7
100
AcDbLine
 10
-127.62673252
 20
-15.57109416
 30
0.0
 11
-135.62366041
 21
-7.57109417
 31
0.0
  0
LINE
  5
46
100
AcDbEntity
  8
SLD-0
  6
CONTINUOUS
 62
       7
100
AcDbLine
 10
-117.62045268
 20
-15.57109416
 30
0.0
 11
-109.62352478
 21
-7.57109417
 31
0.0
  0
LINE
  5
47
100
AcDbEntity
  8
SLD-0
  6
CONTINUOUS
 62
       7
100
AcDbLine
 10
-127.62673252
 20
64.42890584
 30
0.0
 11
-135.62366041
 21
56.42890583
 31
0.0
  0
LINE
  5
48
100
AcDbEntity
  8
SLD-0
  6
CONTINUOUS
 62
       7
100
AcDbLine
 10
-117.62045268
 20
64.42890584
 30
0.0
 11
-109.62352478
 21
56.42890583
 31
0.0
  0
LINE
  5
49
100
AcDbEntity
  8
SLD-0
  6
CONTINUOUS
 62
       7
100
AcDbLine
 10
29.71859418
 20
-15.57109417
 30
0.0
 11
29.71859418
 21
64.42890583
 31
0.0
  0
LINE
  5
4A
100
AcDbEntity
  8
SLD-0
  6
CONTINUOUS
 62
       7
100
AcDbLine
 10
29.71859418
 20
-15.57109417
 30
0.0
 11
35.71859418
 21
-15.57109417
 31
0.0
  0
LINE
  5
4B
100
AcDbEntity
  8
SLD-0
  6
CONTINUOUS
 62
       7
100
AcDbLine
 10
29.71859418
 20
64.42890583
 30
0.0
 11
35.71859418
 21
64.42890583
 31
0.0
  0
LINE
  5
4C
100
AcDbEntity
  8
SLD-0
  6
CONTINUOUS
 62
       7
100
AcDbLine
 10
-61.28140582
 20
34.42890583
 30
0.0
 11
-59.28140582
 21
34.42890583
 31
0.0
  0
LINE
  5
4D
100
AcDbEntity
  8
SLD-0
  6
CONTINUOUS
 62
       7
100
AcDbLine
 10
-61.28140582
 20
48.42890583
 30
0.0
 11
-59.28140582
 21
48.42890583
 31
0.0
  0
LINE
  5
4E
100
AcDbEntity
  8
SLD-0
  6
CONTINUOUS
 62
       7
100
AcDbLine
 10
-63.78140582
 20
36.42890583
 30
0.0
 11
-63.78140582
 21
46.42890583
 31
0.0
  0
LINE
  5
4F
100
AcDbEntity
  8
SLD-0
  6
CONTINUOUS
 62
       7
100
AcDbLine
 10
-61.28140582
 20
34.42890583
 30
0.0
 11
-61.28140582
 21
48.42890583
 31
0.0
  0
LINE
  5
50
100
AcDbEntity
  8
SLD-0
  6
CONTINUOUS
 62
       7
100
AcDbLine
 10
-61.28140582
 20
47.42890583
 30
0.0
 11
-59.28140582
 21
47.42890583
 31
0.0
  0
LINE
  5
51
100
AcDbEntity
  8
SLD-0
  6
CONTINUOUS
 62
       7
100
AcDbLine
 10
-61.28140582
 20
35.42890583
 30
0.0
 11
-59.28140582
 21
35.42890583
 31
0.0
  0
LINE
  5
52
100
AcDbEntity
  8
SLD-0
  6
CONTINUOUS
 62
       7
100
AcDbLine
 10
-63.78140582
 20
46.42890583
 30
0.0
 11
-61.28140582
 21
47.42890583
 31
0.0
  0
LINE
  5
53
100
AcDbEntity
  8
SLD-0
  6
CONTINUOUS
 62
       7
100
AcDbLine
 10
-61.28140582
 20
35.42890583
 30
0.0
 11
-63.78140582
 21
36.42890583
 31
0.0
  0
ARC
  5
54
100
AcDbEntity
  8
SLD-0
  6
CONTINUOUS
 62
       7
100
AcDbCircle
 10
-99.6188556
 20
54.42890583
 30
0.0
 40
2.0
100
AcDbArc
 50
0.0
 51
90.0
  0
ARC
  5
55
100
AcDbEntity
  8
SLD-0
  6
CONTINUOUS
 62
       7
100
AcDbCircle
 10
-99.6188556
 20
-5.57109417
 30
0.0
 40
2.0
100
AcDbArc
 50
270.0
 51
360.0
  0
ARC
  5
56
100
AcDbEntity
  8
SLD-0
  6
CONTINUOUS
 62
       7
100
AcDbCircle
 10
-145.6188556
 20
-5.57109417
 30
0.0
 40
2.0
100
AcDbArc
 50
180.0
 51
270.0
  0
ARC
  5
57
100
AcDbEntity
  8
SLD-0
  6
CONTINUOUS
 62
       7
100
AcDbCircle
 10
-145.6188556
 20
54.42890583
 30
0.0
 40
2.0
100
AcDbArc
 50
90.0
 51
180.0
  0
ARC
  5
58
100
AcDbEntity
  8
SLD-0
  6
CONTINUOUS
 62
       7
100
AcDbCircle
 10
-57.28140582
 20
-5.57109417
 30
0.0
 40
2.0
100
AcDbArc
 50
180.0
 51
270.0
  0
ARC
  5
59
100
AcDbEntity
  8
SLD-0
  6
CONTINUOUS
 62
       7
100
AcDbCircle
 10
-57.28140582
 20
54.42890583
 30
0.0
 40
2.0
100
AcDbArc
 50
90.0
 51
180.0
  0
CIRCLE
  5
5A
100
AcDbEntity
  8
SLD-0
  6
CONTINUOUS
 62
       7
100
AcDbCircle
 10
-112.6188556
 20
24.42890583
 30
0.0
 40
3.0
  0
CIRCLE
  5
5B
100
AcDbEntity
  8
SLD-0
  6
CONTINUOUS
 62
       7
100
AcDbCircle
 10
-113.6188556
 20
41.42890583
 30
0.0
 40
7.0
  0
ARC
  5
5C
100
AcDbEntity
  8
SLD-0
  6
CONTINUOUS
 62
       7
100
AcDbCircle
 10
-103.1188556
 20
50.92890583
 30
0.0
 40
0.5
100
AcDbArc
 50
0.0
 51
90.0
  0
ARC
  5
5D
100
AcDbEntity
  8
SLD-0
  6
CONTINUOUS
 62
       7
100
AcDbCircle
 10
-103.1188556
 20
-2.07109417
 30
0.0
 40
0.5
100
AcDbArc
 50
270.0
 51
360.0
  0
ARC
  5
5E
100
AcDbEntity
  8
SLD-0
  6
CONTINUOUS
 62
       7
100
AcDbCircle
 10
-142.1188556
 20
-2.07109417
 30
0.0
 40
0.5
100
AcDbArc
 50
180.0
 51
270.0
  0
ARC
  5
5F
100
AcDbEntity
  8
SLD-0
  6
CONTINUOUS
 62
       7
100
AcDbCircle
 10
-142.1188556
 20
50.92890583
 30
0.0
 40
0.5
100
AcDbArc
 50
90.0
 51
180.0
  0
LINE
  5
60
100
AcDbEntity
  8
SLD-0
  6
CONTINUOUS
 62
       7
100
AcDbLine
 10
35.71859418
 20
-14.98776024
 30
0.0
 11
36.71859418
 21
-13.90442787
 31
0.0
  0
LINE
  5
61
100
AcDbEntity
  8
SLD-0
  6
CONTINUOUS
 62
       7
100
AcDbLine
 10
35.18013221
 20
64.42890583
 30
0.0
 11
34.71859292
 21
64.92890627
 31
0.0
  0
LINE
  5
62
100
AcDbEntity
  8
SLD-0
  6
CENTERX2
 62
       7
100
AcDbLine
 10
-122.6188556
 20
69.87729834
 30
0.0
 11
-122.6188556
 21
-25.55932603
 31
0.0
  0
LINE
  5
63
100
AcDbEntity
  8
SLD-0
  6
CENTERX2
 62
       7
100
AcDbLine
 10
-92.08628467
 20
24.42890583
 30
0.0
 11
-153.40030771
 21
24.42890583
 31
0.0
  0
LINE
  5
64
100
AcDbEntity
  8
SLD-0
  6
CENTERX2
 62
       7
100
AcDbLine
 10
-75.40731021
 20
24.42890583
 30
0.0
 11
62.45813948
 21
24.42890583
 31
0.0
  0
LINE
  5
65
100
AcDbEntity
  8
0
  6
CONTINUOUS
 62
       7
100
AcDbLine
 10
51.71859384
 20
-14.07109364
 30
0.0
 11
51.71859384
 21
-20.07109462
 31
0.0
  0
LINE
  5
66
100
AcDbEntity
  8
0
  6
CONTINUOUS
 62
       7
100
AcDbLine
 10
51.71859384
 20
-18.07109429
 30
0.0
 11
55.71859403
 21
-18.07109429
 31
0.0
  0
LINE
  5
67
100
AcDbEntity
  8
0
  6
CONTINUOUS
 62
       7
100
AcDbLine
 10
52.71859389
 20
8.72890582
 30
0.0
 11
53.71859394
 21
8.72890582
 31
0.0
  0
LINE
  5
68
100
AcDbEntity
  8
0
  6
CONTINUOUS
 62
       7
100
AcDbLine
 10
51.71859384
 20
-16.07109397
 30
0.0
 11
55.71859403
 21
-16.07109397
 31
0.0
  0
LINE
  5
69
100
AcDbEntity
  8
0
  6
CONTINUOUS
 62
       7
100
AcDbLine
 10
24.71859314
 20
-14.19609575
 30
0.0
 11
27.21859448
 21
-14.19609575
 31
0.0
  0
LINE
  5
6A
100
AcDbEntity
  8
0
  6
CONTINUOUS
 62
       7
100
AcDbLine
 10
24.71859314
 20
-16.07109397
 30
0.0
 11
34.71859292
 21
-16.07109397
 31
0.0
  0
LINE
  5
6B
100
AcDbEntity
  8
0
  6
CONTINUOUS
 62
       7
100
AcDbLine
 10
115.35113871
 20
-16.07109398
 30
0.0
 11
113.35113879
 21
-14.07109365
 31
0.0
  0
LINE
  5
6C
100
AcDbEntity
  8
0
  6
CONTINUOUS
 62
       7
100
AcDbLine
 10
122.35113846
 20
-20.07109463
 30
0.0
 11
119.3511389
 21
-18.0710943
 31
0.0
  0
LINE
  5
6D
100
AcDbEntity
  8
0
  6
CONTINUOUS
 62
       7
100
AcDbLine
 10
129.35113867
 20
-18.0710943
 30
0.0
 11
126.35113911
 21
-20.07109463
 31
0.0
  0
LINE
  5
6E
100
AcDbEntity
  8
0
  6
CONTINUOUS
 62
       7
100
AcDbLine
 10
133.35113933
 20
-16.07109398
 30
0.0
 11
129.35113867
 21
-16.07109398
 31
0.0
  0
LINE
  5
6F
100
AcDbEntity
  8
0
  6
CONTINUOUS
 62
       7
100
AcDbLine
 10
139.55113811
 20
-5.87109454
 30
0.0
 11
147.3511379
 21
-5.87109454
 31
0.0
  0
LINE
  5
70
100
AcDbEntity
  8
0
  6
CONTINUOUS
 62
       7
100
AcDbLine
 10
129.25113884
 20
-5.87109454
 30
0.0
 11
137.05113863
 21
-5.87109454
 31
0.0
  0
LINE
  5
71
100
AcDbEntity
  8
0
  6
CONTINUOUS
 62
       7
100
AcDbLine
 10
35.71859418
 20
-10.8210945
 30
0.0
 11
36.71859418
 21
-10.8210945
 31
0.0
  0
LINE
  5
72
100
AcDbEntity
  8
0
  6
CONTINUOUS
 62
       7
100
AcDbLine
 10
111.65113871
 20
-5.87109454
 30
0.0
 11
119.45113873
 21
-5.87109454
 31
0.0
  0
LINE
  5
73
100
AcDbEntity
  8
0
  6
CONTINUOUS
 62
       7
100
AcDbLine
 10
109.15113876
 20
54.72890496
 30
0.0
 11
101.35113874
 21
54.72890496
 31
0.0
  0
LINE
  5
74
100
AcDbEntity
  8
0
  6
CONTINUOUS
 62
       7
100
AcDbLine
 10
36.71859418
 20
62.76224018
 30
0.0
 11
35.71859418
 21
63.84557254
 31
0.0
  0
LINE
  5
75
100
AcDbEntity
  8
0
  6
CONTINUOUS
 62
       7
100
AcDbLine
 10
27.21859448
 20
63.05390434
 30
0.0
 11
24.71859314
 21
63.05390434
 31
0.0
  0
LINE
  5
76
100
AcDbEntity
  8
0
  6
CONTINUOUS
 62
       7
100
AcDbLine
 10
28.02628791
 20
56.42890583
 30
0.0
 11
27.21859448
 21
57.47890682
 31
0.0
  0
LINE
  5
77
100
AcDbEntity
  8
0
  6
CONTINUOUS
 62
       7
100
AcDbLine
 10
34.71859292
 20
64.92890627
 30
0.0
 11
24.71859314
 21
64.92890627
 31
0.0
  0
LINE
  5
78
100
AcDbEntity
  8
0
  6
CONTINUOUS
 62
       7
100
AcDbLine
 10
52.71859389
 20
40.12890556
 30
0.0
 11
52.71859389
 21
42.12890589
 31
0.0
  0
LINE
  5
79
100
AcDbEntity
  8
0
  6
CONTINUOUS
 62
       7
100
AcDbLine
 10
35.71859418
 20
1.92890526
 30
0.0
 11
36.71859418
 21
1.92890526
 31
0.0
  0
LINE
  5
7A
100
AcDbEntity
  8
0
  6
CONTINUOUS
 62
       7
100
AcDbLine
 10
35.71859418
 20
41.92890623
 30
0.0
 11
36.71859418
 21
41.92890623
 31
0.0
  0
LINE
  5
7B
100
AcDbEntity
  8
0
  6
CONTINUOUS
 62
       7
100
AcDbLine
 10
40.7185939
 20
20.42890573
 30
0.0
 11
36.71859418
 21
20.42890573
 31
0.0
  0
LINE
  5
7C
100
AcDbEntity
  8
0
  6
CONTINUOUS
 62
       7
100
AcDbLine
 10
55.71859403
 20
-20.07109462
 30
0.0
 11
55.71859403
 21
6.72890642
 31
0.0
  0
LINE
  5
7D
100
AcDbEntity
  8
0
  6
CONTINUOUS
 62
       7
100
AcDbLine
 10
51.71859384
 20
6.72890642
 30
0.0
 11
51.71859384
 21
15.42890561
 31
0.0
  0
LINE
  5
7E
100
AcDbEntity
  8
0
  6
CONTINUOUS
 62
       7
100
AcDbLine
 10
55.71859403
 20
15.42890561
 30
0.0
 11
55.71859403
 21
19.4289058
 31
0.0
  0
LINE
  5
7F
100
AcDbEntity
  8
0
  6
CONTINUOUS
 62
       7
100
AcDbLine
 10
51.71859384
 20
19.4289058
 30
0.0
 11
51.71859384
 21
29.42890604
 31
0.0
  0
LINE
  5
80
100
AcDbEntity
  8
0
  6
CONTINUOUS
 62
       7
100
AcDbLine
 10
55.71859403
 20
29.42890604
 30
0.0
 11
55.71859403
 21
33.42890577
 31
0.0
  0
LINE
  5
81
100
AcDbEntity
  8
0
  6
CONTINUOUS
 62
       7
100
AcDbLine
 10
51.71859384
 20
33.42890577
 30
0.0
 11
51.71859384
 21
42.12890589
 31
0.0
  0
LINE
  5
82
100
AcDbEntity
  8
0
  6
CONTINUOUS
 62
       7
100
AcDbLine
 10
55.71859403
 20
42.12890589
 30
0.0
 11
55.71859403
 21
62.92890595
 31
0.0
  0
LINE
  5
83
100
AcDbEntity
  8
0
  6
CONTINUOUS
 62
       7
100
AcDbLine
 10
36.71859418
 20
62.92890595
 30
0.0
 11
36.71859418
 21
-14.07109364
 31
0.0
  0
LINE
  5
84
100
AcDbEntity
  8
0
  6
CONTINUOUS
 62
       7
100
AcDbLine
 10
40.7185939
 20
20.42890573
 30
0.0
 11
40.7185939
 21
28.42890588
 31
0.0
  0
LINE
  5
85
100
AcDbEntity
  8
0
  6
CONTINUOUS
 62
       7
100
AcDbLine
 10
36.71859418
 20
37.42890549
 30
0.0
 11
35.71859418
 21
37.42890549
 31
0.0
  0
LINE
  5
86
100
AcDbEntity
  8
0
  6
CONTINUOUS
 62
       7
100
AcDbLine
 10
51.71859384
 20
-20.07109462
 30
0.0
 11
55.71859403
 21
-20.07109462
 31
0.0
  0
LINE
  5
87
100
AcDbEntity
  8
0
  6
CONTINUOUS
 62
       7
100
AcDbLine
 10
53.71859394
 20
8.72890582
 30
0.0
 11
55.71859403
 21
6.72890642
 31
0.0
  0
LINE
  5
88
100
AcDbEntity
  8
0
  6
CONTINUOUS
 62
       7
100
AcDbLine
 10
52.71859389
 20
6.72890642
 30
0.0
 11
52.71859389
 21
8.72890582
 31
0.0
  0
LINE
  5
89
100
AcDbEntity
  8
0
  6
CONTINUOUS
 62
       7
100
AcDbLine
 10
27.21859448
 20
-14.19609575
 30
0.0
 11
27.21859448
 21
-8.62109451
 31
0.0
  0
LINE
  5
8A
100
AcDbEntity
  8
0
  6
CONTINUOUS
 62
       7
100
AcDbLine
 10
24.71859314
 20
-16.07109397
 30
0.0
 11
24.71859314
 21
-14.19609575
 31
0.0
  0
LINE
  5
8B
100
AcDbEntity
  8
0
  6
CONTINUOUS
 62
       7
100
AcDbLine
 10
34.71859292
 20
-16.07109397
 30
0.0
 11
35.18013161
 21
-15.57109417
 31
0.0
  0
LINE
  5
8C
100
AcDbEntity
  8
0
  6
CONTINUOUS
 62
       7
100
AcDbLine
 10
27.21859448
 20
-8.62109451
 30
0.0
 11
28.02628741
 21
-7.57109417
 31
0.0
  0
LINE
  5
8D
100
AcDbEntity
  8
0
  6
CONTINUOUS
 62
       7
100
AcDbLine
 10
24.71859314
 20
63.05390434
 30
0.0
 11
24.71859314
 21
64.92890627
 31
0.0
  0
LINE
  5
8E
100
AcDbEntity
  8
0
  6
CONTINUOUS
 62
       7
100
AcDbLine
 10
27.21859448
 20
57.47890682
 30
0.0
 11
27.21859448
 21
63.05390434
 31
0.0
  0
LINE
  5
8F
100
AcDbEntity
  8
0
  6
CONTINUOUS
 62
       7
100
AcDbLine
 10
36.71859418
 20
59.67890681
 30
0.0
 11
35.71859418
 21
59.67890681
 31
0.0
  0
LINE
  5
90
100
AcDbEntity
  8
0
  6
CONTINUOUS
 62
       7
100
AcDbLine
 10
55.71859403
 20
42.12890589
 30
0.0
 11
53.71859394
 21
40.12890556
 31
0.0
  0
LINE
  5
91
100
AcDbEntity
  8
0
  6
CONTINUOUS
 62
       7
100
AcDbLine
 10
53.71859394
 20
40.12890556
 30
0.0
 11
52.71859389
 21
40.12890556
 31
0.0
  0
LINE
  5
92
100
AcDbEntity
  8
0
  6
CONTINUOUS
 62
       7
100
AcDbLine
 10
35.71859418
 20
6.92890608
 30
0.0
 11
36.71859418
 21
6.92890608
 31
0.0
  0
LINE
  5
93
100
AcDbEntity
  8
0
  6
CONTINUOUS
 62
       7
100
AcDbLine
 10
35.71859418
 20
46.92890519
 30
0.0
 11
36.71859418
 21
46.92890519
 31
0.0
  0
LINE
  5
94
100
AcDbEntity
  8
0
  6
CONTINUOUS
 62
       7
100
AcDbLine
 10
36.71859418
 20
-14.07109364
 30
0.0
 11
55.71859403
 21
-14.07109364
 31
0.0
  0
LINE
  5
95
100
AcDbEntity
  8
0
  6
CONTINUOUS
 62
       7
100
AcDbLine
 10
55.71859403
 20
6.72890642
 30
0.0
 11
51.71859384
 21
6.72890642
 31
0.0
  0
LINE
  5
96
100
AcDbEntity
  8
0
  6
CONTINUOUS
 62
       7
100
AcDbLine
 10
55.71859403
 20
15.42890561
 30
0.0
 11
51.71859384
 21
15.42890561
 31
0.0
  0
LINE
  5
97
100
AcDbEntity
  8
0
  6
CONTINUOUS
 62
       7
100
AcDbLine
 10
55.71859403
 20
19.4289058
 30
0.0
 11
51.71859384
 21
19.4289058
 31
0.0
  0
LINE
  5
98
100
AcDbEntity
  8
0
  6
CONTINUOUS
 62
       7
100
AcDbLine
 10
55.71859403
 20
29.42890604
 30
0.0
 11
51.71859384
 21
29.42890604
 31
0.0
  0
LINE
  5
99
100
AcDbEntity
  8
0
  6
CONTINUOUS
 62
       7
100
AcDbLine
 10
55.71859403
 20
33.42890577
 30
0.0
 11
51.71859384
 21
33.42890577
 31
0.0
  0
LINE
  5
9A
100
AcDbEntity
  8
0
  6
CONTINUOUS
 62
       7
100
AcDbLine
 10
51.71859384
 20
42.12890589
 30
0.0
 11
55.71859403
 21
42.12890589
 31
0.0
  0
LINE
  5
9B
100
AcDbEntity
  8
0
  6
CONTINUOUS
 62
       7
100
AcDbLine
 10
55.71859403
 20
62.92890595
 30
0.0
 11
36.71859418
 21
62.92890595
 31
0.0
  0
LINE
  5
9C
100
AcDbEntity
  8
0
  6
CONTINUOUS
 62
       7
100
AcDbLine
 10
40.7185939
 20
28.42890588
 30
0.0
 11
36.71859418
 21
28.42890588
 31
0.0
  0
LINE
  5
9D
100
AcDbEntity
  8
0
  6
CONTINUOUS
 62
       7
100
AcDbLine
 10
35.71859418
 20
11.42890589
 30
0.0
 11
36.71859418
 21
11.42890589
 31
0.0
  0
LINE
  5
9E
100
AcDbEntity
  8
0
  6
CONTINUOUS
 62
       7
100
AcDbLine
 10
99.8511385
 20
46.92890518
 30
0.0
 11
109.15113876
 21
46.92890518
 31
0.0
  0
LINE
  5
9F
100
AcDbEntity
  8
0
  6
CONTINUOUS
 62
       7
100
AcDbLine
 10
148.85113721
 20
1.92890525
 30
0.0
 11
139.55113811
 21
1.92890525
 31
0.0
  0
LINE
  5
A0
100
AcDbEntity
  8
0
  6
CONTINUOUS
 62
       7
100
AcDbLine
 10
122.60113897
 20
62.92890594
 30
0.0
 11
98.85113833
 21
62.92890594
 31
0.0
  0
LINE
  5
A1
100
AcDbEntity
  8
0
  6
CONTINUOUS
 62
       7
100
AcDbLine
 10
111.65113871
 20
46.92890518
 30
0.0
 11
119.45113873
 21
46.92890518
 31
0.0
  0
LINE
  5
A2
100
AcDbEntity
  8
0
  6
CONTINUOUS
 62
       7
100
AcDbLine
 10
109.15113876
 20
46.92890518
 30
0.0
 11
109.15113876
 21
62.92890594
 31
0.0
  0
LINE
  5
A3
100
AcDbEntity
  8
0
  6
CONTINUOUS
 62
       7
100
AcDbLine
 10
98.85113833
 20
62.92890594
 30
0.0
 11
98.85113833
 21
-14.07109365
 31
0.0
  0
LINE
  5
A4
100
AcDbEntity
  8
0
  6
CONTINUOUS
 62
       7
100
AcDbLine
 10
108.35113896
 20
20.42890572
 30
0.0
 11
108.35113896
 21
28.42890587
 31
0.0
  0
LINE
  5
A5
100
AcDbEntity
  8
0
  6
CONTINUOUS
 62
       7
100
AcDbLine
 10
101.35113874
 20
1.92890525
 30
0.0
 11
101.35113874
 21
-14.07109365
 31
0.0
  0
LINE
  5
A6
100
AcDbEntity
  8
0
  6
CONTINUOUS
 62
       7
100
AcDbLine
 10
111.65113871
 20
1.92890525
 30
0.0
 11
111.65113871
 21
-14.07109365
 31
0.0
  0
LINE
  5
A7
100
AcDbEntity
  8
0
  6
CONTINUOUS
 62
       7
100
AcDbLine
 10
119.45113873
 20
-14.07109365
 30
0.0
 11
119.45113873
 21
1.92890525
 31
0.0
  0
LINE
  5
A8
100
AcDbEntity
  8
0
  6
CONTINUOUS
 62
       7
100
AcDbLine
 10
149.85113924
 20
-14.07109365
 30
0.0
 11
126.10113861
 21
-14.07109365
 31
0.0
  0
LINE
  5
A9
100
AcDbEntity
  8
0
  6
CONTINUOUS
 62
       7
100
AcDbLine
 10
137.05113863
 20
1.92890525
 30
0.0
 11
129.25113884
 21
1.92890525
 31
0.0
  0
LINE
  5
AA
100
AcDbEntity
  8
0
  6
CONTINUOUS
 62
       7
100
AcDbLine
 10
139.55113811
 20
1.92890525
 30
0.0
 11
139.55113811
 21
-14.07109365
 31
0.0
  0
LINE
  5
AB
100
AcDbEntity
  8
0
  6
CONTINUOUS
 62
       7
100
AcDbLine
 10
140.35113862
 20
20.42890572
 30
0.0
 11
149.85113924
 21
20.42890572
 31
0.0
  0
LINE
  5
AC
100
AcDbEntity
  8
0
  6
CONTINUOUS
 62
       7
100
AcDbLine
 10
149.85113924
 20
28.42890587
 30
0.0
 11
140.35113862
 21
28.42890587
 31
0.0
  0
LINE
  5
AD
100
AcDbEntity
  8
0
  6
CONTINUOUS
 62
       7
100
AcDbLine
 10
147.3511379
 20
46.92890518
 30
0.0
 11
147.3511379
 21
62.92890594
 31
0.0
  0
LINE
  5
AE
100
AcDbEntity
  8
0
  6
CONTINUOUS
 62
       7
100
AcDbLine
 10
137.05113863
 20
46.92890518
 30
0.0
 11
137.05113863
 21
62.92890594
 31
0.0
  0
LINE
  5
AF
100
AcDbEntity
  8
0
  6
CONTINUOUS
 62
       7
100
AcDbLine
 10
129.25113884
 20
62.92890594
 30
0.0
 11
129.25113884
 21
46.92890518
 31
0.0
  0
LINE
  5
B0
100
AcDbEntity
  8
0
  6
CONTINUOUS
 62
       7
100
AcDbLine
 10
144.85114028
 20
41.92890622
 30
0.0
 11
148.85113721
 21
41.92890622
 31
0.0
  0
LINE
  5
B1
100
AcDbEntity
  8
0
  6
CONTINUOUS
 62
       7
100
AcDbLine
 10
144.85114028
 20
46.92890518
 30
0.0
 11
144.85114028
 21
41.92890622
 31
0.0
  0
LINE
  5
B2
100
AcDbEntity
  8
0
  6
CONTINUOUS
 62
       7
100
AcDbLine
 10
148.85113721
 20
6.92890607
 30
0.0
 11
144.85114028
 21
6.92890607
 31
0.0
  0
LINE
  5
B3
100
AcDbEntity
  8
0
  6
CONTINUOUS
 62
       7
100
AcDbLine
 10
103.85113915
 20
1.92890525
 30
0.0
 11
103.85113915
 21
6.92890607
 31
0.0
  0
LINE
  5
B4
100
AcDbEntity
  8
0
  6
CONTINUOUS
 62
       7
100
AcDbLine
 10
103.85113915
 20
6.92890607
 30
0.0
 11
99.8511385
 21
6.92890607
 31
0.0
  0
LINE
  5
B5
100
AcDbEntity
  8
0
  6
CONTINUOUS
 62
       7
100
AcDbLine
 10
99.8511385
 20
46.92890518
 30
0.0
 11
99.8511385
 21
41.92890622
 31
0.0
  0
LINE
  5
B6
100
AcDbEntity
  8
0
  6
CONTINUOUS
 62
       7
100
AcDbLine
 10
125.35113895
 20
19.32890573
 30
0.0
 11
125.35113895
 21
20.55592253
 31
0.0
  0
LINE
  5
B7
100
AcDbEntity
  8
0
  6
CONTINUOUS
 62
       7
100
AcDbLine
 10
123.35113862
 20
20.55592252
 30
0.0
 11
123.35113862
 21
19.32890573
 31
0.0
  0
LINE
  5
B8
100
AcDbEntity
  8
0
  6
CONTINUOUS
 62
       7
100
AcDbLine
 10
122.60113897
 20
-7.32109487
 30
0.0
 11
126.10113861
 21
-7.32109487
 31
0.0
  0
LINE
  5
B9
100
AcDbEntity
  8
0
  6
CONTINUOUS
 62
       7
100
AcDbLine
 10
126.10113861
 20
56.17890716
 30
0.0
 11
126.10113861
 21
64.92890626
 31
0.0
  0
LINE
  5
BA
100
AcDbEntity
  8
0
  6
CONTINUOUS
 62
       7
100
AcDbLine
 10
122.60113897
 20
-8.62109452
 30
0.0
 11
126.10113861
 21
-8.62109452
 31
0.0
  0
LINE
  5
BB
100
AcDbEntity
  8
0
  6
CONTINUOUS
 62
       7
100
AcDbLine
 10
122.60113897
 20
-14.19609576
 30
0.0
 11
126.10113861
 21
-14.19609576
 31
0.0
  0
LINE
  5
BC
100
AcDbEntity
  8
0
  6
CONTINUOUS
 62
       7
100
AcDbLine
 10
122.60113897
 20
-16.07109398
 30
0.0
 11
126.10113861
 21
-16.07109398
 31
0.0
  0
LINE
  5
BD
100
AcDbEntity
  8
0
  6
CONTINUOUS
 62
       7
100
AcDbLine
 10
122.60113897
 20
64.92890626
 30
0.0
 11
126.10113861
 21
64.92890626
 31
0.0
  0
LINE
  5
BE
100
AcDbEntity
  8
0
  6
CONTINUOUS
 62
       7
100
AcDbLine
 10
119.3511389
 20
-16.07109398
 30
0.0
 11
115.35113871
 21
-16.07109398
 31
0.0
  0
LINE
  5
BF
100
AcDbEntity
  8
0
  6
CONTINUOUS
 62
       7
100
AcDbLine
 10
119.3511389
 20
-18.0710943
 30
0.0
 11
119.3511389
 21
-16.07109398
 31
0.0
  0
LINE
  5
C0
100
AcDbEntity
  8
0
  6
CONTINUOUS
 62
       7
100
AcDbLine
 10
126.35113911
 20
-20.07109463
 30
0.0
 11
122.35113846
 21
-20.07109463
 31
0.0
  0
LINE
  5
C1
100
AcDbEntity
  8
0
  6
CONTINUOUS
 62
       7
100
AcDbLine
 10
129.35113867
 20
-16.07109398
 30
0.0
 11
129.35113867
 21
-18.0710943
 31
0.0
  0
LINE
  5
C2
100
AcDbEntity
  8
0
  6
CONTINUOUS
 62
       7
100
AcDbLine
 10
135.35113966
 20
-14.07109365
 30
0.0
 11
133.35113933
 21
-16.07109398
 31
0.0
  0
LINE
  5
C3
100
AcDbEntity
  8
0
  6
CONTINUOUS
 62
       7
100
AcDbLine
 10
147.3511379
 20
54.72890496
 30
0.0
 11
139.55113811
 21
54.72890496
 31
0.0
  0
LINE
  5
C4
100
AcDbEntity
  8
0
  6
CONTINUOUS
 62
       7
100
AcDbLine
 10
137.05113863
 20
54.72890496
 30
0.0
 11
129.25113884
 21
54.72890496
 31
0.0
  0
LINE
  5
C5
100
AcDbEntity
  8
0
  6
CONTINUOUS
 62
       7
100
AcDbLine
 10
119.45113873
 20
54.72890496
 30
0.0
 11
111.65113871
 21
54.72890496
 31
0.0
  0
LINE
  5
C6
100
AcDbEntity
  8
0
  6
CONTINUOUS
 62
       7
100
AcDbLine
 10
101.35113874
 20
-5.87109454
 30
0.0
 11
109.15113876
 21
-5.87109454
 31
0.0
  0
LINE
  5
C7
100
AcDbEntity
  8
0
  6
CONTINUOUS
 62
       7
100
AcDbLine
 10
109.15113876
 20
1.92890525
 30
0.0
 11
99.8511385
 21
1.92890525
 31
0.0
  0
LINE
  5
C8
100
AcDbEntity
  8
0
  6
CONTINUOUS
 62
       7
100
AcDbLine
 10
139.55113811
 20
46.92890518
 30
0.0
 11
148.85113721
 21
46.92890518
 31
0.0
  0
LINE
  5
C9
100
AcDbEntity
  8
0
  6
CONTINUOUS
 62
       7
100
AcDbLine
 10
119.45113873
 20
46.92890518
 30
0.0
 11
119.45113873
 21
62.92890594
 31
0.0
  0
LINE
  5
CA
100
AcDbEntity
  8
0
  6
CONTINUOUS
 62
       7
100
AcDbLine
 10
111.65113871
 20
62.92890594
 30
0.0
 11
111.65113871
 21
46.92890518
 31
0.0
  0
LINE
  5
CB
100
AcDbEntity
  8
0
  6
CONTINUOUS
 62
       7
100
AcDbLine
 10
101.35113874
 20
62.92890594
 30
0.0
 11
101.35113874
 21
46.92890518
 31
0.0
  0
LINE
  5
CC
100
AcDbEntity
  8
0
  6
CONTINUOUS
 62
       7
100
AcDbLine
 10
108.35113896
 20
28.42890587
 30
0.0
 11
98.85113833
 21
28.42890587
 31
0.0
  0
LINE
  5
CD
100
AcDbEntity
  8
0
  6
CONTINUOUS
 62
       7
100
AcDbLine
 10
98.85113833
 20
20.42890572
 30
0.0
 11
108.35113896
 21
20.42890572
 31
0.0
  0
LINE
  5
CE
100
AcDbEntity
  8
0
  6
CONTINUOUS
 62
       7
100
AcDbLine
 10
109.15113876
 20
-14.07109365
 30
0.0
 11
109.15113876
 21
1.92890525
 31
0.0
  0
LINE
  5
CF
100
AcDbEntity
  8
0
  6
CONTINUOUS
 62
       7
100
AcDbLine
 10
119.45113873
 20
1.92890525
 30
0.0
 11
111.65113871
 21
1.92890525
 31
0.0
  0
LINE
  5
D0
100
AcDbEntity
  8
0
  6
CONTINUOUS
 62
       7
100
AcDbLine
 10
122.60113897
 20
-14.07109365
 30
0.0
 11
98.85113833
 21
-14.07109365
 31
0.0
  0
LINE
  5
D1
100
AcDbEntity
  8
0
  6
CONTINUOUS
 62
       7
100
AcDbLine
 10
129.25113884
 20
1.92890525
 30
0.0
 11
129.25113884
 21
-14.07109365
 31
0.0
  0
LINE
  5
D2
100
AcDbEntity
  8
0
  6
CONTINUOUS
 62
       7
100
AcDbLine
 10
137.05113863
 20
-14.07109365
 30
0.0
 11
137.05113863
 21
1.92890525
 31
0.0
  0
LINE
  5
D3
100
AcDbEntity
  8
0
  6
CONTINUOUS
 62
       7
100
AcDbLine
 10
147.3511379
 20
-14.07109365
 30
0.0
 11
147.3511379
 21
1.92890525
 31
0.0
  0
LINE
  5
D4
100
AcDbEntity
  8
0
  6
CONTINUOUS
 62
       7
100
AcDbLine
 10
140.35113862
 20
28.42890587
 30
0.0
 11
140.35113862
 21
20.42890572
 31
0.0
  0
LINE
  5
D5
100
AcDbEntity
  8
0
  6
CONTINUOUS
 62
       7
100
AcDbLine
 10
149.85113924
 20
62.92890594
 30
0.0
 11
149.85113924
 21
-14.07109365
 31
0.0
  0
LINE
  5
D6
100
AcDbEntity
  8
0
  6
CONTINUOUS
 62
       7
100
AcDbLine
 10
139.55113811
 20
62.92890594
 30
0.0
 11
139.55113811
 21
46.92890518
 31
0.0
  0
LINE
  5
D7
100
AcDbEntity
  8
0
  6
CONTINUOUS
 62
       7
100
AcDbLine
 10
129.25113884
 20
46.92890518
 30
0.0
 11
137.05113863
 21
46.92890518
 31
0.0
  0
LINE
  5
D8
100
AcDbEntity
  8
0
  6
CONTINUOUS
 62
       7
100
AcDbLine
 10
149.85113924
 20
62.92890594
 30
0.0
 11
126.10113861
 21
62.92890594
 31
0.0
  0
LINE
  5
D9
100
AcDbEntity
  8
0
  6
CONTINUOUS
 62
       7
100
AcDbLine
 10
148.85113721
 20
41.92890622
 30
0.0
 11
148.85113721
 21
46.92890518
 31
0.0
  0
LINE
  5
DA
100
AcDbEntity
  8
0
  6
CONTINUOUS
 62
       7
100
AcDbLine
 10
148.85113721
 20
1.92890525
 30
0.0
 11
148.85113721
 21
6.92890607
 31
0.0
  0
LINE
  5
DB
100
AcDbEntity
  8
0
  6
CONTINUOUS
 62
       7
100
AcDbLine
 10
144.85114028
 20
6.92890607
 30
0.0
 11
144.85114028
 21
1.92890525
 31
0.0
  0
LINE
  5
DC
100
AcDbEntity
  8
0
  6
CONTINUOUS
 62
       7
100
AcDbLine
 10
99.8511385
 20
6.92890607
 30
0.0
 11
99.8511385
 21
1.92890525
 31
0.0
  0
LINE
  5
DD
100
AcDbEntity
  8
0
  6
CONTINUOUS
 62
       7
100
AcDbLine
 10
103.85113915
 20
41.92890622
 30
0.0
 11
103.85113915
 21
46.92890518
 31
0.0
  0
LINE
  5
DE
100
AcDbEntity
  8
0
  6
CONTINUOUS
 62
       7
100
AcDbLine
 10
99.8511385
 20
41.92890622
 30
0.0
 11
103.85113915
 21
41.92890622
 31
0.0
  0
LINE
  5
DF
100
AcDbEntity
  8
0
  6
CONTINUOUS
 62
       7
100
AcDbLine
 10
123.35113862
 20
19.32890573
 30
0.0
 11
125.35113895
 21
19.32890573
 31
0.0
  0
LINE
  5
E0
100
AcDbEntity
  8
0
  6
CONTINUOUS
 62
       7
100
AcDbLine
 10
122.60113897
 20
56.17890716
 30
0.0
 11
126.10113861
 21
56.17890716
 31
0.0
  0
LINE
  5
E1
100
AcDbEntity
  8
0
  6
CONTINUOUS
 62
       7
100
AcDbLine
 10
122.60113897
 20
56.17890716
 30
0.0
 11
122.60113897
 21
64.92890626
 31
0.0
  0
LINE
  5
E2
100
AcDbEntity
  8
0
  6
CONTINUOUS
 62
       7
100
AcDbLine
 10
122.60113897
 20
57.47890681
 30
0.0
 11
126.10113861
 21
57.47890681
 31
0.0
  0
LINE
  5
E3
100
AcDbEntity
  8
0
  6
CONTINUOUS
 62
       7
100
AcDbLine
 10
126.10113861
 20
-16.07109398
 30
0.0
 11
126.10113861
 21
-7.32109487
 31
0.0
  0
LINE
  5
E4
100
AcDbEntity
  8
0
  6
CONTINUOUS
 62
       7
100
AcDbLine
 10
122.60113897
 20
-16.07109398
 30
0.0
 11
122.60113897
 21
-7.32109487
 31
0.0
  0
LINE
  5
E5
100
AcDbEntity
  8
0
  6
CONTINUOUS
 62
       7
100
AcDbLine
 10
122.60113897
 20
63.05390433
 30
0.0
 11
126.10113861
 21
63.05390433
 31
0.0
  0
CIRCLE
  5
E6
100
AcDbEntity
  8
0
  6
CONTINUOUS
 62
       7
100
AcDbCircle
 10
132.41198769
 20
27.76781876
 30
0.0
 40
1.0
  0
CIRCLE
  5
E7
100
AcDbEntity
  8
0
  6
CONTINUOUS
 62
       7
100
AcDbCircle
 10
127.69005171
 20
32.48975474
 30
0.0
 40
1.0
  0
CIRCLE
  5
E8
100
AcDbEntity
  8
0
  6
CONTINUOUS
 62
       7
100
AcDbCircle
 10
121.01222582
 20
16.3680569
 30
0.0
 40
1.0
  0
CIRCLE
  5
E9
100
AcDbEntity
  8
0
  6
CONTINUOUS
 62
       7
100
AcDbCircle
 10
116.29028984
 20
27.76781876
 30
0.0
 40
1.0
  0
CIRCLE
  5
EA
100
AcDbEntity
  8
0
  6
CONTINUOUS
 62
       7
100
AcDbCircle
 10
143.45113876
 20
-1.97109418
 30
0.0
 40
3.5
  0
CIRCLE
  5
EB
100
AcDbEntity
  8
0
  6
CONTINUOUS
 62
       7
100
AcDbCircle
 10
133.15113876
 20
-1.97109418
 30
0.0
 40
3.5
  0
CIRCLE
  5
EC
100
AcDbEntity
  8
0
  6
CONTINUOUS
 62
       7
100
AcDbCircle
 10
115.55113876
 20
50.82890582
 30
0.0
 40
3.5
  0
CIRCLE
  5
ED
100
AcDbEntity
  8
0
  6
CONTINUOUS
 62
       7
100
AcDbCircle
 10
105.25113876
 20
50.82890582
 30
0.0
 40
3.5
  0
CIRCLE
  5
EE
100
AcDbEntity
  8
0
  6
CONTINUOUS
 62
       7
100
AcDbCircle
 10
104.35113876
 20
24.42890582
 30
0.0
 40
2.25
  0
CIRCLE
  5
EF
100
AcDbEntity
  8
0
  6
CONTINUOUS
 62
       7
100
AcDbCircle
 10
124.35113876
 20
24.42890582
 30
0.0
 40
13.0
  0
CIRCLE
  5
F0
100
AcDbEntity
  8
0
  6
CONTINUOUS
 62
       7
100
AcDbCircle
 10
132.41198769
 20
21.08999287
 30
0.0
 40
1.0
  0
CIRCLE
  5
F1
100
AcDbEntity
  8
0
  6
CONTINUOUS
 62
       7
100
AcDbCircle
 10
127.69005171
 20
16.3680569
 30
0.0
 40
1.0
  0
CIRCLE
  5
F2
100
AcDbEntity
  8
0
  6
CONTINUOUS
 62
       7
100
AcDbCircle
 10
121.01222582
 20
32.48975474
 30
0.0
 40
1.0
  0
CIRCLE
  5
F3
100
AcDbEntity
  8
0
  6
CONTINUOUS
 62
       7
100
AcDbCircle
 10
116.29028984
 20
21.08999287
 30
0.0
 40
1.0
  0
CIRCLE
  5
F4
100
AcDbEntity
  8
0
  6
CONTINUOUS
 62
       7
100
AcDbCircle
 10
143.45113876
 20
50.82890582
 30
0.0
 40
3.5
  0
CIRCLE
  5
F5
100
AcDbEntity
  8
0
  6
CONTINUOUS
 62
       7
100
AcDbCircle
 10
133.15113876
 20
50.82890582
 30
0.0
 40
3.5
  0
CIRCLE
  5
F6
100
AcDbEntity
  8
0
  6
CONTINUOUS
 62
       7
100
AcDbCircle
 10
115.55113876
 20
-1.97109418
 30
0.0
 40
3.5
  0
CIRCLE
  5
F7
100
AcDbEntity
  8
0
  6
CONTINUOUS
 62
       7
100
AcDbCircle
 10
105.25113876
 20
-1.97109418
 30
0.0
 40
3.5
  0
CIRCLE
  5
F8
100
AcDbEntity
  8
0
  6
CONTINUOUS
 62
       7
100
AcDbCircle
 10
144.35113876
 20
24.42890582
 30
0.0
 40
2.25
  0
ARC
  5
F9
100
AcDbEntity
  8
0
  6
CONTINUOUS
 62
       7
100
AcDbCircle
 10
124.35113876
 20
24.42890582
 30
0.0
 40
3.99999999
100
AcDbArc
 50
284.47751488
 51
615.52248557
  0
LINE
  5
FA
100
AcDbEntity
  8
0
  6
CENTERX2
 62
       7
100
AcDbLine
 10
104.35113876
 20
18.93310909
 30
0.0
 11
104.35113876
 21
30.18079462
 31
0.0
  0
LINE
  5
FB
100
AcDbEntity
  8
0
  6
CENTERX2
 62
       7
100
AcDbLine
 10
92.77573048
 20
24.42890582
 30
0.0
 11
153.40030771
 21
24.42890582
 31
0.0
  0
LINE
  5
FC
100
AcDbEntity
  8
0
  6
CENTERX2
 62
       7
100
AcDbLine
 10
144.35113876
 20
18.86007204
 30
0.0
 11
144.35113876
 21
29.66953595
 31
0.0
  0
LINE
  5
FD
100
AcDbEntity
  8
0
  6
CENTERX2
 62
       7
100
AcDbLine
 10
124.35113876
 20
71.84700308
 30
0.0
 11
124.35113876
 21
-25.2700381
 31
0.0
  0
CIRCLE
  5
FE
100
AcDbEntity
  8
0
  6
CENTERX2
 62
       7
100
AcDbCircle
 10
124.35113876
 20
24.42890582
 30
0.0
 40
8.725
  0
LINE
  5
FF
100
AcDbEntity
  8
レイヤー_1
  6
CONTINUOUS
 62
       7
100
AcDbLine
 10
-147.6188556
 20
64.42890584
 30
0.0
 11
-147.6188556
 21
-15.57109416
 31
0.0
  0
LINE
  5
100
100
AcDbEntity
  8
レイヤー_1
  6
CONTINUOUS
 62
       7
100
AcDbLine
 10
-97.6188556
 20
64.42890584
 30
0.0
 11
-97.6188556
 21
-15.57109416
 31
0.0
  0
LINE
  5
101
100
AcDbEntity
  8
レイヤー_1
  6
CONTINUOUS
 62
       7
100
AcDbLine
 10
35.71859418
 20
-15.57109417
 30
0.0
 11
35.71859418
 21
64.42890583
 31
0.0
  0
LINE
  5
102
100
AcDbEntity
  8
SLD-0_0
  6
CONTINUOUS
 62
       7
100
AcDbLine
 10
-107.62364686
 20
64.42890584
 30
0.0
 11
-107.62364686
 21
56.42890583
 31
0.0
  0
LINE
  5
103
100
AcDbEntity
  8
SLD-0_0
  6
CONTINUOUS
 62
       7
100
AcDbLine
 10
-109.62352478
 20
-7.57109417
 30
0.0
 11
-109.62352478
 21
-15.57109416
 31
0.0
  0
LINE
  5
104
100
AcDbEntity
  8
SLD-0_0
  6
CONTINUOUS
 62
       7
100
AcDbLine
 10
-124.35819817
 20
64.41677509
 30
0.0
 11
-124.35819817
 21
56.42890583
 31
0.0
  0
LINE
  5
105
100
AcDbEntity
  8
SLD-0_0
  6
CONTINUOUS
 62
       7
100
AcDbLine
 10
-99.62585769
 20
-7.57109417
 30
0.0
 11
-99.62585769
 21
-15.57109416
 31
0.0
  0
LINE
  5
106
100
AcDbEntity
  8
SLD-0_0
  6
CONTINUOUS
 62
       7
100
AcDbLine
 10
-135.62366041
 20
64.42890584
 30
0.0
 11
-135.62366041
 21
56.42890583
 31
0.0
  0
LINE
  5
107
100
AcDbEntity
  8
SLD-0_0
  6
CONTINUOUS
 62
       7
100
AcDbLine
 10
-99.62585769
 20
56.42890583
 30
0.0
 11
-99.62585769
 21
64.42890584
 31
0.0
  0
LINE
  5
108
100
AcDbEntity
  8
SLD-0_0
  6
CONTINUOUS
 62
       7
100
AcDbLine
 10
-107.62364686
 20
-15.57109416
 30
0.0
 11
-107.62364686
 21
-7.57109417
 31
0.0
  0
LINE
  5
109
100
AcDbEntity
  8
SLD-0_0
  6
CONTINUOUS
 62
       7
100
AcDbLine
 10
-145.62046625
 20
64.42890584
 30
0.0
 11
-145.62046625
 21
56.42890583
 31
0.0
  0
LINE
  5
10A
100
AcDbEntity
  8
SLD-0_0
  6
CONTINUOUS
 62
       7
100
AcDbLine
 10
-109.62352478
 20
56.42890583
 30
0.0
 11
-109.62352478
 21
64.42890584
 31
0.0
  0
LINE
  5
10B
100
AcDbEntity
  8
SLD-0_0
  6
CONTINUOUS
 62
       7
100
AcDbLine
 10
-135.62366041
 20
-15.57109416
 30
0.0
 11
-135.62366041
 21
-7.57109417
 31
0.0
  0
LINE
  5
10C
100
AcDbEntity
  8
SLD-0_0
  6
CONTINUOUS
 62
       7
100
AcDbLine
 10
-120.88037428
 20
56.42890583
 30
0.0
 11
-120.88037428
 21
64.41677509
 31
0.0
  0
LINE
  5
10D
100
AcDbEntity
  8
SLD-0_0
  6
CONTINUOUS
 62
       7
100
AcDbLine
 10
-137.62353835
 20
56.42890583
 30
0.0
 11
-137.62353835
 21
64.42890584
 31
0.0
  0
LINE
  5
10E
100
AcDbEntity
  8
SLD-0_0
  6
CONTINUOUS
 62
       7
100
AcDbLine
 10
-145.62046625
 20
-15.57109416
 30
0.0
 11
-145.62046625
 21
-7.57109417
 31
0.0
  0
LINE
  5
10F
100
AcDbEntity
  8
SLD-0_0
  6
CONTINUOUS
 62
       7
100
AcDbLine
 10
-137.62353835
 20
-7.57109417
 30
0.0
 11
-137.62353835
 21
-15.57109416
 31
0.0
  0
LINE
  5
110
100
AcDbEntity
  8
SLD-0_0
  6
CONTINUOUS
 62
       7
100
AcDbLine
 10
-120.86745517
 20
-15.54862813
 30
0.0
 11
-120.86745517
 21
-7.57109417
 31
0.0
  0
LINE
  5
111
100
AcDbEntity
  8
SLD-0_0
  6
CONTINUOUS
 62
       7
100
AcDbLine
 10
-97.6188556
 20
64.42890584
 30
0.0
 11
-147.6188556
 21
64.42890584
 31
0.0
  0
LINE
  5
112
100
AcDbEntity
  8
SLD-0_0
  6
CONTINUOUS
 62
       7
100
AcDbLine
 10
-124.36594964
 20
-7.57109417
 30
0.0
 11
-124.36594964
 21
-15.54862813
 31
0.0
  0
LINE
  5
113
100
AcDbEntity
  8
SLD-0_0
  6
CONTINUOUS
 62
       7
100
AcDbLine
 10
-97.6188556
 20
-15.57109416
 30
0.0
 11
-147.6188556
 21
-15.57109416
 31
0.0
  0
LINE
  5
114
100
AcDbEntity
  8
SLD-0_0
  6
CONTINUOUS
 62
       7
100
AcDbLine
 10
-63.78140582
 20
12.42890583
 30
0.0
 11
-61.28140582
 21
13.42890583
 31
0.0
  0
LINE
  5
115
100
AcDbEntity
  8
SLD-0_0
  6
CONTINUOUS
 62
       7
100
AcDbLine
 10
-61.28140582
 20
1.42890583
 30
0.0
 11
-63.78140582
 21
2.42890583
 31
0.0
  0
LINE
  5
116
100
AcDbEntity
  8
SLD-0_0
  6
CONTINUOUS
 62
       7
100
AcDbLine
 10
-61.28140582
 20
0.42890583
 30
0.0
 11
-61.28140582
 21
14.42890583
 31
0.0
  0
LINE
  5
117
100
AcDbEntity
  8
SLD-0_0
  6
CONTINUOUS
 62
       7
100
AcDbLine
 10
-61.28140582
 20
13.42890583
 30
0.0
 11
-59.28140582
 21
13.42890583
 31
0.0
  0
LINE
  5
118
100
AcDbEntity
  8
SLD-0_0
  6
CONTINUOUS
 62
       7
100
AcDbLine
 10
-63.78140582
 20
2.42890583
 30
0.0
 11
-63.78140582
 21
12.42890583
 31
0.0
  0
LINE
  5
119
100
AcDbEntity
  8
SLD-0_0
  6
CONTINUOUS
 62
       7
100
AcDbLine
 10
-61.28140582
 20
1.42890583
 30
0.0
 11
-59.28140582
 21
1.42890583
 31
0.0
  0
LINE
  5
11A
100
AcDbEntity
  8
SLD-0_0
  6
CONTINUOUS
 62
       7
100
AcDbLine
 10
-61.28140582
 20
0.42890583
 30
0.0
 11
-59.28140582
 21
0.42890583
 31
0.0
  0
LINE
  5
11B
100
AcDbEntity
  8
SLD-0_0
  6
CONTINUOUS
 62
       7
100
AcDbLine
 10
-61.28140582
 20
14.42890583
 30
0.0
 11
-59.28140582
 21
14.42890583
 31
0.0
  0
CIRCLE
  5
11C
100
AcDbEntity
  8
SLD-0_0
  6
CONTINUOUS
 62
       7
100
AcDbCircle
 10
-113.6188556
 20
7.42890583
 30
0.0
 40
7.0
  0
TEXT
  5
11D
100
AcDbEntity
  8
SLD-0
 62
       7
100
AcDbText
 10
115.76885651
 20
-74.34700308
 30
0.0
 40
5.0
  1
000
 72
       5
 11
130.76885651
 21
-74.34700308
 31
0.0
100
AcDbText
  0
ENDSEC
  0
SECTION
  2
OBJECTS
  0
DICTIONARY
  5
19
100
AcDbDictionary
  3
ACAD_GROUP
350
1A
  3
ACAD_MLINESTYLE
350
1B
  0
DICTIONARY
  5
1A
102
{ACAD_REACTORS
330
19
102
}
100
AcDbDictionary
  0
DICTIONARY
  5
1B
102
{ACAD_REACTORS
330
19
102
}
100
AcDbDictionary
  3
STANDARD
350
1C
  0
MLINESTYLE
  5
1C
102
{ACAD_REACTORS
330
1B
102
}
100
AcDbMlineStyle
  2
STANDARD
 70
       0
  3

 62
       0
 51
90.0
 52
90.0
 71
       2
 49
0.5
 62
     256
  6
BYLAYER
 49
-0.5
 62
     256
  6
BYLAYER
  0
ENDSEC
  0
EOF
