  0
SECTION
  2
HEADER
  9
$ACADVER
  1
AC1014
  9
$ACADMAINTVER
 70
       0
  9
$DWGCODEPAGE
  3
ANSI_932
  9
$INSBASE
 10
0.0
 20
0.0
 30
0.0
  9
$EXTMIN
 10
-87.15547754
 20
-67.89261641
 30
0.0
  9
$EXTMAX
 10
87.15547754
 20
65.39261641
 30
0.0
  9
$LIMMIN
 10
-92.60269489
 20
-72.05777994
  9
$LIMMAX
 10
92.60269489
 20
69.55777994
  9
$ORTHOMODE
 70
       0
  9
$REGENMODE
 70
       1
  9
$FILLMODE
 70
       1
  9
$QTEXTMODE
 70
       0
  9
$MIRRTEXT
 70
       1
  9
$DRAGMODE
 70
       2
  9
$LTSCALE
 40
1.0
  9
$OSMODE
 70
       0
  9
$ATTMODE
 70
       1
  9
$TEXTSIZE
 40
0.2
  9
$TRACEWID
 40
0.05
  9
$TEXTSTYLE
  7
STANDARD
  9
$CLAYER
  8
0
  9
$CELTYPE
  6
CONTINUOUS
  9
$CECOLOR
 62
     256
  9
$CELTSCALE
 40
1.0
  9
$DELOBJ
 70
       1
  9
$DISPSILH
 70
       0
  9
$DIMSCALE
 40
1.0
  9
$DIMASZ
 40
0.18
  9
$DIMEXO
 40
0.0625
  9
$DIMDLI
 40
0.38
  9
$DIMRND
 40
0.0
  9
$DIMDLE
 40
0.0
  9
$DIMEXE
 40
0.18
  9
$DIMTP
 40
0.0
  9
$DIMTM
 40
0.0
  9
$DIMTXT
 40
0.18
  9
$DIMCEN
 40
0.09
  9
$DIMTSZ
 40
0.0
  9
$DIMTOL
 70
       0
  9
$DIMLIM
 70
       0
  9
$DIMTIH
 70
       1
  9
$DIMTOH
 70
       1
  9
$DIMSE1
 70
       0
  9
$DIMSE2
 70
       0
  9
$DIMTAD
 70
       0
  9
$DIMZIN
 70
       0
  9
$DIMBLK
  1

  9
$DIMASO
 70
       1
  9
$DIMSHO
 70
       1
  9
$DIMPOST
  1

  9
$DIMAPOST
  1

  9
$DIMALT
 70
       0
  9
$DIMALTD
 70
       2
  9
$DIMALTF
 40
25.4
  9
$DIMLFAC
 40
1.0
  9
$DIMTOFL
 70
       0
  9
$DIMTVP
 40
0.0
  9
$DIMTIX
 70
       0
  9
$DIMSOXD
 70
       0
  9
$DIMSAH
 70
       0
  9
$DIMBLK1
  1

  9
$DIMBLK2
  1

  9
$DIMSTYLE
  2
STANDARD
  9
$DIMCLRD
 70
       0
  9
$DIMCLRE
 70
       0
  9
$DIMCLRT
 70
       0
  9
$DIMTFAC
 40
1.0
  9
$DIMGAP
 40
0.09
  9
$DIMJUST
 70
       0
  9
$DIMSD1
 70
       0
  9
$DIMSD2
 70
       0
  9
$DIMTOLJ
 70
       1
  9
$DIMTZIN
 70
       0
  9
$DIMALTZ
 70
       0
  9
$DIMALTTZ
 70
       0
  9
$DIMFIT
 70
       3
  9
$DIMUPT
 70
       0
  9
$DIMUNIT
 70
       2
  9
$DIMDEC
 70
       4
  9
$DIMTDEC
 70
       4
  9
$DIMALTU
 70
       2
  9
$DIMALTTD
 70
       2
  9
$DIMTXSTY
  7
STANDARD
  9
$DIMAUNIT
 70
       0
  9
$LUNITS
 70
       2
  9
$LUPREC
 70
       4
  9
$SKETCHINC
 40
0.1
  9
$FILLETRAD
 40
0.0
  9
$AUNITS
 70
       0
  9
$AUPREC
 70
       0
  9
$MENU
  1
acad
  9
$ELEVATION
 40
0.0
  9
$PELEVATION
 40
0.0
  9
$THICKNESS
 40
0.0
  9
$LIMCHECK
 70
       0
  9
$BLIPMODE
 70
       1
  9
$CHAMFERA
 40
0.0
  9
$CHAMFERB
 40
0.0
  9
$CHAMFERC
 40
0.0
  9
$CHAMFERD
 40
0.0
  9
$SKPOLY
 70
       0
  9
$TDCREATE
 40
0.000000000
  9
$TDUPDATE
 40
0.000000000
  9
$TDINDWG
 40
0.0000000000
  9
$TDUSRTIMER
 40
0.0000000000
  9
$USRTIMER
 70
       1
  9
$ANGBASE
 50
0.0
  9
$ANGDIR
 70
       0
  9
$PDMODE
 70
       0
  9
$PDSIZE
 40
1.0
  9
$PLINEWID
 40
0.0
  9
$COORDS
 70
       1
  9
$SPLFRAME
 70
       0
  9
$SPLINETYPE
 70
       6
  9
$SPLINESEGS
 70
       8
  9
$ATTDIA
 70
       0
  9
$ATTREQ
 70
       1
  9
$HANDLING
 70
       1
  9
$HANDSEED
  5
256
  9
$SURFTAB1
 70
       6
  9
$SURFTAB2
 70
       6
  9
$SURFTYPE
 70
       6
  9
$SURFU
 70
       6
  9
$SURFV
 70
       6
  9
$UCSNAME
  2

  9
$UCSORG
 10
0.0
 20
0.0
 30
0.0
  9
$UCSXDIR
 10
1.0
 20
0.0
 30
0.0
  9
$UCSYDIR
 10
0.0
 20
1.0
 30
0.0
  9
$PUCSNAME
  2

  9
$PUCSORG
 10
0.0
 20
0.0
 30
0.0
  9
$PUCSXDIR
 10
1.0
 20
0.0
 30
0.0
  9
$PUCSYDIR
 10
0.0
 20
1.0
 30
0.0
  9
$USERI1
 70
       0
  9
$USERI2
 70
       0
  9
$USERI3
 70
       0
  9
$USERI4
 70
       0
  9
$USERI5
 70
       0
  9
$USERR1
 40
0.0
  9
$USERR2
 40
0.0
  9
$USERR3
 40
0.0
  9
$USERR4
 40
0.0
  9
$USERR5
 40
0.0
  9
$WORLDVIEW
 70
       1
  9
$SHADEDGE
 70
       3
  9
$SHADEDIF
 70
      70
  9
$TILEMODE
 70
       1
  9
$MAXACTVP
 70
      16
  9
$PINSBASE
 10
0.0
 20
0.0
 30
0.0
  9
$PLIMCHECK
 70
       0
  9
$PEXTMIN
 10
1.00000000E+20
 20
1.00000000E+20
 30
1.00000000E+20
  9
$PEXTMAX
 10
-1.00000000E+20
 20
-1.00000000E+20
 30
-1.00000000E+20
  9
$PLIMMIN
 10
0.0
 20
0.0
  9
$PLIMMAX
 10
12.0
 20
9.0
  9
$UNITMODE
 70
       0
  9
$VISRETAIN
 70
       0
  9
$PLINEGEN
 70
       1
  9
$PSLTSCALE
 70
       0
  9
$TREEDEPTH
 70
    3020
  9
$PICKSTYLE
 70
       1
  9
$CMLSTYLE
  2
STANDARD
  9
$CMLJUST
 70
       0
  9
$CMLSCALE
 40
1.0
  9
$PROXYGRAPHICS
 70
       0
  9
$MEASUREMENT
 70
       0
  0
ENDSEC
  0
SECTION
  2
CLASSES
  0
CLASS
  1
LWPOLYLINE
  2
AcDbPolyline
  3
"AutoCAD"
 90
        0
280
       0
281
       1
  0
CLASS
  1
IMAGE
  2
AcDbRasterImage
  3
ISM
 90
      127
280
       0
281
       1
  0
CLASS
  1
OLE2FRAME
  2
AcDbOle2Frame
  3
""
 90
        0
280
       0
281
       1
  0
CLASS
  1
HATCH
  2
AcDbHatch
  3
"ACAD_SEDONA"
 90
        0
280
       0
281
       1
  0
CLASS
  1
DICTIONARYVAR
  2
AcDbDictionaryVar
  3
"AutoCAD"
 90
        0
280
       0
281
       0
  0
CLASS
  1
RASTERVARIABLES
  2
AcDbRasterVariables
  3
ISM
 90
        0
280
       0
281
       0
  0
CLASS
  1
IMAGEDEF
  2
AcDbRasterImageDef
  3
ISM
 90
        0
280
       0
281
       0
  0
CLASS
  1
IMAGEDEF_REACTOR
  2
AcDbRasterImageDefReactor
  3
ISM
 90
        1
280
       0
281
       0
  0
CLASS
  1
IDBUFFER
  2
AcDbIdBuffer
  3
"Acad"
 90
        0
280
       0
281
       0
  0
CLASS
  1
SPATIAL_FILTER
  2
AcDbSpatialFilter
  3
"Acad"
 90
        0
280
       0
281
       0
  0
CLASS
  1
XRECORD
  2
AcDbXrecord
  3
"<Built In>"
 90
        0
280
       0
281
       0
  0
CLASS
  1
SORTENTSTABLE
  2
AcDbSortentsTable
  3
"AutoCAD"
 90
        0
280
       0
281
       0
  0
CLASS
  1
LAYER_INDEX
  2
AcDbLayerIndex
  3
"Acad"
 90
        0
280
       0
281
       0
  0
CLASS
  1
SPATIAL_INDEX
  2
AcDbSpatialIndex
  3
"Acad"
 90
        0
280
       0
281
       0
  0
CLASS
  1
OBJECT_PTR
  2
CAseDLPNTableRecord
  3
"ASE-LPNTableRecord"
 90
        1
280
       0
281
       0
  0
CLASS
  1
LAYOUT
  2
AcDbLayout
  3
"AutoCAD 2000"
 90
        1
280
       0
281
       0
  0
CLASS
  1
PLOTSETTINGS
  2
AcDbPlotSettings
  3
"AutoCAD 2000"
 90
        1
280
       0
281
       0
  0
CLASS
  1
ACDBDICTIONARYWDFLT
  2
AcDbDictionaryWithDefault
  3
"AutoCAD 2000"
 90
        1
280
       0
281
       0
  0
CLASS
  1
ACDBPLACEHOLDER
  2
AcDbPlaceHolder
  3
"AutoCAD 2000"
 90
        1
280
       0
281
       0
  0
CLASS
  1
VBA_PROJECT
  2
AcDbVbaProject
  3
"acadvba"
 90
        1
280
       0
281
       0
  0
CLASS
  1
WIPEOUT
  2
AcDbWipeout
  3
WipeOut|AutoCAD Express Tool|expresstools@autodesk.com
 90
      127
280
       0
281
       1
  0
CLASS
  1
WIPEOUTVARIABLES
  2
AcDbWipeoutVariables
  3
WipeOut|AutoCAD Express Tool|expresstools@autodesk.com
 90
        0
280
       0
281
       0
  0
CLASS
  1
RTEXT
  2
RText
  3
RText|AutoCAD Express Tool|expresstools@autodesk.com
 90
        0
280
       0
281
       1
  0
CLASS
  1
ARCALIGNEDTEXT
  2
AcDbArcAlignedText
  3
ATEXT|AutoCAD Express Tool|expresstools@autodesk.com
 90
        0
280
       0
281
       1
  0
ENDSEC
  0
SECTION
  2
TABLES
  0
TABLE
  2
VPORT
  5
7
100
AcDbSymbolTable
 70
       1
  0
VPORT
  5
15
100
AcDbSymbolTableRecord
100
AcDbViewportTableRecord
  2
*ACTIVE
 70
       0
 10
0.0
 20
0.0
 11
1.0
 21
1.0
 12
0.0
 22
-1.25
 13
0.0
 23
0.0
 14
1.0
 24
1.0
 15
0.0
 25
0.0
 16
0.0
 26
0.0
 36
1.0
 17
0.0
 27
0.0
 37
0.0
 40
141.61555988
 41
1.30780396
 42
50.0
 43
0.0
 44
0.0
 50
0.0
 51
0.0
 71
       0
 72
     100
 73
       1
 74
       1
 75
       0
 76
       0
 77
       0
 78
       0
  0
ENDTAB
  0
TABLE
  2
LTYPE
  5
4
100
AcDbSymbolTable
 70
      30
  0
LTYPE
  5
11
100
AcDbSymbolTableRecord
100
AcDbLinetypeTableRecord
  2
BYBLOCK
 70
      64
  3

 72
      65
 73
       0
 40
0.0
  0
LTYPE
  5
12
100
AcDbSymbolTableRecord
100
AcDbLinetypeTableRecord
  2
BYLAYER
 70
      64
  3

 72
      65
 73
       0
 40
0.0
  0
LTYPE
  5
13
100
AcDbSymbolTableRecord
100
AcDbLinetypeTableRecord
  2
CONTINUOUS
 70
      64
  3
Solid line
 72
      65
 73
       0
 40
0.0
  0
LTYPE
  5
1D
100
AcDbSymbolTableRecord
100
AcDbLinetypeTableRecord
  2
HIDDENX2
 70
      64
  3
CADPAC LINETYPE
 72
      65
 73
       2
 40
7.39047524
 49
5.54285643
 74
       0
 49
-1.84761881
 74
       0
  0
LTYPE
  5
1E
100
AcDbSymbolTableRecord
100
AcDbLinetypeTableRecord
  2
HIDDEN
 70
      64
  3
CADPAC LINETYPE
 72
      65
 73
       2
 40
5.54285643
 49
3.69523762
 74
       0
 49
-1.84761881
 74
       0
  0
LTYPE
  5
1F
100
AcDbSymbolTableRecord
100
AcDbLinetypeTableRecord
  2
HIDDEN2
 70
      64
  3
CADPAC LINETYPE
 72
      65
 73
       2
 40
4.61904702
 49
2.77142821
 74
       0
 49
-1.84761881
 74
       0
  0
LTYPE
  5
20
100
AcDbSymbolTableRecord
100
AcDbLinetypeTableRecord
  2
DASHED
 70
      64
  3
CADPAC LINETYPE
 72
      65
 73
       2
 40
5.54285643
 49
3.69523762
 74
       0
 49
-1.84761881
 74
       0
  0
LTYPE
  5
21
100
AcDbSymbolTableRecord
100
AcDbLinetypeTableRecord
  2
DASHED2
 70
      64
  3
CADPAC LINETYPE
 72
      65
 73
       2
 40
4.15714232
 49
2.77142821
 74
       0
 49
-1.38571411
 74
       0
  0
LTYPE
  5
22
100
AcDbSymbolTableRecord
100
AcDbLinetypeTableRecord
  2
DASHEDX2
 70
      64
  3
CADPAC LINETYPE
 72
      65
 73
       2
 40
8.31428464
 49
5.54285643
 74
       0
 49
-2.77142821
 74
       0
  0
LTYPE
  5
23
100
AcDbSymbolTableRecord
100
AcDbLinetypeTableRecord
  2
DOTX2
 70
      64
  3
CADPAC LINETYPE
 72
      65
 73
       2
 40
2.30952351
 49
0.0
 74
       0
 49
-2.30952351
 74
       0
  0
LTYPE
  5
24
100
AcDbSymbolTableRecord
100
AcDbLinetypeTableRecord
  2
DOT
 70
      64
  3
CADPAC LINETYPE
 72
      65
 73
       2
 40
1.84761881
 49
0.0
 74
       0
 49
-1.84761881
 74
       0
  0
LTYPE
  5
25
100
AcDbSymbolTableRecord
100
AcDbLinetypeTableRecord
  2
DOT2
 70
      64
  3
CADPAC LINETYPE
 72
      65
 73
       2
 40
1.38571411
 49
0.0
 74
       0
 49
-1.38571411
 74
       0
  0
LTYPE
  5
26
100
AcDbSymbolTableRecord
100
AcDbLinetypeTableRecord
  2
CENTERX2
 70
      64
  3
CADPAC LINETYPE
 72
      65
 73
       4
 40
11.08571285
 49
4.61904702
 74
       0
 49
-2.30952351
 74
       0
 49
1.84761881
 74
       0
 49
-2.30952351
 74
       0
  0
LTYPE
  5
27
100
AcDbSymbolTableRecord
100
AcDbLinetypeTableRecord
  2
CENTER
 70
      64
  3
CADPAC LINETYPE
 72
      65
 73
       4
 40
8.49904652
 49
3.69523762
 74
       0
 49
-1.84761881
 74
       0
 49
1.10857129
 74
       0
 49
-1.84761881
 74
       0
  0
LTYPE
  5
28
100
AcDbSymbolTableRecord
100
AcDbLinetypeTableRecord
  2
CENTER2
 70
      64
  3
CADPAC LINETYPE
 72
      65
 73
       4
 40
5.91238019
 49
2.77142821
 74
       0
 49
-1.38571411
 74
       0
 49
0.36952376
 74
       0
 49
-1.38571411
 74
       0
  0
LTYPE
  5
29
100
AcDbSymbolTableRecord
100
AcDbLinetypeTableRecord
  2
DASHDOTX2
 70
      64
  3
CADPAC LINETYPE
 72
      65
 73
       4
 40
9.23809404
 49
4.61904702
 74
       0
 49
-2.30952351
 74
       0
 49
0.0
 74
       0
 49
-2.30952351
 74
       0
  0
LTYPE
  5
2A
100
AcDbSymbolTableRecord
100
AcDbLinetypeTableRecord
  2
DASHDOT
 70
      64
  3
CADPAC LINETYPE
 72
      65
 73
       4
 40
7.39047524
 49
3.69523762
 74
       0
 49
-1.84761881
 74
       0
 49
0.0
 74
       0
 49
-1.84761881
 74
       0
  0
LTYPE
  5
2B
100
AcDbSymbolTableRecord
100
AcDbLinetypeTableRecord
  2
DASHDOT2
 70
      64
  3
CADPAC LINETYPE
 72
      65
 73
       4
 40
5.54285643
 49
2.77142821
 74
       0
 49
-1.38571411
 74
       0
 49
0.0
 74
       0
 49
-1.38571411
 74
       0
  0
LTYPE
  5
2C
100
AcDbSymbolTableRecord
100
AcDbLinetypeTableRecord
  2
DIVIDEX2
 70
      64
  3
CADPAC LINETYPE
 72
      65
 73
       6
 40
11.54761756
 49
4.61904702
 74
       0
 49
-2.30952351
 74
       0
 49
0.0
 74
       0
 49
-2.30952351
 74
       0
 49
0.0
 74
       0
 49
-2.30952351
 74
       0
  0
LTYPE
  5
2D
100
AcDbSymbolTableRecord
100
AcDbLinetypeTableRecord
  2
DIVIDE
 70
      64
  3
CADPAC LINETYPE
 72
      65
 73
       6
 40
9.23809404
 49
3.69523762
 74
       0
 49
-1.84761881
 74
       0
 49
0.0
 74
       0
 49
-1.84761881
 74
       0
 49
0.0
 74
       0
 49
-1.84761881
 74
       0
  0
LTYPE
  5
2E
100
AcDbSymbolTableRecord
100
AcDbLinetypeTableRecord
  2
DIVIDE2
 70
      64
  3
CADPAC LINETYPE
 72
      65
 73
       6
 40
6.92857053
 49
2.77142821
 74
       0
 49
-1.38571411
 74
       0
 49
0.0
 74
       0
 49
-1.38571411
 74
       0
 49
0.0
 74
       0
 49
-1.38571411
 74
       0
  0
LTYPE
  5
2F
100
AcDbSymbolTableRecord
100
AcDbLinetypeTableRecord
  2
BORDERX2
 70
      64
  3
CADPAC LINETYPE
 72
      65
 73
       6
 40
16.16666458
 49
4.61904702
 74
       0
 49
-2.30952351
 74
       0
 49
4.61904702
 74
       0
 49
-2.30952351
 74
       0
 49
0.0
 74
       0
 49
-2.30952351
 74
       0
  0
LTYPE
  5
30
100
AcDbSymbolTableRecord
100
AcDbLinetypeTableRecord
  2
BORDER
 70
      64
  3
CADPAC LINETYPE
 72
      65
 73
       6
 40
12.93333166
 49
3.69523762
 74
       0
 49
-1.84761881
 74
       0
 49
3.69523762
 74
       0
 49
-1.84761881
 74
       0
 49
0.0
 74
       0
 49
-1.84761881
 74
       0
  0
LTYPE
  5
31
100
AcDbSymbolTableRecord
100
AcDbLinetypeTableRecord
  2
BORDER2
 70
      64
  3
CADPAC LINETYPE
 72
      65
 73
       6
 40
9.69999875
 49
2.77142821
 74
       0
 49
-1.38571411
 74
       0
 49
2.77142821
 74
       0
 49
-1.38571411
 74
       0
 49
0.0
 74
       0
 49
-1.38571411
 74
       0
  0
LTYPE
  5
32
100
AcDbSymbolTableRecord
100
AcDbLinetypeTableRecord
  2
PHANTOMX2
 70
      64
  3
CADPAC LINETYPE
 72
      65
 73
       6
 40
13.85714107
 49
4.61904702
 74
       0
 49
-1.84761881
 74
       0
 49
1.84761881
 74
       0
 49
-1.84761881
 74
       0
 49
1.84761881
 74
       0
 49
-1.84761881
 74
       0
  0
LTYPE
  5
33
100
AcDbSymbolTableRecord
100
AcDbLinetypeTableRecord
  2
PHANTOM
 70
      64
  3
CADPAC LINETYPE
 72
      65
 73
       6
 40
11.45523662
 49
3.69523762
 74
       0
 49
-1.84761881
 74
       0
 49
1.10857129
 74
       0
 49
-1.84761881
 74
       0
 49
1.10857129
 74
       0
 49
-1.84761881
 74
       0
  0
LTYPE
  5
34
100
AcDbSymbolTableRecord
100
AcDbLinetypeTableRecord
  2
PHANTOM2
 70
      64
  3
CADPAC LINETYPE
 72
      65
 73
       6
 40
9.79237969
 49
2.77142821
 74
       0
 49
-1.84761881
 74
       0
 49
0.73904752
 74
       0
 49
-1.84761881
 74
       0
 49
0.73904752
 74
       0
 49
-1.84761881
 74
       0
  0
LTYPE
  5
35
100
AcDbSymbolTableRecord
100
AcDbLinetypeTableRecord
  2
ACAD_ISO06W100
 70
      64
  3
CADPAC LINETYPE
 72
      65
 73
       8
 40
12.47142696
 49
4.61904702
 74
       0
 49
-2.30952351
 74
       0
 49
0.0
 74
       0
 49
-1.84761881
 74
       0
 49
0.0
 74
       0
 49
-1.84761881
 74
       0
 49
0.0
 74
       0
 49
-1.84761881
 74
       0
  0
LTYPE
  5
36
100
AcDbSymbolTableRecord
100
AcDbLinetypeTableRecord
  2
ACAD_ISO13W100
 70
      64
  3
CADPAC LINETYPE
 72
      65
 73
       8
 40
14.78095047
 49
3.69523762
 74
       0
 49
-1.84761881
 74
       0
 49
3.69523762
 74
       0
 49
-1.84761881
 74
       0
 49
0.0
 74
       0
 49
-1.84761881
 74
       0
 49
0.0
 74
       0
 49
-1.84761881
 74
       0
  0
LTYPE
  5
37
100
AcDbSymbolTableRecord
100
AcDbLinetypeTableRecord
  2
ACAD_ISO14W100
 70
      64
  3
CADPAC LINETYPE
 72
      65
 73
       8
 40
11.08571285
 49
3.69523762
 74
       0
 49
-1.84761881
 74
       0
 49
0.0
 74
       0
 49
-1.84761881
 74
       0
 49
0.0
 74
       0
 49
-1.84761881
 74
       0
 49
0.0
 74
       0
 49
-1.84761881
 74
       0
  0
ENDTAB
  0
TABLE
  2
LAYER
  5
2
100
AcDbSymbolTable
 70
       3
  0
LAYER
  5
14
100
AcDbSymbolTableRecord
100
AcDbLayerTableRecord
  2
0
 70
       0
 62
       7
  6
CONTINUOUS
  0
LAYER
  5
38
100
AcDbSymbolTableRecord
100
AcDbLayerTableRecord
  2
SLD-0_0
 70
       0
 62
       7
  6
CONTINUOUS
  0
LAYER
  5
39
100
AcDbSymbolTableRecord
100
AcDbLayerTableRecord
  2
SLD-0
 70
       0
 62
       7
  6
CONTINUOUS
  0
ENDTAB
  0
TABLE
  2
STYLE
  5
3
100
AcDbSymbolTable
 70
       1
  0
STYLE
  5
17
100
AcDbSymbolTableRecord
100
AcDbTextStyleTableRecord
  2
STANDARD
 70
       0
 40
0.0
 41
1.0
 50
0.0
 71
       0
 42
5.0
  3
txt.shx
  4
bigfont.shx
  0
ENDTAB
  0
TABLE
  2
VIEW
  5
5
100
AcDbSymbolTable
 70
       1
  0
VIEW
  5
3A
100
AcDbSymbolTableRecord
100
AcDbViewTableRecord
  2
QQQQ
 70
       0
 40
141.61555988
 10
0.0
 20
-1.25
 41
185.20538978
 11
0.0
 21
0.0
 31
1.0
 12
100.0
 22
100.0
 32
0.0
 42
50.0
 43
0.0
 44
0.0
 50
0.0
 71
       0
  0
ENDTAB
  0
TABLE
  2
UCS
  5
6
100
AcDbSymbolTable
 70
       0
  0
ENDTAB
  0
TABLE
  2
APPID
  5
8
100
AcDbSymbolTable
 70
       1
  0
APPID
  5
16
100
AcDbSymbolTableRecord
100
AcDbRegAppTableRecord
  2
ACAD
 70
       0
  0
ENDTAB
  0
TABLE
  2
DIMSTYLE
  5
9
100
AcDbSymbolTable
 70
       1
  0
DIMSTYLE
105
18
100
AcDbSymbolTableRecord
100
AcDbDimStyleTableRecord
  2
STANDARD
 70
       0
  3

  4

  5

  6

  7

 40
1.0
 41
0.18
 42
0.0625
 43
0.38
 44
0.18
 45
0.0
 46
0.0
 47
0.0
 48
0.0
 71
       0
 72
       0
 73
       1
 74
       1
 75
       0
 76
       0
 77
       0
 78
       0
140
0.18
141
0.09
142
0.0
143
25.4
144
1.0
145
0.0
146
1.0
147
0.09
170
       0
171
       2
172
       0
173
       0
174
       0
175
       0
176
       0
177
       0
178
       0
270
       2
271
       4
272
       4
273
       2
274
       2
275
       0
280
       0
281
       0
282
       0
283
       1
284
       0
285
       0
286
       0
287
       0
288
       0
340
17
  0
ENDTAB
  0
TABLE
  2
BLOCK_RECORD
  5
1
100
AcDbSymbolTable
 70
       0
  0
BLOCK_RECORD
  5
A
100
AcDbSymbolTableRecord
100
AcDbBlockTableRecord
  2
*MODEL_SPACE
  0
BLOCK_RECORD
  5
B
100
AcDbSymbolTableRecord
100
AcDbBlockTableRecord
  2
*PAPER_SPACE
  0
ENDTAB
  0
ENDSEC
  0
SECTION
  2
BLOCKS
  0
BLOCK
  5
D
100
AcDbEntity
  8
0
100
AcDbBlockBegin
  2
*MODEL_SPACE
 70
       0
 10
0.0
 20
0.0
 30
0.0
  3
*MODEL_SPACE
  1

  0
ENDBLK
  5
E
100
AcDbEntity
  8
0
100
AcDbBlockEnd
  0
BLOCK
  5
F
100
AcDbEntity
 67
       1
  8
0
100
AcDbBlockBegin
  2
*PAPER_SPACE
 70
       0
 10
0.0
 20
0.0
 30
0.0
  3
*PAPER_SPACE
  1

  0
ENDBLK
  5
10
100
AcDbEntity
 67
       1
  8
0
100
AcDbBlockEnd
  0
ENDSEC
  0
SECTION
  2
ENTITIES
  0
LINE
  5
3B
100
AcDbEntity
  8
SLD-0
  6
CENTERX2
 62
       7
100
AcDbLine
 10
-13.30297588
 20
8.72603106
 30
0.0
 11
-83.80334379
 21
8.72603106
 31
0.0
  0
LINE
  5
3C
100
AcDbEntity
  8
SLD-0
  6
CENTERX2
 62
       7
100
AcDbLine
 10
-48.57328655
 20
62.82943886
 30
0.0
 11
-48.57328655
 21
-45.45188672
 31
0.0
  0
LINE
  5
3D
100
AcDbEntity
  8
SLD-0
  6
CENTERX2
 62
       7
100
AcDbLine
 10
11.79873705
 20
8.72603106
 30
0.0
 11
83.80334379
 21
8.72603106
 31
0.0
  0
LINE
  5
3E
100
AcDbEntity
  8
SLD-0
  6
CONTINUOUS
 62
       7
100
AcDbLine
 10
-73.57328655
 20
56.22603106
 30
0.0
 11
-73.57328655
 21
-38.77396894
 31
0.0
  0
LINE
  5
3F
100
AcDbEntity
  8
SLD-0
  6
CONTINUOUS
 62
       7
100
AcDbLine
 10
-23.57328655
 20
56.22603106
 30
0.0
 11
-23.57328655
 21
-38.77396894
 31
0.0
  0
LINE
  5
40
100
AcDbEntity
  8
SLD-0
  6
CONTINUOUS
 62
       7
100
AcDbLine
 10
-25.07328655
 20
57.72603106
 30
0.0
 11
-72.07328655
 21
57.72603106
 31
0.0
  0
LINE
  5
41
100
AcDbEntity
  8
SLD-0
  6
CONTINUOUS
 62
       7
100
AcDbLine
 10
-25.07328655
 20
-40.27396894
 30
0.0
 11
-72.07328655
 21
-40.27396894
 31
0.0
  0
LINE
  5
42
100
AcDbEntity
  8
SLD-0
  6
CONTINUOUS
 62
       7
100
AcDbLine
 10
74.88935533
 20
-41.26896894
 30
0.0
 11
79.18935514
 21
-41.26896894
 31
0.0
  0
LINE
  5
43
100
AcDbEntity
  8
SLD-0
  6
CONTINUOUS
 62
       7
100
AcDbLine
 10
-70.57328643
 20
-17.98607176
 30
0.0
 11
-73.57328655
 21
-17.98607176
 31
0.0
  0
LINE
  5
44
100
AcDbEntity
  8
SLD-0
  6
CONTINUOUS
 62
       7
100
AcDbLine
 10
-25.42019383
 20
35.43813387
 30
0.0
 11
-23.57328655
 21
35.43813387
 31
0.0
  0
LINE
  5
45
100
AcDbEntity
  8
SLD-0
  6
CONTINUOUS
 62
       7
100
AcDbLine
 10
-73.57328655
 20
35.43813331
 30
0.0
 11
-70.57328601
 21
35.43813331
 31
0.0
  0
LINE
  5
46
100
AcDbEntity
  8
SLD-0
  6
CONTINUOUS
 62
       7
100
AcDbLine
 10
-31.07328618
 20
26.72603074
 30
0.0
 11
-66.07328632
 21
26.72603074
 31
0.0
  0
LINE
  5
47
100
AcDbEntity
  8
SLD-0
  6
CONTINUOUS
 62
       7
100
AcDbLine
 10
-29.57328661
 20
-7.77396915
 30
0.0
 11
-29.57328661
 21
25.22603067
 31
0.0
  0
LINE
  5
48
100
AcDbEntity
  8
SLD-0
  6
CONTINUOUS
 62
       7
100
AcDbLine
 10
-32.87528738
 20
-9.27396816
 30
0.0
 11
-31.0732863
 21
-9.27396894
 31
0.0
  0
LINE
  5
49
100
AcDbEntity
  8
SLD-0
  6
CONTINUOUS
 62
       7
100
AcDbLine
 10
-66.07328662
 20
-9.27396818
 30
0.0
 11
-37.87128574
 21
-9.27396895
 31
0.0
  0
LINE
  5
4A
100
AcDbEntity
  8
SLD-0
  6
CONTINUOUS
 62
       7
100
AcDbLine
 10
-67.57328555
 20
25.22603134
 30
0.0
 11
-67.57328616
 21
-7.77396857
 31
0.0
  0
LINE
  5
4B
100
AcDbEntity
  8
SLD-0
  6
CONTINUOUS
 62
       7
100
AcDbLine
 10
-26.57328496
 20
-23.37396788
 30
0.0
 11
-26.57328496
 21
-17.98607121
 31
0.0
  0
LINE
  5
4C
100
AcDbEntity
  8
SLD-0
  6
CONTINUOUS
 62
       7
100
AcDbLine
 10
-70.57328643
 20
-17.98607176
 30
0.0
 11
-70.57328601
 21
-23.37396788
 31
0.0
  0
LINE
  5
4D
100
AcDbEntity
  8
SLD-0
  6
CONTINUOUS
 62
       7
100
AcDbLine
 10
-69.37328555
 20
-24.57396892
 30
0.0
 11
-27.77328542
 21
-24.57396892
 31
0.0
  0
LINE
  5
4E
100
AcDbEntity
  8
SLD-0
  6
CONTINUOUS
 62
       7
100
AcDbLine
 10
-26.57328496
 20
-17.98607121
 30
0.0
 11
-23.57328656
 21
-17.98607121
 31
0.0
  0
LINE
  5
4F
100
AcDbEntity
  8
SLD-0
  6
CONTINUOUS
 62
       7
100
AcDbLine
 10
-26.57328666
 20
35.43813387
 30
0.0
 11
-25.42019383
 21
35.43813387
 31
0.0
  0
LINE
  5
50
100
AcDbEntity
  8
SLD-0
  6
CONTINUOUS
 62
       7
100
AcDbLine
 10
-70.57328601
 20
40.82602998
 30
0.0
 11
-70.57328601
 21
35.43813331
 31
0.0
  0
LINE
  5
51
100
AcDbEntity
  8
SLD-0
  6
CONTINUOUS
 62
       7
100
AcDbLine
 10
-26.57328666
 20
35.43813387
 30
0.0
 11
-26.57328554
 21
40.82602939
 31
0.0
  0
LINE
  5
52
100
AcDbEntity
  8
SLD-0
  6
CONTINUOUS
 62
       7
100
AcDbLine
 10
-27.77328548
 20
42.02602984
 30
0.0
 11
-69.37328554
 21
42.02603102
 31
0.0
  0
LINE
  5
53
100
AcDbEntity
  8
SLD-0
  6
CONTINUOUS
 62
       7
100
AcDbLine
 10
-70.37328677
 20
32.68436389
 30
0.0
 11
-26.77328633
 21
32.68436389
 31
0.0
  0
LINE
  5
54
100
AcDbEntity
  8
SLD-0
  6
CONTINUOUS
 62
       7
100
AcDbLine
 10
-70.37328655
 20
31.12603105
 30
0.0
 11
-26.77328655
 21
31.12603105
 31
0.0
  0
LINE
  5
55
100
AcDbEntity
  8
SLD-0
  6
CONTINUOUS
 62
       7
100
AcDbLine
 10
-70.37328655
 20
-13.67396893
 30
0.0
 11
-26.77328655
 21
-13.67396893
 31
0.0
  0
LINE
  5
56
100
AcDbEntity
  8
SLD-0
  6
CONTINUOUS
 62
       7
100
AcDbLine
 10
-32.78099027
 20
-9.57396894
 30
0.0
 11
-31.07328647
 21
-9.57396952
 31
0.0
  0
LINE
  5
57
100
AcDbEntity
  8
SLD-0
  6
CONTINUOUS
 62
       7
100
AcDbLine
 10
-29.27328603
 20
-7.77396924
 30
0.0
 11
-29.27328657
 21
25.22603134
 31
0.0
  0
LINE
  5
58
100
AcDbEntity
  8
SLD-0
  6
CONTINUOUS
 62
       7
100
AcDbLine
 10
-31.07328625
 20
27.02603077
 30
0.0
 11
-66.07328632
 21
27.02603135
 31
0.0
  0
LINE
  5
59
100
AcDbEntity
  8
SLD-0
  6
CONTINUOUS
 62
       7
100
AcDbLine
 10
-67.87328617
 20
25.22603143
 30
0.0
 11
-67.87328692
 21
-7.77396848
 31
0.0
  0
LINE
  5
5A
100
AcDbEntity
  8
SLD-0
  6
CONTINUOUS
 62
       7
100
AcDbLine
 10
-66.07328655
 20
-9.57396894
 30
0.0
 11
-37.96558282
 21
-9.57396894
 31
0.0
  0
LINE
  5
5B
100
AcDbEntity
  8
SLD-0
  6
CONTINUOUS
 62
       7
100
AcDbLine
 10
-32.9816344
 20
-9.57396894
 30
0.0
 11
-32.78099027
 21
-9.57396894
 31
0.0
  0
LINE
  5
5C
100
AcDbEntity
  8
SLD-0
  6
CONTINUOUS
 62
       7
100
AcDbLine
 10
-37.96558282
 20
-9.57396894
 30
0.0
 11
-37.76493869
 21
-9.57396894
 31
0.0
  0
LINE
  5
5D
100
AcDbEntity
  8
SLD-0
  6
CONTINUOUS
 62
       7
100
AcDbLine
 10
-70.37328677
 20
-15.23230178
 30
0.0
 11
-26.77328633
 21
-15.23230178
 31
0.0
  0
LINE
  5
5E
100
AcDbEntity
  8
SLD-0
  6
CONTINUOUS
 62
       7
100
AcDbLine
 10
-26.77328633
 20
40.38218828
 30
0.0
 11
-26.77328633
 21
38.90574956
 31
0.0
  0
LINE
  5
5F
100
AcDbEntity
  8
SLD-0
  6
CONTINUOUS
 62
       7
100
AcDbLine
 10
-70.37328586
 20
41.31657023
 30
0.0
 11
-70.37328677
 21
32.68436389
 31
0.0
  0
LINE
  5
60
100
AcDbEntity
  8
SLD-0
  6
CONTINUOUS
 62
       7
100
AcDbLine
 10
-26.77328633
 20
38.90574956
 30
0.0
 11
-26.77328633
 21
32.68436389
 31
0.0
  0
LINE
  5
61
100
AcDbEntity
  8
SLD-0
  6
CONTINUOUS
 62
       7
100
AcDbLine
 10
-26.77328633
 20
-15.23230178
 30
0.0
 11
-26.77328633
 21
-21.45368745
 31
0.0
  0
LINE
  5
62
100
AcDbEntity
  8
SLD-0
  6
CONTINUOUS
 62
       7
100
AcDbLine
 10
-70.37328677
 20
-15.23230178
 30
0.0
 11
-70.37328677
 21
-21.45368745
 31
0.0
  0
LINE
  5
63
100
AcDbEntity
  8
SLD-0
  6
CONTINUOUS
 62
       7
100
AcDbLine
 10
-70.37328677
 20
-22.93012617
 30
0.0
 11
-70.37328677
 21
-21.45368745
 31
0.0
  0
LINE
  5
64
100
AcDbEntity
  8
SLD-0
  6
CONTINUOUS
 62
       7
100
AcDbLine
 10
-26.77328633
 20
-21.45368745
 30
0.0
 11
-26.77328633
 21
-22.93012617
 31
0.0
  0
LINE
  5
65
100
AcDbEntity
  8
SLD-0
  6
CONTINUOUS
 62
       7
100
AcDbLine
 10
-56.69046873
 20
41.23802248
 30
0.0
 11
-55.4561045
 21
41.23802248
 31
0.0
  0
LINE
  5
66
100
AcDbEntity
  8
SLD-0
  6
CONTINUOUS
 62
       7
100
AcDbLine
 10
-41.69046921
 20
41.2380231
 30
0.0
 11
-40.45610498
 21
41.2380231
 31
0.0
  0
LINE
  5
67
100
AcDbEntity
  8
SLD-0
  6
CONTINUOUS
 62
       7
100
AcDbLine
 10
-26.77328633
 20
41.23802157
 30
0.0
 11
-26.77328633
 21
40.38218828
 31
0.0
  0
LINE
  5
68
100
AcDbEntity
  8
SLD-0
  6
CONTINUOUS
 62
       7
100
AcDbLine
 10
-41.45610544
 20
-23.78596023
 30
0.0
 11
-41.79047026
 21
-23.78596023
 31
0.0
  0
LINE
  5
69
100
AcDbEntity
  8
SLD-0
  6
CONTINUOUS
 62
       7
100
AcDbLine
 10
-55.4561045
 20
-23.78596037
 30
0.0
 11
-56.69046873
 21
-23.78596037
 31
0.0
  0
LINE
  5
6A
100
AcDbEntity
  8
SLD-0
  6
CONTINUOUS
 62
       7
100
AcDbLine
 10
-70.37328677
 20
-22.93012617
 30
0.0
 11
-70.37328677
 21
-23.78595946
 31
0.0
  0
LINE
  5
6B
100
AcDbEntity
  8
SLD-0
  6
CONTINUOUS
 62
       7
100
AcDbLine
 10
-26.77328633
 20
-22.93012617
 30
0.0
 11
-26.77328633
 21
-23.78595946
 31
0.0
  0
LINE
  5
6C
100
AcDbEntity
  8
SLD-0
  6
CONTINUOUS
 62
       7
100
AcDbLine
 10
-40.1561511
 20
42.02603376
 30
0.0
 11
-40.1561511
 21
41.24316773
 31
0.0
  0
LINE
  5
6D
100
AcDbEntity
  8
SLD-0
  6
CONTINUOUS
 62
       7
100
AcDbLine
 10
-55.15615079
 20
42.02603285
 30
0.0
 11
-55.15615079
 21
41.24316682
 31
0.0
  0
LINE
  5
6E
100
AcDbEntity
  8
SLD-0
  6
CONTINUOUS
 62
       7
100
AcDbLine
 10
-56.9904226
 20
41.24316711
 30
0.0
 11
-56.9904226
 21
42.02603314
 31
0.0
  0
LINE
  5
6F
100
AcDbEntity
  8
SLD-0
  6
CONTINUOUS
 62
       7
100
AcDbLine
 10
-41.99042372
 20
41.24316823
 30
0.0
 11
-41.99042353
 21
42.02603285
 31
0.0
  0
LINE
  5
70
100
AcDbEntity
  8
SLD-0
  6
CONTINUOUS
 62
       7
100
AcDbLine
 10
-54.87328717
 20
41.52603183
 30
0.0
 11
-55.15615079
 21
41.24316682
 31
0.0
  0
LINE
  5
71
100
AcDbEntity
  8
SLD-0
  6
CONTINUOUS
 62
       7
100
AcDbLine
 10
-54.87328717
 20
41.52603183
 30
0.0
 11
-42.27328715
 21
41.52603183
 31
0.0
  0
LINE
  5
72
100
AcDbEntity
  8
SLD-0
  6
CONTINUOUS
 62
       7
100
AcDbLine
 10
-41.99042372
 20
41.24316823
 30
0.0
 11
-42.27328715
 21
41.52603183
 31
0.0
  0
LINE
  5
73
100
AcDbEntity
  8
SLD-0
  6
CONTINUOUS
 62
       7
100
AcDbLine
 10
-70.37328586
 20
41.31657023
 30
0.0
 11
-70.46844281
 21
41.31657023
 31
0.0
  0
LINE
  5
74
100
AcDbEntity
  8
SLD-0
  6
CONTINUOUS
 62
       7
100
AcDbLine
 10
-70.16382396
 20
41.52603213
 30
0.0
 11
-70.37328586
 21
41.31657023
 31
0.0
  0
LINE
  5
75
100
AcDbEntity
  8
SLD-0
  6
CONTINUOUS
 62
       7
100
AcDbLine
 10
-70.16382396
 20
41.52603213
 30
0.0
 11
-57.27328576
 21
41.52603213
 31
0.0
  0
LINE
  5
76
100
AcDbEntity
  8
SLD-0
  6
CONTINUOUS
 62
       7
100
AcDbLine
 10
-56.9904226
 20
41.24316711
 30
0.0
 11
-57.27328576
 21
41.52603213
 31
0.0
  0
LINE
  5
77
100
AcDbEntity
  8
SLD-0
  6
CONTINUOUS
 62
       7
100
AcDbLine
 10
-26.77328633
 20
41.23802157
 30
0.0
 11
-26.64622785
 21
41.23802157
 31
0.0
  0
LINE
  5
78
100
AcDbEntity
  8
SLD-0
  6
CONTINUOUS
 62
       7
100
AcDbLine
 10
-39.87328795
 20
41.52603275
 30
0.0
 11
-40.1561511
 21
41.24316773
 31
0.0
  0
LINE
  5
79
100
AcDbEntity
  8
SLD-0
  6
CONTINUOUS
 62
       7
100
AcDbLine
 10
-39.87328795
 20
41.52603275
 30
0.0
 11
-26.98274975
 21
41.52603275
 31
0.0
  0
LINE
  5
7A
100
AcDbEntity
  8
SLD-0
  6
CONTINUOUS
 62
       7
100
AcDbLine
 10
-70.50034524
 20
-23.78595946
 30
0.0
 11
-70.37328677
 21
-23.78595946
 31
0.0
  0
LINE
  5
7B
100
AcDbEntity
  8
SLD-0
  6
CONTINUOUS
 62
       7
100
AcDbLine
 10
-40.87328856
 20
-24.07396956
 30
0.0
 11
-26.81904976
 21
-24.07396956
 31
0.0
  0
LINE
  5
7C
100
AcDbEntity
  8
SLD-0
  6
CONTINUOUS
 62
       7
100
AcDbLine
 10
-41.15615218
 20
-23.79110454
 30
0.0
 11
-40.87328856
 21
-24.07396956
 31
0.0
  0
LINE
  5
7D
100
AcDbEntity
  8
SLD-0
  6
CONTINUOUS
 62
       7
100
AcDbLine
 10
-26.77328633
 20
-23.78595946
 30
0.0
 11
-26.6610098
 21
-23.78595946
 31
0.0
  0
LINE
  5
7E
100
AcDbEntity
  8
SLD-0
  6
CONTINUOUS
 62
       7
100
AcDbLine
 10
-41.15615218
 20
-23.79110454
 30
0.0
 11
-41.15615218
 21
-24.57397057
 31
0.0
  0
LINE
  5
7F
100
AcDbEntity
  8
SLD-0
  6
CONTINUOUS
 62
       7
100
AcDbLine
 10
-56.9904226
 20
-24.57397103
 30
0.0
 11
-56.9904226
 21
-23.791105
 31
0.0
  0
LINE
  5
80
100
AcDbEntity
  8
SLD-0
  6
CONTINUOUS
 62
       7
100
AcDbLine
 10
-42.09042383
 20
-24.57397074
 30
0.0
 11
-42.09042383
 21
-23.79110471
 31
0.0
  0
LINE
  5
81
100
AcDbEntity
  8
SLD-0
  6
CONTINUOUS
 62
       7
100
AcDbLine
 10
-54.87328717
 20
-24.07396972
 30
0.0
 11
-42.37328698
 21
-24.07396972
 31
0.0
  0
LINE
  5
82
100
AcDbEntity
  8
SLD-0
  6
CONTINUOUS
 62
       7
100
AcDbLine
 10
-55.15615079
 20
-23.79110471
 30
0.0
 11
-54.87328717
 21
-24.07396972
 31
0.0
  0
LINE
  5
83
100
AcDbEntity
  8
SLD-0
  6
CONTINUOUS
 62
       7
100
AcDbLine
 10
-42.37328698
 20
-24.07396972
 30
0.0
 11
-42.09042383
 21
-23.79110471
 31
0.0
  0
LINE
  5
84
100
AcDbEntity
  8
SLD-0
  6
CONTINUOUS
 62
       7
100
AcDbLine
 10
-55.15615079
 20
-23.79110471
 30
0.0
 11
-55.15615079
 21
-24.57397074
 31
0.0
  0
LINE
  5
85
100
AcDbEntity
  8
SLD-0
  6
CONTINUOUS
 62
       7
100
AcDbLine
 10
-57.27328576
 20
-24.07397002
 30
0.0
 11
-56.9904226
 21
-23.791105
 31
0.0
  0
LINE
  5
86
100
AcDbEntity
  8
SLD-0
  6
CONTINUOUS
 62
       7
100
AcDbLine
 10
-70.16382396
 20
-24.07397002
 30
0.0
 11
-57.27328576
 21
-24.07397002
 31
0.0
  0
LINE
  5
87
100
AcDbEntity
  8
SLD-0
  6
CONTINUOUS
 62
       7
100
AcDbLine
 10
-42.27328715
 20
41.52603183
 30
0.0
 11
-42.27328715
 21
42.02603285
 31
0.0
  0
LINE
  5
88
100
AcDbEntity
  8
SLD-0
  6
CONTINUOUS
 62
       7
100
AcDbLine
 10
-57.27328576
 20
41.52603213
 30
0.0
 11
-57.27328576
 21
42.02603314
 31
0.0
  0
LINE
  5
89
100
AcDbEntity
  8
SLD-0
  6
CONTINUOUS
 62
       7
100
AcDbLine
 10
-54.87328717
 20
41.52603183
 30
0.0
 11
-54.87328717
 21
42.02603285
 31
0.0
  0
LINE
  5
8A
100
AcDbEntity
  8
SLD-0
  6
CONTINUOUS
 62
       7
100
AcDbLine
 10
-39.87328795
 20
41.52603275
 30
0.0
 11
-39.87328795
 21
42.02603376
 31
0.0
  0
LINE
  5
8B
100
AcDbEntity
  8
SLD-0
  6
CONTINUOUS
 62
       7
100
AcDbLine
 10
-54.87328717
 20
-24.07396972
 30
0.0
 11
-54.87328717
 21
-24.57397074
 31
0.0
  0
LINE
  5
8C
100
AcDbEntity
  8
SLD-0
  6
CONTINUOUS
 62
       7
100
AcDbLine
 10
-57.27328576
 20
-24.07397002
 30
0.0
 11
-57.27328576
 21
-24.57397103
 31
0.0
  0
LINE
  5
8D
100
AcDbEntity
  8
SLD-0
  6
CONTINUOUS
 62
       7
100
AcDbLine
 10
-42.37328698
 20
-24.07396972
 30
0.0
 11
-42.37328698
 21
-24.57397074
 31
0.0
  0
LINE
  5
8E
100
AcDbEntity
  8
SLD-0
  6
CONTINUOUS
 62
       7
100
AcDbLine
 10
-40.87328856
 20
-24.57397057
 30
0.0
 11
-40.87328856
 21
-24.07396956
 31
0.0
  0
LINE
  5
8F
100
AcDbEntity
  8
SLD-0
  6
CONTINUOUS
 62
       7
100
AcDbLine
 10
-26.98274975
 20
41.52603275
 30
0.0
 11
-26.98274975
 21
41.72883383
 31
0.0
  0
LINE
  5
90
100
AcDbEntity
  8
SLD-0
  6
CONTINUOUS
 62
       7
100
AcDbLine
 10
-70.16382396
 20
41.52603213
 30
0.0
 11
-70.16382396
 21
41.72883321
 31
0.0
  0
LINE
  5
91
100
AcDbEntity
  8
SLD-0
  6
CONTINUOUS
 62
       7
100
AcDbLine
 10
-70.37328586
 20
41.46199067
 30
0.0
 11
-70.37328586
 21
41.31657023
 31
0.0
  0
LINE
  5
92
100
AcDbEntity
  8
SLD-0
  6
CONTINUOUS
 62
       7
100
AcDbLine
 10
-70.16382396
 20
-24.07397002
 30
0.0
 11
-70.16382396
 21
-24.2767711
 31
0.0
  0
LINE
  5
93
100
AcDbEntity
  8
SLD-0
  6
CONTINUOUS
 62
       7
100
AcDbLine
 10
-27.1099613
 20
-24.37397046
 30
0.0
 11
-40.67328693
 21
-24.37397046
 31
0.0
  0
LINE
  5
94
100
AcDbEntity
  8
SLD-0
  6
CONTINUOUS
 62
       7
100
AcDbLine
 10
-40.67328693
 20
-24.37397046
 30
0.0
 11
-40.67328693
 21
-24.57397012
 31
0.0
  0
LINE
  5
95
100
AcDbEntity
  8
SLD-0
  6
CONTINUOUS
 62
       7
100
AcDbLine
 10
-40.47328634
 20
-24.07396911
 30
0.0
 11
-40.47328634
 21
-24.37397046
 31
0.0
  0
LINE
  5
96
100
AcDbEntity
  8
SLD-0
  6
CONTINUOUS
 62
       7
100
AcDbLine
 10
-44.37328655
 20
-41.26896894
 30
0.0
 11
-52.77328655
 21
-41.26896894
 31
0.0
  0
LINE
  5
97
100
AcDbEntity
  8
SLD-0
  6
CONTINUOUS
 62
       7
100
AcDbLine
 10
24.51046912
 20
-18.30244452
 30
0.0
 11
30.89649945
 21
-23.27383173
 31
0.0
  0
LINE
  5
98
100
AcDbEntity
  8
SLD-0
  6
CONTINUOUS
 62
       7
100
AcDbLine
 10
31.0893569
 20
-23.66837416
 30
0.0
 11
31.08935513
 21
-23.77915937
 31
0.0
  0
LINE
  5
99
100
AcDbEntity
  8
SLD-0
  6
CONTINUOUS
 62
       7
100
AcDbLine
 10
31.38412028
 20
-24.07911352
 30
0.0
 11
37.90157281
 21
-24.19287609
 31
0.0
  0
LINE
  5
9A
100
AcDbEntity
  8
SLD-0
  6
CONTINUOUS
 62
       7
100
AcDbLine
 10
38.58935599
 20
-24.89276947
 30
0.0
 11
38.58935452
 21
-38.11818561
 31
0.0
  0
LINE
  5
9B
100
AcDbEntity
  8
SLD-0
  6
CONTINUOUS
 62
       7
100
AcDbLine
 10
21.38935514
 20
-37.07896923
 30
0.0
 11
21.38935681
 21
-23.37396843
 31
0.0
  0
LINE
  5
9C
100
AcDbEntity
  8
SLD-0
  6
CONTINUOUS
 62
       7
100
AcDbLine
 10
21.38935681
 20
-23.37396843
 30
0.0
 11
21.38935681
 21
-19.77396896
 31
0.0
  0
LINE
  5
9D
100
AcDbEntity
  8
SLD-0
  6
CONTINUOUS
 62
       7
100
AcDbLine
 10
21.38935681
 20
-19.77396896
 30
0.0
 11
21.43418695
 21
-19.72053898
 31
0.0
  0
LINE
  5
9E
100
AcDbEntity
  8
SLD-0
  6
CONTINUOUS
 62
       7
100
AcDbLine
 10
21.43418695
 20
-19.72053898
 30
0.0
 11
21.56724687
 21
-19.56196269
 31
0.0
  0
LINE
  5
9F
100
AcDbEntity
  8
SLD-0
  6
CONTINUOUS
 62
       7
100
AcDbLine
 10
21.56724687
 20
-19.56196269
 30
0.0
 11
21.78427856
 21
-19.30331765
 31
0.0
  0
LINE
  5
A0
100
AcDbEntity
  8
SLD-0
  6
CONTINUOUS
 62
       7
100
AcDbLine
 10
21.78427856
 20
-19.30331765
 30
0.0
 11
22.0783269
 21
-18.95288704
 31
0.0
  0
LINE
  5
A1
100
AcDbEntity
  8
SLD-0
  6
CONTINUOUS
 62
       7
100
AcDbLine
 10
22.0783269
 20
-18.95288704
 30
0.0
 11
22.43997435
 21
-18.52188958
 31
0.0
  0
LINE
  5
A2
100
AcDbEntity
  8
SLD-0
  6
CONTINUOUS
 62
       7
100
AcDbLine
 10
38.58935367
 20
-39.32397021
 30
0.0
 11
38.88935502
 21
-39.32397021
 31
0.0
  0
LINE
  5
A3
100
AcDbEntity
  8
SLD-0
  6
CONTINUOUS
 62
       7
100
AcDbLine
 10
31.08935562
 20
41.12043462
 30
0.0
 11
31.08935739
 21
41.23121999
 31
0.0
  0
LINE
  5
A4
100
AcDbEntity
  8
SLD-0
  6
CONTINUOUS
 62
       7
100
AcDbLine
 10
24.51046917
 20
35.75450668
 30
0.0
 11
30.89649856
 21
40.72589447
 31
0.0
  0
LINE
  5
A5
100
AcDbEntity
  8
SLD-0
  6
CONTINUOUS
 62
       7
100
AcDbLine
 10
31.38412166
 20
41.5311743
 30
0.0
 11
37.90157407
 21
41.64493685
 31
0.0
  0
LINE
  5
A6
100
AcDbEntity
  8
SLD-0
  6
CONTINUOUS
 62
       7
100
AcDbLine
 10
38.58935591
 20
55.57024738
 30
0.0
 11
38.58935739
 21
42.34483024
 31
0.0
  0
LINE
  5
A7
100
AcDbEntity
  8
SLD-0
  6
CONTINUOUS
 62
       7
100
AcDbLine
 10
21.38935681
 20
40.82603054
 30
0.0
 11
21.38935681
 21
54.53103082
 31
0.0
  0
LINE
  5
A8
100
AcDbEntity
  8
SLD-0
  6
CONTINUOUS
 62
       7
100
AcDbLine
 10
21.38935681
 20
37.22603107
 30
0.0
 11
21.38935681
 21
40.82603054
 31
0.0
  0
LINE
  5
A9
100
AcDbEntity
  8
SLD-0
  6
CONTINUOUS
 62
       7
100
AcDbLine
 10
22.43997435
 20
35.97395169
 30
0.0
 11
22.0783269
 21
36.40494915
 31
0.0
  0
LINE
  5
AA
100
AcDbEntity
  8
SLD-0
  6
CONTINUOUS
 62
       7
100
AcDbLine
 10
22.0783269
 20
36.40494915
 30
0.0
 11
21.78427856
 21
36.75537976
 31
0.0
  0
LINE
  5
AB
100
AcDbEntity
  8
SLD-0
  6
CONTINUOUS
 62
       7
100
AcDbLine
 10
21.78427856
 20
36.75537976
 30
0.0
 11
21.56724687
 21
37.0140248
 31
0.0
  0
LINE
  5
AC
100
AcDbEntity
  8
SLD-0
  6
CONTINUOUS
 62
       7
100
AcDbLine
 10
21.56724687
 20
37.0140248
 30
0.0
 11
21.43418695
 21
37.17260109
 31
0.0
  0
LINE
  5
AD
100
AcDbEntity
  8
SLD-0
  6
CONTINUOUS
 62
       7
100
AcDbLine
 10
21.43418695
 20
37.17260109
 30
0.0
 11
21.38935681
 21
37.22603107
 31
0.0
  0
LINE
  5
AE
100
AcDbEntity
  8
SLD-0
  6
CONTINUOUS
 62
       7
100
AcDbLine
 10
38.58935367
 20
56.77603232
 30
0.0
 11
38.88935502
 21
56.77603232
 31
0.0
  0
LINE
  5
AF
100
AcDbEntity
  8
SLD-0
  6
CONTINUOUS
 62
       7
100
AcDbLine
 10
31.38935472
 20
41.23802157
 30
0.0
 11
31.38935514
 21
40.7203051
 31
0.0
  0
LINE
  5
B0
100
AcDbEntity
  8
SLD-0
  6
CONTINUOUS
 62
       7
100
AcDbLine
 10
37.90680598
 20
41.35178449
 30
0.0
 11
31.38935472
 21
41.23802157
 31
0.0
  0
LINE
  5
B1
100
AcDbEntity
  8
SLD-0
  6
CONTINUOUS
 62
       7
100
AcDbLine
 10
38.8893554
 20
42.35163248
 30
0.0
 11
38.8893554
 21
55.56870646
 31
0.0
  0
LINE
  5
B2
100
AcDbEntity
  8
SLD-0
  6
CONTINUOUS
 62
       7
100
AcDbLine
 10
47.88935501
 20
36.13659761
 30
0.0
 11
47.88935501
 21
55.72580195
 31
0.0
  0
LINE
  5
B3
100
AcDbEntity
  8
SLD-0
  6
CONTINUOUS
 62
       7
100
AcDbLine
 10
51.25723787
 20
33.2578147
 30
0.0
 11
48.31577972
 21
35.31744617
 31
0.0
  0
LINE
  5
B4
100
AcDbEntity
  8
SLD-0
  6
CONTINUOUS
 62
       7
100
AcDbLine
 10
53.38935542
 20
-11.70999137
 30
0.0
 11
53.38935596
 21
29.16205435
 31
0.0
  0
LINE
  5
B5
100
AcDbEntity
  8
SLD-0
  6
CONTINUOUS
 62
       7
100
AcDbLine
 10
48.3157797
 20
-17.86538331
 30
0.0
 11
51.25723772
 21
-15.80575223
 31
0.0
  0
LINE
  5
B6
100
AcDbEntity
  8
SLD-0
  6
CONTINUOUS
 62
       7
100
AcDbLine
 10
47.88935503
 20
-38.27373987
 30
0.0
 11
47.88935554
 21
-18.68453577
 31
0.0
  0
LINE
  5
B7
100
AcDbEntity
  8
SLD-0
  6
CONTINUOUS
 62
       7
100
AcDbLine
 10
38.88935542
 20
-38.11664438
 30
0.0
 11
38.88935542
 21
-24.89957144
 31
0.0
  0
LINE
  5
B8
100
AcDbEntity
  8
SLD-0
  6
CONTINUOUS
 62
       7
100
AcDbLine
 10
31.38935506
 20
-23.7859593
 30
0.0
 11
37.90680788
 21
-23.89972276
 31
0.0
  0
LINE
  5
B9
100
AcDbEntity
  8
SLD-0
  6
CONTINUOUS
 62
       7
100
AcDbLine
 10
31.38935506
 20
-23.26824453
 30
0.0
 11
31.38935506
 21
-23.7859593
 31
0.0
  0
LINE
  5
BA
100
AcDbEntity
  8
SLD-0
  6
CONTINUOUS
 62
       7
100
AcDbLine
 10
22.38935511
 20
-16.0114686
 30
0.0
 11
31.19666665
 21
-22.8738325
 31
0.0
  0
LINE
  5
BB
100
AcDbEntity
  8
SLD-0
  6
CONTINUOUS
 62
       7
100
AcDbLine
 10
31.19666665
 20
40.32589461
 30
0.0
 11
22.38935511
 21
33.46353071
 31
0.0
  0
LINE
  5
BC
100
AcDbEntity
  8
SLD-0
  6
CONTINUOUS
 62
       7
100
AcDbLine
 10
47.88935503
 20
-38.27373987
 30
0.0
 11
47.88935503
 21
-39.77397015
 31
0.0
  0
LINE
  5
BD
100
AcDbEntity
  8
SLD-0
  6
CONTINUOUS
 62
       7
100
AcDbLine
 10
47.88935503
 20
-39.77397015
 30
0.0
 11
38.88935542
 21
-39.61687466
 31
0.0
  0
LINE
  5
BE
100
AcDbEntity
  8
SLD-0
  6
CONTINUOUS
 62
       7
100
AcDbLine
 10
38.88935542
 20
-39.61687466
 30
0.0
 11
38.88935542
 21
-38.11664438
 31
0.0
  0
LINE
  5
BF
100
AcDbEntity
  8
SLD-0
  6
CONTINUOUS
 62
       7
100
AcDbLine
 10
19.38935648
 20
-13.67396815
 30
0.0
 11
19.38935648
 21
31.12603026
 31
0.0
  0
LINE
  5
C0
100
AcDbEntity
  8
SLD-0
  6
CONTINUOUS
 62
       7
100
AcDbLine
 10
19.38935648
 20
31.12603026
 30
0.0
 11
19.43493168
 21
31.16154345
 31
0.0
  0
LINE
  5
C1
100
AcDbEntity
  8
SLD-0
  6
CONTINUOUS
 62
       7
100
AcDbLine
 10
19.43493168
 20
31.16154345
 30
0.0
 11
19.57027893
 21
31.26699897
 31
0.0
  0
LINE
  5
C2
100
AcDbEntity
  8
SLD-0
  6
CONTINUOUS
 62
       7
100
AcDbLine
 10
19.57027893
 20
31.26699897
 30
0.0
 11
19.79127805
 21
31.43919679
 31
0.0
  0
LINE
  5
C3
100
AcDbEntity
  8
SLD-0
  6
CONTINUOUS
 62
       7
100
AcDbLine
 10
19.79127805
 20
31.43919679
 30
0.0
 11
20.09122352
 21
31.67290287
 31
0.0
  0
LINE
  5
C4
100
AcDbEntity
  8
SLD-0
  6
CONTINUOUS
 62
       7
100
AcDbLine
 10
20.09122352
 20
31.67290287
 30
0.0
 11
20.46099211
 21
31.96101496
 31
0.0
  0
LINE
  5
C5
100
AcDbEntity
  8
SLD-0
  6
CONTINUOUS
 62
       7
100
AcDbLine
 10
20.46099211
 20
31.96101496
 30
0.0
 11
20.88935579
 21
32.29478048
 31
0.0
  0
LINE
  5
C6
100
AcDbEntity
  8
SLD-0
  6
CONTINUOUS
 62
       7
100
AcDbLine
 10
20.88935579
 20
32.29478048
 30
0.0
 11
21.36329468
 21
32.6640592
 31
0.0
  0
LINE
  5
C7
100
AcDbEntity
  8
SLD-0
  6
CONTINUOUS
 62
       7
100
AcDbLine
 10
21.36329468
 20
32.6640592
 30
0.0
 11
21.86841051
 21
33.05762867
 31
0.0
  0
LINE
  5
C8
100
AcDbEntity
  8
SLD-0
  6
CONTINUOUS
 62
       7
100
AcDbLine
 10
21.86841051
 20
33.05762867
 30
0.0
 11
22.38935511
 21
33.46353071
 31
0.0
  0
LINE
  5
C9
100
AcDbEntity
  8
SLD-0
  6
CONTINUOUS
 62
       7
100
AcDbLine
 10
22.38935511
 20
-16.0114686
 30
0.0
 11
21.86841051
 21
-15.60556656
 31
0.0
  0
LINE
  5
CA
100
AcDbEntity
  8
SLD-0
  6
CONTINUOUS
 62
       7
100
AcDbLine
 10
21.86841051
 20
-15.60556656
 30
0.0
 11
21.36329468
 21
-15.21199709
 31
0.0
  0
LINE
  5
CB
100
AcDbEntity
  8
SLD-0
  6
CONTINUOUS
 62
       7
100
AcDbLine
 10
21.36329468
 20
-15.21199709
 30
0.0
 11
20.88935579
 21
-14.84271837
 31
0.0
  0
LINE
  5
CC
100
AcDbEntity
  8
SLD-0
  6
CONTINUOUS
 62
       7
100
AcDbLine
 10
20.88935579
 20
-14.84271837
 30
0.0
 11
20.46099211
 21
-14.50895285
 31
0.0
  0
LINE
  5
CD
100
AcDbEntity
  8
SLD-0
  6
CONTINUOUS
 62
       7
100
AcDbLine
 10
20.46099211
 20
-14.50895285
 30
0.0
 11
20.09122352
 21
-14.22084076
 31
0.0
  0
LINE
  5
CE
100
AcDbEntity
  8
SLD-0
  6
CONTINUOUS
 62
       7
100
AcDbLine
 10
20.09122352
 20
-14.22084076
 30
0.0
 11
19.79127805
 21
-13.98713468
 31
0.0
  0
LINE
  5
CF
100
AcDbEntity
  8
SLD-0
  6
CONTINUOUS
 62
       7
100
AcDbLine
 10
19.79127805
 20
-13.98713468
 30
0.0
 11
19.57027893
 21
-13.81493686
 31
0.0
  0
LINE
  5
D0
100
AcDbEntity
  8
SLD-0
  6
CONTINUOUS
 62
       7
100
AcDbLine
 10
19.57027893
 20
-13.81493686
 30
0.0
 11
19.43493168
 21
-13.70948134
 31
0.0
  0
LINE
  5
D1
100
AcDbEntity
  8
SLD-0
  6
CONTINUOUS
 62
       7
100
AcDbLine
 10
19.43493168
 20
-13.70948134
 30
0.0
 11
19.38935648
 21
-13.67396815
 31
0.0
  0
LINE
  5
D2
100
AcDbEntity
  8
SLD-0
  6
CONTINUOUS
 62
       7
100
AcDbLine
 10
38.8893554
 20
57.06893674
 30
0.0
 11
47.88935501
 21
57.22603223
 31
0.0
  0
LINE
  5
D3
100
AcDbEntity
  8
SLD-0
  6
CONTINUOUS
 62
       7
100
AcDbLine
 10
38.8893554
 20
55.56870646
 30
0.0
 11
38.8893554
 21
57.06893674
 31
0.0
  0
LINE
  5
D4
100
AcDbEntity
  8
SLD-0
  6
CONTINUOUS
 62
       7
100
AcDbLine
 10
47.88935501
 20
57.22603223
 30
0.0
 11
47.88935501
 21
55.72580195
 31
0.0
  0
LINE
  5
D5
100
AcDbEntity
  8
SLD-0
  6
CONTINUOUS
 62
       7
100
AcDbLine
 10
21.38935681
 20
-15.23230178
 30
0.0
 11
21.38935681
 21
-19.77396896
 31
0.0
  0
LINE
  5
D6
100
AcDbEntity
  8
SLD-0
  6
CONTINUOUS
 62
       7
100
AcDbLine
 10
21.38935681
 20
37.22603107
 30
0.0
 11
21.38935681
 21
32.68436389
 31
0.0
  0
LINE
  5
D7
100
AcDbEntity
  8
SLD-0
  6
CONTINUOUS
 62
       7
100
AcDbLine
 10
77.03935517
 20
-8.94896826
 30
0.0
 11
74.88935533
 21
-8.94896826
 31
0.0
  0
LINE
  5
D8
100
AcDbEntity
  8
SLD-0
  6
CONTINUOUS
 62
       7
100
AcDbLine
 10
77.03935517
 20
-9.01149725
 30
0.0
 11
77.03935517
 21
-8.94896826
 31
0.0
  0
LINE
  5
D9
100
AcDbEntity
  8
SLD-0
  6
CONTINUOUS
 62
       7
100
AcDbLine
 10
76.58935524
 20
-7.24896928
 30
0.0
 11
76.58935524
 21
-8.94896826
 31
0.0
  0
LINE
  5
DA
100
AcDbEntity
  8
SLD-0
  6
CONTINUOUS
 62
       7
100
AcDbLine
 10
77.08935509
 20
-7.24896928
 30
0.0
 11
76.58935524
 21
-7.24896928
 31
0.0
  0
LINE
  5
DB
100
AcDbEntity
  8
SLD-0
  6
CONTINUOUS
 62
       7
100
AcDbLine
 10
79.18848997
 20
-9.34810331
 30
0.0
 11
77.08935509
 21
-7.24896928
 31
0.0
  0
LINE
  5
DC
100
AcDbEntity
  8
SLD-0
  6
CONTINUOUS
 62
       7
100
AcDbLine
 10
79.18935514
 20
-41.26896894
 30
0.0
 11
79.18935514
 21
-36.25681205
 31
0.0
  0
LINE
  5
DD
100
AcDbEntity
  8
SLD-0
  6
CONTINUOUS
 62
       7
100
AcDbLine
 10
74.88935533
 20
-41.26896894
 30
0.0
 11
74.88935533
 21
-36.27397073
 31
0.0
  0
LINE
  5
DE
100
AcDbEntity
  8
SLD-0
  6
CONTINUOUS
 62
       7
100
AcDbLine
 10
48.38935602
 20
36.48631527
 30
0.0
 11
48.38935602
 21
55.72602964
 31
0.0
  0
LINE
  5
DF
100
AcDbEntity
  8
SLD-0
  6
CONTINUOUS
 62
       7
100
AcDbLine
 10
48.38935565
 20
-38.27396734
 30
0.0
 11
48.38935565
 21
-19.03425297
 31
0.0
  0
LINE
  5
E0
100
AcDbEntity
  8
SLD-0
  6
CONTINUOUS
 62
       7
100
AcDbLine
 10
79.0893542
 20
-36.27396982
 30
0.0
 11
65.38935378
 21
-36.27396982
 31
0.0
  0
LINE
  5
E1
100
AcDbEntity
  8
SLD-0
  6
CONTINUOUS
 62
       7
100
AcDbLine
 10
79.38935511
 20
-35.97396936
 30
0.0
 11
79.38935511
 21
-34.77396767
 31
0.0
  0
LINE
  5
E2
100
AcDbEntity
  8
SLD-0
  6
CONTINUOUS
 62
       7
100
AcDbLine
 10
79.38935511
 20
-9.63125143
 30
0.0
 11
79.38935511
 21
-34.77396767
 31
0.0
  0
LINE
  5
E3
100
AcDbEntity
  8
SLD-0
  6
CONTINUOUS
 62
       7
100
AcDbLine
 10
65.38935378
 20
-36.27396982
 30
0.0
 11
62.73196797
 21
-38.50378233
 31
0.0
  0
LINE
  5
E4
100
AcDbEntity
  8
SLD-0
  6
CONTINUOUS
 62
       7
100
AcDbLine
 10
61.10902596
 20
-39.77397038
 30
0.0
 11
48.38935565
 21
-39.77397038
 31
0.0
  0
LINE
  5
E5
100
AcDbEntity
  8
SLD-0
  6
CONTINUOUS
 62
       7
100
AcDbLine
 10
48.38935565
 20
-39.77397038
 30
0.0
 11
48.38935565
 21
-38.27396734
 31
0.0
  0
LINE
  5
E6
100
AcDbEntity
  8
SLD-0
  6
CONTINUOUS
 62
       7
100
AcDbLine
 10
61.30186255
 20
-39.70378402
 30
0.0
 11
61.32934216
 21
-39.6807282
 31
0.0
  0
LINE
  5
E7
100
AcDbEntity
  8
SLD-0
  6
CONTINUOUS
 62
       7
100
AcDbLine
 10
61.32934216
 20
-39.6807282
 30
0.0
 11
61.41072298
 21
-39.6124399
 31
0.0
  0
LINE
  5
E8
100
AcDbEntity
  8
SLD-0
  6
CONTINUOUS
 62
       7
100
AcDbLine
 10
61.41072298
 20
-39.6124399
 30
0.0
 11
61.54287952
 21
-39.50154918
 31
0.0
  0
LINE
  5
E9
100
AcDbEntity
  8
SLD-0
  6
CONTINUOUS
 62
       7
100
AcDbLine
 10
61.54287952
 20
-39.50154918
 30
0.0
 11
61.72073047
 21
-39.35231405
 31
0.0
  0
LINE
  5
EA
100
AcDbEntity
  8
SLD-0
  6
CONTINUOUS
 62
       7
100
AcDbLine
 10
61.72073047
 20
-39.35231405
 30
0.0
 11
61.93744364
 21
-39.17046773
 31
0.0
  0
LINE
  5
EB
100
AcDbEntity
  8
SLD-0
  6
CONTINUOUS
 62
       7
100
AcDbLine
 10
61.93744364
 20
-39.17046773
 30
0.0
 11
62.18469116
 21
-38.96300259
 31
0.0
  0
LINE
  5
EC
100
AcDbEntity
  8
SLD-0
  6
CONTINUOUS
 62
       7
100
AcDbLine
 10
62.18469116
 20
-38.96300259
 30
0.0
 11
62.45296794
 21
-38.73789075
 31
0.0
  0
LINE
  5
ED
100
AcDbEntity
  8
SLD-0
  6
CONTINUOUS
 62
       7
100
AcDbLine
 10
62.45296794
 20
-38.73789075
 30
0.0
 11
62.73196797
 21
-38.50378233
 31
0.0
  0
LINE
  5
EE
100
AcDbEntity
  8
SLD-0
  6
CONTINUOUS
 62
       7
100
AcDbLine
 10
77.33106633
 20
-9.0165897
 30
0.0
 11
79.14144956
 21
-9.33580854
 31
0.0
  0
LINE
  5
EF
100
AcDbEntity
  8
SLD-0
  6
CONTINUOUS
 62
       7
100
AcDbLine
 10
74.8893553
 20
-8.97396865
 30
0.0
 11
77.33106633
 21
-9.0165897
 31
0.0
  0
LINE
  5
F0
100
AcDbEntity
  8
SLD-0
  6
CONTINUOUS
 62
       7
100
AcDbLine
 10
74.8893553
 20
24.42603049
 30
0.0
 11
74.8893553
 21
-8.97396865
 31
0.0
  0
LINE
  5
F1
100
AcDbEntity
  8
SLD-0
  6
CONTINUOUS
 62
       7
100
AcDbLine
 10
48.38935565
 20
-18.42386601
 30
0.0
 11
51.54402554
 21
-16.21494118
 31
0.0
  0
LINE
  5
F2
100
AcDbEntity
  8
SLD-0
  6
CONTINUOUS
 62
       7
100
AcDbLine
 10
48.38935565
 20
-19.03425297
 30
0.0
 11
48.38935565
 21
-18.42386601
 31
0.0
  0
LINE
  5
F3
100
AcDbEntity
  8
SLD-0
  6
CONTINUOUS
 62
       7
100
AcDbLine
 10
53.88935514
 20
-11.70960494
 30
0.0
 11
53.88935562
 21
5.22603095
 31
0.0
  0
LINE
  5
F4
100
AcDbEntity
  8
SLD-0
  6
CONTINUOUS
 62
       7
100
AcDbLine
 10
79.38935514
 20
35.42603041
 30
0.0
 11
79.38935514
 21
26.92603181
 31
0.0
  0
LINE
  5
F5
100
AcDbEntity
  8
SLD-0
  6
CONTINUOUS
 62
       7
100
AcDbLine
 10
78.88935514
 20
26.42603107
 30
0.0
 11
74.57245048
 21
26.4260308
 31
0.0
  0
LINE
  5
F6
100
AcDbEntity
  8
SLD-0
  6
CONTINUOUS
 62
       7
100
AcDbLine
 10
74.14370399
 20
25.66878361
 30
0.0
 11
74.8893553
 21
24.42603049
 31
0.0
  0
LINE
  5
F7
100
AcDbEntity
  8
SLD-0
  6
CONTINUOUS
 62
       7
100
AcDbLine
 10
53.88935562
 20
12.22603116
 30
0.0
 11
53.88935562
 21
5.22603095
 31
0.0
  0
LINE
  5
F8
100
AcDbEntity
  8
SLD-0
  6
CONTINUOUS
 62
       7
100
AcDbLine
 10
78.28642858
 20
52.24566209
 30
0.0
 11
79.38935514
 21
35.42603041
 31
0.0
  0
LINE
  5
F9
100
AcDbEntity
  8
SLD-0
  6
CONTINUOUS
 62
       7
100
AcDbLine
 10
53.88935562
 20
12.22603116
 30
0.0
 11
53.88935562
 21
29.16166792
 31
0.0
  0
LINE
  5
FA
100
AcDbEntity
  8
SLD-0
  6
CONTINUOUS
 62
       7
100
AcDbLine
 10
78.28642858
 20
52.24566209
 30
0.0
 11
78.27107724
 21
52.47977051
 31
0.0
  0
LINE
  5
FB
100
AcDbEntity
  8
SLD-0
  6
CONTINUOUS
 62
       7
100
AcDbLine
 10
78.27107724
 20
52.47977051
 30
0.0
 11
78.25631578
 21
52.70488235
 31
0.0
  0
LINE
  5
FC
100
AcDbEntity
  8
SLD-0
  6
CONTINUOUS
 62
       7
100
AcDbLine
 10
78.25631578
 20
52.70488235
 30
0.0
 11
78.2427116
 21
52.91234377
 31
0.0
  0
LINE
  5
FD
100
AcDbEntity
  8
SLD-0
  6
CONTINUOUS
 62
       7
100
AcDbLine
 10
78.2427116
 20
52.91234377
 30
0.0
 11
78.23078741
 21
53.09419009
 31
0.0
  0
LINE
  5
FE
100
AcDbEntity
  8
SLD-0
  6
CONTINUOUS
 62
       7
100
AcDbLine
 10
78.23078741
 20
53.09419009
 30
0.0
 11
78.22100142
 21
53.24342522
 31
0.0
  0
LINE
  5
FF
100
AcDbEntity
  8
SLD-0
  6
CONTINUOUS
 62
       7
100
AcDbLine
 10
78.22100142
 20
53.24342522
 30
0.0
 11
78.21372989
 21
53.35431594
 31
0.0
  0
LINE
  5
100
100
AcDbEntity
  8
SLD-0
  6
CONTINUOUS
 62
       7
100
AcDbLine
 10
78.21372989
 20
53.35431594
 30
0.0
 11
78.20925209
 21
53.42260423
 31
0.0
  0
LINE
  5
101
100
AcDbEntity
  8
SLD-0
  6
CONTINUOUS
 62
       7
100
AcDbLine
 10
78.20925209
 20
53.42260423
 30
0.0
 11
78.20774006
 21
53.44566104
 31
0.0
  0
LINE
  5
102
100
AcDbEntity
  8
SLD-0
  6
CONTINUOUS
 62
       7
100
AcDbLine
 10
65.38935471
 20
53.72603285
 30
0.0
 11
77.90838297
 21
53.72603107
 31
0.0
  0
LINE
  5
103
100
AcDbEntity
  8
SLD-0
  6
CONTINUOUS
 62
       7
100
AcDbLine
 10
51.54402591
 20
33.66700349
 30
0.0
 11
48.38935602
 21
35.87592832
 31
0.0
  0
LINE
  5
104
100
AcDbEntity
  8
SLD-0
  6
CONTINUOUS
 62
       7
100
AcDbLine
 10
48.38935602
 20
35.87592832
 30
0.0
 11
48.38935602
 21
36.48631527
 31
0.0
  0
LINE
  5
105
100
AcDbEntity
  8
SLD-0
  6
CONTINUOUS
 62
       7
100
AcDbLine
 10
62.73196768
 20
55.95584281
 30
0.0
 11
65.38935471
 21
53.72603285
 31
0.0
  0
LINE
  5
106
100
AcDbEntity
  8
SLD-0
  6
CONTINUOUS
 62
       7
100
AcDbLine
 10
62.73196768
 20
55.95584281
 30
0.0
 11
62.45296765
 21
56.18995123
 31
0.0
  0
LINE
  5
107
100
AcDbEntity
  8
SLD-0
  6
CONTINUOUS
 62
       7
100
AcDbLine
 10
62.45296765
 20
56.18995123
 30
0.0
 11
62.18469087
 21
56.41506307
 31
0.0
  0
LINE
  5
108
100
AcDbEntity
  8
SLD-0
  6
CONTINUOUS
 62
       7
100
AcDbLine
 10
62.18469087
 20
56.41506307
 30
0.0
 11
61.93744335
 21
56.62252821
 31
0.0
  0
LINE
  5
109
100
AcDbEntity
  8
SLD-0
  6
CONTINUOUS
 62
       7
100
AcDbLine
 10
61.93744335
 20
56.62252821
 30
0.0
 11
61.72073017
 21
56.80437453
 31
0.0
  0
LINE
  5
10A
100
AcDbEntity
  8
SLD-0
  6
CONTINUOUS
 62
       7
100
AcDbLine
 10
61.72073017
 20
56.80437453
 30
0.0
 11
61.54287923
 21
56.95360966
 31
0.0
  0
LINE
  5
10B
100
AcDbEntity
  8
SLD-0
  6
CONTINUOUS
 62
       7
100
AcDbLine
 10
61.54287923
 20
56.95360966
 30
0.0
 11
61.41072269
 21
57.06450038
 31
0.0
  0
LINE
  5
10C
100
AcDbEntity
  8
SLD-0
  6
CONTINUOUS
 62
       7
100
AcDbLine
 10
61.41072269
 20
57.06450038
 30
0.0
 11
61.32934186
 21
57.13278867
 31
0.0
  0
LINE
  5
10D
100
AcDbEntity
  8
SLD-0
  6
CONTINUOUS
 62
       7
100
AcDbLine
 10
61.32934186
 20
57.13278867
 30
0.0
 11
61.30186315
 21
57.15584459
 31
0.0
  0
LINE
  5
10E
100
AcDbEntity
  8
SLD-0
  6
CONTINUOUS
 62
       7
100
AcDbLine
 10
48.38935602
 20
57.22603268
 30
0.0
 11
61.10902687
 21
57.22603125
 31
0.0
  0
LINE
  5
10F
100
AcDbEntity
  8
SLD-0
  6
CONTINUOUS
 62
       7
100
AcDbLine
 10
48.38935602
 20
55.72602964
 30
0.0
 11
48.38935602
 21
57.22603268
 31
0.0
  0
LINE
  5
110
100
AcDbEntity
  8
SLD-0
  6
CONTINUOUS
 62
       7
100
AcDbLine
 10
48.38935565
 20
-39.27396936
 30
0.0
 11
47.88935463
 21
-39.27396936
 31
0.0
  0
LINE
  5
111
100
AcDbEntity
  8
SLD-0
  6
CONTINUOUS
 62
       7
100
AcDbLine
 10
48.3157787
 20
-18.47538395
 30
0.0
 11
48.38935565
 21
-18.42386601
 31
0.0
  0
LINE
  5
112
100
AcDbEntity
  8
SLD-0
  6
CONTINUOUS
 62
       7
100
AcDbLine
 10
48.38935602
 20
35.87592832
 30
0.0
 11
48.31577908
 21
35.92744626
 31
0.0
  0
LINE
  5
113
100
AcDbEntity
  8
SLD-0
  6
CONTINUOUS
 62
       7
100
AcDbLine
 10
48.38935565
 20
56.72603147
 30
0.0
 11
47.88935463
 21
56.72603147
 31
0.0
  0
LINE
  5
114
100
AcDbEntity
  8
SLD-0
  6
CONTINUOUS
 62
       7
100
AcDbLine
 10
76.38935511
 20
25.02603132
 30
0.0
 11
77.08935509
 21
25.02603132
 31
0.0
  0
LINE
  5
115
100
AcDbEntity
  8
SLD-0
  6
CONTINUOUS
 62
       7
100
AcDbLine
 10
76.38935511
 20
26.4260308
 30
0.0
 11
76.38935511
 21
25.02603132
 31
0.0
  0
LINE
  5
116
100
AcDbEntity
  8
SLD-0
  6
CONTINUOUS
 62
       7
100
AcDbLine
 10
77.08935509
 20
25.02603132
 30
0.0
 11
79.38935514
 21
26.4260308
 31
0.0
  0
LINE
  5
117
100
AcDbEntity
  8
SLD-0
  6
CONTINUOUS
 62
       7
100
AcDbLine
 10
79.38935514
 20
26.92603181
 30
0.0
 11
79.38935514
 21
26.4260308
 31
0.0
  0
LINE
  5
118
100
AcDbEntity
  8
SLD-0
  6
CONTINUOUS
 62
       7
100
AcDbLine
 10
38.58935452
 20
-38.11818561
 30
0.0
 11
38.58935452
 21
-38.17048309
 31
0.0
  0
LINE
  5
119
100
AcDbEntity
  8
SLD-0
  6
CONTINUOUS
 62
       7
100
AcDbLine
 10
38.58935452
 20
-38.17048309
 30
0.0
 11
38.58935452
 21
-38.2227195
 31
0.0
  0
LINE
  5
11A
100
AcDbEntity
  8
SLD-0
  6
CONTINUOUS
 62
       7
100
AcDbLine
 10
38.58935452
 20
-38.2227195
 30
0.0
 11
38.58935452
 21
-38.27483378
 31
0.0
  0
LINE
  5
11B
100
AcDbEntity
  8
SLD-0
  6
CONTINUOUS
 62
       7
100
AcDbLine
 10
38.58935452
 20
-38.27483378
 30
0.0
 11
38.58935452
 21
-38.32676484
 31
0.0
  0
LINE
  5
11C
100
AcDbEntity
  8
SLD-0
  6
CONTINUOUS
 62
       7
100
AcDbLine
 10
38.58935452
 20
-38.32676484
 30
0.0
 11
38.58935452
 21
-38.37845164
 31
0.0
  0
LINE
  5
11D
100
AcDbEntity
  8
SLD-0
  6
CONTINUOUS
 62
       7
100
AcDbLine
 10
38.58935452
 20
-38.37845164
 30
0.0
 11
38.58935452
 21
-38.42983309
 31
0.0
  0
LINE
  5
11E
100
AcDbEntity
  8
SLD-0
  6
CONTINUOUS
 62
       7
100
AcDbLine
 10
38.58935452
 20
-38.42983309
 30
0.0
 11
38.58935452
 21
-38.48084813
 31
0.0
  0
LINE
  5
11F
100
AcDbEntity
  8
SLD-0
  6
CONTINUOUS
 62
       7
100
AcDbLine
 10
38.58935452
 20
-38.48084813
 30
0.0
 11
38.58935452
 21
-38.53143569
 31
0.0
  0
LINE
  5
120
100
AcDbEntity
  8
SLD-0
  6
CONTINUOUS
 62
       7
100
AcDbLine
 10
38.58935452
 20
-38.53143569
 30
0.0
 11
38.58935452
 21
-38.58153448
 31
0.0
  0
LINE
  5
121
100
AcDbEntity
  8
SLD-0
  6
CONTINUOUS
 62
       7
100
AcDbLine
 10
38.58935452
 20
-38.58153448
 30
0.0
 11
38.58935452
 21
-38.63108217
 31
0.0
  0
LINE
  5
122
100
AcDbEntity
  8
SLD-0
  6
CONTINUOUS
 62
       7
100
AcDbLine
 10
38.58935452
 20
-38.63108217
 30
0.0
 11
38.58935452
 21
-38.68001611
 31
0.0
  0
LINE
  5
123
100
AcDbEntity
  8
SLD-0
  6
CONTINUOUS
 62
       7
100
AcDbLine
 10
38.58935452
 20
-38.68001611
 30
0.0
 11
38.58935452
 21
-38.72827365
 31
0.0
  0
LINE
  5
124
100
AcDbEntity
  8
SLD-0
  6
CONTINUOUS
 62
       7
100
AcDbLine
 10
38.58935452
 20
-38.72827365
 30
0.0
 11
38.58935452
 21
-38.77579214
 31
0.0
  0
LINE
  5
125
100
AcDbEntity
  8
SLD-0
  6
CONTINUOUS
 62
       7
100
AcDbLine
 10
38.58935452
 20
-38.77579214
 30
0.0
 11
38.58935452
 21
-38.82250894
 31
0.0
  0
LINE
  5
126
100
AcDbEntity
  8
SLD-0
  6
CONTINUOUS
 62
       7
100
AcDbLine
 10
38.58935452
 20
-38.82250894
 30
0.0
 11
38.58935452
 21
-38.86836139
 31
0.0
  0
LINE
  5
127
100
AcDbEntity
  8
SLD-0
  6
CONTINUOUS
 62
       7
100
AcDbLine
 10
38.58935452
 20
-38.86836139
 30
0.0
 11
38.58935452
 21
-38.91328684
 31
0.0
  0
LINE
  5
128
100
AcDbEntity
  8
SLD-0
  6
CONTINUOUS
 62
       7
100
AcDbLine
 10
38.58935452
 20
-38.91328684
 30
0.0
 11
38.58935452
 21
-38.95722265
 31
0.0
  0
LINE
  5
129
100
AcDbEntity
  8
SLD-0
  6
CONTINUOUS
 62
       7
100
AcDbLine
 10
38.58935452
 20
-38.95722265
 30
0.0
 11
38.58935452
 21
-39.00010625
 31
0.0
  0
LINE
  5
12A
100
AcDbEntity
  8
SLD-0
  6
CONTINUOUS
 62
       7
100
AcDbLine
 10
38.58935452
 20
-39.00010625
 30
0.0
 11
38.58935452
 21
-39.04188255
 31
0.0
  0
LINE
  5
12B
100
AcDbEntity
  8
SLD-0
  6
CONTINUOUS
 62
       7
100
AcDbLine
 10
38.58935452
 20
-39.04188255
 30
0.0
 11
38.58935452
 21
-39.08250981
 31
0.0
  0
LINE
  5
12C
100
AcDbEntity
  8
SLD-0
  6
CONTINUOUS
 62
       7
100
AcDbLine
 10
38.58935452
 20
-39.08250981
 30
0.0
 11
38.58935452
 21
-39.1219477
 31
0.0
  0
LINE
  5
12D
100
AcDbEntity
  8
SLD-0
  6
CONTINUOUS
 62
       7
100
AcDbLine
 10
38.58935452
 20
-39.1219477
 30
0.0
 11
38.58935452
 21
-39.16015587
 31
0.0
  0
LINE
  5
12E
100
AcDbEntity
  8
SLD-0
  6
CONTINUOUS
 62
       7
100
AcDbLine
 10
38.58935452
 20
-39.16015587
 30
0.0
 11
38.58935452
 21
-39.19709397
 31
0.0
  0
LINE
  5
12F
100
AcDbEntity
  8
SLD-0
  6
CONTINUOUS
 62
       7
100
AcDbLine
 10
38.58935452
 20
-39.19709397
 30
0.0
 11
38.58935452
 21
-39.23272169
 31
0.0
  0
LINE
  5
130
100
AcDbEntity
  8
SLD-0
  6
CONTINUOUS
 62
       7
100
AcDbLine
 10
38.58935452
 20
-39.23272169
 30
0.0
 11
38.58935452
 21
-39.26700078
 31
0.0
  0
LINE
  5
131
100
AcDbEntity
  8
SLD-0
  6
CONTINUOUS
 62
       7
100
AcDbLine
 10
38.58935452
 20
-39.26700078
 30
0.0
 11
38.58935452
 21
-39.29989728
 31
0.0
  0
LINE
  5
132
100
AcDbEntity
  8
SLD-0
  6
CONTINUOUS
 62
       7
100
AcDbLine
 10
38.58935452
 20
-39.29989728
 30
0.0
 11
38.58935452
 21
-39.33137775
 31
0.0
  0
LINE
  5
133
100
AcDbEntity
  8
SLD-0
  6
CONTINUOUS
 62
       7
100
AcDbLine
 10
38.58935452
 20
-39.33137775
 30
0.0
 11
38.58935452
 21
-39.36140874
 31
0.0
  0
LINE
  5
134
100
AcDbEntity
  8
SLD-0
  6
CONTINUOUS
 62
       7
100
AcDbLine
 10
38.58935452
 20
-39.36140874
 30
0.0
 11
38.58935452
 21
-39.3899568
 31
0.0
  0
LINE
  5
135
100
AcDbEntity
  8
SLD-0
  6
CONTINUOUS
 62
       7
100
AcDbLine
 10
38.58935452
 20
-39.3899568
 30
0.0
 11
38.58935452
 21
-39.4169885
 31
0.0
  0
LINE
  5
136
100
AcDbEntity
  8
SLD-0
  6
CONTINUOUS
 62
       7
100
AcDbLine
 10
38.58935452
 20
-39.4169885
 30
0.0
 11
38.58935452
 21
-39.44247038
 31
0.0
  0
LINE
  5
137
100
AcDbEntity
  8
SLD-0
  6
CONTINUOUS
 62
       7
100
AcDbLine
 10
38.58935452
 20
-39.44247038
 30
0.0
 11
38.58935452
 21
-39.466369
 31
0.0
  0
LINE
  5
138
100
AcDbEntity
  8
SLD-0
  6
CONTINUOUS
 62
       7
100
AcDbLine
 10
38.58935452
 20
-39.466369
 30
0.0
 11
38.58935452
 21
-39.48865091
 31
0.0
  0
LINE
  5
139
100
AcDbEntity
  8
SLD-0
  6
CONTINUOUS
 62
       7
100
AcDbLine
 10
38.58935452
 20
-39.48865091
 30
0.0
 11
38.58935452
 21
-39.5092826
 31
0.0
  0
LINE
  5
13A
100
AcDbEntity
  8
SLD-0
  6
CONTINUOUS
 62
       7
100
AcDbLine
 10
38.58935452
 20
-39.5092826
 30
0.0
 11
38.58935452
 21
-39.52822941
 31
0.0
  0
LINE
  5
13B
100
AcDbEntity
  8
SLD-0
  6
CONTINUOUS
 62
       7
100
AcDbLine
 10
38.58935452
 20
-39.52822941
 30
0.0
 11
38.58935452
 21
-39.54545571
 31
0.0
  0
LINE
  5
13C
100
AcDbEntity
  8
SLD-0
  6
CONTINUOUS
 62
       7
100
AcDbLine
 10
38.58935452
 20
-39.54545571
 30
0.0
 11
38.58935452
 21
-39.56092588
 31
0.0
  0
LINE
  5
13D
100
AcDbEntity
  8
SLD-0
  6
CONTINUOUS
 62
       7
100
AcDbLine
 10
38.58935452
 20
-39.56092588
 30
0.0
 11
38.58935452
 21
-39.57460427
 31
0.0
  0
LINE
  5
13E
100
AcDbEntity
  8
SLD-0
  6
CONTINUOUS
 62
       7
100
AcDbLine
 10
38.58935452
 20
-39.57460427
 30
0.0
 11
38.58935452
 21
-39.58645524
 31
0.0
  0
LINE
  5
13F
100
AcDbEntity
  8
SLD-0
  6
CONTINUOUS
 62
       7
100
AcDbLine
 10
38.58935452
 20
-39.58645524
 30
0.0
 11
38.58935452
 21
-39.59644316
 31
0.0
  0
LINE
  5
140
100
AcDbEntity
  8
SLD-0
  6
CONTINUOUS
 62
       7
100
AcDbLine
 10
38.58935452
 20
-39.59644316
 30
0.0
 11
38.58935452
 21
-39.60453238
 31
0.0
  0
LINE
  5
141
100
AcDbEntity
  8
SLD-0
  6
CONTINUOUS
 62
       7
100
AcDbLine
 10
38.58935452
 20
-39.60453238
 30
0.0
 11
38.58935452
 21
-39.61068728
 31
0.0
  0
LINE
  5
142
100
AcDbEntity
  8
SLD-0
  6
CONTINUOUS
 62
       7
100
AcDbLine
 10
38.58935452
 20
-39.61068728
 30
0.0
 11
38.58935452
 21
-39.6148722
 31
0.0
  0
LINE
  5
143
100
AcDbEntity
  8
SLD-0
  6
CONTINUOUS
 62
       7
100
AcDbLine
 10
38.58935452
 20
-39.6148722
 30
0.0
 11
38.58935452
 21
-39.6171926
 31
0.0
  0
LINE
  5
144
100
AcDbEntity
  8
SLD-0
  6
CONTINUOUS
 62
       7
100
AcDbLine
 10
24.03208083
 20
-38.71286298
 30
0.0
 11
23.9809504
 21
-38.70743125
 31
0.0
  0
LINE
  5
145
100
AcDbEntity
  8
SLD-0
  6
CONTINUOUS
 62
       7
100
AcDbLine
 10
23.9809504
 20
-38.70743125
 30
0.0
 11
23.92989436
 21
-38.70200538
 31
0.0
  0
LINE
  5
146
100
AcDbEntity
  8
SLD-0
  6
CONTINUOUS
 62
       7
100
AcDbLine
 10
23.92989436
 20
-38.70200538
 30
0.0
 11
23.87898711
 21
-38.69659127
 31
0.0
  0
LINE
  5
147
100
AcDbEntity
  8
SLD-0
  6
CONTINUOUS
 62
       7
100
AcDbLine
 10
23.87898711
 20
-38.69659127
 30
0.0
 11
23.82830305
 21
-38.69119477
 31
0.0
  0
LINE
  5
148
100
AcDbEntity
  8
SLD-0
  6
CONTINUOUS
 62
       7
100
AcDbLine
 10
23.82830305
 20
-38.69119477
 30
0.0
 11
23.77791658
 21
-38.68582177
 31
0.0
  0
LINE
  5
149
100
AcDbEntity
  8
SLD-0
  6
CONTINUOUS
 62
       7
100
AcDbLine
 10
23.77791658
 20
-38.68582177
 30
0.0
 11
23.7279021
 21
-38.68047813
 31
0.0
  0
LINE
  5
14A
100
AcDbEntity
  8
SLD-0
  6
CONTINUOUS
 62
       7
100
AcDbLine
 10
23.7279021
 20
-38.68047813
 30
0.0
 11
23.67833399
 21
-38.67516973
 31
0.0
  0
LINE
  5
14B
100
AcDbEntity
  8
SLD-0
  6
CONTINUOUS
 62
       7
100
AcDbLine
 10
23.67833399
 20
-38.67516973
 30
0.0
 11
23.62928667
 21
-38.66990244
 31
0.0
  0
LINE
  5
14C
100
AcDbEntity
  8
SLD-0
  6
CONTINUOUS
 62
       7
100
AcDbLine
 10
23.62928667
 20
-38.66990244
 30
0.0
 11
23.58083451
 21
-38.66468215
 31
0.0
  0
LINE
  5
14D
100
AcDbEntity
  8
SLD-0
  6
CONTINUOUS
 62
       7
100
AcDbLine
 10
23.58083451
 20
-38.66468215
 30
0.0
 11
23.53305158
 21
-38.65951604
 31
0.0
  0
LINE
  5
14E
100
AcDbEntity
  8
SLD-0
  6
CONTINUOUS
 62
       7
100
AcDbLine
 10
23.53305158
 20
-38.65951604
 30
0.0
 11
23.4860114
 21
-38.65441336
 31
0.0
  0
LINE
  5
14F
100
AcDbEntity
  8
SLD-0
  6
CONTINUOUS
 62
       7
100
AcDbLine
 10
23.4860114
 20
-38.65441336
 30
0.0
 11
23.43978744
 21
-38.64938356
 31
0.0
  0
LINE
  5
150
100
AcDbEntity
  8
SLD-0
  6
CONTINUOUS
 62
       7
100
AcDbLine
 10
23.43978744
 20
-38.64938356
 30
0.0
 11
23.39445316
 21
-38.64443609
 31
0.0
  0
LINE
  5
151
100
AcDbEntity
  8
SLD-0
  6
CONTINUOUS
 62
       7
100
AcDbLine
 10
23.39445316
 20
-38.64443609
 30
0.0
 11
23.35008203
 21
-38.6395804
 31
0.0
  0
LINE
  5
152
100
AcDbEntity
  8
SLD-0
  6
CONTINUOUS
 62
       7
100
AcDbLine
 10
23.35008203
 20
-38.6395804
 30
0.0
 11
23.30674753
 21
-38.63482595
 31
0.0
  0
LINE
  5
153
100
AcDbEntity
  8
SLD-0
  6
CONTINUOUS
 62
       7
100
AcDbLine
 10
23.30674753
 20
-38.63482595
 30
0.0
 11
23.26452312
 21
-38.63018217
 31
0.0
  0
LINE
  5
154
100
AcDbEntity
  8
SLD-0
  6
CONTINUOUS
 62
       7
100
AcDbLine
 10
23.26452312
 20
-38.63018217
 30
0.0
 11
23.22348227
 21
-38.62565853
 31
0.0
  0
LINE
  5
155
100
AcDbEntity
  8
SLD-0
  6
CONTINUOUS
 62
       7
100
AcDbLine
 10
23.22348227
 20
-38.62565853
 30
0.0
 11
23.18369691
 21
-38.62126427
 31
0.0
  0
LINE
  5
156
100
AcDbEntity
  8
SLD-0
  6
CONTINUOUS
 62
       7
100
AcDbLine
 10
23.18369691
 20
-38.62126427
 30
0.0
 11
23.14521962
 21
-38.61700623
 31
0.0
  0
LINE
  5
157
100
AcDbEntity
  8
SLD-0
  6
CONTINUOUS
 62
       7
100
AcDbLine
 10
23.14521962
 20
-38.61700623
 30
0.0
 11
23.10808963
 21
-38.61288952
 31
0.0
  0
LINE
  5
158
100
AcDbEntity
  8
SLD-0
  6
CONTINUOUS
 62
       7
100
AcDbLine
 10
23.10808963
 20
-38.61288952
 30
0.0
 11
23.07234592
 21
-38.60891926
 31
0.0
  0
LINE
  5
159
100
AcDbEntity
  8
SLD-0
  6
CONTINUOUS
 62
       7
100
AcDbLine
 10
23.07234592
 20
-38.60891926
 30
0.0
 11
23.03802746
 21
-38.60510055
 31
0.0
  0
LINE
  5
15A
100
AcDbEntity
  8
SLD-0
  6
CONTINUOUS
 62
       7
100
AcDbLine
 10
23.03802746
 20
-38.60510055
 30
0.0
 11
23.00517325
 21
-38.60143849
 31
0.0
  0
LINE
  5
15B
100
AcDbEntity
  8
SLD-0
  6
CONTINUOUS
 62
       7
100
AcDbLine
 10
23.00517325
 20
-38.60143849
 30
0.0
 11
22.97382226
 21
-38.59793819
 31
0.0
  0
LINE
  5
15C
100
AcDbEntity
  8
SLD-0
  6
CONTINUOUS
 62
       7
100
AcDbLine
 10
22.97382226
 20
-38.59793819
 30
0.0
 11
22.94401347
 21
-38.59460475
 31
0.0
  0
LINE
  5
15D
100
AcDbEntity
  8
SLD-0
  6
CONTINUOUS
 62
       7
100
AcDbLine
 10
22.94401347
 20
-38.59460475
 30
0.0
 11
22.91578586
 21
-38.59144327
 31
0.0
  0
LINE
  5
15E
100
AcDbEntity
  8
SLD-0
  6
CONTINUOUS
 62
       7
100
AcDbLine
 10
22.91578586
 20
-38.59144327
 30
0.0
 11
22.88918867
 21
-38.58846002
 31
0.0
  0
LINE
  5
15F
100
AcDbEntity
  8
SLD-0
  6
CONTINUOUS
 62
       7
100
AcDbLine
 10
22.88918867
 20
-38.58846002
 30
0.0
 11
22.86431018
 21
-38.58566566
 31
0.0
  0
LINE
  5
160
100
AcDbEntity
  8
SLD-0
  6
CONTINUOUS
 62
       7
100
AcDbLine
 10
22.86431018
 20
-38.58566566
 30
0.0
 11
22.84124801
 21
-38.5830719
 31
0.0
  0
LINE
  5
161
100
AcDbEntity
  8
SLD-0
  6
CONTINUOUS
 62
       7
100
AcDbLine
 10
22.84124801
 20
-38.5830719
 30
0.0
 11
22.82009977
 21
-38.58069047
 31
0.0
  0
LINE
  5
162
100
AcDbEntity
  8
SLD-0
  6
CONTINUOUS
 62
       7
100
AcDbLine
 10
22.82009977
 20
-38.58069047
 30
0.0
 11
22.80096305
 21
-38.57853306
 31
0.0
  0
LINE
  5
163
100
AcDbEntity
  8
SLD-0
  6
CONTINUOUS
 62
       7
100
AcDbLine
 10
22.80096305
 20
-38.57853306
 30
0.0
 11
22.78393545
 21
-38.57661141
 31
0.0
  0
LINE
  5
164
100
AcDbEntity
  8
SLD-0
  6
CONTINUOUS
 62
       7
100
AcDbLine
 10
22.78393545
 20
-38.57661141
 30
0.0
 11
22.7691146
 21
-38.57493722
 31
0.0
  0
LINE
  5
165
100
AcDbEntity
  8
SLD-0
  6
CONTINUOUS
 62
       7
100
AcDbLine
 10
22.7691146
 20
-38.57493722
 30
0.0
 11
22.75659808
 21
-38.57352221
 31
0.0
  0
LINE
  5
166
100
AcDbEntity
  8
SLD-0
  6
CONTINUOUS
 62
       7
100
AcDbLine
 10
22.75659808
 20
-38.57352221
 30
0.0
 11
22.74647461
 21
-38.57237708
 31
0.0
  0
LINE
  5
167
100
AcDbEntity
  8
SLD-0
  6
CONTINUOUS
 62
       7
100
AcDbLine
 10
22.74647461
 20
-38.57237708
 30
0.0
 11
22.73858451
 21
-38.57148416
 31
0.0
  0
LINE
  5
168
100
AcDbEntity
  8
SLD-0
  6
CONTINUOUS
 62
       7
100
AcDbLine
 10
22.73858451
 20
-38.57148416
 30
0.0
 11
22.73249259
 21
-38.57079432
 31
0.0
  0
LINE
  5
169
100
AcDbEntity
  8
SLD-0
  6
CONTINUOUS
 62
       7
100
AcDbLine
 10
22.73249259
 20
-38.57079432
 30
0.0
 11
22.7277493
 21
-38.57025679
 31
0.0
  0
LINE
  5
16A
100
AcDbEntity
  8
SLD-0
  6
CONTINUOUS
 62
       7
100
AcDbLine
 10
22.7277493
 20
-38.57025679
 30
0.0
 11
22.72390509
 21
-38.5698208
 31
0.0
  0
LINE
  5
16B
100
AcDbEntity
  8
SLD-0
  6
CONTINUOUS
 62
       7
100
AcDbLine
 10
22.72390509
 20
-38.5698208
 30
0.0
 11
22.72051043
 21
-38.56943558
 31
0.0
  0
LINE
  5
16C
100
AcDbEntity
  8
SLD-0
  6
CONTINUOUS
 62
       7
100
AcDbLine
 10
22.43997435
 20
-18.52188958
 30
0.0
 11
22.47734166
 21
-18.48576753
 31
0.0
  0
LINE
  5
16D
100
AcDbEntity
  8
SLD-0
  6
CONTINUOUS
 62
       7
100
AcDbLine
 10
22.47734166
 20
-18.48576753
 30
0.0
 11
22.51485065
 21
-18.44981808
 31
0.0
  0
LINE
  5
16E
100
AcDbEntity
  8
SLD-0
  6
CONTINUOUS
 62
       7
100
AcDbLine
 10
22.51485065
 20
-18.44981808
 30
0.0
 11
22.55264301
 21
-18.4142138
 31
0.0
  0
LINE
  5
16F
100
AcDbEntity
  8
SLD-0
  6
CONTINUOUS
 62
       7
100
AcDbLine
 10
22.55264301
 20
-18.4142138
 30
0.0
 11
22.59086045
 21
-18.37912728
 31
0.0
  0
LINE
  5
170
100
AcDbEntity
  8
SLD-0
  6
CONTINUOUS
 62
       7
100
AcDbLine
 10
22.59086045
 20
-18.37912728
 30
0.0
 11
22.62964463
 21
-18.34473111
 31
0.0
  0
LINE
  5
171
100
AcDbEntity
  8
SLD-0
  6
CONTINUOUS
 62
       7
100
AcDbLine
 10
22.62964463
 20
-18.34473111
 30
0.0
 11
22.66913727
 21
-18.31119788
 31
0.0
  0
LINE
  5
172
100
AcDbEntity
  8
SLD-0
  6
CONTINUOUS
 62
       7
100
AcDbLine
 10
22.66913727
 20
-18.31119788
 30
0.0
 11
22.70948003
 21
-18.27870018
 31
0.0
  0
LINE
  5
173
100
AcDbEntity
  8
SLD-0
  6
CONTINUOUS
 62
       7
100
AcDbLine
 10
22.70948003
 20
-18.27870018
 30
0.0
 11
22.75081461
 21
-18.24741059
 31
0.0
  0
LINE
  5
174
100
AcDbEntity
  8
SLD-0
  6
CONTINUOUS
 62
       7
100
AcDbLine
 10
22.75081461
 20
-18.24741059
 30
0.0
 11
22.79328271
 21
-18.2175017
 31
0.0
  0
LINE
  5
175
100
AcDbEntity
  8
SLD-0
  6
CONTINUOUS
 62
       7
100
AcDbLine
 10
22.79328271
 20
-18.2175017
 30
0.0
 11
22.837026
 21
-18.1891461
 31
0.0
  0
LINE
  5
176
100
AcDbEntity
  8
SLD-0
  6
CONTINUOUS
 62
       7
100
AcDbLine
 10
22.837026
 20
-18.1891461
 30
0.0
 11
22.88218346
 21
-18.16251442
 31
0.0
  0
LINE
  5
177
100
AcDbEntity
  8
SLD-0
  6
CONTINUOUS
 62
       7
100
AcDbLine
 10
22.88218346
 20
-18.16251442
 30
0.0
 11
22.92879674
 21
-18.13770733
 31
0.0
  0
LINE
  5
178
100
AcDbEntity
  8
SLD-0
  6
CONTINUOUS
 62
       7
100
AcDbLine
 10
22.92879674
 20
-18.13770733
 30
0.0
 11
22.9767857
 21
-18.11473796
 31
0.0
  0
LINE
  5
179
100
AcDbEntity
  8
SLD-0
  6
CONTINUOUS
 62
       7
100
AcDbLine
 10
22.9767857
 20
-18.11473796
 30
0.0
 11
23.02606253
 21
-18.09361392
 31
0.0
  0
LINE
  5
17A
100
AcDbEntity
  8
SLD-0
  6
CONTINUOUS
 62
       7
100
AcDbLine
 10
23.02606253
 20
-18.09361392
 30
0.0
 11
23.07653941
 21
-18.0743428
 31
0.0
  0
LINE
  5
17B
100
AcDbEntity
  8
SLD-0
  6
CONTINUOUS
 62
       7
100
AcDbLine
 10
23.07653941
 20
-18.0743428
 30
0.0
 11
23.12812852
 21
-18.0569322
 31
0.0
  0
LINE
  5
17C
100
AcDbEntity
  8
SLD-0
  6
CONTINUOUS
 62
       7
100
AcDbLine
 10
23.12812852
 20
-18.0569322
 30
0.0
 11
23.18074204
 21
-18.04138973
 31
0.0
  0
LINE
  5
17D
100
AcDbEntity
  8
SLD-0
  6
CONTINUOUS
 62
       7
100
AcDbLine
 10
23.18074204
 20
-18.04138973
 30
0.0
 11
23.23429217
 21
-18.02772299
 31
0.0
  0
LINE
  5
17E
100
AcDbEntity
  8
SLD-0
  6
CONTINUOUS
 62
       7
100
AcDbLine
 10
23.23429217
 20
-18.02772299
 30
0.0
 11
23.28869107
 21
-18.01593958
 31
0.0
  0
LINE
  5
17F
100
AcDbEntity
  8
SLD-0
  6
CONTINUOUS
 62
       7
100
AcDbLine
 10
23.28869107
 20
-18.01593958
 30
0.0
 11
23.34385094
 21
-18.00604709
 31
0.0
  0
LINE
  5
180
100
AcDbEntity
  8
SLD-0
  6
CONTINUOUS
 62
       7
100
AcDbLine
 10
23.34385094
 20
-18.00604709
 30
0.0
 11
23.39968395
 21
-17.99805314
 31
0.0
  0
LINE
  5
181
100
AcDbEntity
  8
SLD-0
  6
CONTINUOUS
 62
       7
100
AcDbLine
 10
23.39968395
 20
-17.99805314
 30
0.0
 11
23.4560991
 21
-17.99197116
 31
0.0
  0
LINE
  5
182
100
AcDbEntity
  8
SLD-0
  6
CONTINUOUS
 62
       7
100
AcDbLine
 10
23.4560991
 20
-17.99197116
 30
0.0
 11
23.51297996
 21
-17.98786107
 31
0.0
  0
LINE
  5
183
100
AcDbEntity
  8
SLD-0
  6
CONTINUOUS
 62
       7
100
AcDbLine
 10
23.51297996
 20
-17.98786107
 30
0.0
 11
23.57019793
 21
-17.98580503
 31
0.0
  0
LINE
  5
184
100
AcDbEntity
  8
SLD-0
  6
CONTINUOUS
 62
       7
100
AcDbLine
 10
23.57019793
 20
-17.98580503
 30
0.0
 11
23.62762437
 21
-17.98588532
 31
0.0
  0
LINE
  5
185
100
AcDbEntity
  8
SLD-0
  6
CONTINUOUS
 62
       7
100
AcDbLine
 10
23.62762437
 20
-17.98588532
 30
0.0
 11
23.6851306
 21
-17.98818425
 31
0.0
  0
LINE
  5
186
100
AcDbEntity
  8
SLD-0
  6
CONTINUOUS
 62
       7
100
AcDbLine
 10
23.6851306
 20
-17.98818425
 30
0.0
 11
23.74258796
 21
-17.9927841
 31
0.0
  0
LINE
  5
187
100
AcDbEntity
  8
SLD-0
  6
CONTINUOUS
 62
       7
100
AcDbLine
 10
23.74258796
 20
-17.9927841
 30
0.0
 11
23.7998678
 21
-17.99976718
 31
0.0
  0
LINE
  5
188
100
AcDbEntity
  8
SLD-0
  6
CONTINUOUS
 62
       7
100
AcDbLine
 10
23.7998678
 20
-17.99976718
 30
0.0
 11
23.85684145
 21
-18.00921576
 31
0.0
  0
LINE
  5
189
100
AcDbEntity
  8
SLD-0
  6
CONTINUOUS
 62
       7
100
AcDbLine
 10
23.85684145
 20
-18.00921576
 30
0.0
 11
23.91338025
 21
-18.02121214
 31
0.0
  0
LINE
  5
18A
100
AcDbEntity
  8
SLD-0
  6
CONTINUOUS
 62
       7
100
AcDbLine
 10
23.91338025
 20
-18.02121214
 30
0.0
 11
23.96936628
 21
-18.03581153
 31
0.0
  0
LINE
  5
18B
100
AcDbEntity
  8
SLD-0
  6
CONTINUOUS
 62
       7
100
AcDbLine
 10
23.96936628
 20
-18.03581153
 30
0.0
 11
24.02482608
 21
-18.0527051
 31
0.0
  0
LINE
  5
18C
100
AcDbEntity
  8
SLD-0
  6
CONTINUOUS
 62
       7
100
AcDbLine
 10
24.02482608
 20
-18.0527051
 30
0.0
 11
24.07988951
 21
-18.07132355
 31
0.0
  0
LINE
  5
18D
100
AcDbEntity
  8
SLD-0
  6
CONTINUOUS
 62
       7
100
AcDbLine
 10
24.07988951
 20
-18.07132355
 30
0.0
 11
24.1346887
 21
-18.09109191
 31
0.0
  0
LINE
  5
18E
100
AcDbEntity
  8
SLD-0
  6
CONTINUOUS
 62
       7
100
AcDbLine
 10
24.1346887
 20
-18.09109191
 30
0.0
 11
24.18935578
 21
-18.11143523
 31
0.0
  0
LINE
  5
18F
100
AcDbEntity
  8
SLD-0
  6
CONTINUOUS
 62
       7
100
AcDbLine
 10
38.58935591
 20
57.06955348
 30
0.0
 11
38.58935591
 21
57.06708633
 31
0.0
  0
LINE
  5
190
100
AcDbEntity
  8
SLD-0
  6
CONTINUOUS
 62
       7
100
AcDbLine
 10
38.58935591
 20
57.06708633
 30
0.0
 11
38.58935591
 21
57.06266867
 31
0.0
  0
LINE
  5
191
100
AcDbEntity
  8
SLD-0
  6
CONTINUOUS
 62
       7
100
AcDbLine
 10
38.58935591
 20
57.06266867
 30
0.0
 11
38.58935591
 21
57.05633501
 31
0.0
  0
LINE
  5
192
100
AcDbEntity
  8
SLD-0
  6
CONTINUOUS
 62
       7
100
AcDbLine
 10
38.58935591
 20
57.05633501
 30
0.0
 11
38.58935591
 21
57.04812294
 31
0.0
  0
LINE
  5
193
100
AcDbEntity
  8
SLD-0
  6
CONTINUOUS
 62
       7
100
AcDbLine
 10
38.58935591
 20
57.04812294
 30
0.0
 11
38.58935591
 21
57.03807005
 31
0.0
  0
LINE
  5
194
100
AcDbEntity
  8
SLD-0
  6
CONTINUOUS
 62
       7
100
AcDbLine
 10
38.58935591
 20
57.03807005
 30
0.0
 11
38.58935591
 21
57.02621393
 31
0.0
  0
LINE
  5
195
100
AcDbEntity
  8
SLD-0
  6
CONTINUOUS
 62
       7
100
AcDbLine
 10
38.58935591
 20
57.02621393
 30
0.0
 11
38.58935591
 21
57.01259117
 31
0.0
  0
LINE
  5
196
100
AcDbEntity
  8
SLD-0
  6
CONTINUOUS
 62
       7
100
AcDbLine
 10
38.58935591
 20
57.01259117
 30
0.0
 11
38.58935591
 21
56.99722885
 31
0.0
  0
LINE
  5
197
100
AcDbEntity
  8
SLD-0
  6
CONTINUOUS
 62
       7
100
AcDbLine
 10
38.58935591
 20
56.99722885
 30
0.0
 11
38.58935591
 21
56.98014897
 31
0.0
  0
LINE
  5
198
100
AcDbEntity
  8
SLD-0
  6
CONTINUOUS
 62
       7
100
AcDbLine
 10
38.58935591
 20
56.98014897
 30
0.0
 11
38.58935591
 21
56.9613735
 31
0.0
  0
LINE
  5
199
100
AcDbEntity
  8
SLD-0
  6
CONTINUOUS
 62
       7
100
AcDbLine
 10
38.58935591
 20
56.9613735
 30
0.0
 11
38.58935591
 21
56.9409244
 31
0.0
  0
LINE
  5
19A
100
AcDbEntity
  8
SLD-0
  6
CONTINUOUS
 62
       7
100
AcDbLine
 10
38.58935591
 20
56.9409244
 30
0.0
 11
38.58935591
 21
56.9188236
 31
0.0
  0
LINE
  5
19B
100
AcDbEntity
  8
SLD-0
  6
CONTINUOUS
 62
       7
100
AcDbLine
 10
38.58935591
 20
56.9188236
 30
0.0
 11
38.58935591
 21
56.89509309
 31
0.0
  0
LINE
  5
19C
100
AcDbEntity
  8
SLD-0
  6
CONTINUOUS
 62
       7
100
AcDbLine
 10
38.58935591
 20
56.89509309
 30
0.0
 11
38.58935591
 21
56.8697548
 31
0.0
  0
LINE
  5
19D
100
AcDbEntity
  8
SLD-0
  6
CONTINUOUS
 62
       7
100
AcDbLine
 10
38.58935591
 20
56.8697548
 30
0.0
 11
38.58935591
 21
56.8428307
 31
0.0
  0
LINE
  5
19E
100
AcDbEntity
  8
SLD-0
  6
CONTINUOUS
 62
       7
100
AcDbLine
 10
38.58935591
 20
56.8428307
 30
0.0
 11
38.58935591
 21
56.81434274
 31
0.0
  0
LINE
  5
19F
100
AcDbEntity
  8
SLD-0
  6
CONTINUOUS
 62
       7
100
AcDbLine
 10
38.58935591
 20
56.81434274
 30
0.0
 11
38.58935591
 21
56.78431771
 31
0.0
  0
LINE
  5
1A0
100
AcDbEntity
  8
SLD-0
  6
CONTINUOUS
 62
       7
100
AcDbLine
 10
38.58935591
 20
56.78431771
 30
0.0
 11
38.58935591
 21
56.75279772
 31
0.0
  0
LINE
  5
1A1
100
AcDbEntity
  8
SLD-0
  6
CONTINUOUS
 62
       7
100
AcDbLine
 10
38.58935591
 20
56.75279772
 30
0.0
 11
38.58935591
 21
56.7198279
 31
0.0
  0
LINE
  5
1A2
100
AcDbEntity
  8
SLD-0
  6
CONTINUOUS
 62
       7
100
AcDbLine
 10
38.58935591
 20
56.7198279
 30
0.0
 11
38.58935591
 21
56.6854534
 31
0.0
  0
LINE
  5
1A3
100
AcDbEntity
  8
SLD-0
  6
CONTINUOUS
 62
       7
100
AcDbLine
 10
38.58935591
 20
56.6854534
 30
0.0
 11
38.58935591
 21
56.64971937
 31
0.0
  0
LINE
  5
1A4
100
AcDbEntity
  8
SLD-0
  6
CONTINUOUS
 62
       7
100
AcDbLine
 10
38.58935591
 20
56.64971937
 30
0.0
 11
38.58935591
 21
56.61267094
 31
0.0
  0
LINE
  5
1A5
100
AcDbEntity
  8
SLD-0
  6
CONTINUOUS
 62
       7
100
AcDbLine
 10
38.58935591
 20
56.61267094
 30
0.0
 11
38.58935591
 21
56.57435325
 31
0.0
  0
LINE
  5
1A6
100
AcDbEntity
  8
SLD-0
  6
CONTINUOUS
 62
       7
100
AcDbLine
 10
38.58935591
 20
56.57435325
 30
0.0
 11
38.58935591
 21
56.53481146
 31
0.0
  0
LINE
  5
1A7
100
AcDbEntity
  8
SLD-0
  6
CONTINUOUS
 62
       7
100
AcDbLine
 10
38.58935591
 20
56.53481146
 30
0.0
 11
38.58935591
 21
56.49409071
 31
0.0
  0
LINE
  5
1A8
100
AcDbEntity
  8
SLD-0
  6
CONTINUOUS
 62
       7
100
AcDbLine
 10
38.58935591
 20
56.49409071
 30
0.0
 11
38.58935591
 21
56.45223629
 31
0.0
  0
LINE
  5
1A9
100
AcDbEntity
  8
SLD-0
  6
CONTINUOUS
 62
       7
100
AcDbLine
 10
38.58935591
 20
56.45223629
 30
0.0
 11
38.58935591
 21
56.40929896
 31
0.0
  0
LINE
  5
1AA
100
AcDbEntity
  8
SLD-0
  6
CONTINUOUS
 62
       7
100
AcDbLine
 10
38.58935591
 20
56.40929896
 30
0.0
 11
38.58935591
 21
56.36533622
 31
0.0
  0
LINE
  5
1AB
100
AcDbEntity
  8
SLD-0
  6
CONTINUOUS
 62
       7
100
AcDbLine
 10
38.58935591
 20
56.36533622
 30
0.0
 11
38.58935591
 21
56.32040596
 31
0.0
  0
LINE
  5
1AC
100
AcDbEntity
  8
SLD-0
  6
CONTINUOUS
 62
       7
100
AcDbLine
 10
38.58935591
 20
56.32040596
 30
0.0
 11
38.58935591
 21
56.27456607
 31
0.0
  0
LINE
  5
1AD
100
AcDbEntity
  8
SLD-0
  6
CONTINUOUS
 62
       7
100
AcDbLine
 10
38.58935591
 20
56.27456607
 30
0.0
 11
38.58935591
 21
56.22787447
 31
0.0
  0
LINE
  5
1AE
100
AcDbEntity
  8
SLD-0
  6
CONTINUOUS
 62
       7
100
AcDbLine
 10
38.58935591
 20
56.22787447
 30
0.0
 11
38.58935591
 21
56.18038904
 31
0.0
  0
LINE
  5
1AF
100
AcDbEntity
  8
SLD-0
  6
CONTINUOUS
 62
       7
100
AcDbLine
 10
38.58935591
 20
56.18038904
 30
0.0
 11
38.58935591
 21
56.13216769
 31
0.0
  0
LINE
  5
1B0
100
AcDbEntity
  8
SLD-0
  6
CONTINUOUS
 62
       7
100
AcDbLine
 10
38.58935591
 20
56.13216769
 30
0.0
 11
38.58935591
 21
56.08326832
 31
0.0
  0
LINE
  5
1B1
100
AcDbEntity
  8
SLD-0
  6
CONTINUOUS
 62
       7
100
AcDbLine
 10
38.58935591
 20
56.08326832
 30
0.0
 11
38.58935591
 21
56.03374882
 31
0.0
  0
LINE
  5
1B2
100
AcDbEntity
  8
SLD-0
  6
CONTINUOUS
 62
       7
100
AcDbLine
 10
38.58935591
 20
56.03374882
 30
0.0
 11
38.58935591
 21
55.98366744
 31
0.0
  0
LINE
  5
1B3
100
AcDbEntity
  8
SLD-0
  6
CONTINUOUS
 62
       7
100
AcDbLine
 10
38.58935591
 20
55.98366744
 30
0.0
 11
38.58935591
 21
55.93308532
 31
0.0
  0
LINE
  5
1B4
100
AcDbEntity
  8
SLD-0
  6
CONTINUOUS
 62
       7
100
AcDbLine
 10
38.58935591
 20
55.93308532
 30
0.0
 11
38.58935591
 21
55.88206504
 31
0.0
  0
LINE
  5
1B5
100
AcDbEntity
  8
SLD-0
  6
CONTINUOUS
 62
       7
100
AcDbLine
 10
38.58935591
 20
55.88206504
 30
0.0
 11
38.58935591
 21
55.83066921
 31
0.0
  0
LINE
  5
1B6
100
AcDbEntity
  8
SLD-0
  6
CONTINUOUS
 62
       7
100
AcDbLine
 10
38.58935591
 20
55.83066921
 30
0.0
 11
38.58935591
 21
55.7789604
 31
0.0
  0
LINE
  5
1B7
100
AcDbEntity
  8
SLD-0
  6
CONTINUOUS
 62
       7
100
AcDbLine
 10
38.58935591
 20
55.7789604
 30
0.0
 11
38.58935591
 21
55.72700123
 31
0.0
  0
LINE
  5
1B8
100
AcDbEntity
  8
SLD-0
  6
CONTINUOUS
 62
       7
100
AcDbLine
 10
38.58935591
 20
55.72700123
 30
0.0
 11
38.58935591
 21
55.67485427
 31
0.0
  0
LINE
  5
1B9
100
AcDbEntity
  8
SLD-0
  6
CONTINUOUS
 62
       7
100
AcDbLine
 10
38.58935591
 20
55.67485427
 30
0.0
 11
38.58935591
 21
55.62258212
 31
0.0
  0
LINE
  5
1BA
100
AcDbEntity
  8
SLD-0
  6
CONTINUOUS
 62
       7
100
AcDbLine
 10
38.58935591
 20
55.62258212
 30
0.0
 11
38.58935591
 21
55.57024738
 31
0.0
  0
LINE
  5
1BB
100
AcDbEntity
  8
SLD-0
  6
CONTINUOUS
 62
       7
100
AcDbLine
 10
24.18935578
 20
35.56349734
 30
0.0
 11
24.14057411
 21
35.54724592
 31
0.0
  0
LINE
  5
1BC
100
AcDbEntity
  8
SLD-0
  6
CONTINUOUS
 62
       7
100
AcDbLine
 10
24.14057411
 20
35.54724592
 30
0.0
 11
24.09176761
 21
35.53123785
 31
0.0
  0
LINE
  5
1BD
100
AcDbEntity
  8
SLD-0
  6
CONTINUOUS
 62
       7
100
AcDbLine
 10
24.09176761
 20
35.53123785
 30
0.0
 11
24.04291143
 21
35.51571646
 31
0.0
  0
LINE
  5
1BE
100
AcDbEntity
  8
SLD-0
  6
CONTINUOUS
 62
       7
100
AcDbLine
 10
24.04291143
 20
35.51571646
 30
0.0
 11
23.99398075
 21
35.50092509
 31
0.0
  0
LINE
  5
1BF
100
AcDbEntity
  8
SLD-0
  6
CONTINUOUS
 62
       7
100
AcDbLine
 10
23.99398075
 20
35.50092509
 30
0.0
 11
23.94495073
 21
35.48710708
 31
0.0
  0
LINE
  5
1C0
100
AcDbEntity
  8
SLD-0
  6
CONTINUOUS
 62
       7
100
AcDbLine
 10
23.94495073
 20
35.48710708
 30
0.0
 11
23.89579653
 21
35.47450578
 31
0.0
  0
LINE
  5
1C1
100
AcDbEntity
  8
SLD-0
  6
CONTINUOUS
 62
       7
100
AcDbLine
 10
23.89579653
 20
35.47450578
 30
0.0
 11
23.84649332
 21
35.46336452
 31
0.0
  0
LINE
  5
1C2
100
AcDbEntity
  8
SLD-0
  6
CONTINUOUS
 62
       7
100
AcDbLine
 10
23.84649332
 20
35.46336452
 30
0.0
 11
23.79701626
 21
35.45392666
 31
0.0
  0
LINE
  5
1C3
100
AcDbEntity
  8
SLD-0
  6
CONTINUOUS
 62
       7
100
AcDbLine
 10
23.79701626
 20
35.45392666
 30
0.0
 11
23.74734052
 21
35.4464355
 31
0.0
  0
LINE
  5
1C4
100
AcDbEntity
  8
SLD-0
  6
CONTINUOUS
 62
       7
100
AcDbLine
 10
23.74734052
 20
35.4464355
 30
0.0
 11
23.69746557
 21
35.4410683
 31
0.0
  0
LINE
  5
1C5
100
AcDbEntity
  8
SLD-0
  6
CONTINUOUS
 62
       7
100
AcDbLine
 10
23.69746557
 20
35.4410683
 30
0.0
 11
23.64747124
 21
35.43778369
 31
0.0
  0
LINE
  5
1C6
100
AcDbEntity
  8
SLD-0
  6
CONTINUOUS
 62
       7
100
AcDbLine
 10
23.64747124
 20
35.43778369
 30
0.0
 11
23.59745396
 21
35.43649517
 31
0.0
  0
LINE
  5
1C7
100
AcDbEntity
  8
SLD-0
  6
CONTINUOUS
 62
       7
100
AcDbLine
 10
23.59745396
 20
35.43649517
 30
0.0
 11
23.54751017
 21
35.43711623
 31
0.0
  0
LINE
  5
1C8
100
AcDbEntity
  8
SLD-0
  6
CONTINUOUS
 62
       7
100
AcDbLine
 10
23.54751017
 20
35.43711623
 30
0.0
 11
23.4977363
 21
35.43956037
 31
0.0
  0
LINE
  5
1C9
100
AcDbEntity
  8
SLD-0
  6
CONTINUOUS
 62
       7
100
AcDbLine
 10
23.4977363
 20
35.43956037
 30
0.0
 11
23.44822877
 21
35.44374109
 31
0.0
  0
LINE
  5
1CA
100
AcDbEntity
  8
SLD-0
  6
CONTINUOUS
 62
       7
100
AcDbLine
 10
23.44822877
 20
35.44374109
 30
0.0
 11
23.39908402
 21
35.44957188
 31
0.0
  0
LINE
  5
1CB
100
AcDbEntity
  8
SLD-0
  6
CONTINUOUS
 62
       7
100
AcDbLine
 10
23.39908402
 20
35.44957188
 30
0.0
 11
23.35039848
 21
35.45696623
 31
0.0
  0
LINE
  5
1CC
100
AcDbEntity
  8
SLD-0
  6
CONTINUOUS
 62
       7
100
AcDbLine
 10
23.35039848
 20
35.45696623
 30
0.0
 11
23.30226856
 21
35.46583767
 31
0.0
  0
LINE
  5
1CD
100
AcDbEntity
  8
SLD-0
  6
CONTINUOUS
 62
       7
100
AcDbLine
 10
23.30226856
 20
35.46583767
 30
0.0
 11
23.25477171
 21
35.47611463
 31
0.0
  0
LINE
  5
1CE
100
AcDbEntity
  8
SLD-0
  6
CONTINUOUS
 62
       7
100
AcDbLine
 10
23.25477171
 20
35.47611463
 30
0.0
 11
23.20793419
 21
35.48776592
 31
0.0
  0
LINE
  5
1CF
100
AcDbEntity
  8
SLD-0
  6
CONTINUOUS
 62
       7
100
AcDbLine
 10
23.20793419
 20
35.48776592
 30
0.0
 11
23.16177362
 21
35.50076712
 31
0.0
  0
LINE
  5
1D0
100
AcDbEntity
  8
SLD-0
  6
CONTINUOUS
 62
       7
100
AcDbLine
 10
23.16177362
 20
35.50076712
 30
0.0
 11
23.11630765
 21
35.51509383
 31
0.0
  0
LINE
  5
1D1
100
AcDbEntity
  8
SLD-0
  6
CONTINUOUS
 62
       7
100
AcDbLine
 10
23.11630765
 20
35.51509383
 30
0.0
 11
23.07155391
 21
35.53072161
 31
0.0
  0
LINE
  5
1D2
100
AcDbEntity
  8
SLD-0
  6
CONTINUOUS
 62
       7
100
AcDbLine
 10
23.07155391
 20
35.53072161
 30
0.0
 11
23.02753006
 21
35.54762605
 31
0.0
  0
LINE
  5
1D3
100
AcDbEntity
  8
SLD-0
  6
CONTINUOUS
 62
       7
100
AcDbLine
 10
23.02753006
 20
35.54762605
 30
0.0
 11
22.98425373
 21
35.56578273
 31
0.0
  0
LINE
  5
1D4
100
AcDbEntity
  8
SLD-0
  6
CONTINUOUS
 62
       7
100
AcDbLine
 10
22.98425373
 20
35.56578273
 30
0.0
 11
22.94174256
 21
35.58516724
 31
0.0
  0
LINE
  5
1D5
100
AcDbEntity
  8
SLD-0
  6
CONTINUOUS
 62
       7
100
AcDbLine
 10
22.94174256
 20
35.58516724
 30
0.0
 11
22.90001419
 21
35.60575515
 31
0.0
  0
LINE
  5
1D6
100
AcDbEntity
  8
SLD-0
  6
CONTINUOUS
 62
       7
100
AcDbLine
 10
22.90001419
 20
35.60575515
 30
0.0
 11
22.85908817
 21
35.62752342
 31
0.0
  0
LINE
  5
1D7
100
AcDbEntity
  8
SLD-0
  6
CONTINUOUS
 62
       7
100
AcDbLine
 10
22.85908817
 20
35.62752342
 30
0.0
 11
22.81899214
 21
35.65045484
 31
0.0
  0
LINE
  5
1D8
100
AcDbEntity
  8
SLD-0
  6
CONTINUOUS
 62
       7
100
AcDbLine
 10
22.81899214
 20
35.65045484
 30
0.0
 11
22.7797559
 21
35.67453374
 31
0.0
  0
LINE
  5
1D9
100
AcDbEntity
  8
SLD-0
  6
CONTINUOUS
 62
       7
100
AcDbLine
 10
22.7797559
 20
35.67453374
 30
0.0
 11
22.74140926
 21
35.69974447
 31
0.0
  0
LINE
  5
1DA
100
AcDbEntity
  8
SLD-0
  6
CONTINUOUS
 62
       7
100
AcDbLine
 10
22.74140926
 20
35.69974447
 30
0.0
 11
22.703982
 21
35.72607136
 31
0.0
  0
LINE
  5
1DB
100
AcDbEntity
  8
SLD-0
  6
CONTINUOUS
 62
       7
100
AcDbLine
 10
22.703982
 20
35.72607136
 30
0.0
 11
22.66750395
 21
35.75349877
 31
0.0
  0
LINE
  5
1DC
100
AcDbEntity
  8
SLD-0
  6
CONTINUOUS
 62
       7
100
AcDbLine
 10
22.66750395
 20
35.75349877
 30
0.0
 11
22.63200488
 21
35.78201103
 31
0.0
  0
LINE
  5
1DD
100
AcDbEntity
  8
SLD-0
  6
CONTINUOUS
 62
       7
100
AcDbLine
 10
22.63200488
 20
35.78201103
 30
0.0
 11
22.59751461
 21
35.81159248
 31
0.0
  0
LINE
  5
1DE
100
AcDbEntity
  8
SLD-0
  6
CONTINUOUS
 62
       7
100
AcDbLine
 10
22.59751461
 20
35.81159248
 30
0.0
 11
22.56406294
 21
35.84222747
 31
0.0
  0
LINE
  5
1DF
100
AcDbEntity
  8
SLD-0
  6
CONTINUOUS
 62
       7
100
AcDbLine
 10
22.56406294
 20
35.84222747
 30
0.0
 11
22.53167967
 21
35.87390033
 31
0.0
  0
LINE
  5
1E0
100
AcDbEntity
  8
SLD-0
  6
CONTINUOUS
 62
       7
100
AcDbLine
 10
22.53167967
 20
35.87390033
 30
0.0
 11
22.50038314
 21
35.906586
 31
0.0
  0
LINE
  5
1E1
100
AcDbEntity
  8
SLD-0
  6
CONTINUOUS
 62
       7
100
AcDbLine
 10
22.50038314
 20
35.906586
 30
0.0
 11
22.46995866
 21
35.94006804
 31
0.0
  0
LINE
  5
1E2
100
AcDbEntity
  8
SLD-0
  6
CONTINUOUS
 62
       7
100
AcDbLine
 10
22.46995866
 20
35.94006804
 30
0.0
 11
22.43997435
 21
35.97395169
 31
0.0
  0
LINE
  5
1E3
100
AcDbEntity
  8
SLD-0
  6
CONTINUOUS
 62
       7
100
AcDbLine
 10
22.72051118
 20
56.02149735
 30
0.0
 11
22.72564839
 21
56.02208067
 31
0.0
  0
LINE
  5
1E4
100
AcDbEntity
  8
SLD-0
  6
CONTINUOUS
 62
       7
100
AcDbLine
 10
22.72564839
 20
56.02208067
 30
0.0
 11
22.73108049
 21
56.02269714
 31
0.0
  0
LINE
  5
1E5
100
AcDbEntity
  8
SLD-0
  6
CONTINUOUS
 62
       7
100
AcDbLine
 10
22.73108049
 20
56.02269714
 30
0.0
 11
22.73710239
 21
56.02337992
 31
0.0
  0
LINE
  5
1E6
100
AcDbEntity
  8
SLD-0
  6
CONTINUOUS
 62
       7
100
AcDbLine
 10
22.73710239
 20
56.02337992
 30
0.0
 11
22.74400898
 21
56.02416217
 31
0.0
  0
LINE
  5
1E7
100
AcDbEntity
  8
SLD-0
  6
CONTINUOUS
 62
       7
100
AcDbLine
 10
22.74400898
 20
56.02416217
 30
0.0
 11
22.75209516
 21
56.02507704
 31
0.0
  0
LINE
  5
1E8
100
AcDbEntity
  8
SLD-0
  6
CONTINUOUS
 62
       7
100
AcDbLine
 10
22.75209516
 20
56.02507704
 30
0.0
 11
22.76165583
 21
56.02615769
 31
0.0
  0
LINE
  5
1E9
100
AcDbEntity
  8
SLD-0
  6
CONTINUOUS
 62
       7
100
AcDbLine
 10
22.76165583
 20
56.02615769
 30
0.0
 11
22.77298588
 21
56.02743726
 31
0.0
  0
LINE
  5
1EA
100
AcDbEntity
  8
SLD-0
  6
CONTINUOUS
 62
       7
100
AcDbLine
 10
22.77298588
 20
56.02743726
 30
0.0
 11
22.78638022
 21
56.02894892
 31
0.0
  0
LINE
  5
1EB
100
AcDbEntity
  8
SLD-0
  6
CONTINUOUS
 62
       7
100
AcDbLine
 10
22.78638022
 20
56.02894892
 30
0.0
 11
22.80212426
 21
56.03072474
 31
0.0
  0
LINE
  5
1EC
100
AcDbEntity
  8
SLD-0
  6
CONTINUOUS
 62
       7
100
AcDbLine
 10
22.80212426
 20
56.03072474
 30
0.0
 11
22.82029843
 21
56.03277328
 31
0.0
  0
LINE
  5
1ED
100
AcDbEntity
  8
SLD-0
  6
CONTINUOUS
 62
       7
100
AcDbLine
 10
22.82029843
 20
56.03277328
 30
0.0
 11
22.84078512
 21
56.0350804
 31
0.0
  0
LINE
  5
1EE
100
AcDbEntity
  8
SLD-0
  6
CONTINUOUS
 62
       7
100
AcDbLine
 10
22.84078512
 20
56.0350804
 30
0.0
 11
22.86345866
 21
56.03763105
 31
0.0
  0
LINE
  5
1EF
100
AcDbEntity
  8
SLD-0
  6
CONTINUOUS
 62
       7
100
AcDbLine
 10
22.86345866
 20
56.03763105
 30
0.0
 11
22.88819333
 21
56.04041016
 31
0.0
  0
LINE
  5
1F0
100
AcDbEntity
  8
SLD-0
  6
CONTINUOUS
 62
       7
100
AcDbLine
 10
22.88819333
 20
56.04041016
 30
0.0
 11
22.91486346
 21
56.04340267
 31
0.0
  0
LINE
  5
1F1
100
AcDbEntity
  8
SLD-0
  6
CONTINUOUS
 62
       7
100
AcDbLine
 10
22.91486346
 20
56.04340267
 30
0.0
 11
22.94334335
 21
56.04659352
 31
0.0
  0
LINE
  5
1F2
100
AcDbEntity
  8
SLD-0
  6
CONTINUOUS
 62
       7
100
AcDbLine
 10
22.94334335
 20
56.04659352
 30
0.0
 11
22.97350731
 21
56.04996765
 31
0.0
  0
LINE
  5
1F3
100
AcDbEntity
  8
SLD-0
  6
CONTINUOUS
 62
       7
100
AcDbLine
 10
22.97350731
 20
56.04996765
 30
0.0
 11
23.00522965
 21
56.05350999
 31
0.0
  0
LINE
  5
1F4
100
AcDbEntity
  8
SLD-0
  6
CONTINUOUS
 62
       7
100
AcDbLine
 10
23.00522965
 20
56.05350999
 30
0.0
 11
23.0383998
 21
56.05720722
 31
0.0
  0
LINE
  5
1F5
100
AcDbEntity
  8
SLD-0
  6
CONTINUOUS
 62
       7
100
AcDbLine
 10
23.0383998
 20
56.05720722
 30
0.0
 11
23.0729656
 21
56.06105278
 31
0.0
  0
LINE
  5
1F6
100
AcDbEntity
  8
SLD-0
  6
CONTINUOUS
 62
       7
100
AcDbLine
 10
23.0729656
 20
56.06105278
 30
0.0
 11
23.10888898
 21
56.06504171
 31
0.0
  0
LINE
  5
1F7
100
AcDbEntity
  8
SLD-0
  6
CONTINUOUS
 62
       7
100
AcDbLine
 10
23.10888898
 20
56.06504171
 30
0.0
 11
23.1461319
 21
56.06916906
 31
0.0
  0
LINE
  5
1F8
100
AcDbEntity
  8
SLD-0
  6
CONTINUOUS
 62
       7
100
AcDbLine
 10
23.1461319
 20
56.06916906
 30
0.0
 11
23.18465627
 21
56.07342989
 31
0.0
  0
LINE
  5
1F9
100
AcDbEntity
  8
SLD-0
  6
CONTINUOUS
 62
       7
100
AcDbLine
 10
23.18465627
 20
56.07342989
 30
0.0
 11
23.22442405
 21
56.07781924
 31
0.0
  0
LINE
  5
1FA
100
AcDbEntity
  8
SLD-0
  6
CONTINUOUS
 62
       7
100
AcDbLine
 10
23.22442405
 20
56.07781924
 30
0.0
 11
23.26539717
 21
56.08233218
 31
0.0
  0
LINE
  5
1FB
100
AcDbEntity
  8
SLD-0
  6
CONTINUOUS
 62
       7
100
AcDbLine
 10
23.26539717
 20
56.08233218
 30
0.0
 11
23.30753757
 21
56.08696374
 31
0.0
  0
LINE
  5
1FC
100
AcDbEntity
  8
SLD-0
  6
CONTINUOUS
 62
       7
100
AcDbLine
 10
23.30753757
 20
56.08696374
 30
0.0
 11
23.35080647
 21
56.0917089
 31
0.0
  0
LINE
  5
1FD
100
AcDbEntity
  8
SLD-0
  6
CONTINUOUS
 62
       7
100
AcDbLine
 10
23.35080647
 20
56.0917089
 30
0.0
 11
23.39514509
 21
56.0965603
 31
0.0
  0
LINE
  5
1FE
100
AcDbEntity
  8
SLD-0
  6
CONTINUOUS
 62
       7
100
AcDbLine
 10
23.39514509
 20
56.0965603
 30
0.0
 11
23.44047247
 21
56.10150801
 31
0.0
  0
LINE
  5
1FF
100
AcDbEntity
  8
SLD-0
  6
CONTINUOUS
 62
       7
100
AcDbLine
 10
23.44047247
 20
56.10150801
 30
0.0
 11
23.48670649
 21
56.10654196
 31
0.0
  0
LINE
  5
200
100
AcDbEntity
  8
SLD-0
  6
CONTINUOUS
 62
       7
100
AcDbLine
 10
23.48670649
 20
56.10654196
 30
0.0
 11
23.53376504
 21
56.11165209
 31
0.0
  0
LINE
  5
201
100
AcDbEntity
  8
SLD-0
  6
CONTINUOUS
 62
       7
100
AcDbLine
 10
23.53376504
 20
56.11165209
 30
0.0
 11
23.581566
 21
56.11682833
 31
0.0
  0
LINE
  5
202
100
AcDbEntity
  8
SLD-0
  6
CONTINUOUS
 62
       7
100
AcDbLine
 10
23.581566
 20
56.11682833
 30
0.0
 11
23.63002728
 21
56.12206062
 31
0.0
  0
LINE
  5
203
100
AcDbEntity
  8
SLD-0
  6
CONTINUOUS
 62
       7
100
AcDbLine
 10
23.63002728
 20
56.12206062
 30
0.0
 11
23.67906674
 21
56.12733889
 31
0.0
  0
LINE
  5
204
100
AcDbEntity
  8
SLD-0
  6
CONTINUOUS
 62
       7
100
AcDbLine
 10
23.67906674
 20
56.12733889
 30
0.0
 11
23.72860228
 21
56.13265307
 31
0.0
  0
LINE
  5
205
100
AcDbEntity
  8
SLD-0
  6
CONTINUOUS
 62
       7
100
AcDbLine
 10
23.72860228
 20
56.13265307
 30
0.0
 11
23.77855309
 21
56.13799367
 31
0.0
  0
LINE
  5
206
100
AcDbEntity
  8
SLD-0
  6
CONTINUOUS
 62
       7
100
AcDbLine
 10
23.77855309
 20
56.13799367
 30
0.0
 11
23.82884704
 21
56.14335501
 31
0.0
  0
LINE
  5
207
100
AcDbEntity
  8
SLD-0
  6
CONTINUOUS
 62
       7
100
AcDbLine
 10
23.82884704
 20
56.14335501
 30
0.0
 11
23.87941549
 21
56.14873294
 31
0.0
  0
LINE
  5
208
100
AcDbEntity
  8
SLD-0
  6
CONTINUOUS
 62
       7
100
AcDbLine
 10
23.87941549
 20
56.14873294
 30
0.0
 11
23.93018982
 21
56.1541233
 31
0.0
  0
LINE
  5
209
100
AcDbEntity
  8
SLD-0
  6
CONTINUOUS
 62
       7
100
AcDbLine
 10
23.93018982
 20
56.1541233
 30
0.0
 11
23.9811014
 21
56.15952195
 31
0.0
  0
LINE
  5
20A
100
AcDbEntity
  8
SLD-0
  6
CONTINUOUS
 62
       7
100
AcDbLine
 10
23.9811014
 20
56.15952195
 30
0.0
 11
24.03208158
 21
56.16492475
 31
0.0
  0
ARC
  5
20B
100
AcDbEntity
  8
SLD-0
  6
CONTINUOUS
 62
       7
100
AcDbCircle
 10
-25.07328655
 20
56.22603106
 30
0.0
 40
1.5
100
AcDbArc
 50
0.0
 51
90.0
  0
ARC
  5
20C
100
AcDbEntity
  8
SLD-0
  6
CONTINUOUS
 62
       7
100
AcDbCircle
 10
-25.07328655
 20
-38.77396894
 30
0.0
 40
1.5
100
AcDbArc
 50
270.0
 51
360.0
  0
ARC
  5
20D
100
AcDbEntity
  8
SLD-0
  6
CONTINUOUS
 62
       7
100
AcDbCircle
 10
-72.07328655
 20
-38.77396894
 30
0.0
 40
1.5
100
AcDbArc
 50
180.0
 51
270.0
  0
ARC
  5
20E
100
AcDbEntity
  8
SLD-0
  6
CONTINUOUS
 62
       7
100
AcDbCircle
 10
-72.07328655
 20
56.22603106
 30
0.0
 40
1.5
100
AcDbArc
 50
90.0
 51
180.0
  0
ARC
  5
20F
100
AcDbEntity
  8
SLD-0
  6
CONTINUOUS
 62
       7
100
AcDbCircle
 10
-31.0732863
 20
-7.77396924
 30
0.0
 40
1.4999997
100
AcDbArc
 50
270.0
 51
360.00000344
  0
ARC
  5
210
100
AcDbEntity
  8
SLD-0
  6
CONTINUOUS
 62
       7
100
AcDbCircle
 10
-35.37328654
 20
-9.37396894
 30
0.0
 40
2.49999999
100
AcDbArc
 50
2.29246066
 51
177.70755757
  0
ARC
  5
211
100
AcDbEntity
  8
SLD-0
  6
CONTINUOUS
 62
       7
100
AcDbCircle
 10
-66.07328655
 20
-7.77396857
 30
0.0
 40
1.49999961
100
AcDbArc
 50
180.0
 51
269.99999733
  0
ARC
  5
212
100
AcDbEntity
  8
SLD-0
  6
CONTINUOUS
 62
       7
100
AcDbCircle
 10
-31.07328591
 20
25.22603143
 30
0.0
 40
1.49999931
100
AcDbArc
 50
359.99997078
 51
450.00001024
  0
ARC
  5
213
100
AcDbEntity
  8
SLD-0
  6
CONTINUOUS
 62
       7
100
AcDbCircle
 10
-66.07328625
 20
25.22603143
 30
0.0
 40
1.49999931
100
AcDbArc
 50
90.00000267
 51
180.00000344
  0
ARC
  5
214
100
AcDbEntity
  8
SLD-0
  6
CONTINUOUS
 62
       7
100
AcDbCircle
 10
-27.77328549
 20
-23.3739684
 30
0.0
 40
1.20000053
100
AcDbArc
 50
270.00000286
 51
360.00002483
  0
ARC
  5
215
100
AcDbEntity
  8
SLD-0
  6
CONTINUOUS
 62
       7
100
AcDbCircle
 10
-69.37328548
 20
-23.3739684
 30
0.0
 40
1.20000053
100
AcDbArc
 50
179.99997517
 51
269.99999714
  0
CIRCLE
  5
216
100
AcDbEntity
  8
SLD-0
  6
CONTINUOUS
 62
       7
100
AcDbCircle
 10
-33.57328655
 20
-30.77396894
 30
0.0
 40
4.0
  0
CIRCLE
  5
217
100
AcDbEntity
  8
SLD-0
  6
CONTINUOUS
 62
       7
100
AcDbCircle
 10
-48.57328655
 20
-30.77396894
 30
0.0
 40
4.0
  0
CIRCLE
  5
218
100
AcDbEntity
  8
SLD-0
  6
CONTINUOUS
 62
       7
100
AcDbCircle
 10
-63.57328655
 20
-30.77396894
 30
0.0
 40
4.0
  0
ARC
  5
219
100
AcDbEntity
  8
SLD-0
  6
CONTINUOUS
 62
       7
100
AcDbCircle
 10
-27.77328548
 20
40.8260299
 30
0.0
 40
1.19999994
100
AcDbArc
 50
359.99997565
 51
450.0
  0
ARC
  5
21A
100
AcDbEntity
  8
SLD-0
  6
CONTINUOUS
 62
       7
100
AcDbCircle
 10
-69.37328548
 20
40.82603049
 30
0.0
 40
1.20000053
100
AcDbArc
 50
90.00000286
 51
180.00002435
  0
CIRCLE
  5
21B
100
AcDbEntity
  8
SLD-0
  6
CONTINUOUS
 62
       7
100
AcDbCircle
 10
-33.57328655
 20
48.22603106
 30
0.0
 40
4.0
  0
CIRCLE
  5
21C
100
AcDbEntity
  8
SLD-0
  6
CONTINUOUS
 62
       7
100
AcDbCircle
 10
-63.57328655
 20
48.22603106
 30
0.0
 40
4.0
  0
CIRCLE
  5
21D
100
AcDbEntity
  8
SLD-0
  6
CONTINUOUS
 62
       7
100
AcDbCircle
 10
-48.57328655
 20
48.22603106
 30
0.0
 40
4.0
  0
ARC
  5
21E
100
AcDbEntity
  8
SLD-0
  6
CONTINUOUS
 62
       7
100
AcDbCircle
 10
-35.37328654
 20
-9.37396894
 30
0.0
 40
2.6
100
AcDbArc
 50
184.4117258
 51
355.58827422
  0
ARC
  5
21F
100
AcDbEntity
  8
SLD-0
  6
CONTINUOUS
 62
       7
100
AcDbCircle
 10
-31.0732863
 20
-7.77396924
 30
0.0
 40
1.80000027
100
AcDbArc
 50
269.99999465
 51
360.0
  0
ARC
  5
220
100
AcDbEntity
  8
SLD-0
  6
CONTINUOUS
 62
       7
100
AcDbCircle
 10
-31.07328591
 20
25.22603143
 30
0.0
 40
1.79999934
100
AcDbArc
 50
359.99999714
 51
450.00001076
  0
ARC
  5
221
100
AcDbEntity
  8
SLD-0
  6
CONTINUOUS
 62
       7
100
AcDbCircle
 10
-66.07328625
 20
25.22603143
 30
0.0
 40
1.79999992
100
AcDbArc
 50
90.00000223
 51
180.0
  0
ARC
  5
222
100
AcDbEntity
  8
SLD-0
  6
CONTINUOUS
 62
       7
100
AcDbCircle
 10
-66.07328655
 20
-7.77396857
 30
0.0
 40
1.80000037
100
AcDbArc
 50
179.99999714
 51
270.0
  0
CIRCLE
  5
223
100
AcDbEntity
  8
SLD-0
  6
CONTINUOUS
 62
       7
100
AcDbCircle
 10
-35.37328654
 20
-9.37396894
 30
0.0
 40
1.9
  0
ARC
  5
224
100
AcDbEntity
  8
SLD-0
  6
CONTINUOUS
 62
       7
100
AcDbCircle
 10
-35.37328654
 20
-9.37396894
 30
0.0
 40
2.4
100
AcDbArc
 50
355.21980816
 51
544.78019186
  0
ARC
  5
225
100
AcDbEntity
  8
SLD-0
  6
CONTINUOUS
 62
       7
100
AcDbCircle
 10
-52.77328655
 20
-40.26896894
 30
0.0
 40
1.0
100
AcDbArc
 50
180.28648009
 51
270.0
  0
ARC
  5
226
100
AcDbEntity
  8
SLD-0
  6
CONTINUOUS
 62
       7
100
AcDbCircle
 10
-44.37328655
 20
-40.26896894
 30
0.0
 40
1.0
100
AcDbArc
 50
270.0
 51
359.71351991
  0
ARC
  5
227
100
AcDbEntity
  8
SLD-0
  6
CONTINUOUS
 62
       7
100
AcDbCircle
 10
41.85626212
 20
130.35013877
 30
0.0
 40
170.0
100
AcDbArc
 50
263.98158352
 51
268.89887279
  0
ARC
  5
228
100
AcDbEntity
  8
SLD-0
  6
CONTINUOUS
 62
       7
100
AcDbCircle
 10
23.58904132
 20
-19.48607065
 30
0.0
 40
1.5
100
AcDbArc
 50
52.09999983
 51
66.40871524
  0
ARC
  5
229
100
AcDbEntity
  8
SLD-0
  6
CONTINUOUS
 62
       7
100
AcDbCircle
 10
30.5893562
 20
-23.66837416
 30
0.0
 40
0.5000007
100
AcDbArc
 50
0.0
 51
52.09996781
  0
ARC
  5
22A
100
AcDbEntity
  8
SLD-0
  6
CONTINUOUS
 62
       7
100
AcDbCircle
 10
31.38935602
 20
-23.77915833
 30
0.0
 40
0.30000089
100
AcDbArc
 50
180.00019862
 51
268.99999949
  0
ARC
  5
22B
100
AcDbEntity
  8
SLD-0
  6
CONTINUOUS
 62
       7
100
AcDbCircle
 10
37.889356
 20
-24.89276947
 30
0.0
 40
0.69999999
100
AcDbArc
 50
0.0
 51
88.99998972
  0
ARC
  5
22C
100
AcDbEntity
  8
SLD-0
  6
CONTINUOUS
 62
       7
100
AcDbCircle
 10
22.88935457
 20
-37.07896923
 30
0.0
 40
1.49999943
100
AcDbArc
 50
180.0
 51
263.53692895
  0
ARC
  5
22D
100
AcDbEntity
  8
SLD-0
  6
CONTINUOUS
 62
       7
100
AcDbCircle
 10
41.85626288
 20
-112.898077
 30
0.0
 40
170.0
100
AcDbArc
 50
91.10112721
 51
96.01841648
  0
ARC
  5
22E
100
AcDbEntity
  8
SLD-0
  6
CONTINUOUS
 62
       7
100
AcDbCircle
 10
31.38935739
 20
41.23121999
 30
0.0
 40
0.3
100
AcDbArc
 50
91.00000154
 51
180.0
  0
ARC
  5
22F
100
AcDbEntity
  8
SLD-0
  6
CONTINUOUS
 62
       7
100
AcDbCircle
 10
30.5893565
 20
41.12043582
 30
0.0
 40
0.49999912
100
AcDbArc
 50
307.89999991
 51
359.99986249
  0
ARC
  5
230
100
AcDbEntity
  8
SLD-0
  6
CONTINUOUS
 62
       7
100
AcDbCircle
 10
37.88935739
 20
42.34483024
 30
0.0
 40
0.7
100
AcDbArc
 50
270.99999963
 51
360.0
  0
ARC
  5
231
100
AcDbEntity
  8
SLD-0
  6
CONTINUOUS
 62
       7
100
AcDbCircle
 10
23.58904139
 20
36.9381326
 30
0.0
 40
1.49999982
100
AcDbArc
 50
293.59128476
 51
307.90000426
  0
ARC
  5
232
100
AcDbEntity
  8
SLD-0
  6
CONTINUOUS
 62
       7
100
AcDbCircle
 10
22.88935598
 20
54.53103134
 30
0.0
 40
1.49999917
100
AcDbArc
 50
96.4630974
 51
180.00001986
  0
ARC
  5
233
100
AcDbEntity
  8
SLD-0
  6
CONTINUOUS
 62
       7
100
AcDbCircle
 10
30.88935514
 20
40.7203051
 30
0.0
 40
0.5
100
AcDbArc
 50
307.92453346
 51
360.0
  0
ARC
  5
234
100
AcDbEntity
  8
SLD-0
  6
CONTINUOUS
 62
       7
100
AcDbCircle
 10
37.88935514
 20
42.35163248
 30
0.0
 40
1.00000026
100
AcDbArc
 50
270.99990998
 51
360.0
  0
ARC
  5
235
100
AcDbEntity
  8
SLD-0
  6
CONTINUOUS
 62
       7
100
AcDbCircle
 10
48.88935526
 20
36.13659914
 30
0.0
 40
1.00000025
100
AcDbArc
 50
180.00008806
 51
235.00007238
  0
ARC
  5
236
100
AcDbEntity
  8
SLD-0
  6
CONTINUOUS
 62
       7
100
AcDbCircle
 10
48.38935608
 20
29.16205435
 30
0.0
 40
4.99999988
100
AcDbArc
 50
0.0
 51
55.00000452
  0
ARC
  5
237
100
AcDbEntity
  8
SLD-0
  6
CONTINUOUS
 62
       7
100
AcDbCircle
 10
48.38935569
 20
-11.70999223
 30
0.0
 40
4.99999973
100
AcDbArc
 50
305.00000003
 51
360.00000985
  0
ARC
  5
238
100
AcDbEntity
  8
SLD-0
  6
CONTINUOUS
 62
       7
100
AcDbCircle
 10
48.88935554
 20
-18.68453577
 30
0.0
 40
1.0
100
AcDbArc
 50
124.99995835
 51
180.0
  0
ARC
  5
239
100
AcDbEntity
  8
SLD-0
  6
CONTINUOUS
 62
       7
100
AcDbCircle
 10
37.88935548
 20
-24.8995704
 30
0.0
 40
0.99999994
100
AcDbArc
 50
359.99994041
 51
449.00000031
  0
ARC
  5
23A
100
AcDbEntity
  8
SLD-0
  6
CONTINUOUS
 62
       7
100
AcDbCircle
 10
30.88935527
 20
-23.26824282
 30
0.0
 40
0.49999979
100
AcDbArc
 50
359.99980405
 51
412.07546631
  0
ARC
  5
23B
100
AcDbEntity
  8
SLD-0
  6
CONTINUOUS
 62
       7
100
AcDbCircle
 10
79.08935421
 20
-35.97396893
 30
0.0
 40
0.3000009
100
AcDbArc
 50
269.99999809
 51
359.99991788
  0
ARC
  5
23C
100
AcDbEntity
  8
SLD-0
  6
CONTINUOUS
 62
       7
100
AcDbCircle
 10
61.10902649
 20
-39.47396998
 30
0.0
 40
0.3000004
100
AcDbArc
 50
269.99989878
 51
309.99988059
  0
ARC
  5
23D
100
AcDbEntity
  8
SLD-0
  6
CONTINUOUS
 62
       7
100
AcDbCircle
 10
79.08935511
 20
-9.63125087
 30
0.0
 40
0.3
100
AcDbArc
 50
359.99989305
 51
440.00000042
  0
ARC
  5
23E
100
AcDbEntity
  8
SLD-0
  6
CONTINUOUS
 62
       7
100
AcDbCircle
 10
48.38935514
 20
-11.70960494
 30
0.0
 40
5.5
100
AcDbArc
 50
305.00000002
 51
360.0
  0
ARC
  5
23F
100
AcDbEntity
  8
SLD-0
  6
CONTINUOUS
 62
       7
100
AcDbCircle
 10
78.88935514
 20
26.92603107
 30
0.0
 40
0.5
100
AcDbArc
 50
270.0
 51
360.0000848
  0
ARC
  5
240
100
AcDbEntity
  8
SLD-0
  6
CONTINUOUS
 62
       7
100
AcDbCircle
 10
74.57245033
 20
25.9260311
 30
0.0
 40
0.4999997
100
AcDbArc
 50
89.99998281
 51
210.96372568
  0
ARC
  5
241
100
AcDbEntity
  8
SLD-0
  6
CONTINUOUS
 62
       7
100
AcDbCircle
 10
77.90838297
 20
53.42603107
 30
0.0
 40
0.3
100
AcDbArc
 50
3.75172848
 51
90.0
  0
ARC
  5
242
100
AcDbEntity
  8
SLD-0
  6
CONTINUOUS
 62
       7
100
AcDbCircle
 10
48.38935538
 20
29.16166705
 30
0.0
 40
5.50000024
100
AcDbArc
 50
0.00000906
 51
55.00000006
  0
ARC
  5
243
100
AcDbEntity
  8
SLD-0
  6
CONTINUOUS
 62
       7
100
AcDbCircle
 10
61.10902687
 20
56.92603126
 30
0.0
 40
0.3
100
AcDbArc
 50
50.00000006
 51
90.0
  0
ARC
  5
244
100
AcDbEntity
  8
SLD-0
  6
CONTINUOUS
 62
       7
100
AcDbCircle
 10
48.88935514
 20
-19.294536
 30
0.0
 40
1.0
100
AcDbArc
 50
124.99999998
 51
180.0
  0
ARC
  5
245
100
AcDbEntity
  8
SLD-0
  6
CONTINUOUS
 62
       7
100
AcDbCircle
 10
48.88935551
 20
36.74659831
 30
0.0
 40
1.0
100
AcDbArc
 50
180.0
 51
235.00000016
  0
ELLIPSE
  5
246
100
AcDbEntity
  8
SLD-0
  6
CONTINUOUS
 62
       7
100
AcDbEllipse
 10
-70.57328613
 20
-16.43705834
 30
0.0
 11
-0.0000000000000142
 21
3.3369100592638432
 31
0.0
210
0.0
220
0.0
230
1.0
 40
0.83909963
 41
2.245644751013661
 42
3.1415926535897931
  0
ELLIPSE
  5
247
100
AcDbEntity
  8
SLD-0
  6
CONTINUOUS
 62
       7
100
AcDbEllipse
 10
-26.57328696
 20
-16.43705834
 30
0.0
 11
0.0
 21
3.336910059263829
 31
0.0
210
0.0
220
0.0
230
1.0
 40
0.83909963
 41
3.1415934139616488
 42
4.0375405561659647
  0
ELLIPSE
  5
248
100
AcDbEntity
  8
SLD-0
  6
CONTINUOUS
 62
       7
100
AcDbEllipse
 10
-26.5732878
 20
33.88912063
 30
0.0
 11
0.0000000000000142
 21
3.3369100592638858
 31
0.0
210
0.0
220
0.0
230
1.0
 40
0.83909963
 41
5.3872373335316084
 42
6.2831844577754783
  0
ELLIPSE
  5
249
100
AcDbEntity
  8
SLD-0
  6
CONTINUOUS
 62
       7
100
AcDbEllipse
 10
-70.37328655
 20
33.46353106
 30
0.0
 11
3.0
 21
0.0
 31
0.0
210
0.0
220
0.0
230
1.0
 40
0.77916667
 41
3.1415926535897931
 42
4.7123889803854686
  0
ELLIPSE
  5
24A
100
AcDbEntity
  8
SLD-0
  6
CONTINUOUS
 62
       7
100
AcDbEllipse
 10
-26.77328655
 20
33.46353106
 30
0.0
 11
3.0
 21
0.0
 31
0.0
210
0.0
220
0.0
230
1.0
 40
0.77916667
 41
4.7123889803854686
 42
6.2831851592438293
  0
ELLIPSE
  5
24B
100
AcDbEntity
  8
SLD-0
  6
CONTINUOUS
 62
       7
100
AcDbEllipse
 10
-26.77328655
 20
-16.01146894
 30
0.0
 11
3.0
 21
0.0
 31
0.0
210
0.0
220
0.0
230
1.0
 40
0.77916667
 41
0.0000001478930119
 42
1.5707963267941174
  0
ELLIPSE
  5
24C
100
AcDbEntity
  8
SLD-0
  6
CONTINUOUS
 62
       7
100
AcDbEllipse
 10
-70.37328655
 20
-16.01146894
 30
0.0
 11
3.0
 21
0.0
 31
0.0
210
0.0
220
0.0
230
1.0
 40
0.77916667
 41
1.5707963267941174
 42
3.1415926535897931
  0
ELLIPSE
  5
24D
100
AcDbEntity
  8
SLD-0
  6
CONTINUOUS
 62
       7
100
AcDbEllipse
 10
-40.45610491
 20
41.24325962
 30
0.0
 11
0.2999999999999972
 21
0.0
 31
0.0
210
0.0
220
0.0
230
1.0
 40
0.01745506
 41
4.7123887470515022
 42
6.2656367710209864
  0
ELLIPSE
  5
24E
100
AcDbEntity
  8
SLD-0
  6
CONTINUOUS
 62
       7
100
AcDbEllipse
 10
-55.4561043
 20
41.243259
 30
0.0
 11
0.2999999999999972
 21
0.0
 31
0.0
210
0.0
220
0.0
230
1.0
 40
0.01745506
 41
4.7123883137178728
 42
6.2655806227745705
  0
ELLIPSE
  5
24F
100
AcDbEntity
  8
SLD-0
  6
CONTINUOUS
 62
       7
100
AcDbEllipse
 10
-56.6904688
 20
41.243259
 30
0.0
 11
0.299999999999983
 21
0.0
 31
0.0
210
0.0
220
0.0
230
1.0
 40
0.01745506
 41
3.1591421447237478
 42
4.7123892137179233
  0
ELLIPSE
  5
250
100
AcDbEntity
  8
SLD-0
  6
CONTINUOUS
 62
       7
100
AcDbEllipse
 10
-41.69046941
 20
41.24325962
 30
0.0
 11
0.299999999999983
 21
0.0
 31
0.0
210
0.0
220
0.0
230
1.0
 40
0.01745506
 41
3.1590458225772067
 42
4.7123896470510322
  0
ELLIPSE
  5
251
100
AcDbEntity
  8
SLD-0
  6
CONTINUOUS
 62
       7
100
AcDbEllipse
 10
-41.45610567
 20
-23.79119675
 30
0.0
 11
0.299999999999983
 21
0.0
 31
0.0
210
0.0
220
0.0
230
1.0
 40
0.01745506
 41
0.0176094341095177
 42
1.5707955601284744
  0
ELLIPSE
  5
252
100
AcDbEntity
  8
SLD-0
  6
CONTINUOUS
 62
       7
100
AcDbEllipse
 10
-56.6904688
 20
-23.79119689
 30
0.0
 11
0.2999999999999687
 21
0.0
 31
0.0
210
0.0
220
0.0
230
1.0
 40
0.01745506
 41
1.5707960934616625
 42
3.1240431624585607
  0
ELLIPSE
  5
253
100
AcDbEntity
  8
SLD-0
  6
CONTINUOUS
 62
       7
100
AcDbEllipse
 10
-41.79047017
 20
-23.79119675
 30
0.0
 11
0.2999999999999972
 21
0.0
 31
0.0
210
0.0
220
0.0
230
1.0
 40
0.01745506
 41
1.5707966267948503
 42
3.1240155582000426
  0
ELLIPSE
  5
254
100
AcDbEntity
  8
SLD-0
  6
CONTINUOUS
 62
       7
100
AcDbEllipse
 10
-55.4561043
 20
-23.79119689
 30
0.0
 11
0.2999999999999972
 21
0.0
 31
0.0
210
0.0
220
0.0
230
1.0
 40
0.01745506
 41
0.0176046844050406
 42
1.5707969934617132
  0
TEXT
  5
255
100
AcDbEntity
  8
SLD-0_0
 62
       7
100
AcDbText
 10
58.44543788
 20
-65.32943886
 30
0.0
 40
5.0
  1
000
 72
       5
 11
73.44543788
 21
-65.32943886
 31
0.0
100
AcDbText
  0
ENDSEC
  0
SECTION
  2
OBJECTS
  0
DICTIONARY
  5
19
100
AcDbDictionary
  3
ACAD_GROUP
350
1A
  3
ACAD_MLINESTYLE
350
1B
  0
DICTIONARY
  5
1A
102
{ACAD_REACTORS
330
19
102
}
100
AcDbDictionary
  0
DICTIONARY
  5
1B
102
{ACAD_REACTORS
330
19
102
}
100
AcDbDictionary
  3
STANDARD
350
1C
  0
MLINESTYLE
  5
1C
102
{ACAD_REACTORS
330
1B
102
}
100
AcDbMlineStyle
  2
STANDARD
 70
       0
  3

 62
       0
 51
90.0
 52
90.0
 71
       2
 49
0.5
 62
     256
  6
BYLAYER
 49
-0.5
 62
     256
  6
BYLAYER
  0
ENDSEC
  0
EOF
