  0
SECTION
  2
HEADER
  9
$ACADVER
  1
AC1014
  9
$ACADMAINTVER
 70
       0
  9
$DWGCODEPAGE
  3
ANSI_932
  9
$INSBASE
 10
0.0
 20
0.0
 30
0.0
  9
$EXTMIN
 10
-95.36155868
 20
-107.14183758
 30
0.0
  9
$EXTMAX
 10
115.16948846
 20
53.90430493
 30
0.0
  9
$LIMMIN
 10
-101.9406539
 20
-112.17452954
  9
$LIMMAX
 10
121.74858369
 20
58.93699689
  9
$ORTHOMODE
 70
       0
  9
$REGENMODE
 70
       1
  9
$FILLMODE
 70
       1
  9
$QTEXTMODE
 70
       0
  9
$MIRRTEXT
 70
       1
  9
$DRAGMODE
 70
       2
  9
$LTSCALE
 40
1.0
  9
$OSMODE
 70
       0
  9
$ATTMODE
 70
       1
  9
$TEXTSIZE
 40
0.2
  9
$TRACEWID
 40
0.05
  9
$TEXTSTYLE
  7
STANDARD
  9
$CLAYER
  8
0
  9
$CELTYPE
  6
CONTINUOUS
  9
$CECOLOR
 62
     256
  9
$CELTSCALE
 40
1.0
  9
$DELOBJ
 70
       1
  9
$DISPSILH
 70
       0
  9
$DIMSCALE
 40
1.0
  9
$DIMASZ
 40
0.18
  9
$DIMEXO
 40
0.0625
  9
$DIMDLI
 40
0.38
  9
$DIMRND
 40
0.0
  9
$DIMDLE
 40
0.0
  9
$DIMEXE
 40
0.18
  9
$DIMTP
 40
0.0
  9
$DIMTM
 40
0.0
  9
$DIMTXT
 40
0.18
  9
$DIMCEN
 40
0.09
  9
$DIMTSZ
 40
0.0
  9
$DIMTOL
 70
       0
  9
$DIMLIM
 70
       0
  9
$DIMTIH
 70
       1
  9
$DIMTOH
 70
       1
  9
$DIMSE1
 70
       0
  9
$DIMSE2
 70
       0
  9
$DIMTAD
 70
       0
  9
$DIMZIN
 70
       0
  9
$DIMBLK
  1

  9
$DIMASO
 70
       1
  9
$DIMSHO
 70
       1
  9
$DIMPOST
  1

  9
$DIMAPOST
  1

  9
$DIMALT
 70
       0
  9
$DIMALTD
 70
       2
  9
$DIMALTF
 40
25.4
  9
$DIMLFAC
 40
1.0
  9
$DIMTOFL
 70
       0
  9
$DIMTVP
 40
0.0
  9
$DIMTIX
 70
       0
  9
$DIMSOXD
 70
       0
  9
$DIMSAH
 70
       0
  9
$DIMBLK1
  1

  9
$DIMBLK2
  1

  9
$DIMSTYLE
  2
STANDARD
  9
$DIMCLRD
 70
       0
  9
$DIMCLRE
 70
       0
  9
$DIMCLRT
 70
       0
  9
$DIMTFAC
 40
1.0
  9
$DIMGAP
 40
0.09
  9
$DIMJUST
 70
       0
  9
$DIMSD1
 70
       0
  9
$DIMSD2
 70
       0
  9
$DIMTOLJ
 70
       1
  9
$DIMTZIN
 70
       0
  9
$DIMALTZ
 70
       0
  9
$DIMALTTZ
 70
       0
  9
$DIMFIT
 70
       3
  9
$DIMUPT
 70
       0
  9
$DIMUNIT
 70
       2
  9
$DIMDEC
 70
       4
  9
$DIMTDEC
 70
       4
  9
$DIMALTU
 70
       2
  9
$DIMALTTD
 70
       2
  9
$DIMTXSTY
  7
STANDARD
  9
$DIMAUNIT
 70
       0
  9
$LUNITS
 70
       2
  9
$LUPREC
 70
       4
  9
$SKETCHINC
 40
0.1
  9
$FILLETRAD
 40
0.0
  9
$AUNITS
 70
       0
  9
$AUPREC
 70
       0
  9
$MENU
  1
acad
  9
$ELEVATION
 40
0.0
  9
$PELEVATION
 40
0.0
  9
$THICKNESS
 40
0.0
  9
$LIMCHECK
 70
       0
  9
$BLIPMODE
 70
       1
  9
$CHAMFERA
 40
0.0
  9
$CHAMFERB
 40
0.0
  9
$CHAMFERC
 40
0.0
  9
$CHAMFERD
 40
0.0
  9
$SKPOLY
 70
       0
  9
$TDCREATE
 40
0.000000000
  9
$TDUPDATE
 40
0.000000000
  9
$TDINDWG
 40
0.0000000000
  9
$TDUSRTIMER
 40
0.0000000000
  9
$USRTIMER
 70
       1
  9
$ANGBASE
 50
0.0
  9
$ANGDIR
 70
       0
  9
$PDMODE
 70
       0
  9
$PDSIZE
 40
1.0
  9
$PLINEWID
 40
0.0
  9
$COORDS
 70
       1
  9
$SPLFRAME
 70
       0
  9
$SPLINETYPE
 70
       6
  9
$SPLINESEGS
 70
       8
  9
$ATTDIA
 70
       0
  9
$ATTREQ
 70
       1
  9
$HANDLING
 70
       1
  9
$HANDSEED
  5
3CC
  9
$SURFTAB1
 70
       6
  9
$SURFTAB2
 70
       6
  9
$SURFTYPE
 70
       6
  9
$SURFU
 70
       6
  9
$SURFV
 70
       6
  9
$UCSNAME
  2

  9
$UCSORG
 10
0.0
 20
0.0
 30
0.0
  9
$UCSXDIR
 10
1.0
 20
0.0
 30
0.0
  9
$UCSYDIR
 10
0.0
 20
1.0
 30
0.0
  9
$PUCSNAME
  2

  9
$PUCSORG
 10
0.0
 20
0.0
 30
0.0
  9
$PUCSXDIR
 10
1.0
 20
0.0
 30
0.0
  9
$PUCSYDIR
 10
0.0
 20
1.0
 30
0.0
  9
$USERI1
 70
       0
  9
$USERI2
 70
       0
  9
$USERI3
 70
       0
  9
$USERI4
 70
       0
  9
$USERI5
 70
       0
  9
$USERR1
 40
0.0
  9
$USERR2
 40
0.0
  9
$USERR3
 40
0.0
  9
$USERR4
 40
0.0
  9
$USERR5
 40
0.0
  9
$WORLDVIEW
 70
       1
  9
$SHADEDGE
 70
       3
  9
$SHADEDIF
 70
      70
  9
$TILEMODE
 70
       1
  9
$MAXACTVP
 70
      16
  9
$PINSBASE
 10
0.0
 20
0.0
 30
0.0
  9
$PLIMCHECK
 70
       0
  9
$PEXTMIN
 10
1.00000000E+20
 20
1.00000000E+20
 30
1.00000000E+20
  9
$PEXTMAX
 10
-1.00000000E+20
 20
-1.00000000E+20
 30
-1.00000000E+20
  9
$PLIMMIN
 10
0.0
 20
0.0
  9
$PLIMMAX
 10
12.0
 20
9.0
  9
$UNITMODE
 70
       0
  9
$VISRETAIN
 70
       0
  9
$PLINEGEN
 70
       1
  9
$PSLTSCALE
 70
       0
  9
$TREEDEPTH
 70
    3020
  9
$PICKSTYLE
 70
       1
  9
$CMLSTYLE
  2
STANDARD
  9
$CMLJUST
 70
       0
  9
$CMLSCALE
 40
1.0
  9
$PROXYGRAPHICS
 70
       0
  9
$MEASUREMENT
 70
       0
  0
ENDSEC
  0
SECTION
  2
CLASSES
  0
CLASS
  1
LWPOLYLINE
  2
AcDbPolyline
  3
"AutoCAD"
 90
        0
280
       0
281
       1
  0
CLASS
  1
IMAGE
  2
AcDbRasterImage
  3
ISM
 90
      127
280
       0
281
       1
  0
CLASS
  1
OLE2FRAME
  2
AcDbOle2Frame
  3
""
 90
        0
280
       0
281
       1
  0
CLASS
  1
HATCH
  2
AcDbHatch
  3
"ACAD_SEDONA"
 90
        0
280
       0
281
       1
  0
CLASS
  1
DICTIONARYVAR
  2
AcDbDictionaryVar
  3
"AutoCAD"
 90
        0
280
       0
281
       0
  0
CLASS
  1
RASTERVARIABLES
  2
AcDbRasterVariables
  3
ISM
 90
        0
280
       0
281
       0
  0
CLASS
  1
IMAGEDEF
  2
AcDbRasterImageDef
  3
ISM
 90
        0
280
       0
281
       0
  0
CLASS
  1
IMAGEDEF_REACTOR
  2
AcDbRasterImageDefReactor
  3
ISM
 90
        1
280
       0
281
       0
  0
CLASS
  1
IDBUFFER
  2
AcDbIdBuffer
  3
"Acad"
 90
        0
280
       0
281
       0
  0
CLASS
  1
SPATIAL_FILTER
  2
AcDbSpatialFilter
  3
"Acad"
 90
        0
280
       0
281
       0
  0
CLASS
  1
XRECORD
  2
AcDbXrecord
  3
"<Built In>"
 90
        0
280
       0
281
       0
  0
CLASS
  1
SORTENTSTABLE
  2
AcDbSortentsTable
  3
"AutoCAD"
 90
        0
280
       0
281
       0
  0
CLASS
  1
LAYER_INDEX
  2
AcDbLayerIndex
  3
"Acad"
 90
        0
280
       0
281
       0
  0
CLASS
  1
SPATIAL_INDEX
  2
AcDbSpatialIndex
  3
"Acad"
 90
        0
280
       0
281
       0
  0
CLASS
  1
OBJECT_PTR
  2
CAseDLPNTableRecord
  3
"ASE-LPNTableRecord"
 90
        1
280
       0
281
       0
  0
CLASS
  1
LAYOUT
  2
AcDbLayout
  3
"AutoCAD 2000"
 90
        1
280
       0
281
       0
  0
CLASS
  1
PLOTSETTINGS
  2
AcDbPlotSettings
  3
"AutoCAD 2000"
 90
        1
280
       0
281
       0
  0
CLASS
  1
ACDBDICTIONARYWDFLT
  2
AcDbDictionaryWithDefault
  3
"AutoCAD 2000"
 90
        1
280
       0
281
       0
  0
CLASS
  1
ACDBPLACEHOLDER
  2
AcDbPlaceHolder
  3
"AutoCAD 2000"
 90
        1
280
       0
281
       0
  0
CLASS
  1
VBA_PROJECT
  2
AcDbVbaProject
  3
"acadvba"
 90
        1
280
       0
281
       0
  0
CLASS
  1
WIPEOUT
  2
AcDbWipeout
  3
WipeOut|AutoCAD Express Tool|expresstools@autodesk.com
 90
      127
280
       0
281
       1
  0
CLASS
  1
WIPEOUTVARIABLES
  2
AcDbWipeoutVariables
  3
WipeOut|AutoCAD Express Tool|expresstools@autodesk.com
 90
        0
280
       0
281
       0
  0
CLASS
  1
RTEXT
  2
RText
  3
RText|AutoCAD Express Tool|expresstools@autodesk.com
 90
        0
280
       0
281
       1
  0
CLASS
  1
ARCALIGNEDTEXT
  2
AcDbArcAlignedText
  3
ATEXT|AutoCAD Express Tool|expresstools@autodesk.com
 90
        0
280
       0
281
       1
  0
ENDSEC
  0
SECTION
  2
TABLES
  0
TABLE
  2
VPORT
  5
7
100
AcDbSymbolTable
 70
       1
  0
VPORT
  5
15
100
AcDbSymbolTableRecord
100
AcDbViewportTableRecord
  2
*ACTIVE
 70
       0
 10
0.0
 20
0.0
 11
1.0
 21
1.0
 12
9.90396489
 22
-26.61876633
 13
0.0
 23
0.0
 14
1.0
 24
1.0
 15
0.0
 25
0.0
 16
0.0
 26
0.0
 36
1.0
 17
0.0
 27
0.0
 37
0.0
 40
171.11152642
 41
1.30727159
 42
50.0
 43
0.0
 44
0.0
 50
0.0
 51
0.0
 71
       0
 72
     100
 73
       1
 74
       1
 75
       0
 76
       0
 77
       0
 78
       0
  0
ENDTAB
  0
TABLE
  2
LTYPE
  5
4
100
AcDbSymbolTable
 70
      30
  0
LTYPE
  5
11
100
AcDbSymbolTableRecord
100
AcDbLinetypeTableRecord
  2
BYBLOCK
 70
      64
  3

 72
      65
 73
       0
 40
0.0
  0
LTYPE
  5
12
100
AcDbSymbolTableRecord
100
AcDbLinetypeTableRecord
  2
BYLAYER
 70
      64
  3

 72
      65
 73
       0
 40
0.0
  0
LTYPE
  5
13
100
AcDbSymbolTableRecord
100
AcDbLinetypeTableRecord
  2
CONTINUOUS
 70
      64
  3
Solid line
 72
      65
 73
       0
 40
0.0
  0
LTYPE
  5
1D
100
AcDbSymbolTableRecord
100
AcDbLinetypeTableRecord
  2
HIDDENX2
 70
      64
  3
CADPAC LINETYPE
 72
      65
 73
       2
 40
11.88
 49
8.91
 74
       0
 49
-2.97
 74
       0
  0
LTYPE
  5
1E
100
AcDbSymbolTableRecord
100
AcDbLinetypeTableRecord
  2
HIDDEN
 70
      64
  3
CADPAC LINETYPE
 72
      65
 73
       2
 40
8.91
 49
5.94
 74
       0
 49
-2.97
 74
       0
  0
LTYPE
  5
1F
100
AcDbSymbolTableRecord
100
AcDbLinetypeTableRecord
  2
HIDDEN2
 70
      64
  3
CADPAC LINETYPE
 72
      65
 73
       2
 40
7.425
 49
4.455
 74
       0
 49
-2.97
 74
       0
  0
LTYPE
  5
20
100
AcDbSymbolTableRecord
100
AcDbLinetypeTableRecord
  2
DASHED
 70
      64
  3
CADPAC LINETYPE
 72
      65
 73
       2
 40
8.91
 49
5.94
 74
       0
 49
-2.97
 74
       0
  0
LTYPE
  5
21
100
AcDbSymbolTableRecord
100
AcDbLinetypeTableRecord
  2
DASHED2
 70
      64
  3
CADPAC LINETYPE
 72
      65
 73
       2
 40
6.6825
 49
4.455
 74
       0
 49
-2.2275
 74
       0
  0
LTYPE
  5
22
100
AcDbSymbolTableRecord
100
AcDbLinetypeTableRecord
  2
DASHEDX2
 70
      64
  3
CADPAC LINETYPE
 72
      65
 73
       2
 40
13.365
 49
8.91
 74
       0
 49
-4.455
 74
       0
  0
LTYPE
  5
23
100
AcDbSymbolTableRecord
100
AcDbLinetypeTableRecord
  2
DOTX2
 70
      64
  3
CADPAC LINETYPE
 72
      65
 73
       2
 40
3.7125
 49
0.0
 74
       0
 49
-3.7125
 74
       0
  0
LTYPE
  5
24
100
AcDbSymbolTableRecord
100
AcDbLinetypeTableRecord
  2
DOT
 70
      64
  3
CADPAC LINETYPE
 72
      65
 73
       2
 40
2.97
 49
0.0
 74
       0
 49
-2.97
 74
       0
  0
LTYPE
  5
25
100
AcDbSymbolTableRecord
100
AcDbLinetypeTableRecord
  2
DOT2
 70
      64
  3
CADPAC LINETYPE
 72
      65
 73
       2
 40
2.2275
 49
0.0
 74
       0
 49
-2.2275
 74
       0
  0
LTYPE
  5
26
100
AcDbSymbolTableRecord
100
AcDbLinetypeTableRecord
  2
CENTERX2
 70
      64
  3
CADPAC LINETYPE
 72
      65
 73
       4
 40
17.82
 49
7.425
 74
       0
 49
-3.7125
 74
       0
 49
2.97
 74
       0
 49
-3.7125
 74
       0
  0
LTYPE
  5
27
100
AcDbSymbolTableRecord
100
AcDbLinetypeTableRecord
  2
CENTER
 70
      64
  3
CADPAC LINETYPE
 72
      65
 73
       4
 40
13.662
 49
5.94
 74
       0
 49
-2.97
 74
       0
 49
1.782
 74
       0
 49
-2.97
 74
       0
  0
LTYPE
  5
28
100
AcDbSymbolTableRecord
100
AcDbLinetypeTableRecord
  2
CENTER2
 70
      64
  3
CADPAC LINETYPE
 72
      65
 73
       4
 40
9.504
 49
4.455
 74
       0
 49
-2.2275
 74
       0
 49
0.594
 74
       0
 49
-2.2275
 74
       0
  0
LTYPE
  5
29
100
AcDbSymbolTableRecord
100
AcDbLinetypeTableRecord
  2
DASHDOTX2
 70
      64
  3
CADPAC LINETYPE
 72
      65
 73
       4
 40
14.85
 49
7.425
 74
       0
 49
-3.7125
 74
       0
 49
0.0
 74
       0
 49
-3.7125
 74
       0
  0
LTYPE
  5
2A
100
AcDbSymbolTableRecord
100
AcDbLinetypeTableRecord
  2
DASHDOT
 70
      64
  3
CADPAC LINETYPE
 72
      65
 73
       4
 40
11.88
 49
5.94
 74
       0
 49
-2.97
 74
       0
 49
0.0
 74
       0
 49
-2.97
 74
       0
  0
LTYPE
  5
2B
100
AcDbSymbolTableRecord
100
AcDbLinetypeTableRecord
  2
DASHDOT2
 70
      64
  3
CADPAC LINETYPE
 72
      65
 73
       4
 40
8.91
 49
4.455
 74
       0
 49
-2.2275
 74
       0
 49
0.0
 74
       0
 49
-2.2275
 74
       0
  0
LTYPE
  5
2C
100
AcDbSymbolTableRecord
100
AcDbLinetypeTableRecord
  2
DIVIDEX2
 70
      64
  3
CADPAC LINETYPE
 72
      65
 73
       6
 40
18.5625
 49
7.425
 74
       0
 49
-3.7125
 74
       0
 49
0.0
 74
       0
 49
-3.7125
 74
       0
 49
0.0
 74
       0
 49
-3.7125
 74
       0
  0
LTYPE
  5
2D
100
AcDbSymbolTableRecord
100
AcDbLinetypeTableRecord
  2
DIVIDE
 70
      64
  3
CADPAC LINETYPE
 72
      65
 73
       6
 40
14.85
 49
5.94
 74
       0
 49
-2.97
 74
       0
 49
0.0
 74
       0
 49
-2.97
 74
       0
 49
0.0
 74
       0
 49
-2.97
 74
       0
  0
LTYPE
  5
2E
100
AcDbSymbolTableRecord
100
AcDbLinetypeTableRecord
  2
DIVIDE2
 70
      64
  3
CADPAC LINETYPE
 72
      65
 73
       6
 40
11.1375
 49
4.455
 74
       0
 49
-2.2275
 74
       0
 49
0.0
 74
       0
 49
-2.2275
 74
       0
 49
0.0
 74
       0
 49
-2.2275
 74
       0
  0
LTYPE
  5
2F
100
AcDbSymbolTableRecord
100
AcDbLinetypeTableRecord
  2
BORDERX2
 70
      64
  3
CADPAC LINETYPE
 72
      65
 73
       6
 40
25.9875
 49
7.425
 74
       0
 49
-3.7125
 74
       0
 49
7.425
 74
       0
 49
-3.7125
 74
       0
 49
0.0
 74
       0
 49
-3.7125
 74
       0
  0
LTYPE
  5
30
100
AcDbSymbolTableRecord
100
AcDbLinetypeTableRecord
  2
BORDER
 70
      64
  3
CADPAC LINETYPE
 72
      65
 73
       6
 40
20.79
 49
5.94
 74
       0
 49
-2.97
 74
       0
 49
5.94
 74
       0
 49
-2.97
 74
       0
 49
0.0
 74
       0
 49
-2.97
 74
       0
  0
LTYPE
  5
31
100
AcDbSymbolTableRecord
100
AcDbLinetypeTableRecord
  2
BORDER2
 70
      64
  3
CADPAC LINETYPE
 72
      65
 73
       6
 40
15.5925
 49
4.455
 74
       0
 49
-2.2275
 74
       0
 49
4.455
 74
       0
 49
-2.2275
 74
       0
 49
0.0
 74
       0
 49
-2.2275
 74
       0
  0
LTYPE
  5
32
100
AcDbSymbolTableRecord
100
AcDbLinetypeTableRecord
  2
PHANTOMX2
 70
      64
  3
CADPAC LINETYPE
 72
      65
 73
       6
 40
22.275
 49
7.425
 74
       0
 49
-2.97
 74
       0
 49
2.97
 74
       0
 49
-2.97
 74
       0
 49
2.97
 74
       0
 49
-2.97
 74
       0
  0
LTYPE
  5
33
100
AcDbSymbolTableRecord
100
AcDbLinetypeTableRecord
  2
PHANTOM
 70
      64
  3
CADPAC LINETYPE
 72
      65
 73
       6
 40
18.414
 49
5.94
 74
       0
 49
-2.97
 74
       0
 49
1.782
 74
       0
 49
-2.97
 74
       0
 49
1.782
 74
       0
 49
-2.97
 74
       0
  0
LTYPE
  5
34
100
AcDbSymbolTableRecord
100
AcDbLinetypeTableRecord
  2
PHANTOM2
 70
      64
  3
CADPAC LINETYPE
 72
      65
 73
       6
 40
15.741
 49
4.455
 74
       0
 49
-2.97
 74
       0
 49
1.188
 74
       0
 49
-2.97
 74
       0
 49
1.188
 74
       0
 49
-2.97
 74
       0
  0
LTYPE
  5
35
100
AcDbSymbolTableRecord
100
AcDbLinetypeTableRecord
  2
ACAD_ISO06W100
 70
      64
  3
CADPAC LINETYPE
 72
      65
 73
       8
 40
20.0475
 49
7.425
 74
       0
 49
-3.7125
 74
       0
 49
0.0
 74
       0
 49
-2.97
 74
       0
 49
0.0
 74
       0
 49
-2.97
 74
       0
 49
0.0
 74
       0
 49
-2.97
 74
       0
  0
LTYPE
  5
36
100
AcDbSymbolTableRecord
100
AcDbLinetypeTableRecord
  2
ACAD_ISO13W100
 70
      64
  3
CADPAC LINETYPE
 72
      65
 73
       8
 40
23.76
 49
5.94
 74
       0
 49
-2.97
 74
       0
 49
5.94
 74
       0
 49
-2.97
 74
       0
 49
0.0
 74
       0
 49
-2.97
 74
       0
 49
0.0
 74
       0
 49
-2.97
 74
       0
  0
LTYPE
  5
37
100
AcDbSymbolTableRecord
100
AcDbLinetypeTableRecord
  2
ACAD_ISO14W100
 70
      64
  3
CADPAC LINETYPE
 72
      65
 73
       8
 40
17.82
 49
5.94
 74
       0
 49
-2.97
 74
       0
 49
0.0
 74
       0
 49
-2.97
 74
       0
 49
0.0
 74
       0
 49
-2.97
 74
       0
 49
0.0
 74
       0
 49
-2.97
 74
       0
  0
ENDTAB
  0
TABLE
  2
LAYER
  5
2
100
AcDbSymbolTable
 70
       2
  0
LAYER
  5
14
100
AcDbSymbolTableRecord
100
AcDbLayerTableRecord
  2
0
 70
       0
 62
       7
  6
CONTINUOUS
  0
LAYER
  5
38
100
AcDbSymbolTableRecord
100
AcDbLayerTableRecord
  2
レイヤー_1
 70
       0
 62
       7
  6
CONTINUOUS
  0
ENDTAB
  0
TABLE
  2
STYLE
  5
3
100
AcDbSymbolTable
 70
       1
  0
STYLE
  5
17
100
AcDbSymbolTableRecord
100
AcDbTextStyleTableRecord
  2
STANDARD
 70
       0
 40
0.0
 41
0.8
 50
0.0
 71
       0
 42
5.0
  3
txt.shx
  4
bigfont.shx
  0
ENDTAB
  0
TABLE
  2
VIEW
  5
5
100
AcDbSymbolTable
 70
       1
  0
VIEW
  5
39
100
AcDbSymbolTableRecord
100
AcDbViewTableRecord
  2
QQQQ
 70
       0
 40
171.11152642
 10
9.90396489
 20
-26.61876633
 41
223.68923759
 11
0.0
 21
0.0
 31
1.0
 12
100.0
 22
100.0
 32
0.0
 42
50.0
 43
0.0
 44
0.0
 50
0.0
 71
       0
  0
ENDTAB
  0
TABLE
  2
UCS
  5
6
100
AcDbSymbolTable
 70
       0
  0
ENDTAB
  0
TABLE
  2
APPID
  5
8
100
AcDbSymbolTable
 70
       1
  0
APPID
  5
16
100
AcDbSymbolTableRecord
100
AcDbRegAppTableRecord
  2
ACAD
 70
       0
  0
ENDTAB
  0
TABLE
  2
DIMSTYLE
  5
9
100
AcDbSymbolTable
 70
       1
  0
DIMSTYLE
105
18
100
AcDbSymbolTableRecord
100
AcDbDimStyleTableRecord
  2
STANDARD
 70
       0
  3

  4

  5

  6

  7

 40
1.0
 41
0.18
 42
0.0625
 43
0.38
 44
0.18
 45
0.0
 46
0.0
 47
0.0
 48
0.0
 71
       0
 72
       0
 73
       1
 74
       1
 75
       0
 76
       0
 77
       0
 78
       0
140
0.18
141
0.09
142
0.0
143
25.4
144
1.0
145
0.0
146
1.0
147
0.09
170
       0
171
       2
172
       0
173
       0
174
       0
175
       0
176
       0
177
       0
178
       0
270
       2
271
       4
272
       4
273
       2
274
       2
275
       0
280
       0
281
       0
282
       0
283
       1
284
       0
285
       0
286
       0
287
       0
288
       0
340
17
  0
ENDTAB
  0
TABLE
  2
BLOCK_RECORD
  5
1
100
AcDbSymbolTable
 70
       0
  0
BLOCK_RECORD
  5
A
100
AcDbSymbolTableRecord
100
AcDbBlockTableRecord
  2
*MODEL_SPACE
  0
BLOCK_RECORD
  5
B
100
AcDbSymbolTableRecord
100
AcDbBlockTableRecord
  2
*PAPER_SPACE
  0
ENDTAB
  0
ENDSEC
  0
SECTION
  2
BLOCKS
  0
BLOCK
  5
D
100
AcDbEntity
  8
0
100
AcDbBlockBegin
  2
*MODEL_SPACE
 70
       0
 10
0.0
 20
0.0
 30
0.0
  3
*MODEL_SPACE
  1

  0
ENDBLK
  5
E
100
AcDbEntity
  8
0
100
AcDbBlockEnd
  0
BLOCK
  5
F
100
AcDbEntity
 67
       1
  8
0
100
AcDbBlockBegin
  2
*PAPER_SPACE
 70
       0
 10
0.0
 20
0.0
 30
0.0
  3
*PAPER_SPACE
  1

  0
ENDBLK
  5
10
100
AcDbEntity
 67
       1
  8
0
100
AcDbBlockEnd
  0
ENDSEC
  0
SECTION
  2
ENTITIES
  0
LINE
  5
3A
100
AcDbEntity
  8
レイヤー_1
  6
CONTINUOUS
 62
       3
100
AcDbLine
 10
79.73276694
 20
-22.12928491
 30
0.0
 11
79.72583194
 21
-22.03142136
 31
0.0
  0
LINE
  5
3B
100
AcDbEntity
  8
レイヤー_1
  6
CONTINUOUS
 62
       3
100
AcDbLine
 10
79.72583194
 20
-22.03142136
 30
0.0
 11
79.70420263
 21
-21.90456645
 31
0.0
  0
LINE
  5
3C
100
AcDbEntity
  8
レイヤー_1
  6
CONTINUOUS
 62
       3
100
AcDbLine
 10
79.70420263
 20
-21.90456645
 30
0.0
 11
79.66664259
 21
-21.75306502
 31
0.0
  0
LINE
  5
3D
100
AcDbEntity
  8
レイヤー_1
  6
CONTINUOUS
 62
       3
100
AcDbLine
 10
79.66664259
 20
-21.75306502
 30
0.0
 11
79.61191537
 21
-21.5812619
 31
0.0
  0
LINE
  5
3E
100
AcDbEntity
  8
レイヤー_1
  6
CONTINUOUS
 62
       3
100
AcDbLine
 10
79.61191537
 20
-21.5812619
 30
0.0
 11
79.53878453
 21
-21.39350193
 31
0.0
  0
LINE
  5
3F
100
AcDbEntity
  8
レイヤー_1
  6
CONTINUOUS
 62
       3
100
AcDbLine
 10
79.53878453
 20
-21.39350193
 30
0.0
 11
79.44601364
 21
-21.19412994
 31
0.0
  0
LINE
  5
40
100
AcDbEntity
  8
レイヤー_1
  6
CONTINUOUS
 62
       3
100
AcDbLine
 10
79.44601364
 20
-21.19412994
 30
0.0
 11
79.33236625
 21
-20.98749078
 31
0.0
  0
LINE
  5
41
100
AcDbEntity
  8
レイヤー_1
  6
CONTINUOUS
 62
       3
100
AcDbLine
 10
79.33236625
 20
-20.98749078
 30
0.0
 11
79.19660593
 21
-20.77792927
 31
0.0
  0
LINE
  5
42
100
AcDbEntity
  8
レイヤー_1
  6
CONTINUOUS
 62
       3
100
AcDbLine
 10
79.19660593
 20
-20.77792927
 30
0.0
 11
79.03749623
 21
-20.56979025
 31
0.0
  0
LINE
  5
43
100
AcDbEntity
  8
レイヤー_1
  6
CONTINUOUS
 62
       3
100
AcDbLine
 10
79.03749623
 20
-20.56979025
 30
0.0
 11
78.85380072
 21
-20.36741856
 31
0.0
  0
LINE
  5
44
100
AcDbEntity
  8
レイヤー_1
  6
CONTINUOUS
 62
       3
100
AcDbLine
 10
78.85380072
 20
-20.36741856
 30
0.0
 11
78.64428297
 21
-20.17515903
 31
0.0
  0
LINE
  5
45
100
AcDbEntity
  8
レイヤー_1
  6
CONTINUOUS
 62
       3
100
AcDbLine
 10
78.64428297
 20
-20.17515903
 30
0.0
 11
78.40770652
 21
-19.99735651
 31
0.0
  0
LINE
  5
46
100
AcDbEntity
  8
レイヤー_1
  6
CONTINUOUS
 62
       3
100
AcDbLine
 10
78.40770652
 20
-19.99735651
 30
0.0
 11
78.14283494
 21
-19.83835582
 31
0.0
  0
LINE
  5
47
100
AcDbEntity
  8
レイヤー_1
  6
CONTINUOUS
 62
       3
100
AcDbLine
 10
78.14283494
 20
-19.83835582
 30
0.0
 11
77.8484318
 21
-19.70250181
 31
0.0
  0
LINE
  5
48
100
AcDbEntity
  8
レイヤー_1
  6
CONTINUOUS
 62
       3
100
AcDbLine
 10
77.8484318
 20
-19.70250181
 30
0.0
 11
77.52326065
 21
-19.5941393
 31
0.0
  0
LINE
  5
49
100
AcDbEntity
  8
レイヤー_1
  6
CONTINUOUS
 62
       3
100
AcDbLine
 10
77.52326065
 20
-19.5941393
 30
0.0
 11
77.16608505
 21
-19.51761314
 31
0.0
  0
LINE
  5
4A
100
AcDbEntity
  8
レイヤー_1
  6
CONTINUOUS
 62
       3
100
AcDbLine
 10
77.16608505
 20
-19.51761314
 30
0.0
 11
76.77566857
 21
-19.47726815
 31
0.0
  0
LINE
  5
4B
100
AcDbEntity
  8
レイヤー_1
  6
CONTINUOUS
 62
       3
100
AcDbLine
 10
76.77566857
 20
-19.47726815
 30
0.0
 11
76.56560401
 21
-19.47202137
 31
0.0
  0
LINE
  5
4C
100
AcDbEntity
  8
レイヤー_1
  6
CONTINUOUS
 62
       3
100
AcDbLine
 10
76.56560401
 20
-19.47202137
 30
0.0
 11
76.55026783
 21
-19.47202137
 31
0.0
  0
LINE
  5
4D
100
AcDbEntity
  8
レイヤー_1
  6
CONTINUOUS
 62
       3
100
AcDbLine
 10
76.55026783
 20
-19.47202137
 30
0.0
 11
76.52138598
 21
-19.47202137
 31
0.0
  0
LINE
  5
4E
100
AcDbEntity
  8
レイヤー_1
  6
CONTINUOUS
 62
       3
100
AcDbLine
 10
76.52138598
 20
-19.47202137
 30
0.0
 11
76.48082683
 21
-19.47202137
 31
0.0
  0
LINE
  5
4F
100
AcDbEntity
  8
レイヤー_1
  6
CONTINUOUS
 62
       3
100
AcDbLine
 10
76.48082683
 20
-19.47202137
 30
0.0
 11
76.43045875
 21
-19.47202137
 31
0.0
  0
LINE
  5
50
100
AcDbEntity
  8
レイヤー_1
  6
CONTINUOUS
 62
       3
100
AcDbLine
 10
76.43045875
 20
-19.47202137
 30
0.0
 11
76.37215011
 21
-19.47202137
 31
0.0
  0
LINE
  5
51
100
AcDbEntity
  8
レイヤー_1
  6
CONTINUOUS
 62
       3
100
AcDbLine
 10
76.37215011
 20
-19.47202137
 30
0.0
 11
76.30776928
 21
-19.47202137
 31
0.0
  0
LINE
  5
52
100
AcDbEntity
  8
レイヤー_1
  6
CONTINUOUS
 62
       3
100
AcDbLine
 10
76.30776928
 20
-19.47202137
 30
0.0
 11
76.23918462
 21
-19.47202137
 31
0.0
  0
LINE
  5
53
100
AcDbEntity
  8
レイヤー_1
  6
CONTINUOUS
 62
       3
100
AcDbLine
 10
76.23918462
 20
-19.47202137
 30
0.0
 11
76.1682645
 21
-19.47202137
 31
0.0
  0
LINE
  5
54
100
AcDbEntity
  8
レイヤー_1
  6
CONTINUOUS
 62
       3
100
AcDbLine
 10
76.1682645
 20
-19.47202137
 30
0.0
 11
76.09687728
 21
-19.47202137
 31
0.0
  0
LINE
  5
55
100
AcDbEntity
  8
レイヤー_1
  6
CONTINUOUS
 62
       3
100
AcDbLine
 10
76.09687728
 20
-19.47202137
 30
0.0
 11
76.02689135
 21
-19.47202137
 31
0.0
  0
LINE
  5
56
100
AcDbEntity
  8
レイヤー_1
  6
CONTINUOUS
 62
       3
100
AcDbLine
 10
76.02689135
 20
-19.47202137
 30
0.0
 11
75.96017505
 21
-19.47202137
 31
0.0
  0
LINE
  5
57
100
AcDbEntity
  8
レイヤー_1
  6
CONTINUOUS
 62
       3
100
AcDbLine
 10
75.96017505
 20
-19.47202137
 30
0.0
 11
75.89859677
 21
-19.47202137
 31
0.0
  0
LINE
  5
58
100
AcDbEntity
  8
レイヤー_1
  6
CONTINUOUS
 62
       3
100
AcDbLine
 10
75.89859677
 20
-19.47202137
 30
0.0
 11
75.84402487
 21
-19.47202137
 31
0.0
  0
LINE
  5
59
100
AcDbEntity
  8
レイヤー_1
  6
CONTINUOUS
 62
       3
100
AcDbLine
 10
75.84402487
 20
-19.47202137
 30
0.0
 11
75.79832771
 21
-19.47202137
 31
0.0
  0
LINE
  5
5A
100
AcDbEntity
  8
レイヤー_1
  6
CONTINUOUS
 62
       3
100
AcDbLine
 10
75.79832771
 20
-19.47202137
 30
0.0
 11
75.76337366
 21
-19.47202137
 31
0.0
  0
LINE
  5
5B
100
AcDbEntity
  8
レイヤー_1
  6
CONTINUOUS
 62
       3
100
AcDbLine
 10
75.76337366
 20
-19.47202137
 30
0.0
 11
75.7410311
 21
-19.47202137
 31
0.0
  0
LINE
  5
5C
100
AcDbEntity
  8
レイヤー_1
  6
CONTINUOUS
 62
       3
100
AcDbLine
 10
75.7410311
 20
-19.47202137
 30
0.0
 11
75.73316839
 21
-19.47202137
 31
0.0
  0
LINE
  5
5D
100
AcDbEntity
  8
レイヤー_1
  6
CONTINUOUS
 62
       3
100
AcDbLine
 10
65.84992069
 20
-17.50108637
 30
0.0
 11
65.89633873
 21
-17.50108637
 31
0.0
  0
LINE
  5
5E
100
AcDbEntity
  8
レイヤー_1
  6
CONTINUOUS
 62
       3
100
AcDbLine
 10
65.89633873
 20
-17.50108637
 30
0.0
 11
66.02823948
 21
-17.50108637
 31
0.0
  0
LINE
  5
5F
100
AcDbEntity
  8
レイヤー_1
  6
CONTINUOUS
 62
       3
100
AcDbLine
 10
66.02823948
 20
-17.50108637
 30
0.0
 11
66.23459291
 21
-17.50108637
 31
0.0
  0
LINE
  5
60
100
AcDbEntity
  8
レイヤー_1
  6
CONTINUOUS
 62
       3
100
AcDbLine
 10
66.23459291
 20
-17.50108637
 30
0.0
 11
66.50436901
 21
-17.50108637
 31
0.0
  0
LINE
  5
61
100
AcDbEntity
  8
レイヤー_1
  6
CONTINUOUS
 62
       3
100
AcDbLine
 10
66.50436901
 20
-17.50108637
 30
0.0
 11
66.82653774
 21
-17.50108637
 31
0.0
  0
LINE
  5
62
100
AcDbEntity
  8
レイヤー_1
  6
CONTINUOUS
 62
       3
100
AcDbLine
 10
66.82653774
 20
-17.50108637
 30
0.0
 11
67.19006907
 21
-17.50108637
 31
0.0
  0
LINE
  5
63
100
AcDbEntity
  8
レイヤー_1
  6
CONTINUOUS
 62
       3
100
AcDbLine
 10
67.19006907
 20
-17.50108637
 30
0.0
 11
67.58393297
 21
-17.50108637
 31
0.0
  0
LINE
  5
64
100
AcDbEntity
  8
レイヤー_1
  6
CONTINUOUS
 62
       3
100
AcDbLine
 10
67.58393297
 20
-17.50108637
 30
0.0
 11
67.99709943
 21
-17.50108637
 31
0.0
  0
LINE
  5
65
100
AcDbEntity
  8
レイヤー_1
  6
CONTINUOUS
 62
       3
100
AcDbLine
 10
67.99709943
 20
-17.50108637
 30
0.0
 11
68.41853841
 21
-17.50108637
 31
0.0
  0
LINE
  5
66
100
AcDbEntity
  8
レイヤー_1
  6
CONTINUOUS
 62
       3
100
AcDbLine
 10
68.41853841
 20
-17.50108637
 30
0.0
 11
68.83721988
 21
-17.50108637
 31
0.0
  0
LINE
  5
67
100
AcDbEntity
  8
レイヤー_1
  6
CONTINUOUS
 62
       3
100
AcDbLine
 10
68.83721988
 20
-17.50108637
 30
0.0
 11
69.24211381
 21
-17.50108637
 31
0.0
  0
LINE
  5
68
100
AcDbEntity
  8
レイヤー_1
  6
CONTINUOUS
 62
       3
100
AcDbLine
 10
69.24211381
 20
-17.50108637
 30
0.0
 11
69.62219019
 21
-17.50108637
 31
0.0
  0
LINE
  5
69
100
AcDbEntity
  8
レイヤー_1
  6
CONTINUOUS
 62
       3
100
AcDbLine
 10
69.62219019
 20
-17.50108637
 30
0.0
 11
69.96641897
 21
-17.50108637
 31
0.0
  0
LINE
  5
6A
100
AcDbEntity
  8
レイヤー_1
  6
CONTINUOUS
 62
       3
100
AcDbLine
 10
69.96641897
 20
-17.50108637
 30
0.0
 11
70.26377013
 21
-17.50108637
 31
0.0
  0
LINE
  5
6B
100
AcDbEntity
  8
レイヤー_1
  6
CONTINUOUS
 62
       3
100
AcDbLine
 10
70.26377013
 20
-17.50108637
 30
0.0
 11
70.50321365
 21
-17.50108637
 31
0.0
  0
LINE
  5
6C
100
AcDbEntity
  8
レイヤー_1
  6
CONTINUOUS
 62
       3
100
AcDbLine
 10
70.50321365
 20
-17.50108637
 30
0.0
 11
70.6737195
 21
-17.50108637
 31
0.0
  0
LINE
  5
6D
100
AcDbEntity
  8
レイヤー_1
  6
CONTINUOUS
 62
       3
100
AcDbLine
 10
70.6737195
 20
-17.50108637
 30
0.0
 11
70.76425764
 21
-17.50108637
 31
0.0
  0
LINE
  5
6E
100
AcDbEntity
  8
レイヤー_1
  6
CONTINUOUS
 62
       3
100
AcDbLine
 10
70.76425764
 20
-17.50108637
 30
0.0
 11
70.87090872
 21
-17.49737237
 31
0.0
  0
LINE
  5
6F
100
AcDbEntity
  8
レイヤー_1
  6
CONTINUOUS
 62
       3
100
AcDbLine
 10
70.87090872
 20
-17.49737237
 30
0.0
 11
71.07534412
 21
-17.46791055
 31
0.0
  0
LINE
  5
70
100
AcDbEntity
  8
レイヤー_1
  6
CONTINUOUS
 62
       3
100
AcDbLine
 10
71.07534412
 20
-17.46791055
 30
0.0
 11
71.29639539
 21
-17.40962628
 31
0.0
  0
LINE
  5
71
100
AcDbEntity
  8
レイヤー_1
  6
CONTINUOUS
 62
       3
100
AcDbLine
 10
71.29639539
 20
-17.40962628
 30
0.0
 11
71.53031862
 21
-17.32318675
 31
0.0
  0
LINE
  5
72
100
AcDbEntity
  8
レイヤー_1
  6
CONTINUOUS
 62
       3
100
AcDbLine
 10
71.53031862
 20
-17.32318675
 30
0.0
 11
71.77336989
 21
-17.20925914
 31
0.0
  0
LINE
  5
73
100
AcDbEntity
  8
レイヤー_1
  6
CONTINUOUS
 62
       3
100
AcDbLine
 10
71.77336989
 20
-17.20925914
 30
0.0
 11
72.02180528
 21
-17.06851063
 31
0.0
  0
LINE
  5
74
100
AcDbEntity
  8
レイヤー_1
  6
CONTINUOUS
 62
       3
100
AcDbLine
 10
72.02180528
 20
-17.06851063
 30
0.0
 11
72.27188088
 21
-16.9016084
 31
0.0
  0
LINE
  5
75
100
AcDbEntity
  8
レイヤー_1
  6
CONTINUOUS
 62
       3
100
AcDbLine
 10
72.27188088
 20
-16.9016084
 30
0.0
 11
72.51985277
 21
-16.70921963
 31
0.0
  0
LINE
  5
76
100
AcDbEntity
  8
レイヤー_1
  6
CONTINUOUS
 62
       3
100
AcDbLine
 10
72.51985277
 20
-16.70921963
 30
0.0
 11
72.76197703
 21
-16.4920115
 31
0.0
  0
LINE
  5
77
100
AcDbEntity
  8
レイヤー_1
  6
CONTINUOUS
 62
       3
100
AcDbLine
 10
72.76197703
 20
-16.4920115
 30
0.0
 11
72.99450976
 21
-16.25065119
 31
0.0
  0
LINE
  5
78
100
AcDbEntity
  8
レイヤー_1
  6
CONTINUOUS
 62
       3
100
AcDbLine
 10
72.99450976
 20
-16.25065119
 30
0.0
 11
73.21370702
 21
-15.98580589
 31
0.0
  0
LINE
  5
79
100
AcDbEntity
  8
レイヤー_1
  6
CONTINUOUS
 62
       3
100
AcDbLine
 10
73.21370702
 20
-15.98580589
 30
0.0
 11
73.41582492
 21
-15.69814278
 31
0.0
  0
LINE
  5
7A
100
AcDbEntity
  8
レイヤー_1
  6
CONTINUOUS
 62
       3
100
AcDbLine
 10
73.41582492
 20
-15.69814278
 30
0.0
 11
73.59711952
 21
-15.38832903
 31
0.0
  0
LINE
  5
7B
100
AcDbEntity
  8
レイヤー_1
  6
CONTINUOUS
 62
       3
100
AcDbLine
 10
73.59711952
 20
-15.38832903
 30
0.0
 11
73.75384691
 21
-15.05703183
 31
0.0
  0
LINE
  5
7C
100
AcDbEntity
  8
レイヤー_1
  6
CONTINUOUS
 62
       3
100
AcDbLine
 10
73.75384691
 20
-15.05703183
 30
0.0
 11
73.88226319
 21
-14.70491835
 31
0.0
  0
LINE
  5
7D
100
AcDbEntity
  8
レイヤー_1
  6
CONTINUOUS
 62
       3
100
AcDbLine
 10
73.88226319
 20
-14.70491835
 30
0.0
 11
73.97862442
 21
-14.33265579
 31
0.0
  0
LINE
  5
7E
100
AcDbEntity
  8
レイヤー_1
  6
CONTINUOUS
 62
       3
100
AcDbLine
 10
73.97862442
 20
-14.33265579
 30
0.0
 11
74.0391867
 21
-13.94091131
 31
0.0
  0
LINE
  5
7F
100
AcDbEntity
  8
レイヤー_1
  6
CONTINUOUS
 62
       3
100
AcDbLine
 10
74.0391867
 20
-13.94091131
 30
0.0
 11
74.06020611
 21
-13.5303521
 31
0.0
  0
LINE
  5
80
100
AcDbEntity
  8
レイヤー_1
  6
CONTINUOUS
 62
       3
100
AcDbLine
 10
65.93972069
 20
-22.42725762
 30
0.0
 11
65.9617972
 21
-22.54880596
 31
0.0
  0
LINE
  5
81
100
AcDbEntity
  8
レイヤー_1
  6
CONTINUOUS
 62
       3
100
AcDbLine
 10
65.9617972
 20
-22.54880596
 30
0.0
 11
66.02498171
 21
-22.66254673
 31
0.0
  0
LINE
  5
82
100
AcDbEntity
  8
レイヤー_1
  6
CONTINUOUS
 62
       3
100
AcDbLine
 10
66.02498171
 20
-22.66254673
 30
0.0
 11
66.12470664
 21
-22.76827767
 31
0.0
  0
LINE
  5
83
100
AcDbEntity
  8
レイヤー_1
  6
CONTINUOUS
 62
       3
100
AcDbLine
 10
66.12470664
 20
-22.76827767
 30
0.0
 11
66.25640446
 21
-22.86579649
 31
0.0
  0
LINE
  5
84
100
AcDbEntity
  8
レイヤー_1
  6
CONTINUOUS
 62
       3
100
AcDbLine
 10
66.25640446
 20
-22.86579649
 30
0.0
 11
66.41550761
 21
-22.95490094
 31
0.0
  0
LINE
  5
85
100
AcDbEntity
  8
レイヤー_1
  6
CONTINUOUS
 62
       3
100
AcDbLine
 10
66.41550761
 20
-22.95490094
 30
0.0
 11
66.59744852
 21
-23.03538874
 31
0.0
  0
LINE
  5
86
100
AcDbEntity
  8
レイヤー_1
  6
CONTINUOUS
 62
       3
100
AcDbLine
 10
66.59744852
 20
-23.03538874
 30
0.0
 11
66.79765966
 21
-23.10705763
 31
0.0
  0
LINE
  5
87
100
AcDbEntity
  8
レイヤー_1
  6
CONTINUOUS
 62
       3
100
AcDbLine
 10
66.79765966
 20
-23.10705763
 30
0.0
 11
67.01157345
 21
-23.16970534
 31
0.0
  0
LINE
  5
88
100
AcDbEntity
  8
レイヤー_1
  6
CONTINUOUS
 62
       3
100
AcDbLine
 10
67.01157345
 20
-23.16970534
 30
0.0
 11
67.23462236
 21
-23.22312959
 31
0.0
  0
LINE
  5
89
100
AcDbEntity
  8
レイヤー_1
  6
CONTINUOUS
 62
       3
100
AcDbLine
 10
67.23462236
 20
-23.22312959
 30
0.0
 11
67.46223882
 21
-23.26712813
 31
0.0
  0
LINE
  5
8A
100
AcDbEntity
  8
レイヤー_1
  6
CONTINUOUS
 62
       3
100
AcDbLine
 10
67.46223882
 20
-23.26712813
 30
0.0
 11
67.68985528
 21
-23.30149868
 31
0.0
  0
LINE
  5
8B
100
AcDbEntity
  8
レイヤー_1
  6
CONTINUOUS
 62
       3
100
AcDbLine
 10
67.68985528
 20
-23.30149868
 30
0.0
 11
67.91290418
 21
-23.32603897
 31
0.0
  0
LINE
  5
8C
100
AcDbEntity
  8
レイヤー_1
  6
CONTINUOUS
 62
       3
100
AcDbLine
 10
67.91290418
 20
-23.32603897
 30
0.0
 11
68.12681798
 21
-23.34054673
 31
0.0
  0
LINE
  5
8D
100
AcDbEntity
  8
レイヤー_1
  6
CONTINUOUS
 62
       3
100
AcDbLine
 10
68.12681798
 20
-23.34054673
 30
0.0
 11
68.32702911
 21
-23.3448197
 31
0.0
  0
LINE
  5
8E
100
AcDbEntity
  8
レイヤー_1
  6
CONTINUOUS
 62
       3
100
AcDbLine
 10
68.32702911
 20
-23.3448197
 30
0.0
 11
68.50897003
 21
-23.33865561
 31
0.0
  0
LINE
  5
8F
100
AcDbEntity
  8
レイヤー_1
  6
CONTINUOUS
 62
       3
100
AcDbLine
 10
68.50897003
 20
-23.33865561
 30
0.0
 11
68.66807317
 21
-23.32185219
 31
0.0
  0
LINE
  5
90
100
AcDbEntity
  8
レイヤー_1
  6
CONTINUOUS
 62
       3
100
AcDbLine
 10
68.66807317
 20
-23.32185219
 30
0.0
 11
68.79977099
 21
-23.29420716
 31
0.0
  0
LINE
  5
91
100
AcDbEntity
  8
レイヤー_1
  6
CONTINUOUS
 62
       3
100
AcDbLine
 10
68.79977099
 20
-23.29420716
 30
0.0
 11
68.89949593
 21
-23.25551827
 31
0.0
  0
LINE
  5
92
100
AcDbEntity
  8
レイヤー_1
  6
CONTINUOUS
 62
       3
100
AcDbLine
 10
68.89949593
 20
-23.25551827
 30
0.0
 11
68.96268043
 21
-23.20558324
 31
0.0
  0
LINE
  5
93
100
AcDbEntity
  8
レイヤー_1
  6
CONTINUOUS
 62
       3
100
AcDbLine
 10
68.96268043
 20
-23.20558324
 30
0.0
 11
68.98475694
 21
-23.14419981
 31
0.0
  0
LINE
  5
94
100
AcDbEntity
  8
レイヤー_1
  6
CONTINUOUS
 62
       3
100
AcDbLine
 10
65.93972069
 20
-20.90503106
 30
0.0
 11
65.95717316
 21
-21.06937736
 31
0.0
  0
LINE
  5
95
100
AcDbEntity
  8
レイヤー_1
  6
CONTINUOUS
 62
       3
100
AcDbLine
 10
65.95717316
 20
-21.06937736
 30
0.0
 11
66.00646199
 21
-21.22300542
 31
0.0
  0
LINE
  5
96
100
AcDbEntity
  8
レイヤー_1
  6
CONTINUOUS
 62
       3
100
AcDbLine
 10
66.00646199
 20
-21.22300542
 30
0.0
 11
66.08298434
 21
-21.36591525
 31
0.0
  0
LINE
  5
97
100
AcDbEntity
  8
レイヤー_1
  6
CONTINUOUS
 62
       3
100
AcDbLine
 10
66.08298434
 20
-21.36591525
 30
0.0
 11
66.18213736
 21
-21.49810684
 31
0.0
  0
LINE
  5
98
100
AcDbEntity
  8
レイヤー_1
  6
CONTINUOUS
 62
       3
100
AcDbLine
 10
66.18213736
 20
-21.49810684
 30
0.0
 11
66.29931821
 21
-21.6195802
 31
0.0
  0
LINE
  5
99
100
AcDbEntity
  8
レイヤー_1
  6
CONTINUOUS
 62
       3
100
AcDbLine
 10
66.29931821
 20
-21.6195802
 30
0.0
 11
66.42992403
 21
-21.73033531
 31
0.0
  0
LINE
  5
9A
100
AcDbEntity
  8
レイヤー_1
  6
CONTINUOUS
 62
       3
100
AcDbLine
 10
66.42992403
 20
-21.73033531
 30
0.0
 11
66.56935197
 21
-21.83037219
 31
0.0
  0
LINE
  5
9B
100
AcDbEntity
  8
レイヤー_1
  6
CONTINUOUS
 62
       3
100
AcDbLine
 10
66.56935197
 20
-21.83037219
 30
0.0
 11
66.71299919
 21
-21.91969084
 31
0.0
  0
LINE
  5
9C
100
AcDbEntity
  8
レイヤー_1
  6
CONTINUOUS
 62
       3
100
AcDbLine
 10
66.71299919
 20
-21.91969084
 30
0.0
 11
66.85626284
 21
-21.99829124
 31
0.0
  0
LINE
  5
9D
100
AcDbEntity
  8
レイヤー_1
  6
CONTINUOUS
 62
       3
100
AcDbLine
 10
66.85626284
 20
-21.99829124
 30
0.0
 11
66.99454007
 21
-22.06617341
 31
0.0
  0
LINE
  5
9E
100
AcDbEntity
  8
レイヤー_1
  6
CONTINUOUS
 62
       3
100
AcDbLine
 10
66.99454007
 20
-22.06617341
 30
0.0
 11
67.12322804
 21
-22.12333734
 31
0.0
  0
LINE
  5
9F
100
AcDbEntity
  8
レイヤー_1
  6
CONTINUOUS
 62
       3
100
AcDbLine
 10
67.12322804
 20
-22.12333734
 30
0.0
 11
67.23772389
 21
-22.16978304
 31
0.0
  0
LINE
  5
A0
100
AcDbEntity
  8
レイヤー_1
  6
CONTINUOUS
 62
       3
100
AcDbLine
 10
67.23772389
 20
-22.16978304
 30
0.0
 11
67.33342477
 21
-22.20551049
 31
0.0
  0
LINE
  5
A1
100
AcDbEntity
  8
レイヤー_1
  6
CONTINUOUS
 62
       3
100
AcDbLine
 10
67.33342477
 20
-22.20551049
 30
0.0
 11
67.40572785
 21
-22.23051971
 31
0.0
  0
LINE
  5
A2
100
AcDbEntity
  8
レイヤー_1
  6
CONTINUOUS
 62
       3
100
AcDbLine
 10
67.40572785
 20
-22.23051971
 30
0.0
 11
67.45003026
 21
-22.2448107
 31
0.0
  0
LINE
  5
A3
100
AcDbEntity
  8
レイヤー_1
  6
CONTINUOUS
 62
       3
100
AcDbLine
 10
67.45003026
 20
-22.2448107
 30
0.0
 11
67.46274137
 21
-22.24853231
 31
0.0
  0
LINE
  5
A4
100
AcDbEntity
  8
レイヤー_1
  6
CONTINUOUS
 62
       3
100
AcDbLine
 10
67.46274137
 20
-22.24853231
 30
0.0
 11
67.48581954
 21
-22.24853231
 31
0.0
  0
LINE
  5
A5
100
AcDbEntity
  8
レイヤー_1
  6
CONTINUOUS
 62
       3
100
AcDbLine
 10
67.48581954
 20
-22.24853231
 30
0.0
 11
67.53996693
 21
-22.24853231
 31
0.0
  0
LINE
  5
A6
100
AcDbEntity
  8
レイヤー_1
  6
CONTINUOUS
 62
       3
100
AcDbLine
 10
67.53996693
 20
-22.24853231
 30
0.0
 11
67.6205807
 21
-22.24853231
 31
0.0
  0
LINE
  5
A7
100
AcDbEntity
  8
レイヤー_1
  6
CONTINUOUS
 62
       3
100
AcDbLine
 10
67.6205807
 20
-22.24853231
 30
0.0
 11
67.723058
 21
-22.24853231
 31
0.0
  0
LINE
  5
A8
100
AcDbEntity
  8
レイヤー_1
  6
CONTINUOUS
 62
       3
100
AcDbLine
 10
67.723058
 20
-22.24853231
 30
0.0
 11
67.84279599
 21
-22.24853231
 31
0.0
  0
LINE
  5
A9
100
AcDbEntity
  8
レイヤー_1
  6
CONTINUOUS
 62
       3
100
AcDbLine
 10
67.84279599
 20
-22.24853231
 30
0.0
 11
67.9751918
 21
-22.24853231
 31
0.0
  0
LINE
  5
AA
100
AcDbEntity
  8
レイヤー_1
  6
CONTINUOUS
 62
       3
100
AcDbLine
 10
67.9751918
 20
-22.24853231
 30
0.0
 11
68.1156426
 21
-22.24853231
 31
0.0
  0
LINE
  5
AB
100
AcDbEntity
  8
レイヤー_1
  6
CONTINUOUS
 62
       3
100
AcDbLine
 10
68.1156426
 20
-22.24853231
 30
0.0
 11
68.25954553
 21
-22.24853231
 31
0.0
  0
LINE
  5
AC
100
AcDbEntity
  8
レイヤー_1
  6
CONTINUOUS
 62
       3
100
AcDbLine
 10
68.25954553
 20
-22.24853231
 30
0.0
 11
68.40229776
 21
-22.24853231
 31
0.0
  0
LINE
  5
AD
100
AcDbEntity
  8
レイヤー_1
  6
CONTINUOUS
 62
       3
100
AcDbLine
 10
68.40229776
 20
-22.24853231
 30
0.0
 11
68.53929642
 21
-22.24853231
 31
0.0
  0
LINE
  5
AE
100
AcDbEntity
  8
レイヤー_1
  6
CONTINUOUS
 62
       3
100
AcDbLine
 10
68.53929642
 20
-22.24853231
 30
0.0
 11
68.66593867
 21
-22.24853231
 31
0.0
  0
LINE
  5
AF
100
AcDbEntity
  8
レイヤー_1
  6
CONTINUOUS
 62
       3
100
AcDbLine
 10
68.66593867
 20
-22.24853231
 30
0.0
 11
68.77762167
 21
-22.24853231
 31
0.0
  0
LINE
  5
B0
100
AcDbEntity
  8
レイヤー_1
  6
CONTINUOUS
 62
       3
100
AcDbLine
 10
68.77762167
 20
-22.24853231
 30
0.0
 11
68.86974256
 21
-22.24853231
 31
0.0
  0
LINE
  5
B1
100
AcDbEntity
  8
レイヤー_1
  6
CONTINUOUS
 62
       3
100
AcDbLine
 10
68.86974256
 20
-22.24853231
 30
0.0
 11
68.9376985
 21
-22.24853231
 31
0.0
  0
LINE
  5
B2
100
AcDbEntity
  8
レイヤー_1
  6
CONTINUOUS
 62
       3
100
AcDbLine
 10
68.9376985
 20
-22.24853231
 30
0.0
 11
68.97688664
 21
-22.24853231
 31
0.0
  0
LINE
  5
B3
100
AcDbEntity
  8
レイヤー_1
  6
CONTINUOUS
 62
       3
100
AcDbLine
 10
68.97688664
 20
-22.24853231
 30
0.0
 11
68.98475694
 21
-22.25170211
 31
0.0
  0
LINE
  5
B4
100
AcDbEntity
  8
レイヤー_1
  6
CONTINUOUS
 62
       3
100
AcDbLine
 10
68.98475694
 20
-22.25170211
 30
0.0
 11
68.98475694
 21
-22.29708336
 31
0.0
  0
LINE
  5
B5
100
AcDbEntity
  8
レイヤー_1
  6
CONTINUOUS
 62
       3
100
AcDbLine
 10
68.98475694
 20
-22.29708336
 30
0.0
 11
68.98475694
 21
-22.39058702
 31
0.0
  0
LINE
  5
B6
100
AcDbEntity
  8
レイヤー_1
  6
CONTINUOUS
 62
       3
100
AcDbLine
 10
68.98475694
 20
-22.39058702
 30
0.0
 11
68.98475694
 21
-22.52490334
 31
0.0
  0
LINE
  5
B7
100
AcDbEntity
  8
レイヤー_1
  6
CONTINUOUS
 62
       3
100
AcDbLine
 10
68.98475694
 20
-22.52490334
 30
0.0
 11
68.98475694
 21
-22.69272261
 31
0.0
  0
LINE
  5
B8
100
AcDbEntity
  8
レイヤー_1
  6
CONTINUOUS
 62
       3
100
AcDbLine
 10
68.98475694
 20
-22.69272261
 30
0.0
 11
68.98475694
 21
-22.88673507
 31
0.0
  0
LINE
  5
B9
100
AcDbEntity
  8
レイヤー_1
  6
CONTINUOUS
 62
       3
100
AcDbLine
 10
68.98475694
 20
-22.88673507
 30
0.0
 11
68.98475694
 21
-23.09963102
 31
0.0
  0
LINE
  5
BA
100
AcDbEntity
  8
レイヤー_1
  6
CONTINUOUS
 62
       3
100
AcDbLine
 10
68.98475694
 20
-23.09963102
 30
0.0
 11
68.98475694
 21
-23.3241007
 31
0.0
  0
LINE
  5
BB
100
AcDbEntity
  8
レイヤー_1
  6
CONTINUOUS
 62
       3
100
AcDbLine
 10
68.98475694
 20
-23.3241007
 30
0.0
 11
68.98475694
 21
-23.5528344
 31
0.0
  0
LINE
  5
BC
100
AcDbEntity
  8
レイヤー_1
  6
CONTINUOUS
 62
       3
100
AcDbLine
 10
68.98475694
 20
-23.5528344
 30
0.0
 11
68.98475694
 21
-23.77852237
 31
0.0
  0
LINE
  5
BD
100
AcDbEntity
  8
レイヤー_1
  6
CONTINUOUS
 62
       3
100
AcDbLine
 10
68.98475694
 20
-23.77852237
 30
0.0
 11
68.98475694
 21
-23.99385489
 31
0.0
  0
LINE
  5
BE
100
AcDbEntity
  8
レイヤー_1
  6
CONTINUOUS
 62
       3
100
AcDbLine
 10
68.98475694
 20
-23.99385489
 30
0.0
 11
68.98475694
 21
-24.19152223
 31
0.0
  0
LINE
  5
BF
100
AcDbEntity
  8
レイヤー_1
  6
CONTINUOUS
 62
       3
100
AcDbLine
 10
68.98475694
 20
-24.19152223
 30
0.0
 11
68.98475694
 21
-24.36421464
 31
0.0
  0
LINE
  5
C0
100
AcDbEntity
  8
レイヤー_1
  6
CONTINUOUS
 62
       3
100
AcDbLine
 10
68.98475694
 20
-24.36421464
 30
0.0
 11
68.98475694
 21
-24.50462241
 31
0.0
  0
LINE
  5
C1
100
AcDbEntity
  8
レイヤー_1
  6
CONTINUOUS
 62
       3
100
AcDbLine
 10
68.98475694
 20
-24.50462241
 30
0.0
 11
68.98475694
 21
-24.6054358
 31
0.0
  0
LINE
  5
C2
100
AcDbEntity
  8
レイヤー_1
  6
CONTINUOUS
 62
       3
100
AcDbLine
 10
68.98475694
 20
-24.6054358
 30
0.0
 11
68.98475694
 21
-24.65934507
 31
0.0
  0
LINE
  5
C3
100
AcDbEntity
  8
レイヤー_1
  6
CONTINUOUS
 62
       3
100
AcDbLine
 10
68.98475694
 20
-24.65934507
 30
0.0
 11
69.02069372
 21
-24.66642637
 31
0.0
  0
LINE
  5
C4
100
AcDbEntity
  8
レイヤー_1
  6
CONTINUOUS
 62
       3
100
AcDbLine
 10
69.02069372
 20
-24.66642637
 30
0.0
 11
69.29427695
 21
-24.66642637
 31
0.0
  0
LINE
  5
C5
100
AcDbEntity
  8
レイヤー_1
  6
CONTINUOUS
 62
       3
100
AcDbLine
 10
69.29427695
 20
-24.66642637
 30
0.0
 11
69.80589303
 21
-24.66642637
 31
0.0
  0
LINE
  5
C6
100
AcDbEntity
  8
レイヤー_1
  6
CONTINUOUS
 62
       3
100
AcDbLine
 10
69.80589303
 20
-24.66642637
 30
0.0
 11
70.51844594
 21
-24.66642637
 31
0.0
  0
LINE
  5
C7
100
AcDbEntity
  8
レイヤー_1
  6
CONTINUOUS
 62
       3
100
AcDbLine
 10
70.51844594
 20
-24.66642637
 30
0.0
 11
71.39483966
 21
-24.66642637
 31
0.0
  0
LINE
  5
C8
100
AcDbEntity
  8
レイヤー_1
  6
CONTINUOUS
 62
       3
100
AcDbLine
 10
71.39483966
 20
-24.66642637
 30
0.0
 11
72.39797814
 21
-24.66642637
 31
0.0
  0
LINE
  5
C9
100
AcDbEntity
  8
レイヤー_1
  6
CONTINUOUS
 62
       3
100
AcDbLine
 10
72.39797814
 20
-24.66642637
 30
0.0
 11
73.49076536
 21
-24.66642637
 31
0.0
  0
LINE
  5
CA
100
AcDbEntity
  8
レイヤー_1
  6
CONTINUOUS
 62
       3
100
AcDbLine
 10
73.49076536
 20
-24.66642637
 30
0.0
 11
74.6361053
 21
-24.66642637
 31
0.0
  0
LINE
  5
CB
100
AcDbEntity
  8
レイヤー_1
  6
CONTINUOUS
 62
       3
100
AcDbLine
 10
74.6361053
 20
-24.66642637
 30
0.0
 11
75.79690191
 21
-24.66642637
 31
0.0
  0
LINE
  5
CC
100
AcDbEntity
  8
レイヤー_1
  6
CONTINUOUS
 62
       3
100
AcDbLine
 10
75.79690191
 20
-24.66642637
 30
0.0
 11
76.93605917
 21
-24.66642637
 31
0.0
  0
LINE
  5
CD
100
AcDbEntity
  8
レイヤー_1
  6
CONTINUOUS
 62
       3
100
AcDbLine
 10
76.93605917
 20
-24.66642637
 30
0.0
 11
78.01648105
 21
-24.66642637
 31
0.0
  0
LINE
  5
CE
100
AcDbEntity
  8
レイヤー_1
  6
CONTINUOUS
 62
       3
100
AcDbLine
 10
78.01648105
 20
-24.66642637
 30
0.0
 11
79.00107152
 21
-24.66642637
 31
0.0
  0
LINE
  5
CF
100
AcDbEntity
  8
レイヤー_1
  6
CONTINUOUS
 62
       3
100
AcDbLine
 10
79.00107152
 20
-24.66642637
 30
0.0
 11
79.85273454
 21
-24.66642637
 31
0.0
  0
LINE
  5
D0
100
AcDbEntity
  8
レイヤー_1
  6
CONTINUOUS
 62
       3
100
AcDbLine
 10
79.85273454
 20
-24.66642637
 30
0.0
 11
80.5343741
 21
-24.66642637
 31
0.0
  0
LINE
  5
D1
100
AcDbEntity
  8
レイヤー_1
  6
CONTINUOUS
 62
       3
100
AcDbLine
 10
80.5343741
 20
-24.66642637
 30
0.0
 11
81.00889415
 21
-24.66642637
 31
0.0
  0
LINE
  5
D2
100
AcDbEntity
  8
レイヤー_1
  6
CONTINUOUS
 62
       3
100
AcDbLine
 10
81.00889415
 20
-24.66642637
 30
0.0
 11
81.23919867
 21
-24.66642637
 31
0.0
  0
LINE
  5
D3
100
AcDbEntity
  8
レイヤー_1
  6
CONTINUOUS
 62
       3
100
AcDbLine
 10
81.23919867
 20
-24.66642637
 30
0.0
 11
81.25528507
 21
-24.65577991
 31
0.0
  0
LINE
  5
D4
100
AcDbEntity
  8
レイヤー_1
  6
CONTINUOUS
 62
       3
100
AcDbLine
 10
81.25528507
 20
-24.65577991
 30
0.0
 11
81.25528507
 21
-24.60276861
 31
0.0
  0
LINE
  5
D5
100
AcDbEntity
  8
レイヤー_1
  6
CONTINUOUS
 62
       3
100
AcDbLine
 10
81.25528507
 20
-24.60276861
 30
0.0
 11
81.25528507
 21
-24.510842
 31
0.0
  0
LINE
  5
D6
100
AcDbEntity
  8
レイヤー_1
  6
CONTINUOUS
 62
       3
100
AcDbLine
 10
81.25528507
 20
-24.510842
 30
0.0
 11
81.25528507
 21
-24.38622653
 31
0.0
  0
LINE
  5
D7
100
AcDbEntity
  8
レイヤー_1
  6
CONTINUOUS
 62
       3
100
AcDbLine
 10
81.25528507
 20
-24.38622653
 30
0.0
 11
81.25528507
 21
-24.23514865
 31
0.0
  0
LINE
  5
D8
100
AcDbEntity
  8
レイヤー_1
  6
CONTINUOUS
 62
       3
100
AcDbLine
 10
81.25528507
 20
-24.23514865
 30
0.0
 11
81.25528507
 21
-24.06383481
 31
0.0
  0
LINE
  5
D9
100
AcDbEntity
  8
レイヤー_1
  6
CONTINUOUS
 62
       3
100
AcDbLine
 10
81.25528507
 20
-24.06383481
 30
0.0
 11
81.25528507
 21
-23.87851146
 31
0.0
  0
LINE
  5
DA
100
AcDbEntity
  8
レイヤー_1
  6
CONTINUOUS
 62
       3
100
AcDbLine
 10
81.25528507
 20
-23.87851146
 30
0.0
 11
81.25528507
 21
-23.68540504
 31
0.0
  0
LINE
  5
DB
100
AcDbEntity
  8
レイヤー_1
  6
CONTINUOUS
 62
       3
100
AcDbLine
 10
81.25528507
 20
-23.68540504
 30
0.0
 11
81.25528507
 21
-23.49074201
 31
0.0
  0
LINE
  5
DC
100
AcDbEntity
  8
レイヤー_1
  6
CONTINUOUS
 62
       3
100
AcDbLine
 10
81.25528507
 20
-23.49074201
 30
0.0
 11
81.25528507
 21
-23.30074882
 31
0.0
  0
LINE
  5
DD
100
AcDbEntity
  8
レイヤー_1
  6
CONTINUOUS
 62
       3
100
AcDbLine
 10
81.25528507
 20
-23.30074882
 30
0.0
 11
81.25528507
 21
-23.12165192
 31
0.0
  0
LINE
  5
DE
100
AcDbEntity
  8
レイヤー_1
  6
CONTINUOUS
 62
       3
100
AcDbLine
 10
81.25528507
 20
-23.12165192
 30
0.0
 11
81.25528507
 21
-22.95967775
 31
0.0
  0
LINE
  5
DF
100
AcDbEntity
  8
レイヤー_1
  6
CONTINUOUS
 62
       3
100
AcDbLine
 10
81.25528507
 20
-22.95967775
 30
0.0
 11
81.25528507
 21
-22.82105277
 31
0.0
  0
LINE
  5
E0
100
AcDbEntity
  8
レイヤー_1
  6
CONTINUOUS
 62
       3
100
AcDbLine
 10
81.25528507
 20
-22.82105277
 30
0.0
 11
81.25528507
 21
-22.71200342
 31
0.0
  0
LINE
  5
E1
100
AcDbEntity
  8
レイヤー_1
  6
CONTINUOUS
 62
       3
100
AcDbLine
 10
81.25528507
 20
-22.71200342
 30
0.0
 11
81.25528507
 21
-22.63875616
 31
0.0
  0
LINE
  5
E2
100
AcDbEntity
  8
レイヤー_1
  6
CONTINUOUS
 62
       3
100
AcDbLine
 10
81.25528507
 20
-22.63875616
 30
0.0
 11
81.25528507
 21
-22.60753743
 31
0.0
  0
LINE
  5
E3
100
AcDbEntity
  8
レイヤー_1
  6
CONTINUOUS
 62
       3
100
AcDbLine
 10
81.25528507
 20
-22.60753743
 30
0.0
 11
81.21147734
 21
-22.59105336
 31
0.0
  0
LINE
  5
E4
100
AcDbEntity
  8
レイヤー_1
  6
CONTINUOUS
 62
       3
100
AcDbLine
 10
81.21147734
 20
-22.59105336
 30
0.0
 11
81.05250786
 21
-22.53370285
 31
0.0
  0
LINE
  5
E5
100
AcDbEntity
  8
レイヤー_1
  6
CONTINUOUS
 62
       3
100
AcDbLine
 10
81.05250786
 20
-22.53370285
 30
0.0
 11
80.79306416
 21
-22.44010485
 31
0.0
  0
LINE
  5
E6
100
AcDbEntity
  8
レイヤー_1
  6
CONTINUOUS
 62
       3
100
AcDbLine
 10
80.79306416
 20
-22.44010485
 30
0.0
 11
80.44966255
 21
-22.31621784
 31
0.0
  0
LINE
  5
E7
100
AcDbEntity
  8
レイヤー_1
  6
CONTINUOUS
 62
       3
100
AcDbLine
 10
80.44966255
 20
-22.31621784
 30
0.0
 11
80.03881934
 21
-22.16800031
 31
0.0
  0
LINE
  5
E8
100
AcDbEntity
  8
レイヤー_1
  6
CONTINUOUS
 62
       3
100
AcDbLine
 10
80.03881934
 20
-22.16800031
 30
0.0
 11
79.57705085
 21
-22.00141075
 31
0.0
  0
LINE
  5
E9
100
AcDbEntity
  8
レイヤー_1
  6
CONTINUOUS
 62
       3
100
AcDbLine
 10
79.57705085
 20
-22.00141075
 30
0.0
 11
79.08087338
 21
-21.82240767
 31
0.0
  0
LINE
  5
EA
100
AcDbEntity
  8
レイヤー_1
  6
CONTINUOUS
 62
       3
100
AcDbLine
 10
79.08087338
 20
-21.82240767
 30
0.0
 11
78.56680323
 21
-21.63694956
 31
0.0
  0
LINE
  5
EB
100
AcDbEntity
  8
レイヤー_1
  6
CONTINUOUS
 62
       3
100
AcDbLine
 10
78.56680323
 20
-21.63694956
 30
0.0
 11
78.05135673
 21
-21.4509949
 31
0.0
  0
LINE
  5
EC
100
AcDbEntity
  8
レイヤー_1
  6
CONTINUOUS
 62
       3
100
AcDbLine
 10
78.05135673
 20
-21.4509949
 30
0.0
 11
77.55105018
 21
-21.2705022
 31
0.0
  0
LINE
  5
ED
100
AcDbEntity
  8
レイヤー_1
  6
CONTINUOUS
 62
       3
100
AcDbLine
 10
77.55105018
 20
-21.2705022
 30
0.0
 11
77.08239989
 21
-21.10142994
 31
0.0
  0
LINE
  5
EE
100
AcDbEntity
  8
レイヤー_1
  6
CONTINUOUS
 62
       3
100
AcDbLine
 10
77.08239989
 20
-21.10142994
 30
0.0
 11
76.66192217
 21
-20.94973662
 31
0.0
  0
LINE
  5
EF
100
AcDbEntity
  8
レイヤー_1
  6
CONTINUOUS
 62
       3
100
AcDbLine
 10
76.66192217
 20
-20.94973662
 30
0.0
 11
76.30613333
 21
-20.82138074
 31
0.0
  0
LINE
  5
F0
100
AcDbEntity
  8
レイヤー_1
  6
CONTINUOUS
 62
       3
100
AcDbLine
 10
76.30613333
 20
-20.82138074
 30
0.0
 11
76.03154968
 21
-20.72232078
 31
0.0
  0
LINE
  5
F1
100
AcDbEntity
  8
レイヤー_1
  6
CONTINUOUS
 62
       3
100
AcDbLine
 10
76.03154968
 20
-20.72232078
 30
0.0
 11
75.85468753
 21
-20.65851525
 31
0.0
  0
LINE
  5
F2
100
AcDbEntity
  8
レイヤー_1
  6
CONTINUOUS
 62
       3
100
AcDbLine
 10
75.85468753
 20
-20.65851525
 30
0.0
 11
75.79206319
 21
-20.63592262
 31
0.0
  0
LINE
  5
F3
100
AcDbEntity
  8
レイヤー_1
  6
CONTINUOUS
 62
       3
100
AcDbLine
 10
78.18050986
 20
18.83321684
 30
0.0
 11
78.18050986
 21
18.77254164
 31
0.0
  0
LINE
  5
F4
100
AcDbEntity
  8
レイヤー_1
  6
CONTINUOUS
 62
       3
100
AcDbLine
 10
78.18050986
 20
18.77254164
 30
0.0
 11
78.18050986
 21
18.60062856
 31
0.0
  0
LINE
  5
F5
100
AcDbEntity
  8
レイヤー_1
  6
CONTINUOUS
 62
       3
100
AcDbLine
 10
78.18050986
 20
18.60062856
 30
0.0
 11
78.18050986
 21
18.33264642
 31
0.0
  0
LINE
  5
F6
100
AcDbEntity
  8
レイヤー_1
  6
CONTINUOUS
 62
       3
100
AcDbLine
 10
78.18050986
 20
18.33264642
 30
0.0
 11
78.18050986
 21
17.983764
 31
0.0
  0
LINE
  5
F7
100
AcDbEntity
  8
レイヤー_1
  6
CONTINUOUS
 62
       3
100
AcDbLine
 10
78.18050986
 20
17.983764
 30
0.0
 11
78.18050986
 21
17.56915011
 31
0.0
  0
LINE
  5
F8
100
AcDbEntity
  8
レイヤー_1
  6
CONTINUOUS
 62
       3
100
AcDbLine
 10
78.18050986
 20
17.56915011
 30
0.0
 11
78.18050986
 21
17.10397355
 31
0.0
  0
LINE
  5
F9
100
AcDbEntity
  8
レイヤー_1
  6
CONTINUOUS
 62
       3
100
AcDbLine
 10
78.18050986
 20
17.10397355
 30
0.0
 11
78.18050986
 21
16.60340312
 31
0.0
  0
LINE
  5
FA
100
AcDbEntity
  8
レイヤー_1
  6
CONTINUOUS
 62
       3
100
AcDbLine
 10
78.18050986
 20
16.60340312
 30
0.0
 11
78.18050986
 21
16.08260762
 31
0.0
  0
LINE
  5
FB
100
AcDbEntity
  8
レイヤー_1
  6
CONTINUOUS
 62
       3
100
AcDbLine
 10
78.18050986
 20
16.08260762
 30
0.0
 11
78.18050986
 21
15.55675586
 31
0.0
  0
LINE
  5
FC
100
AcDbEntity
  8
レイヤー_1
  6
CONTINUOUS
 62
       3
100
AcDbLine
 10
78.18050986
 20
15.55675586
 30
0.0
 11
78.18050986
 21
15.04101663
 31
0.0
  0
LINE
  5
FD
100
AcDbEntity
  8
レイヤー_1
  6
CONTINUOUS
 62
       3
100
AcDbLine
 10
78.18050986
 20
15.04101663
 30
0.0
 11
78.18050986
 21
14.55055874
 31
0.0
  0
LINE
  5
FE
100
AcDbEntity
  8
レイヤー_1
  6
CONTINUOUS
 62
       3
100
AcDbLine
 10
78.18050986
 20
14.55055874
 30
0.0
 11
78.18050986
 21
14.10055098
 31
0.0
  0
LINE
  5
FF
100
AcDbEntity
  8
レイヤー_1
  6
CONTINUOUS
 62
       3
100
AcDbLine
 10
78.18050986
 20
14.10055098
 30
0.0
 11
78.18050986
 21
13.70616215
 31
0.0
  0
LINE
  5
100
100
AcDbEntity
  8
レイヤー_1
  6
CONTINUOUS
 62
       3
100
AcDbLine
 10
78.18050986
 20
13.70616215
 30
0.0
 11
78.18050986
 21
13.38256107
 31
0.0
  0
LINE
  5
101
100
AcDbEntity
  8
レイヤー_1
  6
CONTINUOUS
 62
       3
100
AcDbLine
 10
78.18050986
 20
13.38256107
 30
0.0
 11
78.18050986
 21
13.14491652
 31
0.0
  0
LINE
  5
102
100
AcDbEntity
  8
レイヤー_1
  6
CONTINUOUS
 62
       3
100
AcDbLine
 10
78.18050986
 20
13.14491652
 30
0.0
 11
78.18050986
 21
13.00839731
 31
0.0
  0
LINE
  5
103
100
AcDbEntity
  8
レイヤー_1
  6
CONTINUOUS
 62
       3
100
AcDbLine
 10
78.18050986
 20
13.00839731
 30
0.0
 11
78.17916632
 21
12.98105602
 31
0.0
  0
LINE
  5
104
100
AcDbEntity
  8
レイヤー_1
  6
CONTINUOUS
 62
       3
100
AcDbLine
 10
78.17916632
 20
12.98105602
 30
0.0
 11
78.15988472
 21
12.98105602
 31
0.0
  0
LINE
  5
105
100
AcDbEntity
  8
レイヤー_1
  6
CONTINUOUS
 62
       3
100
AcDbLine
 10
78.15988472
 20
12.98105602
 30
0.0
 11
78.12001431
 21
12.98105602
 31
0.0
  0
LINE
  5
106
100
AcDbEntity
  8
レイヤー_1
  6
CONTINUOUS
 62
       3
100
AcDbLine
 10
78.12001431
 20
12.98105602
 30
0.0
 11
78.06249633
 21
12.98105602
 31
0.0
  0
LINE
  5
107
100
AcDbEntity
  8
レイヤー_1
  6
CONTINUOUS
 62
       3
100
AcDbLine
 10
78.06249633
 20
12.98105602
 30
0.0
 11
77.99027206
 21
12.98105602
 31
0.0
  0
LINE
  5
108
100
AcDbEntity
  8
レイヤー_1
  6
CONTINUOUS
 62
       3
100
AcDbLine
 10
77.99027206
 20
12.98105602
 30
0.0
 11
77.90628274
 21
12.98105602
 31
0.0
  0
LINE
  5
109
100
AcDbEntity
  8
レイヤー_1
  6
CONTINUOUS
 62
       3
100
AcDbLine
 10
77.90628274
 20
12.98105602
 30
0.0
 11
77.81346964
 21
12.98105602
 31
0.0
  0
LINE
  5
10A
100
AcDbEntity
  8
レイヤー_1
  6
CONTINUOUS
 62
       3
100
AcDbLine
 10
77.81346964
 20
12.98105602
 30
0.0
 11
77.71477403
 21
12.98105602
 31
0.0
  0
LINE
  5
10B
100
AcDbEntity
  8
レイヤー_1
  6
CONTINUOUS
 62
       3
100
AcDbLine
 10
77.71477403
 20
12.98105602
 30
0.0
 11
77.61313715
 21
12.98105602
 31
0.0
  0
LINE
  5
10C
100
AcDbEntity
  8
レイヤー_1
  6
CONTINUOUS
 62
       3
100
AcDbLine
 10
77.61313715
 20
12.98105602
 30
0.0
 11
77.51150027
 21
12.98105602
 31
0.0
  0
LINE
  5
10D
100
AcDbEntity
  8
レイヤー_1
  6
CONTINUOUS
 62
       3
100
AcDbLine
 10
77.51150027
 20
12.98105602
 30
0.0
 11
77.41280465
 21
12.98105602
 31
0.0
  0
LINE
  5
10E
100
AcDbEntity
  8
レイヤー_1
  6
CONTINUOUS
 62
       3
100
AcDbLine
 10
77.41280465
 20
12.98105602
 30
0.0
 11
77.31999156
 21
12.98105602
 31
0.0
  0
LINE
  5
10F
100
AcDbEntity
  8
レイヤー_1
  6
CONTINUOUS
 62
       3
100
AcDbLine
 10
77.31999156
 20
12.98105602
 30
0.0
 11
77.23600224
 21
12.98105602
 31
0.0
  0
LINE
  5
110
100
AcDbEntity
  8
レイヤー_1
  6
CONTINUOUS
 62
       3
100
AcDbLine
 10
77.23600224
 20
12.98105602
 30
0.0
 11
77.16377796
 21
12.98105602
 31
0.0
  0
LINE
  5
111
100
AcDbEntity
  8
レイヤー_1
  6
CONTINUOUS
 62
       3
100
AcDbLine
 10
77.16377796
 20
12.98105602
 30
0.0
 11
77.10625999
 21
12.98105602
 31
0.0
  0
LINE
  5
112
100
AcDbEntity
  8
レイヤー_1
  6
CONTINUOUS
 62
       3
100
AcDbLine
 10
77.10625999
 20
12.98105602
 30
0.0
 11
77.06638957
 21
12.98105602
 31
0.0
  0
LINE
  5
113
100
AcDbEntity
  8
レイヤー_1
  6
CONTINUOUS
 62
       3
100
AcDbLine
 10
77.06638957
 20
12.98105602
 30
0.0
 11
77.04710798
 21
12.98105602
 31
0.0
  0
LINE
  5
114
100
AcDbEntity
  8
レイヤー_1
  6
CONTINUOUS
 62
       3
100
AcDbLine
 10
77.04710798
 20
12.98105602
 30
0.0
 11
77.04636006
 21
12.99363916
 31
0.0
  0
LINE
  5
115
100
AcDbEntity
  8
レイヤー_1
  6
CONTINUOUS
 62
       3
100
AcDbLine
 10
77.04636006
 20
12.99363916
 30
0.0
 11
77.04701523
 21
13.05672622
 31
0.0
  0
LINE
  5
116
100
AcDbEntity
  8
レイヤー_1
  6
CONTINUOUS
 62
       3
100
AcDbLine
 10
77.04701523
 20
13.05672622
 30
0.0
 11
77.04263856
 21
13.16715722
 31
0.0
  0
LINE
  5
117
100
AcDbEntity
  8
レイヤー_1
  6
CONTINUOUS
 62
       3
100
AcDbLine
 10
77.04263856
 20
13.16715722
 30
0.0
 11
77.02789091
 21
13.3185074
 31
0.0
  0
LINE
  5
118
100
AcDbEntity
  8
レイヤー_1
  6
CONTINUOUS
 62
       3
100
AcDbLine
 10
77.02789091
 20
13.3185074
 30
0.0
 11
76.9974331
 21
13.50435201
 31
0.0
  0
LINE
  5
119
100
AcDbEntity
  8
レイヤー_1
  6
CONTINUOUS
 62
       3
100
AcDbLine
 10
76.9974331
 20
13.50435201
 30
0.0
 11
76.945926
 21
13.71826632
 31
0.0
  0
LINE
  5
11A
100
AcDbEntity
  8
レイヤー_1
  6
CONTINUOUS
 62
       3
100
AcDbLine
 10
76.945926
 20
13.71826632
 30
0.0
 11
76.86803042
 21
13.95382556
 31
0.0
  0
LINE
  5
11B
100
AcDbEntity
  8
レイヤー_1
  6
CONTINUOUS
 62
       3
100
AcDbLine
 10
76.86803042
 20
13.95382556
 30
0.0
 11
76.75840723
 21
14.204605
 31
0.0
  0
LINE
  5
11C
100
AcDbEntity
  8
レイヤー_1
  6
CONTINUOUS
 62
       3
100
AcDbLine
 10
76.75840723
 20
14.204605
 30
0.0
 11
76.61171725
 21
14.46417987
 31
0.0
  0
LINE
  5
11D
100
AcDbEntity
  8
レイヤー_1
  6
CONTINUOUS
 62
       3
100
AcDbLine
 10
76.61171725
 20
14.46417987
 30
0.0
 11
76.42262134
 21
14.72612544
 31
0.0
  0
LINE
  5
11E
100
AcDbEntity
  8
レイヤー_1
  6
CONTINUOUS
 62
       3
100
AcDbLine
 10
76.42262134
 20
14.72612544
 30
0.0
 11
76.18578034
 21
14.98401695
 31
0.0
  0
LINE
  5
11F
100
AcDbEntity
  8
レイヤー_1
  6
CONTINUOUS
 62
       3
100
AcDbLine
 10
76.18578034
 20
14.98401695
 30
0.0
 11
75.89585507
 21
15.23142965
 31
0.0
  0
LINE
  5
120
100
AcDbEntity
  8
レイヤー_1
  6
CONTINUOUS
 62
       3
100
AcDbLine
 10
75.89585507
 20
15.23142965
 30
0.0
 11
75.5475064
 21
15.4619388
 31
0.0
  0
LINE
  5
121
100
AcDbEntity
  8
レイヤー_1
  6
CONTINUOUS
 62
       3
100
AcDbLine
 10
75.5475064
 20
15.4619388
 30
0.0
 11
75.13539516
 21
15.66911964
 31
0.0
  0
LINE
  5
122
100
AcDbEntity
  8
レイヤー_1
  6
CONTINUOUS
 62
       3
100
AcDbLine
 10
75.13539516
 20
15.66911964
 30
0.0
 11
74.65418219
 21
15.84654744
 31
0.0
  0
LINE
  5
123
100
AcDbEntity
  8
レイヤー_1
  6
CONTINUOUS
 62
       3
100
AcDbLine
 10
74.65418219
 20
15.84654744
 30
0.0
 11
74.09852834
 21
15.98779743
 31
0.0
  0
LINE
  5
124
100
AcDbEntity
  8
レイヤー_1
  6
CONTINUOUS
 62
       3
100
AcDbLine
 10
74.09852834
 20
15.98779743
 30
0.0
 11
73.46309444
 21
16.08644487
 31
0.0
  0
LINE
  5
125
100
AcDbEntity
  8
レイヤー_1
  6
CONTINUOUS
 62
       3
100
AcDbLine
 10
-80.29782462
 20
43.52617503
 30
0.0
 11
-80.24104208
 21
43.7190195
 31
0.0
  0
LINE
  5
126
100
AcDbEntity
  8
レイヤー_1
  6
CONTINUOUS
 62
       3
100
AcDbLine
 10
-80.24104208
 20
43.7190195
 30
0.0
 11
-80.20433378
 21
43.91285391
 31
0.0
  0
LINE
  5
127
100
AcDbEntity
  8
レイヤー_1
  6
CONTINUOUS
 62
       3
100
AcDbLine
 10
-80.20433378
 20
43.91285391
 30
0.0
 11
-80.18711797
 21
44.10646216
 31
0.0
  0
LINE
  5
128
100
AcDbEntity
  8
レイヤー_1
  6
CONTINUOUS
 62
       3
100
AcDbLine
 10
-80.18711797
 20
44.10646216
 30
0.0
 11
-80.18881289
 21
44.29862815
 31
0.0
  0
LINE
  5
129
100
AcDbEntity
  8
レイヤー_1
  6
CONTINUOUS
 62
       3
100
AcDbLine
 10
-80.18881289
 20
44.29862815
 30
0.0
 11
-80.20883679
 21
44.48813578
 31
0.0
  0
LINE
  5
12A
100
AcDbEntity
  8
レイヤー_1
  6
CONTINUOUS
 62
       3
100
AcDbLine
 10
-80.20883679
 20
44.48813578
 30
0.0
 11
-80.24660792
 21
44.67376894
 31
0.0
  0
LINE
  5
12B
100
AcDbEntity
  8
レイヤー_1
  6
CONTINUOUS
 62
       3
100
AcDbLine
 10
-80.24660792
 20
44.67376894
 30
0.0
 11
-80.3015445
 21
44.85431154
 31
0.0
  0
LINE
  5
12C
100
AcDbEntity
  8
レイヤー_1
  6
CONTINUOUS
 62
       3
100
AcDbLine
 10
-80.3015445
 20
44.85431154
 30
0.0
 11
-80.3730648
 21
45.02854746
 31
0.0
  0
LINE
  5
12D
100
AcDbEntity
  8
レイヤー_1
  6
CONTINUOUS
 62
       3
100
AcDbLine
 10
-80.3730648
 20
45.02854746
 30
0.0
 11
-80.46058705
 21
45.19526062
 31
0.0
  0
LINE
  5
12E
100
AcDbEntity
  8
レイヤー_1
  6
CONTINUOUS
 62
       3
100
AcDbLine
 10
-80.46058705
 20
45.19526062
 30
0.0
 11
-80.5635295
 21
45.3532349
 31
0.0
  0
LINE
  5
12F
100
AcDbEntity
  8
レイヤー_1
  6
CONTINUOUS
 62
       3
100
AcDbLine
 10
-80.5635295
 20
45.3532349
 30
0.0
 11
-80.68131039
 21
45.50125421
 31
0.0
  0
LINE
  5
130
100
AcDbEntity
  8
レイヤー_1
  6
CONTINUOUS
 62
       3
100
AcDbLine
 10
-80.68131039
 20
45.50125421
 30
0.0
 11
-80.81334797
 21
45.63810243
 31
0.0
  0
LINE
  5
131
100
AcDbEntity
  8
レイヤー_1
  6
CONTINUOUS
 62
       3
100
AcDbLine
 10
-80.81334797
 20
45.63810243
 30
0.0
 11
-80.95906048
 21
45.76256348
 31
0.0
  0
LINE
  5
132
100
AcDbEntity
  8
レイヤー_1
  6
CONTINUOUS
 62
       3
100
AcDbLine
 10
-80.95906048
 20
45.76256348
 30
0.0
 11
-81.11786617
 21
45.87342125
 31
0.0
  0
LINE
  5
133
100
AcDbEntity
  8
レイヤー_1
  6
CONTINUOUS
 62
       3
100
AcDbLine
 10
-81.11786617
 20
45.87342125
 30
0.0
 11
-81.28918327
 21
45.96945963
 31
0.0
  0
LINE
  5
134
100
AcDbEntity
  8
レイヤー_1
  6
CONTINUOUS
 62
       3
100
AcDbLine
 10
-81.28918327
 20
45.96945963
 30
0.0
 11
-81.47243004
 21
46.04946253
 31
0.0
  0
LINE
  5
135
100
AcDbEntity
  8
レイヤー_1
  6
CONTINUOUS
 62
       3
100
AcDbLine
 10
-81.47243004
 20
46.04946253
 30
0.0
 11
-81.66445714
 21
46.11164802
 31
0.0
  0
LINE
  5
136
100
AcDbEntity
  8
レイヤー_1
  6
CONTINUOUS
 62
       3
100
AcDbLine
 10
-81.66445714
 20
46.11164802
 30
0.0
 11
-81.85808154
 21
46.15370842
 31
0.0
  0
LINE
  5
137
100
AcDbEntity
  8
レイヤー_1
  6
CONTINUOUS
 62
       3
100
AcDbLine
 10
-81.85808154
 20
46.15370842
 30
0.0
 11
-82.05180601
 21
46.17605782
 31
0.0
  0
LINE
  5
138
100
AcDbEntity
  8
レイヤー_1
  6
CONTINUOUS
 62
       3
100
AcDbLine
 10
-82.05180601
 20
46.17605782
 30
0.0
 11
-82.24441203
 21
46.17928164
 31
0.0
  0
LINE
  5
139
100
AcDbEntity
  8
レイヤー_1
  6
CONTINUOUS
 62
       3
100
AcDbLine
 10
-82.24441203
 20
46.17928164
 30
0.0
 11
-82.43468103
 21
46.16396531
 31
0.0
  0
LINE
  5
13A
100
AcDbEntity
  8
レイヤー_1
  6
CONTINUOUS
 62
       3
100
AcDbLine
 10
-82.43468103
 20
46.16396531
 30
0.0
 11
-82.62139448
 21
46.13069425
 31
0.0
  0
LINE
  5
13B
100
AcDbEntity
  8
レイヤー_1
  6
CONTINUOUS
 62
       3
100
AcDbLine
 10
-82.62139448
 20
46.13069425
 30
0.0
 11
-82.80333381
 21
46.08005388
 31
0.0
  0
LINE
  5
13C
100
AcDbEntity
  8
レイヤー_1
  6
CONTINUOUS
 62
       3
100
AcDbLine
 10
-82.80333381
 20
46.08005388
 30
0.0
 11
-82.97928049
 21
46.01262963
 31
0.0
  0
LINE
  5
13D
100
AcDbEntity
  8
レイヤー_1
  6
CONTINUOUS
 62
       3
100
AcDbLine
 10
-82.97928049
 20
46.01262963
 30
0.0
 11
-83.14801597
 21
45.92900693
 31
0.0
  0
LINE
  5
13E
100
AcDbEntity
  8
レイヤー_1
  6
CONTINUOUS
 62
       3
100
AcDbLine
 10
-83.14801597
 20
45.92900693
 30
0.0
 11
-83.30832169
 21
45.8297712
 31
0.0
  0
LINE
  5
13F
100
AcDbEntity
  8
レイヤー_1
  6
CONTINUOUS
 62
       3
100
AcDbLine
 10
-83.30832169
 20
45.8297712
 30
0.0
 11
-83.45897912
 21
45.71550786
 31
0.0
  0
LINE
  5
140
100
AcDbEntity
  8
レイヤー_1
  6
CONTINUOUS
 62
       3
100
AcDbLine
 10
-83.45897912
 20
45.71550786
 30
0.0
 11
-83.5987697
 21
45.58680235
 31
0.0
  0
LINE
  5
141
100
AcDbEntity
  8
レイヤー_1
  6
CONTINUOUS
 62
       3
100
AcDbLine
 10
-83.5987697
 20
45.58680235
 30
0.0
 11
-83.72647488
 21
45.44424008
 31
0.0
  0
LINE
  5
142
100
AcDbEntity
  8
レイヤー_1
  6
CONTINUOUS
 62
       3
100
AcDbLine
 10
-83.72647488
 20
45.44424008
 30
0.0
 11
-83.84087612
 21
45.28840648
 31
0.0
  0
LINE
  5
143
100
AcDbEntity
  8
レイヤー_1
  6
CONTINUOUS
 62
       3
100
AcDbLine
 10
-83.84087612
 20
45.28840648
 30
0.0
 11
-83.94075486
 21
45.11988697
 31
0.0
  0
LINE
  5
144
100
AcDbEntity
  8
レイヤー_1
  6
CONTINUOUS
 62
       3
100
AcDbLine
 10
-83.94075486
 20
45.11988697
 30
0.0
 11
-84.02489256
 21
44.93926699
 31
0.0
  0
LINE
  5
145
100
AcDbEntity
  8
レイヤー_1
  6
CONTINUOUS
 62
       3
100
AcDbLine
 10
-84.02489256
 20
44.93926699
 30
0.0
 11
-84.09174266
 21
44.7485094
 31
0.0
  0
LINE
  5
146
100
AcDbEntity
  8
レイヤー_1
  6
CONTINUOUS
 62
       3
100
AcDbLine
 10
-84.09174266
 20
44.7485094
 30
0.0
 11
-84.13863348
 21
44.55524799
 31
0.0
  0
LINE
  5
147
100
AcDbEntity
  8
レイヤー_1
  6
CONTINUOUS
 62
       3
100
AcDbLine
 10
-84.13863348
 20
44.55524799
 30
0.0
 11
-84.16569344
 21
44.36156678
 31
0.0
  0
LINE
  5
148
100
AcDbEntity
  8
レイヤー_1
  6
CONTINUOUS
 62
       3
100
AcDbLine
 10
-84.16569344
 20
44.36156678
 30
0.0
 11
-84.17350796
 21
44.16868308
 31
0.0
  0
LINE
  5
149
100
AcDbEntity
  8
レイヤー_1
  6
CONTINUOUS
 62
       3
100
AcDbLine
 10
-84.17350796
 20
44.16868308
 30
0.0
 11
-84.16266248
 21
43.97781423
 31
0.0
  0
LINE
  5
14A
100
AcDbEntity
  8
レイヤー_1
  6
CONTINUOUS
 62
       3
100
AcDbLine
 10
-84.16266248
 20
43.97781423
 30
0.0
 11
-84.1337424
 21
43.79017755
 31
0.0
  0
LINE
  5
14B
100
AcDbEntity
  8
レイヤー_1
  6
CONTINUOUS
 62
       3
100
AcDbLine
 10
-84.1337424
 20
43.79017755
 30
0.0
 11
-84.08733317
 21
43.60699037
 31
0.0
  0
LINE
  5
14C
100
AcDbEntity
  8
レイヤー_1
  6
CONTINUOUS
 62
       3
100
AcDbLine
 10
-84.08733317
 20
43.60699037
 30
0.0
 11
-84.0240202
 21
43.42947
 31
0.0
  0
LINE
  5
14D
100
AcDbEntity
  8
レイヤー_1
  6
CONTINUOUS
 62
       3
100
AcDbLine
 10
-84.0240202
 20
43.42947
 30
0.0
 11
-83.94438891
 21
43.25883378
 31
0.0
  0
LINE
  5
14E
100
AcDbEntity
  8
レイヤー_1
  6
CONTINUOUS
 62
       3
100
AcDbLine
 10
-83.94438891
 20
43.25883378
 30
0.0
 11
-83.84902474
 21
43.09629902
 31
0.0
  0
LINE
  5
14F
100
AcDbEntity
  8
レイヤー_1
  6
CONTINUOUS
 62
       3
100
AcDbLine
 10
-83.84902474
 20
43.09629902
 30
0.0
 11
-83.73851311
 21
42.94308307
 31
0.0
  0
LINE
  5
150
100
AcDbEntity
  8
レイヤー_1
  6
CONTINUOUS
 62
       3
100
AcDbLine
 10
-83.73851311
 20
42.94308307
 30
0.0
 11
-83.61343944
 21
42.80040323
 31
0.0
  0
LINE
  5
151
100
AcDbEntity
  8
レイヤー_1
  6
CONTINUOUS
 62
       3
100
AcDbLine
 10
-83.61343944
 20
42.80040323
 30
0.0
 11
-83.47438916
 21
42.66947683
 31
0.0
  0
LINE
  5
152
100
AcDbEntity
  8
レイヤー_1
  6
CONTINUOUS
 62
       3
100
AcDbLine
 10
-83.47438916
 20
42.66947683
 30
0.0
 11
-83.32194769
 21
42.55152121
 31
0.0
  0
LINE
  5
153
100
AcDbEntity
  8
レイヤー_1
  6
CONTINUOUS
 62
       3
100
AcDbLine
 10
-83.32194769
 20
42.55152121
 30
0.0
 11
-83.15670046
 21
42.44775368
 31
0.0
  0
LINE
  5
154
100
AcDbEntity
  8
レイヤー_1
  6
CONTINUOUS
 62
       3
100
AcDbLine
 10
-83.15670046
 20
42.44775368
 30
0.0
 11
-82.97923289
 21
42.35939157
 31
0.0
  0
LINE
  5
155
100
AcDbEntity
  8
レイヤー_1
  6
CONTINUOUS
 62
       3
100
AcDbLine
 10
-82.97923289
 20
42.35939157
 30
0.0
 11
-82.79047862
 21
42.2878272
 31
0.0
  0
LINE
  5
156
100
AcDbEntity
  8
レイヤー_1
  6
CONTINUOUS
 62
       3
100
AcDbLine
 10
-82.79047862
 20
42.2878272
 30
0.0
 11
-82.59750322
 21
42.23604291
 31
0.0
  0
LINE
  5
157
100
AcDbEntity
  8
レイヤー_1
  6
CONTINUOUS
 62
       3
100
AcDbLine
 10
-82.59750322
 20
42.23604291
 30
0.0
 11
-82.4037935
 21
42.20422616
 31
0.0
  0
LINE
  5
158
100
AcDbEntity
  8
レイヤー_1
  6
CONTINUOUS
 62
       3
100
AcDbLine
 10
-82.4037935
 20
42.20422616
 30
0.0
 11
-82.21056922
 21
42.19178907
 31
0.0
  0
LINE
  5
159
100
AcDbEntity
  8
レイヤー_1
  6
CONTINUOUS
 62
       3
100
AcDbLine
 10
-82.21056922
 20
42.19178907
 30
0.0
 11
-82.01905015
 21
42.19814377
 31
0.0
  0
LINE
  5
15A
100
AcDbEntity
  8
レイヤー_1
  6
CONTINUOUS
 62
       3
100
AcDbLine
 10
-82.01905015
 20
42.19814377
 30
0.0
 11
-81.83045606
 21
42.2227024
 31
0.0
  0
LINE
  5
15B
100
AcDbEntity
  8
レイヤー_1
  6
CONTINUOUS
 62
       3
100
AcDbLine
 10
-81.83045606
 20
42.2227024
 30
0.0
 11
-81.64600673
 21
42.26487707
 31
0.0
  0
LINE
  5
15C
100
AcDbEntity
  8
レイヤー_1
  6
CONTINUOUS
 62
       3
100
AcDbLine
 10
-81.64600673
 20
42.26487707
 30
0.0
 11
-81.46692193
 21
42.32407993
 31
0.0
  0
LINE
  5
15D
100
AcDbEntity
  8
レイヤー_1
  6
CONTINUOUS
 62
       3
100
AcDbLine
 10
-81.46692193
 20
42.32407993
 30
0.0
 11
-81.29442142
 21
42.39972309
 31
0.0
  0
LINE
  5
15E
100
AcDbEntity
  8
レイヤー_1
  6
CONTINUOUS
 62
       3
100
AcDbLine
 10
-81.29442142
 20
42.39972309
 30
0.0
 11
-81.12972498
 21
42.4912187
 31
0.0
  0
LINE
  5
15F
100
AcDbEntity
  8
レイヤー_1
  6
CONTINUOUS
 62
       3
100
AcDbLine
 10
-81.12972498
 20
42.4912187
 30
0.0
 11
-80.97405239
 21
42.59797887
 31
0.0
  0
LINE
  5
160
100
AcDbEntity
  8
レイヤー_1
  6
CONTINUOUS
 62
       3
100
AcDbLine
 10
-80.97405239
 20
42.59797887
 30
0.0
 11
-80.8286234
 21
42.71941574
 31
0.0
  0
LINE
  5
161
100
AcDbEntity
  8
レイヤー_1
  6
CONTINUOUS
 62
       3
100
AcDbLine
 10
-80.8286234
 20
42.71941574
 30
0.0
 11
-80.69465779
 21
42.85494143
 31
0.0
  0
LINE
  5
162
100
AcDbEntity
  8
レイヤー_1
  6
CONTINUOUS
 62
       3
100
AcDbLine
 10
-80.69465779
 20
42.85494143
 30
0.0
 11
-80.57337534
 21
43.00396808
 31
0.0
  0
LINE
  5
163
100
AcDbEntity
  8
レイヤー_1
  6
CONTINUOUS
 62
       3
100
AcDbLine
 10
-80.57337534
 20
43.00396808
 30
0.0
 11
-80.46599582
 21
43.16590781
 31
0.0
  0
LINE
  5
164
100
AcDbEntity
  8
レイヤー_1
  6
CONTINUOUS
 62
       3
100
AcDbLine
 10
-80.46599582
 20
43.16590781
 30
0.0
 11
-80.37373898
 21
43.34017275
 31
0.0
  0
LINE
  5
165
100
AcDbEntity
  8
レイヤー_1
  6
CONTINUOUS
 62
       3
100
AcDbLine
 10
-80.37373898
 20
43.34017275
 30
0.0
 11
-80.29782462
 21
43.52617503
 31
0.0
  0
LINE
  5
166
100
AcDbEntity
  8
レイヤー_1
  6
CONTINUOUS
 62
       3
100
AcDbLine
 10
-80.18557462
 20
28.35959702
 30
0.0
 11
-80.19185272
 21
28.50638706
 31
0.0
  0
LINE
  5
167
100
AcDbEntity
  8
レイヤー_1
  6
CONTINUOUS
 62
       3
100
AcDbLine
 10
-80.19185272
 20
28.50638706
 30
0.0
 11
-80.20883281
 21
28.65145117
 31
0.0
  0
LINE
  5
168
100
AcDbEntity
  8
レイヤー_1
  6
CONTINUOUS
 62
       3
100
AcDbLine
 10
-80.20883281
 20
28.65145117
 30
0.0
 11
-80.23625267
 21
28.79424106
 31
0.0
  0
LINE
  5
169
100
AcDbEntity
  8
レイヤー_1
  6
CONTINUOUS
 62
       3
100
AcDbLine
 10
-80.23625267
 20
28.79424106
 30
0.0
 11
-80.27385005
 21
28.93420847
 31
0.0
  0
LINE
  5
16A
100
AcDbEntity
  8
レイヤー_1
  6
CONTINUOUS
 62
       3
100
AcDbLine
 10
-80.27385005
 20
28.93420847
 30
0.0
 11
-80.32136272
 21
29.07080512
 31
0.0
  0
LINE
  5
16B
100
AcDbEntity
  8
レイヤー_1
  6
CONTINUOUS
 62
       3
100
AcDbLine
 10
-80.32136272
 20
29.07080512
 30
0.0
 11
-80.37852844
 21
29.20348273
 31
0.0
  0
LINE
  5
16C
100
AcDbEntity
  8
レイヤー_1
  6
CONTINUOUS
 62
       3
100
AcDbLine
 10
-80.37852844
 20
29.20348273
 30
0.0
 11
-80.44508499
 21
29.33169303
 31
0.0
  0
LINE
  5
16D
100
AcDbEntity
  8
レイヤー_1
  6
CONTINUOUS
 62
       3
100
AcDbLine
 10
-80.44508499
 20
29.33169303
 30
0.0
 11
-80.52077013
 21
29.45488775
 31
0.0
  0
LINE
  5
16E
100
AcDbEntity
  8
レイヤー_1
  6
CONTINUOUS
 62
       3
100
AcDbLine
 10
-80.52077013
 20
29.45488775
 30
0.0
 11
-80.60532161
 21
29.57251861
 31
0.0
  0
LINE
  5
16F
100
AcDbEntity
  8
レイヤー_1
  6
CONTINUOUS
 62
       3
100
AcDbLine
 10
-80.60532161
 20
29.57251861
 30
0.0
 11
-80.69847722
 21
29.68403734
 31
0.0
  0
LINE
  5
170
100
AcDbEntity
  8
レイヤー_1
  6
CONTINUOUS
 62
       3
100
AcDbLine
 10
-80.69847722
 20
29.68403734
 30
0.0
 11
-80.79997471
 21
29.78889566
 31
0.0
  0
LINE
  5
171
100
AcDbEntity
  8
レイヤー_1
  6
CONTINUOUS
 62
       3
100
AcDbLine
 10
-80.79997471
 20
29.78889566
 30
0.0
 11
-80.90955184
 21
29.8865453
 31
0.0
  0
LINE
  5
172
100
AcDbEntity
  8
レイヤー_1
  6
CONTINUOUS
 62
       3
100
AcDbLine
 10
-80.90955184
 20
29.8865453
 30
0.0
 11
-81.0269464
 21
29.97643798
 31
0.0
  0
LINE
  5
173
100
AcDbEntity
  8
レイヤー_1
  6
CONTINUOUS
 62
       3
100
AcDbLine
 10
-81.0269464
 20
29.97643798
 30
0.0
 11
-81.15189613
 21
30.05802543
 31
0.0
  0
LINE
  5
174
100
AcDbEntity
  8
レイヤー_1
  6
CONTINUOUS
 62
       3
100
AcDbLine
 10
-81.15189613
 20
30.05802543
 30
0.0
 11
-81.2841388
 21
30.13075938
 31
0.0
  0
LINE
  5
175
100
AcDbEntity
  8
レイヤー_1
  6
CONTINUOUS
 62
       3
100
AcDbLine
 10
-81.2841388
 20
30.13075938
 30
0.0
 11
-81.42341219
 21
30.19409155
 31
0.0
  0
LINE
  5
176
100
AcDbEntity
  8
レイヤー_1
  6
CONTINUOUS
 62
       3
100
AcDbLine
 10
-81.42341219
 20
30.19409155
 30
0.0
 11
-81.58249535
 21
30.25162985
 31
0.0
  0
LINE
  5
177
100
AcDbEntity
  8
レイヤー_1
  6
CONTINUOUS
 62
       3
100
AcDbLine
 10
-81.58249535
 20
30.25162985
 30
0.0
 11
-81.77086529
 21
30.30113057
 31
0.0
  0
LINE
  5
178
100
AcDbEntity
  8
レイヤー_1
  6
CONTINUOUS
 62
       3
100
AcDbLine
 10
-81.77086529
 20
30.30113057
 30
0.0
 11
-81.95985164
 21
30.33165567
 31
0.0
  0
LINE
  5
179
100
AcDbEntity
  8
レイヤー_1
  6
CONTINUOUS
 62
       3
100
AcDbLine
 10
-81.95985164
 20
30.33165567
 30
0.0
 11
-82.14832499
 21
30.34374777
 31
0.0
  0
LINE
  5
17A
100
AcDbEntity
  8
レイヤー_1
  6
CONTINUOUS
 62
       3
100
AcDbLine
 10
-82.14832499
 20
30.34374777
 30
0.0
 11
-82.3351559
 21
30.33794947
 31
0.0
  0
LINE
  5
17B
100
AcDbEntity
  8
レイヤー_1
  6
CONTINUOUS
 62
       3
100
AcDbLine
 10
-82.3351559
 20
30.33794947
 30
0.0
 11
-82.51921497
 21
30.31480338
 31
0.0
  0
LINE
  5
17C
100
AcDbEntity
  8
レイヤー_1
  6
CONTINUOUS
 62
       3
100
AcDbLine
 10
-82.51921497
 20
30.31480338
 30
0.0
 11
-82.69937275
 21
30.2748521
 31
0.0
  0
LINE
  5
17D
100
AcDbEntity
  8
レイヤー_1
  6
CONTINUOUS
 62
       3
100
AcDbLine
 10
-82.69937275
 20
30.2748521
 30
0.0
 11
-82.87449984
 21
30.21863825
 31
0.0
  0
LINE
  5
17E
100
AcDbEntity
  8
レイヤー_1
  6
CONTINUOUS
 62
       3
100
AcDbLine
 10
-82.87449984
 20
30.21863825
 30
0.0
 11
-83.04346681
 21
30.14670442
 31
0.0
  0
LINE
  5
17F
100
AcDbEntity
  8
レイヤー_1
  6
CONTINUOUS
 62
       3
100
AcDbLine
 10
-83.04346681
 20
30.14670442
 30
0.0
 11
-83.20514423
 21
30.05959323
 31
0.0
  0
LINE
  5
180
100
AcDbEntity
  8
レイヤー_1
  6
CONTINUOUS
 62
       3
100
AcDbLine
 10
-83.20514423
 20
30.05959323
 30
0.0
 11
-83.35840269
 21
29.95784727
 31
0.0
  0
LINE
  5
181
100
AcDbEntity
  8
レイヤー_1
  6
CONTINUOUS
 62
       3
100
AcDbLine
 10
-83.35840269
 20
29.95784727
 30
0.0
 11
-83.50211276
 21
29.84200917
 31
0.0
  0
LINE
  5
182
100
AcDbEntity
  8
レイヤー_1
  6
CONTINUOUS
 62
       3
100
AcDbLine
 10
-83.50211276
 20
29.84200917
 30
0.0
 11
-83.63514501
 21
29.71262152
 31
0.0
  0
LINE
  5
183
100
AcDbEntity
  8
レイヤー_1
  6
CONTINUOUS
 62
       3
100
AcDbLine
 10
-83.63514501
 20
29.71262152
 30
0.0
 11
-83.75637003
 21
29.57022693
 31
0.0
  0
LINE
  5
184
100
AcDbEntity
  8
レイヤー_1
  6
CONTINUOUS
 62
       3
100
AcDbLine
 10
-83.75637003
 20
29.57022693
 30
0.0
 11
-83.86465839
 21
29.415368
 31
0.0
  0
LINE
  5
185
100
AcDbEntity
  8
レイヤー_1
  6
CONTINUOUS
 62
       3
100
AcDbLine
 10
-83.86465839
 20
29.415368
 30
0.0
 11
-83.95888068
 21
29.24858735
 31
0.0
  0
LINE
  5
186
100
AcDbEntity
  8
レイヤー_1
  6
CONTINUOUS
 62
       3
100
AcDbLine
 10
-83.95888068
 20
29.24858735
 30
0.0
 11
-84.03790746
 21
29.07042758
 31
0.0
  0
LINE
  5
187
100
AcDbEntity
  8
レイヤー_1
  6
CONTINUOUS
 62
       3
100
AcDbLine
 10
-84.03790746
 20
29.07042758
 30
0.0
 11
-84.06951847
 21
28.98280022
 31
0.0
  0
LINE
  5
188
100
AcDbEntity
  8
レイヤー_1
  6
CONTINUOUS
 62
       3
100
AcDbLine
 10
-84.06951847
 20
28.98280022
 30
0.0
 11
-84.08208453
 21
28.94402006
 31
0.0
  0
LINE
  5
189
100
AcDbEntity
  8
レイヤー_1
  6
CONTINUOUS
 62
       3
100
AcDbLine
 10
-84.08208453
 20
28.94402006
 30
0.0
 11
-84.09382056
 21
28.90516432
 31
0.0
  0
LINE
  5
18A
100
AcDbEntity
  8
レイヤー_1
  6
CONTINUOUS
 62
       3
100
AcDbLine
 10
-84.09382056
 20
28.90516432
 30
0.0
 11
-84.10473109
 21
28.86624435
 31
0.0
  0
LINE
  5
18B
100
AcDbEntity
  8
レイヤー_1
  6
CONTINUOUS
 62
       3
100
AcDbLine
 10
-84.10473109
 20
28.86624435
 30
0.0
 11
-84.11482066
 21
28.82727148
 31
0.0
  0
LINE
  5
18C
100
AcDbEntity
  8
レイヤー_1
  6
CONTINUOUS
 62
       3
100
AcDbLine
 10
-84.11482066
 20
28.82727148
 30
0.0
 11
-84.1240938
 21
28.78825704
 31
0.0
  0
LINE
  5
18D
100
AcDbEntity
  8
レイヤー_1
  6
CONTINUOUS
 62
       3
100
AcDbLine
 10
-84.1240938
 20
28.78825704
 30
0.0
 11
-84.13255505
 21
28.74921238
 31
0.0
  0
LINE
  5
18E
100
AcDbEntity
  8
レイヤー_1
  6
CONTINUOUS
 62
       3
100
AcDbLine
 10
-84.13255505
 20
28.74921238
 30
0.0
 11
-84.14020893
 21
28.71014882
 31
0.0
  0
LINE
  5
18F
100
AcDbEntity
  8
レイヤー_1
  6
CONTINUOUS
 62
       3
100
AcDbLine
 10
-84.14020893
 20
28.71014882
 30
0.0
 11
-84.14705999
 21
28.6710777
 31
0.0
  0
LINE
  5
190
100
AcDbEntity
  8
レイヤー_1
  6
CONTINUOUS
 62
       3
100
AcDbLine
 10
-84.14705999
 20
28.6710777
 30
0.0
 11
-84.15311276
 21
28.63201037
 31
0.0
  0
LINE
  5
191
100
AcDbEntity
  8
レイヤー_1
  6
CONTINUOUS
 62
       3
100
AcDbLine
 10
-84.15311276
 20
28.63201037
 30
0.0
 11
-84.15837177
 21
28.59295815
 31
0.0
  0
LINE
  5
192
100
AcDbEntity
  8
レイヤー_1
  6
CONTINUOUS
 62
       3
100
AcDbLine
 10
-84.15837177
 20
28.59295815
 30
0.0
 11
-84.16284155
 21
28.55393237
 31
0.0
  0
LINE
  5
193
100
AcDbEntity
  8
レイヤー_1
  6
CONTINUOUS
 62
       3
100
AcDbLine
 10
-84.16284155
 20
28.55393237
 30
0.0
 11
-84.16652665
 21
28.51494439
 31
0.0
  0
LINE
  5
194
100
AcDbEntity
  8
レイヤー_1
  6
CONTINUOUS
 62
       3
100
AcDbLine
 10
-84.16652665
 20
28.51494439
 30
0.0
 11
-84.16943159
 21
28.47600552
 31
0.0
  0
LINE
  5
195
100
AcDbEntity
  8
レイヤー_1
  6
CONTINUOUS
 62
       3
100
AcDbLine
 10
-84.16943159
 20
28.47600552
 30
0.0
 11
-84.17156092
 21
28.43712711
 31
0.0
  0
LINE
  5
196
100
AcDbEntity
  8
レイヤー_1
  6
CONTINUOUS
 62
       3
100
AcDbLine
 10
-84.17156092
 20
28.43712711
 30
0.0
 11
-84.17291916
 21
28.3983205
 31
0.0
  0
LINE
  5
197
100
AcDbEntity
  8
レイヤー_1
  6
CONTINUOUS
 62
       3
100
AcDbLine
 10
-84.17291916
 20
28.3983205
 30
0.0
 11
-84.17351084
 21
28.35959702
 31
0.0
  0
LINE
  5
198
100
AcDbEntity
  8
レイヤー_1
  6
CONTINUOUS
 62
       3
100
AcDbLine
 10
-80.29782462
 20
38.13963302
 30
0.0
 11
-80.24104208
 21
38.33237646
 31
0.0
  0
LINE
  5
199
100
AcDbEntity
  8
レイヤー_1
  6
CONTINUOUS
 62
       3
100
AcDbLine
 10
-80.24104208
 20
38.33237646
 30
0.0
 11
-80.20433378
 21
38.5261231
 31
0.0
  0
LINE
  5
19A
100
AcDbEntity
  8
レイヤー_1
  6
CONTINUOUS
 62
       3
100
AcDbLine
 10
-80.20433378
 20
38.5261231
 30
0.0
 11
-80.18711797
 21
38.71965682
 31
0.0
  0
LINE
  5
19B
100
AcDbEntity
  8
レイヤー_1
  6
CONTINUOUS
 62
       3
100
AcDbLine
 10
-80.18711797
 20
38.71965682
 30
0.0
 11
-80.18881289
 21
38.91176153
 31
0.0
  0
LINE
  5
19C
100
AcDbEntity
  8
レイヤー_1
  6
CONTINUOUS
 62
       3
100
AcDbLine
 10
-80.18881289
 20
38.91176153
 30
0.0
 11
-80.20883679
 21
39.10122113
 31
0.0
  0
LINE
  5
19D
100
AcDbEntity
  8
レイヤー_1
  6
CONTINUOUS
 62
       3
100
AcDbLine
 10
-80.20883679
 20
39.10122113
 30
0.0
 11
-80.24660792
 21
39.28681951
 31
0.0
  0
LINE
  5
19E
100
AcDbEntity
  8
レイヤー_1
  6
CONTINUOUS
 62
       3
100
AcDbLine
 10
-80.24660792
 20
39.28681951
 30
0.0
 11
-80.3015445
 21
39.46734057
 31
0.0
  0
LINE
  5
19F
100
AcDbEntity
  8
レイヤー_1
  6
CONTINUOUS
 62
       3
100
AcDbLine
 10
-80.3015445
 20
39.46734057
 30
0.0
 11
-80.3730648
 21
39.64156822
 31
0.0
  0
LINE
  5
1A0
100
AcDbEntity
  8
レイヤー_1
  6
CONTINUOUS
 62
       3
100
AcDbLine
 10
-80.3730648
 20
39.64156822
 30
0.0
 11
-80.46058705
 21
39.80828634
 31
0.0
  0
LINE
  5
1A1
100
AcDbEntity
  8
レイヤー_1
  6
CONTINUOUS
 62
       3
100
AcDbLine
 10
-80.46058705
 20
39.80828634
 30
0.0
 11
-80.5635295
 21
39.96627884
 31
0.0
  0
LINE
  5
1A2
100
AcDbEntity
  8
レイヤー_1
  6
CONTINUOUS
 62
       3
100
AcDbLine
 10
-80.5635295
 20
39.96627884
 30
0.0
 11
-80.68131039
 21
40.11432961
 31
0.0
  0
LINE
  5
1A3
100
AcDbEntity
  8
レイヤー_1
  6
CONTINUOUS
 62
       3
100
AcDbLine
 10
-80.68131039
 20
40.11432961
 30
0.0
 11
-80.81334797
 21
40.25122256
 31
0.0
  0
LINE
  5
1A4
100
AcDbEntity
  8
レイヤー_1
  6
CONTINUOUS
 62
       3
100
AcDbLine
 10
-80.81334797
 20
40.25122256
 30
0.0
 11
-80.95906048
 21
40.37574158
 31
0.0
  0
LINE
  5
1A5
100
AcDbEntity
  8
レイヤー_1
  6
CONTINUOUS
 62
       3
100
AcDbLine
 10
-80.95906048
 20
40.37574158
 30
0.0
 11
-81.11786617
 21
40.48667056
 31
0.0
  0
LINE
  5
1A6
100
AcDbEntity
  8
レイヤー_1
  6
CONTINUOUS
 62
       3
100
AcDbLine
 10
-81.11786617
 20
40.48667056
 30
0.0
 11
-81.28918327
 21
40.58279341
 31
0.0
  0
LINE
  5
1A7
100
AcDbEntity
  8
レイヤー_1
  6
CONTINUOUS
 62
       3
100
AcDbLine
 10
-81.28918327
 20
40.58279341
 30
0.0
 11
-81.47243004
 21
40.66289402
 31
0.0
  0
LINE
  5
1A8
100
AcDbEntity
  8
レイヤー_1
  6
CONTINUOUS
 62
       3
100
AcDbLine
 10
-81.47243004
 20
40.66289402
 30
0.0
 11
-81.66445714
 21
40.725029
 31
0.0
  0
LINE
  5
1A9
100
AcDbEntity
  8
レイヤー_1
  6
CONTINUOUS
 62
       3
100
AcDbLine
 10
-81.66445714
 20
40.725029
 30
0.0
 11
-81.85808154
 21
40.76699831
 31
0.0
  0
LINE
  5
1AA
100
AcDbEntity
  8
レイヤー_1
  6
CONTINUOUS
 62
       3
100
AcDbLine
 10
-81.85808154
 20
40.76699831
 30
0.0
 11
-82.05180601
 21
40.78926987
 31
0.0
  0
LINE
  5
1AB
100
AcDbEntity
  8
レイヤー_1
  6
CONTINUOUS
 62
       3
100
AcDbLine
 10
-82.05180601
 20
40.78926987
 30
0.0
 11
-82.24441203
 21
40.7924291
 31
0.0
  0
LINE
  5
1AC
100
AcDbEntity
  8
レイヤー_1
  6
CONTINUOUS
 62
       3
100
AcDbLine
 10
-82.24441203
 20
40.7924291
 30
0.0
 11
-82.43468103
 21
40.77706142
 31
0.0
  0
LINE
  5
1AD
100
AcDbEntity
  8
レイヤー_1
  6
CONTINUOUS
 62
       3
100
AcDbLine
 10
-82.43468103
 20
40.77706142
 30
0.0
 11
-82.62139448
 21
40.74375227
 31
0.0
  0
LINE
  5
1AE
100
AcDbEntity
  8
レイヤー_1
  6
CONTINUOUS
 62
       3
100
AcDbLine
 10
-82.62139448
 20
40.74375227
 30
0.0
 11
-82.80333381
 21
40.69308705
 31
0.0
  0
LINE
  5
1AF
100
AcDbEntity
  8
レイヤー_1
  6
CONTINUOUS
 62
       3
100
AcDbLine
 10
-82.80333381
 20
40.69308705
 30
0.0
 11
-82.97928049
 21
40.62565121
 31
0.0
  0
LINE
  5
1B0
100
AcDbEntity
  8
レイヤー_1
  6
CONTINUOUS
 62
       3
100
AcDbLine
 10
-82.97928049
 20
40.62565121
 30
0.0
 11
-83.14801597
 21
40.54203017
 31
0.0
  0
LINE
  5
1B1
100
AcDbEntity
  8
レイヤー_1
  6
CONTINUOUS
 62
       3
100
AcDbLine
 10
-83.14801597
 20
40.54203017
 30
0.0
 11
-83.30832169
 21
40.44280934
 31
0.0
  0
LINE
  5
1B2
100
AcDbEntity
  8
レイヤー_1
  6
CONTINUOUS
 62
       3
100
AcDbLine
 10
-83.30832169
 20
40.44280934
 30
0.0
 11
-83.45897912
 21
40.32857416
 31
0.0
  0
LINE
  5
1B3
100
AcDbEntity
  8
レイヤー_1
  6
CONTINUOUS
 62
       3
100
AcDbLine
 10
-83.45897912
 20
40.32857416
 30
0.0
 11
-83.5987697
 21
40.19991005
 31
0.0
  0
LINE
  5
1B4
100
AcDbEntity
  8
レイヤー_1
  6
CONTINUOUS
 62
       3
100
AcDbLine
 10
-83.5987697
 20
40.19991005
 30
0.0
 11
-83.72647488
 21
40.05740244
 31
0.0
  0
LINE
  5
1B5
100
AcDbEntity
  8
レイヤー_1
  6
CONTINUOUS
 62
       3
100
AcDbLine
 10
-83.72647488
 20
40.05740244
 30
0.0
 11
-83.84087612
 21
39.90163674
 31
0.0
  0
LINE
  5
1B6
100
AcDbEntity
  8
レイヤー_1
  6
CONTINUOUS
 62
       3
100
AcDbLine
 10
-83.84087612
 20
39.90163674
 30
0.0
 11
-83.94075486
 21
39.73319839
 31
0.0
  0
LINE
  5
1B7
100
AcDbEntity
  8
レイヤー_1
  6
CONTINUOUS
 62
       3
100
AcDbLine
 10
-83.94075486
 20
39.73319839
 30
0.0
 11
-84.02489256
 21
39.55267281
 31
0.0
  0
LINE
  5
1B8
100
AcDbEntity
  8
レイヤー_1
  6
CONTINUOUS
 62
       3
100
AcDbLine
 10
-84.02489256
 20
39.55267281
 30
0.0
 11
-84.09174266
 21
39.3619405
 31
0.0
  0
LINE
  5
1B9
100
AcDbEntity
  8
レイヤー_1
  6
CONTINUOUS
 62
       3
100
AcDbLine
 10
-84.09174266
 20
39.3619405
 30
0.0
 11
-84.13863348
 21
39.16862593
 31
0.0
  0
LINE
  5
1BA
100
AcDbEntity
  8
レイヤー_1
  6
CONTINUOUS
 62
       3
100
AcDbLine
 10
-84.13863348
 20
39.16862593
 30
0.0
 11
-84.16569344
 21
38.97489338
 31
0.0
  0
LINE
  5
1BB
100
AcDbEntity
  8
レイヤー_1
  6
CONTINUOUS
 62
       3
100
AcDbLine
 10
-84.16569344
 20
38.97489338
 30
0.0
 11
-84.17350796
 21
38.78196142
 31
0.0
  0
LINE
  5
1BC
100
AcDbEntity
  8
レイヤー_1
  6
CONTINUOUS
 62
       3
100
AcDbLine
 10
-84.17350796
 20
38.78196142
 30
0.0
 11
-84.16266248
 21
38.59104858
 31
0.0
  0
LINE
  5
1BD
100
AcDbEntity
  8
レイヤー_1
  6
CONTINUOUS
 62
       3
100
AcDbLine
 10
-84.16266248
 20
38.59104858
 30
0.0
 11
-84.1337424
 21
38.40337341
 31
0.0
  0
LINE
  5
1BE
100
AcDbEntity
  8
レイヤー_1
  6
CONTINUOUS
 62
       3
100
AcDbLine
 10
-84.1337424
 20
38.40337341
 30
0.0
 11
-84.08733317
 21
38.22015446
 31
0.0
  0
LINE
  5
1BF
100
AcDbEntity
  8
レイヤー_1
  6
CONTINUOUS
 62
       3
100
AcDbLine
 10
-84.08733317
 20
38.22015446
 30
0.0
 11
-84.0240202
 21
38.04261029
 31
0.0
  0
LINE
  5
1C0
100
AcDbEntity
  8
レイヤー_1
  6
CONTINUOUS
 62
       3
100
AcDbLine
 10
-84.0240202
 20
38.04261029
 30
0.0
 11
-83.94438891
 21
37.87195943
 31
0.0
  0
LINE
  5
1C1
100
AcDbEntity
  8
レイヤー_1
  6
CONTINUOUS
 62
       3
100
AcDbLine
 10
-83.94438891
 20
37.87195943
 30
0.0
 11
-83.84902474
 21
37.70942043
 31
0.0
  0
LINE
  5
1C2
100
AcDbEntity
  8
レイヤー_1
  6
CONTINUOUS
 62
       3
100
AcDbLine
 10
-83.84902474
 20
37.70942043
 30
0.0
 11
-83.73851311
 21
37.55621185
 31
0.0
  0
LINE
  5
1C3
100
AcDbEntity
  8
レイヤー_1
  6
CONTINUOUS
 62
       3
100
AcDbLine
 10
-83.73851311
 20
37.55621185
 30
0.0
 11
-83.61343944
 21
37.41355223
 31
0.0
  0
LINE
  5
1C4
100
AcDbEntity
  8
レイヤー_1
  6
CONTINUOUS
 62
       3
100
AcDbLine
 10
-83.61343944
 20
37.41355223
 30
0.0
 11
-83.47438916
 21
37.28266012
 31
0.0
  0
LINE
  5
1C5
100
AcDbEntity
  8
レイヤー_1
  6
CONTINUOUS
 62
       3
100
AcDbLine
 10
-83.47438916
 20
37.28266012
 30
0.0
 11
-83.32194769
 21
37.16475406
 31
0.0
  0
LINE
  5
1C6
100
AcDbEntity
  8
レイヤー_1
  6
CONTINUOUS
 62
       3
100
AcDbLine
 10
-83.32194769
 20
37.16475406
 30
0.0
 11
-83.15670046
 21
37.06105262
 31
0.0
  0
LINE
  5
1C7
100
AcDbEntity
  8
レイヤー_1
  6
CONTINUOUS
 62
       3
100
AcDbLine
 10
-83.15670046
 20
37.06105262
 30
0.0
 11
-82.97923289
 21
36.97277432
 31
0.0
  0
LINE
  5
1C8
100
AcDbEntity
  8
レイヤー_1
  6
CONTINUOUS
 62
       3
100
AcDbLine
 10
-82.97923289
 20
36.97277432
 30
0.0
 11
-82.79047862
 21
36.90127214
 31
0.0
  0
LINE
  5
1C9
100
AcDbEntity
  8
レイヤー_1
  6
CONTINUOUS
 62
       3
100
AcDbLine
 10
-82.79047862
 20
36.90127214
 30
0.0
 11
-82.59750322
 21
36.84944357
 31
0.0
  0
LINE
  5
1CA
100
AcDbEntity
  8
レイヤー_1
  6
CONTINUOUS
 62
       3
100
AcDbLine
 10
-82.59750322
 20
36.84944357
 30
0.0
 11
-82.4037935
 21
36.81759425
 31
0.0
  0
LINE
  5
1CB
100
AcDbEntity
  8
レイヤー_1
  6
CONTINUOUS
 62
       3
100
AcDbLine
 10
-82.4037935
 20
36.81759425
 30
0.0
 11
-82.21056922
 21
36.8051351
 31
0.0
  0
LINE
  5
1CC
100
AcDbEntity
  8
レイヤー_1
  6
CONTINUOUS
 62
       3
100
AcDbLine
 10
-82.21056922
 20
36.8051351
 30
0.0
 11
-82.01905015
 21
36.81147701
 31
0.0
  0
LINE
  5
1CD
100
AcDbEntity
  8
レイヤー_1
  6
CONTINUOUS
 62
       3
100
AcDbLine
 10
-82.01905015
 20
36.81147701
 30
0.0
 11
-81.83045606
 21
36.8360309
 31
0.0
  0
LINE
  5
1CE
100
AcDbEntity
  8
レイヤー_1
  6
CONTINUOUS
 62
       3
100
AcDbLine
 10
-81.83045606
 20
36.8360309
 30
0.0
 11
-81.64600673
 21
36.87820766
 31
0.0
  0
LINE
  5
1CF
100
AcDbEntity
  8
レイヤー_1
  6
CONTINUOUS
 62
       3
100
AcDbLine
 10
-81.64600673
 20
36.87820766
 30
0.0
 11
-81.46692193
 21
36.93741821
 31
0.0
  0
LINE
  5
1D0
100
AcDbEntity
  8
レイヤー_1
  6
CONTINUOUS
 62
       3
100
AcDbLine
 10
-81.46692193
 20
36.93741821
 30
0.0
 11
-81.29442142
 21
37.01307346
 31
0.0
  0
LINE
  5
1D1
100
AcDbEntity
  8
レイヤー_1
  6
CONTINUOUS
 62
       3
100
AcDbLine
 10
-81.29442142
 20
37.01307346
 30
0.0
 11
-81.12972498
 21
37.1045843
 31
0.0
  0
LINE
  5
1D2
100
AcDbEntity
  8
レイヤー_1
  6
CONTINUOUS
 62
       3
100
AcDbLine
 10
-81.12972498
 20
37.1045843
 30
0.0
 11
-80.97405239
 21
37.21136164
 31
0.0
  0
LINE
  5
1D3
100
AcDbEntity
  8
レイヤー_1
  6
CONTINUOUS
 62
       3
100
AcDbLine
 10
-80.97405239
 20
37.21136164
 30
0.0
 11
-80.8286234
 21
37.3328164
 31
0.0
  0
LINE
  5
1D4
100
AcDbEntity
  8
レイヤー_1
  6
CONTINUOUS
 62
       3
100
AcDbLine
 10
-80.8286234
 20
37.3328164
 30
0.0
 11
-80.69465779
 21
37.46835947
 31
0.0
  0
LINE
  5
1D5
100
AcDbEntity
  8
レイヤー_1
  6
CONTINUOUS
 62
       3
100
AcDbLine
 10
-80.69465779
 20
37.46835947
 30
0.0
 11
-80.57337534
 21
37.61740176
 31
0.0
  0
LINE
  5
1D6
100
AcDbEntity
  8
レイヤー_1
  6
CONTINUOUS
 62
       3
100
AcDbLine
 10
-80.57337534
 20
37.61740176
 30
0.0
 11
-80.46599582
 21
37.77935418
 31
0.0
  0
LINE
  5
1D7
100
AcDbEntity
  8
レイヤー_1
  6
CONTINUOUS
 62
       3
100
AcDbLine
 10
-80.46599582
 20
37.77935418
 30
0.0
 11
-80.37373898
 21
37.95362763
 31
0.0
  0
LINE
  5
1D8
100
AcDbEntity
  8
レイヤー_1
  6
CONTINUOUS
 62
       3
100
AcDbLine
 10
-80.37373898
 20
37.95362763
 30
0.0
 11
-80.29782462
 21
38.13963302
 31
0.0
  0
LINE
  5
1D9
100
AcDbEntity
  8
レイヤー_1
  6
CONTINUOUS
 62
       3
100
AcDbLine
 10
-80.18557462
 20
-29.12027296
 30
0.0
 11
-80.19185272
 21
-29.26706301
 31
0.0
  0
LINE
  5
1DA
100
AcDbEntity
  8
レイヤー_1
  6
CONTINUOUS
 62
       3
100
AcDbLine
 10
-80.19185272
 20
-29.26706301
 30
0.0
 11
-80.20883281
 21
-29.41212711
 31
0.0
  0
LINE
  5
1DB
100
AcDbEntity
  8
レイヤー_1
  6
CONTINUOUS
 62
       3
100
AcDbLine
 10
-80.20883281
 20
-29.41212711
 30
0.0
 11
-80.23625267
 21
-29.55491701
 31
0.0
  0
LINE
  5
1DC
100
AcDbEntity
  8
レイヤー_1
  6
CONTINUOUS
 62
       3
100
AcDbLine
 10
-80.23625267
 20
-29.55491701
 30
0.0
 11
-80.27385005
 21
-29.69488442
 31
0.0
  0
LINE
  5
1DD
100
AcDbEntity
  8
レイヤー_1
  6
CONTINUOUS
 62
       3
100
AcDbLine
 10
-80.27385005
 20
-29.69488442
 30
0.0
 11
-80.32136272
 21
-29.83148107
 31
0.0
  0
LINE
  5
1DE
100
AcDbEntity
  8
レイヤー_1
  6
CONTINUOUS
 62
       3
100
AcDbLine
 10
-80.32136272
 20
-29.83148107
 30
0.0
 11
-80.37852844
 21
-29.96415868
 31
0.0
  0
LINE
  5
1DF
100
AcDbEntity
  8
レイヤー_1
  6
CONTINUOUS
 62
       3
100
AcDbLine
 10
-80.37852844
 20
-29.96415868
 30
0.0
 11
-80.44508499
 21
-30.09236898
 31
0.0
  0
LINE
  5
1E0
100
AcDbEntity
  8
レイヤー_1
  6
CONTINUOUS
 62
       3
100
AcDbLine
 10
-80.44508499
 20
-30.09236898
 30
0.0
 11
-80.52077013
 21
-30.2155637
 31
0.0
  0
LINE
  5
1E1
100
AcDbEntity
  8
レイヤー_1
  6
CONTINUOUS
 62
       3
100
AcDbLine
 10
-80.52077013
 20
-30.2155637
 30
0.0
 11
-80.60532161
 21
-30.33319456
 31
0.0
  0
LINE
  5
1E2
100
AcDbEntity
  8
レイヤー_1
  6
CONTINUOUS
 62
       3
100
AcDbLine
 10
-80.60532161
 20
-30.33319456
 30
0.0
 11
-80.69847722
 21
-30.44471329
 31
0.0
  0
LINE
  5
1E3
100
AcDbEntity
  8
レイヤー_1
  6
CONTINUOUS
 62
       3
100
AcDbLine
 10
-80.69847722
 20
-30.44471329
 30
0.0
 11
-80.79997471
 21
-30.54957161
 31
0.0
  0
LINE
  5
1E4
100
AcDbEntity
  8
レイヤー_1
  6
CONTINUOUS
 62
       3
100
AcDbLine
 10
-80.79997471
 20
-30.54957161
 30
0.0
 11
-80.90955184
 21
-30.64722125
 31
0.0
  0
LINE
  5
1E5
100
AcDbEntity
  8
レイヤー_1
  6
CONTINUOUS
 62
       3
100
AcDbLine
 10
-80.90955184
 20
-30.64722125
 30
0.0
 11
-81.0269464
 21
-30.73711393
 31
0.0
  0
LINE
  5
1E6
100
AcDbEntity
  8
レイヤー_1
  6
CONTINUOUS
 62
       3
100
AcDbLine
 10
-81.0269464
 20
-30.73711393
 30
0.0
 11
-81.15189613
 21
-30.81870138
 31
0.0
  0
LINE
  5
1E7
100
AcDbEntity
  8
レイヤー_1
  6
CONTINUOUS
 62
       3
100
AcDbLine
 10
-81.15189613
 20
-30.81870138
 30
0.0
 11
-81.2841388
 21
-30.89143533
 31
0.0
  0
LINE
  5
1E8
100
AcDbEntity
  8
レイヤー_1
  6
CONTINUOUS
 62
       3
100
AcDbLine
 10
-81.2841388
 20
-30.89143533
 30
0.0
 11
-81.42341219
 21
-30.95476749
 31
0.0
  0
LINE
  5
1E9
100
AcDbEntity
  8
レイヤー_1
  6
CONTINUOUS
 62
       3
100
AcDbLine
 10
-81.42341219
 20
-30.95476749
 30
0.0
 11
-81.58249535
 21
-31.012289
 31
0.0
  0
LINE
  5
1EA
100
AcDbEntity
  8
レイヤー_1
  6
CONTINUOUS
 62
       3
100
AcDbLine
 10
-81.58249535
 20
-31.012289
 30
0.0
 11
-81.77086529
 21
-31.06174729
 31
0.0
  0
LINE
  5
1EB
100
AcDbEntity
  8
レイヤー_1
  6
CONTINUOUS
 62
       3
100
AcDbLine
 10
-81.77086529
 20
-31.06174729
 30
0.0
 11
-81.95985164
 21
-31.09224105
 31
0.0
  0
LINE
  5
1EC
100
AcDbEntity
  8
レイヤー_1
  6
CONTINUOUS
 62
       3
100
AcDbLine
 10
-81.95985164
 20
-31.09224105
 30
0.0
 11
-82.14832499
 21
-31.10431176
 31
0.0
  0
LINE
  5
1ED
100
AcDbEntity
  8
レイヤー_1
  6
CONTINUOUS
 62
       3
100
AcDbLine
 10
-82.14832499
 20
-31.10431176
 30
0.0
 11
-82.3351559
 21
-31.09850088
 31
0.0
  0
LINE
  5
1EE
100
AcDbEntity
  8
レイヤー_1
  6
CONTINUOUS
 62
       3
100
AcDbLine
 10
-82.3351559
 20
-31.09850088
 30
0.0
 11
-82.51921497
 21
-31.0753499
 31
0.0
  0
LINE
  5
1EF
100
AcDbEntity
  8
レイヤー_1
  6
CONTINUOUS
 62
       3
100
AcDbLine
 10
-82.51921497
 20
-31.0753499
 30
0.0
 11
-82.69937275
 21
-31.03540028
 31
0.0
  0
LINE
  5
1F0
100
AcDbEntity
  8
レイヤー_1
  6
CONTINUOUS
 62
       3
100
AcDbLine
 10
-82.69937275
 20
-31.03540028
 30
0.0
 11
-82.87449984
 21
-30.9791935
 31
0.0
  0
LINE
  5
1F1
100
AcDbEntity
  8
レイヤー_1
  6
CONTINUOUS
 62
       3
100
AcDbLine
 10
-82.87449984
 20
-30.9791935
 30
0.0
 11
-83.04346681
 21
-30.90727103
 31
0.0
  0
LINE
  5
1F2
100
AcDbEntity
  8
レイヤー_1
  6
CONTINUOUS
 62
       3
100
AcDbLine
 10
-83.04346681
 20
-30.90727103
 30
0.0
 11
-83.20514423
 21
-30.82017434
 31
0.0
  0
LINE
  5
1F3
100
AcDbEntity
  8
レイヤー_1
  6
CONTINUOUS
 62
       3
100
AcDbLine
 10
-83.20514423
 20
-30.82017434
 30
0.0
 11
-83.35840269
 21
-30.71844491
 31
0.0
  0
LINE
  5
1F4
100
AcDbEntity
  8
レイヤー_1
  6
CONTINUOUS
 62
       3
100
AcDbLine
 10
-83.35840269
 20
-30.71844491
 30
0.0
 11
-83.50211276
 21
-30.60262421
 31
0.0
  0
LINE
  5
1F5
100
AcDbEntity
  8
レイヤー_1
  6
CONTINUOUS
 62
       3
100
AcDbLine
 10
-83.50211276
 20
-30.60262421
 30
0.0
 11
-83.63514501
 21
-30.47325371
 31
0.0
  0
LINE
  5
1F6
100
AcDbEntity
  8
レイヤー_1
  6
CONTINUOUS
 62
       3
100
AcDbLine
 10
-83.63514501
 20
-30.47325371
 30
0.0
 11
-83.75637003
 21
-30.33087488
 31
0.0
  0
LINE
  5
1F7
100
AcDbEntity
  8
レイヤー_1
  6
CONTINUOUS
 62
       3
100
AcDbLine
 10
-83.75637003
 20
-30.33087488
 30
0.0
 11
-83.86465839
 21
-30.17602921
 31
0.0
  0
LINE
  5
1F8
100
AcDbEntity
  8
レイヤー_1
  6
CONTINUOUS
 62
       3
100
AcDbLine
 10
-83.86465839
 20
-30.17602921
 30
0.0
 11
-83.95888068
 21
-30.00925815
 31
0.0
  0
LINE
  5
1F9
100
AcDbEntity
  8
レイヤー_1
  6
CONTINUOUS
 62
       3
100
AcDbLine
 10
-83.95888068
 20
-30.00925815
 30
0.0
 11
-84.03790746
 21
-29.83110319
 31
0.0
  0
LINE
  5
1FA
100
AcDbEntity
  8
レイヤー_1
  6
CONTINUOUS
 62
       3
100
AcDbLine
 10
-84.03790746
 20
-29.83110319
 30
0.0
 11
-84.06951847
 21
-29.74347617
 31
0.0
  0
LINE
  5
1FB
100
AcDbEntity
  8
レイヤー_1
  6
CONTINUOUS
 62
       3
100
AcDbLine
 10
-84.06951847
 20
-29.74347617
 30
0.0
 11
-84.08208453
 21
-29.70469601
 31
0.0
  0
LINE
  5
1FC
100
AcDbEntity
  8
レイヤー_1
  6
CONTINUOUS
 62
       3
100
AcDbLine
 10
-84.08208453
 20
-29.70469601
 30
0.0
 11
-84.09382056
 21
-29.66584027
 31
0.0
  0
LINE
  5
1FD
100
AcDbEntity
  8
レイヤー_1
  6
CONTINUOUS
 62
       3
100
AcDbLine
 10
-84.09382056
 20
-29.66584027
 30
0.0
 11
-84.10473109
 21
-29.6269203
 31
0.0
  0
LINE
  5
1FE
100
AcDbEntity
  8
レイヤー_1
  6
CONTINUOUS
 62
       3
100
AcDbLine
 10
-84.10473109
 20
-29.6269203
 30
0.0
 11
-84.11482066
 21
-29.58794743
 31
0.0
  0
LINE
  5
1FF
100
AcDbEntity
  8
レイヤー_1
  6
CONTINUOUS
 62
       3
100
AcDbLine
 10
-84.11482066
 20
-29.58794743
 30
0.0
 11
-84.1240938
 21
-29.54893299
 31
0.0
  0
LINE
  5
200
100
AcDbEntity
  8
レイヤー_1
  6
CONTINUOUS
 62
       3
100
AcDbLine
 10
-84.1240938
 20
-29.54893299
 30
0.0
 11
-84.13255505
 21
-29.50988833
 31
0.0
  0
LINE
  5
201
100
AcDbEntity
  8
レイヤー_1
  6
CONTINUOUS
 62
       3
100
AcDbLine
 10
-84.13255505
 20
-29.50988833
 30
0.0
 11
-84.14020893
 21
-29.47082477
 31
0.0
  0
LINE
  5
202
100
AcDbEntity
  8
レイヤー_1
  6
CONTINUOUS
 62
       3
100
AcDbLine
 10
-84.14020893
 20
-29.47082477
 30
0.0
 11
-84.14705999
 21
-29.43175365
 31
0.0
  0
LINE
  5
203
100
AcDbEntity
  8
レイヤー_1
  6
CONTINUOUS
 62
       3
100
AcDbLine
 10
-84.14705999
 20
-29.43175365
 30
0.0
 11
-84.15311276
 21
-29.39268632
 31
0.0
  0
LINE
  5
204
100
AcDbEntity
  8
レイヤー_1
  6
CONTINUOUS
 62
       3
100
AcDbLine
 10
-84.15311276
 20
-29.39268632
 30
0.0
 11
-84.15837177
 21
-29.35363409
 31
0.0
  0
LINE
  5
205
100
AcDbEntity
  8
レイヤー_1
  6
CONTINUOUS
 62
       3
100
AcDbLine
 10
-84.15837177
 20
-29.35363409
 30
0.0
 11
-84.16284155
 21
-29.31460832
 31
0.0
  0
LINE
  5
206
100
AcDbEntity
  8
レイヤー_1
  6
CONTINUOUS
 62
       3
100
AcDbLine
 10
-84.16284155
 20
-29.31460832
 30
0.0
 11
-84.16652665
 21
-29.27562033
 31
0.0
  0
LINE
  5
207
100
AcDbEntity
  8
レイヤー_1
  6
CONTINUOUS
 62
       3
100
AcDbLine
 10
-84.16652665
 20
-29.27562033
 30
0.0
 11
-84.16943159
 21
-29.23668147
 31
0.0
  0
LINE
  5
208
100
AcDbEntity
  8
レイヤー_1
  6
CONTINUOUS
 62
       3
100
AcDbLine
 10
-84.16943159
 20
-29.23668147
 30
0.0
 11
-84.17156092
 21
-29.19780306
 31
0.0
  0
LINE
  5
209
100
AcDbEntity
  8
レイヤー_1
  6
CONTINUOUS
 62
       3
100
AcDbLine
 10
-84.17156092
 20
-29.19780306
 30
0.0
 11
-84.17291916
 21
-29.15899645
 31
0.0
  0
LINE
  5
20A
100
AcDbEntity
  8
レイヤー_1
  6
CONTINUOUS
 62
       3
100
AcDbLine
 10
-84.17291916
 20
-29.15899645
 30
0.0
 11
-84.17351084
 21
-29.12027296
 31
0.0
  0
LINE
  5
20B
100
AcDbEntity
  8
レイヤー_1
  6
CONTINUOUS
 62
       3
100
AcDbLine
 10
-80.29782462
 20
-38.90030897
 30
0.0
 11
-80.24104208
 21
-39.09300501
 31
0.0
  0
LINE
  5
20C
100
AcDbEntity
  8
レイヤー_1
  6
CONTINUOUS
 62
       3
100
AcDbLine
 10
-80.24104208
 20
-39.09300501
 30
0.0
 11
-80.20433378
 21
-39.28671626
 31
0.0
  0
LINE
  5
20D
100
AcDbEntity
  8
レイヤー_1
  6
CONTINUOUS
 62
       3
100
AcDbLine
 10
-80.20433378
 20
-39.28671626
 30
0.0
 11
-80.18711797
 21
-39.48022541
 31
0.0
  0
LINE
  5
20E
100
AcDbEntity
  8
レイヤー_1
  6
CONTINUOUS
 62
       3
100
AcDbLine
 10
-80.18711797
 20
-39.48022541
 30
0.0
 11
-80.18881289
 21
-39.67231512
 31
0.0
  0
LINE
  5
20F
100
AcDbEntity
  8
レイヤー_1
  6
CONTINUOUS
 62
       3
100
AcDbLine
 10
-80.18881289
 20
-39.67231512
 30
0.0
 11
-80.20883679
 21
-39.86176808
 31
0.0
  0
LINE
  5
210
100
AcDbEntity
  8
レイヤー_1
  6
CONTINUOUS
 62
       3
100
AcDbLine
 10
-80.20883679
 20
-39.86176808
 30
0.0
 11
-80.24660792
 21
-40.04736696
 31
0.0
  0
LINE
  5
211
100
AcDbEntity
  8
レイヤー_1
  6
CONTINUOUS
 62
       3
100
AcDbLine
 10
-80.24660792
 20
-40.04736696
 30
0.0
 11
-80.3015445
 21
-40.22789443
 31
0.0
  0
LINE
  5
212
100
AcDbEntity
  8
レイヤー_1
  6
CONTINUOUS
 62
       3
100
AcDbLine
 10
-80.3015445
 20
-40.22789443
 30
0.0
 11
-80.3730648
 21
-40.40213318
 31
0.0
  0
LINE
  5
213
100
AcDbEntity
  8
レイヤー_1
  6
CONTINUOUS
 62
       3
100
AcDbLine
 10
-80.3730648
 20
-40.40213318
 30
0.0
 11
-80.46058705
 21
-40.56886586
 31
0.0
  0
LINE
  5
214
100
AcDbEntity
  8
レイヤー_1
  6
CONTINUOUS
 62
       3
100
AcDbLine
 10
-80.46058705
 20
-40.56886586
 30
0.0
 11
-80.5635295
 21
-40.72687516
 31
0.0
  0
LINE
  5
215
100
AcDbEntity
  8
レイヤー_1
  6
CONTINUOUS
 62
       3
100
AcDbLine
 10
-80.5635295
 20
-40.72687516
 30
0.0
 11
-80.68131039
 21
-40.87494376
 31
0.0
  0
LINE
  5
216
100
AcDbEntity
  8
レイヤー_1
  6
CONTINUOUS
 62
       3
100
AcDbLine
 10
-80.68131039
 20
-40.87494376
 30
0.0
 11
-80.81334797
 21
-41.01185432
 31
0.0
  0
LINE
  5
217
100
AcDbEntity
  8
レイヤー_1
  6
CONTINUOUS
 62
       3
100
AcDbLine
 10
-80.81334797
 20
-41.01185432
 30
0.0
 11
-80.95906048
 21
-41.13638953
 31
0.0
  0
LINE
  5
218
100
AcDbEntity
  8
レイヤー_1
  6
CONTINUOUS
 62
       3
100
AcDbLine
 10
-80.95906048
 20
-41.13638953
 30
0.0
 11
-81.11786617
 21
-41.24733206
 31
0.0
  0
LINE
  5
219
100
AcDbEntity
  8
レイヤー_1
  6
CONTINUOUS
 62
       3
100
AcDbLine
 10
-81.11786617
 20
-41.24733206
 30
0.0
 11
-81.28918327
 21
-41.34346458
 31
0.0
  0
LINE
  5
21A
100
AcDbEntity
  8
レイヤー_1
  6
CONTINUOUS
 62
       3
100
AcDbLine
 10
-81.28918327
 20
-41.34346458
 30
0.0
 11
-81.47243004
 21
-41.42356977
 31
0.0
  0
LINE
  5
21B
100
AcDbEntity
  8
レイヤー_1
  6
CONTINUOUS
 62
       3
100
AcDbLine
 10
-81.47243004
 20
-41.42356977
 30
0.0
 11
-81.66445714
 21
-41.48566821
 31
0.0
  0
LINE
  5
21C
100
AcDbEntity
  8
レイヤー_1
  6
CONTINUOUS
 62
       3
100
AcDbLine
 10
-81.66445714
 20
-41.48566821
 30
0.0
 11
-81.85808154
 21
-41.52759926
 31
0.0
  0
LINE
  5
21D
100
AcDbEntity
  8
レイヤー_1
  6
CONTINUOUS
 62
       3
100
AcDbLine
 10
-81.85808154
 20
-41.52759926
 30
0.0
 11
-82.05180601
 21
-41.54984365
 31
0.0
  0
LINE
  5
21E
100
AcDbEntity
  8
レイヤー_1
  6
CONTINUOUS
 62
       3
100
AcDbLine
 10
-82.05180601
 20
-41.54984365
 30
0.0
 11
-82.24441203
 21
-41.55298561
 31
0.0
  0
LINE
  5
21F
100
AcDbEntity
  8
レイヤー_1
  6
CONTINUOUS
 62
       3
100
AcDbLine
 10
-82.24441203
 20
-41.55298561
 30
0.0
 11
-82.43468103
 21
-41.53760932
 31
0.0
  0
LINE
  5
220
100
AcDbEntity
  8
レイヤー_1
  6
CONTINUOUS
 62
       3
100
AcDbLine
 10
-82.43468103
 20
-41.53760932
 30
0.0
 11
-82.62139448
 21
-41.50429899
 31
0.0
  0
LINE
  5
221
100
AcDbEntity
  8
レイヤー_1
  6
CONTINUOUS
 62
       3
100
AcDbLine
 10
-82.62139448
 20
-41.50429899
 30
0.0
 11
-82.80333381
 21
-41.45363883
 31
0.0
  0
LINE
  5
222
100
AcDbEntity
  8
レイヤー_1
  6
CONTINUOUS
 62
       3
100
AcDbLine
 10
-82.80333381
 20
-41.45363883
 30
0.0
 11
-82.97928049
 21
-41.38621302
 31
0.0
  0
LINE
  5
223
100
AcDbEntity
  8
レイヤー_1
  6
CONTINUOUS
 62
       3
100
AcDbLine
 10
-82.97928049
 20
-41.38621302
 30
0.0
 11
-83.14801597
 21
-41.30260579
 31
0.0
  0
LINE
  5
224
100
AcDbEntity
  8
レイヤー_1
  6
CONTINUOUS
 62
       3
100
AcDbLine
 10
-83.14801597
 20
-41.30260579
 30
0.0
 11
-83.30832169
 21
-41.20340132
 31
0.0
  0
LINE
  5
225
100
AcDbEntity
  8
レイヤー_1
  6
CONTINUOUS
 62
       3
100
AcDbLine
 10
-83.30832169
 20
-41.20340132
 30
0.0
 11
-83.45897912
 21
-41.08918383
 31
0.0
  0
LINE
  5
226
100
AcDbEntity
  8
レイヤー_1
  6
CONTINUOUS
 62
       3
100
AcDbLine
 10
-83.45897912
 20
-41.08918383
 30
0.0
 11
-83.5987697
 21
-40.9605375
 31
0.0
  0
LINE
  5
227
100
AcDbEntity
  8
レイヤー_1
  6
CONTINUOUS
 62
       3
100
AcDbLine
 10
-83.5987697
 20
-40.9605375
 30
0.0
 11
-83.72647488
 21
-40.81804655
 31
0.0
  0
LINE
  5
228
100
AcDbEntity
  8
レイヤー_1
  6
CONTINUOUS
 62
       3
100
AcDbLine
 10
-83.72647488
 20
-40.81804655
 30
0.0
 11
-83.84087612
 21
-40.66229517
 31
0.0
  0
LINE
  5
229
100
AcDbEntity
  8
レイヤー_1
  6
CONTINUOUS
 62
       3
100
AcDbLine
 10
-83.84087612
 20
-40.66229517
 30
0.0
 11
-83.94075486
 21
-40.49386757
 31
0.0
  0
LINE
  5
22A
100
AcDbEntity
  8
レイヤー_1
  6
CONTINUOUS
 62
       3
100
AcDbLine
 10
-83.94075486
 20
-40.49386757
 30
0.0
 11
-84.02489256
 21
-40.31334795
 31
0.0
  0
LINE
  5
22B
100
AcDbEntity
  8
レイヤー_1
  6
CONTINUOUS
 62
       3
100
AcDbLine
 10
-84.02489256
 20
-40.31334795
 30
0.0
 11
-84.09174266
 21
-40.12256588
 31
0.0
  0
LINE
  5
22C
100
AcDbEntity
  8
レイヤー_1
  6
CONTINUOUS
 62
       3
100
AcDbLine
 10
-84.09174266
 20
-40.12256588
 30
0.0
 11
-84.13863348
 21
-39.92916883
 31
0.0
  0
LINE
  5
22D
100
AcDbEntity
  8
レイヤー_1
  6
CONTINUOUS
 62
       3
100
AcDbLine
 10
-84.13863348
 20
-39.92916883
 30
0.0
 11
-84.16569344
 21
-39.73537664
 31
0.0
  0
LINE
  5
22E
100
AcDbEntity
  8
レイヤー_1
  6
CONTINUOUS
 62
       3
100
AcDbLine
 10
-84.16569344
 20
-39.73537664
 30
0.0
 11
-84.17350796
 21
-39.54240541
 31
0.0
  0
LINE
  5
22F
100
AcDbEntity
  8
レイヤー_1
  6
CONTINUOUS
 62
       3
100
AcDbLine
 10
-84.17350796
 20
-39.54240541
 30
0.0
 11
-84.16266248
 21
-39.35147124
 31
0.0
  0
LINE
  5
230
100
AcDbEntity
  8
レイヤー_1
  6
CONTINUOUS
 62
       3
100
AcDbLine
 10
-84.16266248
 20
-39.35147124
 30
0.0
 11
-84.1337424
 21
-39.16379024
 31
0.0
  0
LINE
  5
231
100
AcDbEntity
  8
レイヤー_1
  6
CONTINUOUS
 62
       3
100
AcDbLine
 10
-84.1337424
 20
-39.16379024
 30
0.0
 11
-84.08733317
 21
-38.9805785
 31
0.0
  0
LINE
  5
232
100
AcDbEntity
  8
レイヤー_1
  6
CONTINUOUS
 62
       3
100
AcDbLine
 10
-84.08733317
 20
-38.9805785
 30
0.0
 11
-84.0240202
 21
-38.80305214
 31
0.0
  0
LINE
  5
233
100
AcDbEntity
  8
レイヤー_1
  6
CONTINUOUS
 62
       3
100
AcDbLine
 10
-84.0240202
 20
-38.80305214
 30
0.0
 11
-83.94438891
 21
-38.63242724
 31
0.0
  0
LINE
  5
234
100
AcDbEntity
  8
レイヤー_1
  6
CONTINUOUS
 62
       3
100
AcDbLine
 10
-83.94438891
 20
-38.63242724
 30
0.0
 11
-83.84902474
 21
-38.46991992
 31
0.0
  0
LINE
  5
235
100
AcDbEntity
  8
レイヤー_1
  6
CONTINUOUS
 62
       3
100
AcDbLine
 10
-83.84902474
 20
-38.46991992
 30
0.0
 11
-83.73851311
 21
-38.31674627
 31
0.0
  0
LINE
  5
236
100
AcDbEntity
  8
レイヤー_1
  6
CONTINUOUS
 62
       3
100
AcDbLine
 10
-83.73851311
 20
-38.31674627
 30
0.0
 11
-83.61343944
 21
-38.1741224
 31
0.0
  0
LINE
  5
237
100
AcDbEntity
  8
レイヤー_1
  6
CONTINUOUS
 62
       3
100
AcDbLine
 10
-83.61343944
 20
-38.1741224
 30
0.0
 11
-83.47438916
 21
-38.0432644
 31
0.0
  0
LINE
  5
238
100
AcDbEntity
  8
レイヤー_1
  6
CONTINUOUS
 62
       3
100
AcDbLine
 10
-83.47438916
 20
-38.0432644
 30
0.0
 11
-83.32194769
 21
-37.92538839
 31
0.0
  0
LINE
  5
239
100
AcDbEntity
  8
レイヤー_1
  6
CONTINUOUS
 62
       3
100
AcDbLine
 10
-83.32194769
 20
-37.92538839
 30
0.0
 11
-83.15670046
 21
-37.82171046
 31
0.0
  0
LINE
  5
23A
100
AcDbEntity
  8
レイヤー_1
  6
CONTINUOUS
 62
       3
100
AcDbLine
 10
-83.15670046
 20
-37.82171046
 30
0.0
 11
-82.97923289
 21
-37.73344672
 31
0.0
  0
LINE
  5
23B
100
AcDbEntity
  8
レイヤー_1
  6
CONTINUOUS
 62
       3
100
AcDbLine
 10
-82.97923289
 20
-37.73344672
 30
0.0
 11
-82.79047862
 21
-37.66196053
 31
0.0
  0
LINE
  5
23C
100
AcDbEntity
  8
レイヤー_1
  6
CONTINUOUS
 62
       3
100
AcDbLine
 10
-82.79047862
 20
-37.66196053
 30
0.0
 11
-82.59750322
 21
-37.61016252
 31
0.0
  0
LINE
  5
23D
100
AcDbEntity
  8
レイヤー_1
  6
CONTINUOUS
 62
       3
100
AcDbLine
 10
-82.59750322
 20
-37.61016252
 30
0.0
 11
-82.4037935
 21
-37.57831675
 31
0.0
  0
LINE
  5
23E
100
AcDbEntity
  8
レイヤー_1
  6
CONTINUOUS
 62
       3
100
AcDbLine
 10
-82.4037935
 20
-37.57831675
 30
0.0
 11
-82.21056922
 21
-37.56583903
 31
0.0
  0
LINE
  5
23F
100
AcDbEntity
  8
レイヤー_1
  6
CONTINUOUS
 62
       3
100
AcDbLine
 10
-82.21056922
 20
-37.56583903
 30
0.0
 11
-82.01905015
 21
-37.57214516
 31
0.0
  0
LINE
  5
240
100
AcDbEntity
  8
レイヤー_1
  6
CONTINUOUS
 62
       3
100
AcDbLine
 10
-82.01905015
 20
-37.57214516
 30
0.0
 11
-81.83045606
 21
-37.59665093
 31
0.0
  0
LINE
  5
241
100
AcDbEntity
  8
レイヤー_1
  6
CONTINUOUS
 62
       3
100
AcDbLine
 10
-81.83045606
 20
-37.59665093
 30
0.0
 11
-81.64600673
 21
-37.63877213
 31
0.0
  0
LINE
  5
242
100
AcDbEntity
  8
レイヤー_1
  6
CONTINUOUS
 62
       3
100
AcDbLine
 10
-81.64600673
 20
-37.63877213
 30
0.0
 11
-81.46692193
 21
-37.69792458
 31
0.0
  0
LINE
  5
243
100
AcDbEntity
  8
レイヤー_1
  6
CONTINUOUS
 62
       3
100
AcDbLine
 10
-81.46692193
 20
-37.69792458
 30
0.0
 11
-81.29442142
 21
-37.77352406
 31
0.0
  0
LINE
  5
244
100
AcDbEntity
  8
レイヤー_1
  6
CONTINUOUS
 62
       3
100
AcDbLine
 10
-81.29442142
 20
-37.77352406
 30
0.0
 11
-81.12972498
 21
-37.86498637
 31
0.0
  0
LINE
  5
245
100
AcDbEntity
  8
レイヤー_1
  6
CONTINUOUS
 62
       3
100
AcDbLine
 10
-81.12972498
 20
-37.86498637
 30
0.0
 11
-80.97405239
 21
-37.97172732
 31
0.0
  0
LINE
  5
246
100
AcDbEntity
  8
レイヤー_1
  6
CONTINUOUS
 62
       3
100
AcDbLine
 10
-80.97405239
 20
-37.97172732
 30
0.0
 11
-80.8286234
 21
-38.0931627
 31
0.0
  0
LINE
  5
247
100
AcDbEntity
  8
レイヤー_1
  6
CONTINUOUS
 62
       3
100
AcDbLine
 10
-80.8286234
 20
-38.0931627
 30
0.0
 11
-80.69465779
 21
-38.2287083
 31
0.0
  0
LINE
  5
248
100
AcDbEntity
  8
レイヤー_1
  6
CONTINUOUS
 62
       3
100
AcDbLine
 10
-80.69465779
 20
-38.2287083
 30
0.0
 11
-80.57337534
 21
-38.37777993
 31
0.0
  0
LINE
  5
249
100
AcDbEntity
  8
レイヤー_1
  6
CONTINUOUS
 62
       3
100
AcDbLine
 10
-80.57337534
 20
-38.37777993
 30
0.0
 11
-80.46599582
 21
-38.53979339
 31
0.0
  0
LINE
  5
24A
100
AcDbEntity
  8
レイヤー_1
  6
CONTINUOUS
 62
       3
100
AcDbLine
 10
-80.46599582
 20
-38.53979339
 30
0.0
 11
-80.37373898
 21
-38.71416447
 31
0.0
  0
LINE
  5
24B
100
AcDbEntity
  8
レイヤー_1
  6
CONTINUOUS
 62
       3
100
AcDbLine
 10
-80.37373898
 20
-38.71416447
 30
0.0
 11
-80.29782462
 21
-38.90030897
 31
0.0
  0
LINE
  5
24C
100
AcDbEntity
  8
レイヤー_1
  6
CONTINUOUS
 62
       3
100
AcDbLine
 10
-80.29782462
 20
-44.28685098
 30
0.0
 11
-80.24104208
 21
-44.47960064
 31
0.0
  0
LINE
  5
24D
100
AcDbEntity
  8
レイヤー_1
  6
CONTINUOUS
 62
       3
100
AcDbLine
 10
-80.24104208
 20
-44.47960064
 30
0.0
 11
-80.20433378
 21
-44.67336429
 31
0.0
  0
LINE
  5
24E
100
AcDbEntity
  8
レイヤー_1
  6
CONTINUOUS
 62
       3
100
AcDbLine
 10
-80.20433378
 20
-44.67336429
 30
0.0
 11
-80.18711797
 21
-44.86692339
 31
0.0
  0
LINE
  5
24F
100
AcDbEntity
  8
レイヤー_1
  6
CONTINUOUS
 62
       3
100
AcDbLine
 10
-80.18711797
 20
-44.86692339
 30
0.0
 11
-80.18881289
 21
-45.05905939
 31
0.0
  0
LINE
  5
250
100
AcDbEntity
  8
レイヤー_1
  6
CONTINUOUS
 62
       3
100
AcDbLine
 10
-80.18881289
 20
-45.05905939
 30
0.0
 11
-80.20883679
 21
-45.24855375
 31
0.0
  0
LINE
  5
251
100
AcDbEntity
  8
レイヤー_1
  6
CONTINUOUS
 62
       3
100
AcDbLine
 10
-80.20883679
 20
-45.24855375
 30
0.0
 11
-80.24660792
 21
-45.4341879
 31
0.0
  0
LINE
  5
252
100
AcDbEntity
  8
レイヤー_1
  6
CONTINUOUS
 62
       3
100
AcDbLine
 10
-80.24660792
 20
-45.4341879
 30
0.0
 11
-80.3015445
 21
-45.61474331
 31
0.0
  0
LINE
  5
253
100
AcDbEntity
  8
レイヤー_1
  6
CONTINUOUS
 62
       3
100
AcDbLine
 10
-80.3015445
 20
-45.61474331
 30
0.0
 11
-80.3730648
 21
-45.78900143
 31
0.0
  0
LINE
  5
254
100
AcDbEntity
  8
レイヤー_1
  6
CONTINUOUS
 62
       3
100
AcDbLine
 10
-80.3730648
 20
-45.78900143
 30
0.0
 11
-80.46058705
 21
-45.95574371
 31
0.0
  0
LINE
  5
255
100
AcDbEntity
  8
レイヤー_1
  6
CONTINUOUS
 62
       3
100
AcDbLine
 10
-80.46058705
 20
-45.95574371
 30
0.0
 11
-80.5635295
 21
-46.1137516
 31
0.0
  0
LINE
  5
256
100
AcDbEntity
  8
レイヤー_1
  6
CONTINUOUS
 62
       3
100
AcDbLine
 10
-80.5635295
 20
-46.1137516
 30
0.0
 11
-80.68131039
 21
-46.26180655
 31
0.0
  0
LINE
  5
257
100
AcDbEntity
  8
レイヤー_1
  6
CONTINUOUS
 62
       3
100
AcDbLine
 10
-80.68131039
 20
-46.26180655
 30
0.0
 11
-80.81334797
 21
-46.39869002
 31
0.0
  0
LINE
  5
258
100
AcDbEntity
  8
レイヤー_1
  6
CONTINUOUS
 62
       3
100
AcDbLine
 10
-80.81334797
 20
-46.39869002
 30
0.0
 11
-80.95906048
 21
-46.52318345
 31
0.0
  0
LINE
  5
259
100
AcDbEntity
  8
レイヤー_1
  6
CONTINUOUS
 62
       3
100
AcDbLine
 10
-80.95906048
 20
-46.52318345
 30
0.0
 11
-81.11786617
 21
-46.6340683
 31
0.0
  0
LINE
  5
25A
100
AcDbEntity
  8
レイヤー_1
  6
CONTINUOUS
 62
       3
100
AcDbLine
 10
-81.11786617
 20
-46.6340683
 30
0.0
 11
-81.28918327
 21
-46.73012603
 31
0.0
  0
LINE
  5
25B
100
AcDbEntity
  8
レイヤー_1
  6
CONTINUOUS
 62
       3
100
AcDbLine
 10
-81.28918327
 20
-46.73012603
 30
0.0
 11
-81.47243004
 21
-46.81013807
 31
0.0
  0
LINE
  5
25C
100
AcDbEntity
  8
レイヤー_1
  6
CONTINUOUS
 62
       3
100
AcDbLine
 10
-81.47243004
 20
-46.81013807
 30
0.0
 11
-81.66445714
 21
-46.87224695
 31
0.0
  0
LINE
  5
25D
100
AcDbEntity
  8
レイヤー_1
  6
CONTINUOUS
 62
       3
100
AcDbLine
 10
-81.66445714
 20
-46.87224695
 30
0.0
 11
-81.85808154
 21
-46.91421627
 31
0.0
  0
LINE
  5
25E
100
AcDbEntity
  8
レイヤー_1
  6
CONTINUOUS
 62
       3
100
AcDbLine
 10
-81.85808154
 20
-46.91421627
 30
0.0
 11
-82.05180601
 21
-46.93648783
 31
0.0
  0
LINE
  5
25F
100
AcDbEntity
  8
レイヤー_1
  6
CONTINUOUS
 62
       3
100
AcDbLine
 10
-82.05180601
 20
-46.93648783
 30
0.0
 11
-82.24441203
 21
-46.93964705
 31
0.0
  0
LINE
  5
260
100
AcDbEntity
  8
レイヤー_1
  6
CONTINUOUS
 62
       3
100
AcDbLine
 10
-82.24441203
 20
-46.93964705
 30
0.0
 11
-82.43468103
 21
-46.92427938
 31
0.0
  0
LINE
  5
261
100
AcDbEntity
  8
レイヤー_1
  6
CONTINUOUS
 62
       3
100
AcDbLine
 10
-82.43468103
 20
-46.92427938
 30
0.0
 11
-82.62139448
 21
-46.89097022
 31
0.0
  0
LINE
  5
262
100
AcDbEntity
  8
レイヤー_1
  6
CONTINUOUS
 62
       3
100
AcDbLine
 10
-82.62139448
 20
-46.89097022
 30
0.0
 11
-82.80333381
 21
-46.84030501
 31
0.0
  0
LINE
  5
263
100
AcDbEntity
  8
レイヤー_1
  6
CONTINUOUS
 62
       3
100
AcDbLine
 10
-82.80333381
 20
-46.84030501
 30
0.0
 11
-82.97928049
 21
-46.77286917
 31
0.0
  0
LINE
  5
264
100
AcDbEntity
  8
レイヤー_1
  6
CONTINUOUS
 62
       3
100
AcDbLine
 10
-82.97928049
 20
-46.77286917
 30
0.0
 11
-83.14801597
 21
-46.68924813
 31
0.0
  0
LINE
  5
265
100
AcDbEntity
  8
レイヤー_1
  6
CONTINUOUS
 62
       3
100
AcDbLine
 10
-83.14801597
 20
-46.68924813
 30
0.0
 11
-83.30832169
 21
-46.5900273
 31
0.0
  0
LINE
  5
266
100
AcDbEntity
  8
レイヤー_1
  6
CONTINUOUS
 62
       3
100
AcDbLine
 10
-83.30832169
 20
-46.5900273
 30
0.0
 11
-83.45897912
 21
-46.47579212
 31
0.0
  0
LINE
  5
267
100
AcDbEntity
  8
レイヤー_1
  6
CONTINUOUS
 62
       3
100
AcDbLine
 10
-83.45897912
 20
-46.47579212
 30
0.0
 11
-83.5987697
 21
-46.34712801
 31
0.0
  0
LINE
  5
268
100
AcDbEntity
  8
レイヤー_1
  6
CONTINUOUS
 62
       3
100
AcDbLine
 10
-83.5987697
 20
-46.34712801
 30
0.0
 11
-83.72647488
 21
-46.2046204
 31
0.0
  0
LINE
  5
269
100
AcDbEntity
  8
レイヤー_1
  6
CONTINUOUS
 62
       3
100
AcDbLine
 10
-83.72647488
 20
-46.2046204
 30
0.0
 11
-83.84087612
 21
-46.0488547
 31
0.0
  0
LINE
  5
26A
100
AcDbEntity
  8
レイヤー_1
  6
CONTINUOUS
 62
       3
100
AcDbLine
 10
-83.84087612
 20
-46.0488547
 30
0.0
 11
-83.94075486
 21
-45.88041635
 31
0.0
  0
LINE
  5
26B
100
AcDbEntity
  8
レイヤー_1
  6
CONTINUOUS
 62
       3
100
AcDbLine
 10
-83.94075486
 20
-45.88041635
 30
0.0
 11
-84.02489256
 21
-45.69989076
 31
0.0
  0
LINE
  5
26C
100
AcDbEntity
  8
レイヤー_1
  6
CONTINUOUS
 62
       3
100
AcDbLine
 10
-84.02489256
 20
-45.69989076
 30
0.0
 11
-84.09174266
 21
-45.50916006
 31
0.0
  0
LINE
  5
26D
100
AcDbEntity
  8
レイヤー_1
  6
CONTINUOUS
 62
       3
100
AcDbLine
 10
-84.09174266
 20
-45.50916006
 30
0.0
 11
-84.13863348
 21
-45.31585742
 31
0.0
  0
LINE
  5
26E
100
AcDbEntity
  8
レイヤー_1
  6
CONTINUOUS
 62
       3
100
AcDbLine
 10
-84.13863348
 20
-45.31585742
 30
0.0
 11
-84.16569344
 21
-45.12214638
 31
0.0
  0
LINE
  5
26F
100
AcDbEntity
  8
レイヤー_1
  6
CONTINUOUS
 62
       3
100
AcDbLine
 10
-84.16569344
 20
-45.12214638
 30
0.0
 11
-84.17350796
 21
-44.92924305
 31
0.0
  0
LINE
  5
270
100
AcDbEntity
  8
レイヤー_1
  6
CONTINUOUS
 62
       3
100
AcDbLine
 10
-84.17350796
 20
-44.92924305
 30
0.0
 11
-84.16266248
 21
-44.73836354
 31
0.0
  0
LINE
  5
271
100
AcDbEntity
  8
レイヤー_1
  6
CONTINUOUS
 62
       3
100
AcDbLine
 10
-84.16266248
 20
-44.73836354
 30
0.0
 11
-84.1337424
 21
-44.55072394
 31
0.0
  0
LINE
  5
272
100
AcDbEntity
  8
レイヤー_1
  6
CONTINUOUS
 62
       3
100
AcDbLine
 10
-84.1337424
 20
-44.55072394
 30
0.0
 11
-84.08733317
 21
-44.36754036
 31
0.0
  0
LINE
  5
273
100
AcDbEntity
  8
レイヤー_1
  6
CONTINUOUS
 62
       3
100
AcDbLine
 10
-84.08733317
 20
-44.36754036
 30
0.0
 11
-84.0240202
 21
-44.1900289
 31
0.0
  0
LINE
  5
274
100
AcDbEntity
  8
レイヤー_1
  6
CONTINUOUS
 62
       3
100
AcDbLine
 10
-84.0240202
 20
-44.1900289
 30
0.0
 11
-83.94438891
 21
-44.01940566
 31
0.0
  0
LINE
  5
275
100
AcDbEntity
  8
レイヤー_1
  6
CONTINUOUS
 62
       3
100
AcDbLine
 10
-83.94438891
 20
-44.01940566
 30
0.0
 11
-83.84902474
 21
-43.85688674
 31
0.0
  0
LINE
  5
276
100
AcDbEntity
  8
レイヤー_1
  6
CONTINUOUS
 62
       3
100
AcDbLine
 10
-83.84902474
 20
-43.85688674
 30
0.0
 11
-83.73851311
 21
-43.70368825
 31
0.0
  0
LINE
  5
277
100
AcDbEntity
  8
レイヤー_1
  6
CONTINUOUS
 62
       3
100
AcDbLine
 10
-83.73851311
 20
-43.70368825
 30
0.0
 11
-83.61343944
 21
-43.56102628
 31
0.0
  0
LINE
  5
278
100
AcDbEntity
  8
レイヤー_1
  6
CONTINUOUS
 62
       3
100
AcDbLine
 10
-83.61343944
 20
-43.56102628
 30
0.0
 11
-83.47438916
 21
-43.43011695
 31
0.0
  0
LINE
  5
279
100
AcDbEntity
  8
レイヤー_1
  6
CONTINUOUS
 62
       3
100
AcDbLine
 10
-83.47438916
 20
-43.43011695
 30
0.0
 11
-83.32194769
 21
-43.31217635
 31
0.0
  0
LINE
  5
27A
100
AcDbEntity
  8
レイヤー_1
  6
CONTINUOUS
 62
       3
100
AcDbLine
 10
-83.32194769
 20
-43.31217635
 30
0.0
 11
-83.15670046
 21
-43.20842058
 31
0.0
  0
LINE
  5
27B
100
AcDbEntity
  8
レイヤー_1
  6
CONTINUOUS
 62
       3
100
AcDbLine
 10
-83.15670046
 20
-43.20842058
 30
0.0
 11
-82.97923289
 21
-43.12006574
 31
0.0
  0
LINE
  5
27C
100
AcDbEntity
  8
レイヤー_1
  6
CONTINUOUS
 62
       3
100
AcDbLine
 10
-82.97923289
 20
-43.12006574
 30
0.0
 11
-82.79047862
 21
-43.0484899
 31
0.0
  0
LINE
  5
27D
100
AcDbEntity
  8
レイヤー_1
  6
CONTINUOUS
 62
       3
100
AcDbLine
 10
-82.79047862
 20
-43.0484899
 30
0.0
 11
-82.59750322
 21
-42.99665675
 31
0.0
  0
LINE
  5
27E
100
AcDbEntity
  8
レイヤー_1
  6
CONTINUOUS
 62
       3
100
AcDbLine
 10
-82.59750322
 20
-42.99665675
 30
0.0
 11
-82.4037935
 21
-42.96479776
 31
0.0
  0
LINE
  5
27F
100
AcDbEntity
  8
レイヤー_1
  6
CONTINUOUS
 62
       3
100
AcDbLine
 10
-82.4037935
 20
-42.96479776
 30
0.0
 11
-82.21056922
 21
-42.95232507
 31
0.0
  0
LINE
  5
280
100
AcDbEntity
  8
レイヤー_1
  6
CONTINUOUS
 62
       3
100
AcDbLine
 10
-82.21056922
 20
-42.95232507
 30
0.0
 11
-82.01905015
 21
-42.95865079
 31
0.0
  0
LINE
  5
281
100
AcDbEntity
  8
レイヤー_1
  6
CONTINUOUS
 62
       3
100
AcDbLine
 10
-82.01905015
 20
-42.95865079
 30
0.0
 11
-81.83045606
 21
-42.98318705
 31
0.0
  0
LINE
  5
282
100
AcDbEntity
  8
レイヤー_1
  6
CONTINUOUS
 62
       3
100
AcDbLine
 10
-81.83045606
 20
-42.98318705
 30
0.0
 11
-81.64600673
 21
-43.025346
 31
0.0
  0
LINE
  5
283
100
AcDbEntity
  8
レイヤー_1
  6
CONTINUOUS
 62
       3
100
AcDbLine
 10
-81.64600673
 20
-43.025346
 30
0.0
 11
-81.46692193
 21
-43.08453974
 31
0.0
  0
LINE
  5
284
100
AcDbEntity
  8
レイヤー_1
  6
CONTINUOUS
 62
       3
100
AcDbLine
 10
-81.46692193
 20
-43.08453974
 30
0.0
 11
-81.29442142
 21
-43.16018042
 31
0.0
  0
LINE
  5
285
100
AcDbEntity
  8
レイヤー_1
  6
CONTINUOUS
 62
       3
100
AcDbLine
 10
-81.29442142
 20
-43.16018042
 30
0.0
 11
-81.12972498
 21
-43.25168017
 31
0.0
  0
LINE
  5
286
100
AcDbEntity
  8
レイヤー_1
  6
CONTINUOUS
 62
       3
100
AcDbLine
 10
-81.12972498
 20
-43.25168017
 30
0.0
 11
-80.97405239
 21
-43.3584511
 31
0.0
  0
LINE
  5
287
100
AcDbEntity
  8
レイヤー_1
  6
CONTINUOUS
 62
       3
100
AcDbLine
 10
-80.97405239
 20
-43.3584511
 30
0.0
 11
-80.8286234
 21
-43.47990536
 31
0.0
  0
LINE
  5
288
100
AcDbEntity
  8
レイヤー_1
  6
CONTINUOUS
 62
       3
100
AcDbLine
 10
-80.8286234
 20
-43.47990536
 30
0.0
 11
-80.69465779
 21
-43.61545507
 31
0.0
  0
LINE
  5
289
100
AcDbEntity
  8
レイヤー_1
  6
CONTINUOUS
 62
       3
100
AcDbLine
 10
-80.69465779
 20
-43.61545507
 30
0.0
 11
-80.57337534
 21
-43.76451236
 31
0.0
  0
LINE
  5
28A
100
AcDbEntity
  8
レイヤー_1
  6
CONTINUOUS
 62
       3
100
AcDbLine
 10
-80.57337534
 20
-43.76451236
 30
0.0
 11
-80.46599582
 21
-43.92648935
 31
0.0
  0
LINE
  5
28B
100
AcDbEntity
  8
レイヤー_1
  6
CONTINUOUS
 62
       3
100
AcDbLine
 10
-80.46599582
 20
-43.92648935
 30
0.0
 11
-80.37373898
 21
-44.10079818
 31
0.0
  0
LINE
  5
28C
100
AcDbEntity
  8
レイヤー_1
  6
CONTINUOUS
 62
       3
100
AcDbLine
 10
-80.37373898
 20
-44.10079818
 30
0.0
 11
-80.29782462
 21
-44.28685098
 31
0.0
  0
LINE
  5
28D
100
AcDbEntity
  8
レイヤー_1
  6
CONTINUOUS
 62
       3
100
AcDbLine
 10
-80.29782462
 20
32.91548906
 30
0.0
 11
-80.24104208
 21
33.1082325
 31
0.0
  0
LINE
  5
28E
100
AcDbEntity
  8
レイヤー_1
  6
CONTINUOUS
 62
       3
100
AcDbLine
 10
-80.24104208
 20
33.1082325
 30
0.0
 11
-80.20433378
 21
33.30197913
 31
0.0
  0
LINE
  5
28F
100
AcDbEntity
  8
レイヤー_1
  6
CONTINUOUS
 62
       3
100
AcDbLine
 10
-80.20433378
 20
33.30197913
 30
0.0
 11
-80.18711797
 21
33.49551285
 31
0.0
  0
LINE
  5
290
100
AcDbEntity
  8
レイヤー_1
  6
CONTINUOUS
 62
       3
100
AcDbLine
 10
-80.18711797
 20
33.49551285
 30
0.0
 11
-80.18881289
 21
33.68761756
 31
0.0
  0
LINE
  5
291
100
AcDbEntity
  8
レイヤー_1
  6
CONTINUOUS
 62
       3
100
AcDbLine
 10
-80.18881289
 20
33.68761756
 30
0.0
 11
-80.20883679
 21
33.87707716
 31
0.0
  0
LINE
  5
292
100
AcDbEntity
  8
レイヤー_1
  6
CONTINUOUS
 62
       3
100
AcDbLine
 10
-80.20883679
 20
33.87707716
 30
0.0
 11
-80.24660792
 21
34.06267554
 31
0.0
  0
LINE
  5
293
100
AcDbEntity
  8
レイヤー_1
  6
CONTINUOUS
 62
       3
100
AcDbLine
 10
-80.24660792
 20
34.06267554
 30
0.0
 11
-80.3015445
 21
34.24319661
 31
0.0
  0
LINE
  5
294
100
AcDbEntity
  8
レイヤー_1
  6
CONTINUOUS
 62
       3
100
AcDbLine
 10
-80.3015445
 20
34.24319661
 30
0.0
 11
-80.3730648
 21
34.41742425
 31
0.0
  0
LINE
  5
295
100
AcDbEntity
  8
レイヤー_1
  6
CONTINUOUS
 62
       3
100
AcDbLine
 10
-80.3730648
 20
34.41742425
 30
0.0
 11
-80.46058705
 21
34.58414238
 31
0.0
  0
LINE
  5
296
100
AcDbEntity
  8
レイヤー_1
  6
CONTINUOUS
 62
       3
100
AcDbLine
 10
-80.46058705
 20
34.58414238
 30
0.0
 11
-80.5635295
 21
34.74213488
 31
0.0
  0
LINE
  5
297
100
AcDbEntity
  8
レイヤー_1
  6
CONTINUOUS
 62
       3
100
AcDbLine
 10
-80.5635295
 20
34.74213488
 30
0.0
 11
-80.68131039
 21
34.89018565
 31
0.0
  0
LINE
  5
298
100
AcDbEntity
  8
レイヤー_1
  6
CONTINUOUS
 62
       3
100
AcDbLine
 10
-80.68131039
 20
34.89018565
 30
0.0
 11
-80.81334797
 21
35.02707859
 31
0.0
  0
LINE
  5
299
100
AcDbEntity
  8
レイヤー_1
  6
CONTINUOUS
 62
       3
100
AcDbLine
 10
-80.81334797
 20
35.02707859
 30
0.0
 11
-80.95906048
 21
35.15159761
 31
0.0
  0
LINE
  5
29A
100
AcDbEntity
  8
レイヤー_1
  6
CONTINUOUS
 62
       3
100
AcDbLine
 10
-80.95906048
 20
35.15159761
 30
0.0
 11
-81.11786617
 21
35.26252659
 31
0.0
  0
LINE
  5
29B
100
AcDbEntity
  8
レイヤー_1
  6
CONTINUOUS
 62
       3
100
AcDbLine
 10
-81.11786617
 20
35.26252659
 30
0.0
 11
-81.28918327
 21
35.35864944
 31
0.0
  0
LINE
  5
29C
100
AcDbEntity
  8
レイヤー_1
  6
CONTINUOUS
 62
       3
100
AcDbLine
 10
-81.28918327
 20
35.35864944
 30
0.0
 11
-81.47243004
 21
35.43875006
 31
0.0
  0
LINE
  5
29D
100
AcDbEntity
  8
レイヤー_1
  6
CONTINUOUS
 62
       3
100
AcDbLine
 10
-81.47243004
 20
35.43875006
 30
0.0
 11
-81.66445714
 21
35.50088503
 31
0.0
  0
LINE
  5
29E
100
AcDbEntity
  8
レイヤー_1
  6
CONTINUOUS
 62
       3
100
AcDbLine
 10
-81.66445714
 20
35.50088503
 30
0.0
 11
-81.85808154
 21
35.54285434
 31
0.0
  0
LINE
  5
29F
100
AcDbEntity
  8
レイヤー_1
  6
CONTINUOUS
 62
       3
100
AcDbLine
 10
-81.85808154
 20
35.54285434
 30
0.0
 11
-82.05180601
 21
35.5651259
 31
0.0
  0
LINE
  5
2A0
100
AcDbEntity
  8
レイヤー_1
  6
CONTINUOUS
 62
       3
100
AcDbLine
 10
-82.05180601
 20
35.5651259
 30
0.0
 11
-82.24441203
 21
35.56828513
 31
0.0
  0
LINE
  5
2A1
100
AcDbEntity
  8
レイヤー_1
  6
CONTINUOUS
 62
       3
100
AcDbLine
 10
-82.24441203
 20
35.56828513
 30
0.0
 11
-82.43468103
 21
35.55291746
 31
0.0
  0
LINE
  5
2A2
100
AcDbEntity
  8
レイヤー_1
  6
CONTINUOUS
 62
       3
100
AcDbLine
 10
-82.43468103
 20
35.55291746
 30
0.0
 11
-82.62139448
 21
35.5196083
 31
0.0
  0
LINE
  5
2A3
100
AcDbEntity
  8
レイヤー_1
  6
CONTINUOUS
 62
       3
100
AcDbLine
 10
-82.62139448
 20
35.5196083
 30
0.0
 11
-82.80333381
 21
35.46894309
 31
0.0
  0
LINE
  5
2A4
100
AcDbEntity
  8
レイヤー_1
  6
CONTINUOUS
 62
       3
100
AcDbLine
 10
-82.80333381
 20
35.46894309
 30
0.0
 11
-82.97928049
 21
35.40150725
 31
0.0
  0
LINE
  5
2A5
100
AcDbEntity
  8
レイヤー_1
  6
CONTINUOUS
 62
       3
100
AcDbLine
 10
-82.97928049
 20
35.40150725
 30
0.0
 11
-83.14801597
 21
35.3178862
 31
0.0
  0
LINE
  5
2A6
100
AcDbEntity
  8
レイヤー_1
  6
CONTINUOUS
 62
       3
100
AcDbLine
 10
-83.14801597
 20
35.3178862
 30
0.0
 11
-83.30832169
 21
35.21866538
 31
0.0
  0
LINE
  5
2A7
100
AcDbEntity
  8
レイヤー_1
  6
CONTINUOUS
 62
       3
100
AcDbLine
 10
-83.30832169
 20
35.21866538
 30
0.0
 11
-83.45897912
 21
35.1044302
 31
0.0
  0
LINE
  5
2A8
100
AcDbEntity
  8
レイヤー_1
  6
CONTINUOUS
 62
       3
100
AcDbLine
 10
-83.45897912
 20
35.1044302
 30
0.0
 11
-83.5987697
 21
34.97576609
 31
0.0
  0
LINE
  5
2A9
100
AcDbEntity
  8
レイヤー_1
  6
CONTINUOUS
 62
       3
100
AcDbLine
 10
-83.5987697
 20
34.97576609
 30
0.0
 11
-83.72647488
 21
34.83325847
 31
0.0
  0
LINE
  5
2AA
100
AcDbEntity
  8
レイヤー_1
  6
CONTINUOUS
 62
       3
100
AcDbLine
 10
-83.72647488
 20
34.83325847
 30
0.0
 11
-83.84087612
 21
34.67749278
 31
0.0
  0
LINE
  5
2AB
100
AcDbEntity
  8
レイヤー_1
  6
CONTINUOUS
 62
       3
100
AcDbLine
 10
-83.84087612
 20
34.67749278
 30
0.0
 11
-83.94075486
 21
34.50905442
 31
0.0
  0
LINE
  5
2AC
100
AcDbEntity
  8
レイヤー_1
  6
CONTINUOUS
 62
       3
100
AcDbLine
 10
-83.94075486
 20
34.50905442
 30
0.0
 11
-84.02489256
 21
34.32852884
 31
0.0
  0
LINE
  5
2AD
100
AcDbEntity
  8
レイヤー_1
  6
CONTINUOUS
 62
       3
100
AcDbLine
 10
-84.02489256
 20
34.32852884
 30
0.0
 11
-84.09174266
 21
34.13782182
 31
0.0
  0
LINE
  5
2AE
100
AcDbEntity
  8
レイヤー_1
  6
CONTINUOUS
 62
       3
100
AcDbLine
 10
-84.09174266
 20
34.13782182
 30
0.0
 11
-84.13863348
 21
33.94454848
 31
0.0
  0
LINE
  5
2AF
100
AcDbEntity
  8
レイヤー_1
  6
CONTINUOUS
 62
       3
100
AcDbLine
 10
-84.13863348
 20
33.94454848
 30
0.0
 11
-84.16569344
 21
33.75084577
 31
0.0
  0
LINE
  5
2B0
100
AcDbEntity
  8
レイヤー_1
  6
CONTINUOUS
 62
       3
100
AcDbLine
 10
-84.16569344
 20
33.75084577
 30
0.0
 11
-84.17350796
 21
33.55793343
 31
0.0
  0
LINE
  5
2B1
100
AcDbEntity
  8
レイヤー_1
  6
CONTINUOUS
 62
       3
100
AcDbLine
 10
-84.17350796
 20
33.55793343
 30
0.0
 11
-84.16266248
 21
33.36703125
 31
0.0
  0
LINE
  5
2B2
100
AcDbEntity
  8
レイヤー_1
  6
CONTINUOUS
 62
       3
100
AcDbLine
 10
-84.16266248
 20
33.36703125
 30
0.0
 11
-84.1337424
 21
33.179359
 31
0.0
  0
LINE
  5
2B3
100
AcDbEntity
  8
レイヤー_1
  6
CONTINUOUS
 62
       3
100
AcDbLine
 10
-84.1337424
 20
33.179359
 30
0.0
 11
-84.08733317
 21
32.99613645
 31
0.0
  0
LINE
  5
2B4
100
AcDbEntity
  8
レイヤー_1
  6
CONTINUOUS
 62
       3
100
AcDbLine
 10
-84.08733317
 20
32.99613645
 30
0.0
 11
-84.0240202
 21
32.81858337
 31
0.0
  0
LINE
  5
2B5
100
AcDbEntity
  8
レイヤー_1
  6
CONTINUOUS
 62
       3
100
AcDbLine
 10
-84.0240202
 20
32.81858337
 30
0.0
 11
-83.94438891
 21
32.64791953
 31
0.0
  0
LINE
  5
2B6
100
AcDbEntity
  8
レイヤー_1
  6
CONTINUOUS
 62
       3
100
AcDbLine
 10
-83.94438891
 20
32.64791953
 30
0.0
 11
-83.84902474
 21
32.4853647
 31
0.0
  0
LINE
  5
2B7
100
AcDbEntity
  8
レイヤー_1
  6
CONTINUOUS
 62
       3
100
AcDbLine
 10
-83.84902474
 20
32.4853647
 30
0.0
 11
-83.73851311
 21
32.33213865
 31
0.0
  0
LINE
  5
2B8
100
AcDbEntity
  8
レイヤー_1
  6
CONTINUOUS
 62
       3
100
AcDbLine
 10
-83.73851311
 20
32.33213865
 30
0.0
 11
-83.61343944
 21
32.18946115
 31
0.0
  0
LINE
  5
2B9
100
AcDbEntity
  8
レイヤー_1
  6
CONTINUOUS
 62
       3
100
AcDbLine
 10
-83.61343944
 20
32.18946115
 30
0.0
 11
-83.47438916
 21
32.05855198
 31
0.0
  0
LINE
  5
2BA
100
AcDbEntity
  8
レイヤー_1
  6
CONTINUOUS
 62
       3
100
AcDbLine
 10
-83.47438916
 20
32.05855198
 30
0.0
 11
-83.32194769
 21
31.94063091
 31
0.0
  0
LINE
  5
2BB
100
AcDbEntity
  8
レイヤー_1
  6
CONTINUOUS
 62
       3
100
AcDbLine
 10
-83.32194769
 20
31.94063091
 30
0.0
 11
-83.15670046
 21
31.8369177
 31
0.0
  0
LINE
  5
2BC
100
AcDbEntity
  8
レイヤー_1
  6
CONTINUOUS
 62
       3
100
AcDbLine
 10
-83.15670046
 20
31.8369177
 30
0.0
 11
-82.97923289
 21
31.74863214
 31
0.0
  0
LINE
  5
2BD
100
AcDbEntity
  8
レイヤー_1
  6
CONTINUOUS
 62
       3
100
AcDbLine
 10
-82.97923289
 20
31.74863214
 30
0.0
 11
-82.79047862
 21
31.67714122
 31
0.0
  0
LINE
  5
2BE
100
AcDbEntity
  8
レイヤー_1
  6
CONTINUOUS
 62
       3
100
AcDbLine
 10
-82.79047862
 20
31.67714122
 30
0.0
 11
-82.59750322
 21
31.62535694
 31
0.0
  0
LINE
  5
2BF
100
AcDbEntity
  8
レイヤー_1
  6
CONTINUOUS
 62
       3
100
AcDbLine
 10
-82.59750322
 20
31.62535694
 30
0.0
 11
-82.4037935
 21
31.59354018
 31
0.0
  0
LINE
  5
2C0
100
AcDbEntity
  8
レイヤー_1
  6
CONTINUOUS
 62
       3
100
AcDbLine
 10
-82.4037935
 20
31.59354018
 30
0.0
 11
-82.21056922
 21
31.58110309
 31
0.0
  0
LINE
  5
2C1
100
AcDbEntity
  8
レイヤー_1
  6
CONTINUOUS
 62
       3
100
AcDbLine
 10
-82.21056922
 20
31.58110309
 30
0.0
 11
-82.01905015
 21
31.58745779
 31
0.0
  0
LINE
  5
2C2
100
AcDbEntity
  8
レイヤー_1
  6
CONTINUOUS
 62
       3
100
AcDbLine
 10
-82.01905015
 20
31.58745779
 30
0.0
 11
-81.83045606
 21
31.61201642
 31
0.0
  0
LINE
  5
2C3
100
AcDbEntity
  8
レイヤー_1
  6
CONTINUOUS
 62
       3
100
AcDbLine
 10
-81.83045606
 20
31.61201642
 30
0.0
 11
-81.64600673
 21
31.6541911
 31
0.0
  0
LINE
  5
2C4
100
AcDbEntity
  8
レイヤー_1
  6
CONTINUOUS
 62
       3
100
AcDbLine
 10
-81.64600673
 20
31.6541911
 30
0.0
 11
-81.46692193
 21
31.71339395
 31
0.0
  0
LINE
  5
2C5
100
AcDbEntity
  8
レイヤー_1
  6
CONTINUOUS
 62
       3
100
AcDbLine
 10
-81.46692193
 20
31.71339395
 30
0.0
 11
-81.29442142
 21
31.78903712
 31
0.0
  0
LINE
  5
2C6
100
AcDbEntity
  8
レイヤー_1
  6
CONTINUOUS
 62
       3
100
AcDbLine
 10
-81.29442142
 20
31.78903712
 30
0.0
 11
-81.12972498
 21
31.88053272
 31
0.0
  0
LINE
  5
2C7
100
AcDbEntity
  8
レイヤー_1
  6
CONTINUOUS
 62
       3
100
AcDbLine
 10
-81.12972498
 20
31.88053272
 30
0.0
 11
-80.97405239
 21
31.98729289
 31
0.0
  0
LINE
  5
2C8
100
AcDbEntity
  8
レイヤー_1
  6
CONTINUOUS
 62
       3
100
AcDbLine
 10
-80.97405239
 20
31.98729289
 30
0.0
 11
-80.8286234
 21
32.10872976
 31
0.0
  0
LINE
  5
2C9
100
AcDbEntity
  8
レイヤー_1
  6
CONTINUOUS
 62
       3
100
AcDbLine
 10
-80.8286234
 20
32.10872976
 30
0.0
 11
-80.69465779
 21
32.24425545
 31
0.0
  0
LINE
  5
2CA
100
AcDbEntity
  8
レイヤー_1
  6
CONTINUOUS
 62
       3
100
AcDbLine
 10
-80.69465779
 20
32.24425545
 30
0.0
 11
-80.57337534
 21
32.3932821
 31
0.0
  0
LINE
  5
2CB
100
AcDbEntity
  8
レイヤー_1
  6
CONTINUOUS
 62
       3
100
AcDbLine
 10
-80.57337534
 20
32.3932821
 30
0.0
 11
-80.46599582
 21
32.55522183
 31
0.0
  0
LINE
  5
2CC
100
AcDbEntity
  8
レイヤー_1
  6
CONTINUOUS
 62
       3
100
AcDbLine
 10
-80.46599582
 20
32.55522183
 30
0.0
 11
-80.37373898
 21
32.72948677
 31
0.0
  0
LINE
  5
2CD
100
AcDbEntity
  8
レイヤー_1
  6
CONTINUOUS
 62
       3
100
AcDbLine
 10
-80.37373898
 20
32.72948677
 30
0.0
 11
-80.29782462
 21
32.91548906
 31
0.0
  0
LINE
  5
2CE
100
AcDbEntity
  8
レイヤー_1
  6
CONTINUOUS
 62
       3
100
AcDbLine
 10
-80.29782462
 20
-33.67616501
 30
0.0
 11
-80.24104208
 21
-33.86886104
 31
0.0
  0
LINE
  5
2CF
100
AcDbEntity
  8
レイヤー_1
  6
CONTINUOUS
 62
       3
100
AcDbLine
 10
-80.24104208
 20
-33.86886104
 30
0.0
 11
-80.20433378
 21
-34.06257229
 31
0.0
  0
LINE
  5
2D0
100
AcDbEntity
  8
レイヤー_1
  6
CONTINUOUS
 62
       3
100
AcDbLine
 10
-80.20433378
 20
-34.06257229
 30
0.0
 11
-80.18711797
 21
-34.25608144
 31
0.0
  0
LINE
  5
2D1
100
AcDbEntity
  8
レイヤー_1
  6
CONTINUOUS
 62
       3
100
AcDbLine
 10
-80.18711797
 20
-34.25608144
 30
0.0
 11
-80.18881289
 21
-34.44817116
 31
0.0
  0
LINE
  5
2D2
100
AcDbEntity
  8
レイヤー_1
  6
CONTINUOUS
 62
       3
100
AcDbLine
 10
-80.18881289
 20
-34.44817116
 30
0.0
 11
-80.20883679
 21
-34.63762412
 31
0.0
  0
LINE
  5
2D3
100
AcDbEntity
  8
レイヤー_1
  6
CONTINUOUS
 62
       3
100
AcDbLine
 10
-80.20883679
 20
-34.63762412
 30
0.0
 11
-80.24660792
 21
-34.823223
 31
0.0
  0
LINE
  5
2D4
100
AcDbEntity
  8
レイヤー_1
  6
CONTINUOUS
 62
       3
100
AcDbLine
 10
-80.24660792
 20
-34.823223
 30
0.0
 11
-80.3015445
 21
-35.00375047
 31
0.0
  0
LINE
  5
2D5
100
AcDbEntity
  8
レイヤー_1
  6
CONTINUOUS
 62
       3
100
AcDbLine
 10
-80.3015445
 20
-35.00375047
 30
0.0
 11
-80.3730648
 21
-35.17798921
 31
0.0
  0
LINE
  5
2D6
100
AcDbEntity
  8
レイヤー_1
  6
CONTINUOUS
 62
       3
100
AcDbLine
 10
-80.3730648
 20
-35.17798921
 30
0.0
 11
-80.46058705
 21
-35.3447219
 31
0.0
  0
LINE
  5
2D7
100
AcDbEntity
  8
レイヤー_1
  6
CONTINUOUS
 62
       3
100
AcDbLine
 10
-80.46058705
 20
-35.3447219
 30
0.0
 11
-80.5635295
 21
-35.5027312
 31
0.0
  0
LINE
  5
2D8
100
AcDbEntity
  8
レイヤー_1
  6
CONTINUOUS
 62
       3
100
AcDbLine
 10
-80.5635295
 20
-35.5027312
 30
0.0
 11
-80.68131039
 21
-35.65079979
 31
0.0
  0
LINE
  5
2D9
100
AcDbEntity
  8
レイヤー_1
  6
CONTINUOUS
 62
       3
100
AcDbLine
 10
-80.68131039
 20
-35.65079979
 30
0.0
 11
-80.81334797
 21
-35.78771036
 31
0.0
  0
LINE
  5
2DA
100
AcDbEntity
  8
レイヤー_1
  6
CONTINUOUS
 62
       3
100
AcDbLine
 10
-80.81334797
 20
-35.78771036
 30
0.0
 11
-80.95906048
 21
-35.91224557
 31
0.0
  0
LINE
  5
2DB
100
AcDbEntity
  8
レイヤー_1
  6
CONTINUOUS
 62
       3
100
AcDbLine
 10
-80.95906048
 20
-35.91224557
 30
0.0
 11
-81.11786617
 21
-36.02318809
 31
0.0
  0
LINE
  5
2DC
100
AcDbEntity
  8
レイヤー_1
  6
CONTINUOUS
 62
       3
100
AcDbLine
 10
-81.11786617
 20
-36.02318809
 30
0.0
 11
-81.28918327
 21
-36.11932061
 31
0.0
  0
LINE
  5
2DD
100
AcDbEntity
  8
レイヤー_1
  6
CONTINUOUS
 62
       3
100
AcDbLine
 10
-81.28918327
 20
-36.11932061
 30
0.0
 11
-81.47243004
 21
-36.1994258
 31
0.0
  0
LINE
  5
2DE
100
AcDbEntity
  8
レイヤー_1
  6
CONTINUOUS
 62
       3
100
AcDbLine
 10
-81.47243004
 20
-36.1994258
 30
0.0
 11
-81.66445714
 21
-36.26156098
 31
0.0
  0
LINE
  5
2DF
100
AcDbEntity
  8
レイヤー_1
  6
CONTINUOUS
 62
       3
100
AcDbLine
 10
-81.66445714
 20
-36.26156098
 30
0.0
 11
-81.85808154
 21
-36.30353029
 31
0.0
  0
LINE
  5
2E0
100
AcDbEntity
  8
レイヤー_1
  6
CONTINUOUS
 62
       3
100
AcDbLine
 10
-81.85808154
 20
-36.30353029
 30
0.0
 11
-82.05180601
 21
-36.32580185
 31
0.0
  0
LINE
  5
2E1
100
AcDbEntity
  8
レイヤー_1
  6
CONTINUOUS
 62
       3
100
AcDbLine
 10
-82.05180601
 20
-36.32580185
 30
0.0
 11
-82.24441203
 21
-36.32896108
 31
0.0
  0
LINE
  5
2E2
100
AcDbEntity
  8
レイヤー_1
  6
CONTINUOUS
 62
       3
100
AcDbLine
 10
-82.24441203
 20
-36.32896108
 30
0.0
 11
-82.43468103
 21
-36.3135934
 31
0.0
  0
LINE
  5
2E3
100
AcDbEntity
  8
レイヤー_1
  6
CONTINUOUS
 62
       3
100
AcDbLine
 10
-82.43468103
 20
-36.3135934
 30
0.0
 11
-82.62139448
 21
-36.28028425
 31
0.0
  0
LINE
  5
2E4
100
AcDbEntity
  8
レイヤー_1
  6
CONTINUOUS
 62
       3
100
AcDbLine
 10
-82.62139448
 20
-36.28028425
 30
0.0
 11
-82.80333381
 21
-36.22961904
 31
0.0
  0
LINE
  5
2E5
100
AcDbEntity
  8
レイヤー_1
  6
CONTINUOUS
 62
       3
100
AcDbLine
 10
-82.80333381
 20
-36.22961904
 30
0.0
 11
-82.97928049
 21
-36.1621832
 31
0.0
  0
LINE
  5
2E6
100
AcDbEntity
  8
レイヤー_1
  6
CONTINUOUS
 62
       3
100
AcDbLine
 10
-82.97928049
 20
-36.1621832
 30
0.0
 11
-83.14801597
 21
-36.07856215
 31
0.0
  0
LINE
  5
2E7
100
AcDbEntity
  8
レイヤー_1
  6
CONTINUOUS
 62
       3
100
AcDbLine
 10
-83.14801597
 20
-36.07856215
 30
0.0
 11
-83.30832169
 21
-35.97934133
 31
0.0
  0
LINE
  5
2E8
100
AcDbEntity
  8
レイヤー_1
  6
CONTINUOUS
 62
       3
100
AcDbLine
 10
-83.30832169
 20
-35.97934133
 30
0.0
 11
-83.45897912
 21
-35.86510615
 31
0.0
  0
LINE
  5
2E9
100
AcDbEntity
  8
レイヤー_1
  6
CONTINUOUS
 62
       3
100
AcDbLine
 10
-83.45897912
 20
-35.86510615
 30
0.0
 11
-83.5987697
 21
-35.73644203
 31
0.0
  0
LINE
  5
2EA
100
AcDbEntity
  8
レイヤー_1
  6
CONTINUOUS
 62
       3
100
AcDbLine
 10
-83.5987697
 20
-35.73644203
 30
0.0
 11
-83.72647488
 21
-35.59393442
 31
0.0
  0
LINE
  5
2EB
100
AcDbEntity
  8
レイヤー_1
  6
CONTINUOUS
 62
       3
100
AcDbLine
 10
-83.72647488
 20
-35.59393442
 30
0.0
 11
-83.84087612
 21
-35.43816872
 31
0.0
  0
LINE
  5
2EC
100
AcDbEntity
  8
レイヤー_1
  6
CONTINUOUS
 62
       3
100
AcDbLine
 10
-83.84087612
 20
-35.43816872
 30
0.0
 11
-83.94075486
 21
-35.26973037
 31
0.0
  0
LINE
  5
2ED
100
AcDbEntity
  8
レイヤー_1
  6
CONTINUOUS
 62
       3
100
AcDbLine
 10
-83.94075486
 20
-35.26973037
 30
0.0
 11
-84.02489256
 21
-35.08920479
 31
0.0
  0
LINE
  5
2EE
100
AcDbEntity
  8
レイヤー_1
  6
CONTINUOUS
 62
       3
100
AcDbLine
 10
-84.02489256
 20
-35.08920479
 30
0.0
 11
-84.09174266
 21
-34.8984472
 31
0.0
  0
LINE
  5
2EF
100
AcDbEntity
  8
レイヤー_1
  6
CONTINUOUS
 62
       3
100
AcDbLine
 10
-84.09174266
 20
-34.8984472
 30
0.0
 11
-84.13863348
 21
-34.70509139
 31
0.0
  0
LINE
  5
2F0
100
AcDbEntity
  8
レイヤー_1
  6
CONTINUOUS
 62
       3
100
AcDbLine
 10
-84.13863348
 20
-34.70509139
 30
0.0
 11
-84.16569344
 21
-34.51132902
 31
0.0
  0
LINE
  5
2F1
100
AcDbEntity
  8
レイヤー_1
  6
CONTINUOUS
 62
       3
100
AcDbLine
 10
-84.16569344
 20
-34.51132902
 30
0.0
 11
-84.17350796
 21
-34.31837742
 31
0.0
  0
LINE
  5
2F2
100
AcDbEntity
  8
レイヤー_1
  6
CONTINUOUS
 62
       3
100
AcDbLine
 10
-84.17350796
 20
-34.31837742
 30
0.0
 11
-84.16266248
 21
-34.12745392
 31
0.0
  0
LINE
  5
2F3
100
AcDbEntity
  8
レイヤー_1
  6
CONTINUOUS
 62
       3
100
AcDbLine
 10
-84.16266248
 20
-34.12745392
 30
0.0
 11
-84.1337424
 21
-33.93977583
 31
0.0
  0
LINE
  5
2F4
100
AcDbEntity
  8
レイヤー_1
  6
CONTINUOUS
 62
       3
100
AcDbLine
 10
-84.1337424
 20
-33.93977583
 30
0.0
 11
-84.08733317
 21
-33.75656049
 31
0.0
  0
LINE
  5
2F5
100
AcDbEntity
  8
レイヤー_1
  6
CONTINUOUS
 62
       3
100
AcDbLine
 10
-84.08733317
 20
-33.75656049
 30
0.0
 11
-84.0240202
 21
-33.57902522
 31
0.0
  0
LINE
  5
2F6
100
AcDbEntity
  8
レイヤー_1
  6
CONTINUOUS
 62
       3
100
AcDbLine
 10
-84.0240202
 20
-33.57902522
 30
0.0
 11
-83.94438891
 21
-33.40838734
 31
0.0
  0
LINE
  5
2F7
100
AcDbEntity
  8
レイヤー_1
  6
CONTINUOUS
 62
       3
100
AcDbLine
 10
-83.94438891
 20
-33.40838734
 30
0.0
 11
-83.84902474
 21
-33.24586418
 31
0.0
  0
LINE
  5
2F8
100
AcDbEntity
  8
レイヤー_1
  6
CONTINUOUS
 62
       3
100
AcDbLine
 10
-83.84902474
 20
-33.24586418
 30
0.0
 11
-83.73851311
 21
-33.09267307
 31
0.0
  0
LINE
  5
2F9
100
AcDbEntity
  8
レイヤー_1
  6
CONTINUOUS
 62
       3
100
AcDbLine
 10
-83.73851311
 20
-33.09267307
 30
0.0
 11
-83.61343944
 21
-32.95003132
 31
0.0
  0
LINE
  5
2FA
100
AcDbEntity
  8
レイヤー_1
  6
CONTINUOUS
 62
       3
100
AcDbLine
 10
-83.61343944
 20
-32.95003132
 30
0.0
 11
-83.47438916
 21
-32.81915627
 31
0.0
  0
LINE
  5
2FB
100
AcDbEntity
  8
レイヤー_1
  6
CONTINUOUS
 62
       3
100
AcDbLine
 10
-83.47438916
 20
-32.81915627
 30
0.0
 11
-83.32194769
 21
-32.70126524
 31
0.0
  0
LINE
  5
2FC
100
AcDbEntity
  8
レイヤー_1
  6
CONTINUOUS
 62
       3
100
AcDbLine
 10
-83.32194769
 20
-32.70126524
 30
0.0
 11
-83.15670046
 21
-32.59757555
 31
0.0
  0
LINE
  5
2FD
100
AcDbEntity
  8
レイヤー_1
  6
CONTINUOUS
 62
       3
100
AcDbLine
 10
-83.15670046
 20
-32.59757555
 30
0.0
 11
-82.97923289
 21
-32.50930453
 31
0.0
  0
LINE
  5
2FE
100
AcDbEntity
  8
レイヤー_1
  6
CONTINUOUS
 62
       3
100
AcDbLine
 10
-82.97923289
 20
-32.50930453
 30
0.0
 11
-82.79047862
 21
-32.43779067
 31
0.0
  0
LINE
  5
2FF
100
AcDbEntity
  8
レイヤー_1
  6
CONTINUOUS
 62
       3
100
AcDbLine
 10
-82.79047862
 20
-32.43779067
 30
0.0
 11
-82.59750322
 21
-32.38590867
 31
0.0
  0
LINE
  5
300
100
AcDbEntity
  8
レイヤー_1
  6
CONTINUOUS
 62
       3
100
AcDbLine
 10
-82.59750322
 20
-32.38590867
 30
0.0
 11
-82.4037935
 21
-32.35400745
 31
0.0
  0
LINE
  5
301
100
AcDbEntity
  8
レイヤー_1
  6
CONTINUOUS
 62
       3
100
AcDbLine
 10
-82.4037935
 20
-32.35400745
 30
0.0
 11
-82.21056922
 21
-32.34149914
 31
0.0
  0
LINE
  5
302
100
AcDbEntity
  8
レイヤー_1
  6
CONTINUOUS
 62
       3
100
AcDbLine
 10
-82.21056922
 20
-32.34149914
 30
0.0
 11
-82.01905015
 21
-32.34779588
 31
0.0
  0
LINE
  5
303
100
AcDbEntity
  8
レイヤー_1
  6
CONTINUOUS
 62
       3
100
AcDbLine
 10
-82.01905015
 20
-32.34779588
 30
0.0
 11
-81.83045606
 21
-32.37230979
 31
0.0
  0
LINE
  5
304
100
AcDbEntity
  8
レイヤー_1
  6
CONTINUOUS
 62
       3
100
AcDbLine
 10
-81.83045606
 20
-32.37230979
 30
0.0
 11
-81.64600673
 21
-32.414453
 31
0.0
  0
LINE
  5
305
100
AcDbEntity
  8
レイヤー_1
  6
CONTINUOUS
 62
       3
100
AcDbLine
 10
-81.64600673
 20
-32.414453
 30
0.0
 11
-81.46692193
 21
-32.47363763
 31
0.0
  0
LINE
  5
306
100
AcDbEntity
  8
レイヤー_1
  6
CONTINUOUS
 62
       3
100
AcDbLine
 10
-81.46692193
 20
-32.47363763
 30
0.0
 11
-81.29442142
 21
-32.54927583
 31
0.0
  0
LINE
  5
307
100
AcDbEntity
  8
レイヤー_1
  6
CONTINUOUS
 62
       3
100
AcDbLine
 10
-81.29442142
 20
-32.54927583
 30
0.0
 11
-81.12972498
 21
-32.64077972
 31
0.0
  0
LINE
  5
308
100
AcDbEntity
  8
レイヤー_1
  6
CONTINUOUS
 62
       3
100
AcDbLine
 10
-81.12972498
 20
-32.64077972
 30
0.0
 11
-80.97405239
 21
-32.74756142
 31
0.0
  0
LINE
  5
309
100
AcDbEntity
  8
レイヤー_1
  6
CONTINUOUS
 62
       3
100
AcDbLine
 10
-80.97405239
 20
-32.74756142
 30
0.0
 11
-80.8286234
 21
-32.86903306
 31
0.0
  0
LINE
  5
30A
100
AcDbEntity
  8
レイヤー_1
  6
CONTINUOUS
 62
       3
100
AcDbLine
 10
-80.8286234
 20
-32.86903306
 30
0.0
 11
-80.69465779
 21
-33.00460679
 31
0.0
  0
LINE
  5
30B
100
AcDbEntity
  8
レイヤー_1
  6
CONTINUOUS
 62
       3
100
AcDbLine
 10
-80.69465779
 20
-33.00460679
 30
0.0
 11
-80.57337534
 21
-33.15369471
 31
0.0
  0
LINE
  5
30C
100
AcDbEntity
  8
レイヤー_1
  6
CONTINUOUS
 62
       3
100
AcDbLine
 10
-80.57337534
 20
-33.15369471
 30
0.0
 11
-80.46599582
 21
-33.31570897
 31
0.0
  0
LINE
  5
30D
100
AcDbEntity
  8
レイヤー_1
  6
CONTINUOUS
 62
       3
100
AcDbLine
 10
-80.46599582
 20
-33.31570897
 30
0.0
 11
-80.37373898
 21
-33.49006169
 31
0.0
  0
LINE
  5
30E
100
AcDbEntity
  8
レイヤー_1
  6
CONTINUOUS
 62
       3
100
AcDbLine
 10
-80.37373898
 20
-33.49006169
 30
0.0
 11
-80.29782462
 21
-33.67616501
 31
0.0
  0
LINE
  5
30F
100
AcDbEntity
  8
レイヤー_1
  6
CONTINUOUS
 62
       3
100
AcDbLine
 10
75.79206319
 20
-20.63592262
 30
0.0
 11
75.79206319
 21
-20.5915984
 31
0.0
  0
LINE
  5
310
100
AcDbEntity
  8
レイヤー_1
  6
CONTINUOUS
 62
       3
100
AcDbLine
 10
75.79206319
 20
-20.5915984
 30
0.0
 11
75.79206319
 21
-20.46674338
 31
0.0
  0
LINE
  5
311
100
AcDbEntity
  8
レイヤー_1
  6
CONTINUOUS
 62
       3
100
AcDbLine
 10
75.79206319
 20
-20.46674338
 30
0.0
 11
75.79206319
 21
-20.27353405
 31
0.0
  0
LINE
  5
312
100
AcDbEntity
  8
レイヤー_1
  6
CONTINUOUS
 62
       3
100
AcDbLine
 10
75.79206319
 20
-20.27353405
 30
0.0
 11
75.79206319
 21
-20.02414687
 31
0.0
  0
LINE
  5
313
100
AcDbEntity
  8
レイヤー_1
  6
CONTINUOUS
 62
       3
100
AcDbLine
 10
75.79206319
 20
-20.02414687
 30
0.0
 11
75.79206319
 21
-19.73075833
 31
0.0
  0
LINE
  5
314
100
AcDbEntity
  8
レイヤー_1
  6
CONTINUOUS
 62
       3
100
AcDbLine
 10
75.79206319
 20
-19.73075833
 30
0.0
 11
75.79206319
 21
-19.40554491
 31
0.0
  0
LINE
  5
315
100
AcDbEntity
  8
レイヤー_1
  6
CONTINUOUS
 62
       3
100
AcDbLine
 10
74.83672462
 20
-16.44183889
 30
0.0
 11
74.83633499
 21
-16.45661595
 31
0.0
  0
LINE
  5
316
100
AcDbEntity
  8
レイヤー_1
  6
CONTINUOUS
 62
       3
100
AcDbLine
 10
74.83633499
 20
-16.45661595
 30
0.0
 11
74.83633465
 21
-16.48669494
 31
0.0
  0
LINE
  5
317
100
AcDbEntity
  8
レイヤー_1
  6
CONTINUOUS
 62
       3
100
AcDbLine
 10
74.83633465
 20
-16.48669494
 30
0.0
 11
74.83633465
 21
-16.58286913
 31
0.0
  0
LINE
  5
318
100
AcDbEntity
  8
レイヤー_1
  6
CONTINUOUS
 62
       3
100
AcDbLine
 10
74.83633465
 20
-16.58286913
 30
0.0
 11
74.83633465
 21
-16.73563888
 31
0.0
  0
LINE
  5
319
100
AcDbEntity
  8
レイヤー_1
  6
CONTINUOUS
 62
       3
100
AcDbLine
 10
74.83633465
 20
-16.73563888
 30
0.0
 11
74.83633465
 21
-16.93508305
 31
0.0
  0
LINE
  5
31A
100
AcDbEntity
  8
レイヤー_1
  6
CONTINUOUS
 62
       3
100
AcDbLine
 10
74.83633465
 20
-16.93508305
 30
0.0
 11
74.83633465
 21
-17.17128052
 31
0.0
  0
LINE
  5
31B
100
AcDbEntity
  8
レイヤー_1
  6
CONTINUOUS
 62
       3
100
AcDbLine
 10
74.83633465
 20
-17.17128052
 30
0.0
 11
74.83633465
 21
-17.43431014
 31
0.0
  0
LINE
  5
31C
100
AcDbEntity
  8
レイヤー_1
  6
CONTINUOUS
 62
       3
100
AcDbLine
 10
74.83633465
 20
-17.43431014
 30
0.0
 11
74.83633465
 21
-17.71425078
 31
0.0
  0
LINE
  5
31D
100
AcDbEntity
  8
レイヤー_1
  6
CONTINUOUS
 62
       3
100
AcDbLine
 10
74.83633465
 20
-17.71425078
 30
0.0
 11
74.83633465
 21
-18.00118132
 31
0.0
  0
LINE
  5
31E
100
AcDbEntity
  8
レイヤー_1
  6
CONTINUOUS
 62
       3
100
AcDbLine
 10
74.83633465
 20
-18.00118132
 30
0.0
 11
74.83633465
 21
-18.28518061
 31
0.0
  0
LINE
  5
31F
100
AcDbEntity
  8
レイヤー_1
  6
CONTINUOUS
 62
       3
100
AcDbLine
 10
74.83633465
 20
-18.28518061
 30
0.0
 11
74.83633465
 21
-18.55632753
 31
0.0
  0
LINE
  5
320
100
AcDbEntity
  8
レイヤー_1
  6
CONTINUOUS
 62
       3
100
AcDbLine
 10
74.83633465
 20
-18.55632753
 30
0.0
 11
74.83633465
 21
-18.80470093
 31
0.0
  0
LINE
  5
321
100
AcDbEntity
  8
レイヤー_1
  6
CONTINUOUS
 62
       3
100
AcDbLine
 10
74.83633465
 20
-18.80470093
 30
0.0
 11
74.83633465
 21
-19.02037968
 31
0.0
  0
LINE
  5
322
100
AcDbEntity
  8
レイヤー_1
  6
CONTINUOUS
 62
       3
100
AcDbLine
 10
74.83633465
 20
-19.02037968
 30
0.0
 11
74.83633465
 21
-19.19344266
 31
0.0
  0
LINE
  5
323
100
AcDbEntity
  8
レイヤー_1
  6
CONTINUOUS
 62
       3
100
AcDbLine
 10
74.83633465
 20
-19.19344266
 30
0.0
 11
74.83633465
 21
-19.31396872
 31
0.0
  0
LINE
  5
324
100
AcDbEntity
  8
レイヤー_1
  6
CONTINUOUS
 62
       3
100
AcDbLine
 10
74.83633465
 20
-19.31396872
 30
0.0
 11
74.83633465
 21
-19.37203673
 31
0.0
  0
LINE
  5
325
100
AcDbEntity
  8
レイヤー_1
  6
CONTINUOUS
 62
       3
100
AcDbLine
 10
74.83633465
 20
-19.37203673
 30
0.0
 11
74.83145876
 21
-19.37580709
 31
0.0
  0
LINE
  5
326
100
AcDbEntity
  8
レイヤー_1
  6
CONTINUOUS
 62
       3
100
AcDbLine
 10
74.83145876
 20
-19.37580709
 30
0.0
 11
74.80800635
 21
-19.37580709
 31
0.0
  0
LINE
  5
327
100
AcDbEntity
  8
レイヤー_1
  6
CONTINUOUS
 62
       3
100
AcDbLine
 10
74.80800635
 20
-19.37580709
 30
0.0
 11
74.76770765
 21
-19.37580709
 31
0.0
  0
LINE
  5
328
100
AcDbEntity
  8
レイヤー_1
  6
CONTINUOUS
 62
       3
100
AcDbLine
 10
74.76770765
 20
-19.37580709
 30
0.0
 11
74.71340264
 21
-19.37580709
 31
0.0
  0
LINE
  5
329
100
AcDbEntity
  8
レイヤー_1
  6
CONTINUOUS
 62
       3
100
AcDbLine
 10
74.71340264
 20
-19.37580709
 30
0.0
 11
74.64793131
 21
-19.37580709
 31
0.0
  0
LINE
  5
32A
100
AcDbEntity
  8
レイヤー_1
  6
CONTINUOUS
 62
       3
100
AcDbLine
 10
74.64793131
 20
-19.37580709
 30
0.0
 11
74.57413365
 21
-19.37580709
 31
0.0
  0
LINE
  5
32B
100
AcDbEntity
  8
レイヤー_1
  6
CONTINUOUS
 62
       3
100
AcDbLine
 10
74.57413365
 20
-19.37580709
 30
0.0
 11
74.49484965
 21
-19.37580709
 31
0.0
  0
LINE
  5
32C
100
AcDbEntity
  8
レイヤー_1
  6
CONTINUOUS
 62
       3
100
AcDbLine
 10
74.49484965
 20
-19.37580709
 30
0.0
 11
74.41291929
 21
-19.37580709
 31
0.0
  0
LINE
  5
32D
100
AcDbEntity
  8
レイヤー_1
  6
CONTINUOUS
 62
       3
100
AcDbLine
 10
74.41291929
 20
-19.37580709
 30
0.0
 11
74.33118257
 21
-19.37580709
 31
0.0
  0
LINE
  5
32E
100
AcDbEntity
  8
レイヤー_1
  6
CONTINUOUS
 62
       3
100
AcDbLine
 10
74.33118257
 20
-19.37580709
 30
0.0
 11
74.25247947
 21
-19.37580709
 31
0.0
  0
LINE
  5
32F
100
AcDbEntity
  8
レイヤー_1
  6
CONTINUOUS
 62
       3
100
AcDbLine
 10
74.25247947
 20
-19.37580709
 30
0.0
 11
74.17964999
 21
-19.37580709
 31
0.0
  0
LINE
  5
330
100
AcDbEntity
  8
レイヤー_1
  6
CONTINUOUS
 62
       3
100
AcDbLine
 10
74.17964999
 20
-19.37580709
 30
0.0
 11
74.1155341
 21
-19.37580709
 31
0.0
  0
LINE
  5
331
100
AcDbEntity
  8
レイヤー_1
  6
CONTINUOUS
 62
       3
100
AcDbLine
 10
74.1155341
 20
-19.37580709
 30
0.0
 11
74.06297182
 21
-19.37580709
 31
0.0
  0
LINE
  5
332
100
AcDbEntity
  8
レイヤー_1
  6
CONTINUOUS
 62
       3
100
AcDbLine
 10
74.06297182
 20
-19.37580709
 30
0.0
 11
74.02480311
 21
-19.37580709
 31
0.0
  0
LINE
  5
333
100
AcDbEntity
  8
レイヤー_1
  6
CONTINUOUS
 62
       3
100
AcDbLine
 10
74.02480311
 20
-19.37580709
 30
0.0
 11
74.00386797
 21
-19.37580709
 31
0.0
  0
LINE
  5
334
100
AcDbEntity
  8
レイヤー_1
  6
CONTINUOUS
 62
       3
100
AcDbLine
 10
74.00072819
 20
-19.37910859
 30
0.0
 11
74.00072819
 21
-19.40810433
 31
0.0
  0
LINE
  5
335
100
AcDbEntity
  8
レイヤー_1
  6
CONTINUOUS
 62
       3
100
AcDbLine
 10
74.00072819
 20
-19.40810433
 30
0.0
 11
74.00072819
 21
-19.46347807
 31
0.0
  0
LINE
  5
336
100
AcDbEntity
  8
レイヤー_1
  6
CONTINUOUS
 62
       3
100
AcDbLine
 10
74.00072819
 20
-19.46347807
 30
0.0
 11
74.00072819
 21
-19.54094704
 31
0.0
  0
LINE
  5
337
100
AcDbEntity
  8
レイヤー_1
  6
CONTINUOUS
 62
       3
100
AcDbLine
 10
74.00072819
 20
-19.54094704
 30
0.0
 11
74.00072819
 21
-19.63622846
 31
0.0
  0
LINE
  5
338
100
AcDbEntity
  8
レイヤー_1
  6
CONTINUOUS
 62
       3
100
AcDbLine
 10
74.00072819
 20
-19.63622846
 30
0.0
 11
74.00072819
 21
-19.74503954
 31
0.0
  0
LINE
  5
339
100
AcDbEntity
  8
レイヤー_1
  6
CONTINUOUS
 62
       3
100
AcDbLine
 10
74.00072819
 20
-19.74503954
 30
0.0
 11
74.00072819
 21
-19.86309753
 31
0.0
  0
LINE
  5
33A
100
AcDbEntity
  8
レイヤー_1
  6
CONTINUOUS
 62
       3
100
AcDbLine
 10
74.00072819
 20
-19.86309753
 30
0.0
 11
74.00072819
 21
-19.98611965
 31
0.0
  0
LINE
  5
33B
100
AcDbEntity
  8
レイヤー_1
  6
CONTINUOUS
 62
       3
100
AcDbLine
 10
74.00072819
 20
-19.98611965
 30
0.0
 11
74.00072819
 21
-20.10982311
 31
0.0
  0
LINE
  5
33C
100
AcDbEntity
  8
レイヤー_1
  6
CONTINUOUS
 62
       3
100
AcDbLine
 10
74.00072819
 20
-20.10982311
 30
0.0
 11
74.00072819
 21
-20.22992516
 31
0.0
  0
LINE
  5
33D
100
AcDbEntity
  8
レイヤー_1
  6
CONTINUOUS
 62
       3
100
AcDbLine
 10
74.00072819
 20
-20.22992516
 30
0.0
 11
74.00072819
 21
-20.342143
 31
0.0
  0
LINE
  5
33E
100
AcDbEntity
  8
レイヤー_1
  6
CONTINUOUS
 62
       3
100
AcDbLine
 10
74.00072819
 20
-20.342143
 30
0.0
 11
74.00072819
 21
-20.44219387
 31
0.0
  0
LINE
  5
33F
100
AcDbEntity
  8
レイヤー_1
  6
CONTINUOUS
 62
       3
100
AcDbLine
 10
74.00072819
 20
-20.44219387
 30
0.0
 11
74.00072819
 21
-20.52579499
 31
0.0
  0
LINE
  5
340
100
AcDbEntity
  8
レイヤー_1
  6
CONTINUOUS
 62
       3
100
AcDbLine
 10
74.00072819
 20
-20.52579499
 30
0.0
 11
74.00072819
 21
-20.58866358
 31
0.0
  0
LINE
  5
341
100
AcDbEntity
  8
レイヤー_1
  6
CONTINUOUS
 62
       3
100
AcDbLine
 10
74.00072819
 20
-20.58866358
 30
0.0
 11
74.00072819
 21
-20.62651688
 31
0.0
  0
LINE
  5
342
100
AcDbEntity
  8
レイヤー_1
  6
CONTINUOUS
 62
       3
100
AcDbLine
 10
74.00072819
 20
-20.62651688
 30
0.0
 11
74.00191343
 21
-20.63592262
 31
0.0
  0
LINE
  5
343
100
AcDbEntity
  8
レイヤー_1
  6
CONTINUOUS
 62
       3
100
AcDbLine
 10
74.00191343
 20
-20.63592262
 30
0.0
 11
74.03376137
 21
-20.63592262
 31
0.0
  0
LINE
  5
344
100
AcDbEntity
  8
レイヤー_1
  6
CONTINUOUS
 62
       3
100
AcDbLine
 10
74.03376137
 20
-20.63592262
 30
0.0
 11
74.10449103
 21
-20.63592262
 31
0.0
  0
LINE
  5
345
100
AcDbEntity
  8
レイヤー_1
  6
CONTINUOUS
 62
       3
100
AcDbLine
 10
74.10449103
 20
-20.63592262
 30
0.0
 11
74.20801415
 21
-20.63592262
 31
0.0
  0
LINE
  5
346
100
AcDbEntity
  8
レイヤー_1
  6
CONTINUOUS
 62
       3
100
AcDbLine
 10
74.20801415
 20
-20.63592262
 30
0.0
 11
74.3382425
 21
-20.63592262
 31
0.0
  0
LINE
  5
347
100
AcDbEntity
  8
レイヤー_1
  6
CONTINUOUS
 62
       3
100
AcDbLine
 10
74.3382425
 20
-20.63592262
 30
0.0
 11
74.48908784
 21
-20.63592262
 31
0.0
  0
LINE
  5
348
100
AcDbEntity
  8
レイヤー_1
  6
CONTINUOUS
 62
       3
100
AcDbLine
 10
74.48908784
 20
-20.63592262
 30
0.0
 11
74.65446193
 21
-20.63592262
 31
0.0
  0
LINE
  5
349
100
AcDbEntity
  8
レイヤー_1
  6
CONTINUOUS
 62
       3
100
AcDbLine
 10
74.65446193
 20
-20.63592262
 30
0.0
 11
74.82827654
 21
-20.63592262
 31
0.0
  0
LINE
  5
34A
100
AcDbEntity
  8
レイヤー_1
  6
CONTINUOUS
 62
       3
100
AcDbLine
 10
74.82827654
 20
-20.63592262
 30
0.0
 11
75.00444342
 21
-20.63592262
 31
0.0
  0
LINE
  5
34B
100
AcDbEntity
  8
レイヤー_1
  6
CONTINUOUS
 62
       3
100
AcDbLine
 10
75.00444342
 20
-20.63592262
 30
0.0
 11
75.17687433
 21
-20.63592262
 31
0.0
  0
LINE
  5
34C
100
AcDbEntity
  8
レイヤー_1
  6
CONTINUOUS
 62
       3
100
AcDbLine
 10
75.17687433
 20
-20.63592262
 30
0.0
 11
75.33948104
 21
-20.63592262
 31
0.0
  0
LINE
  5
34D
100
AcDbEntity
  8
レイヤー_1
  6
CONTINUOUS
 62
       3
100
AcDbLine
 10
75.33948104
 20
-20.63592262
 30
0.0
 11
75.48617531
 21
-20.63592262
 31
0.0
  0
LINE
  5
34E
100
AcDbEntity
  8
レイヤー_1
  6
CONTINUOUS
 62
       3
100
AcDbLine
 10
75.48617531
 20
-20.63592262
 30
0.0
 11
75.6108689
 21
-20.63592262
 31
0.0
  0
LINE
  5
34F
100
AcDbEntity
  8
レイヤー_1
  6
CONTINUOUS
 62
       3
100
AcDbLine
 10
75.6108689
 20
-20.63592262
 30
0.0
 11
75.70747357
 21
-20.63592262
 31
0.0
  0
LINE
  5
350
100
AcDbEntity
  8
レイヤー_1
  6
CONTINUOUS
 62
       3
100
AcDbLine
 10
75.70747357
 20
-20.63592262
 30
0.0
 11
75.76990108
 21
-20.63592262
 31
0.0
  0
LINE
  5
351
100
AcDbEntity
  8
レイヤー_1
  6
CONTINUOUS
 62
       3
100
AcDbLine
 10
75.76990108
 20
-20.63592262
 30
0.0
 11
75.79206319
 21
-20.63592262
 31
0.0
  0
LINE
  5
352
100
AcDbEntity
  8
レイヤー_1
  6
CONTINUOUS
 62
       3
100
AcDbLine
 10
79.8523059
 20
-26.24871398
 30
0.0
 11
79.8523059
 21
-24.69674845
 31
0.0
  0
LINE
  5
353
100
AcDbEntity
  8
レイヤー_1
  6
CONTINUOUS
 62
       3
100
AcDbLine
 10
78.77762152
 20
-26.24871398
 30
0.0
 11
78.77762152
 21
-24.69674845
 31
0.0
  0
LINE
  5
354
100
AcDbEntity
  8
レイヤー_1
  6
CONTINUOUS
 62
       3
100
AcDbLine
 10
74.83633465
 20
-16.45672408
 30
0.0
 11
74.83633465
 21
-12.66442356
 31
0.0
  0
LINE
  5
355
100
AcDbEntity
  8
レイヤー_1
  6
CONTINUOUS
 62
       3
100
AcDbLine
 10
-14.86278285
 20
-3.67800961
 30
0.0
 11
-14.86278285
 21
1.57616488
 31
0.0
  0
LINE
  5
356
100
AcDbEntity
  8
レイヤー_1
  6
CONTINUOUS
 62
       3
100
AcDbLine
 10
-16.11590099
 20
-3.67800961
 30
0.0
 11
-13.84699328
 21
-3.67800961
 31
0.0
  0
LINE
  5
357
100
AcDbEntity
  8
レイヤー_1
  6
CONTINUOUS
 62
       3
100
AcDbLine
 10
-13.84699328
 20
-3.67800961
 30
0.0
 11
-13.84699328
 21
1.57616488
 31
0.0
  0
LINE
  5
358
100
AcDbEntity
  8
レイヤー_1
  6
CONTINUOUS
 62
       3
100
AcDbLine
 10
-13.84699328
 20
1.57616488
 30
0.0
 11
-16.11590099
 21
1.57616488
 31
0.0
  0
LINE
  5
359
100
AcDbEntity
  8
レイヤー_1
  6
CONTINUOUS
 62
       3
100
AcDbLine
 10
-14.86278285
 20
-11.20196647
 30
0.0
 11
-14.86278285
 21
-5.94691732
 31
0.0
  0
LINE
  5
35A
100
AcDbEntity
  8
レイヤー_1
  6
CONTINUOUS
 62
       3
100
AcDbLine
 10
-16.11590099
 20
-11.20196647
 30
0.0
 11
-13.84699328
 21
-11.20196647
 31
0.0
  0
LINE
  5
35B
100
AcDbEntity
  8
レイヤー_1
  6
CONTINUOUS
 62
       3
100
AcDbLine
 10
-13.84699328
 20
-11.20196647
 30
0.0
 11
-13.84699328
 21
-5.94691732
 31
0.0
  0
LINE
  5
35C
100
AcDbEntity
  8
レイヤー_1
  6
CONTINUOUS
 62
       3
100
AcDbLine
 10
-13.84699328
 20
-5.94691732
 30
0.0
 11
-16.11590099
 21
-5.94691732
 31
0.0
  0
LINE
  5
35D
100
AcDbEntity
  8
レイヤー_1
  6
CONTINUOUS
 62
       3
100
AcDbLine
 10
73.46309444
 20
16.08644487
 30
0.0
 11
73.46309444
 21
12.74256122
 31
0.0
  0
LINE
  5
35E
100
AcDbEntity
  8
レイヤー_1
  6
CONTINUOUS
 62
       3
100
AcDbLine
 10
73.46309444
 20
12.74256122
 30
0.0
 11
74.12026715
 21
12.74256122
 31
0.0
  0
LINE
  5
35F
100
AcDbEntity
  8
レイヤー_1
  6
CONTINUOUS
 62
       3
100
AcDbLine
 10
74.12026715
 20
12.74256122
 30
0.0
 11
74.12026715
 21
6.71138352
 31
0.0
  0
LINE
  5
360
100
AcDbEntity
  8
レイヤー_1
  6
CONTINUOUS
 62
       3
100
AcDbLine
 10
-85.73218221
 20
28.34880935
 30
0.0
 11
-78.62282143
 21
28.34880935
 31
0.0
  0
LINE
  5
361
100
AcDbEntity
  8
レイヤー_1
  6
CONTINUOUS
 62
       3
100
AcDbLine
 10
75.22352425
 20
-12.31397033
 30
0.0
 11
71.78721658
 21
-16.07915591
 31
0.0
  0
LINE
  5
362
100
AcDbEntity
  8
レイヤー_1
  6
CONTINUOUS
 62
       3
100
AcDbLine
 10
71.78721658
 20
-16.07915591
 30
0.0
 11
65.96304537
 21
-16.07915591
 31
0.0
  0
LINE
  5
363
100
AcDbEntity
  8
レイヤー_1
  6
CONTINUOUS
 62
       3
100
AcDbLine
 10
65.96304537
 20
-16.07915591
 30
0.0
 11
65.96304537
 21
-26.23617696
 31
0.0
  0
LINE
  5
364
100
AcDbEntity
  8
レイヤー_1
  6
CONTINUOUS
 62
       3
100
AcDbLine
 10
65.96304537
 20
-26.23617696
 30
0.0
 11
81.94357693
 21
-26.23617696
 31
0.0
  0
LINE
  5
365
100
AcDbEntity
  8
レイヤー_1
  6
CONTINUOUS
 62
       3
100
AcDbLine
 10
41.45861824
 20
-48.06270777
 30
0.0
 11
39.84115931
 21
-41.9532173
 31
0.0
  0
LINE
  5
366
100
AcDbEntity
  8
レイヤー_1
  6
CONTINUOUS
 62
       3
100
AcDbLine
 10
39.84115931
 20
-41.9532173
 30
0.0
 11
36.79670617
 21
-43.02761012
 31
0.0
  0
LINE
  5
367
100
AcDbEntity
  8
レイヤー_1
  6
CONTINUOUS
 62
       3
100
AcDbLine
 10
36.79670617
 20
-43.02761012
 30
0.0
 11
27.48083119
 21
-43.02761012
 31
0.0
  0
LINE
  5
368
100
AcDbEntity
  8
レイヤー_1
  6
CONTINUOUS
 62
       3
100
AcDbLine
 10
27.48083119
 20
-43.02761012
 30
0.0
 11
25.68949619
 21
-42.49026793
 31
0.0
  0
LINE
  5
369
100
AcDbEntity
  8
レイヤー_1
  6
CONTINUOUS
 62
       3
100
AcDbLine
 10
25.68949619
 20
-42.49026793
 30
0.0
 11
24.07717806
 21
-36.5792123
 31
0.0
  0
LINE
  5
36A
100
AcDbEntity
  8
レイヤー_1
  6
CONTINUOUS
 62
       3
100
AcDbLine
 10
24.07717806
 20
-36.5792123
 30
0.0
 11
20.85312493
 21
-37.83320511
 31
0.0
  0
LINE
  5
36B
100
AcDbEntity
  8
レイヤー_1
  6
CONTINUOUS
 62
       3
100
AcDbLine
 10
20.85312493
 20
-37.83320511
 30
0.0
 11
11.53666683
 21
-37.83320511
 31
0.0
  0
LINE
  5
36C
100
AcDbEntity
  8
レイヤー_1
  6
CONTINUOUS
 62
       3
100
AcDbLine
 10
11.53666683
 20
-37.83320511
 30
0.0
 11
9.74533183
 21
-37.29527981
 31
0.0
  0
LINE
  5
36D
100
AcDbEntity
  8
レイヤー_1
  6
CONTINUOUS
 62
       3
100
AcDbLine
 10
9.74533183
 20
-37.29527981
 30
0.0
 11
8.13184748
 21
-31.38393262
 31
0.0
  0
LINE
  5
36E
100
AcDbEntity
  8
レイヤー_1
  6
CONTINUOUS
 62
       3
100
AcDbLine
 10
8.13184748
 20
-31.38393262
 30
0.0
 11
5.26407875
 21
-32.45920011
 31
0.0
  0
LINE
  5
36F
100
AcDbEntity
  8
レイヤー_1
  6
CONTINUOUS
 62
       3
100
AcDbLine
 10
5.26407875
 20
-32.45920011
 30
0.0
 11
-4.05296247
 21
-32.45920011
 31
0.0
  0
LINE
  5
370
100
AcDbEntity
  8
レイヤー_1
  6
CONTINUOUS
 62
       3
100
AcDbLine
 10
-4.05296247
 20
-32.45920011
 30
0.0
 11
-5.84488058
 21
-31.92127481
 31
0.0
  0
LINE
  5
371
100
AcDbEntity
  8
レイヤー_1
  6
CONTINUOUS
 62
       3
100
AcDbLine
 10
-5.84488058
 20
-31.92127481
 30
0.0
 11
-7.45778182
 21
-26.00992762
 31
0.0
  0
LINE
  5
372
100
AcDbEntity
  8
レイヤー_1
  6
CONTINUOUS
 62
       3
100
AcDbLine
 10
-7.45778182
 20
-26.00992762
 30
0.0
 11
-16.05642307
 21
-28.87653012
 31
0.0
  0
LINE
  5
373
100
AcDbEntity
  8
レイヤー_1
  6
CONTINUOUS
 62
       3
100
AcDbLine
 10
-16.05642307
 20
-28.87653012
 30
0.0
 11
-16.05642307
 21
28.62578986
 31
0.0
  0
LINE
  5
374
100
AcDbEntity
  8
レイヤー_1
  6
CONTINUOUS
 62
       3
100
AcDbLine
 10
-16.05642307
 20
28.62578986
 30
0.0
 11
-7.45778182
 21
25.75977049
 31
0.0
  0
LINE
  5
375
100
AcDbEntity
  8
レイヤー_1
  6
CONTINUOUS
 62
       3
100
AcDbLine
 10
-7.45778182
 20
25.75977049
 30
0.0
 11
-5.84488058
 21
31.67111767
 31
0.0
  0
LINE
  5
376
100
AcDbEntity
  8
レイヤー_1
  6
CONTINUOUS
 62
       3
100
AcDbLine
 10
-5.84488058
 20
31.67111767
 30
0.0
 11
-4.05296247
 21
32.20845986
 31
0.0
  0
LINE
  5
377
100
AcDbEntity
  8
レイヤー_1
  6
CONTINUOUS
 62
       3
100
AcDbLine
 10
-4.05296247
 20
32.20845986
 30
0.0
 11
5.26407875
 21
32.20845986
 31
0.0
  0
LINE
  5
378
100
AcDbEntity
  8
レイヤー_1
  6
CONTINUOUS
 62
       3
100
AcDbLine
 10
5.26407875
 20
32.20845986
 30
0.0
 11
8.13184748
 21
31.13377549
 31
0.0
  0
LINE
  5
379
100
AcDbEntity
  8
レイヤー_1
  6
CONTINUOUS
 62
       3
100
AcDbLine
 10
8.13184748
 20
31.13377549
 30
0.0
 11
9.74533183
 21
37.04512267
 31
0.0
  0
LINE
  5
37A
100
AcDbEntity
  8
レイヤー_1
  6
CONTINUOUS
 62
       3
100
AcDbLine
 10
9.74533183
 20
37.04512267
 30
0.0
 11
11.53666683
 21
37.58246486
 31
0.0
  0
LINE
  5
37B
100
AcDbEntity
  8
レイヤー_1
  6
CONTINUOUS
 62
       3
100
AcDbLine
 10
11.53666683
 20
37.58246486
 30
0.0
 11
20.85312493
 21
37.58246486
 31
0.0
  0
LINE
  5
37C
100
AcDbEntity
  8
レイヤー_1
  6
CONTINUOUS
 62
       3
100
AcDbLine
 10
20.85312493
 20
37.58246486
 30
0.0
 11
24.07717806
 21
36.32847205
 31
0.0
  0
LINE
  5
37D
100
AcDbEntity
  8
レイヤー_1
  6
CONTINUOUS
 62
       3
100
AcDbLine
 10
24.07717806
 20
36.32847205
 30
0.0
 11
25.68949619
 21
42.23952768
 31
0.0
  0
LINE
  5
37E
100
AcDbEntity
  8
レイヤー_1
  6
CONTINUOUS
 62
       3
100
AcDbLine
 10
25.68949619
 20
42.23952768
 30
0.0
 11
27.48083119
 21
42.77745298
 31
0.0
  0
LINE
  5
37F
100
AcDbEntity
  8
レイヤー_1
  6
CONTINUOUS
 62
       3
100
AcDbLine
 10
27.48083119
 20
42.77745298
 30
0.0
 11
36.79670617
 21
42.77745298
 31
0.0
  0
LINE
  5
380
100
AcDbEntity
  8
レイヤー_1
  6
CONTINUOUS
 62
       3
100
AcDbLine
 10
36.79670617
 20
42.77745298
 30
0.0
 11
39.84115931
 21
41.70247705
 31
0.0
  0
LINE
  5
381
100
AcDbEntity
  8
レイヤー_1
  6
CONTINUOUS
 62
       3
100
AcDbLine
 10
39.84115931
 20
41.70247705
 30
0.0
 11
41.22691938
 21
46.93729223
 31
0.0
  0
LINE
  5
382
100
AcDbEntity
  8
レイヤー_1
  6
CONTINUOUS
 62
       3
100
AcDbLine
 10
77.58963806
 20
46.93729223
 30
0.0
 11
79.19513319
 21
40.80680955
 31
0.0
  0
LINE
  5
383
100
AcDbEntity
  8
レイヤー_1
  6
CONTINUOUS
 62
       3
100
AcDbLine
 10
79.19513319
 20
40.80680955
 30
0.0
 11
79.19513319
 21
19.49009799
 31
0.0
  0
LINE
  5
384
100
AcDbEntity
  8
レイヤー_1
  6
CONTINUOUS
 62
       3
100
AcDbLine
 10
79.19513319
 20
19.49009799
 30
0.0
 11
72.56742694
 21
15.54910268
 31
0.0
  0
LINE
  5
385
100
AcDbEntity
  8
レイヤー_1
  6
CONTINUOUS
 62
       3
100
AcDbLine
 10
72.56742694
 20
15.54910268
 30
0.0
 11
70.41805819
 21
10.35411456
 31
0.0
  0
LINE
  5
386
100
AcDbEntity
  8
レイヤー_1
  6
CONTINUOUS
 62
       3
100
AcDbLine
 10
70.41805819
 20
10.35411456
 30
0.0
 11
75.22352425
 21
5.69967577
 31
0.0
  0
LINE
  5
387
100
AcDbEntity
  8
レイヤー_1
  6
CONTINUOUS
 62
       3
100
AcDbLine
 10
75.22352425
 20
5.69967577
 30
0.0
 11
75.22352425
 21
-12.31397033
 31
0.0
  0
LINE
  5
388
100
AcDbEntity
  8
レイヤー_1
  6
CONTINUOUS
 62
       3
100
AcDbLine
 10
-79.99810255
 20
-16.2812059
 30
0.0
 11
-83.400881
 21
-16.2812059
 31
0.0
  0
LINE
  5
389
100
AcDbEntity
  8
レイヤー_1
  6
CONTINUOUS
 62
       3
100
AcDbLine
 10
-83.400881
 20
-16.2812059
 30
0.0
 11
-83.400881
 21
-17.40662144
 31
0.0
  0
LINE
  5
38A
100
AcDbEntity
  8
レイヤー_1
  6
CONTINUOUS
 62
       3
100
AcDbLine
 10
-83.400881
 20
-17.40662144
 30
0.0
 11
-79.99810255
 21
-17.40662144
 31
0.0
  0
LINE
  5
38B
100
AcDbEntity
  8
レイヤー_1
  6
CONTINUOUS
 62
       3
100
AcDbLine
 10
-79.99810255
 20
-17.40662144
 30
0.0
 11
-79.99810255
 21
-16.2812059
 31
0.0
  0
LINE
  5
38C
100
AcDbEntity
  8
レイヤー_1
  6
CONTINUOUS
 62
       3
100
AcDbLine
 10
-79.99810255
 20
-13.23354562
 30
0.0
 11
-83.400881
 21
-13.23354562
 31
0.0
  0
LINE
  5
38D
100
AcDbEntity
  8
レイヤー_1
  6
CONTINUOUS
 62
       3
100
AcDbLine
 10
-83.400881
 20
-13.23354562
 30
0.0
 11
-83.400881
 21
-14.35896116
 31
0.0
  0
LINE
  5
38E
100
AcDbEntity
  8
レイヤー_1
  6
CONTINUOUS
 62
       3
100
AcDbLine
 10
-83.400881
 20
-14.35896116
 30
0.0
 11
-79.99810255
 21
-14.35896116
 31
0.0
  0
LINE
  5
38F
100
AcDbEntity
  8
レイヤー_1
  6
CONTINUOUS
 62
       3
100
AcDbLine
 10
-79.99810255
 20
-14.35896116
 30
0.0
 11
-79.99810255
 21
-13.23354562
 31
0.0
  0
LINE
  5
390
100
AcDbEntity
  8
レイヤー_1
  6
CONTINUOUS
 62
       3
100
AcDbLine
 10
-85.73218221
 20
-29.10890218
 30
0.0
 11
-78.62282143
 21
-29.10890218
 31
0.0
  0
LINE
  5
391
100
AcDbEntity
  8
レイヤー_1
  6
CONTINUOUS
 62
       3
100
AcDbLine
 10
-83.38951022
 20
35.11588054
 30
0.0
 11
-80.58909149
 21
32.31546181
 31
0.0
  0
LINE
  5
392
100
AcDbEntity
  8
レイヤー_1
  6
CONTINUOUS
 62
       3
100
AcDbLine
 10
-83.80031605
 20
34.70565782
 30
0.0
 11
-80.99931421
 21
31.90407286
 31
0.0
  0
LINE
  5
393
100
AcDbEntity
  8
レイヤー_1
  6
CONTINUOUS
 62
       3
100
AcDbLine
 10
-83.38951022
 20
40.40154333
 30
0.0
 11
-80.58909149
 21
37.6011246
 31
0.0
  0
LINE
  5
394
100
AcDbEntity
  8
レイヤー_1
  6
CONTINUOUS
 62
       3
100
AcDbLine
 10
-83.80031605
 20
39.99132062
 30
0.0
 11
-80.99931421
 21
37.18973566
 31
0.0
  0
LINE
  5
395
100
AcDbEntity
  8
レイヤー_1
  6
CONTINUOUS
 62
       3
100
AcDbLine
 10
-83.38951022
 20
45.77846391
 30
0.0
 11
-80.58909149
 21
42.97804518
 31
0.0
  0
LINE
  5
396
100
AcDbEntity
  8
レイヤー_1
  6
CONTINUOUS
 62
       3
100
AcDbLine
 10
-83.80031605
 20
45.36765808
 30
0.0
 11
-80.99931421
 21
42.56665624
 31
0.0
  0
LINE
  5
397
100
AcDbEntity
  8
レイヤー_1
  6
CONTINUOUS
 62
       3
100
AcDbLine
 10
-83.38951022
 20
29.94188462
 30
0.0
 11
-81.7392895
 21
28.32023663
 31
0.0
  0
LINE
  5
398
100
AcDbEntity
  8
レイヤー_1
  6
CONTINUOUS
 62
       3
100
AcDbLine
 10
-83.80031605
 20
29.53166191
 30
0.0
 11
-82.58480895
 21
28.34997559
 31
0.0
  0
LINE
  5
399
100
AcDbEntity
  8
レイヤー_1
  6
CONTINUOUS
 62
       3
100
AcDbLine
 10
-83.78777904
 20
-30.273095
 30
0.0
 11
-82.64370376
 21
-29.13280998
 31
0.0
  0
LINE
  5
39A
100
AcDbEntity
  8
レイヤー_1
  6
CONTINUOUS
 62
       3
100
AcDbLine
 10
-83.38951022
 20
-30.70256057
 30
0.0
 11
-81.87777976
 21
-29.16313205
 31
0.0
  0
LINE
  5
39B
100
AcDbEntity
  8
レイヤー_1
  6
CONTINUOUS
 62
       3
100
AcDbLine
 10
-83.78777904
 20
-46.12950026
 30
0.0
 11
-80.98736032
 21
-43.32908154
 31
0.0
  0
LINE
  5
39C
100
AcDbEntity
  8
レイヤー_1
  6
CONTINUOUS
 62
       3
100
AcDbLine
 10
-83.38951022
 20
-46.55896583
 30
0.0
 11
-80.58909149
 21
-43.75767243
 31
0.0
  0
LINE
  5
39D
100
AcDbEntity
  8
レイヤー_1
  6
CONTINUOUS
 62
       3
100
AcDbLine
 10
-83.41458425
 20
-41.11148811
 30
0.0
 11
-80.61416552
 21
-38.30990315
 31
0.0
  0
LINE
  5
39E
100
AcDbEntity
  8
レイヤー_1
  6
CONTINUOUS
 62
       3
100
AcDbLine
 10
-83.78777904
 20
-40.73829332
 30
0.0
 11
-80.98736031
 21
-37.93670836
 31
0.0
  0
LINE
  5
39F
100
AcDbEntity
  8
レイヤー_1
  6
CONTINUOUS
 62
       3
100
AcDbLine
 10
-83.78777904
 20
-35.49927987
 30
0.0
 11
-80.98736031
 21
-32.69798647
 31
0.0
  0
LINE
  5
3A0
100
AcDbEntity
  8
レイヤー_1
  6
CONTINUOUS
 62
       3
100
AcDbLine
 10
-83.38951022
 20
-35.92787077
 30
0.0
 11
-80.58909149
 21
-33.12745204
 31
0.0
  0
LINE
  5
3A1
100
AcDbEntity
  8
レイヤー_1
  6
CONTINUOUS
 62
       3
100
AcDbLine
 10
-78.62282143
 20
41.96225561
 30
0.0
 11
-85.73218221
 21
41.96225561
 31
0.0
  0
LINE
  5
3A2
100
AcDbEntity
  8
レイヤー_1
  6
CONTINUOUS
 62
       3
100
AcDbLine
 10
-85.73218221
 20
42.4995978
 30
0.0
 11
-78.62282143
 21
42.4995978
 31
0.0
  0
LINE
  5
3A3
100
AcDbEntity
  8
レイヤー_1
  6
CONTINUOUS
 62
       3
100
AcDbLine
 10
-78.62282143
 20
36.58825061
 30
0.0
 11
-85.73218221
 21
36.58825061
 31
0.0
  0
LINE
  5
3A4
100
AcDbEntity
  8
レイヤー_1
  6
CONTINUOUS
 62
       3
100
AcDbLine
 10
-85.73218221
 20
37.1255928
 30
0.0
 11
-78.62282143
 21
37.1255928
 31
0.0
  0
LINE
  5
3A5
100
AcDbEntity
  8
レイヤー_1
  6
CONTINUOUS
 62
       3
100
AcDbLine
 10
-78.62282143
 20
31.36410665
 30
0.0
 11
-85.73218221
 21
31.36410665
 31
0.0
  0
LINE
  5
3A6
100
AcDbEntity
  8
レイヤー_1
  6
CONTINUOUS
 62
       3
100
AcDbLine
 10
-85.73218221
 20
31.90174039
 30
0.0
 11
-78.62282143
 21
31.90174039
 31
0.0
  0
LINE
  5
3A7
100
AcDbEntity
  8
レイヤー_1
  6
CONTINUOUS
 62
       3
100
AcDbLine
 10
-78.62282143
 20
-42.72293156
 30
0.0
 11
-85.73218221
 21
-42.72293156
 31
0.0
  0
LINE
  5
3A8
100
AcDbEntity
  8
レイヤー_1
  6
CONTINUOUS
 62
       3
100
AcDbLine
 10
-85.73218221
 20
-43.26027375
 30
0.0
 11
-78.62282143
 21
-43.26027375
 31
0.0
  0
LINE
  5
3A9
100
AcDbEntity
  8
レイヤー_1
  6
CONTINUOUS
 62
       3
100
AcDbLine
 10
-78.62282143
 20
-37.34892656
 30
0.0
 11
-85.73218221
 21
-37.34892656
 31
0.0
  0
LINE
  5
3AA
100
AcDbEntity
  8
レイヤー_1
  6
CONTINUOUS
 62
       3
100
AcDbLine
 10
-85.73218221
 20
-37.88626875
 30
0.0
 11
-78.62282143
 21
-37.88626875
 31
0.0
  0
LINE
  5
3AB
100
AcDbEntity
  8
レイヤー_1
  6
CONTINUOUS
 62
       3
100
AcDbLine
 10
-85.7505504
 20
-10.11416197
 30
0.0
 11
-84.33357642
 21
-10.11416197
 31
0.0
  0
LINE
  5
3AC
100
AcDbEntity
  8
レイヤー_1
  6
CONTINUOUS
 62
       3
100
AcDbLine
 10
-84.33357642
 20
-10.11416197
 30
0.0
 11
-84.3294946
 21
-10.78299701
 31
0.0
  0
LINE
  5
3AD
100
AcDbEntity
  8
レイヤー_1
  6
CONTINUOUS
 62
       3
100
AcDbLine
 10
-84.3294946
 20
-10.78299701
 30
0.0
 11
-79.9115097
 21
-10.78299701
 31
0.0
  0
LINE
  5
3AE
100
AcDbEntity
  8
レイヤー_1
  6
CONTINUOUS
 62
       3
100
AcDbLine
 10
-79.9115097
 20
-10.78299701
 30
0.0
 11
-79.9115097
 21
-10.10687301
 31
0.0
  0
LINE
  5
3AF
100
AcDbEntity
  8
レイヤー_1
  6
CONTINUOUS
 62
       3
100
AcDbLine
 10
-79.9115097
 20
-10.10687301
 30
0.0
 11
-78.62282143
 21
-10.10687301
 31
0.0
  0
LINE
  5
3B0
100
AcDbEntity
  8
レイヤー_1
  6
CONTINUOUS
 62
       3
100
AcDbLine
 10
-78.62282143
 20
-5.8425394
 30
0.0
 11
-80.03979541
 21
-5.8425394
 31
0.0
  0
LINE
  5
3B1
100
AcDbEntity
  8
レイヤー_1
  6
CONTINUOUS
 62
       3
100
AcDbLine
 10
-80.03979541
 20
-5.8425394
 30
0.0
 11
-80.04387723
 21
-5.17370436
 31
0.0
  0
LINE
  5
3B2
100
AcDbEntity
  8
レイヤー_1
  6
CONTINUOUS
 62
       3
100
AcDbLine
 10
-80.04387723
 20
-5.17370436
 30
0.0
 11
-84.46273681
 21
-5.17370436
 31
0.0
  0
LINE
  5
3B3
100
AcDbEntity
  8
レイヤー_1
  6
CONTINUOUS
 62
       3
100
AcDbLine
 10
-84.46273681
 20
-5.17370436
 30
0.0
 11
-84.46273681
 21
-5.84895368
 31
0.0
  0
LINE
  5
3B4
100
AcDbEntity
  8
レイヤー_1
  6
CONTINUOUS
 62
       3
100
AcDbLine
 10
-84.46273681
 20
-5.84895368
 30
0.0
 11
-85.7505504
 21
-5.84895368
 31
0.0
  0
LINE
  5
3B5
100
AcDbEntity
  8
レイヤー_1
  6
CONTINUOUS
 62
       3
100
AcDbLine
 10
-85.7505504
 20
-3.74302714
 30
0.0
 11
-84.33357642
 21
-3.74302714
 31
0.0
  0
LINE
  5
3B6
100
AcDbEntity
  8
レイヤー_1
  6
CONTINUOUS
 62
       3
100
AcDbLine
 10
-84.33357642
 20
-3.74302714
 30
0.0
 11
-84.3294946
 21
-4.41157062
 31
0.0
  0
LINE
  5
3B7
100
AcDbEntity
  8
レイヤー_1
  6
CONTINUOUS
 62
       3
100
AcDbLine
 10
-84.3294946
 20
-4.41157062
 30
0.0
 11
-79.9115097
 21
-4.41157062
 31
0.0
  0
LINE
  5
3B8
100
AcDbEntity
  8
レイヤー_1
  6
CONTINUOUS
 62
       3
100
AcDbLine
 10
-79.9115097
 20
-4.41157062
 30
0.0
 11
-79.9115097
 21
-3.73573818
 31
0.0
  0
LINE
  5
3B9
100
AcDbEntity
  8
レイヤー_1
  6
CONTINUOUS
 62
       3
100
AcDbLine
 10
-79.9115097
 20
-3.73573818
 30
0.0
 11
-78.62282143
 21
-3.73573818
 31
0.0
  0
LINE
  5
3BA
100
AcDbEntity
  8
レイヤー_1
  6
CONTINUOUS
 62
       3
100
AcDbLine
 10
-78.62282143
 20
0.52830388
 30
0.0
 11
-80.03979541
 21
0.52830388
 31
0.0
  0
LINE
  5
3BB
100
AcDbEntity
  8
レイヤー_1
  6
CONTINUOUS
 62
       3
100
AcDbLine
 10
-80.03979541
 20
0.52830388
 30
0.0
 11
-80.04387723
 21
1.19743048
 31
0.0
  0
LINE
  5
3BC
100
AcDbEntity
  8
レイヤー_1
  6
CONTINUOUS
 62
       3
100
AcDbLine
 10
-80.04387723
 20
1.19743048
 30
0.0
 11
-84.46273681
 21
1.19743048
 31
0.0
  0
LINE
  5
3BD
100
AcDbEntity
  8
レイヤー_1
  6
CONTINUOUS
 62
       3
100
AcDbLine
 10
-84.46273681
 20
1.19743048
 30
0.0
 11
-84.46273681
 21
0.52218115
 31
0.0
  0
LINE
  5
3BE
100
AcDbEntity
  8
レイヤー_1
  6
CONTINUOUS
 62
       3
100
AcDbLine
 10
-84.46273681
 20
0.52218115
 30
0.0
 11
-85.7505504
 21
0.52218115
 31
0.0
  0
LINE
  5
3BF
100
AcDbEntity
  8
レイヤー_1
  6
CONTINUOUS
 62
       3
100
AcDbLine
 10
-78.62282143
 20
-32.12478259
 30
0.0
 11
-85.73218221
 21
-32.12478259
 31
0.0
  0
LINE
  5
3C0
100
AcDbEntity
  8
レイヤー_1
  6
CONTINUOUS
 62
       3
100
AcDbLine
 10
-85.73218221
 20
-32.66154167
 30
0.0
 11
-78.62282143
 21
-32.66154167
 31
0.0
  0
LINE
  5
3C1
100
AcDbEntity
  8
レイヤー_1
  6
CONTINUOUS
 62
       3
100
AcDbLine
 10
81.94357693
 20
-48.06270777
 30
0.0
 11
81.94357693
 21
-26.23617696
 31
0.0
  0
LINE
  5
3C2
100
AcDbEntity
  8
レイヤー_1
  6
CONTINUOUS
 62
       3
100
AcDbLine
 10
41.45861824
 20
-48.06270777
 30
0.0
 11
81.94357693
 21
-48.06270777
 31
0.0
  0
LINE
  5
3C3
100
AcDbEntity
  8
レイヤー_1
  6
CONTINUOUS
 62
       3
100
AcDbLine
 10
41.22691938
 20
46.93729223
 30
0.0
 11
77.58963806
 21
46.93729223
 31
0.0
  0
LINE
  5
3C4
100
AcDbEntity
  8
レイヤー_1
  6
CONTINUOUS
 62
       3
100
AcDbLine
 10
-85.67750182
 20
46.93729223
 30
0.0
 11
-85.67750182
 21
-48.06270777
 31
0.0
  0
LINE
  5
3C5
100
AcDbEntity
  8
レイヤー_1
  6
CONTINUOUS
 62
       3
100
AcDbLine
 10
-78.67750182
 20
46.93729223
 30
0.0
 11
-78.67750182
 21
-48.06270777
 31
0.0
  0
LINE
  5
3C6
100
AcDbEntity
  8
レイヤー_1
  6
CONTINUOUS
 62
       3
100
AcDbLine
 10
-78.67750182
 20
46.93729223
 30
0.0
 11
-85.67750182
 21
46.93729223
 31
0.0
  0
LINE
  5
3C7
100
AcDbEntity
  8
レイヤー_1
  6
CONTINUOUS
 62
       3
100
AcDbLine
 10
-78.67750182
 20
-48.06270777
 30
0.0
 11
-85.67750182
 21
-48.06270777
 31
0.0
  0
LINE
  5
3C8
100
AcDbEntity
  8
レイヤー_1
  6
CENTERX2
 62
       3
100
AcDbLine
 10
-20.387232
 20
-0.56270777
 30
0.0
 11
91.3128847
 21
-0.56270777
 31
0.0
  0
LINE
  5
3C9
100
AcDbEntity
  8
レイヤー_1
  6
CENTERX2
 62
       3
100
AcDbLine
 10
-82.17750182
 20
50.80726373
 30
0.0
 11
-82.17750182
 21
-50.80726373
 31
0.0
  0
LINE
  5
3CA
100
AcDbEntity
  8
レイヤー_1
  6
CENTERX2
 62
       3
100
AcDbLine
 10
-71.70665978
 20
-0.56270777
 30
0.0
 11
-91.3128847
 21
-0.56270777
 31
0.0
  0
TEXT
  5
3CB
100
AcDbEntity
  8
0
 62
       7
100
AcDbText
 10
108.72081448
 20
-104.04479638
 30
0.0
 40
5.0
  1
000
 41
0.8
 72
       5
 11
120.72081448
 21
-104.04479638
 31
0.0
100
AcDbText
  0
ENDSEC
  0
SECTION
  2
OBJECTS
  0
DICTIONARY
  5
19
100
AcDbDictionary
  3
ACAD_GROUP
350
1A
  3
ACAD_MLINESTYLE
350
1B
  0
DICTIONARY
  5
1A
102
{ACAD_REACTORS
330
19
102
}
100
AcDbDictionary
  0
DICTIONARY
  5
1B
102
{ACAD_REACTORS
330
19
102
}
100
AcDbDictionary
  3
STANDARD
350
1C
  0
MLINESTYLE
  5
1C
102
{ACAD_REACTORS
330
1B
102
}
100
AcDbMlineStyle
  2
STANDARD
 70
       0
  3

 62
       0
 51
90.0
 52
90.0
 71
       2
 49
0.5
 62
     256
  6
BYLAYER
 49
-0.5
 62
     256
  6
BYLAYER
  0
ENDSEC
  0
EOF
