  0
SECTION
  2
HEADER
  9
$ACADVER
  1
AC1014
  9
$ACADMAINTVER
 70
       0
  9
$DWGCODEPAGE
  3
ANSI_932
  9
$INSBASE
 10
0.0
 20
0.0
 30
0.0
  9
$EXTMIN
 10
-95.11619882
 20
-66.97160918
 30
0.0
  9
$EXTMAX
 10
94.51734121
 20
64.47160918
 30
0.0
  9
$LIMMIN
 10
-101.04224694
 20
-71.07920976
  9
$LIMMAX
 10
100.44338933
 20
68.57920976
  9
$ORTHOMODE
 70
       0
  9
$REGENMODE
 70
       1
  9
$FILLMODE
 70
       1
  9
$QTEXTMODE
 70
       0
  9
$MIRRTEXT
 70
       1
  9
$DRAGMODE
 70
       2
  9
$LTSCALE
 40
1.0
  9
$OSMODE
 70
       0
  9
$ATTMODE
 70
       1
  9
$TEXTSIZE
 40
0.2
  9
$TRACEWID
 40
0.05
  9
$TEXTSTYLE
  7
STANDARD
  9
$CLAYER
  8
0
  9
$CELTYPE
  6
CONTINUOUS
  9
$CECOLOR
 62
     256
  9
$CELTSCALE
 40
1.0
  9
$DELOBJ
 70
       1
  9
$DISPSILH
 70
       0
  9
$DIMSCALE
 40
1.0
  9
$DIMASZ
 40
0.18
  9
$DIMEXO
 40
0.0625
  9
$DIMDLI
 40
0.38
  9
$DIMRND
 40
0.0
  9
$DIMDLE
 40
0.0
  9
$DIMEXE
 40
0.18
  9
$DIMTP
 40
0.0
  9
$DIMTM
 40
0.0
  9
$DIMTXT
 40
0.18
  9
$DIMCEN
 40
0.09
  9
$DIMTSZ
 40
0.0
  9
$DIMTOL
 70
       0
  9
$DIMLIM
 70
       0
  9
$DIMTIH
 70
       1
  9
$DIMTOH
 70
       1
  9
$DIMSE1
 70
       0
  9
$DIMSE2
 70
       0
  9
$DIMTAD
 70
       0
  9
$DIMZIN
 70
       0
  9
$DIMBLK
  1

  9
$DIMASO
 70
       1
  9
$DIMSHO
 70
       1
  9
$DIMPOST
  1

  9
$DIMAPOST
  1

  9
$DIMALT
 70
       0
  9
$DIMALTD
 70
       2
  9
$DIMALTF
 40
25.4
  9
$DIMLFAC
 40
1.0
  9
$DIMTOFL
 70
       0
  9
$DIMTVP
 40
0.0
  9
$DIMTIX
 70
       0
  9
$DIMSOXD
 70
       0
  9
$DIMSAH
 70
       0
  9
$DIMBLK1
  1

  9
$DIMBLK2
  1

  9
$DIMSTYLE
  2
STANDARD
  9
$DIMCLRD
 70
       0
  9
$DIMCLRE
 70
       0
  9
$DIMCLRT
 70
       0
  9
$DIMTFAC
 40
1.0
  9
$DIMGAP
 40
0.09
  9
$DIMJUST
 70
       0
  9
$DIMSD1
 70
       0
  9
$DIMSD2
 70
       0
  9
$DIMTOLJ
 70
       1
  9
$DIMTZIN
 70
       0
  9
$DIMALTZ
 70
       0
  9
$DIMALTTZ
 70
       0
  9
$DIMFIT
 70
       3
  9
$DIMUPT
 70
       0
  9
$DIMUNIT
 70
       2
  9
$DIMDEC
 70
       4
  9
$DIMTDEC
 70
       4
  9
$DIMALTU
 70
       2
  9
$DIMALTTD
 70
       2
  9
$DIMTXSTY
  7
STANDARD
  9
$DIMAUNIT
 70
       0
  9
$LUNITS
 70
       2
  9
$LUPREC
 70
       4
  9
$SKETCHINC
 40
0.1
  9
$FILLETRAD
 40
0.0
  9
$AUNITS
 70
       0
  9
$AUPREC
 70
       0
  9
$MENU
  1
acad
  9
$ELEVATION
 40
0.0
  9
$PELEVATION
 40
0.0
  9
$THICKNESS
 40
0.0
  9
$LIMCHECK
 70
       0
  9
$BLIPMODE
 70
       1
  9
$CHAMFERA
 40
0.0
  9
$CHAMFERB
 40
0.0
  9
$CHAMFERC
 40
0.0
  9
$CHAMFERD
 40
0.0
  9
$SKPOLY
 70
       0
  9
$TDCREATE
 40
0.000000000
  9
$TDUPDATE
 40
0.000000000
  9
$TDINDWG
 40
0.0000000000
  9
$TDUSRTIMER
 40
0.0000000000
  9
$USRTIMER
 70
       1
  9
$ANGBASE
 50
0.0
  9
$ANGDIR
 70
       0
  9
$PDMODE
 70
       0
  9
$PDSIZE
 40
1.0
  9
$PLINEWID
 40
0.0
  9
$COORDS
 70
       1
  9
$SPLFRAME
 70
       0
  9
$SPLINETYPE
 70
       6
  9
$SPLINESEGS
 70
       8
  9
$ATTDIA
 70
       0
  9
$ATTREQ
 70
       1
  9
$HANDLING
 70
       1
  9
$HANDSEED
  5
3CE
  9
$SURFTAB1
 70
       6
  9
$SURFTAB2
 70
       6
  9
$SURFTYPE
 70
       6
  9
$SURFU
 70
       6
  9
$SURFV
 70
       6
  9
$UCSNAME
  2

  9
$UCSORG
 10
0.0
 20
0.0
 30
0.0
  9
$UCSXDIR
 10
1.0
 20
0.0
 30
0.0
  9
$UCSYDIR
 10
0.0
 20
1.0
 30
0.0
  9
$PUCSNAME
  2

  9
$PUCSORG
 10
0.0
 20
0.0
 30
0.0
  9
$PUCSXDIR
 10
1.0
 20
0.0
 30
0.0
  9
$PUCSYDIR
 10
0.0
 20
1.0
 30
0.0
  9
$USERI1
 70
       0
  9
$USERI2
 70
       0
  9
$USERI3
 70
       0
  9
$USERI4
 70
       0
  9
$USERI5
 70
       0
  9
$USERR1
 40
0.0
  9
$USERR2
 40
0.0
  9
$USERR3
 40
0.0
  9
$USERR4
 40
0.0
  9
$USERR5
 40
0.0
  9
$WORLDVIEW
 70
       1
  9
$SHADEDGE
 70
       3
  9
$SHADEDIF
 70
      70
  9
$TILEMODE
 70
       1
  9
$MAXACTVP
 70
      16
  9
$PINSBASE
 10
0.0
 20
0.0
 30
0.0
  9
$PLIMCHECK
 70
       0
  9
$PEXTMIN
 10
1.00000000E+20
 20
1.00000000E+20
 30
1.00000000E+20
  9
$PEXTMAX
 10
-1.00000000E+20
 20
-1.00000000E+20
 30
-1.00000000E+20
  9
$PLIMMIN
 10
0.0
 20
0.0
  9
$PLIMMAX
 10
12.0
 20
9.0
  9
$UNITMODE
 70
       0
  9
$VISRETAIN
 70
       0
  9
$PLINEGEN
 70
       1
  9
$PSLTSCALE
 70
       0
  9
$TREEDEPTH
 70
    3020
  9
$PICKSTYLE
 70
       1
  9
$CMLSTYLE
  2
STANDARD
  9
$CMLJUST
 70
       0
  9
$CMLSCALE
 40
1.0
  9
$PROXYGRAPHICS
 70
       0
  9
$MEASUREMENT
 70
       0
  0
ENDSEC
  0
SECTION
  2
CLASSES
  0
CLASS
  1
LWPOLYLINE
  2
AcDbPolyline
  3
"AutoCAD"
 90
        0
280
       0
281
       1
  0
CLASS
  1
IMAGE
  2
AcDbRasterImage
  3
ISM
 90
      127
280
       0
281
       1
  0
CLASS
  1
OLE2FRAME
  2
AcDbOle2Frame
  3
""
 90
        0
280
       0
281
       1
  0
CLASS
  1
HATCH
  2
AcDbHatch
  3
"ACAD_SEDONA"
 90
        0
280
       0
281
       1
  0
CLASS
  1
DICTIONARYVAR
  2
AcDbDictionaryVar
  3
"AutoCAD"
 90
        0
280
       0
281
       0
  0
CLASS
  1
RASTERVARIABLES
  2
AcDbRasterVariables
  3
ISM
 90
        0
280
       0
281
       0
  0
CLASS
  1
IMAGEDEF
  2
AcDbRasterImageDef
  3
ISM
 90
        0
280
       0
281
       0
  0
CLASS
  1
IMAGEDEF_REACTOR
  2
AcDbRasterImageDefReactor
  3
ISM
 90
        1
280
       0
281
       0
  0
CLASS
  1
IDBUFFER
  2
AcDbIdBuffer
  3
"Acad"
 90
        0
280
       0
281
       0
  0
CLASS
  1
SPATIAL_FILTER
  2
AcDbSpatialFilter
  3
"Acad"
 90
        0
280
       0
281
       0
  0
CLASS
  1
XRECORD
  2
AcDbXrecord
  3
"<Built In>"
 90
        0
280
       0
281
       0
  0
CLASS
  1
SORTENTSTABLE
  2
AcDbSortentsTable
  3
"AutoCAD"
 90
        0
280
       0
281
       0
  0
CLASS
  1
LAYER_INDEX
  2
AcDbLayerIndex
  3
"Acad"
 90
        0
280
       0
281
       0
  0
CLASS
  1
SPATIAL_INDEX
  2
AcDbSpatialIndex
  3
"Acad"
 90
        0
280
       0
281
       0
  0
CLASS
  1
OBJECT_PTR
  2
CAseDLPNTableRecord
  3
"ASE-LPNTableRecord"
 90
        1
280
       0
281
       0
  0
CLASS
  1
LAYOUT
  2
AcDbLayout
  3
"AutoCAD 2000"
 90
        1
280
       0
281
       0
  0
CLASS
  1
PLOTSETTINGS
  2
AcDbPlotSettings
  3
"AutoCAD 2000"
 90
        1
280
       0
281
       0
  0
CLASS
  1
ACDBDICTIONARYWDFLT
  2
AcDbDictionaryWithDefault
  3
"AutoCAD 2000"
 90
        1
280
       0
281
       0
  0
CLASS
  1
ACDBPLACEHOLDER
  2
AcDbPlaceHolder
  3
"AutoCAD 2000"
 90
        1
280
       0
281
       0
  0
CLASS
  1
VBA_PROJECT
  2
AcDbVbaProject
  3
"acadvba"
 90
        1
280
       0
281
       0
  0
CLASS
  1
WIPEOUT
  2
AcDbWipeout
  3
WipeOut|AutoCAD Express Tool|expresstools@autodesk.com
 90
      127
280
       0
281
       1
  0
CLASS
  1
WIPEOUTVARIABLES
  2
AcDbWipeoutVariables
  3
WipeOut|AutoCAD Express Tool|expresstools@autodesk.com
 90
        0
280
       0
281
       0
  0
CLASS
  1
RTEXT
  2
RText
  3
RText|AutoCAD Express Tool|expresstools@autodesk.com
 90
        0
280
       0
281
       1
  0
CLASS
  1
ARCALIGNEDTEXT
  2
AcDbArcAlignedText
  3
ATEXT|AutoCAD Express Tool|expresstools@autodesk.com
 90
        0
280
       0
281
       1
  0
ENDSEC
  0
SECTION
  2
TABLES
  0
TABLE
  2
VPORT
  5
7
100
AcDbSymbolTable
 70
       1
  0
VPORT
  5
15
100
AcDbSymbolTableRecord
100
AcDbViewportTableRecord
  2
*ACTIVE
 70
       0
 10
0.0
 20
0.0
 11
1.0
 21
1.0
 12
-0.29942881
 22
-1.25
 13
0.0
 23
0.0
 14
1.0
 24
1.0
 15
0.0
 25
0.0
 16
0.0
 26
0.0
 36
1.0
 17
0.0
 27
0.0
 37
0.0
 40
139.65841951
 41
1.44270311
 42
50.0
 43
0.0
 44
0.0
 50
0.0
 51
0.0
 71
       0
 72
     100
 73
       1
 74
       1
 75
       0
 76
       0
 77
       0
 78
       0
  0
ENDTAB
  0
TABLE
  2
LTYPE
  5
4
100
AcDbSymbolTable
 70
      30
  0
LTYPE
  5
11
100
AcDbSymbolTableRecord
100
AcDbLinetypeTableRecord
  2
BYBLOCK
 70
      64
  3

 72
      65
 73
       0
 40
0.0
  0
LTYPE
  5
12
100
AcDbSymbolTableRecord
100
AcDbLinetypeTableRecord
  2
BYLAYER
 70
      64
  3

 72
      65
 73
       0
 40
0.0
  0
LTYPE
  5
13
100
AcDbSymbolTableRecord
100
AcDbLinetypeTableRecord
  2
CONTINUOUS
 70
      64
  3
Solid line
 72
      65
 73
       0
 40
0.0
  0
LTYPE
  5
1D
100
AcDbSymbolTableRecord
100
AcDbLinetypeTableRecord
  2
HIDDENX2
 70
      64
  3
CADPAC LINETYPE
 72
      65
 73
       2
 40
7.61025408
 49
5.70769056
 74
       0
 49
-1.90256352
 74
       0
  0
LTYPE
  5
1E
100
AcDbSymbolTableRecord
100
AcDbLinetypeTableRecord
  2
HIDDEN
 70
      64
  3
CADPAC LINETYPE
 72
      65
 73
       2
 40
5.70769056
 49
3.80512704
 74
       0
 49
-1.90256352
 74
       0
  0
LTYPE
  5
1F
100
AcDbSymbolTableRecord
100
AcDbLinetypeTableRecord
  2
HIDDEN2
 70
      64
  3
CADPAC LINETYPE
 72
      65
 73
       2
 40
4.7564088
 49
2.85384528
 74
       0
 49
-1.90256352
 74
       0
  0
LTYPE
  5
20
100
AcDbSymbolTableRecord
100
AcDbLinetypeTableRecord
  2
DASHED
 70
      64
  3
CADPAC LINETYPE
 72
      65
 73
       2
 40
5.70769056
 49
3.80512704
 74
       0
 49
-1.90256352
 74
       0
  0
LTYPE
  5
21
100
AcDbSymbolTableRecord
100
AcDbLinetypeTableRecord
  2
DASHED2
 70
      64
  3
CADPAC LINETYPE
 72
      65
 73
       2
 40
4.28076792
 49
2.85384528
 74
       0
 49
-1.42692264
 74
       0
  0
LTYPE
  5
22
100
AcDbSymbolTableRecord
100
AcDbLinetypeTableRecord
  2
DASHEDX2
 70
      64
  3
CADPAC LINETYPE
 72
      65
 73
       2
 40
8.56153584
 49
5.70769056
 74
       0
 49
-2.85384528
 74
       0
  0
LTYPE
  5
23
100
AcDbSymbolTableRecord
100
AcDbLinetypeTableRecord
  2
DOTX2
 70
      64
  3
CADPAC LINETYPE
 72
      65
 73
       2
 40
2.3782044
 49
0.0
 74
       0
 49
-2.3782044
 74
       0
  0
LTYPE
  5
24
100
AcDbSymbolTableRecord
100
AcDbLinetypeTableRecord
  2
DOT
 70
      64
  3
CADPAC LINETYPE
 72
      65
 73
       2
 40
1.90256352
 49
0.0
 74
       0
 49
-1.90256352
 74
       0
  0
LTYPE
  5
25
100
AcDbSymbolTableRecord
100
AcDbLinetypeTableRecord
  2
DOT2
 70
      64
  3
CADPAC LINETYPE
 72
      65
 73
       2
 40
1.42692264
 49
0.0
 74
       0
 49
-1.42692264
 74
       0
  0
LTYPE
  5
26
100
AcDbSymbolTableRecord
100
AcDbLinetypeTableRecord
  2
CENTERX2
 70
      64
  3
CADPAC LINETYPE
 72
      65
 73
       4
 40
11.41538112
 49
4.7564088
 74
       0
 49
-2.3782044
 74
       0
 49
1.90256352
 74
       0
 49
-2.3782044
 74
       0
  0
LTYPE
  5
27
100
AcDbSymbolTableRecord
100
AcDbLinetypeTableRecord
  2
CENTER
 70
      64
  3
CADPAC LINETYPE
 72
      65
 73
       4
 40
8.75179219
 49
3.80512704
 74
       0
 49
-1.90256352
 74
       0
 49
1.14153811
 74
       0
 49
-1.90256352
 74
       0
  0
LTYPE
  5
28
100
AcDbSymbolTableRecord
100
AcDbLinetypeTableRecord
  2
CENTER2
 70
      64
  3
CADPAC LINETYPE
 72
      65
 73
       4
 40
6.08820326
 49
2.85384528
 74
       0
 49
-1.42692264
 74
       0
 49
0.3805127
 74
       0
 49
-1.42692264
 74
       0
  0
LTYPE
  5
29
100
AcDbSymbolTableRecord
100
AcDbLinetypeTableRecord
  2
DASHDOTX2
 70
      64
  3
CADPAC LINETYPE
 72
      65
 73
       4
 40
9.5128176
 49
4.7564088
 74
       0
 49
-2.3782044
 74
       0
 49
0.0
 74
       0
 49
-2.3782044
 74
       0
  0
LTYPE
  5
2A
100
AcDbSymbolTableRecord
100
AcDbLinetypeTableRecord
  2
DASHDOT
 70
      64
  3
CADPAC LINETYPE
 72
      65
 73
       4
 40
7.61025408
 49
3.80512704
 74
       0
 49
-1.90256352
 74
       0
 49
0.0
 74
       0
 49
-1.90256352
 74
       0
  0
LTYPE
  5
2B
100
AcDbSymbolTableRecord
100
AcDbLinetypeTableRecord
  2
DASHDOT2
 70
      64
  3
CADPAC LINETYPE
 72
      65
 73
       4
 40
5.70769056
 49
2.85384528
 74
       0
 49
-1.42692264
 74
       0
 49
0.0
 74
       0
 49
-1.42692264
 74
       0
  0
LTYPE
  5
2C
100
AcDbSymbolTableRecord
100
AcDbLinetypeTableRecord
  2
DIVIDEX2
 70
      64
  3
CADPAC LINETYPE
 72
      65
 73
       6
 40
11.891022
 49
4.7564088
 74
       0
 49
-2.3782044
 74
       0
 49
0.0
 74
       0
 49
-2.3782044
 74
       0
 49
0.0
 74
       0
 49
-2.3782044
 74
       0
  0
LTYPE
  5
2D
100
AcDbSymbolTableRecord
100
AcDbLinetypeTableRecord
  2
DIVIDE
 70
      64
  3
CADPAC LINETYPE
 72
      65
 73
       6
 40
9.5128176
 49
3.80512704
 74
       0
 49
-1.90256352
 74
       0
 49
0.0
 74
       0
 49
-1.90256352
 74
       0
 49
0.0
 74
       0
 49
-1.90256352
 74
       0
  0
LTYPE
  5
2E
100
AcDbSymbolTableRecord
100
AcDbLinetypeTableRecord
  2
DIVIDE2
 70
      64
  3
CADPAC LINETYPE
 72
      65
 73
       6
 40
7.1346132
 49
2.85384528
 74
       0
 49
-1.42692264
 74
       0
 49
0.0
 74
       0
 49
-1.42692264
 74
       0
 49
0.0
 74
       0
 49
-1.42692264
 74
       0
  0
LTYPE
  5
2F
100
AcDbSymbolTableRecord
100
AcDbLinetypeTableRecord
  2
BORDERX2
 70
      64
  3
CADPAC LINETYPE
 72
      65
 73
       6
 40
16.64743079
 49
4.7564088
 74
       0
 49
-2.3782044
 74
       0
 49
4.7564088
 74
       0
 49
-2.3782044
 74
       0
 49
0.0
 74
       0
 49
-2.3782044
 74
       0
  0
LTYPE
  5
30
100
AcDbSymbolTableRecord
100
AcDbLinetypeTableRecord
  2
BORDER
 70
      64
  3
CADPAC LINETYPE
 72
      65
 73
       6
 40
13.31794464
 49
3.80512704
 74
       0
 49
-1.90256352
 74
       0
 49
3.80512704
 74
       0
 49
-1.90256352
 74
       0
 49
0.0
 74
       0
 49
-1.90256352
 74
       0
  0
LTYPE
  5
31
100
AcDbSymbolTableRecord
100
AcDbLinetypeTableRecord
  2
BORDER2
 70
      64
  3
CADPAC LINETYPE
 72
      65
 73
       6
 40
9.98845848
 49
2.85384528
 74
       0
 49
-1.42692264
 74
       0
 49
2.85384528
 74
       0
 49
-1.42692264
 74
       0
 49
0.0
 74
       0
 49
-1.42692264
 74
       0
  0
LTYPE
  5
32
100
AcDbSymbolTableRecord
100
AcDbLinetypeTableRecord
  2
PHANTOMX2
 70
      64
  3
CADPAC LINETYPE
 72
      65
 73
       6
 40
14.2692264
 49
4.7564088
 74
       0
 49
-1.90256352
 74
       0
 49
1.90256352
 74
       0
 49
-1.90256352
 74
       0
 49
1.90256352
 74
       0
 49
-1.90256352
 74
       0
  0
LTYPE
  5
33
100
AcDbSymbolTableRecord
100
AcDbLinetypeTableRecord
  2
PHANTOM
 70
      64
  3
CADPAC LINETYPE
 72
      65
 73
       6
 40
11.79589382
 49
3.80512704
 74
       0
 49
-1.90256352
 74
       0
 49
1.14153811
 74
       0
 49
-1.90256352
 74
       0
 49
1.14153811
 74
       0
 49
-1.90256352
 74
       0
  0
LTYPE
  5
34
100
AcDbSymbolTableRecord
100
AcDbLinetypeTableRecord
  2
PHANTOM2
 70
      64
  3
CADPAC LINETYPE
 72
      65
 73
       6
 40
10.08358665
 49
2.85384528
 74
       0
 49
-1.90256352
 74
       0
 49
0.76102541
 74
       0
 49
-1.90256352
 74
       0
 49
0.76102541
 74
       0
 49
-1.90256352
 74
       0
  0
LTYPE
  5
35
100
AcDbSymbolTableRecord
100
AcDbLinetypeTableRecord
  2
ACAD_ISO06W100
 70
      64
  3
CADPAC LINETYPE
 72
      65
 73
       8
 40
12.84230376
 49
4.7564088
 74
       0
 49
-2.3782044
 74
       0
 49
0.0
 74
       0
 49
-1.90256352
 74
       0
 49
0.0
 74
       0
 49
-1.90256352
 74
       0
 49
0.0
 74
       0
 49
-1.90256352
 74
       0
  0
LTYPE
  5
36
100
AcDbSymbolTableRecord
100
AcDbLinetypeTableRecord
  2
ACAD_ISO13W100
 70
      64
  3
CADPAC LINETYPE
 72
      65
 73
       8
 40
15.22050816
 49
3.80512704
 74
       0
 49
-1.90256352
 74
       0
 49
3.80512704
 74
       0
 49
-1.90256352
 74
       0
 49
0.0
 74
       0
 49
-1.90256352
 74
       0
 49
0.0
 74
       0
 49
-1.90256352
 74
       0
  0
LTYPE
  5
37
100
AcDbSymbolTableRecord
100
AcDbLinetypeTableRecord
  2
ACAD_ISO14W100
 70
      64
  3
CADPAC LINETYPE
 72
      65
 73
       8
 40
11.41538112
 49
3.80512704
 74
       0
 49
-1.90256352
 74
       0
 49
0.0
 74
       0
 49
-1.90256352
 74
       0
 49
0.0
 74
       0
 49
-1.90256352
 74
       0
 49
0.0
 74
       0
 49
-1.90256352
 74
       0
  0
ENDTAB
  0
TABLE
  2
LAYER
  5
2
100
AcDbSymbolTable
 70
       3
  0
LAYER
  5
14
100
AcDbSymbolTableRecord
100
AcDbLayerTableRecord
  2
0
 70
       0
 62
       7
  6
CONTINUOUS
  0
LAYER
  5
38
100
AcDbSymbolTableRecord
100
AcDbLayerTableRecord
  2
SLD-0
 70
       0
 62
       7
  6
CONTINUOUS
  0
LAYER
  5
39
100
AcDbSymbolTableRecord
100
AcDbLayerTableRecord
  2
レイヤー_1
 70
       0
 62
       7
  6
CONTINUOUS
  0
ENDTAB
  0
TABLE
  2
STYLE
  5
3
100
AcDbSymbolTable
 70
       1
  0
STYLE
  5
17
100
AcDbSymbolTableRecord
100
AcDbTextStyleTableRecord
  2
STANDARD
 70
       0
 40
0.0
 41
1.0
 50
0.0
 71
       0
 42
5.0
  3
txt.shx
  4
bigfont.shx
  0
ENDTAB
  0
TABLE
  2
VIEW
  5
5
100
AcDbSymbolTable
 70
       1
  0
VIEW
  5
3A
100
AcDbSymbolTableRecord
100
AcDbViewTableRecord
  2
QQQQ
 70
       0
 40
139.65841951
 10
-0.29942881
 20
-1.25
 41
201.48563628
 11
0.0
 21
0.0
 31
1.0
 12
100.0
 22
100.0
 32
0.0
 42
50.0
 43
0.0
 44
0.0
 50
0.0
 71
       0
  0
ENDTAB
  0
TABLE
  2
UCS
  5
6
100
AcDbSymbolTable
 70
       0
  0
ENDTAB
  0
TABLE
  2
APPID
  5
8
100
AcDbSymbolTable
 70
       1
  0
APPID
  5
16
100
AcDbSymbolTableRecord
100
AcDbRegAppTableRecord
  2
ACAD
 70
       0
  0
ENDTAB
  0
TABLE
  2
DIMSTYLE
  5
9
100
AcDbSymbolTable
 70
       1
  0
DIMSTYLE
105
18
100
AcDbSymbolTableRecord
100
AcDbDimStyleTableRecord
  2
STANDARD
 70
       0
  3

  4

  5

  6

  7

 40
1.0
 41
0.18
 42
0.0625
 43
0.38
 44
0.18
 45
0.0
 46
0.0
 47
0.0
 48
0.0
 71
       0
 72
       0
 73
       1
 74
       1
 75
       0
 76
       0
 77
       0
 78
       0
140
0.18
141
0.09
142
0.0
143
25.4
144
1.0
145
0.0
146
1.0
147
0.09
170
       0
171
       2
172
       0
173
       0
174
       0
175
       0
176
       0
177
       0
178
       0
270
       2
271
       4
272
       4
273
       2
274
       2
275
       0
280
       0
281
       0
282
       0
283
       1
284
       0
285
       0
286
       0
287
       0
288
       0
340
17
  0
ENDTAB
  0
TABLE
  2
BLOCK_RECORD
  5
1
100
AcDbSymbolTable
 70
       0
  0
BLOCK_RECORD
  5
A
100
AcDbSymbolTableRecord
100
AcDbBlockTableRecord
  2
*MODEL_SPACE
  0
BLOCK_RECORD
  5
B
100
AcDbSymbolTableRecord
100
AcDbBlockTableRecord
  2
*PAPER_SPACE
  0
ENDTAB
  0
ENDSEC
  0
SECTION
  2
BLOCKS
  0
BLOCK
  5
D
100
AcDbEntity
  8
0
100
AcDbBlockBegin
  2
*MODEL_SPACE
 70
       0
 10
0.0
 20
0.0
 30
0.0
  3
*MODEL_SPACE
  1

  0
ENDBLK
  5
E
100
AcDbEntity
  8
0
100
AcDbBlockEnd
  0
BLOCK
  5
F
100
AcDbEntity
 67
       1
  8
0
100
AcDbBlockBegin
  2
*PAPER_SPACE
 70
       0
 10
0.0
 20
0.0
 30
0.0
  3
*PAPER_SPACE
  1

  0
ENDBLK
  5
10
100
AcDbEntity
 67
       1
  8
0
100
AcDbBlockEnd
  0
ENDSEC
  0
SECTION
  2
ENTITIES
  0
LINE
  5
3B
100
AcDbEntity
  8
レイヤー_1
  6
CONTINUOUS
 62
       7
100
AcDbLine
 10
79.2904246
 20
-11.08780836
 30
0.0
 11
79.2834896
 21
-10.98994481
 31
0.0
  0
LINE
  5
3C
100
AcDbEntity
  8
レイヤー_1
  6
CONTINUOUS
 62
       7
100
AcDbLine
 10
79.2834896
 20
-10.98994481
 30
0.0
 11
79.26186029
 21
-10.8630899
 31
0.0
  0
LINE
  5
3D
100
AcDbEntity
  8
レイヤー_1
  6
CONTINUOUS
 62
       7
100
AcDbLine
 10
79.26186029
 20
-10.8630899
 30
0.0
 11
79.22430025
 21
-10.71158847
 31
0.0
  0
LINE
  5
3E
100
AcDbEntity
  8
レイヤー_1
  6
CONTINUOUS
 62
       7
100
AcDbLine
 10
79.22430025
 20
-10.71158847
 30
0.0
 11
79.16957303
 21
-10.53978535
 31
0.0
  0
LINE
  5
3F
100
AcDbEntity
  8
レイヤー_1
  6
CONTINUOUS
 62
       7
100
AcDbLine
 10
79.16957303
 20
-10.53978535
 30
0.0
 11
79.09644219
 21
-10.35202538
 31
0.0
  0
LINE
  5
40
100
AcDbEntity
  8
レイヤー_1
  6
CONTINUOUS
 62
       7
100
AcDbLine
 10
79.09644219
 20
-10.35202538
 30
0.0
 11
79.0036713
 21
-10.15265339
 31
0.0
  0
LINE
  5
41
100
AcDbEntity
  8
レイヤー_1
  6
CONTINUOUS
 62
       7
100
AcDbLine
 10
79.0036713
 20
-10.15265339
 30
0.0
 11
78.89002391
 21
-9.94601423
 31
0.0
  0
LINE
  5
42
100
AcDbEntity
  8
レイヤー_1
  6
CONTINUOUS
 62
       7
100
AcDbLine
 10
78.89002391
 20
-9.94601423
 30
0.0
 11
78.75426359
 21
-9.73645272
 31
0.0
  0
LINE
  5
43
100
AcDbEntity
  8
レイヤー_1
  6
CONTINUOUS
 62
       7
100
AcDbLine
 10
78.75426359
 20
-9.73645272
 30
0.0
 11
78.59515389
 21
-9.5283137
 31
0.0
  0
LINE
  5
44
100
AcDbEntity
  8
レイヤー_1
  6
CONTINUOUS
 62
       7
100
AcDbLine
 10
78.59515389
 20
-9.5283137
 30
0.0
 11
78.41145838
 21
-9.32594201
 31
0.0
  0
LINE
  5
45
100
AcDbEntity
  8
レイヤー_1
  6
CONTINUOUS
 62
       7
100
AcDbLine
 10
78.41145838
 20
-9.32594201
 30
0.0
 11
78.20194063
 21
-9.13368248
 31
0.0
  0
LINE
  5
46
100
AcDbEntity
  8
レイヤー_1
  6
CONTINUOUS
 62
       7
100
AcDbLine
 10
78.20194063
 20
-9.13368248
 30
0.0
 11
77.96536418
 21
-8.95587996
 31
0.0
  0
LINE
  5
47
100
AcDbEntity
  8
レイヤー_1
  6
CONTINUOUS
 62
       7
100
AcDbLine
 10
77.96536418
 20
-8.95587996
 30
0.0
 11
77.7004926
 21
-8.79687927
 31
0.0
  0
LINE
  5
48
100
AcDbEntity
  8
レイヤー_1
  6
CONTINUOUS
 62
       7
100
AcDbLine
 10
77.7004926
 20
-8.79687927
 30
0.0
 11
77.40608946
 21
-8.66102526
 31
0.0
  0
LINE
  5
49
100
AcDbEntity
  8
レイヤー_1
  6
CONTINUOUS
 62
       7
100
AcDbLine
 10
77.40608946
 20
-8.66102526
 30
0.0
 11
77.08091831
 21
-8.55266275
 31
0.0
  0
LINE
  5
4A
100
AcDbEntity
  8
レイヤー_1
  6
CONTINUOUS
 62
       7
100
AcDbLine
 10
77.08091831
 20
-8.55266275
 30
0.0
 11
76.72374271
 21
-8.47613659
 31
0.0
  0
LINE
  5
4B
100
AcDbEntity
  8
レイヤー_1
  6
CONTINUOUS
 62
       7
100
AcDbLine
 10
76.72374271
 20
-8.47613659
 30
0.0
 11
76.33332623
 21
-8.4357916
 31
0.0
  0
LINE
  5
4C
100
AcDbEntity
  8
レイヤー_1
  6
CONTINUOUS
 62
       7
100
AcDbLine
 10
76.33332623
 20
-8.4357916
 30
0.0
 11
76.12326167
 21
-8.43054482
 31
0.0
  0
LINE
  5
4D
100
AcDbEntity
  8
レイヤー_1
  6
CONTINUOUS
 62
       7
100
AcDbLine
 10
76.12326167
 20
-8.43054482
 30
0.0
 11
76.10792549
 21
-8.43054482
 31
0.0
  0
LINE
  5
4E
100
AcDbEntity
  8
レイヤー_1
  6
CONTINUOUS
 62
       7
100
AcDbLine
 10
76.10792549
 20
-8.43054482
 30
0.0
 11
76.07904364
 21
-8.43054482
 31
0.0
  0
LINE
  5
4F
100
AcDbEntity
  8
レイヤー_1
  6
CONTINUOUS
 62
       7
100
AcDbLine
 10
76.07904364
 20
-8.43054482
 30
0.0
 11
76.03848449
 21
-8.43054482
 31
0.0
  0
LINE
  5
50
100
AcDbEntity
  8
レイヤー_1
  6
CONTINUOUS
 62
       7
100
AcDbLine
 10
76.03848449
 20
-8.43054482
 30
0.0
 11
75.98811641
 21
-8.43054482
 31
0.0
  0
LINE
  5
51
100
AcDbEntity
  8
レイヤー_1
  6
CONTINUOUS
 62
       7
100
AcDbLine
 10
75.98811641
 20
-8.43054482
 30
0.0
 11
75.92980777
 21
-8.43054482
 31
0.0
  0
LINE
  5
52
100
AcDbEntity
  8
レイヤー_1
  6
CONTINUOUS
 62
       7
100
AcDbLine
 10
75.92980777
 20
-8.43054482
 30
0.0
 11
75.86542694
 21
-8.43054482
 31
0.0
  0
LINE
  5
53
100
AcDbEntity
  8
レイヤー_1
  6
CONTINUOUS
 62
       7
100
AcDbLine
 10
75.86542694
 20
-8.43054482
 30
0.0
 11
75.79684228
 21
-8.43054482
 31
0.0
  0
LINE
  5
54
100
AcDbEntity
  8
レイヤー_1
  6
CONTINUOUS
 62
       7
100
AcDbLine
 10
75.79684228
 20
-8.43054482
 30
0.0
 11
75.72592216
 21
-8.43054482
 31
0.0
  0
LINE
  5
55
100
AcDbEntity
  8
レイヤー_1
  6
CONTINUOUS
 62
       7
100
AcDbLine
 10
75.72592216
 20
-8.43054482
 30
0.0
 11
75.65453494
 21
-8.43054482
 31
0.0
  0
LINE
  5
56
100
AcDbEntity
  8
レイヤー_1
  6
CONTINUOUS
 62
       7
100
AcDbLine
 10
75.65453494
 20
-8.43054482
 30
0.0
 11
75.58454901
 21
-8.43054482
 31
0.0
  0
LINE
  5
57
100
AcDbEntity
  8
レイヤー_1
  6
CONTINUOUS
 62
       7
100
AcDbLine
 10
75.58454901
 20
-8.43054482
 30
0.0
 11
75.51783271
 21
-8.43054482
 31
0.0
  0
LINE
  5
58
100
AcDbEntity
  8
レイヤー_1
  6
CONTINUOUS
 62
       7
100
AcDbLine
 10
75.51783271
 20
-8.43054482
 30
0.0
 11
75.45625443
 21
-8.43054482
 31
0.0
  0
LINE
  5
59
100
AcDbEntity
  8
レイヤー_1
  6
CONTINUOUS
 62
       7
100
AcDbLine
 10
75.45625443
 20
-8.43054482
 30
0.0
 11
75.40168253
 21
-8.43054482
 31
0.0
  0
LINE
  5
5A
100
AcDbEntity
  8
レイヤー_1
  6
CONTINUOUS
 62
       7
100
AcDbLine
 10
75.40168253
 20
-8.43054482
 30
0.0
 11
75.35598537
 21
-8.43054482
 31
0.0
  0
LINE
  5
5B
100
AcDbEntity
  8
レイヤー_1
  6
CONTINUOUS
 62
       7
100
AcDbLine
 10
75.35598537
 20
-8.43054482
 30
0.0
 11
75.32103132
 21
-8.43054482
 31
0.0
  0
LINE
  5
5C
100
AcDbEntity
  8
レイヤー_1
  6
CONTINUOUS
 62
       7
100
AcDbLine
 10
75.32103132
 20
-8.43054482
 30
0.0
 11
75.29868876
 21
-8.43054482
 31
0.0
  0
LINE
  5
5D
100
AcDbEntity
  8
レイヤー_1
  6
CONTINUOUS
 62
       7
100
AcDbLine
 10
75.29868876
 20
-8.43054482
 30
0.0
 11
75.29082605
 21
-8.43054482
 31
0.0
  0
LINE
  5
5E
100
AcDbEntity
  8
レイヤー_1
  6
CONTINUOUS
 62
       7
100
AcDbLine
 10
65.40757835
 20
-6.45960982
 30
0.0
 11
65.45399639
 21
-6.45960982
 31
0.0
  0
LINE
  5
5F
100
AcDbEntity
  8
レイヤー_1
  6
CONTINUOUS
 62
       7
100
AcDbLine
 10
65.45399639
 20
-6.45960982
 30
0.0
 11
65.58589714
 21
-6.45960982
 31
0.0
  0
LINE
  5
60
100
AcDbEntity
  8
レイヤー_1
  6
CONTINUOUS
 62
       7
100
AcDbLine
 10
65.58589714
 20
-6.45960982
 30
0.0
 11
65.79225057
 21
-6.45960982
 31
0.0
  0
LINE
  5
61
100
AcDbEntity
  8
レイヤー_1
  6
CONTINUOUS
 62
       7
100
AcDbLine
 10
65.79225057
 20
-6.45960982
 30
0.0
 11
66.06202667
 21
-6.45960982
 31
0.0
  0
LINE
  5
62
100
AcDbEntity
  8
レイヤー_1
  6
CONTINUOUS
 62
       7
100
AcDbLine
 10
66.06202667
 20
-6.45960982
 30
0.0
 11
66.3841954
 21
-6.45960982
 31
0.0
  0
LINE
  5
63
100
AcDbEntity
  8
レイヤー_1
  6
CONTINUOUS
 62
       7
100
AcDbLine
 10
66.3841954
 20
-6.45960982
 30
0.0
 11
66.74772673
 21
-6.45960982
 31
0.0
  0
LINE
  5
64
100
AcDbEntity
  8
レイヤー_1
  6
CONTINUOUS
 62
       7
100
AcDbLine
 10
66.74772673
 20
-6.45960982
 30
0.0
 11
67.14159063
 21
-6.45960982
 31
0.0
  0
LINE
  5
65
100
AcDbEntity
  8
レイヤー_1
  6
CONTINUOUS
 62
       7
100
AcDbLine
 10
67.14159063
 20
-6.45960982
 30
0.0
 11
67.55475709
 21
-6.45960982
 31
0.0
  0
LINE
  5
66
100
AcDbEntity
  8
レイヤー_1
  6
CONTINUOUS
 62
       7
100
AcDbLine
 10
67.55475709
 20
-6.45960982
 30
0.0
 11
67.97619607
 21
-6.45960982
 31
0.0
  0
LINE
  5
67
100
AcDbEntity
  8
レイヤー_1
  6
CONTINUOUS
 62
       7
100
AcDbLine
 10
67.97619607
 20
-6.45960982
 30
0.0
 11
68.39487754
 21
-6.45960982
 31
0.0
  0
LINE
  5
68
100
AcDbEntity
  8
レイヤー_1
  6
CONTINUOUS
 62
       7
100
AcDbLine
 10
68.39487754
 20
-6.45960982
 30
0.0
 11
68.79977147
 21
-6.45960982
 31
0.0
  0
LINE
  5
69
100
AcDbEntity
  8
レイヤー_1
  6
CONTINUOUS
 62
       7
100
AcDbLine
 10
68.79977147
 20
-6.45960982
 30
0.0
 11
69.17984785
 21
-6.45960982
 31
0.0
  0
LINE
  5
6A
100
AcDbEntity
  8
レイヤー_1
  6
CONTINUOUS
 62
       7
100
AcDbLine
 10
69.17984785
 20
-6.45960982
 30
0.0
 11
69.52407663
 21
-6.45960982
 31
0.0
  0
LINE
  5
6B
100
AcDbEntity
  8
レイヤー_1
  6
CONTINUOUS
 62
       7
100
AcDbLine
 10
69.52407663
 20
-6.45960982
 30
0.0
 11
69.82142779
 21
-6.45960982
 31
0.0
  0
LINE
  5
6C
100
AcDbEntity
  8
レイヤー_1
  6
CONTINUOUS
 62
       7
100
AcDbLine
 10
69.82142779
 20
-6.45960982
 30
0.0
 11
70.06087131
 21
-6.45960982
 31
0.0
  0
LINE
  5
6D
100
AcDbEntity
  8
レイヤー_1
  6
CONTINUOUS
 62
       7
100
AcDbLine
 10
70.06087131
 20
-6.45960982
 30
0.0
 11
70.23137716
 21
-6.45960982
 31
0.0
  0
LINE
  5
6E
100
AcDbEntity
  8
レイヤー_1
  6
CONTINUOUS
 62
       7
100
AcDbLine
 10
70.23137716
 20
-6.45960982
 30
0.0
 11
70.3219153
 21
-6.45960982
 31
0.0
  0
LINE
  5
6F
100
AcDbEntity
  8
レイヤー_1
  6
CONTINUOUS
 62
       7
100
AcDbLine
 10
70.3219153
 20
-6.45960982
 30
0.0
 11
70.42856638
 21
-6.45589582
 31
0.0
  0
LINE
  5
70
100
AcDbEntity
  8
レイヤー_1
  6
CONTINUOUS
 62
       7
100
AcDbLine
 10
70.42856638
 20
-6.45589582
 30
0.0
 11
70.63300178
 21
-6.426434
 31
0.0
  0
LINE
  5
71
100
AcDbEntity
  8
レイヤー_1
  6
CONTINUOUS
 62
       7
100
AcDbLine
 10
70.63300178
 20
-6.426434
 30
0.0
 11
70.85405305
 21
-6.36814973
 31
0.0
  0
LINE
  5
72
100
AcDbEntity
  8
レイヤー_1
  6
CONTINUOUS
 62
       7
100
AcDbLine
 10
70.85405305
 20
-6.36814973
 30
0.0
 11
71.08797628
 21
-6.2817102
 31
0.0
  0
LINE
  5
73
100
AcDbEntity
  8
レイヤー_1
  6
CONTINUOUS
 62
       7
100
AcDbLine
 10
71.08797628
 20
-6.2817102
 30
0.0
 11
71.33102755
 21
-6.16778259
 31
0.0
  0
LINE
  5
74
100
AcDbEntity
  8
レイヤー_1
  6
CONTINUOUS
 62
       7
100
AcDbLine
 10
71.33102755
 20
-6.16778259
 30
0.0
 11
71.57946294
 21
-6.02703408
 31
0.0
  0
LINE
  5
75
100
AcDbEntity
  8
レイヤー_1
  6
CONTINUOUS
 62
       7
100
AcDbLine
 10
71.57946294
 20
-6.02703408
 30
0.0
 11
71.82953854
 21
-5.86013185
 31
0.0
  0
LINE
  5
76
100
AcDbEntity
  8
レイヤー_1
  6
CONTINUOUS
 62
       7
100
AcDbLine
 10
71.82953854
 20
-5.86013185
 30
0.0
 11
72.07751043
 21
-5.66774308
 31
0.0
  0
LINE
  5
77
100
AcDbEntity
  8
レイヤー_1
  6
CONTINUOUS
 62
       7
100
AcDbLine
 10
72.07751043
 20
-5.66774308
 30
0.0
 11
72.31963469
 21
-5.45053495
 31
0.0
  0
LINE
  5
78
100
AcDbEntity
  8
レイヤー_1
  6
CONTINUOUS
 62
       7
100
AcDbLine
 10
72.31963469
 20
-5.45053495
 30
0.0
 11
72.55216742
 21
-5.20917464
 31
0.0
  0
LINE
  5
79
100
AcDbEntity
  8
レイヤー_1
  6
CONTINUOUS
 62
       7
100
AcDbLine
 10
72.55216742
 20
-5.20917464
 30
0.0
 11
72.77136468
 21
-4.94432934
 31
0.0
  0
LINE
  5
7A
100
AcDbEntity
  8
レイヤー_1
  6
CONTINUOUS
 62
       7
100
AcDbLine
 10
72.77136468
 20
-4.94432934
 30
0.0
 11
72.97348258
 21
-4.65666623
 31
0.0
  0
LINE
  5
7B
100
AcDbEntity
  8
レイヤー_1
  6
CONTINUOUS
 62
       7
100
AcDbLine
 10
72.97348258
 20
-4.65666623
 30
0.0
 11
73.15477718
 21
-4.34685248
 31
0.0
  0
LINE
  5
7C
100
AcDbEntity
  8
レイヤー_1
  6
CONTINUOUS
 62
       7
100
AcDbLine
 10
73.15477718
 20
-4.34685248
 30
0.0
 11
73.31150457
 21
-4.01555528
 31
0.0
  0
LINE
  5
7D
100
AcDbEntity
  8
レイヤー_1
  6
CONTINUOUS
 62
       7
100
AcDbLine
 10
73.31150457
 20
-4.01555528
 30
0.0
 11
73.43992085
 21
-3.6634418
 31
0.0
  0
LINE
  5
7E
100
AcDbEntity
  8
レイヤー_1
  6
CONTINUOUS
 62
       7
100
AcDbLine
 10
73.43992085
 20
-3.6634418
 30
0.0
 11
73.53628208
 21
-3.29117924
 31
0.0
  0
LINE
  5
7F
100
AcDbEntity
  8
レイヤー_1
  6
CONTINUOUS
 62
       7
100
AcDbLine
 10
73.53628208
 20
-3.29117924
 30
0.0
 11
73.59684436
 21
-2.89943476
 31
0.0
  0
LINE
  5
80
100
AcDbEntity
  8
レイヤー_1
  6
CONTINUOUS
 62
       7
100
AcDbLine
 10
73.59684436
 20
-2.89943476
 30
0.0
 11
73.61786377
 21
-2.48887555
 31
0.0
  0
LINE
  5
81
100
AcDbEntity
  8
レイヤー_1
  6
CONTINUOUS
 62
       7
100
AcDbLine
 10
65.49737835
 20
-11.38578107
 30
0.0
 11
65.51945486
 21
-11.50732941
 31
0.0
  0
LINE
  5
82
100
AcDbEntity
  8
レイヤー_1
  6
CONTINUOUS
 62
       7
100
AcDbLine
 10
65.51945486
 20
-11.50732941
 30
0.0
 11
65.58263937
 21
-11.62107018
 31
0.0
  0
LINE
  5
83
100
AcDbEntity
  8
レイヤー_1
  6
CONTINUOUS
 62
       7
100
AcDbLine
 10
65.58263937
 20
-11.62107018
 30
0.0
 11
65.6823643
 21
-11.72680112
 31
0.0
  0
LINE
  5
84
100
AcDbEntity
  8
レイヤー_1
  6
CONTINUOUS
 62
       7
100
AcDbLine
 10
65.6823643
 20
-11.72680112
 30
0.0
 11
65.81406212
 21
-11.82431994
 31
0.0
  0
LINE
  5
85
100
AcDbEntity
  8
レイヤー_1
  6
CONTINUOUS
 62
       7
100
AcDbLine
 10
65.81406212
 20
-11.82431994
 30
0.0
 11
65.97316527
 21
-11.91342439
 31
0.0
  0
LINE
  5
86
100
AcDbEntity
  8
レイヤー_1
  6
CONTINUOUS
 62
       7
100
AcDbLine
 10
65.97316527
 20
-11.91342439
 30
0.0
 11
66.15510618
 21
-11.99391219
 31
0.0
  0
LINE
  5
87
100
AcDbEntity
  8
レイヤー_1
  6
CONTINUOUS
 62
       7
100
AcDbLine
 10
66.15510618
 20
-11.99391219
 30
0.0
 11
66.35531732
 21
-12.06558108
 31
0.0
  0
LINE
  5
88
100
AcDbEntity
  8
レイヤー_1
  6
CONTINUOUS
 62
       7
100
AcDbLine
 10
66.35531732
 20
-12.06558108
 30
0.0
 11
66.56923111
 21
-12.12822879
 31
0.0
  0
LINE
  5
89
100
AcDbEntity
  8
レイヤー_1
  6
CONTINUOUS
 62
       7
100
AcDbLine
 10
66.56923111
 20
-12.12822879
 30
0.0
 11
66.79228002
 21
-12.18165304
 31
0.0
  0
LINE
  5
8A
100
AcDbEntity
  8
レイヤー_1
  6
CONTINUOUS
 62
       7
100
AcDbLine
 10
66.79228002
 20
-12.18165304
 30
0.0
 11
67.01989648
 21
-12.22565158
 31
0.0
  0
LINE
  5
8B
100
AcDbEntity
  8
レイヤー_1
  6
CONTINUOUS
 62
       7
100
AcDbLine
 10
67.01989648
 20
-12.22565158
 30
0.0
 11
67.24751294
 21
-12.26002213
 31
0.0
  0
LINE
  5
8C
100
AcDbEntity
  8
レイヤー_1
  6
CONTINUOUS
 62
       7
100
AcDbLine
 10
67.24751294
 20
-12.26002213
 30
0.0
 11
67.47056184
 21
-12.28456242
 31
0.0
  0
LINE
  5
8D
100
AcDbEntity
  8
レイヤー_1
  6
CONTINUOUS
 62
       7
100
AcDbLine
 10
67.47056184
 20
-12.28456242
 30
0.0
 11
67.68447564
 21
-12.29907018
 31
0.0
  0
LINE
  5
8E
100
AcDbEntity
  8
レイヤー_1
  6
CONTINUOUS
 62
       7
100
AcDbLine
 10
67.68447564
 20
-12.29907018
 30
0.0
 11
67.88468677
 21
-12.30334315
 31
0.0
  0
LINE
  5
8F
100
AcDbEntity
  8
レイヤー_1
  6
CONTINUOUS
 62
       7
100
AcDbLine
 10
67.88468677
 20
-12.30334315
 30
0.0
 11
68.06662769
 21
-12.29717906
 31
0.0
  0
LINE
  5
90
100
AcDbEntity
  8
レイヤー_1
  6
CONTINUOUS
 62
       7
100
AcDbLine
 10
68.06662769
 20
-12.29717906
 30
0.0
 11
68.22573083
 21
-12.28037564
 31
0.0
  0
LINE
  5
91
100
AcDbEntity
  8
レイヤー_1
  6
CONTINUOUS
 62
       7
100
AcDbLine
 10
68.22573083
 20
-12.28037564
 30
0.0
 11
68.35742865
 21
-12.25273061
 31
0.0
  0
LINE
  5
92
100
AcDbEntity
  8
レイヤー_1
  6
CONTINUOUS
 62
       7
100
AcDbLine
 10
68.35742865
 20
-12.25273061
 30
0.0
 11
68.45715359
 21
-12.21404172
 31
0.0
  0
LINE
  5
93
100
AcDbEntity
  8
レイヤー_1
  6
CONTINUOUS
 62
       7
100
AcDbLine
 10
68.45715359
 20
-12.21404172
 30
0.0
 11
68.52033809
 21
-12.16410669
 31
0.0
  0
LINE
  5
94
100
AcDbEntity
  8
レイヤー_1
  6
CONTINUOUS
 62
       7
100
AcDbLine
 10
68.52033809
 20
-12.16410669
 30
0.0
 11
68.5424146
 21
-12.10272326
 31
0.0
  0
LINE
  5
95
100
AcDbEntity
  8
レイヤー_1
  6
CONTINUOUS
 62
       7
100
AcDbLine
 10
65.49737835
 20
-9.86355451
 30
0.0
 11
65.51483082
 21
-10.02790081
 31
0.0
  0
LINE
  5
96
100
AcDbEntity
  8
レイヤー_1
  6
CONTINUOUS
 62
       7
100
AcDbLine
 10
65.51483082
 20
-10.02790081
 30
0.0
 11
65.56411965
 21
-10.18152887
 31
0.0
  0
LINE
  5
97
100
AcDbEntity
  8
レイヤー_1
  6
CONTINUOUS
 62
       7
100
AcDbLine
 10
65.56411965
 20
-10.18152887
 30
0.0
 11
65.640642
 21
-10.3244387
 31
0.0
  0
LINE
  5
98
100
AcDbEntity
  8
レイヤー_1
  6
CONTINUOUS
 62
       7
100
AcDbLine
 10
65.640642
 20
-10.3244387
 30
0.0
 11
65.73979502
 21
-10.45663029
 31
0.0
  0
LINE
  5
99
100
AcDbEntity
  8
レイヤー_1
  6
CONTINUOUS
 62
       7
100
AcDbLine
 10
65.73979502
 20
-10.45663029
 30
0.0
 11
65.85697587
 21
-10.57810365
 31
0.0
  0
LINE
  5
9A
100
AcDbEntity
  8
レイヤー_1
  6
CONTINUOUS
 62
       7
100
AcDbLine
 10
65.85697587
 20
-10.57810365
 30
0.0
 11
65.98758169
 21
-10.68885876
 31
0.0
  0
LINE
  5
9B
100
AcDbEntity
  8
レイヤー_1
  6
CONTINUOUS
 62
       7
100
AcDbLine
 10
65.98758169
 20
-10.68885876
 30
0.0
 11
66.12700963
 21
-10.78889564
 31
0.0
  0
LINE
  5
9C
100
AcDbEntity
  8
レイヤー_1
  6
CONTINUOUS
 62
       7
100
AcDbLine
 10
66.12700963
 20
-10.78889564
 30
0.0
 11
66.27065685
 21
-10.87821429
 31
0.0
  0
LINE
  5
9D
100
AcDbEntity
  8
レイヤー_1
  6
CONTINUOUS
 62
       7
100
AcDbLine
 10
66.27065685
 20
-10.87821429
 30
0.0
 11
66.4139205
 21
-10.95681469
 31
0.0
  0
LINE
  5
9E
100
AcDbEntity
  8
レイヤー_1
  6
CONTINUOUS
 62
       7
100
AcDbLine
 10
66.4139205
 20
-10.95681469
 30
0.0
 11
66.55219773
 21
-11.02469686
 31
0.0
  0
LINE
  5
9F
100
AcDbEntity
  8
レイヤー_1
  6
CONTINUOUS
 62
       7
100
AcDbLine
 10
66.55219773
 20
-11.02469686
 30
0.0
 11
66.6808857
 21
-11.08186079
 31
0.0
  0
LINE
  5
A0
100
AcDbEntity
  8
レイヤー_1
  6
CONTINUOUS
 62
       7
100
AcDbLine
 10
66.6808857
 20
-11.08186079
 30
0.0
 11
66.79538155
 21
-11.12830649
 31
0.0
  0
LINE
  5
A1
100
AcDbEntity
  8
レイヤー_1
  6
CONTINUOUS
 62
       7
100
AcDbLine
 10
66.79538155
 20
-11.12830649
 30
0.0
 11
66.89108243
 21
-11.16403394
 31
0.0
  0
LINE
  5
A2
100
AcDbEntity
  8
レイヤー_1
  6
CONTINUOUS
 62
       7
100
AcDbLine
 10
66.89108243
 20
-11.16403394
 30
0.0
 11
66.96338551
 21
-11.18904316
 31
0.0
  0
LINE
  5
A3
100
AcDbEntity
  8
レイヤー_1
  6
CONTINUOUS
 62
       7
100
AcDbLine
 10
66.96338551
 20
-11.18904316
 30
0.0
 11
67.00768792
 21
-11.20333415
 31
0.0
  0
LINE
  5
A4
100
AcDbEntity
  8
レイヤー_1
  6
CONTINUOUS
 62
       7
100
AcDbLine
 10
67.00768792
 20
-11.20333415
 30
0.0
 11
67.02039903
 21
-11.20705576
 31
0.0
  0
LINE
  5
A5
100
AcDbEntity
  8
レイヤー_1
  6
CONTINUOUS
 62
       7
100
AcDbLine
 10
67.02039903
 20
-11.20705576
 30
0.0
 11
67.0434772
 21
-11.20705576
 31
0.0
  0
LINE
  5
A6
100
AcDbEntity
  8
レイヤー_1
  6
CONTINUOUS
 62
       7
100
AcDbLine
 10
67.0434772
 20
-11.20705576
 30
0.0
 11
67.09762459
 21
-11.20705576
 31
0.0
  0
LINE
  5
A7
100
AcDbEntity
  8
レイヤー_1
  6
CONTINUOUS
 62
       7
100
AcDbLine
 10
67.09762459
 20
-11.20705576
 30
0.0
 11
67.17823836
 21
-11.20705576
 31
0.0
  0
LINE
  5
A8
100
AcDbEntity
  8
レイヤー_1
  6
CONTINUOUS
 62
       7
100
AcDbLine
 10
67.17823836
 20
-11.20705576
 30
0.0
 11
67.28071566
 21
-11.20705576
 31
0.0
  0
LINE
  5
A9
100
AcDbEntity
  8
レイヤー_1
  6
CONTINUOUS
 62
       7
100
AcDbLine
 10
67.28071566
 20
-11.20705576
 30
0.0
 11
67.40045365
 21
-11.20705576
 31
0.0
  0
LINE
  5
AA
100
AcDbEntity
  8
レイヤー_1
  6
CONTINUOUS
 62
       7
100
AcDbLine
 10
67.40045365
 20
-11.20705576
 30
0.0
 11
67.53284946
 21
-11.20705576
 31
0.0
  0
LINE
  5
AB
100
AcDbEntity
  8
レイヤー_1
  6
CONTINUOUS
 62
       7
100
AcDbLine
 10
67.53284946
 20
-11.20705576
 30
0.0
 11
67.67330026
 21
-11.20705576
 31
0.0
  0
LINE
  5
AC
100
AcDbEntity
  8
レイヤー_1
  6
CONTINUOUS
 62
       7
100
AcDbLine
 10
67.67330026
 20
-11.20705576
 30
0.0
 11
67.81720319
 21
-11.20705576
 31
0.0
  0
LINE
  5
AD
100
AcDbEntity
  8
レイヤー_1
  6
CONTINUOUS
 62
       7
100
AcDbLine
 10
67.81720319
 20
-11.20705576
 30
0.0
 11
67.95995542
 21
-11.20705576
 31
0.0
  0
LINE
  5
AE
100
AcDbEntity
  8
レイヤー_1
  6
CONTINUOUS
 62
       7
100
AcDbLine
 10
67.95995542
 20
-11.20705576
 30
0.0
 11
68.09695408
 21
-11.20705576
 31
0.0
  0
LINE
  5
AF
100
AcDbEntity
  8
レイヤー_1
  6
CONTINUOUS
 62
       7
100
AcDbLine
 10
68.09695408
 20
-11.20705576
 30
0.0
 11
68.22359633
 21
-11.20705576
 31
0.0
  0
LINE
  5
B0
100
AcDbEntity
  8
レイヤー_1
  6
CONTINUOUS
 62
       7
100
AcDbLine
 10
68.22359633
 20
-11.20705576
 30
0.0
 11
68.33527933
 21
-11.20705576
 31
0.0
  0
LINE
  5
B1
100
AcDbEntity
  8
レイヤー_1
  6
CONTINUOUS
 62
       7
100
AcDbLine
 10
68.33527933
 20
-11.20705576
 30
0.0
 11
68.42740022
 21
-11.20705576
 31
0.0
  0
LINE
  5
B2
100
AcDbEntity
  8
レイヤー_1
  6
CONTINUOUS
 62
       7
100
AcDbLine
 10
68.42740022
 20
-11.20705576
 30
0.0
 11
68.49535616
 21
-11.20705576
 31
0.0
  0
LINE
  5
B3
100
AcDbEntity
  8
レイヤー_1
  6
CONTINUOUS
 62
       7
100
AcDbLine
 10
68.49535616
 20
-11.20705576
 30
0.0
 11
68.5345443
 21
-11.20705576
 31
0.0
  0
LINE
  5
B4
100
AcDbEntity
  8
レイヤー_1
  6
CONTINUOUS
 62
       7
100
AcDbLine
 10
68.5345443
 20
-11.20705576
 30
0.0
 11
68.5424146
 21
-11.21022556
 31
0.0
  0
LINE
  5
B5
100
AcDbEntity
  8
レイヤー_1
  6
CONTINUOUS
 62
       7
100
AcDbLine
 10
68.5424146
 20
-11.21022556
 30
0.0
 11
68.5424146
 21
-11.25560681
 31
0.0
  0
LINE
  5
B6
100
AcDbEntity
  8
レイヤー_1
  6
CONTINUOUS
 62
       7
100
AcDbLine
 10
68.5424146
 20
-11.25560681
 30
0.0
 11
68.5424146
 21
-11.34911047
 31
0.0
  0
LINE
  5
B7
100
AcDbEntity
  8
レイヤー_1
  6
CONTINUOUS
 62
       7
100
AcDbLine
 10
68.5424146
 20
-11.34911047
 30
0.0
 11
68.5424146
 21
-11.48342679
 31
0.0
  0
LINE
  5
B8
100
AcDbEntity
  8
レイヤー_1
  6
CONTINUOUS
 62
       7
100
AcDbLine
 10
68.5424146
 20
-11.48342679
 30
0.0
 11
68.5424146
 21
-11.65124606
 31
0.0
  0
LINE
  5
B9
100
AcDbEntity
  8
レイヤー_1
  6
CONTINUOUS
 62
       7
100
AcDbLine
 10
68.5424146
 20
-11.65124606
 30
0.0
 11
68.5424146
 21
-11.84525852
 31
0.0
  0
LINE
  5
BA
100
AcDbEntity
  8
レイヤー_1
  6
CONTINUOUS
 62
       7
100
AcDbLine
 10
68.5424146
 20
-11.84525852
 30
0.0
 11
68.5424146
 21
-12.05815447
 31
0.0
  0
LINE
  5
BB
100
AcDbEntity
  8
レイヤー_1
  6
CONTINUOUS
 62
       7
100
AcDbLine
 10
68.5424146
 20
-12.05815447
 30
0.0
 11
68.5424146
 21
-12.28262415
 31
0.0
  0
LINE
  5
BC
100
AcDbEntity
  8
レイヤー_1
  6
CONTINUOUS
 62
       7
100
AcDbLine
 10
68.5424146
 20
-12.28262415
 30
0.0
 11
68.5424146
 21
-12.51135785
 31
0.0
  0
LINE
  5
BD
100
AcDbEntity
  8
レイヤー_1
  6
CONTINUOUS
 62
       7
100
AcDbLine
 10
68.5424146
 20
-12.51135785
 30
0.0
 11
68.5424146
 21
-12.73704582
 31
0.0
  0
LINE
  5
BE
100
AcDbEntity
  8
レイヤー_1
  6
CONTINUOUS
 62
       7
100
AcDbLine
 10
68.5424146
 20
-12.73704582
 30
0.0
 11
68.5424146
 21
-12.95237834
 31
0.0
  0
LINE
  5
BF
100
AcDbEntity
  8
レイヤー_1
  6
CONTINUOUS
 62
       7
100
AcDbLine
 10
68.5424146
 20
-12.95237834
 30
0.0
 11
68.5424146
 21
-13.15004568
 31
0.0
  0
LINE
  5
C0
100
AcDbEntity
  8
レイヤー_1
  6
CONTINUOUS
 62
       7
100
AcDbLine
 10
68.5424146
 20
-13.15004568
 30
0.0
 11
68.5424146
 21
-13.32273809
 31
0.0
  0
LINE
  5
C1
100
AcDbEntity
  8
レイヤー_1
  6
CONTINUOUS
 62
       7
100
AcDbLine
 10
68.5424146
 20
-13.32273809
 30
0.0
 11
68.5424146
 21
-13.46314586
 31
0.0
  0
LINE
  5
C2
100
AcDbEntity
  8
レイヤー_1
  6
CONTINUOUS
 62
       7
100
AcDbLine
 10
68.5424146
 20
-13.46314586
 30
0.0
 11
68.5424146
 21
-13.56395925
 31
0.0
  0
LINE
  5
C3
100
AcDbEntity
  8
レイヤー_1
  6
CONTINUOUS
 62
       7
100
AcDbLine
 10
68.5424146
 20
-13.56395925
 30
0.0
 11
68.5424146
 21
-13.61786852
 31
0.0
  0
LINE
  5
C4
100
AcDbEntity
  8
レイヤー_1
  6
CONTINUOUS
 62
       7
100
AcDbLine
 10
68.5424146
 20
-13.61786852
 30
0.0
 11
68.57835138
 21
-13.62494982
 31
0.0
  0
LINE
  5
C5
100
AcDbEntity
  8
レイヤー_1
  6
CONTINUOUS
 62
       7
100
AcDbLine
 10
68.57835138
 20
-13.62494982
 30
0.0
 11
68.85193461
 21
-13.62494982
 31
0.0
  0
LINE
  5
C6
100
AcDbEntity
  8
レイヤー_1
  6
CONTINUOUS
 62
       7
100
AcDbLine
 10
68.85193461
 20
-13.62494982
 30
0.0
 11
69.36355069
 21
-13.62494982
 31
0.0
  0
LINE
  5
C7
100
AcDbEntity
  8
レイヤー_1
  6
CONTINUOUS
 62
       7
100
AcDbLine
 10
69.36355069
 20
-13.62494982
 30
0.0
 11
70.0761036
 21
-13.62494982
 31
0.0
  0
LINE
  5
C8
100
AcDbEntity
  8
レイヤー_1
  6
CONTINUOUS
 62
       7
100
AcDbLine
 10
70.0761036
 20
-13.62494982
 30
0.0
 11
70.95249732
 21
-13.62494982
 31
0.0
  0
LINE
  5
C9
100
AcDbEntity
  8
レイヤー_1
  6
CONTINUOUS
 62
       7
100
AcDbLine
 10
70.95249732
 20
-13.62494982
 30
0.0
 11
71.9556358
 21
-13.62494982
 31
0.0
  0
LINE
  5
CA
100
AcDbEntity
  8
レイヤー_1
  6
CONTINUOUS
 62
       7
100
AcDbLine
 10
71.9556358
 20
-13.62494982
 30
0.0
 11
73.04842302
 21
-13.62494982
 31
0.0
  0
LINE
  5
CB
100
AcDbEntity
  8
レイヤー_1
  6
CONTINUOUS
 62
       7
100
AcDbLine
 10
73.04842302
 20
-13.62494982
 30
0.0
 11
74.19376296
 21
-13.62494982
 31
0.0
  0
LINE
  5
CC
100
AcDbEntity
  8
レイヤー_1
  6
CONTINUOUS
 62
       7
100
AcDbLine
 10
74.19376296
 20
-13.62494982
 30
0.0
 11
75.35455957
 21
-13.62494982
 31
0.0
  0
LINE
  5
CD
100
AcDbEntity
  8
レイヤー_1
  6
CONTINUOUS
 62
       7
100
AcDbLine
 10
75.35455957
 20
-13.62494982
 30
0.0
 11
76.49371683
 21
-13.62494982
 31
0.0
  0
LINE
  5
CE
100
AcDbEntity
  8
レイヤー_1
  6
CONTINUOUS
 62
       7
100
AcDbLine
 10
76.49371683
 20
-13.62494982
 30
0.0
 11
77.57413871
 21
-13.62494982
 31
0.0
  0
LINE
  5
CF
100
AcDbEntity
  8
レイヤー_1
  6
CONTINUOUS
 62
       7
100
AcDbLine
 10
77.57413871
 20
-13.62494982
 30
0.0
 11
78.55872918
 21
-13.62494982
 31
0.0
  0
LINE
  5
D0
100
AcDbEntity
  8
レイヤー_1
  6
CONTINUOUS
 62
       7
100
AcDbLine
 10
78.55872918
 20
-13.62494982
 30
0.0
 11
79.4103922
 21
-13.62494982
 31
0.0
  0
LINE
  5
D1
100
AcDbEntity
  8
レイヤー_1
  6
CONTINUOUS
 62
       7
100
AcDbLine
 10
79.4103922
 20
-13.62494982
 30
0.0
 11
80.09203176
 21
-13.62494982
 31
0.0
  0
LINE
  5
D2
100
AcDbEntity
  8
レイヤー_1
  6
CONTINUOUS
 62
       7
100
AcDbLine
 10
80.09203176
 20
-13.62494982
 30
0.0
 11
80.56655181
 21
-13.62494982
 31
0.0
  0
LINE
  5
D3
100
AcDbEntity
  8
レイヤー_1
  6
CONTINUOUS
 62
       7
100
AcDbLine
 10
80.56655181
 20
-13.62494982
 30
0.0
 11
80.79685633
 21
-13.62494982
 31
0.0
  0
LINE
  5
D4
100
AcDbEntity
  8
レイヤー_1
  6
CONTINUOUS
 62
       7
100
AcDbLine
 10
80.79685633
 20
-13.62494982
 30
0.0
 11
80.81294273
 21
-13.61430336
 31
0.0
  0
LINE
  5
D5
100
AcDbEntity
  8
レイヤー_1
  6
CONTINUOUS
 62
       7
100
AcDbLine
 10
80.81294273
 20
-13.61430336
 30
0.0
 11
80.81294273
 21
-13.56129206
 31
0.0
  0
LINE
  5
D6
100
AcDbEntity
  8
レイヤー_1
  6
CONTINUOUS
 62
       7
100
AcDbLine
 10
80.81294273
 20
-13.56129206
 30
0.0
 11
80.81294273
 21
-13.46936545
 31
0.0
  0
LINE
  5
D7
100
AcDbEntity
  8
レイヤー_1
  6
CONTINUOUS
 62
       7
100
AcDbLine
 10
80.81294273
 20
-13.46936545
 30
0.0
 11
80.81294273
 21
-13.34474998
 31
0.0
  0
LINE
  5
D8
100
AcDbEntity
  8
レイヤー_1
  6
CONTINUOUS
 62
       7
100
AcDbLine
 10
80.81294273
 20
-13.34474998
 30
0.0
 11
80.81294273
 21
-13.1936721
 31
0.0
  0
LINE
  5
D9
100
AcDbEntity
  8
レイヤー_1
  6
CONTINUOUS
 62
       7
100
AcDbLine
 10
80.81294273
 20
-13.1936721
 30
0.0
 11
80.81294273
 21
-13.02235826
 31
0.0
  0
LINE
  5
DA
100
AcDbEntity
  8
レイヤー_1
  6
CONTINUOUS
 62
       7
100
AcDbLine
 10
80.81294273
 20
-13.02235826
 30
0.0
 11
80.81294273
 21
-12.83703491
 31
0.0
  0
LINE
  5
DB
100
AcDbEntity
  8
レイヤー_1
  6
CONTINUOUS
 62
       7
100
AcDbLine
 10
80.81294273
 20
-12.83703491
 30
0.0
 11
80.81294273
 21
-12.64392849
 31
0.0
  0
LINE
  5
DC
100
AcDbEntity
  8
レイヤー_1
  6
CONTINUOUS
 62
       7
100
AcDbLine
 10
80.81294273
 20
-12.64392849
 30
0.0
 11
80.81294273
 21
-12.44926546
 31
0.0
  0
LINE
  5
DD
100
AcDbEntity
  8
レイヤー_1
  6
CONTINUOUS
 62
       7
100
AcDbLine
 10
80.81294273
 20
-12.44926546
 30
0.0
 11
80.81294273
 21
-12.25927227
 31
0.0
  0
LINE
  5
DE
100
AcDbEntity
  8
レイヤー_1
  6
CONTINUOUS
 62
       7
100
AcDbLine
 10
80.81294273
 20
-12.25927227
 30
0.0
 11
80.81294273
 21
-12.08017537
 31
0.0
  0
LINE
  5
DF
100
AcDbEntity
  8
レイヤー_1
  6
CONTINUOUS
 62
       7
100
AcDbLine
 10
80.81294273
 20
-12.08017537
 30
0.0
 11
80.81294273
 21
-11.9182012
 31
0.0
  0
LINE
  5
E0
100
AcDbEntity
  8
レイヤー_1
  6
CONTINUOUS
 62
       7
100
AcDbLine
 10
80.81294273
 20
-11.9182012
 30
0.0
 11
80.81294273
 21
-11.77957622
 31
0.0
  0
LINE
  5
E1
100
AcDbEntity
  8
レイヤー_1
  6
CONTINUOUS
 62
       7
100
AcDbLine
 10
80.81294273
 20
-11.77957622
 30
0.0
 11
80.81294273
 21
-11.67052687
 31
0.0
  0
LINE
  5
E2
100
AcDbEntity
  8
レイヤー_1
  6
CONTINUOUS
 62
       7
100
AcDbLine
 10
80.81294273
 20
-11.67052687
 30
0.0
 11
80.81294273
 21
-11.59727961
 31
0.0
  0
LINE
  5
E3
100
AcDbEntity
  8
レイヤー_1
  6
CONTINUOUS
 62
       7
100
AcDbLine
 10
80.81294273
 20
-11.59727961
 30
0.0
 11
80.81294273
 21
-11.56606088
 31
0.0
  0
LINE
  5
E4
100
AcDbEntity
  8
レイヤー_1
  6
CONTINUOUS
 62
       7
100
AcDbLine
 10
80.81294273
 20
-11.56606088
 30
0.0
 11
80.769135
 21
-11.54957681
 31
0.0
  0
LINE
  5
E5
100
AcDbEntity
  8
レイヤー_1
  6
CONTINUOUS
 62
       7
100
AcDbLine
 10
80.769135
 20
-11.54957681
 30
0.0
 11
80.61016552
 21
-11.4922263
 31
0.0
  0
LINE
  5
E6
100
AcDbEntity
  8
レイヤー_1
  6
CONTINUOUS
 62
       7
100
AcDbLine
 10
80.61016552
 20
-11.4922263
 30
0.0
 11
80.35072182
 21
-11.3986283
 31
0.0
  0
LINE
  5
E7
100
AcDbEntity
  8
レイヤー_1
  6
CONTINUOUS
 62
       7
100
AcDbLine
 10
80.35072182
 20
-11.3986283
 30
0.0
 11
80.00732021
 21
-11.27474129
 31
0.0
  0
LINE
  5
E8
100
AcDbEntity
  8
レイヤー_1
  6
CONTINUOUS
 62
       7
100
AcDbLine
 10
80.00732021
 20
-11.27474129
 30
0.0
 11
79.596477
 21
-11.12652376
 31
0.0
  0
LINE
  5
E9
100
AcDbEntity
  8
レイヤー_1
  6
CONTINUOUS
 62
       7
100
AcDbLine
 10
79.596477
 20
-11.12652376
 30
0.0
 11
79.13470851
 21
-10.9599342
 31
0.0
  0
LINE
  5
EA
100
AcDbEntity
  8
レイヤー_1
  6
CONTINUOUS
 62
       7
100
AcDbLine
 10
79.13470851
 20
-10.9599342
 30
0.0
 11
78.63853104
 21
-10.78093112
 31
0.0
  0
LINE
  5
EB
100
AcDbEntity
  8
レイヤー_1
  6
CONTINUOUS
 62
       7
100
AcDbLine
 10
78.63853104
 20
-10.78093112
 30
0.0
 11
78.12446089
 21
-10.59547301
 31
0.0
  0
LINE
  5
EC
100
AcDbEntity
  8
レイヤー_1
  6
CONTINUOUS
 62
       7
100
AcDbLine
 10
78.12446089
 20
-10.59547301
 30
0.0
 11
77.60901439
 21
-10.40951835
 31
0.0
  0
LINE
  5
ED
100
AcDbEntity
  8
レイヤー_1
  6
CONTINUOUS
 62
       7
100
AcDbLine
 10
77.60901439
 20
-10.40951835
 30
0.0
 11
77.10870784
 21
-10.22902565
 31
0.0
  0
LINE
  5
EE
100
AcDbEntity
  8
レイヤー_1
  6
CONTINUOUS
 62
       7
100
AcDbLine
 10
77.10870784
 20
-10.22902565
 30
0.0
 11
76.64005755
 21
-10.05995339
 31
0.0
  0
LINE
  5
EF
100
AcDbEntity
  8
レイヤー_1
  6
CONTINUOUS
 62
       7
100
AcDbLine
 10
76.64005755
 20
-10.05995339
 30
0.0
 11
76.21957983
 21
-9.90826007
 31
0.0
  0
LINE
  5
F0
100
AcDbEntity
  8
レイヤー_1
  6
CONTINUOUS
 62
       7
100
AcDbLine
 10
76.21957983
 20
-9.90826007
 30
0.0
 11
75.86379099
 21
-9.77990419
 31
0.0
  0
LINE
  5
F1
100
AcDbEntity
  8
レイヤー_1
  6
CONTINUOUS
 62
       7
100
AcDbLine
 10
75.86379099
 20
-9.77990419
 30
0.0
 11
75.58920734
 21
-9.68084423
 31
0.0
  0
LINE
  5
F2
100
AcDbEntity
  8
レイヤー_1
  6
CONTINUOUS
 62
       7
100
AcDbLine
 10
75.58920734
 20
-9.68084423
 30
0.0
 11
75.41234519
 21
-9.6170387
 31
0.0
  0
LINE
  5
F3
100
AcDbEntity
  8
レイヤー_1
  6
CONTINUOUS
 62
       7
100
AcDbLine
 10
75.41234519
 20
-9.6170387
 30
0.0
 11
75.34972085
 21
-9.59444607
 31
0.0
  0
LINE
  5
F4
100
AcDbEntity
  8
レイヤー_1
  6
CONTINUOUS
 62
       7
100
AcDbLine
 10
77.73816752
 20
29.87469339
 30
0.0
 11
77.73816752
 21
29.81401819
 31
0.0
  0
LINE
  5
F5
100
AcDbEntity
  8
レイヤー_1
  6
CONTINUOUS
 62
       7
100
AcDbLine
 10
77.73816752
 20
29.81401819
 30
0.0
 11
77.73816752
 21
29.64210511
 31
0.0
  0
LINE
  5
F6
100
AcDbEntity
  8
レイヤー_1
  6
CONTINUOUS
 62
       7
100
AcDbLine
 10
77.73816752
 20
29.64210511
 30
0.0
 11
77.73816752
 21
29.37412297
 31
0.0
  0
LINE
  5
F7
100
AcDbEntity
  8
レイヤー_1
  6
CONTINUOUS
 62
       7
100
AcDbLine
 10
77.73816752
 20
29.37412297
 30
0.0
 11
77.73816752
 21
29.02524055
 31
0.0
  0
LINE
  5
F8
100
AcDbEntity
  8
レイヤー_1
  6
CONTINUOUS
 62
       7
100
AcDbLine
 10
77.73816752
 20
29.02524055
 30
0.0
 11
77.73816752
 21
28.61062666
 31
0.0
  0
LINE
  5
F9
100
AcDbEntity
  8
レイヤー_1
  6
CONTINUOUS
 62
       7
100
AcDbLine
 10
77.73816752
 20
28.61062666
 30
0.0
 11
77.73816752
 21
28.1454501
 31
0.0
  0
LINE
  5
FA
100
AcDbEntity
  8
レイヤー_1
  6
CONTINUOUS
 62
       7
100
AcDbLine
 10
77.73816752
 20
28.1454501
 30
0.0
 11
77.73816752
 21
27.64487967
 31
0.0
  0
LINE
  5
FB
100
AcDbEntity
  8
レイヤー_1
  6
CONTINUOUS
 62
       7
100
AcDbLine
 10
77.73816752
 20
27.64487967
 30
0.0
 11
77.73816752
 21
27.12408417
 31
0.0
  0
LINE
  5
FC
100
AcDbEntity
  8
レイヤー_1
  6
CONTINUOUS
 62
       7
100
AcDbLine
 10
77.73816752
 20
27.12408417
 30
0.0
 11
77.73816752
 21
26.59823241
 31
0.0
  0
LINE
  5
FD
100
AcDbEntity
  8
レイヤー_1
  6
CONTINUOUS
 62
       7
100
AcDbLine
 10
77.73816752
 20
26.59823241
 30
0.0
 11
77.73816752
 21
26.08249318
 31
0.0
  0
LINE
  5
FE
100
AcDbEntity
  8
レイヤー_1
  6
CONTINUOUS
 62
       7
100
AcDbLine
 10
77.73816752
 20
26.08249318
 30
0.0
 11
77.73816752
 21
25.59203529
 31
0.0
  0
LINE
  5
FF
100
AcDbEntity
  8
レイヤー_1
  6
CONTINUOUS
 62
       7
100
AcDbLine
 10
77.73816752
 20
25.59203529
 30
0.0
 11
77.73816752
 21
25.14202753
 31
0.0
  0
LINE
  5
100
100
AcDbEntity
  8
レイヤー_1
  6
CONTINUOUS
 62
       7
100
AcDbLine
 10
77.73816752
 20
25.14202753
 30
0.0
 11
77.73816752
 21
24.7476387
 31
0.0
  0
LINE
  5
101
100
AcDbEntity
  8
レイヤー_1
  6
CONTINUOUS
 62
       7
100
AcDbLine
 10
77.73816752
 20
24.7476387
 30
0.0
 11
77.73816752
 21
24.42403762
 31
0.0
  0
LINE
  5
102
100
AcDbEntity
  8
レイヤー_1
  6
CONTINUOUS
 62
       7
100
AcDbLine
 10
77.73816752
 20
24.42403762
 30
0.0
 11
77.73816752
 21
24.18639307
 31
0.0
  0
LINE
  5
103
100
AcDbEntity
  8
レイヤー_1
  6
CONTINUOUS
 62
       7
100
AcDbLine
 10
77.73816752
 20
24.18639307
 30
0.0
 11
77.73816752
 21
24.04987386
 31
0.0
  0
LINE
  5
104
100
AcDbEntity
  8
レイヤー_1
  6
CONTINUOUS
 62
       7
100
AcDbLine
 10
77.73816752
 20
24.04987386
 30
0.0
 11
77.73682398
 21
24.02253257
 31
0.0
  0
LINE
  5
105
100
AcDbEntity
  8
レイヤー_1
  6
CONTINUOUS
 62
       7
100
AcDbLine
 10
77.73682398
 20
24.02253257
 30
0.0
 11
77.71754238
 21
24.02253257
 31
0.0
  0
LINE
  5
106
100
AcDbEntity
  8
レイヤー_1
  6
CONTINUOUS
 62
       7
100
AcDbLine
 10
77.71754238
 20
24.02253257
 30
0.0
 11
77.67767197
 21
24.02253257
 31
0.0
  0
LINE
  5
107
100
AcDbEntity
  8
レイヤー_1
  6
CONTINUOUS
 62
       7
100
AcDbLine
 10
77.67767197
 20
24.02253257
 30
0.0
 11
77.62015399
 21
24.02253257
 31
0.0
  0
LINE
  5
108
100
AcDbEntity
  8
レイヤー_1
  6
CONTINUOUS
 62
       7
100
AcDbLine
 10
77.62015399
 20
24.02253257
 30
0.0
 11
77.54792972
 21
24.02253257
 31
0.0
  0
LINE
  5
109
100
AcDbEntity
  8
レイヤー_1
  6
CONTINUOUS
 62
       7
100
AcDbLine
 10
77.54792972
 20
24.02253257
 30
0.0
 11
77.4639404
 21
24.02253257
 31
0.0
  0
LINE
  5
10A
100
AcDbEntity
  8
レイヤー_1
  6
CONTINUOUS
 62
       7
100
AcDbLine
 10
77.4639404
 20
24.02253257
 30
0.0
 11
77.3711273
 21
24.02253257
 31
0.0
  0
LINE
  5
10B
100
AcDbEntity
  8
レイヤー_1
  6
CONTINUOUS
 62
       7
100
AcDbLine
 10
77.3711273
 20
24.02253257
 30
0.0
 11
77.27243169
 21
24.02253257
 31
0.0
  0
LINE
  5
10C
100
AcDbEntity
  8
レイヤー_1
  6
CONTINUOUS
 62
       7
100
AcDbLine
 10
77.27243169
 20
24.02253257
 30
0.0
 11
77.17079481
 21
24.02253257
 31
0.0
  0
LINE
  5
10D
100
AcDbEntity
  8
レイヤー_1
  6
CONTINUOUS
 62
       7
100
AcDbLine
 10
77.17079481
 20
24.02253257
 30
0.0
 11
77.06915793
 21
24.02253257
 31
0.0
  0
LINE
  5
10E
100
AcDbEntity
  8
レイヤー_1
  6
CONTINUOUS
 62
       7
100
AcDbLine
 10
77.06915793
 20
24.02253257
 30
0.0
 11
76.97046231
 21
24.02253257
 31
0.0
  0
LINE
  5
10F
100
AcDbEntity
  8
レイヤー_1
  6
CONTINUOUS
 62
       7
100
AcDbLine
 10
76.97046231
 20
24.02253257
 30
0.0
 11
76.87764922
 21
24.02253257
 31
0.0
  0
LINE
  5
110
100
AcDbEntity
  8
レイヤー_1
  6
CONTINUOUS
 62
       7
100
AcDbLine
 10
76.87764922
 20
24.02253257
 30
0.0
 11
76.7936599
 21
24.02253257
 31
0.0
  0
LINE
  5
111
100
AcDbEntity
  8
レイヤー_1
  6
CONTINUOUS
 62
       7
100
AcDbLine
 10
76.7936599
 20
24.02253257
 30
0.0
 11
76.72143562
 21
24.02253257
 31
0.0
  0
LINE
  5
112
100
AcDbEntity
  8
レイヤー_1
  6
CONTINUOUS
 62
       7
100
AcDbLine
 10
76.72143562
 20
24.02253257
 30
0.0
 11
76.66391765
 21
24.02253257
 31
0.0
  0
LINE
  5
113
100
AcDbEntity
  8
レイヤー_1
  6
CONTINUOUS
 62
       7
100
AcDbLine
 10
76.66391765
 20
24.02253257
 30
0.0
 11
76.62404723
 21
24.02253257
 31
0.0
  0
LINE
  5
114
100
AcDbEntity
  8
レイヤー_1
  6
CONTINUOUS
 62
       7
100
AcDbLine
 10
76.62404723
 20
24.02253257
 30
0.0
 11
76.60476564
 21
24.02253257
 31
0.0
  0
LINE
  5
115
100
AcDbEntity
  8
レイヤー_1
  6
CONTINUOUS
 62
       7
100
AcDbLine
 10
76.60476564
 20
24.02253257
 30
0.0
 11
76.60401772
 21
24.03511571
 31
0.0
  0
LINE
  5
116
100
AcDbEntity
  8
レイヤー_1
  6
CONTINUOUS
 62
       7
100
AcDbLine
 10
76.60401772
 20
24.03511571
 30
0.0
 11
76.60467289
 21
24.09820277
 31
0.0
  0
LINE
  5
117
100
AcDbEntity
  8
レイヤー_1
  6
CONTINUOUS
 62
       7
100
AcDbLine
 10
76.60467289
 20
24.09820277
 30
0.0
 11
76.60029622
 21
24.20863377
 31
0.0
  0
LINE
  5
118
100
AcDbEntity
  8
レイヤー_1
  6
CONTINUOUS
 62
       7
100
AcDbLine
 10
76.60029622
 20
24.20863377
 30
0.0
 11
76.58554857
 21
24.35998395
 31
0.0
  0
LINE
  5
119
100
AcDbEntity
  8
レイヤー_1
  6
CONTINUOUS
 62
       7
100
AcDbLine
 10
76.58554857
 20
24.35998395
 30
0.0
 11
76.55509076
 21
24.54582856
 31
0.0
  0
LINE
  5
11A
100
AcDbEntity
  8
レイヤー_1
  6
CONTINUOUS
 62
       7
100
AcDbLine
 10
76.55509076
 20
24.54582856
 30
0.0
 11
76.50358366
 21
24.75974287
 31
0.0
  0
LINE
  5
11B
100
AcDbEntity
  8
レイヤー_1
  6
CONTINUOUS
 62
       7
100
AcDbLine
 10
76.50358366
 20
24.75974287
 30
0.0
 11
76.42568808
 21
24.99530211
 31
0.0
  0
LINE
  5
11C
100
AcDbEntity
  8
レイヤー_1
  6
CONTINUOUS
 62
       7
100
AcDbLine
 10
76.42568808
 20
24.99530211
 30
0.0
 11
76.31606489
 21
25.24608155
 31
0.0
  0
LINE
  5
11D
100
AcDbEntity
  8
レイヤー_1
  6
CONTINUOUS
 62
       7
100
AcDbLine
 10
76.31606489
 20
25.24608155
 30
0.0
 11
76.16937491
 21
25.50565642
 31
0.0
  0
LINE
  5
11E
100
AcDbEntity
  8
レイヤー_1
  6
CONTINUOUS
 62
       7
100
AcDbLine
 10
76.16937491
 20
25.50565642
 30
0.0
 11
75.980279
 21
25.76760199
 31
0.0
  0
LINE
  5
11F
100
AcDbEntity
  8
レイヤー_1
  6
CONTINUOUS
 62
       7
100
AcDbLine
 10
75.980279
 20
25.76760199
 30
0.0
 11
75.743438
 21
26.0254935
 31
0.0
  0
LINE
  5
120
100
AcDbEntity
  8
レイヤー_1
  6
CONTINUOUS
 62
       7
100
AcDbLine
 10
75.743438
 20
26.0254935
 30
0.0
 11
75.45351273
 21
26.2729062
 31
0.0
  0
LINE
  5
121
100
AcDbEntity
  8
レイヤー_1
  6
CONTINUOUS
 62
       7
100
AcDbLine
 10
75.45351273
 20
26.2729062
 30
0.0
 11
75.10516406
 21
26.50341535
 31
0.0
  0
LINE
  5
122
100
AcDbEntity
  8
レイヤー_1
  6
CONTINUOUS
 62
       7
100
AcDbLine
 10
75.10516406
 20
26.50341535
 30
0.0
 11
74.69305282
 21
26.71059619
 31
0.0
  0
LINE
  5
123
100
AcDbEntity
  8
レイヤー_1
  6
CONTINUOUS
 62
       7
100
AcDbLine
 10
74.69305282
 20
26.71059619
 30
0.0
 11
74.21183985
 21
26.88802399
 31
0.0
  0
LINE
  5
124
100
AcDbEntity
  8
レイヤー_1
  6
CONTINUOUS
 62
       7
100
AcDbLine
 10
74.21183985
 20
26.88802399
 30
0.0
 11
73.656186
 21
27.02927398
 31
0.0
  0
LINE
  5
125
100
AcDbEntity
  8
レイヤー_1
  6
CONTINUOUS
 62
       7
100
AcDbLine
 10
73.656186
 20
27.02927398
 30
0.0
 11
73.0207521
 21
27.12792142
 31
0.0
  0
LINE
  5
126
100
AcDbEntity
  8
レイヤー_1
  6
CONTINUOUS
 62
       7
100
AcDbLine
 10
-80.74016696
 20
54.56765158
 30
0.0
 11
-80.68338442
 21
54.76049605
 31
0.0
  0
LINE
  5
127
100
AcDbEntity
  8
レイヤー_1
  6
CONTINUOUS
 62
       7
100
AcDbLine
 10
-80.68338442
 20
54.76049605
 30
0.0
 11
-80.64667612
 21
54.95433046
 31
0.0
  0
LINE
  5
128
100
AcDbEntity
  8
レイヤー_1
  6
CONTINUOUS
 62
       7
100
AcDbLine
 10
-80.64667612
 20
54.95433046
 30
0.0
 11
-80.62946031
 21
55.14793871
 31
0.0
  0
LINE
  5
129
100
AcDbEntity
  8
レイヤー_1
  6
CONTINUOUS
 62
       7
100
AcDbLine
 10
-80.62946031
 20
55.14793871
 30
0.0
 11
-80.63115523
 21
55.3401047
 31
0.0
  0
LINE
  5
12A
100
AcDbEntity
  8
レイヤー_1
  6
CONTINUOUS
 62
       7
100
AcDbLine
 10
-80.63115523
 20
55.3401047
 30
0.0
 11
-80.65117913
 21
55.52961233
 31
0.0
  0
LINE
  5
12B
100
AcDbEntity
  8
レイヤー_1
  6
CONTINUOUS
 62
       7
100
AcDbLine
 10
-80.65117913
 20
55.52961233
 30
0.0
 11
-80.68895026
 21
55.71524549
 31
0.0
  0
LINE
  5
12C
100
AcDbEntity
  8
レイヤー_1
  6
CONTINUOUS
 62
       7
100
AcDbLine
 10
-80.68895026
 20
55.71524549
 30
0.0
 11
-80.74388684
 21
55.89578809
 31
0.0
  0
LINE
  5
12D
100
AcDbEntity
  8
レイヤー_1
  6
CONTINUOUS
 62
       7
100
AcDbLine
 10
-80.74388684
 20
55.89578809
 30
0.0
 11
-80.81540714
 21
56.07002401
 31
0.0
  0
LINE
  5
12E
100
AcDbEntity
  8
レイヤー_1
  6
CONTINUOUS
 62
       7
100
AcDbLine
 10
-80.81540714
 20
56.07002401
 30
0.0
 11
-80.90292939
 21
56.23673717
 31
0.0
  0
LINE
  5
12F
100
AcDbEntity
  8
レイヤー_1
  6
CONTINUOUS
 62
       7
100
AcDbLine
 10
-80.90292939
 20
56.23673717
 30
0.0
 11
-81.00587184
 21
56.39471145
 31
0.0
  0
LINE
  5
130
100
AcDbEntity
  8
レイヤー_1
  6
CONTINUOUS
 62
       7
100
AcDbLine
 10
-81.00587184
 20
56.39471145
 30
0.0
 11
-81.12365273
 21
56.54273076
 31
0.0
  0
LINE
  5
131
100
AcDbEntity
  8
レイヤー_1
  6
CONTINUOUS
 62
       7
100
AcDbLine
 10
-81.12365273
 20
56.54273076
 30
0.0
 11
-81.25569031
 21
56.67957898
 31
0.0
  0
LINE
  5
132
100
AcDbEntity
  8
レイヤー_1
  6
CONTINUOUS
 62
       7
100
AcDbLine
 10
-81.25569031
 20
56.67957898
 30
0.0
 11
-81.40140282
 21
56.80404003
 31
0.0
  0
LINE
  5
133
100
AcDbEntity
  8
レイヤー_1
  6
CONTINUOUS
 62
       7
100
AcDbLine
 10
-81.40140282
 20
56.80404003
 30
0.0
 11
-81.56020851
 21
56.9148978
 31
0.0
  0
LINE
  5
134
100
AcDbEntity
  8
レイヤー_1
  6
CONTINUOUS
 62
       7
100
AcDbLine
 10
-81.56020851
 20
56.9148978
 30
0.0
 11
-81.73152561
 21
57.01093618
 31
0.0
  0
LINE
  5
135
100
AcDbEntity
  8
レイヤー_1
  6
CONTINUOUS
 62
       7
100
AcDbLine
 10
-81.73152561
 20
57.01093618
 30
0.0
 11
-81.91477238
 21
57.09093908
 31
0.0
  0
LINE
  5
136
100
AcDbEntity
  8
レイヤー_1
  6
CONTINUOUS
 62
       7
100
AcDbLine
 10
-81.91477238
 20
57.09093908
 30
0.0
 11
-82.10679948
 21
57.15312457
 31
0.0
  0
LINE
  5
137
100
AcDbEntity
  8
レイヤー_1
  6
CONTINUOUS
 62
       7
100
AcDbLine
 10
-82.10679948
 20
57.15312457
 30
0.0
 11
-82.30042388
 21
57.19518497
 31
0.0
  0
LINE
  5
138
100
AcDbEntity
  8
レイヤー_1
  6
CONTINUOUS
 62
       7
100
AcDbLine
 10
-82.30042388
 20
57.19518497
 30
0.0
 11
-82.49414835
 21
57.21753437
 31
0.0
  0
LINE
  5
139
100
AcDbEntity
  8
レイヤー_1
  6
CONTINUOUS
 62
       7
100
AcDbLine
 10
-82.49414835
 20
57.21753437
 30
0.0
 11
-82.68675437
 21
57.22075819
 31
0.0
  0
LINE
  5
13A
100
AcDbEntity
  8
レイヤー_1
  6
CONTINUOUS
 62
       7
100
AcDbLine
 10
-82.68675437
 20
57.22075819
 30
0.0
 11
-82.87702337
 21
57.20544186
 31
0.0
  0
LINE
  5
13B
100
AcDbEntity
  8
レイヤー_1
  6
CONTINUOUS
 62
       7
100
AcDbLine
 10
-82.87702337
 20
57.20544186
 30
0.0
 11
-83.06373682
 21
57.1721708
 31
0.0
  0
LINE
  5
13C
100
AcDbEntity
  8
レイヤー_1
  6
CONTINUOUS
 62
       7
100
AcDbLine
 10
-83.06373682
 20
57.1721708
 30
0.0
 11
-83.24567615
 21
57.12153043
 31
0.0
  0
LINE
  5
13D
100
AcDbEntity
  8
レイヤー_1
  6
CONTINUOUS
 62
       7
100
AcDbLine
 10
-83.24567615
 20
57.12153043
 30
0.0
 11
-83.42162283
 21
57.05410618
 31
0.0
  0
LINE
  5
13E
100
AcDbEntity
  8
レイヤー_1
  6
CONTINUOUS
 62
       7
100
AcDbLine
 10
-83.42162283
 20
57.05410618
 30
0.0
 11
-83.59035831
 21
56.97048348
 31
0.0
  0
LINE
  5
13F
100
AcDbEntity
  8
レイヤー_1
  6
CONTINUOUS
 62
       7
100
AcDbLine
 10
-83.59035831
 20
56.97048348
 30
0.0
 11
-83.75066403
 21
56.87124775
 31
0.0
  0
LINE
  5
140
100
AcDbEntity
  8
レイヤー_1
  6
CONTINUOUS
 62
       7
100
AcDbLine
 10
-83.75066403
 20
56.87124775
 30
0.0
 11
-83.90132146
 21
56.75698441
 31
0.0
  0
LINE
  5
141
100
AcDbEntity
  8
レイヤー_1
  6
CONTINUOUS
 62
       7
100
AcDbLine
 10
-83.90132146
 20
56.75698441
 30
0.0
 11
-84.04111204
 21
56.6282789
 31
0.0
  0
LINE
  5
142
100
AcDbEntity
  8
レイヤー_1
  6
CONTINUOUS
 62
       7
100
AcDbLine
 10
-84.04111204
 20
56.6282789
 30
0.0
 11
-84.16881722
 21
56.48571663
 31
0.0
  0
LINE
  5
143
100
AcDbEntity
  8
レイヤー_1
  6
CONTINUOUS
 62
       7
100
AcDbLine
 10
-84.16881722
 20
56.48571663
 30
0.0
 11
-84.28321846
 21
56.32988303
 31
0.0
  0
LINE
  5
144
100
AcDbEntity
  8
レイヤー_1
  6
CONTINUOUS
 62
       7
100
AcDbLine
 10
-84.28321846
 20
56.32988303
 30
0.0
 11
-84.3830972
 21
56.16136352
 31
0.0
  0
LINE
  5
145
100
AcDbEntity
  8
レイヤー_1
  6
CONTINUOUS
 62
       7
100
AcDbLine
 10
-84.3830972
 20
56.16136352
 30
0.0
 11
-84.4672349
 21
55.98074354
 31
0.0
  0
LINE
  5
146
100
AcDbEntity
  8
レイヤー_1
  6
CONTINUOUS
 62
       7
100
AcDbLine
 10
-84.4672349
 20
55.98074354
 30
0.0
 11
-84.534085
 21
55.78998595
 31
0.0
  0
LINE
  5
147
100
AcDbEntity
  8
レイヤー_1
  6
CONTINUOUS
 62
       7
100
AcDbLine
 10
-84.534085
 20
55.78998595
 30
0.0
 11
-84.58097582
 21
55.59672454
 31
0.0
  0
LINE
  5
148
100
AcDbEntity
  8
レイヤー_1
  6
CONTINUOUS
 62
       7
100
AcDbLine
 10
-84.58097582
 20
55.59672454
 30
0.0
 11
-84.60803578
 21
55.40304333
 31
0.0
  0
LINE
  5
149
100
AcDbEntity
  8
レイヤー_1
  6
CONTINUOUS
 62
       7
100
AcDbLine
 10
-84.60803578
 20
55.40304333
 30
0.0
 11
-84.6158503
 21
55.21015963
 31
0.0
  0
LINE
  5
14A
100
AcDbEntity
  8
レイヤー_1
  6
CONTINUOUS
 62
       7
100
AcDbLine
 10
-84.6158503
 20
55.21015963
 30
0.0
 11
-84.60500482
 21
55.01929078
 31
0.0
  0
LINE
  5
14B
100
AcDbEntity
  8
レイヤー_1
  6
CONTINUOUS
 62
       7
100
AcDbLine
 10
-84.60500482
 20
55.01929078
 30
0.0
 11
-84.57608474
 21
54.8316541
 31
0.0
  0
LINE
  5
14C
100
AcDbEntity
  8
レイヤー_1
  6
CONTINUOUS
 62
       7
100
AcDbLine
 10
-84.57608474
 20
54.8316541
 30
0.0
 11
-84.52967551
 21
54.64846692
 31
0.0
  0
LINE
  5
14D
100
AcDbEntity
  8
レイヤー_1
  6
CONTINUOUS
 62
       7
100
AcDbLine
 10
-84.52967551
 20
54.64846692
 30
0.0
 11
-84.46636254
 21
54.47094655
 31
0.0
  0
LINE
  5
14E
100
AcDbEntity
  8
レイヤー_1
  6
CONTINUOUS
 62
       7
100
AcDbLine
 10
-84.46636254
 20
54.47094655
 30
0.0
 11
-84.38673125
 21
54.30031033
 31
0.0
  0
LINE
  5
14F
100
AcDbEntity
  8
レイヤー_1
  6
CONTINUOUS
 62
       7
100
AcDbLine
 10
-84.38673125
 20
54.30031033
 30
0.0
 11
-84.29136708
 21
54.13777557
 31
0.0
  0
LINE
  5
150
100
AcDbEntity
  8
レイヤー_1
  6
CONTINUOUS
 62
       7
100
AcDbLine
 10
-84.29136708
 20
54.13777557
 30
0.0
 11
-84.18085545
 21
53.98455962
 31
0.0
  0
LINE
  5
151
100
AcDbEntity
  8
レイヤー_1
  6
CONTINUOUS
 62
       7
100
AcDbLine
 10
-84.18085545
 20
53.98455962
 30
0.0
 11
-84.05578178
 21
53.84187978
 31
0.0
  0
LINE
  5
152
100
AcDbEntity
  8
レイヤー_1
  6
CONTINUOUS
 62
       7
100
AcDbLine
 10
-84.05578178
 20
53.84187978
 30
0.0
 11
-83.9167315
 21
53.71095338
 31
0.0
  0
LINE
  5
153
100
AcDbEntity
  8
レイヤー_1
  6
CONTINUOUS
 62
       7
100
AcDbLine
 10
-83.9167315
 20
53.71095338
 30
0.0
 11
-83.76429003
 21
53.59299776
 31
0.0
  0
LINE
  5
154
100
AcDbEntity
  8
レイヤー_1
  6
CONTINUOUS
 62
       7
100
AcDbLine
 10
-83.76429003
 20
53.59299776
 30
0.0
 11
-83.5990428
 21
53.48923023
 31
0.0
  0
LINE
  5
155
100
AcDbEntity
  8
レイヤー_1
  6
CONTINUOUS
 62
       7
100
AcDbLine
 10
-83.5990428
 20
53.48923023
 30
0.0
 11
-83.42157523
 21
53.40086812
 31
0.0
  0
LINE
  5
156
100
AcDbEntity
  8
レイヤー_1
  6
CONTINUOUS
 62
       7
100
AcDbLine
 10
-83.42157523
 20
53.40086812
 30
0.0
 11
-83.23282096
 21
53.32930375
 31
0.0
  0
LINE
  5
157
100
AcDbEntity
  8
レイヤー_1
  6
CONTINUOUS
 62
       7
100
AcDbLine
 10
-83.23282096
 20
53.32930375
 30
0.0
 11
-83.03984556
 21
53.27751946
 31
0.0
  0
LINE
  5
158
100
AcDbEntity
  8
レイヤー_1
  6
CONTINUOUS
 62
       7
100
AcDbLine
 10
-83.03984556
 20
53.27751946
 30
0.0
 11
-82.84613584
 21
53.24570271
 31
0.0
  0
LINE
  5
159
100
AcDbEntity
  8
レイヤー_1
  6
CONTINUOUS
 62
       7
100
AcDbLine
 10
-82.84613584
 20
53.24570271
 30
0.0
 11
-82.65291156
 21
53.23326562
 31
0.0
  0
LINE
  5
15A
100
AcDbEntity
  8
レイヤー_1
  6
CONTINUOUS
 62
       7
100
AcDbLine
 10
-82.65291156
 20
53.23326562
 30
0.0
 11
-82.46139249
 21
53.23962032
 31
0.0
  0
LINE
  5
15B
100
AcDbEntity
  8
レイヤー_1
  6
CONTINUOUS
 62
       7
100
AcDbLine
 10
-82.46139249
 20
53.23962032
 30
0.0
 11
-82.2727984
 21
53.26417895
 31
0.0
  0
LINE
  5
15C
100
AcDbEntity
  8
レイヤー_1
  6
CONTINUOUS
 62
       7
100
AcDbLine
 10
-82.2727984
 20
53.26417895
 30
0.0
 11
-82.08834907
 21
53.30635362
 31
0.0
  0
LINE
  5
15D
100
AcDbEntity
  8
レイヤー_1
  6
CONTINUOUS
 62
       7
100
AcDbLine
 10
-82.08834907
 20
53.30635362
 30
0.0
 11
-81.90926427
 21
53.36555648
 31
0.0
  0
LINE
  5
15E
100
AcDbEntity
  8
レイヤー_1
  6
CONTINUOUS
 62
       7
100
AcDbLine
 10
-81.90926427
 20
53.36555648
 30
0.0
 11
-81.73676376
 21
53.44119964
 31
0.0
  0
LINE
  5
15F
100
AcDbEntity
  8
レイヤー_1
  6
CONTINUOUS
 62
       7
100
AcDbLine
 10
-81.73676376
 20
53.44119964
 30
0.0
 11
-81.57206732
 21
53.53269525
 31
0.0
  0
LINE
  5
160
100
AcDbEntity
  8
レイヤー_1
  6
CONTINUOUS
 62
       7
100
AcDbLine
 10
-81.57206732
 20
53.53269525
 30
0.0
 11
-81.41639473
 21
53.63945542
 31
0.0
  0
LINE
  5
161
100
AcDbEntity
  8
レイヤー_1
  6
CONTINUOUS
 62
       7
100
AcDbLine
 10
-81.41639473
 20
53.63945542
 30
0.0
 11
-81.27096574
 21
53.76089229
 31
0.0
  0
LINE
  5
162
100
AcDbEntity
  8
レイヤー_1
  6
CONTINUOUS
 62
       7
100
AcDbLine
 10
-81.27096574
 20
53.76089229
 30
0.0
 11
-81.13700013
 21
53.89641798
 31
0.0
  0
LINE
  5
163
100
AcDbEntity
  8
レイヤー_1
  6
CONTINUOUS
 62
       7
100
AcDbLine
 10
-81.13700013
 20
53.89641798
 30
0.0
 11
-81.01571768
 21
54.04544463
 31
0.0
  0
LINE
  5
164
100
AcDbEntity
  8
レイヤー_1
  6
CONTINUOUS
 62
       7
100
AcDbLine
 10
-81.01571768
 20
54.04544463
 30
0.0
 11
-80.90833816
 21
54.20738436
 31
0.0
  0
LINE
  5
165
100
AcDbEntity
  8
レイヤー_1
  6
CONTINUOUS
 62
       7
100
AcDbLine
 10
-80.90833816
 20
54.20738436
 30
0.0
 11
-80.81608132
 21
54.3816493
 31
0.0
  0
LINE
  5
166
100
AcDbEntity
  8
レイヤー_1
  6
CONTINUOUS
 62
       7
100
AcDbLine
 10
-80.81608132
 20
54.3816493
 30
0.0
 11
-80.74016696
 21
54.56765158
 31
0.0
  0
LINE
  5
167
100
AcDbEntity
  8
レイヤー_1
  6
CONTINUOUS
 62
       7
100
AcDbLine
 10
-80.62791696
 20
39.40107357
 30
0.0
 11
-80.63419506
 21
39.54786361
 31
0.0
  0
LINE
  5
168
100
AcDbEntity
  8
レイヤー_1
  6
CONTINUOUS
 62
       7
100
AcDbLine
 10
-80.63419506
 20
39.54786361
 30
0.0
 11
-80.65117515
 21
39.69292772
 31
0.0
  0
LINE
  5
169
100
AcDbEntity
  8
レイヤー_1
  6
CONTINUOUS
 62
       7
100
AcDbLine
 10
-80.65117515
 20
39.69292772
 30
0.0
 11
-80.67859501
 21
39.83571761
 31
0.0
  0
LINE
  5
16A
100
AcDbEntity
  8
レイヤー_1
  6
CONTINUOUS
 62
       7
100
AcDbLine
 10
-80.67859501
 20
39.83571761
 30
0.0
 11
-80.71619239
 21
39.97568502
 31
0.0
  0
LINE
  5
16B
100
AcDbEntity
  8
レイヤー_1
  6
CONTINUOUS
 62
       7
100
AcDbLine
 10
-80.71619239
 20
39.97568502
 30
0.0
 11
-80.76370506
 21
40.11228167
 31
0.0
  0
LINE
  5
16C
100
AcDbEntity
  8
レイヤー_1
  6
CONTINUOUS
 62
       7
100
AcDbLine
 10
-80.76370506
 20
40.11228167
 30
0.0
 11
-80.82087078
 21
40.24495928
 31
0.0
  0
LINE
  5
16D
100
AcDbEntity
  8
レイヤー_1
  6
CONTINUOUS
 62
       7
100
AcDbLine
 10
-80.82087078
 20
40.24495928
 30
0.0
 11
-80.88742733
 21
40.37316958
 31
0.0
  0
LINE
  5
16E
100
AcDbEntity
  8
レイヤー_1
  6
CONTINUOUS
 62
       7
100
AcDbLine
 10
-80.88742733
 20
40.37316958
 30
0.0
 11
-80.96311247
 21
40.4963643
 31
0.0
  0
LINE
  5
16F
100
AcDbEntity
  8
レイヤー_1
  6
CONTINUOUS
 62
       7
100
AcDbLine
 10
-80.96311247
 20
40.4963643
 30
0.0
 11
-81.04766395
 21
40.61399516
 31
0.0
  0
LINE
  5
170
100
AcDbEntity
  8
レイヤー_1
  6
CONTINUOUS
 62
       7
100
AcDbLine
 10
-81.04766395
 20
40.61399516
 30
0.0
 11
-81.14081956
 21
40.72551389
 31
0.0
  0
LINE
  5
171
100
AcDbEntity
  8
レイヤー_1
  6
CONTINUOUS
 62
       7
100
AcDbLine
 10
-81.14081956
 20
40.72551389
 30
0.0
 11
-81.24231705
 21
40.83037221
 31
0.0
  0
LINE
  5
172
100
AcDbEntity
  8
レイヤー_1
  6
CONTINUOUS
 62
       7
100
AcDbLine
 10
-81.24231705
 20
40.83037221
 30
0.0
 11
-81.35189418
 21
40.92802185
 31
0.0
  0
LINE
  5
173
100
AcDbEntity
  8
レイヤー_1
  6
CONTINUOUS
 62
       7
100
AcDbLine
 10
-81.35189418
 20
40.92802185
 30
0.0
 11
-81.46928874
 21
41.01791453
 31
0.0
  0
LINE
  5
174
100
AcDbEntity
  8
レイヤー_1
  6
CONTINUOUS
 62
       7
100
AcDbLine
 10
-81.46928874
 20
41.01791453
 30
0.0
 11
-81.59423847
 21
41.09950198
 31
0.0
  0
LINE
  5
175
100
AcDbEntity
  8
レイヤー_1
  6
CONTINUOUS
 62
       7
100
AcDbLine
 10
-81.59423847
 20
41.09950198
 30
0.0
 11
-81.72648114
 21
41.17223593
 31
0.0
  0
LINE
  5
176
100
AcDbEntity
  8
レイヤー_1
  6
CONTINUOUS
 62
       7
100
AcDbLine
 10
-81.72648114
 20
41.17223593
 30
0.0
 11
-81.86575453
 21
41.2355681
 31
0.0
  0
LINE
  5
177
100
AcDbEntity
  8
レイヤー_1
  6
CONTINUOUS
 62
       7
100
AcDbLine
 10
-81.86575453
 20
41.2355681
 30
0.0
 11
-82.02483769
 21
41.2931064
 31
0.0
  0
LINE
  5
178
100
AcDbEntity
  8
レイヤー_1
  6
CONTINUOUS
 62
       7
100
AcDbLine
 10
-82.02483769
 20
41.2931064
 30
0.0
 11
-82.21320763
 21
41.34260712
 31
0.0
  0
LINE
  5
179
100
AcDbEntity
  8
レイヤー_1
  6
CONTINUOUS
 62
       7
100
AcDbLine
 10
-82.21320763
 20
41.34260712
 30
0.0
 11
-82.40219398
 21
41.37313222
 31
0.0
  0
LINE
  5
17A
100
AcDbEntity
  8
レイヤー_1
  6
CONTINUOUS
 62
       7
100
AcDbLine
 10
-82.40219398
 20
41.37313222
 30
0.0
 11
-82.59066733
 21
41.38522432
 31
0.0
  0
LINE
  5
17B
100
AcDbEntity
  8
レイヤー_1
  6
CONTINUOUS
 62
       7
100
AcDbLine
 10
-82.59066733
 20
41.38522432
 30
0.0
 11
-82.77749824
 21
41.37942602
 31
0.0
  0
LINE
  5
17C
100
AcDbEntity
  8
レイヤー_1
  6
CONTINUOUS
 62
       7
100
AcDbLine
 10
-82.77749824
 20
41.37942602
 30
0.0
 11
-82.96155731
 21
41.35627993
 31
0.0
  0
LINE
  5
17D
100
AcDbEntity
  8
レイヤー_1
  6
CONTINUOUS
 62
       7
100
AcDbLine
 10
-82.96155731
 20
41.35627993
 30
0.0
 11
-83.14171509
 21
41.31632865
 31
0.0
  0
LINE
  5
17E
100
AcDbEntity
  8
レイヤー_1
  6
CONTINUOUS
 62
       7
100
AcDbLine
 10
-83.14171509
 20
41.31632865
 30
0.0
 11
-83.31684218
 21
41.2601148
 31
0.0
  0
LINE
  5
17F
100
AcDbEntity
  8
レイヤー_1
  6
CONTINUOUS
 62
       7
100
AcDbLine
 10
-83.31684218
 20
41.2601148
 30
0.0
 11
-83.48580915
 21
41.18818097
 31
0.0
  0
LINE
  5
180
100
AcDbEntity
  8
レイヤー_1
  6
CONTINUOUS
 62
       7
100
AcDbLine
 10
-83.48580915
 20
41.18818097
 30
0.0
 11
-83.64748657
 21
41.10106978
 31
0.0
  0
LINE
  5
181
100
AcDbEntity
  8
レイヤー_1
  6
CONTINUOUS
 62
       7
100
AcDbLine
 10
-83.64748657
 20
41.10106978
 30
0.0
 11
-83.80074503
 21
40.99932382
 31
0.0
  0
LINE
  5
182
100
AcDbEntity
  8
レイヤー_1
  6
CONTINUOUS
 62
       7
100
AcDbLine
 10
-83.80074503
 20
40.99932382
 30
0.0
 11
-83.9444551
 21
40.88348572
 31
0.0
  0
LINE
  5
183
100
AcDbEntity
  8
レイヤー_1
  6
CONTINUOUS
 62
       7
100
AcDbLine
 10
-83.9444551
 20
40.88348572
 30
0.0
 11
-84.07748735
 21
40.75409807
 31
0.0
  0
LINE
  5
184
100
AcDbEntity
  8
レイヤー_1
  6
CONTINUOUS
 62
       7
100
AcDbLine
 10
-84.07748735
 20
40.75409807
 30
0.0
 11
-84.19871237
 21
40.61170348
 31
0.0
  0
LINE
  5
185
100
AcDbEntity
  8
レイヤー_1
  6
CONTINUOUS
 62
       7
100
AcDbLine
 10
-84.19871237
 20
40.61170348
 30
0.0
 11
-84.30700073
 21
40.45684455
 31
0.0
  0
LINE
  5
186
100
AcDbEntity
  8
レイヤー_1
  6
CONTINUOUS
 62
       7
100
AcDbLine
 10
-84.30700073
 20
40.45684455
 30
0.0
 11
-84.40122302
 21
40.2900639
 31
0.0
  0
LINE
  5
187
100
AcDbEntity
  8
レイヤー_1
  6
CONTINUOUS
 62
       7
100
AcDbLine
 10
-84.40122302
 20
40.2900639
 30
0.0
 11
-84.4802498
 21
40.11190413
 31
0.0
  0
LINE
  5
188
100
AcDbEntity
  8
レイヤー_1
  6
CONTINUOUS
 62
       7
100
AcDbLine
 10
-84.4802498
 20
40.11190413
 30
0.0
 11
-84.51186081
 21
40.02427677
 31
0.0
  0
LINE
  5
189
100
AcDbEntity
  8
レイヤー_1
  6
CONTINUOUS
 62
       7
100
AcDbLine
 10
-84.51186081
 20
40.02427677
 30
0.0
 11
-84.52442687
 21
39.98549661
 31
0.0
  0
LINE
  5
18A
100
AcDbEntity
  8
レイヤー_1
  6
CONTINUOUS
 62
       7
100
AcDbLine
 10
-84.52442687
 20
39.98549661
 30
0.0
 11
-84.5361629
 21
39.94664087
 31
0.0
  0
LINE
  5
18B
100
AcDbEntity
  8
レイヤー_1
  6
CONTINUOUS
 62
       7
100
AcDbLine
 10
-84.5361629
 20
39.94664087
 30
0.0
 11
-84.54707343
 21
39.9077209
 31
0.0
  0
LINE
  5
18C
100
AcDbEntity
  8
レイヤー_1
  6
CONTINUOUS
 62
       7
100
AcDbLine
 10
-84.54707343
 20
39.9077209
 30
0.0
 11
-84.557163
 21
39.86874803
 31
0.0
  0
LINE
  5
18D
100
AcDbEntity
  8
レイヤー_1
  6
CONTINUOUS
 62
       7
100
AcDbLine
 10
-84.557163
 20
39.86874803
 30
0.0
 11
-84.56643614
 21
39.82973359
 31
0.0
  0
LINE
  5
18E
100
AcDbEntity
  8
レイヤー_1
  6
CONTINUOUS
 62
       7
100
AcDbLine
 10
-84.56643614
 20
39.82973359
 30
0.0
 11
-84.57489739
 21
39.79068893
 31
0.0
  0
LINE
  5
18F
100
AcDbEntity
  8
レイヤー_1
  6
CONTINUOUS
 62
       7
100
AcDbLine
 10
-84.57489739
 20
39.79068893
 30
0.0
 11
-84.58255127
 21
39.75162537
 31
0.0
  0
LINE
  5
190
100
AcDbEntity
  8
レイヤー_1
  6
CONTINUOUS
 62
       7
100
AcDbLine
 10
-84.58255127
 20
39.75162537
 30
0.0
 11
-84.58940233
 21
39.71255425
 31
0.0
  0
LINE
  5
191
100
AcDbEntity
  8
レイヤー_1
  6
CONTINUOUS
 62
       7
100
AcDbLine
 10
-84.58940233
 20
39.71255425
 30
0.0
 11
-84.5954551
 21
39.67348692
 31
0.0
  0
LINE
  5
192
100
AcDbEntity
  8
レイヤー_1
  6
CONTINUOUS
 62
       7
100
AcDbLine
 10
-84.5954551
 20
39.67348692
 30
0.0
 11
-84.60071411
 21
39.6344347
 31
0.0
  0
LINE
  5
193
100
AcDbEntity
  8
レイヤー_1
  6
CONTINUOUS
 62
       7
100
AcDbLine
 10
-84.60071411
 20
39.6344347
 30
0.0
 11
-84.60518389
 21
39.59540892
 31
0.0
  0
LINE
  5
194
100
AcDbEntity
  8
レイヤー_1
  6
CONTINUOUS
 62
       7
100
AcDbLine
 10
-84.60518389
 20
39.59540892
 30
0.0
 11
-84.60886899
 21
39.55642094
 31
0.0
  0
LINE
  5
195
100
AcDbEntity
  8
レイヤー_1
  6
CONTINUOUS
 62
       7
100
AcDbLine
 10
-84.60886899
 20
39.55642094
 30
0.0
 11
-84.61177393
 21
39.51748207
 31
0.0
  0
LINE
  5
196
100
AcDbEntity
  8
レイヤー_1
  6
CONTINUOUS
 62
       7
100
AcDbLine
 10
-84.61177393
 20
39.51748207
 30
0.0
 11
-84.61390326
 21
39.47860366
 31
0.0
  0
LINE
  5
197
100
AcDbEntity
  8
レイヤー_1
  6
CONTINUOUS
 62
       7
100
AcDbLine
 10
-84.61390326
 20
39.47860366
 30
0.0
 11
-84.6152615
 21
39.43979705
 31
0.0
  0
LINE
  5
198
100
AcDbEntity
  8
レイヤー_1
  6
CONTINUOUS
 62
       7
100
AcDbLine
 10
-84.6152615
 20
39.43979705
 30
0.0
 11
-84.61585318
 21
39.40107357
 31
0.0
  0
LINE
  5
199
100
AcDbEntity
  8
レイヤー_1
  6
CONTINUOUS
 62
       7
100
AcDbLine
 10
-80.74016696
 20
49.18110957
 30
0.0
 11
-80.68338442
 21
49.37385301
 31
0.0
  0
LINE
  5
19A
100
AcDbEntity
  8
レイヤー_1
  6
CONTINUOUS
 62
       7
100
AcDbLine
 10
-80.68338442
 20
49.37385301
 30
0.0
 11
-80.64667612
 21
49.56759965
 31
0.0
  0
LINE
  5
19B
100
AcDbEntity
  8
レイヤー_1
  6
CONTINUOUS
 62
       7
100
AcDbLine
 10
-80.64667612
 20
49.56759965
 30
0.0
 11
-80.62946031
 21
49.76113337
 31
0.0
  0
LINE
  5
19C
100
AcDbEntity
  8
レイヤー_1
  6
CONTINUOUS
 62
       7
100
AcDbLine
 10
-80.62946031
 20
49.76113337
 30
0.0
 11
-80.63115523
 21
49.95323808
 31
0.0
  0
LINE
  5
19D
100
AcDbEntity
  8
レイヤー_1
  6
CONTINUOUS
 62
       7
100
AcDbLine
 10
-80.63115523
 20
49.95323808
 30
0.0
 11
-80.65117913
 21
50.14269768
 31
0.0
  0
LINE
  5
19E
100
AcDbEntity
  8
レイヤー_1
  6
CONTINUOUS
 62
       7
100
AcDbLine
 10
-80.65117913
 20
50.14269768
 30
0.0
 11
-80.68895026
 21
50.32829606
 31
0.0
  0
LINE
  5
19F
100
AcDbEntity
  8
レイヤー_1
  6
CONTINUOUS
 62
       7
100
AcDbLine
 10
-80.68895026
 20
50.32829606
 30
0.0
 11
-80.74388684
 21
50.50881712
 31
0.0
  0
LINE
  5
1A0
100
AcDbEntity
  8
レイヤー_1
  6
CONTINUOUS
 62
       7
100
AcDbLine
 10
-80.74388684
 20
50.50881712
 30
0.0
 11
-80.81540714
 21
50.68304477
 31
0.0
  0
LINE
  5
1A1
100
AcDbEntity
  8
レイヤー_1
  6
CONTINUOUS
 62
       7
100
AcDbLine
 10
-80.81540714
 20
50.68304477
 30
0.0
 11
-80.90292939
 21
50.84976289
 31
0.0
  0
LINE
  5
1A2
100
AcDbEntity
  8
レイヤー_1
  6
CONTINUOUS
 62
       7
100
AcDbLine
 10
-80.90292939
 20
50.84976289
 30
0.0
 11
-81.00587184
 21
51.00775539
 31
0.0
  0
LINE
  5
1A3
100
AcDbEntity
  8
レイヤー_1
  6
CONTINUOUS
 62
       7
100
AcDbLine
 10
-81.00587184
 20
51.00775539
 30
0.0
 11
-81.12365273
 21
51.15580616
 31
0.0
  0
LINE
  5
1A4
100
AcDbEntity
  8
レイヤー_1
  6
CONTINUOUS
 62
       7
100
AcDbLine
 10
-81.12365273
 20
51.15580616
 30
0.0
 11
-81.25569031
 21
51.29269911
 31
0.0
  0
LINE
  5
1A5
100
AcDbEntity
  8
レイヤー_1
  6
CONTINUOUS
 62
       7
100
AcDbLine
 10
-81.25569031
 20
51.29269911
 30
0.0
 11
-81.40140282
 21
51.41721813
 31
0.0
  0
LINE
  5
1A6
100
AcDbEntity
  8
レイヤー_1
  6
CONTINUOUS
 62
       7
100
AcDbLine
 10
-81.40140282
 20
51.41721813
 30
0.0
 11
-81.56020851
 21
51.52814711
 31
0.0
  0
LINE
  5
1A7
100
AcDbEntity
  8
レイヤー_1
  6
CONTINUOUS
 62
       7
100
AcDbLine
 10
-81.56020851
 20
51.52814711
 30
0.0
 11
-81.73152561
 21
51.62426996
 31
0.0
  0
LINE
  5
1A8
100
AcDbEntity
  8
レイヤー_1
  6
CONTINUOUS
 62
       7
100
AcDbLine
 10
-81.73152561
 20
51.62426996
 30
0.0
 11
-81.91477238
 21
51.70437057
 31
0.0
  0
LINE
  5
1A9
100
AcDbEntity
  8
レイヤー_1
  6
CONTINUOUS
 62
       7
100
AcDbLine
 10
-81.91477238
 20
51.70437057
 30
0.0
 11
-82.10679948
 21
51.76650555
 31
0.0
  0
LINE
  5
1AA
100
AcDbEntity
  8
レイヤー_1
  6
CONTINUOUS
 62
       7
100
AcDbLine
 10
-82.10679948
 20
51.76650555
 30
0.0
 11
-82.30042388
 21
51.80847486
 31
0.0
  0
LINE
  5
1AB
100
AcDbEntity
  8
レイヤー_1
  6
CONTINUOUS
 62
       7
100
AcDbLine
 10
-82.30042388
 20
51.80847486
 30
0.0
 11
-82.49414835
 21
51.83074642
 31
0.0
  0
LINE
  5
1AC
100
AcDbEntity
  8
レイヤー_1
  6
CONTINUOUS
 62
       7
100
AcDbLine
 10
-82.49414835
 20
51.83074642
 30
0.0
 11
-82.68675437
 21
51.83390565
 31
0.0
  0
LINE
  5
1AD
100
AcDbEntity
  8
レイヤー_1
  6
CONTINUOUS
 62
       7
100
AcDbLine
 10
-82.68675437
 20
51.83390565
 30
0.0
 11
-82.87702337
 21
51.81853797
 31
0.0
  0
LINE
  5
1AE
100
AcDbEntity
  8
レイヤー_1
  6
CONTINUOUS
 62
       7
100
AcDbLine
 10
-82.87702337
 20
51.81853797
 30
0.0
 11
-83.06373682
 21
51.78522882
 31
0.0
  0
LINE
  5
1AF
100
AcDbEntity
  8
レイヤー_1
  6
CONTINUOUS
 62
       7
100
AcDbLine
 10
-83.06373682
 20
51.78522882
 30
0.0
 11
-83.24567615
 21
51.7345636
 31
0.0
  0
LINE
  5
1B0
100
AcDbEntity
  8
レイヤー_1
  6
CONTINUOUS
 62
       7
100
AcDbLine
 10
-83.24567615
 20
51.7345636
 30
0.0
 11
-83.42162283
 21
51.66712776
 31
0.0
  0
LINE
  5
1B1
100
AcDbEntity
  8
レイヤー_1
  6
CONTINUOUS
 62
       7
100
AcDbLine
 10
-83.42162283
 20
51.66712776
 30
0.0
 11
-83.59035831
 21
51.58350672
 31
0.0
  0
LINE
  5
1B2
100
AcDbEntity
  8
レイヤー_1
  6
CONTINUOUS
 62
       7
100
AcDbLine
 10
-83.59035831
 20
51.58350672
 30
0.0
 11
-83.75066403
 21
51.48428589
 31
0.0
  0
LINE
  5
1B3
100
AcDbEntity
  8
レイヤー_1
  6
CONTINUOUS
 62
       7
100
AcDbLine
 10
-83.75066403
 20
51.48428589
 30
0.0
 11
-83.90132146
 21
51.37005071
 31
0.0
  0
LINE
  5
1B4
100
AcDbEntity
  8
レイヤー_1
  6
CONTINUOUS
 62
       7
100
AcDbLine
 10
-83.90132146
 20
51.37005071
 30
0.0
 11
-84.04111204
 21
51.2413866
 31
0.0
  0
LINE
  5
1B5
100
AcDbEntity
  8
レイヤー_1
  6
CONTINUOUS
 62
       7
100
AcDbLine
 10
-84.04111204
 20
51.2413866
 30
0.0
 11
-84.16881722
 21
51.09887899
 31
0.0
  0
LINE
  5
1B6
100
AcDbEntity
  8
レイヤー_1
  6
CONTINUOUS
 62
       7
100
AcDbLine
 10
-84.16881722
 20
51.09887899
 30
0.0
 11
-84.28321846
 21
50.94311329
 31
0.0
  0
LINE
  5
1B7
100
AcDbEntity
  8
レイヤー_1
  6
CONTINUOUS
 62
       7
100
AcDbLine
 10
-84.28321846
 20
50.94311329
 30
0.0
 11
-84.3830972
 21
50.77467494
 31
0.0
  0
LINE
  5
1B8
100
AcDbEntity
  8
レイヤー_1
  6
CONTINUOUS
 62
       7
100
AcDbLine
 10
-84.3830972
 20
50.77467494
 30
0.0
 11
-84.4672349
 21
50.59414936
 31
0.0
  0
LINE
  5
1B9
100
AcDbEntity
  8
レイヤー_1
  6
CONTINUOUS
 62
       7
100
AcDbLine
 10
-84.4672349
 20
50.59414936
 30
0.0
 11
-84.534085
 21
50.40341705
 31
0.0
  0
LINE
  5
1BA
100
AcDbEntity
  8
レイヤー_1
  6
CONTINUOUS
 62
       7
100
AcDbLine
 10
-84.534085
 20
50.40341705
 30
0.0
 11
-84.58097582
 21
50.21010248
 31
0.0
  0
LINE
  5
1BB
100
AcDbEntity
  8
レイヤー_1
  6
CONTINUOUS
 62
       7
100
AcDbLine
 10
-84.58097582
 20
50.21010248
 30
0.0
 11
-84.60803578
 21
50.01636993
 31
0.0
  0
LINE
  5
1BC
100
AcDbEntity
  8
レイヤー_1
  6
CONTINUOUS
 62
       7
100
AcDbLine
 10
-84.60803578
 20
50.01636993
 30
0.0
 11
-84.6158503
 21
49.82343797
 31
0.0
  0
LINE
  5
1BD
100
AcDbEntity
  8
レイヤー_1
  6
CONTINUOUS
 62
       7
100
AcDbLine
 10
-84.6158503
 20
49.82343797
 30
0.0
 11
-84.60500482
 21
49.63252513
 31
0.0
  0
LINE
  5
1BE
100
AcDbEntity
  8
レイヤー_1
  6
CONTINUOUS
 62
       7
100
AcDbLine
 10
-84.60500482
 20
49.63252513
 30
0.0
 11
-84.57608474
 21
49.44484996
 31
0.0
  0
LINE
  5
1BF
100
AcDbEntity
  8
レイヤー_1
  6
CONTINUOUS
 62
       7
100
AcDbLine
 10
-84.57608474
 20
49.44484996
 30
0.0
 11
-84.52967551
 21
49.26163101
 31
0.0
  0
LINE
  5
1C0
100
AcDbEntity
  8
レイヤー_1
  6
CONTINUOUS
 62
       7
100
AcDbLine
 10
-84.52967551
 20
49.26163101
 30
0.0
 11
-84.46636254
 21
49.08408684
 31
0.0
  0
LINE
  5
1C1
100
AcDbEntity
  8
レイヤー_1
  6
CONTINUOUS
 62
       7
100
AcDbLine
 10
-84.46636254
 20
49.08408684
 30
0.0
 11
-84.38673125
 21
48.91343598
 31
0.0
  0
LINE
  5
1C2
100
AcDbEntity
  8
レイヤー_1
  6
CONTINUOUS
 62
       7
100
AcDbLine
 10
-84.38673125
 20
48.91343598
 30
0.0
 11
-84.29136708
 21
48.75089698
 31
0.0
  0
LINE
  5
1C3
100
AcDbEntity
  8
レイヤー_1
  6
CONTINUOUS
 62
       7
100
AcDbLine
 10
-84.29136708
 20
48.75089698
 30
0.0
 11
-84.18085545
 21
48.5976884
 31
0.0
  0
LINE
  5
1C4
100
AcDbEntity
  8
レイヤー_1
  6
CONTINUOUS
 62
       7
100
AcDbLine
 10
-84.18085545
 20
48.5976884
 30
0.0
 11
-84.05578178
 21
48.45502878
 31
0.0
  0
LINE
  5
1C5
100
AcDbEntity
  8
レイヤー_1
  6
CONTINUOUS
 62
       7
100
AcDbLine
 10
-84.05578178
 20
48.45502878
 30
0.0
 11
-83.9167315
 21
48.32413667
 31
0.0
  0
LINE
  5
1C6
100
AcDbEntity
  8
レイヤー_1
  6
CONTINUOUS
 62
       7
100
AcDbLine
 10
-83.9167315
 20
48.32413667
 30
0.0
 11
-83.76429003
 21
48.20623061
 31
0.0
  0
LINE
  5
1C7
100
AcDbEntity
  8
レイヤー_1
  6
CONTINUOUS
 62
       7
100
AcDbLine
 10
-83.76429003
 20
48.20623061
 30
0.0
 11
-83.5990428
 21
48.10252917
 31
0.0
  0
LINE
  5
1C8
100
AcDbEntity
  8
レイヤー_1
  6
CONTINUOUS
 62
       7
100
AcDbLine
 10
-83.5990428
 20
48.10252917
 30
0.0
 11
-83.42157523
 21
48.01425087
 31
0.0
  0
LINE
  5
1C9
100
AcDbEntity
  8
レイヤー_1
  6
CONTINUOUS
 62
       7
100
AcDbLine
 10
-83.42157523
 20
48.01425087
 30
0.0
 11
-83.23282096
 21
47.94274869
 31
0.0
  0
LINE
  5
1CA
100
AcDbEntity
  8
レイヤー_1
  6
CONTINUOUS
 62
       7
100
AcDbLine
 10
-83.23282096
 20
47.94274869
 30
0.0
 11
-83.03984556
 21
47.89092012
 31
0.0
  0
LINE
  5
1CB
100
AcDbEntity
  8
レイヤー_1
  6
CONTINUOUS
 62
       7
100
AcDbLine
 10
-83.03984556
 20
47.89092012
 30
0.0
 11
-82.84613584
 21
47.8590708
 31
0.0
  0
LINE
  5
1CC
100
AcDbEntity
  8
レイヤー_1
  6
CONTINUOUS
 62
       7
100
AcDbLine
 10
-82.84613584
 20
47.8590708
 30
0.0
 11
-82.65291156
 21
47.84661165
 31
0.0
  0
LINE
  5
1CD
100
AcDbEntity
  8
レイヤー_1
  6
CONTINUOUS
 62
       7
100
AcDbLine
 10
-82.65291156
 20
47.84661165
 30
0.0
 11
-82.46139249
 21
47.85295356
 31
0.0
  0
LINE
  5
1CE
100
AcDbEntity
  8
レイヤー_1
  6
CONTINUOUS
 62
       7
100
AcDbLine
 10
-82.46139249
 20
47.85295356
 30
0.0
 11
-82.2727984
 21
47.87750745
 31
0.0
  0
LINE
  5
1CF
100
AcDbEntity
  8
レイヤー_1
  6
CONTINUOUS
 62
       7
100
AcDbLine
 10
-82.2727984
 20
47.87750745
 30
0.0
 11
-82.08834907
 21
47.91968421
 31
0.0
  0
LINE
  5
1D0
100
AcDbEntity
  8
レイヤー_1
  6
CONTINUOUS
 62
       7
100
AcDbLine
 10
-82.08834907
 20
47.91968421
 30
0.0
 11
-81.90926427
 21
47.97889476
 31
0.0
  0
LINE
  5
1D1
100
AcDbEntity
  8
レイヤー_1
  6
CONTINUOUS
 62
       7
100
AcDbLine
 10
-81.90926427
 20
47.97889476
 30
0.0
 11
-81.73676376
 21
48.05455001
 31
0.0
  0
LINE
  5
1D2
100
AcDbEntity
  8
レイヤー_1
  6
CONTINUOUS
 62
       7
100
AcDbLine
 10
-81.73676376
 20
48.05455001
 30
0.0
 11
-81.57206732
 21
48.14606085
 31
0.0
  0
LINE
  5
1D3
100
AcDbEntity
  8
レイヤー_1
  6
CONTINUOUS
 62
       7
100
AcDbLine
 10
-81.57206732
 20
48.14606085
 30
0.0
 11
-81.41639473
 21
48.25283819
 31
0.0
  0
LINE
  5
1D4
100
AcDbEntity
  8
レイヤー_1
  6
CONTINUOUS
 62
       7
100
AcDbLine
 10
-81.41639473
 20
48.25283819
 30
0.0
 11
-81.27096574
 21
48.37429295
 31
0.0
  0
LINE
  5
1D5
100
AcDbEntity
  8
レイヤー_1
  6
CONTINUOUS
 62
       7
100
AcDbLine
 10
-81.27096574
 20
48.37429295
 30
0.0
 11
-81.13700013
 21
48.50983602
 31
0.0
  0
LINE
  5
1D6
100
AcDbEntity
  8
レイヤー_1
  6
CONTINUOUS
 62
       7
100
AcDbLine
 10
-81.13700013
 20
48.50983602
 30
0.0
 11
-81.01571768
 21
48.65887831
 31
0.0
  0
LINE
  5
1D7
100
AcDbEntity
  8
レイヤー_1
  6
CONTINUOUS
 62
       7
100
AcDbLine
 10
-81.01571768
 20
48.65887831
 30
0.0
 11
-80.90833816
 21
48.82083073
 31
0.0
  0
LINE
  5
1D8
100
AcDbEntity
  8
レイヤー_1
  6
CONTINUOUS
 62
       7
100
AcDbLine
 10
-80.90833816
 20
48.82083073
 30
0.0
 11
-80.81608132
 21
48.99510418
 31
0.0
  0
LINE
  5
1D9
100
AcDbEntity
  8
レイヤー_1
  6
CONTINUOUS
 62
       7
100
AcDbLine
 10
-80.81608132
 20
48.99510418
 30
0.0
 11
-80.74016696
 21
49.18110957
 31
0.0
  0
LINE
  5
1DA
100
AcDbEntity
  8
レイヤー_1
  6
CONTINUOUS
 62
       7
100
AcDbLine
 10
-80.62791696
 20
-18.07879641
 30
0.0
 11
-80.63419506
 21
-18.22558646
 31
0.0
  0
LINE
  5
1DB
100
AcDbEntity
  8
レイヤー_1
  6
CONTINUOUS
 62
       7
100
AcDbLine
 10
-80.63419506
 20
-18.22558646
 30
0.0
 11
-80.65117515
 21
-18.37065056
 31
0.0
  0
LINE
  5
1DC
100
AcDbEntity
  8
レイヤー_1
  6
CONTINUOUS
 62
       7
100
AcDbLine
 10
-80.65117515
 20
-18.37065056
 30
0.0
 11
-80.67859501
 21
-18.51344046
 31
0.0
  0
LINE
  5
1DD
100
AcDbEntity
  8
レイヤー_1
  6
CONTINUOUS
 62
       7
100
AcDbLine
 10
-80.67859501
 20
-18.51344046
 30
0.0
 11
-80.71619239
 21
-18.65340787
 31
0.0
  0
LINE
  5
1DE
100
AcDbEntity
  8
レイヤー_1
  6
CONTINUOUS
 62
       7
100
AcDbLine
 10
-80.71619239
 20
-18.65340787
 30
0.0
 11
-80.76370506
 21
-18.79000452
 31
0.0
  0
LINE
  5
1DF
100
AcDbEntity
  8
レイヤー_1
  6
CONTINUOUS
 62
       7
100
AcDbLine
 10
-80.76370506
 20
-18.79000452
 30
0.0
 11
-80.82087078
 21
-18.92268213
 31
0.0
  0
LINE
  5
1E0
100
AcDbEntity
  8
レイヤー_1
  6
CONTINUOUS
 62
       7
100
AcDbLine
 10
-80.82087078
 20
-18.92268213
 30
0.0
 11
-80.88742733
 21
-19.05089243
 31
0.0
  0
LINE
  5
1E1
100
AcDbEntity
  8
レイヤー_1
  6
CONTINUOUS
 62
       7
100
AcDbLine
 10
-80.88742733
 20
-19.05089243
 30
0.0
 11
-80.96311247
 21
-19.17408715
 31
0.0
  0
LINE
  5
1E2
100
AcDbEntity
  8
レイヤー_1
  6
CONTINUOUS
 62
       7
100
AcDbLine
 10
-80.96311247
 20
-19.17408715
 30
0.0
 11
-81.04766395
 21
-19.29171801
 31
0.0
  0
LINE
  5
1E3
100
AcDbEntity
  8
レイヤー_1
  6
CONTINUOUS
 62
       7
100
AcDbLine
 10
-81.04766395
 20
-19.29171801
 30
0.0
 11
-81.14081956
 21
-19.40323674
 31
0.0
  0
LINE
  5
1E4
100
AcDbEntity
  8
レイヤー_1
  6
CONTINUOUS
 62
       7
100
AcDbLine
 10
-81.14081956
 20
-19.40323674
 30
0.0
 11
-81.24231705
 21
-19.50809506
 31
0.0
  0
LINE
  5
1E5
100
AcDbEntity
  8
レイヤー_1
  6
CONTINUOUS
 62
       7
100
AcDbLine
 10
-81.24231705
 20
-19.50809506
 30
0.0
 11
-81.35189418
 21
-19.6057447
 31
0.0
  0
LINE
  5
1E6
100
AcDbEntity
  8
レイヤー_1
  6
CONTINUOUS
 62
       7
100
AcDbLine
 10
-81.35189418
 20
-19.6057447
 30
0.0
 11
-81.46928874
 21
-19.69563738
 31
0.0
  0
LINE
  5
1E7
100
AcDbEntity
  8
レイヤー_1
  6
CONTINUOUS
 62
       7
100
AcDbLine
 10
-81.46928874
 20
-19.69563738
 30
0.0
 11
-81.59423847
 21
-19.77722483
 31
0.0
  0
LINE
  5
1E8
100
AcDbEntity
  8
レイヤー_1
  6
CONTINUOUS
 62
       7
100
AcDbLine
 10
-81.59423847
 20
-19.77722483
 30
0.0
 11
-81.72648114
 21
-19.84995878
 31
0.0
  0
LINE
  5
1E9
100
AcDbEntity
  8
レイヤー_1
  6
CONTINUOUS
 62
       7
100
AcDbLine
 10
-81.72648114
 20
-19.84995878
 30
0.0
 11
-81.86575453
 21
-19.91329094
 31
0.0
  0
LINE
  5
1EA
100
AcDbEntity
  8
レイヤー_1
  6
CONTINUOUS
 62
       7
100
AcDbLine
 10
-81.86575453
 20
-19.91329094
 30
0.0
 11
-82.02483769
 21
-19.97081245
 31
0.0
  0
LINE
  5
1EB
100
AcDbEntity
  8
レイヤー_1
  6
CONTINUOUS
 62
       7
100
AcDbLine
 10
-82.02483769
 20
-19.97081245
 30
0.0
 11
-82.21320763
 21
-20.02027074
 31
0.0
  0
LINE
  5
1EC
100
AcDbEntity
  8
レイヤー_1
  6
CONTINUOUS
 62
       7
100
AcDbLine
 10
-82.21320763
 20
-20.02027074
 30
0.0
 11
-82.40219398
 21
-20.0507645
 31
0.0
  0
LINE
  5
1ED
100
AcDbEntity
  8
レイヤー_1
  6
CONTINUOUS
 62
       7
100
AcDbLine
 10
-82.40219398
 20
-20.0507645
 30
0.0
 11
-82.59066733
 21
-20.06283521
 31
0.0
  0
LINE
  5
1EE
100
AcDbEntity
  8
レイヤー_1
  6
CONTINUOUS
 62
       7
100
AcDbLine
 10
-82.59066733
 20
-20.06283521
 30
0.0
 11
-82.77749824
 21
-20.05702433
 31
0.0
  0
LINE
  5
1EF
100
AcDbEntity
  8
レイヤー_1
  6
CONTINUOUS
 62
       7
100
AcDbLine
 10
-82.77749824
 20
-20.05702433
 30
0.0
 11
-82.96155731
 21
-20.03387335
 31
0.0
  0
LINE
  5
1F0
100
AcDbEntity
  8
レイヤー_1
  6
CONTINUOUS
 62
       7
100
AcDbLine
 10
-82.96155731
 20
-20.03387335
 30
0.0
 11
-83.14171509
 21
-19.99392373
 31
0.0
  0
LINE
  5
1F1
100
AcDbEntity
  8
レイヤー_1
  6
CONTINUOUS
 62
       7
100
AcDbLine
 10
-83.14171509
 20
-19.99392373
 30
0.0
 11
-83.31684218
 21
-19.93771695
 31
0.0
  0
LINE
  5
1F2
100
AcDbEntity
  8
レイヤー_1
  6
CONTINUOUS
 62
       7
100
AcDbLine
 10
-83.31684218
 20
-19.93771695
 30
0.0
 11
-83.48580915
 21
-19.86579448
 31
0.0
  0
LINE
  5
1F3
100
AcDbEntity
  8
レイヤー_1
  6
CONTINUOUS
 62
       7
100
AcDbLine
 10
-83.48580915
 20
-19.86579448
 30
0.0
 11
-83.64748657
 21
-19.77869779
 31
0.0
  0
LINE
  5
1F4
100
AcDbEntity
  8
レイヤー_1
  6
CONTINUOUS
 62
       7
100
AcDbLine
 10
-83.64748657
 20
-19.77869779
 30
0.0
 11
-83.80074503
 21
-19.67696836
 31
0.0
  0
LINE
  5
1F5
100
AcDbEntity
  8
レイヤー_1
  6
CONTINUOUS
 62
       7
100
AcDbLine
 10
-83.80074503
 20
-19.67696836
 30
0.0
 11
-83.9444551
 21
-19.56114766
 31
0.0
  0
LINE
  5
1F6
100
AcDbEntity
  8
レイヤー_1
  6
CONTINUOUS
 62
       7
100
AcDbLine
 10
-83.9444551
 20
-19.56114766
 30
0.0
 11
-84.07748735
 21
-19.43177716
 31
0.0
  0
LINE
  5
1F7
100
AcDbEntity
  8
レイヤー_1
  6
CONTINUOUS
 62
       7
100
AcDbLine
 10
-84.07748735
 20
-19.43177716
 30
0.0
 11
-84.19871237
 21
-19.28939833
 31
0.0
  0
LINE
  5
1F8
100
AcDbEntity
  8
レイヤー_1
  6
CONTINUOUS
 62
       7
100
AcDbLine
 10
-84.19871237
 20
-19.28939833
 30
0.0
 11
-84.30700073
 21
-19.13455266
 31
0.0
  0
LINE
  5
1F9
100
AcDbEntity
  8
レイヤー_1
  6
CONTINUOUS
 62
       7
100
AcDbLine
 10
-84.30700073
 20
-19.13455266
 30
0.0
 11
-84.40122302
 21
-18.9677816
 31
0.0
  0
LINE
  5
1FA
100
AcDbEntity
  8
レイヤー_1
  6
CONTINUOUS
 62
       7
100
AcDbLine
 10
-84.40122302
 20
-18.9677816
 30
0.0
 11
-84.4802498
 21
-18.78962664
 31
0.0
  0
LINE
  5
1FB
100
AcDbEntity
  8
レイヤー_1
  6
CONTINUOUS
 62
       7
100
AcDbLine
 10
-84.4802498
 20
-18.78962664
 30
0.0
 11
-84.51186081
 21
-18.70199962
 31
0.0
  0
LINE
  5
1FC
100
AcDbEntity
  8
レイヤー_1
  6
CONTINUOUS
 62
       7
100
AcDbLine
 10
-84.51186081
 20
-18.70199962
 30
0.0
 11
-84.52442687
 21
-18.66321946
 31
0.0
  0
LINE
  5
1FD
100
AcDbEntity
  8
レイヤー_1
  6
CONTINUOUS
 62
       7
100
AcDbLine
 10
-84.52442687
 20
-18.66321946
 30
0.0
 11
-84.5361629
 21
-18.62436372
 31
0.0
  0
LINE
  5
1FE
100
AcDbEntity
  8
レイヤー_1
  6
CONTINUOUS
 62
       7
100
AcDbLine
 10
-84.5361629
 20
-18.62436372
 30
0.0
 11
-84.54707343
 21
-18.58544375
 31
0.0
  0
LINE
  5
1FF
100
AcDbEntity
  8
レイヤー_1
  6
CONTINUOUS
 62
       7
100
AcDbLine
 10
-84.54707343
 20
-18.58544375
 30
0.0
 11
-84.557163
 21
-18.54647088
 31
0.0
  0
LINE
  5
200
100
AcDbEntity
  8
レイヤー_1
  6
CONTINUOUS
 62
       7
100
AcDbLine
 10
-84.557163
 20
-18.54647088
 30
0.0
 11
-84.56643614
 21
-18.50745644
 31
0.0
  0
LINE
  5
201
100
AcDbEntity
  8
レイヤー_1
  6
CONTINUOUS
 62
       7
100
AcDbLine
 10
-84.56643614
 20
-18.50745644
 30
0.0
 11
-84.57489739
 21
-18.46841178
 31
0.0
  0
LINE
  5
202
100
AcDbEntity
  8
レイヤー_1
  6
CONTINUOUS
 62
       7
100
AcDbLine
 10
-84.57489739
 20
-18.46841178
 30
0.0
 11
-84.58255127
 21
-18.42934822
 31
0.0
  0
LINE
  5
203
100
AcDbEntity
  8
レイヤー_1
  6
CONTINUOUS
 62
       7
100
AcDbLine
 10
-84.58255127
 20
-18.42934822
 30
0.0
 11
-84.58940233
 21
-18.3902771
 31
0.0
  0
LINE
  5
204
100
AcDbEntity
  8
レイヤー_1
  6
CONTINUOUS
 62
       7
100
AcDbLine
 10
-84.58940233
 20
-18.3902771
 30
0.0
 11
-84.5954551
 21
-18.35120977
 31
0.0
  0
LINE
  5
205
100
AcDbEntity
  8
レイヤー_1
  6
CONTINUOUS
 62
       7
100
AcDbLine
 10
-84.5954551
 20
-18.35120977
 30
0.0
 11
-84.60071411
 21
-18.31215754
 31
0.0
  0
LINE
  5
206
100
AcDbEntity
  8
レイヤー_1
  6
CONTINUOUS
 62
       7
100
AcDbLine
 10
-84.60071411
 20
-18.31215754
 30
0.0
 11
-84.60518389
 21
-18.27313177
 31
0.0
  0
LINE
  5
207
100
AcDbEntity
  8
レイヤー_1
  6
CONTINUOUS
 62
       7
100
AcDbLine
 10
-84.60518389
 20
-18.27313177
 30
0.0
 11
-84.60886899
 21
-18.23414378
 31
0.0
  0
LINE
  5
208
100
AcDbEntity
  8
レイヤー_1
  6
CONTINUOUS
 62
       7
100
AcDbLine
 10
-84.60886899
 20
-18.23414378
 30
0.0
 11
-84.61177393
 21
-18.19520492
 31
0.0
  0
LINE
  5
209
100
AcDbEntity
  8
レイヤー_1
  6
CONTINUOUS
 62
       7
100
AcDbLine
 10
-84.61177393
 20
-18.19520492
 30
0.0
 11
-84.61390326
 21
-18.15632651
 31
0.0
  0
LINE
  5
20A
100
AcDbEntity
  8
レイヤー_1
  6
CONTINUOUS
 62
       7
100
AcDbLine
 10
-84.61390326
 20
-18.15632651
 30
0.0
 11
-84.6152615
 21
-18.1175199
 31
0.0
  0
LINE
  5
20B
100
AcDbEntity
  8
レイヤー_1
  6
CONTINUOUS
 62
       7
100
AcDbLine
 10
-84.6152615
 20
-18.1175199
 30
0.0
 11
-84.61585318
 21
-18.07879641
 31
0.0
  0
LINE
  5
20C
100
AcDbEntity
  8
レイヤー_1
  6
CONTINUOUS
 62
       7
100
AcDbLine
 10
-80.74016696
 20
-27.85883242
 30
0.0
 11
-80.68338442
 21
-28.05152846
 31
0.0
  0
LINE
  5
20D
100
AcDbEntity
  8
レイヤー_1
  6
CONTINUOUS
 62
       7
100
AcDbLine
 10
-80.68338442
 20
-28.05152846
 30
0.0
 11
-80.64667612
 21
-28.24523971
 31
0.0
  0
LINE
  5
20E
100
AcDbEntity
  8
レイヤー_1
  6
CONTINUOUS
 62
       7
100
AcDbLine
 10
-80.64667612
 20
-28.24523971
 30
0.0
 11
-80.62946031
 21
-28.43874886
 31
0.0
  0
LINE
  5
20F
100
AcDbEntity
  8
レイヤー_1
  6
CONTINUOUS
 62
       7
100
AcDbLine
 10
-80.62946031
 20
-28.43874886
 30
0.0
 11
-80.63115523
 21
-28.63083857
 31
0.0
  0
LINE
  5
210
100
AcDbEntity
  8
レイヤー_1
  6
CONTINUOUS
 62
       7
100
AcDbLine
 10
-80.63115523
 20
-28.63083857
 30
0.0
 11
-80.65117913
 21
-28.82029153
 31
0.0
  0
LINE
  5
211
100
AcDbEntity
  8
レイヤー_1
  6
CONTINUOUS
 62
       7
100
AcDbLine
 10
-80.65117913
 20
-28.82029153
 30
0.0
 11
-80.68895026
 21
-29.00589041
 31
0.0
  0
LINE
  5
212
100
AcDbEntity
  8
レイヤー_1
  6
CONTINUOUS
 62
       7
100
AcDbLine
 10
-80.68895026
 20
-29.00589041
 30
0.0
 11
-80.74388684
 21
-29.18641788
 31
0.0
  0
LINE
  5
213
100
AcDbEntity
  8
レイヤー_1
  6
CONTINUOUS
 62
       7
100
AcDbLine
 10
-80.74388684
 20
-29.18641788
 30
0.0
 11
-80.81540714
 21
-29.36065663
 31
0.0
  0
LINE
  5
214
100
AcDbEntity
  8
レイヤー_1
  6
CONTINUOUS
 62
       7
100
AcDbLine
 10
-80.81540714
 20
-29.36065663
 30
0.0
 11
-80.90292939
 21
-29.52738931
 31
0.0
  0
LINE
  5
215
100
AcDbEntity
  8
レイヤー_1
  6
CONTINUOUS
 62
       7
100
AcDbLine
 10
-80.90292939
 20
-29.52738931
 30
0.0
 11
-81.00587184
 21
-29.68539861
 31
0.0
  0
LINE
  5
216
100
AcDbEntity
  8
レイヤー_1
  6
CONTINUOUS
 62
       7
100
AcDbLine
 10
-81.00587184
 20
-29.68539861
 30
0.0
 11
-81.12365273
 21
-29.83346721
 31
0.0
  0
LINE
  5
217
100
AcDbEntity
  8
レイヤー_1
  6
CONTINUOUS
 62
       7
100
AcDbLine
 10
-81.12365273
 20
-29.83346721
 30
0.0
 11
-81.25569031
 21
-29.97037777
 31
0.0
  0
LINE
  5
218
100
AcDbEntity
  8
レイヤー_1
  6
CONTINUOUS
 62
       7
100
AcDbLine
 10
-81.25569031
 20
-29.97037777
 30
0.0
 11
-81.40140282
 21
-30.09491298
 31
0.0
  0
LINE
  5
219
100
AcDbEntity
  8
レイヤー_1
  6
CONTINUOUS
 62
       7
100
AcDbLine
 10
-81.40140282
 20
-30.09491298
 30
0.0
 11
-81.56020851
 21
-30.20585551
 31
0.0
  0
LINE
  5
21A
100
AcDbEntity
  8
レイヤー_1
  6
CONTINUOUS
 62
       7
100
AcDbLine
 10
-81.56020851
 20
-30.20585551
 30
0.0
 11
-81.73152561
 21
-30.30198803
 31
0.0
  0
LINE
  5
21B
100
AcDbEntity
  8
レイヤー_1
  6
CONTINUOUS
 62
       7
100
AcDbLine
 10
-81.73152561
 20
-30.30198803
 30
0.0
 11
-81.91477238
 21
-30.38209322
 31
0.0
  0
LINE
  5
21C
100
AcDbEntity
  8
レイヤー_1
  6
CONTINUOUS
 62
       7
100
AcDbLine
 10
-81.91477238
 20
-30.38209322
 30
0.0
 11
-82.10679948
 21
-30.44419166
 31
0.0
  0
LINE
  5
21D
100
AcDbEntity
  8
レイヤー_1
  6
CONTINUOUS
 62
       7
100
AcDbLine
 10
-82.10679948
 20
-30.44419166
 30
0.0
 11
-82.30042388
 21
-30.48612271
 31
0.0
  0
LINE
  5
21E
100
AcDbEntity
  8
レイヤー_1
  6
CONTINUOUS
 62
       7
100
AcDbLine
 10
-82.30042388
 20
-30.48612271
 30
0.0
 11
-82.49414835
 21
-30.5083671
 31
0.0
  0
LINE
  5
21F
100
AcDbEntity
  8
レイヤー_1
  6
CONTINUOUS
 62
       7
100
AcDbLine
 10
-82.49414835
 20
-30.5083671
 30
0.0
 11
-82.68675437
 21
-30.51150906
 31
0.0
  0
LINE
  5
220
100
AcDbEntity
  8
レイヤー_1
  6
CONTINUOUS
 62
       7
100
AcDbLine
 10
-82.68675437
 20
-30.51150906
 30
0.0
 11
-82.87702337
 21
-30.49613277
 31
0.0
  0
LINE
  5
221
100
AcDbEntity
  8
レイヤー_1
  6
CONTINUOUS
 62
       7
100
AcDbLine
 10
-82.87702337
 20
-30.49613277
 30
0.0
 11
-83.06373682
 21
-30.46282244
 31
0.0
  0
LINE
  5
222
100
AcDbEntity
  8
レイヤー_1
  6
CONTINUOUS
 62
       7
100
AcDbLine
 10
-83.06373682
 20
-30.46282244
 30
0.0
 11
-83.24567615
 21
-30.41216228
 31
0.0
  0
LINE
  5
223
100
AcDbEntity
  8
レイヤー_1
  6
CONTINUOUS
 62
       7
100
AcDbLine
 10
-83.24567615
 20
-30.41216228
 30
0.0
 11
-83.42162283
 21
-30.34473647
 31
0.0
  0
LINE
  5
224
100
AcDbEntity
  8
レイヤー_1
  6
CONTINUOUS
 62
       7
100
AcDbLine
 10
-83.42162283
 20
-30.34473647
 30
0.0
 11
-83.59035831
 21
-30.26112924
 31
0.0
  0
LINE
  5
225
100
AcDbEntity
  8
レイヤー_1
  6
CONTINUOUS
 62
       7
100
AcDbLine
 10
-83.59035831
 20
-30.26112924
 30
0.0
 11
-83.75066403
 21
-30.16192477
 31
0.0
  0
LINE
  5
226
100
AcDbEntity
  8
レイヤー_1
  6
CONTINUOUS
 62
       7
100
AcDbLine
 10
-83.75066403
 20
-30.16192477
 30
0.0
 11
-83.90132146
 21
-30.04770728
 31
0.0
  0
LINE
  5
227
100
AcDbEntity
  8
レイヤー_1
  6
CONTINUOUS
 62
       7
100
AcDbLine
 10
-83.90132146
 20
-30.04770728
 30
0.0
 11
-84.04111204
 21
-29.91906095
 31
0.0
  0
LINE
  5
228
100
AcDbEntity
  8
レイヤー_1
  6
CONTINUOUS
 62
       7
100
AcDbLine
 10
-84.04111204
 20
-29.91906095
 30
0.0
 11
-84.16881722
 21
-29.77657
 31
0.0
  0
LINE
  5
229
100
AcDbEntity
  8
レイヤー_1
  6
CONTINUOUS
 62
       7
100
AcDbLine
 10
-84.16881722
 20
-29.77657
 30
0.0
 11
-84.28321846
 21
-29.62081862
 31
0.0
  0
LINE
  5
22A
100
AcDbEntity
  8
レイヤー_1
  6
CONTINUOUS
 62
       7
100
AcDbLine
 10
-84.28321846
 20
-29.62081862
 30
0.0
 11
-84.3830972
 21
-29.45239102
 31
0.0
  0
LINE
  5
22B
100
AcDbEntity
  8
レイヤー_1
  6
CONTINUOUS
 62
       7
100
AcDbLine
 10
-84.3830972
 20
-29.45239102
 30
0.0
 11
-84.4672349
 21
-29.2718714
 31
0.0
  0
LINE
  5
22C
100
AcDbEntity
  8
レイヤー_1
  6
CONTINUOUS
 62
       7
100
AcDbLine
 10
-84.4672349
 20
-29.2718714
 30
0.0
 11
-84.534085
 21
-29.08108933
 31
0.0
  0
LINE
  5
22D
100
AcDbEntity
  8
レイヤー_1
  6
CONTINUOUS
 62
       7
100
AcDbLine
 10
-84.534085
 20
-29.08108933
 30
0.0
 11
-84.58097582
 21
-28.88769228
 31
0.0
  0
LINE
  5
22E
100
AcDbEntity
  8
レイヤー_1
  6
CONTINUOUS
 62
       7
100
AcDbLine
 10
-84.58097582
 20
-28.88769228
 30
0.0
 11
-84.60803578
 21
-28.69390009
 31
0.0
  0
LINE
  5
22F
100
AcDbEntity
  8
レイヤー_1
  6
CONTINUOUS
 62
       7
100
AcDbLine
 10
-84.60803578
 20
-28.69390009
 30
0.0
 11
-84.6158503
 21
-28.50092886
 31
0.0
  0
LINE
  5
230
100
AcDbEntity
  8
レイヤー_1
  6
CONTINUOUS
 62
       7
100
AcDbLine
 10
-84.6158503
 20
-28.50092886
 30
0.0
 11
-84.60500482
 21
-28.30999469
 31
0.0
  0
LINE
  5
231
100
AcDbEntity
  8
レイヤー_1
  6
CONTINUOUS
 62
       7
100
AcDbLine
 10
-84.60500482
 20
-28.30999469
 30
0.0
 11
-84.57608474
 21
-28.12231369
 31
0.0
  0
LINE
  5
232
100
AcDbEntity
  8
レイヤー_1
  6
CONTINUOUS
 62
       7
100
AcDbLine
 10
-84.57608474
 20
-28.12231369
 30
0.0
 11
-84.52967551
 21
-27.93910195
 31
0.0
  0
LINE
  5
233
100
AcDbEntity
  8
レイヤー_1
  6
CONTINUOUS
 62
       7
100
AcDbLine
 10
-84.52967551
 20
-27.93910195
 30
0.0
 11
-84.46636254
 21
-27.76157559
 31
0.0
  0
LINE
  5
234
100
AcDbEntity
  8
レイヤー_1
  6
CONTINUOUS
 62
       7
100
AcDbLine
 10
-84.46636254
 20
-27.76157559
 30
0.0
 11
-84.38673125
 21
-27.59095069
 31
0.0
  0
LINE
  5
235
100
AcDbEntity
  8
レイヤー_1
  6
CONTINUOUS
 62
       7
100
AcDbLine
 10
-84.38673125
 20
-27.59095069
 30
0.0
 11
-84.29136708
 21
-27.42844337
 31
0.0
  0
LINE
  5
236
100
AcDbEntity
  8
レイヤー_1
  6
CONTINUOUS
 62
       7
100
AcDbLine
 10
-84.29136708
 20
-27.42844337
 30
0.0
 11
-84.18085545
 21
-27.27526972
 31
0.0
  0
LINE
  5
237
100
AcDbEntity
  8
レイヤー_1
  6
CONTINUOUS
 62
       7
100
AcDbLine
 10
-84.18085545
 20
-27.27526972
 30
0.0
 11
-84.05578178
 21
-27.13264585
 31
0.0
  0
LINE
  5
238
100
AcDbEntity
  8
レイヤー_1
  6
CONTINUOUS
 62
       7
100
AcDbLine
 10
-84.05578178
 20
-27.13264585
 30
0.0
 11
-83.9167315
 21
-27.00178785
 31
0.0
  0
LINE
  5
239
100
AcDbEntity
  8
レイヤー_1
  6
CONTINUOUS
 62
       7
100
AcDbLine
 10
-83.9167315
 20
-27.00178785
 30
0.0
 11
-83.76429003
 21
-26.88391184
 31
0.0
  0
LINE
  5
23A
100
AcDbEntity
  8
レイヤー_1
  6
CONTINUOUS
 62
       7
100
AcDbLine
 10
-83.76429003
 20
-26.88391184
 30
0.0
 11
-83.5990428
 21
-26.78023391
 31
0.0
  0
LINE
  5
23B
100
AcDbEntity
  8
レイヤー_1
  6
CONTINUOUS
 62
       7
100
AcDbLine
 10
-83.5990428
 20
-26.78023391
 30
0.0
 11
-83.42157523
 21
-26.69197017
 31
0.0
  0
LINE
  5
23C
100
AcDbEntity
  8
レイヤー_1
  6
CONTINUOUS
 62
       7
100
AcDbLine
 10
-83.42157523
 20
-26.69197017
 30
0.0
 11
-83.23282096
 21
-26.62048398
 31
0.0
  0
LINE
  5
23D
100
AcDbEntity
  8
レイヤー_1
  6
CONTINUOUS
 62
       7
100
AcDbLine
 10
-83.23282096
 20
-26.62048398
 30
0.0
 11
-83.03984556
 21
-26.56868597
 31
0.0
  0
LINE
  5
23E
100
AcDbEntity
  8
レイヤー_1
  6
CONTINUOUS
 62
       7
100
AcDbLine
 10
-83.03984556
 20
-26.56868597
 30
0.0
 11
-82.84613584
 21
-26.5368402
 31
0.0
  0
LINE
  5
23F
100
AcDbEntity
  8
レイヤー_1
  6
CONTINUOUS
 62
       7
100
AcDbLine
 10
-82.84613584
 20
-26.5368402
 30
0.0
 11
-82.65291156
 21
-26.52436248
 31
0.0
  0
LINE
  5
240
100
AcDbEntity
  8
レイヤー_1
  6
CONTINUOUS
 62
       7
100
AcDbLine
 10
-82.65291156
 20
-26.52436248
 30
0.0
 11
-82.46139249
 21
-26.53066861
 31
0.0
  0
LINE
  5
241
100
AcDbEntity
  8
レイヤー_1
  6
CONTINUOUS
 62
       7
100
AcDbLine
 10
-82.46139249
 20
-26.53066861
 30
0.0
 11
-82.2727984
 21
-26.55517438
 31
0.0
  0
LINE
  5
242
100
AcDbEntity
  8
レイヤー_1
  6
CONTINUOUS
 62
       7
100
AcDbLine
 10
-82.2727984
 20
-26.55517438
 30
0.0
 11
-82.08834907
 21
-26.59729558
 31
0.0
  0
LINE
  5
243
100
AcDbEntity
  8
レイヤー_1
  6
CONTINUOUS
 62
       7
100
AcDbLine
 10
-82.08834907
 20
-26.59729558
 30
0.0
 11
-81.90926427
 21
-26.65644803
 31
0.0
  0
LINE
  5
244
100
AcDbEntity
  8
レイヤー_1
  6
CONTINUOUS
 62
       7
100
AcDbLine
 10
-81.90926427
 20
-26.65644803
 30
0.0
 11
-81.73676376
 21
-26.73204751
 31
0.0
  0
LINE
  5
245
100
AcDbEntity
  8
レイヤー_1
  6
CONTINUOUS
 62
       7
100
AcDbLine
 10
-81.73676376
 20
-26.73204751
 30
0.0
 11
-81.57206732
 21
-26.82350982
 31
0.0
  0
LINE
  5
246
100
AcDbEntity
  8
レイヤー_1
  6
CONTINUOUS
 62
       7
100
AcDbLine
 10
-81.57206732
 20
-26.82350982
 30
0.0
 11
-81.41639473
 21
-26.93025077
 31
0.0
  0
LINE
  5
247
100
AcDbEntity
  8
レイヤー_1
  6
CONTINUOUS
 62
       7
100
AcDbLine
 10
-81.41639473
 20
-26.93025077
 30
0.0
 11
-81.27096574
 21
-27.05168615
 31
0.0
  0
LINE
  5
248
100
AcDbEntity
  8
レイヤー_1
  6
CONTINUOUS
 62
       7
100
AcDbLine
 10
-81.27096574
 20
-27.05168615
 30
0.0
 11
-81.13700013
 21
-27.18723175
 31
0.0
  0
LINE
  5
249
100
AcDbEntity
  8
レイヤー_1
  6
CONTINUOUS
 62
       7
100
AcDbLine
 10
-81.13700013
 20
-27.18723175
 30
0.0
 11
-81.01571768
 21
-27.33630338
 31
0.0
  0
LINE
  5
24A
100
AcDbEntity
  8
レイヤー_1
  6
CONTINUOUS
 62
       7
100
AcDbLine
 10
-81.01571768
 20
-27.33630338
 30
0.0
 11
-80.90833816
 21
-27.49831684
 31
0.0
  0
LINE
  5
24B
100
AcDbEntity
  8
レイヤー_1
  6
CONTINUOUS
 62
       7
100
AcDbLine
 10
-80.90833816
 20
-27.49831684
 30
0.0
 11
-80.81608132
 21
-27.67268792
 31
0.0
  0
LINE
  5
24C
100
AcDbEntity
  8
レイヤー_1
  6
CONTINUOUS
 62
       7
100
AcDbLine
 10
-80.81608132
 20
-27.67268792
 30
0.0
 11
-80.74016696
 21
-27.85883242
 31
0.0
  0
LINE
  5
24D
100
AcDbEntity
  8
レイヤー_1
  6
CONTINUOUS
 62
       7
100
AcDbLine
 10
-80.74016696
 20
-33.24537443
 30
0.0
 11
-80.68338442
 21
-33.43812409
 31
0.0
  0
LINE
  5
24E
100
AcDbEntity
  8
レイヤー_1
  6
CONTINUOUS
 62
       7
100
AcDbLine
 10
-80.68338442
 20
-33.43812409
 30
0.0
 11
-80.64667612
 21
-33.63188774
 31
0.0
  0
LINE
  5
24F
100
AcDbEntity
  8
レイヤー_1
  6
CONTINUOUS
 62
       7
100
AcDbLine
 10
-80.64667612
 20
-33.63188774
 30
0.0
 11
-80.62946031
 21
-33.82544684
 31
0.0
  0
LINE
  5
250
100
AcDbEntity
  8
レイヤー_1
  6
CONTINUOUS
 62
       7
100
AcDbLine
 10
-80.62946031
 20
-33.82544684
 30
0.0
 11
-80.63115523
 21
-34.01758284
 31
0.0
  0
LINE
  5
251
100
AcDbEntity
  8
レイヤー_1
  6
CONTINUOUS
 62
       7
100
AcDbLine
 10
-80.63115523
 20
-34.01758284
 30
0.0
 11
-80.65117913
 21
-34.2070772
 31
0.0
  0
LINE
  5
252
100
AcDbEntity
  8
レイヤー_1
  6
CONTINUOUS
 62
       7
100
AcDbLine
 10
-80.65117913
 20
-34.2070772
 30
0.0
 11
-80.68895026
 21
-34.39271135
 31
0.0
  0
LINE
  5
253
100
AcDbEntity
  8
レイヤー_1
  6
CONTINUOUS
 62
       7
100
AcDbLine
 10
-80.68895026
 20
-34.39271135
 30
0.0
 11
-80.74388684
 21
-34.57326676
 31
0.0
  0
LINE
  5
254
100
AcDbEntity
  8
レイヤー_1
  6
CONTINUOUS
 62
       7
100
AcDbLine
 10
-80.74388684
 20
-34.57326676
 30
0.0
 11
-80.81540714
 21
-34.74752488
 31
0.0
  0
LINE
  5
255
100
AcDbEntity
  8
レイヤー_1
  6
CONTINUOUS
 62
       7
100
AcDbLine
 10
-80.81540714
 20
-34.74752488
 30
0.0
 11
-80.90292939
 21
-34.91426716
 31
0.0
  0
LINE
  5
256
100
AcDbEntity
  8
レイヤー_1
  6
CONTINUOUS
 62
       7
100
AcDbLine
 10
-80.90292939
 20
-34.91426716
 30
0.0
 11
-81.00587184
 21
-35.07227505
 31
0.0
  0
LINE
  5
257
100
AcDbEntity
  8
レイヤー_1
  6
CONTINUOUS
 62
       7
100
AcDbLine
 10
-81.00587184
 20
-35.07227505
 30
0.0
 11
-81.12365273
 21
-35.22033
 31
0.0
  0
LINE
  5
258
100
AcDbEntity
  8
レイヤー_1
  6
CONTINUOUS
 62
       7
100
AcDbLine
 10
-81.12365273
 20
-35.22033
 30
0.0
 11
-81.25569031
 21
-35.35721347
 31
0.0
  0
LINE
  5
259
100
AcDbEntity
  8
レイヤー_1
  6
CONTINUOUS
 62
       7
100
AcDbLine
 10
-81.25569031
 20
-35.35721347
 30
0.0
 11
-81.40140282
 21
-35.4817069
 31
0.0
  0
LINE
  5
25A
100
AcDbEntity
  8
レイヤー_1
  6
CONTINUOUS
 62
       7
100
AcDbLine
 10
-81.40140282
 20
-35.4817069
 30
0.0
 11
-81.56020851
 21
-35.59259175
 31
0.0
  0
LINE
  5
25B
100
AcDbEntity
  8
レイヤー_1
  6
CONTINUOUS
 62
       7
100
AcDbLine
 10
-81.56020851
 20
-35.59259175
 30
0.0
 11
-81.73152561
 21
-35.68864948
 31
0.0
  0
LINE
  5
25C
100
AcDbEntity
  8
レイヤー_1
  6
CONTINUOUS
 62
       7
100
AcDbLine
 10
-81.73152561
 20
-35.68864948
 30
0.0
 11
-81.91477238
 21
-35.76866152
 31
0.0
  0
LINE
  5
25D
100
AcDbEntity
  8
レイヤー_1
  6
CONTINUOUS
 62
       7
100
AcDbLine
 10
-81.91477238
 20
-35.76866152
 30
0.0
 11
-82.10679948
 21
-35.8307704
 31
0.0
  0
LINE
  5
25E
100
AcDbEntity
  8
レイヤー_1
  6
CONTINUOUS
 62
       7
100
AcDbLine
 10
-82.10679948
 20
-35.8307704
 30
0.0
 11
-82.30042388
 21
-35.87273972
 31
0.0
  0
LINE
  5
25F
100
AcDbEntity
  8
レイヤー_1
  6
CONTINUOUS
 62
       7
100
AcDbLine
 10
-82.30042388
 20
-35.87273972
 30
0.0
 11
-82.49414835
 21
-35.89501128
 31
0.0
  0
LINE
  5
260
100
AcDbEntity
  8
レイヤー_1
  6
CONTINUOUS
 62
       7
100
AcDbLine
 10
-82.49414835
 20
-35.89501128
 30
0.0
 11
-82.68675437
 21
-35.8981705
 31
0.0
  0
LINE
  5
261
100
AcDbEntity
  8
レイヤー_1
  6
CONTINUOUS
 62
       7
100
AcDbLine
 10
-82.68675437
 20
-35.8981705
 30
0.0
 11
-82.87702337
 21
-35.88280283
 31
0.0
  0
LINE
  5
262
100
AcDbEntity
  8
レイヤー_1
  6
CONTINUOUS
 62
       7
100
AcDbLine
 10
-82.87702337
 20
-35.88280283
 30
0.0
 11
-83.06373682
 21
-35.84949367
 31
0.0
  0
LINE
  5
263
100
AcDbEntity
  8
レイヤー_1
  6
CONTINUOUS
 62
       7
100
AcDbLine
 10
-83.06373682
 20
-35.84949367
 30
0.0
 11
-83.24567615
 21
-35.79882846
 31
0.0
  0
LINE
  5
264
100
AcDbEntity
  8
レイヤー_1
  6
CONTINUOUS
 62
       7
100
AcDbLine
 10
-83.24567615
 20
-35.79882846
 30
0.0
 11
-83.42162283
 21
-35.73139262
 31
0.0
  0
LINE
  5
265
100
AcDbEntity
  8
レイヤー_1
  6
CONTINUOUS
 62
       7
100
AcDbLine
 10
-83.42162283
 20
-35.73139262
 30
0.0
 11
-83.59035831
 21
-35.64777158
 31
0.0
  0
LINE
  5
266
100
AcDbEntity
  8
レイヤー_1
  6
CONTINUOUS
 62
       7
100
AcDbLine
 10
-83.59035831
 20
-35.64777158
 30
0.0
 11
-83.75066403
 21
-35.54855075
 31
0.0
  0
LINE
  5
267
100
AcDbEntity
  8
レイヤー_1
  6
CONTINUOUS
 62
       7
100
AcDbLine
 10
-83.75066403
 20
-35.54855075
 30
0.0
 11
-83.90132146
 21
-35.43431557
 31
0.0
  0
LINE
  5
268
100
AcDbEntity
  8
レイヤー_1
  6
CONTINUOUS
 62
       7
100
AcDbLine
 10
-83.90132146
 20
-35.43431557
 30
0.0
 11
-84.04111204
 21
-35.30565146
 31
0.0
  0
LINE
  5
269
100
AcDbEntity
  8
レイヤー_1
  6
CONTINUOUS
 62
       7
100
AcDbLine
 10
-84.04111204
 20
-35.30565146
 30
0.0
 11
-84.16881722
 21
-35.16314385
 31
0.0
  0
LINE
  5
26A
100
AcDbEntity
  8
レイヤー_1
  6
CONTINUOUS
 62
       7
100
AcDbLine
 10
-84.16881722
 20
-35.16314385
 30
0.0
 11
-84.28321846
 21
-35.00737815
 31
0.0
  0
LINE
  5
26B
100
AcDbEntity
  8
レイヤー_1
  6
CONTINUOUS
 62
       7
100
AcDbLine
 10
-84.28321846
 20
-35.00737815
 30
0.0
 11
-84.3830972
 21
-34.8389398
 31
0.0
  0
LINE
  5
26C
100
AcDbEntity
  8
レイヤー_1
  6
CONTINUOUS
 62
       7
100
AcDbLine
 10
-84.3830972
 20
-34.8389398
 30
0.0
 11
-84.4672349
 21
-34.65841421
 31
0.0
  0
LINE
  5
26D
100
AcDbEntity
  8
レイヤー_1
  6
CONTINUOUS
 62
       7
100
AcDbLine
 10
-84.4672349
 20
-34.65841421
 30
0.0
 11
-84.534085
 21
-34.46768351
 31
0.0
  0
LINE
  5
26E
100
AcDbEntity
  8
レイヤー_1
  6
CONTINUOUS
 62
       7
100
AcDbLine
 10
-84.534085
 20
-34.46768351
 30
0.0
 11
-84.58097582
 21
-34.27438087
 31
0.0
  0
LINE
  5
26F
100
AcDbEntity
  8
レイヤー_1
  6
CONTINUOUS
 62
       7
100
AcDbLine
 10
-84.58097582
 20
-34.27438087
 30
0.0
 11
-84.60803578
 21
-34.08066983
 31
0.0
  0
LINE
  5
270
100
AcDbEntity
  8
レイヤー_1
  6
CONTINUOUS
 62
       7
100
AcDbLine
 10
-84.60803578
 20
-34.08066983
 30
0.0
 11
-84.6158503
 21
-33.8877665
 31
0.0
  0
LINE
  5
271
100
AcDbEntity
  8
レイヤー_1
  6
CONTINUOUS
 62
       7
100
AcDbLine
 10
-84.6158503
 20
-33.8877665
 30
0.0
 11
-84.60500482
 21
-33.69688699
 31
0.0
  0
LINE
  5
272
100
AcDbEntity
  8
レイヤー_1
  6
CONTINUOUS
 62
       7
100
AcDbLine
 10
-84.60500482
 20
-33.69688699
 30
0.0
 11
-84.57608474
 21
-33.50924739
 31
0.0
  0
LINE
  5
273
100
AcDbEntity
  8
レイヤー_1
  6
CONTINUOUS
 62
       7
100
AcDbLine
 10
-84.57608474
 20
-33.50924739
 30
0.0
 11
-84.52967551
 21
-33.32606381
 31
0.0
  0
LINE
  5
274
100
AcDbEntity
  8
レイヤー_1
  6
CONTINUOUS
 62
       7
100
AcDbLine
 10
-84.52967551
 20
-33.32606381
 30
0.0
 11
-84.46636254
 21
-33.14855235
 31
0.0
  0
LINE
  5
275
100
AcDbEntity
  8
レイヤー_1
  6
CONTINUOUS
 62
       7
100
AcDbLine
 10
-84.46636254
 20
-33.14855235
 30
0.0
 11
-84.38673125
 21
-32.97792911
 31
0.0
  0
LINE
  5
276
100
AcDbEntity
  8
レイヤー_1
  6
CONTINUOUS
 62
       7
100
AcDbLine
 10
-84.38673125
 20
-32.97792911
 30
0.0
 11
-84.29136708
 21
-32.81541019
 31
0.0
  0
LINE
  5
277
100
AcDbEntity
  8
レイヤー_1
  6
CONTINUOUS
 62
       7
100
AcDbLine
 10
-84.29136708
 20
-32.81541019
 30
0.0
 11
-84.18085545
 21
-32.6622117
 31
0.0
  0
LINE
  5
278
100
AcDbEntity
  8
レイヤー_1
  6
CONTINUOUS
 62
       7
100
AcDbLine
 10
-84.18085545
 20
-32.6622117
 30
0.0
 11
-84.05578178
 21
-32.51954973
 31
0.0
  0
LINE
  5
279
100
AcDbEntity
  8
レイヤー_1
  6
CONTINUOUS
 62
       7
100
AcDbLine
 10
-84.05578178
 20
-32.51954973
 30
0.0
 11
-83.9167315
 21
-32.3886404
 31
0.0
  0
LINE
  5
27A
100
AcDbEntity
  8
レイヤー_1
  6
CONTINUOUS
 62
       7
100
AcDbLine
 10
-83.9167315
 20
-32.3886404
 30
0.0
 11
-83.76429003
 21
-32.2706998
 31
0.0
  0
LINE
  5
27B
100
AcDbEntity
  8
レイヤー_1
  6
CONTINUOUS
 62
       7
100
AcDbLine
 10
-83.76429003
 20
-32.2706998
 30
0.0
 11
-83.5990428
 21
-32.16694403
 31
0.0
  0
LINE
  5
27C
100
AcDbEntity
  8
レイヤー_1
  6
CONTINUOUS
 62
       7
100
AcDbLine
 10
-83.5990428
 20
-32.16694403
 30
0.0
 11
-83.42157523
 21
-32.07858919
 31
0.0
  0
LINE
  5
27D
100
AcDbEntity
  8
レイヤー_1
  6
CONTINUOUS
 62
       7
100
AcDbLine
 10
-83.42157523
 20
-32.07858919
 30
0.0
 11
-83.23282096
 21
-32.00701335
 31
0.0
  0
LINE
  5
27E
100
AcDbEntity
  8
レイヤー_1
  6
CONTINUOUS
 62
       7
100
AcDbLine
 10
-83.23282096
 20
-32.00701335
 30
0.0
 11
-83.03984556
 21
-31.9551802
 31
0.0
  0
LINE
  5
27F
100
AcDbEntity
  8
レイヤー_1
  6
CONTINUOUS
 62
       7
100
AcDbLine
 10
-83.03984556
 20
-31.9551802
 30
0.0
 11
-82.84613584
 21
-31.92332121
 31
0.0
  0
LINE
  5
280
100
AcDbEntity
  8
レイヤー_1
  6
CONTINUOUS
 62
       7
100
AcDbLine
 10
-82.84613584
 20
-31.92332121
 30
0.0
 11
-82.65291156
 21
-31.91084852
 31
0.0
  0
LINE
  5
281
100
AcDbEntity
  8
レイヤー_1
  6
CONTINUOUS
 62
       7
100
AcDbLine
 10
-82.65291156
 20
-31.91084852
 30
0.0
 11
-82.46139249
 21
-31.91717424
 31
0.0
  0
LINE
  5
282
100
AcDbEntity
  8
レイヤー_1
  6
CONTINUOUS
 62
       7
100
AcDbLine
 10
-82.46139249
 20
-31.91717424
 30
0.0
 11
-82.2727984
 21
-31.9417105
 31
0.0
  0
LINE
  5
283
100
AcDbEntity
  8
レイヤー_1
  6
CONTINUOUS
 62
       7
100
AcDbLine
 10
-82.2727984
 20
-31.9417105
 30
0.0
 11
-82.08834907
 21
-31.98386945
 31
0.0
  0
LINE
  5
284
100
AcDbEntity
  8
レイヤー_1
  6
CONTINUOUS
 62
       7
100
AcDbLine
 10
-82.08834907
 20
-31.98386945
 30
0.0
 11
-81.90926427
 21
-32.04306319
 31
0.0
  0
LINE
  5
285
100
AcDbEntity
  8
レイヤー_1
  6
CONTINUOUS
 62
       7
100
AcDbLine
 10
-81.90926427
 20
-32.04306319
 30
0.0
 11
-81.73676376
 21
-32.11870387
 31
0.0
  0
LINE
  5
286
100
AcDbEntity
  8
レイヤー_1
  6
CONTINUOUS
 62
       7
100
AcDbLine
 10
-81.73676376
 20
-32.11870387
 30
0.0
 11
-81.57206732
 21
-32.21020362
 31
0.0
  0
LINE
  5
287
100
AcDbEntity
  8
レイヤー_1
  6
CONTINUOUS
 62
       7
100
AcDbLine
 10
-81.57206732
 20
-32.21020362
 30
0.0
 11
-81.41639473
 21
-32.31697455
 31
0.0
  0
LINE
  5
288
100
AcDbEntity
  8
レイヤー_1
  6
CONTINUOUS
 62
       7
100
AcDbLine
 10
-81.41639473
 20
-32.31697455
 30
0.0
 11
-81.27096574
 21
-32.43842881
 31
0.0
  0
LINE
  5
289
100
AcDbEntity
  8
レイヤー_1
  6
CONTINUOUS
 62
       7
100
AcDbLine
 10
-81.27096574
 20
-32.43842881
 30
0.0
 11
-81.13700013
 21
-32.57397852
 31
0.0
  0
LINE
  5
28A
100
AcDbEntity
  8
レイヤー_1
  6
CONTINUOUS
 62
       7
100
AcDbLine
 10
-81.13700013
 20
-32.57397852
 30
0.0
 11
-81.01571768
 21
-32.72303581
 31
0.0
  0
LINE
  5
28B
100
AcDbEntity
  8
レイヤー_1
  6
CONTINUOUS
 62
       7
100
AcDbLine
 10
-81.01571768
 20
-32.72303581
 30
0.0
 11
-80.90833816
 21
-32.8850128
 31
0.0
  0
LINE
  5
28C
100
AcDbEntity
  8
レイヤー_1
  6
CONTINUOUS
 62
       7
100
AcDbLine
 10
-80.90833816
 20
-32.8850128
 30
0.0
 11
-80.81608132
 21
-33.05932163
 31
0.0
  0
LINE
  5
28D
100
AcDbEntity
  8
レイヤー_1
  6
CONTINUOUS
 62
       7
100
AcDbLine
 10
-80.81608132
 20
-33.05932163
 30
0.0
 11
-80.74016696
 21
-33.24537443
 31
0.0
  0
LINE
  5
28E
100
AcDbEntity
  8
レイヤー_1
  6
CONTINUOUS
 62
       7
100
AcDbLine
 10
-80.74016696
 20
43.95696561
 30
0.0
 11
-80.68338442
 21
44.14970905
 31
0.0
  0
LINE
  5
28F
100
AcDbEntity
  8
レイヤー_1
  6
CONTINUOUS
 62
       7
100
AcDbLine
 10
-80.68338442
 20
44.14970905
 30
0.0
 11
-80.64667612
 21
44.34345568
 31
0.0
  0
LINE
  5
290
100
AcDbEntity
  8
レイヤー_1
  6
CONTINUOUS
 62
       7
100
AcDbLine
 10
-80.64667612
 20
44.34345568
 30
0.0
 11
-80.62946031
 21
44.5369894
 31
0.0
  0
LINE
  5
291
100
AcDbEntity
  8
レイヤー_1
  6
CONTINUOUS
 62
       7
100
AcDbLine
 10
-80.62946031
 20
44.5369894
 30
0.0
 11
-80.63115523
 21
44.72909411
 31
0.0
  0
LINE
  5
292
100
AcDbEntity
  8
レイヤー_1
  6
CONTINUOUS
 62
       7
100
AcDbLine
 10
-80.63115523
 20
44.72909411
 30
0.0
 11
-80.65117913
 21
44.91855371
 31
0.0
  0
LINE
  5
293
100
AcDbEntity
  8
レイヤー_1
  6
CONTINUOUS
 62
       7
100
AcDbLine
 10
-80.65117913
 20
44.91855371
 30
0.0
 11
-80.68895026
 21
45.10415209
 31
0.0
  0
LINE
  5
294
100
AcDbEntity
  8
レイヤー_1
  6
CONTINUOUS
 62
       7
100
AcDbLine
 10
-80.68895026
 20
45.10415209
 30
0.0
 11
-80.74388684
 21
45.28467316
 31
0.0
  0
LINE
  5
295
100
AcDbEntity
  8
レイヤー_1
  6
CONTINUOUS
 62
       7
100
AcDbLine
 10
-80.74388684
 20
45.28467316
 30
0.0
 11
-80.81540714
 21
45.4589008
 31
0.0
  0
LINE
  5
296
100
AcDbEntity
  8
レイヤー_1
  6
CONTINUOUS
 62
       7
100
AcDbLine
 10
-80.81540714
 20
45.4589008
 30
0.0
 11
-80.90292939
 21
45.62561893
 31
0.0
  0
LINE
  5
297
100
AcDbEntity
  8
レイヤー_1
  6
CONTINUOUS
 62
       7
100
AcDbLine
 10
-80.90292939
 20
45.62561893
 30
0.0
 11
-81.00587184
 21
45.78361143
 31
0.0
  0
LINE
  5
298
100
AcDbEntity
  8
レイヤー_1
  6
CONTINUOUS
 62
       7
100
AcDbLine
 10
-81.00587184
 20
45.78361143
 30
0.0
 11
-81.12365273
 21
45.9316622
 31
0.0
  0
LINE
  5
299
100
AcDbEntity
  8
レイヤー_1
  6
CONTINUOUS
 62
       7
100
AcDbLine
 10
-81.12365273
 20
45.9316622
 30
0.0
 11
-81.25569031
 21
46.06855514
 31
0.0
  0
LINE
  5
29A
100
AcDbEntity
  8
レイヤー_1
  6
CONTINUOUS
 62
       7
100
AcDbLine
 10
-81.25569031
 20
46.06855514
 30
0.0
 11
-81.40140282
 21
46.19307416
 31
0.0
  0
LINE
  5
29B
100
AcDbEntity
  8
レイヤー_1
  6
CONTINUOUS
 62
       7
100
AcDbLine
 10
-81.40140282
 20
46.19307416
 30
0.0
 11
-81.56020851
 21
46.30400314
 31
0.0
  0
LINE
  5
29C
100
AcDbEntity
  8
レイヤー_1
  6
CONTINUOUS
 62
       7
100
AcDbLine
 10
-81.56020851
 20
46.30400314
 30
0.0
 11
-81.73152561
 21
46.40012599
 31
0.0
  0
LINE
  5
29D
100
AcDbEntity
  8
レイヤー_1
  6
CONTINUOUS
 62
       7
100
AcDbLine
 10
-81.73152561
 20
46.40012599
 30
0.0
 11
-81.91477238
 21
46.48022661
 31
0.0
  0
LINE
  5
29E
100
AcDbEntity
  8
レイヤー_1
  6
CONTINUOUS
 62
       7
100
AcDbLine
 10
-81.91477238
 20
46.48022661
 30
0.0
 11
-82.10679948
 21
46.54236158
 31
0.0
  0
LINE
  5
29F
100
AcDbEntity
  8
レイヤー_1
  6
CONTINUOUS
 62
       7
100
AcDbLine
 10
-82.10679948
 20
46.54236158
 30
0.0
 11
-82.30042388
 21
46.58433089
 31
0.0
  0
LINE
  5
2A0
100
AcDbEntity
  8
レイヤー_1
  6
CONTINUOUS
 62
       7
100
AcDbLine
 10
-82.30042388
 20
46.58433089
 30
0.0
 11
-82.49414835
 21
46.60660245
 31
0.0
  0
LINE
  5
2A1
100
AcDbEntity
  8
レイヤー_1
  6
CONTINUOUS
 62
       7
100
AcDbLine
 10
-82.49414835
 20
46.60660245
 30
0.0
 11
-82.68675437
 21
46.60976168
 31
0.0
  0
LINE
  5
2A2
100
AcDbEntity
  8
レイヤー_1
  6
CONTINUOUS
 62
       7
100
AcDbLine
 10
-82.68675437
 20
46.60976168
 30
0.0
 11
-82.87702337
 21
46.59439401
 31
0.0
  0
LINE
  5
2A3
100
AcDbEntity
  8
レイヤー_1
  6
CONTINUOUS
 62
       7
100
AcDbLine
 10
-82.87702337
 20
46.59439401
 30
0.0
 11
-83.06373682
 21
46.56108485
 31
0.0
  0
LINE
  5
2A4
100
AcDbEntity
  8
レイヤー_1
  6
CONTINUOUS
 62
       7
100
AcDbLine
 10
-83.06373682
 20
46.56108485
 30
0.0
 11
-83.24567615
 21
46.51041964
 31
0.0
  0
LINE
  5
2A5
100
AcDbEntity
  8
レイヤー_1
  6
CONTINUOUS
 62
       7
100
AcDbLine
 10
-83.24567615
 20
46.51041964
 30
0.0
 11
-83.42162283
 21
46.4429838
 31
0.0
  0
LINE
  5
2A6
100
AcDbEntity
  8
レイヤー_1
  6
CONTINUOUS
 62
       7
100
AcDbLine
 10
-83.42162283
 20
46.4429838
 30
0.0
 11
-83.59035831
 21
46.35936275
 31
0.0
  0
LINE
  5
2A7
100
AcDbEntity
  8
レイヤー_1
  6
CONTINUOUS
 62
       7
100
AcDbLine
 10
-83.59035831
 20
46.35936275
 30
0.0
 11
-83.75066403
 21
46.26014193
 31
0.0
  0
LINE
  5
2A8
100
AcDbEntity
  8
レイヤー_1
  6
CONTINUOUS
 62
       7
100
AcDbLine
 10
-83.75066403
 20
46.26014193
 30
0.0
 11
-83.90132146
 21
46.14590675
 31
0.0
  0
LINE
  5
2A9
100
AcDbEntity
  8
レイヤー_1
  6
CONTINUOUS
 62
       7
100
AcDbLine
 10
-83.90132146
 20
46.14590675
 30
0.0
 11
-84.04111204
 21
46.01724264
 31
0.0
  0
LINE
  5
2AA
100
AcDbEntity
  8
レイヤー_1
  6
CONTINUOUS
 62
       7
100
AcDbLine
 10
-84.04111204
 20
46.01724264
 30
0.0
 11
-84.16881722
 21
45.87473502
 31
0.0
  0
LINE
  5
2AB
100
AcDbEntity
  8
レイヤー_1
  6
CONTINUOUS
 62
       7
100
AcDbLine
 10
-84.16881722
 20
45.87473502
 30
0.0
 11
-84.28321846
 21
45.71896933
 31
0.0
  0
LINE
  5
2AC
100
AcDbEntity
  8
レイヤー_1
  6
CONTINUOUS
 62
       7
100
AcDbLine
 10
-84.28321846
 20
45.71896933
 30
0.0
 11
-84.3830972
 21
45.55053097
 31
0.0
  0
LINE
  5
2AD
100
AcDbEntity
  8
レイヤー_1
  6
CONTINUOUS
 62
       7
100
AcDbLine
 10
-84.3830972
 20
45.55053097
 30
0.0
 11
-84.4672349
 21
45.37000539
 31
0.0
  0
LINE
  5
2AE
100
AcDbEntity
  8
レイヤー_1
  6
CONTINUOUS
 62
       7
100
AcDbLine
 10
-84.4672349
 20
45.37000539
 30
0.0
 11
-84.534085
 21
45.17929837
 31
0.0
  0
LINE
  5
2AF
100
AcDbEntity
  8
レイヤー_1
  6
CONTINUOUS
 62
       7
100
AcDbLine
 10
-84.534085
 20
45.17929837
 30
0.0
 11
-84.58097582
 21
44.98602503
 31
0.0
  0
LINE
  5
2B0
100
AcDbEntity
  8
レイヤー_1
  6
CONTINUOUS
 62
       7
100
AcDbLine
 10
-84.58097582
 20
44.98602503
 30
0.0
 11
-84.60803578
 21
44.79232232
 31
0.0
  0
LINE
  5
2B1
100
AcDbEntity
  8
レイヤー_1
  6
CONTINUOUS
 62
       7
100
AcDbLine
 10
-84.60803578
 20
44.79232232
 30
0.0
 11
-84.6158503
 21
44.59940998
 31
0.0
  0
LINE
  5
2B2
100
AcDbEntity
  8
レイヤー_1
  6
CONTINUOUS
 62
       7
100
AcDbLine
 10
-84.6158503
 20
44.59940998
 30
0.0
 11
-84.60500482
 21
44.4085078
 31
0.0
  0
LINE
  5
2B3
100
AcDbEntity
  8
レイヤー_1
  6
CONTINUOUS
 62
       7
100
AcDbLine
 10
-84.60500482
 20
44.4085078
 30
0.0
 11
-84.57608474
 21
44.22083555
 31
0.0
  0
LINE
  5
2B4
100
AcDbEntity
  8
レイヤー_1
  6
CONTINUOUS
 62
       7
100
AcDbLine
 10
-84.57608474
 20
44.22083555
 30
0.0
 11
-84.52967551
 21
44.037613
 31
0.0
  0
LINE
  5
2B5
100
AcDbEntity
  8
レイヤー_1
  6
CONTINUOUS
 62
       7
100
AcDbLine
 10
-84.52967551
 20
44.037613
 30
0.0
 11
-84.46636254
 21
43.86005992
 31
0.0
  0
LINE
  5
2B6
100
AcDbEntity
  8
レイヤー_1
  6
CONTINUOUS
 62
       7
100
AcDbLine
 10
-84.46636254
 20
43.86005992
 30
0.0
 11
-84.38673125
 21
43.68939608
 31
0.0
  0
LINE
  5
2B7
100
AcDbEntity
  8
レイヤー_1
  6
CONTINUOUS
 62
       7
100
AcDbLine
 10
-84.38673125
 20
43.68939608
 30
0.0
 11
-84.29136708
 21
43.52684125
 31
0.0
  0
LINE
  5
2B8
100
AcDbEntity
  8
レイヤー_1
  6
CONTINUOUS
 62
       7
100
AcDbLine
 10
-84.29136708
 20
43.52684125
 30
0.0
 11
-84.18085545
 21
43.3736152
 31
0.0
  0
LINE
  5
2B9
100
AcDbEntity
  8
レイヤー_1
  6
CONTINUOUS
 62
       7
100
AcDbLine
 10
-84.18085545
 20
43.3736152
 30
0.0
 11
-84.05578178
 21
43.2309377
 31
0.0
  0
LINE
  5
2BA
100
AcDbEntity
  8
レイヤー_1
  6
CONTINUOUS
 62
       7
100
AcDbLine
 10
-84.05578178
 20
43.2309377
 30
0.0
 11
-83.9167315
 21
43.10002853
 31
0.0
  0
LINE
  5
2BB
100
AcDbEntity
  8
レイヤー_1
  6
CONTINUOUS
 62
       7
100
AcDbLine
 10
-83.9167315
 20
43.10002853
 30
0.0
 11
-83.76429003
 21
42.98210746
 31
0.0
  0
LINE
  5
2BC
100
AcDbEntity
  8
レイヤー_1
  6
CONTINUOUS
 62
       7
100
AcDbLine
 10
-83.76429003
 20
42.98210746
 30
0.0
 11
-83.5990428
 21
42.87839425
 31
0.0
  0
LINE
  5
2BD
100
AcDbEntity
  8
レイヤー_1
  6
CONTINUOUS
 62
       7
100
AcDbLine
 10
-83.5990428
 20
42.87839425
 30
0.0
 11
-83.42157523
 21
42.79010869
 31
0.0
  0
LINE
  5
2BE
100
AcDbEntity
  8
レイヤー_1
  6
CONTINUOUS
 62
       7
100
AcDbLine
 10
-83.42157523
 20
42.79010869
 30
0.0
 11
-83.23282096
 21
42.71861777
 31
0.0
  0
LINE
  5
2BF
100
AcDbEntity
  8
レイヤー_1
  6
CONTINUOUS
 62
       7
100
AcDbLine
 10
-83.23282096
 20
42.71861777
 30
0.0
 11
-83.03984556
 21
42.66683349
 31
0.0
  0
LINE
  5
2C0
100
AcDbEntity
  8
レイヤー_1
  6
CONTINUOUS
 62
       7
100
AcDbLine
 10
-83.03984556
 20
42.66683349
 30
0.0
 11
-82.84613584
 21
42.63501673
 31
0.0
  0
LINE
  5
2C1
100
AcDbEntity
  8
レイヤー_1
  6
CONTINUOUS
 62
       7
100
AcDbLine
 10
-82.84613584
 20
42.63501673
 30
0.0
 11
-82.65291156
 21
42.62257964
 31
0.0
  0
LINE
  5
2C2
100
AcDbEntity
  8
レイヤー_1
  6
CONTINUOUS
 62
       7
100
AcDbLine
 10
-82.65291156
 20
42.62257964
 30
0.0
 11
-82.46139249
 21
42.62893434
 31
0.0
  0
LINE
  5
2C3
100
AcDbEntity
  8
レイヤー_1
  6
CONTINUOUS
 62
       7
100
AcDbLine
 10
-82.46139249
 20
42.62893434
 30
0.0
 11
-82.2727984
 21
42.65349297
 31
0.0
  0
LINE
  5
2C4
100
AcDbEntity
  8
レイヤー_1
  6
CONTINUOUS
 62
       7
100
AcDbLine
 10
-82.2727984
 20
42.65349297
 30
0.0
 11
-82.08834907
 21
42.69566765
 31
0.0
  0
LINE
  5
2C5
100
AcDbEntity
  8
レイヤー_1
  6
CONTINUOUS
 62
       7
100
AcDbLine
 10
-82.08834907
 20
42.69566765
 30
0.0
 11
-81.90926427
 21
42.7548705
 31
0.0
  0
LINE
  5
2C6
100
AcDbEntity
  8
レイヤー_1
  6
CONTINUOUS
 62
       7
100
AcDbLine
 10
-81.90926427
 20
42.7548705
 30
0.0
 11
-81.73676376
 21
42.83051367
 31
0.0
  0
LINE
  5
2C7
100
AcDbEntity
  8
レイヤー_1
  6
CONTINUOUS
 62
       7
100
AcDbLine
 10
-81.73676376
 20
42.83051367
 30
0.0
 11
-81.57206732
 21
42.92200927
 31
0.0
  0
LINE
  5
2C8
100
AcDbEntity
  8
レイヤー_1
  6
CONTINUOUS
 62
       7
100
AcDbLine
 10
-81.57206732
 20
42.92200927
 30
0.0
 11
-81.41639473
 21
43.02876944
 31
0.0
  0
LINE
  5
2C9
100
AcDbEntity
  8
レイヤー_1
  6
CONTINUOUS
 62
       7
100
AcDbLine
 10
-81.41639473
 20
43.02876944
 30
0.0
 11
-81.27096574
 21
43.15020631
 31
0.0
  0
LINE
  5
2CA
100
AcDbEntity
  8
レイヤー_1
  6
CONTINUOUS
 62
       7
100
AcDbLine
 10
-81.27096574
 20
43.15020631
 30
0.0
 11
-81.13700013
 21
43.285732
 31
0.0
  0
LINE
  5
2CB
100
AcDbEntity
  8
レイヤー_1
  6
CONTINUOUS
 62
       7
100
AcDbLine
 10
-81.13700013
 20
43.285732
 30
0.0
 11
-81.01571768
 21
43.43475865
 31
0.0
  0
LINE
  5
2CC
100
AcDbEntity
  8
レイヤー_1
  6
CONTINUOUS
 62
       7
100
AcDbLine
 10
-81.01571768
 20
43.43475865
 30
0.0
 11
-80.90833816
 21
43.59669838
 31
0.0
  0
LINE
  5
2CD
100
AcDbEntity
  8
レイヤー_1
  6
CONTINUOUS
 62
       7
100
AcDbLine
 10
-80.90833816
 20
43.59669838
 30
0.0
 11
-80.81608132
 21
43.77096332
 31
0.0
  0
LINE
  5
2CE
100
AcDbEntity
  8
レイヤー_1
  6
CONTINUOUS
 62
       7
100
AcDbLine
 10
-80.81608132
 20
43.77096332
 30
0.0
 11
-80.74016696
 21
43.95696561
 31
0.0
  0
LINE
  5
2CF
100
AcDbEntity
  8
レイヤー_1
  6
CONTINUOUS
 62
       7
100
AcDbLine
 10
-80.74016696
 20
-22.63468846
 30
0.0
 11
-80.68338442
 21
-22.82738449
 31
0.0
  0
LINE
  5
2D0
100
AcDbEntity
  8
レイヤー_1
  6
CONTINUOUS
 62
       7
100
AcDbLine
 10
-80.68338442
 20
-22.82738449
 30
0.0
 11
-80.64667612
 21
-23.02109574
 31
0.0
  0
LINE
  5
2D1
100
AcDbEntity
  8
レイヤー_1
  6
CONTINUOUS
 62
       7
100
AcDbLine
 10
-80.64667612
 20
-23.02109574
 30
0.0
 11
-80.62946031
 21
-23.21460489
 31
0.0
  0
LINE
  5
2D2
100
AcDbEntity
  8
レイヤー_1
  6
CONTINUOUS
 62
       7
100
AcDbLine
 10
-80.62946031
 20
-23.21460489
 30
0.0
 11
-80.63115523
 21
-23.40669461
 31
0.0
  0
LINE
  5
2D3
100
AcDbEntity
  8
レイヤー_1
  6
CONTINUOUS
 62
       7
100
AcDbLine
 10
-80.63115523
 20
-23.40669461
 30
0.0
 11
-80.65117913
 21
-23.59614757
 31
0.0
  0
LINE
  5
2D4
100
AcDbEntity
  8
レイヤー_1
  6
CONTINUOUS
 62
       7
100
AcDbLine
 10
-80.65117913
 20
-23.59614757
 30
0.0
 11
-80.68895026
 21
-23.78174645
 31
0.0
  0
LINE
  5
2D5
100
AcDbEntity
  8
レイヤー_1
  6
CONTINUOUS
 62
       7
100
AcDbLine
 10
-80.68895026
 20
-23.78174645
 30
0.0
 11
-80.74388684
 21
-23.96227392
 31
0.0
  0
LINE
  5
2D6
100
AcDbEntity
  8
レイヤー_1
  6
CONTINUOUS
 62
       7
100
AcDbLine
 10
-80.74388684
 20
-23.96227392
 30
0.0
 11
-80.81540714
 21
-24.13651266
 31
0.0
  0
LINE
  5
2D7
100
AcDbEntity
  8
レイヤー_1
  6
CONTINUOUS
 62
       7
100
AcDbLine
 10
-80.81540714
 20
-24.13651266
 30
0.0
 11
-80.90292939
 21
-24.30324535
 31
0.0
  0
LINE
  5
2D8
100
AcDbEntity
  8
レイヤー_1
  6
CONTINUOUS
 62
       7
100
AcDbLine
 10
-80.90292939
 20
-24.30324535
 30
0.0
 11
-81.00587184
 21
-24.46125465
 31
0.0
  0
LINE
  5
2D9
100
AcDbEntity
  8
レイヤー_1
  6
CONTINUOUS
 62
       7
100
AcDbLine
 10
-81.00587184
 20
-24.46125465
 30
0.0
 11
-81.12365273
 21
-24.60932324
 31
0.0
  0
LINE
  5
2DA
100
AcDbEntity
  8
レイヤー_1
  6
CONTINUOUS
 62
       7
100
AcDbLine
 10
-81.12365273
 20
-24.60932324
 30
0.0
 11
-81.25569031
 21
-24.74623381
 31
0.0
  0
LINE
  5
2DB
100
AcDbEntity
  8
レイヤー_1
  6
CONTINUOUS
 62
       7
100
AcDbLine
 10
-81.25569031
 20
-24.74623381
 30
0.0
 11
-81.40140282
 21
-24.87076902
 31
0.0
  0
LINE
  5
2DC
100
AcDbEntity
  8
レイヤー_1
  6
CONTINUOUS
 62
       7
100
AcDbLine
 10
-81.40140282
 20
-24.87076902
 30
0.0
 11
-81.56020851
 21
-24.98171154
 31
0.0
  0
LINE
  5
2DD
100
AcDbEntity
  8
レイヤー_1
  6
CONTINUOUS
 62
       7
100
AcDbLine
 10
-81.56020851
 20
-24.98171154
 30
0.0
 11
-81.73152561
 21
-25.07784406
 31
0.0
  0
LINE
  5
2DE
100
AcDbEntity
  8
レイヤー_1
  6
CONTINUOUS
 62
       7
100
AcDbLine
 10
-81.73152561
 20
-25.07784406
 30
0.0
 11
-81.91477238
 21
-25.15794925
 31
0.0
  0
LINE
  5
2DF
100
AcDbEntity
  8
レイヤー_1
  6
CONTINUOUS
 62
       7
100
AcDbLine
 10
-81.91477238
 20
-25.15794925
 30
0.0
 11
-82.10679948
 21
-25.22008443
 31
0.0
  0
LINE
  5
2E0
100
AcDbEntity
  8
レイヤー_1
  6
CONTINUOUS
 62
       7
100
AcDbLine
 10
-82.10679948
 20
-25.22008443
 30
0.0
 11
-82.30042388
 21
-25.26205374
 31
0.0
  0
LINE
  5
2E1
100
AcDbEntity
  8
レイヤー_1
  6
CONTINUOUS
 62
       7
100
AcDbLine
 10
-82.30042388
 20
-25.26205374
 30
0.0
 11
-82.49414835
 21
-25.2843253
 31
0.0
  0
LINE
  5
2E2
100
AcDbEntity
  8
レイヤー_1
  6
CONTINUOUS
 62
       7
100
AcDbLine
 10
-82.49414835
 20
-25.2843253
 30
0.0
 11
-82.68675437
 21
-25.28748453
 31
0.0
  0
LINE
  5
2E3
100
AcDbEntity
  8
レイヤー_1
  6
CONTINUOUS
 62
       7
100
AcDbLine
 10
-82.68675437
 20
-25.28748453
 30
0.0
 11
-82.87702337
 21
-25.27211685
 31
0.0
  0
LINE
  5
2E4
100
AcDbEntity
  8
レイヤー_1
  6
CONTINUOUS
 62
       7
100
AcDbLine
 10
-82.87702337
 20
-25.27211685
 30
0.0
 11
-83.06373682
 21
-25.2388077
 31
0.0
  0
LINE
  5
2E5
100
AcDbEntity
  8
レイヤー_1
  6
CONTINUOUS
 62
       7
100
AcDbLine
 10
-83.06373682
 20
-25.2388077
 30
0.0
 11
-83.24567615
 21
-25.18814249
 31
0.0
  0
LINE
  5
2E6
100
AcDbEntity
  8
レイヤー_1
  6
CONTINUOUS
 62
       7
100
AcDbLine
 10
-83.24567615
 20
-25.18814249
 30
0.0
 11
-83.42162283
 21
-25.12070665
 31
0.0
  0
LINE
  5
2E7
100
AcDbEntity
  8
レイヤー_1
  6
CONTINUOUS
 62
       7
100
AcDbLine
 10
-83.42162283
 20
-25.12070665
 30
0.0
 11
-83.59035831
 21
-25.0370856
 31
0.0
  0
LINE
  5
2E8
100
AcDbEntity
  8
レイヤー_1
  6
CONTINUOUS
 62
       7
100
AcDbLine
 10
-83.59035831
 20
-25.0370856
 30
0.0
 11
-83.75066403
 21
-24.93786478
 31
0.0
  0
LINE
  5
2E9
100
AcDbEntity
  8
レイヤー_1
  6
CONTINUOUS
 62
       7
100
AcDbLine
 10
-83.75066403
 20
-24.93786478
 30
0.0
 11
-83.90132146
 21
-24.8236296
 31
0.0
  0
LINE
  5
2EA
100
AcDbEntity
  8
レイヤー_1
  6
CONTINUOUS
 62
       7
100
AcDbLine
 10
-83.90132146
 20
-24.8236296
 30
0.0
 11
-84.04111204
 21
-24.69496548
 31
0.0
  0
LINE
  5
2EB
100
AcDbEntity
  8
レイヤー_1
  6
CONTINUOUS
 62
       7
100
AcDbLine
 10
-84.04111204
 20
-24.69496548
 30
0.0
 11
-84.16881722
 21
-24.55245787
 31
0.0
  0
LINE
  5
2EC
100
AcDbEntity
  8
レイヤー_1
  6
CONTINUOUS
 62
       7
100
AcDbLine
 10
-84.16881722
 20
-24.55245787
 30
0.0
 11
-84.28321846
 21
-24.39669217
 31
0.0
  0
LINE
  5
2ED
100
AcDbEntity
  8
レイヤー_1
  6
CONTINUOUS
 62
       7
100
AcDbLine
 10
-84.28321846
 20
-24.39669217
 30
0.0
 11
-84.3830972
 21
-24.22825382
 31
0.0
  0
LINE
  5
2EE
100
AcDbEntity
  8
レイヤー_1
  6
CONTINUOUS
 62
       7
100
AcDbLine
 10
-84.3830972
 20
-24.22825382
 30
0.0
 11
-84.4672349
 21
-24.04772824
 31
0.0
  0
LINE
  5
2EF
100
AcDbEntity
  8
レイヤー_1
  6
CONTINUOUS
 62
       7
100
AcDbLine
 10
-84.4672349
 20
-24.04772824
 30
0.0
 11
-84.534085
 21
-23.85697065
 31
0.0
  0
LINE
  5
2F0
100
AcDbEntity
  8
レイヤー_1
  6
CONTINUOUS
 62
       7
100
AcDbLine
 10
-84.534085
 20
-23.85697065
 30
0.0
 11
-84.58097582
 21
-23.66361484
 31
0.0
  0
LINE
  5
2F1
100
AcDbEntity
  8
レイヤー_1
  6
CONTINUOUS
 62
       7
100
AcDbLine
 10
-84.58097582
 20
-23.66361484
 30
0.0
 11
-84.60803578
 21
-23.46985247
 31
0.0
  0
LINE
  5
2F2
100
AcDbEntity
  8
レイヤー_1
  6
CONTINUOUS
 62
       7
100
AcDbLine
 10
-84.60803578
 20
-23.46985247
 30
0.0
 11
-84.6158503
 21
-23.27690087
 31
0.0
  0
LINE
  5
2F3
100
AcDbEntity
  8
レイヤー_1
  6
CONTINUOUS
 62
       7
100
AcDbLine
 10
-84.6158503
 20
-23.27690087
 30
0.0
 11
-84.60500482
 21
-23.08597737
 31
0.0
  0
LINE
  5
2F4
100
AcDbEntity
  8
レイヤー_1
  6
CONTINUOUS
 62
       7
100
AcDbLine
 10
-84.60500482
 20
-23.08597737
 30
0.0
 11
-84.57608474
 21
-22.89829928
 31
0.0
  0
LINE
  5
2F5
100
AcDbEntity
  8
レイヤー_1
  6
CONTINUOUS
 62
       7
100
AcDbLine
 10
-84.57608474
 20
-22.89829928
 30
0.0
 11
-84.52967551
 21
-22.71508394
 31
0.0
  0
LINE
  5
2F6
100
AcDbEntity
  8
レイヤー_1
  6
CONTINUOUS
 62
       7
100
AcDbLine
 10
-84.52967551
 20
-22.71508394
 30
0.0
 11
-84.46636254
 21
-22.53754867
 31
0.0
  0
LINE
  5
2F7
100
AcDbEntity
  8
レイヤー_1
  6
CONTINUOUS
 62
       7
100
AcDbLine
 10
-84.46636254
 20
-22.53754867
 30
0.0
 11
-84.38673125
 21
-22.36691079
 31
0.0
  0
LINE
  5
2F8
100
AcDbEntity
  8
レイヤー_1
  6
CONTINUOUS
 62
       7
100
AcDbLine
 10
-84.38673125
 20
-22.36691079
 30
0.0
 11
-84.29136708
 21
-22.20438763
 31
0.0
  0
LINE
  5
2F9
100
AcDbEntity
  8
レイヤー_1
  6
CONTINUOUS
 62
       7
100
AcDbLine
 10
-84.29136708
 20
-22.20438763
 30
0.0
 11
-84.18085545
 21
-22.05119652
 31
0.0
  0
LINE
  5
2FA
100
AcDbEntity
  8
レイヤー_1
  6
CONTINUOUS
 62
       7
100
AcDbLine
 10
-84.18085545
 20
-22.05119652
 30
0.0
 11
-84.05578178
 21
-21.90855477
 31
0.0
  0
LINE
  5
2FB
100
AcDbEntity
  8
レイヤー_1
  6
CONTINUOUS
 62
       7
100
AcDbLine
 10
-84.05578178
 20
-21.90855477
 30
0.0
 11
-83.9167315
 21
-21.77767972
 31
0.0
  0
LINE
  5
2FC
100
AcDbEntity
  8
レイヤー_1
  6
CONTINUOUS
 62
       7
100
AcDbLine
 10
-83.9167315
 20
-21.77767972
 30
0.0
 11
-83.76429003
 21
-21.65978869
 31
0.0
  0
LINE
  5
2FD
100
AcDbEntity
  8
レイヤー_1
  6
CONTINUOUS
 62
       7
100
AcDbLine
 10
-83.76429003
 20
-21.65978869
 30
0.0
 11
-83.5990428
 21
-21.556099
 31
0.0
  0
LINE
  5
2FE
100
AcDbEntity
  8
レイヤー_1
  6
CONTINUOUS
 62
       7
100
AcDbLine
 10
-83.5990428
 20
-21.556099
 30
0.0
 11
-83.42157523
 21
-21.46782798
 31
0.0
  0
LINE
  5
2FF
100
AcDbEntity
  8
レイヤー_1
  6
CONTINUOUS
 62
       7
100
AcDbLine
 10
-83.42157523
 20
-21.46782798
 30
0.0
 11
-83.23282096
 21
-21.39631412
 31
0.0
  0
LINE
  5
300
100
AcDbEntity
  8
レイヤー_1
  6
CONTINUOUS
 62
       7
100
AcDbLine
 10
-83.23282096
 20
-21.39631412
 30
0.0
 11
-83.03984556
 21
-21.34443212
 31
0.0
  0
LINE
  5
301
100
AcDbEntity
  8
レイヤー_1
  6
CONTINUOUS
 62
       7
100
AcDbLine
 10
-83.03984556
 20
-21.34443212
 30
0.0
 11
-82.84613584
 21
-21.3125309
 31
0.0
  0
LINE
  5
302
100
AcDbEntity
  8
レイヤー_1
  6
CONTINUOUS
 62
       7
100
AcDbLine
 10
-82.84613584
 20
-21.3125309
 30
0.0
 11
-82.65291156
 21
-21.30002259
 31
0.0
  0
LINE
  5
303
100
AcDbEntity
  8
レイヤー_1
  6
CONTINUOUS
 62
       7
100
AcDbLine
 10
-82.65291156
 20
-21.30002259
 30
0.0
 11
-82.46139249
 21
-21.30631933
 31
0.0
  0
LINE
  5
304
100
AcDbEntity
  8
レイヤー_1
  6
CONTINUOUS
 62
       7
100
AcDbLine
 10
-82.46139249
 20
-21.30631933
 30
0.0
 11
-82.2727984
 21
-21.33083324
 31
0.0
  0
LINE
  5
305
100
AcDbEntity
  8
レイヤー_1
  6
CONTINUOUS
 62
       7
100
AcDbLine
 10
-82.2727984
 20
-21.33083324
 30
0.0
 11
-82.08834907
 21
-21.37297645
 31
0.0
  0
LINE
  5
306
100
AcDbEntity
  8
レイヤー_1
  6
CONTINUOUS
 62
       7
100
AcDbLine
 10
-82.08834907
 20
-21.37297645
 30
0.0
 11
-81.90926427
 21
-21.43216108
 31
0.0
  0
LINE
  5
307
100
AcDbEntity
  8
レイヤー_1
  6
CONTINUOUS
 62
       7
100
AcDbLine
 10
-81.90926427
 20
-21.43216108
 30
0.0
 11
-81.73676376
 21
-21.50779928
 31
0.0
  0
LINE
  5
308
100
AcDbEntity
  8
レイヤー_1
  6
CONTINUOUS
 62
       7
100
AcDbLine
 10
-81.73676376
 20
-21.50779928
 30
0.0
 11
-81.57206732
 21
-21.59930317
 31
0.0
  0
LINE
  5
309
100
AcDbEntity
  8
レイヤー_1
  6
CONTINUOUS
 62
       7
100
AcDbLine
 10
-81.57206732
 20
-21.59930317
 30
0.0
 11
-81.41639473
 21
-21.70608487
 31
0.0
  0
LINE
  5
30A
100
AcDbEntity
  8
レイヤー_1
  6
CONTINUOUS
 62
       7
100
AcDbLine
 10
-81.41639473
 20
-21.70608487
 30
0.0
 11
-81.27096574
 21
-21.82755651
 31
0.0
  0
LINE
  5
30B
100
AcDbEntity
  8
レイヤー_1
  6
CONTINUOUS
 62
       7
100
AcDbLine
 10
-81.27096574
 20
-21.82755651
 30
0.0
 11
-81.13700013
 21
-21.96313024
 31
0.0
  0
LINE
  5
30C
100
AcDbEntity
  8
レイヤー_1
  6
CONTINUOUS
 62
       7
100
AcDbLine
 10
-81.13700013
 20
-21.96313024
 30
0.0
 11
-81.01571768
 21
-22.11221816
 31
0.0
  0
LINE
  5
30D
100
AcDbEntity
  8
レイヤー_1
  6
CONTINUOUS
 62
       7
100
AcDbLine
 10
-81.01571768
 20
-22.11221816
 30
0.0
 11
-80.90833816
 21
-22.27423242
 31
0.0
  0
LINE
  5
30E
100
AcDbEntity
  8
レイヤー_1
  6
CONTINUOUS
 62
       7
100
AcDbLine
 10
-80.90833816
 20
-22.27423242
 30
0.0
 11
-80.81608132
 21
-22.44858514
 31
0.0
  0
LINE
  5
30F
100
AcDbEntity
  8
レイヤー_1
  6
CONTINUOUS
 62
       7
100
AcDbLine
 10
-80.81608132
 20
-22.44858514
 30
0.0
 11
-80.74016696
 21
-22.63468846
 31
0.0
  0
LINE
  5
310
100
AcDbEntity
  8
レイヤー_1
  6
CONTINUOUS
 62
       7
100
AcDbLine
 10
75.34972085
 20
-9.59444607
 30
0.0
 11
75.34972085
 21
-9.55012185
 31
0.0
  0
LINE
  5
311
100
AcDbEntity
  8
レイヤー_1
  6
CONTINUOUS
 62
       7
100
AcDbLine
 10
75.34972085
 20
-9.55012185
 30
0.0
 11
75.34972085
 21
-9.42526683
 31
0.0
  0
LINE
  5
312
100
AcDbEntity
  8
レイヤー_1
  6
CONTINUOUS
 62
       7
100
AcDbLine
 10
75.34972085
 20
-9.42526683
 30
0.0
 11
75.34972085
 21
-9.2320575
 31
0.0
  0
LINE
  5
313
100
AcDbEntity
  8
レイヤー_1
  6
CONTINUOUS
 62
       7
100
AcDbLine
 10
75.34972085
 20
-9.2320575
 30
0.0
 11
75.34972085
 21
-8.98267032
 31
0.0
  0
LINE
  5
314
100
AcDbEntity
  8
レイヤー_1
  6
CONTINUOUS
 62
       7
100
AcDbLine
 10
75.34972085
 20
-8.98267032
 30
0.0
 11
75.34972085
 21
-8.68928178
 31
0.0
  0
LINE
  5
315
100
AcDbEntity
  8
レイヤー_1
  6
CONTINUOUS
 62
       7
100
AcDbLine
 10
75.34972085
 20
-8.68928178
 30
0.0
 11
75.34972085
 21
-8.36406836
 31
0.0
  0
LINE
  5
316
100
AcDbEntity
  8
レイヤー_1
  6
CONTINUOUS
 62
       7
100
AcDbLine
 10
74.39438228
 20
-5.40036234
 30
0.0
 11
74.39399265
 21
-5.4151394
 31
0.0
  0
LINE
  5
317
100
AcDbEntity
  8
レイヤー_1
  6
CONTINUOUS
 62
       7
100
AcDbLine
 10
74.39399265
 20
-5.4151394
 30
0.0
 11
74.39399231
 21
-5.44521839
 31
0.0
  0
LINE
  5
318
100
AcDbEntity
  8
レイヤー_1
  6
CONTINUOUS
 62
       7
100
AcDbLine
 10
74.39399231
 20
-5.44521839
 30
0.0
 11
74.39399231
 21
-5.54139258
 31
0.0
  0
LINE
  5
319
100
AcDbEntity
  8
レイヤー_1
  6
CONTINUOUS
 62
       7
100
AcDbLine
 10
74.39399231
 20
-5.54139258
 30
0.0
 11
74.39399231
 21
-5.69416233
 31
0.0
  0
LINE
  5
31A
100
AcDbEntity
  8
レイヤー_1
  6
CONTINUOUS
 62
       7
100
AcDbLine
 10
74.39399231
 20
-5.69416233
 30
0.0
 11
74.39399231
 21
-5.8936065
 31
0.0
  0
LINE
  5
31B
100
AcDbEntity
  8
レイヤー_1
  6
CONTINUOUS
 62
       7
100
AcDbLine
 10
74.39399231
 20
-5.8936065
 30
0.0
 11
74.39399231
 21
-6.12980397
 31
0.0
  0
LINE
  5
31C
100
AcDbEntity
  8
レイヤー_1
  6
CONTINUOUS
 62
       7
100
AcDbLine
 10
74.39399231
 20
-6.12980397
 30
0.0
 11
74.39399231
 21
-6.39283359
 31
0.0
  0
LINE
  5
31D
100
AcDbEntity
  8
レイヤー_1
  6
CONTINUOUS
 62
       7
100
AcDbLine
 10
74.39399231
 20
-6.39283359
 30
0.0
 11
74.39399231
 21
-6.67277423
 31
0.0
  0
LINE
  5
31E
100
AcDbEntity
  8
レイヤー_1
  6
CONTINUOUS
 62
       7
100
AcDbLine
 10
74.39399231
 20
-6.67277423
 30
0.0
 11
74.39399231
 21
-6.95970477
 31
0.0
  0
LINE
  5
31F
100
AcDbEntity
  8
レイヤー_1
  6
CONTINUOUS
 62
       7
100
AcDbLine
 10
74.39399231
 20
-6.95970477
 30
0.0
 11
74.39399231
 21
-7.24370406
 31
0.0
  0
LINE
  5
320
100
AcDbEntity
  8
レイヤー_1
  6
CONTINUOUS
 62
       7
100
AcDbLine
 10
74.39399231
 20
-7.24370406
 30
0.0
 11
74.39399231
 21
-7.51485098
 31
0.0
  0
LINE
  5
321
100
AcDbEntity
  8
レイヤー_1
  6
CONTINUOUS
 62
       7
100
AcDbLine
 10
74.39399231
 20
-7.51485098
 30
0.0
 11
74.39399231
 21
-7.76322438
 31
0.0
  0
LINE
  5
322
100
AcDbEntity
  8
レイヤー_1
  6
CONTINUOUS
 62
       7
100
AcDbLine
 10
74.39399231
 20
-7.76322438
 30
0.0
 11
74.39399231
 21
-7.97890313
 31
0.0
  0
LINE
  5
323
100
AcDbEntity
  8
レイヤー_1
  6
CONTINUOUS
 62
       7
100
AcDbLine
 10
74.39399231
 20
-7.97890313
 30
0.0
 11
74.39399231
 21
-8.15196611
 31
0.0
  0
LINE
  5
324
100
AcDbEntity
  8
レイヤー_1
  6
CONTINUOUS
 62
       7
100
AcDbLine
 10
74.39399231
 20
-8.15196611
 30
0.0
 11
74.39399231
 21
-8.27249217
 31
0.0
  0
LINE
  5
325
100
AcDbEntity
  8
レイヤー_1
  6
CONTINUOUS
 62
       7
100
AcDbLine
 10
74.39399231
 20
-8.27249217
 30
0.0
 11
74.39399231
 21
-8.33056018
 31
0.0
  0
LINE
  5
326
100
AcDbEntity
  8
レイヤー_1
  6
CONTINUOUS
 62
       7
100
AcDbLine
 10
74.39399231
 20
-8.33056018
 30
0.0
 11
74.38911642
 21
-8.33433054
 31
0.0
  0
LINE
  5
327
100
AcDbEntity
  8
レイヤー_1
  6
CONTINUOUS
 62
       7
100
AcDbLine
 10
74.38911642
 20
-8.33433054
 30
0.0
 11
74.36566401
 21
-8.33433054
 31
0.0
  0
LINE
  5
328
100
AcDbEntity
  8
レイヤー_1
  6
CONTINUOUS
 62
       7
100
AcDbLine
 10
74.36566401
 20
-8.33433054
 30
0.0
 11
74.32536531
 21
-8.33433054
 31
0.0
  0
LINE
  5
329
100
AcDbEntity
  8
レイヤー_1
  6
CONTINUOUS
 62
       7
100
AcDbLine
 10
74.32536531
 20
-8.33433054
 30
0.0
 11
74.2710603
 21
-8.33433054
 31
0.0
  0
LINE
  5
32A
100
AcDbEntity
  8
レイヤー_1
  6
CONTINUOUS
 62
       7
100
AcDbLine
 10
74.2710603
 20
-8.33433054
 30
0.0
 11
74.20558897
 21
-8.33433054
 31
0.0
  0
LINE
  5
32B
100
AcDbEntity
  8
レイヤー_1
  6
CONTINUOUS
 62
       7
100
AcDbLine
 10
74.20558897
 20
-8.33433054
 30
0.0
 11
74.13179131
 21
-8.33433054
 31
0.0
  0
LINE
  5
32C
100
AcDbEntity
  8
レイヤー_1
  6
CONTINUOUS
 62
       7
100
AcDbLine
 10
74.13179131
 20
-8.33433054
 30
0.0
 11
74.05250731
 21
-8.33433054
 31
0.0
  0
LINE
  5
32D
100
AcDbEntity
  8
レイヤー_1
  6
CONTINUOUS
 62
       7
100
AcDbLine
 10
74.05250731
 20
-8.33433054
 30
0.0
 11
73.97057695
 21
-8.33433054
 31
0.0
  0
LINE
  5
32E
100
AcDbEntity
  8
レイヤー_1
  6
CONTINUOUS
 62
       7
100
AcDbLine
 10
73.97057695
 20
-8.33433054
 30
0.0
 11
73.88884023
 21
-8.33433054
 31
0.0
  0
LINE
  5
32F
100
AcDbEntity
  8
レイヤー_1
  6
CONTINUOUS
 62
       7
100
AcDbLine
 10
73.88884023
 20
-8.33433054
 30
0.0
 11
73.81013713
 21
-8.33433054
 31
0.0
  0
LINE
  5
330
100
AcDbEntity
  8
レイヤー_1
  6
CONTINUOUS
 62
       7
100
AcDbLine
 10
73.81013713
 20
-8.33433054
 30
0.0
 11
73.73730765
 21
-8.33433054
 31
0.0
  0
LINE
  5
331
100
AcDbEntity
  8
レイヤー_1
  6
CONTINUOUS
 62
       7
100
AcDbLine
 10
73.73730765
 20
-8.33433054
 30
0.0
 11
73.67319176
 21
-8.33433054
 31
0.0
  0
LINE
  5
332
100
AcDbEntity
  8
レイヤー_1
  6
CONTINUOUS
 62
       7
100
AcDbLine
 10
73.67319176
 20
-8.33433054
 30
0.0
 11
73.62062948
 21
-8.33433054
 31
0.0
  0
LINE
  5
333
100
AcDbEntity
  8
レイヤー_1
  6
CONTINUOUS
 62
       7
100
AcDbLine
 10
73.62062948
 20
-8.33433054
 30
0.0
 11
73.58246077
 21
-8.33433054
 31
0.0
  0
LINE
  5
334
100
AcDbEntity
  8
レイヤー_1
  6
CONTINUOUS
 62
       7
100
AcDbLine
 10
73.58246077
 20
-8.33433054
 30
0.0
 11
73.56152563
 21
-8.33433054
 31
0.0
  0
LINE
  5
335
100
AcDbEntity
  8
レイヤー_1
  6
CONTINUOUS
 62
       7
100
AcDbLine
 10
73.55838585
 20
-8.33763204
 30
0.0
 11
73.55838585
 21
-8.36662778
 31
0.0
  0
LINE
  5
336
100
AcDbEntity
  8
レイヤー_1
  6
CONTINUOUS
 62
       7
100
AcDbLine
 10
73.55838585
 20
-8.36662778
 30
0.0
 11
73.55838585
 21
-8.42200152
 31
0.0
  0
LINE
  5
337
100
AcDbEntity
  8
レイヤー_1
  6
CONTINUOUS
 62
       7
100
AcDbLine
 10
73.55838585
 20
-8.42200152
 30
0.0
 11
73.55838585
 21
-8.49947049
 31
0.0
  0
LINE
  5
338
100
AcDbEntity
  8
レイヤー_1
  6
CONTINUOUS
 62
       7
100
AcDbLine
 10
73.55838585
 20
-8.49947049
 30
0.0
 11
73.55838585
 21
-8.59475191
 31
0.0
  0
LINE
  5
339
100
AcDbEntity
  8
レイヤー_1
  6
CONTINUOUS
 62
       7
100
AcDbLine
 10
73.55838585
 20
-8.59475191
 30
0.0
 11
73.55838585
 21
-8.70356299
 31
0.0
  0
LINE
  5
33A
100
AcDbEntity
  8
レイヤー_1
  6
CONTINUOUS
 62
       7
100
AcDbLine
 10
73.55838585
 20
-8.70356299
 30
0.0
 11
73.55838585
 21
-8.82162098
 31
0.0
  0
LINE
  5
33B
100
AcDbEntity
  8
レイヤー_1
  6
CONTINUOUS
 62
       7
100
AcDbLine
 10
73.55838585
 20
-8.82162098
 30
0.0
 11
73.55838585
 21
-8.9446431
 31
0.0
  0
LINE
  5
33C
100
AcDbEntity
  8
レイヤー_1
  6
CONTINUOUS
 62
       7
100
AcDbLine
 10
73.55838585
 20
-8.9446431
 30
0.0
 11
73.55838585
 21
-9.06834656
 31
0.0
  0
LINE
  5
33D
100
AcDbEntity
  8
レイヤー_1
  6
CONTINUOUS
 62
       7
100
AcDbLine
 10
73.55838585
 20
-9.06834656
 30
0.0
 11
73.55838585
 21
-9.18844861
 31
0.0
  0
LINE
  5
33E
100
AcDbEntity
  8
レイヤー_1
  6
CONTINUOUS
 62
       7
100
AcDbLine
 10
73.55838585
 20
-9.18844861
 30
0.0
 11
73.55838585
 21
-9.30066645
 31
0.0
  0
LINE
  5
33F
100
AcDbEntity
  8
レイヤー_1
  6
CONTINUOUS
 62
       7
100
AcDbLine
 10
73.55838585
 20
-9.30066645
 30
0.0
 11
73.55838585
 21
-9.40071732
 31
0.0
  0
LINE
  5
340
100
AcDbEntity
  8
レイヤー_1
  6
CONTINUOUS
 62
       7
100
AcDbLine
 10
73.55838585
 20
-9.40071732
 30
0.0
 11
73.55838585
 21
-9.48431844
 31
0.0
  0
LINE
  5
341
100
AcDbEntity
  8
レイヤー_1
  6
CONTINUOUS
 62
       7
100
AcDbLine
 10
73.55838585
 20
-9.48431844
 30
0.0
 11
73.55838585
 21
-9.54718703
 31
0.0
  0
LINE
  5
342
100
AcDbEntity
  8
レイヤー_1
  6
CONTINUOUS
 62
       7
100
AcDbLine
 10
73.55838585
 20
-9.54718703
 30
0.0
 11
73.55838585
 21
-9.58504033
 31
0.0
  0
LINE
  5
343
100
AcDbEntity
  8
レイヤー_1
  6
CONTINUOUS
 62
       7
100
AcDbLine
 10
73.55838585
 20
-9.58504033
 30
0.0
 11
73.55957109
 21
-9.59444607
 31
0.0
  0
LINE
  5
344
100
AcDbEntity
  8
レイヤー_1
  6
CONTINUOUS
 62
       7
100
AcDbLine
 10
73.55957109
 20
-9.59444607
 30
0.0
 11
73.59141903
 21
-9.59444607
 31
0.0
  0
LINE
  5
345
100
AcDbEntity
  8
レイヤー_1
  6
CONTINUOUS
 62
       7
100
AcDbLine
 10
73.59141903
 20
-9.59444607
 30
0.0
 11
73.66214869
 21
-9.59444607
 31
0.0
  0
LINE
  5
346
100
AcDbEntity
  8
レイヤー_1
  6
CONTINUOUS
 62
       7
100
AcDbLine
 10
73.66214869
 20
-9.59444607
 30
0.0
 11
73.76567181
 21
-9.59444607
 31
0.0
  0
LINE
  5
347
100
AcDbEntity
  8
レイヤー_1
  6
CONTINUOUS
 62
       7
100
AcDbLine
 10
73.76567181
 20
-9.59444607
 30
0.0
 11
73.89590016
 21
-9.59444607
 31
0.0
  0
LINE
  5
348
100
AcDbEntity
  8
レイヤー_1
  6
CONTINUOUS
 62
       7
100
AcDbLine
 10
73.89590016
 20
-9.59444607
 30
0.0
 11
74.0467455
 21
-9.59444607
 31
0.0
  0
LINE
  5
349
100
AcDbEntity
  8
レイヤー_1
  6
CONTINUOUS
 62
       7
100
AcDbLine
 10
74.0467455
 20
-9.59444607
 30
0.0
 11
74.21211959
 21
-9.59444607
 31
0.0
  0
LINE
  5
34A
100
AcDbEntity
  8
レイヤー_1
  6
CONTINUOUS
 62
       7
100
AcDbLine
 10
74.21211959
 20
-9.59444607
 30
0.0
 11
74.3859342
 21
-9.59444607
 31
0.0
  0
LINE
  5
34B
100
AcDbEntity
  8
レイヤー_1
  6
CONTINUOUS
 62
       7
100
AcDbLine
 10
74.3859342
 20
-9.59444607
 30
0.0
 11
74.56210108
 21
-9.59444607
 31
0.0
  0
LINE
  5
34C
100
AcDbEntity
  8
レイヤー_1
  6
CONTINUOUS
 62
       7
100
AcDbLine
 10
74.56210108
 20
-9.59444607
 30
0.0
 11
74.73453199
 21
-9.59444607
 31
0.0
  0
LINE
  5
34D
100
AcDbEntity
  8
レイヤー_1
  6
CONTINUOUS
 62
       7
100
AcDbLine
 10
74.73453199
 20
-9.59444607
 30
0.0
 11
74.8971387
 21
-9.59444607
 31
0.0
  0
LINE
  5
34E
100
AcDbEntity
  8
レイヤー_1
  6
CONTINUOUS
 62
       7
100
AcDbLine
 10
74.8971387
 20
-9.59444607
 30
0.0
 11
75.04383297
 21
-9.59444607
 31
0.0
  0
LINE
  5
34F
100
AcDbEntity
  8
レイヤー_1
  6
CONTINUOUS
 62
       7
100
AcDbLine
 10
75.04383297
 20
-9.59444607
 30
0.0
 11
75.16852656
 21
-9.59444607
 31
0.0
  0
LINE
  5
350
100
AcDbEntity
  8
レイヤー_1
  6
CONTINUOUS
 62
       7
100
AcDbLine
 10
75.16852656
 20
-9.59444607
 30
0.0
 11
75.26513123
 21
-9.59444607
 31
0.0
  0
LINE
  5
351
100
AcDbEntity
  8
レイヤー_1
  6
CONTINUOUS
 62
       7
100
AcDbLine
 10
75.26513123
 20
-9.59444607
 30
0.0
 11
75.32755874
 21
-9.59444607
 31
0.0
  0
LINE
  5
352
100
AcDbEntity
  8
レイヤー_1
  6
CONTINUOUS
 62
       7
100
AcDbLine
 10
75.32755874
 20
-9.59444607
 30
0.0
 11
75.34972085
 21
-9.59444607
 31
0.0
  0
LINE
  5
353
100
AcDbEntity
  8
レイヤー_1
  6
CONTINUOUS
 62
       7
100
AcDbLine
 10
79.40996356
 20
-15.20723743
 30
0.0
 11
79.40996356
 21
-13.6552719
 31
0.0
  0
LINE
  5
354
100
AcDbEntity
  8
レイヤー_1
  6
CONTINUOUS
 62
       7
100
AcDbLine
 10
78.33527918
 20
-15.20723743
 30
0.0
 11
78.33527918
 21
-13.6552719
 31
0.0
  0
LINE
  5
355
100
AcDbEntity
  8
レイヤー_1
  6
CONTINUOUS
 62
       7
100
AcDbLine
 10
74.39399231
 20
-5.41524753
 30
0.0
 11
74.39399231
 21
-1.62294701
 31
0.0
  0
LINE
  5
356
100
AcDbEntity
  8
レイヤー_1
  6
CONTINUOUS
 62
       7
100
AcDbLine
 10
-15.30512519
 20
7.36346694
 30
0.0
 11
-15.30512519
 21
12.61764143
 31
0.0
  0
LINE
  5
357
100
AcDbEntity
  8
レイヤー_1
  6
CONTINUOUS
 62
       7
100
AcDbLine
 10
-16.55824333
 20
7.36346694
 30
0.0
 11
-14.28933562
 21
7.36346694
 31
0.0
  0
LINE
  5
358
100
AcDbEntity
  8
レイヤー_1
  6
CONTINUOUS
 62
       7
100
AcDbLine
 10
-14.28933562
 20
7.36346694
 30
0.0
 11
-14.28933562
 21
12.61764143
 31
0.0
  0
LINE
  5
359
100
AcDbEntity
  8
レイヤー_1
  6
CONTINUOUS
 62
       7
100
AcDbLine
 10
-14.28933562
 20
12.61764143
 30
0.0
 11
-16.55824333
 21
12.61764143
 31
0.0
  0
LINE
  5
35A
100
AcDbEntity
  8
レイヤー_1
  6
CONTINUOUS
 62
       7
100
AcDbLine
 10
-15.30512519
 20
-0.16048992
 30
0.0
 11
-15.30512519
 21
5.09455923
 31
0.0
  0
LINE
  5
35B
100
AcDbEntity
  8
レイヤー_1
  6
CONTINUOUS
 62
       7
100
AcDbLine
 10
-16.55824333
 20
-0.16048992
 30
0.0
 11
-14.28933562
 21
-0.16048992
 31
0.0
  0
LINE
  5
35C
100
AcDbEntity
  8
レイヤー_1
  6
CONTINUOUS
 62
       7
100
AcDbLine
 10
-14.28933562
 20
-0.16048992
 30
0.0
 11
-14.28933562
 21
5.09455923
 31
0.0
  0
LINE
  5
35D
100
AcDbEntity
  8
レイヤー_1
  6
CONTINUOUS
 62
       7
100
AcDbLine
 10
-14.28933562
 20
5.09455923
 30
0.0
 11
-16.55824333
 21
5.09455923
 31
0.0
  0
LINE
  5
35E
100
AcDbEntity
  8
レイヤー_1
  6
CONTINUOUS
 62
       7
100
AcDbLine
 10
73.0207521
 20
27.12792142
 30
0.0
 11
73.0207521
 21
23.78403777
 31
0.0
  0
LINE
  5
35F
100
AcDbEntity
  8
レイヤー_1
  6
CONTINUOUS
 62
       7
100
AcDbLine
 10
73.0207521
 20
23.78403777
 30
0.0
 11
73.67792481
 21
23.78403777
 31
0.0
  0
LINE
  5
360
100
AcDbEntity
  8
レイヤー_1
  6
CONTINUOUS
 62
       7
100
AcDbLine
 10
73.67792481
 20
23.78403777
 30
0.0
 11
73.67792481
 21
17.75286007
 31
0.0
  0
LINE
  5
361
100
AcDbEntity
  8
レイヤー_1
  6
CONTINUOUS
 62
       7
100
AcDbLine
 10
-86.17452455
 20
39.3902859
 30
0.0
 11
-79.06516377
 21
39.3902859
 31
0.0
  0
LINE
  5
362
100
AcDbEntity
  8
レイヤー_1
  6
CONTINUOUS
 62
       7
100
AcDbLine
 10
74.78118191
 20
-1.27249378
 30
0.0
 11
71.34487424
 21
-5.03767936
 31
0.0
  0
LINE
  5
363
100
AcDbEntity
  8
レイヤー_1
  6
CONTINUOUS
 62
       7
100
AcDbLine
 10
71.34487424
 20
-5.03767936
 30
0.0
 11
65.52070303
 21
-5.03767936
 31
0.0
  0
LINE
  5
364
100
AcDbEntity
  8
レイヤー_1
  6
CONTINUOUS
 62
       7
100
AcDbLine
 10
65.52070303
 20
-5.03767936
 30
0.0
 11
65.52070303
 21
-15.19470041
 31
0.0
  0
LINE
  5
365
100
AcDbEntity
  8
レイヤー_1
  6
CONTINUOUS
 62
       7
100
AcDbLine
 10
65.52070303
 20
-15.19470041
 30
0.0
 11
81.50123459
 21
-15.19470041
 31
0.0
  0
LINE
  5
366
100
AcDbEntity
  8
レイヤー_1
  6
CONTINUOUS
 62
       7
100
AcDbLine
 10
41.0162759
 20
-37.02123122
 30
0.0
 11
39.39881697
 21
-30.91174075
 31
0.0
  0
LINE
  5
367
100
AcDbEntity
  8
レイヤー_1
  6
CONTINUOUS
 62
       7
100
AcDbLine
 10
39.39881697
 20
-30.91174075
 30
0.0
 11
36.35436383
 21
-31.98613357
 31
0.0
  0
LINE
  5
368
100
AcDbEntity
  8
レイヤー_1
  6
CONTINUOUS
 62
       7
100
AcDbLine
 10
36.35436383
 20
-31.98613357
 30
0.0
 11
27.03848885
 21
-31.98613357
 31
0.0
  0
LINE
  5
369
100
AcDbEntity
  8
レイヤー_1
  6
CONTINUOUS
 62
       7
100
AcDbLine
 10
27.03848885
 20
-31.98613357
 30
0.0
 11
25.24715385
 21
-31.44879138
 31
0.0
  0
LINE
  5
36A
100
AcDbEntity
  8
レイヤー_1
  6
CONTINUOUS
 62
       7
100
AcDbLine
 10
25.24715385
 20
-31.44879138
 30
0.0
 11
23.63483572
 21
-25.53773575
 31
0.0
  0
LINE
  5
36B
100
AcDbEntity
  8
レイヤー_1
  6
CONTINUOUS
 62
       7
100
AcDbLine
 10
23.63483572
 20
-25.53773575
 30
0.0
 11
20.41078259
 21
-26.79172856
 31
0.0
  0
LINE
  5
36C
100
AcDbEntity
  8
レイヤー_1
  6
CONTINUOUS
 62
       7
100
AcDbLine
 10
20.41078259
 20
-26.79172856
 30
0.0
 11
11.09432449
 21
-26.79172856
 31
0.0
  0
LINE
  5
36D
100
AcDbEntity
  8
レイヤー_1
  6
CONTINUOUS
 62
       7
100
AcDbLine
 10
11.09432449
 20
-26.79172856
 30
0.0
 11
9.30298949
 21
-26.25380326
 31
0.0
  0
LINE
  5
36E
100
AcDbEntity
  8
レイヤー_1
  6
CONTINUOUS
 62
       7
100
AcDbLine
 10
9.30298949
 20
-26.25380326
 30
0.0
 11
7.68950514
 21
-20.34245607
 31
0.0
  0
LINE
  5
36F
100
AcDbEntity
  8
レイヤー_1
  6
CONTINUOUS
 62
       7
100
AcDbLine
 10
7.68950514
 20
-20.34245607
 30
0.0
 11
4.82173641
 21
-21.41772356
 31
0.0
  0
LINE
  5
370
100
AcDbEntity
  8
レイヤー_1
  6
CONTINUOUS
 62
       7
100
AcDbLine
 10
4.82173641
 20
-21.41772356
 30
0.0
 11
-4.49530481
 21
-21.41772356
 31
0.0
  0
LINE
  5
371
100
AcDbEntity
  8
レイヤー_1
  6
CONTINUOUS
 62
       7
100
AcDbLine
 10
-4.49530481
 20
-21.41772356
 30
0.0
 11
-6.28722292
 21
-20.87979826
 31
0.0
  0
LINE
  5
372
100
AcDbEntity
  8
レイヤー_1
  6
CONTINUOUS
 62
       7
100
AcDbLine
 10
-6.28722292
 20
-20.87979826
 30
0.0
 11
-7.90012416
 21
-14.96845107
 31
0.0
  0
LINE
  5
373
100
AcDbEntity
  8
レイヤー_1
  6
CONTINUOUS
 62
       7
100
AcDbLine
 10
-7.90012416
 20
-14.96845107
 30
0.0
 11
-16.49876541
 21
-17.83505357
 31
0.0
  0
LINE
  5
374
100
AcDbEntity
  8
レイヤー_1
  6
CONTINUOUS
 62
       7
100
AcDbLine
 10
-16.49876541
 20
-17.83505357
 30
0.0
 11
-16.49876541
 21
39.66726641
 31
0.0
  0
LINE
  5
375
100
AcDbEntity
  8
レイヤー_1
  6
CONTINUOUS
 62
       7
100
AcDbLine
 10
-16.49876541
 20
39.66726641
 30
0.0
 11
-7.90012416
 21
36.80124704
 31
0.0
  0
LINE
  5
376
100
AcDbEntity
  8
レイヤー_1
  6
CONTINUOUS
 62
       7
100
AcDbLine
 10
-7.90012416
 20
36.80124704
 30
0.0
 11
-6.28722292
 21
42.71259422
 31
0.0
  0
LINE
  5
377
100
AcDbEntity
  8
レイヤー_1
  6
CONTINUOUS
 62
       7
100
AcDbLine
 10
-6.28722292
 20
42.71259422
 30
0.0
 11
-4.49530481
 21
43.24993641
 31
0.0
  0
LINE
  5
378
100
AcDbEntity
  8
レイヤー_1
  6
CONTINUOUS
 62
       7
100
AcDbLine
 10
-4.49530481
 20
43.24993641
 30
0.0
 11
4.82173641
 21
43.24993641
 31
0.0
  0
LINE
  5
379
100
AcDbEntity
  8
レイヤー_1
  6
CONTINUOUS
 62
       7
100
AcDbLine
 10
4.82173641
 20
43.24993641
 30
0.0
 11
7.68950514
 21
42.17525204
 31
0.0
  0
LINE
  5
37A
100
AcDbEntity
  8
レイヤー_1
  6
CONTINUOUS
 62
       7
100
AcDbLine
 10
7.68950514
 20
42.17525204
 30
0.0
 11
9.30298949
 21
48.08659922
 31
0.0
  0
LINE
  5
37B
100
AcDbEntity
  8
レイヤー_1
  6
CONTINUOUS
 62
       7
100
AcDbLine
 10
9.30298949
 20
48.08659922
 30
0.0
 11
11.09432449
 21
48.62394141
 31
0.0
  0
LINE
  5
37C
100
AcDbEntity
  8
レイヤー_1
  6
CONTINUOUS
 62
       7
100
AcDbLine
 10
11.09432449
 20
48.62394141
 30
0.0
 11
20.41078259
 21
48.62394141
 31
0.0
  0
LINE
  5
37D
100
AcDbEntity
  8
レイヤー_1
  6
CONTINUOUS
 62
       7
100
AcDbLine
 10
20.41078259
 20
48.62394141
 30
0.0
 11
23.63483572
 21
47.3699486
 31
0.0
  0
LINE
  5
37E
100
AcDbEntity
  8
レイヤー_1
  6
CONTINUOUS
 62
       7
100
AcDbLine
 10
23.63483572
 20
47.3699486
 30
0.0
 11
25.24715385
 21
53.28100423
 31
0.0
  0
LINE
  5
37F
100
AcDbEntity
  8
レイヤー_1
  6
CONTINUOUS
 62
       7
100
AcDbLine
 10
25.24715385
 20
53.28100423
 30
0.0
 11
27.03848885
 21
53.81892953
 31
0.0
  0
LINE
  5
380
100
AcDbEntity
  8
レイヤー_1
  6
CONTINUOUS
 62
       7
100
AcDbLine
 10
27.03848885
 20
53.81892953
 30
0.0
 11
36.35436383
 21
53.81892953
 31
0.0
  0
LINE
  5
381
100
AcDbEntity
  8
レイヤー_1
  6
CONTINUOUS
 62
       7
100
AcDbLine
 10
36.35436383
 20
53.81892953
 30
0.0
 11
39.39881697
 21
52.7439536
 31
0.0
  0
LINE
  5
382
100
AcDbEntity
  8
レイヤー_1
  6
CONTINUOUS
 62
       7
100
AcDbLine
 10
39.39881697
 20
52.7439536
 30
0.0
 11
40.78457704
 21
57.97876878
 31
0.0
  0
LINE
  5
383
100
AcDbEntity
  8
レイヤー_1
  6
CONTINUOUS
 62
       7
100
AcDbLine
 10
77.14729572
 20
57.97876878
 30
0.0
 11
78.75279085
 21
51.8482861
 31
0.0
  0
LINE
  5
384
100
AcDbEntity
  8
レイヤー_1
  6
CONTINUOUS
 62
       7
100
AcDbLine
 10
78.75279085
 20
51.8482861
 30
0.0
 11
78.75279085
 21
30.53157454
 31
0.0
  0
LINE
  5
385
100
AcDbEntity
  8
レイヤー_1
  6
CONTINUOUS
 62
       7
100
AcDbLine
 10
78.75279085
 20
30.53157454
 30
0.0
 11
72.1250846
 21
26.59057923
 31
0.0
  0
LINE
  5
386
100
AcDbEntity
  8
レイヤー_1
  6
CONTINUOUS
 62
       7
100
AcDbLine
 10
72.1250846
 20
26.59057923
 30
0.0
 11
69.97571585
 21
21.39559111
 31
0.0
  0
LINE
  5
387
100
AcDbEntity
  8
レイヤー_1
  6
CONTINUOUS
 62
       7
100
AcDbLine
 10
69.97571585
 20
21.39559111
 30
0.0
 11
74.78118191
 21
16.74115232
 31
0.0
  0
LINE
  5
388
100
AcDbEntity
  8
レイヤー_1
  6
CONTINUOUS
 62
       7
100
AcDbLine
 10
74.78118191
 20
16.74115232
 30
0.0
 11
74.78118191
 21
-1.27249378
 31
0.0
  0
LINE
  5
389
100
AcDbEntity
  8
レイヤー_1
  6
CONTINUOUS
 62
       7
100
AcDbLine
 10
-80.44044489
 20
-5.23972935
 30
0.0
 11
-83.84322334
 21
-5.23972935
 31
0.0
  0
LINE
  5
38A
100
AcDbEntity
  8
レイヤー_1
  6
CONTINUOUS
 62
       7
100
AcDbLine
 10
-83.84322334
 20
-5.23972935
 30
0.0
 11
-83.84322334
 21
-6.36514489
 31
0.0
  0
LINE
  5
38B
100
AcDbEntity
  8
レイヤー_1
  6
CONTINUOUS
 62
       7
100
AcDbLine
 10
-83.84322334
 20
-6.36514489
 30
0.0
 11
-80.44044489
 21
-6.36514489
 31
0.0
  0
LINE
  5
38C
100
AcDbEntity
  8
レイヤー_1
  6
CONTINUOUS
 62
       7
100
AcDbLine
 10
-80.44044489
 20
-6.36514489
 30
0.0
 11
-80.44044489
 21
-5.23972935
 31
0.0
  0
LINE
  5
38D
100
AcDbEntity
  8
レイヤー_1
  6
CONTINUOUS
 62
       7
100
AcDbLine
 10
-80.44044489
 20
-2.19206907
 30
0.0
 11
-83.84322334
 21
-2.19206907
 31
0.0
  0
LINE
  5
38E
100
AcDbEntity
  8
レイヤー_1
  6
CONTINUOUS
 62
       7
100
AcDbLine
 10
-83.84322334
 20
-2.19206907
 30
0.0
 11
-83.84322334
 21
-3.31748461
 31
0.0
  0
LINE
  5
38F
100
AcDbEntity
  8
レイヤー_1
  6
CONTINUOUS
 62
       7
100
AcDbLine
 10
-83.84322334
 20
-3.31748461
 30
0.0
 11
-80.44044489
 21
-3.31748461
 31
0.0
  0
LINE
  5
390
100
AcDbEntity
  8
レイヤー_1
  6
CONTINUOUS
 62
       7
100
AcDbLine
 10
-80.44044489
 20
-3.31748461
 30
0.0
 11
-80.44044489
 21
-2.19206907
 31
0.0
  0
LINE
  5
391
100
AcDbEntity
  8
レイヤー_1
  6
CONTINUOUS
 62
       7
100
AcDbLine
 10
-86.17452455
 20
-18.06742563
 30
0.0
 11
-79.06516377
 21
-18.06742563
 31
0.0
  0
LINE
  5
392
100
AcDbEntity
  8
レイヤー_1
  6
CONTINUOUS
 62
       7
100
AcDbLine
 10
-83.83185256
 20
46.15735709
 30
0.0
 11
-81.03143383
 21
43.35693836
 31
0.0
  0
LINE
  5
393
100
AcDbEntity
  8
レイヤー_1
  6
CONTINUOUS
 62
       7
100
AcDbLine
 10
-84.24265839
 20
45.74713437
 30
0.0
 11
-81.44165655
 21
42.94554941
 31
0.0
  0
LINE
  5
394
100
AcDbEntity
  8
レイヤー_1
  6
CONTINUOUS
 62
       7
100
AcDbLine
 10
-83.83185256
 20
51.44301988
 30
0.0
 11
-81.03143383
 21
48.64260115
 31
0.0
  0
LINE
  5
395
100
AcDbEntity
  8
レイヤー_1
  6
CONTINUOUS
 62
       7
100
AcDbLine
 10
-84.24265839
 20
51.03279717
 30
0.0
 11
-81.44165655
 21
48.23121221
 31
0.0
  0
LINE
  5
396
100
AcDbEntity
  8
レイヤー_1
  6
CONTINUOUS
 62
       7
100
AcDbLine
 10
-83.83185256
 20
56.81994046
 30
0.0
 11
-81.03143383
 21
54.01952173
 31
0.0
  0
LINE
  5
397
100
AcDbEntity
  8
レイヤー_1
  6
CONTINUOUS
 62
       7
100
AcDbLine
 10
-84.24265839
 20
56.40913463
 30
0.0
 11
-81.44165655
 21
53.60813279
 31
0.0
  0
LINE
  5
398
100
AcDbEntity
  8
レイヤー_1
  6
CONTINUOUS
 62
       7
100
AcDbLine
 10
-83.83185256
 20
40.98336117
 30
0.0
 11
-82.18163184
 21
39.36171318
 31
0.0
  0
LINE
  5
399
100
AcDbEntity
  8
レイヤー_1
  6
CONTINUOUS
 62
       7
100
AcDbLine
 10
-84.24265839
 20
40.57313846
 30
0.0
 11
-83.02715129
 21
39.39145214
 31
0.0
  0
LINE
  5
39A
100
AcDbEntity
  8
レイヤー_1
  6
CONTINUOUS
 62
       7
100
AcDbLine
 10
-84.23012138
 20
-19.23161845
 30
0.0
 11
-83.0860461
 21
-18.09133343
 31
0.0
  0
LINE
  5
39B
100
AcDbEntity
  8
レイヤー_1
  6
CONTINUOUS
 62
       7
100
AcDbLine
 10
-83.83185256
 20
-19.66108402
 30
0.0
 11
-82.3201221
 21
-18.1216555
 31
0.0
  0
LINE
  5
39C
100
AcDbEntity
  8
レイヤー_1
  6
CONTINUOUS
 62
       7
100
AcDbLine
 10
-84.23012138
 20
-35.08802371
 30
0.0
 11
-81.42970266
 21
-32.28760499
 31
0.0
  0
LINE
  5
39D
100
AcDbEntity
  8
レイヤー_1
  6
CONTINUOUS
 62
       7
100
AcDbLine
 10
-83.83185256
 20
-35.51748928
 30
0.0
 11
-81.03143383
 21
-32.71619588
 31
0.0
  0
LINE
  5
39E
100
AcDbEntity
  8
レイヤー_1
  6
CONTINUOUS
 62
       7
100
AcDbLine
 10
-83.85692659
 20
-30.07001156
 30
0.0
 11
-81.05650786
 21
-27.2684266
 31
0.0
  0
LINE
  5
39F
100
AcDbEntity
  8
レイヤー_1
  6
CONTINUOUS
 62
       7
100
AcDbLine
 10
-84.23012138
 20
-29.69681677
 30
0.0
 11
-81.42970265
 21
-26.89523181
 31
0.0
  0
LINE
  5
3A0
100
AcDbEntity
  8
レイヤー_1
  6
CONTINUOUS
 62
       7
100
AcDbLine
 10
-84.23012138
 20
-24.45780332
 30
0.0
 11
-81.42970265
 21
-21.65650992
 31
0.0
  0
LINE
  5
3A1
100
AcDbEntity
  8
レイヤー_1
  6
CONTINUOUS
 62
       7
100
AcDbLine
 10
-83.83185256
 20
-24.88639422
 30
0.0
 11
-81.03143383
 21
-22.08597549
 31
0.0
  0
LINE
  5
3A2
100
AcDbEntity
  8
レイヤー_1
  6
CONTINUOUS
 62
       7
100
AcDbLine
 10
-79.06516377
 20
53.00373216
 30
0.0
 11
-86.17452455
 21
53.00373216
 31
0.0
  0
LINE
  5
3A3
100
AcDbEntity
  8
レイヤー_1
  6
CONTINUOUS
 62
       7
100
AcDbLine
 10
-86.17452455
 20
53.54107435
 30
0.0
 11
-79.06516377
 21
53.54107435
 31
0.0
  0
LINE
  5
3A4
100
AcDbEntity
  8
レイヤー_1
  6
CONTINUOUS
 62
       7
100
AcDbLine
 10
-79.06516377
 20
47.62972716
 30
0.0
 11
-86.17452455
 21
47.62972716
 31
0.0
  0
LINE
  5
3A5
100
AcDbEntity
  8
レイヤー_1
  6
CONTINUOUS
 62
       7
100
AcDbLine
 10
-86.17452455
 20
48.16706935
 30
0.0
 11
-79.06516377
 21
48.16706935
 31
0.0
  0
LINE
  5
3A6
100
AcDbEntity
  8
レイヤー_1
  6
CONTINUOUS
 62
       7
100
AcDbLine
 10
-79.06516377
 20
42.4055832
 30
0.0
 11
-86.17452455
 21
42.4055832
 31
0.0
  0
LINE
  5
3A7
100
AcDbEntity
  8
レイヤー_1
  6
CONTINUOUS
 62
       7
100
AcDbLine
 10
-86.17452455
 20
42.94321694
 30
0.0
 11
-79.06516377
 21
42.94321694
 31
0.0
  0
LINE
  5
3A8
100
AcDbEntity
  8
レイヤー_1
  6
CONTINUOUS
 62
       7
100
AcDbLine
 10
-79.06516377
 20
-31.68145501
 30
0.0
 11
-86.17452455
 21
-31.68145501
 31
0.0
  0
LINE
  5
3A9
100
AcDbEntity
  8
レイヤー_1
  6
CONTINUOUS
 62
       7
100
AcDbLine
 10
-86.17452455
 20
-32.2187972
 30
0.0
 11
-79.06516377
 21
-32.2187972
 31
0.0
  0
LINE
  5
3AA
100
AcDbEntity
  8
レイヤー_1
  6
CONTINUOUS
 62
       7
100
AcDbLine
 10
-79.06516377
 20
-26.30745001
 30
0.0
 11
-86.17452455
 21
-26.30745001
 31
0.0
  0
LINE
  5
3AB
100
AcDbEntity
  8
レイヤー_1
  6
CONTINUOUS
 62
       7
100
AcDbLine
 10
-86.17452455
 20
-26.8447922
 30
0.0
 11
-79.06516377
 21
-26.8447922
 31
0.0
  0
LINE
  5
3AC
100
AcDbEntity
  8
レイヤー_1
  6
CONTINUOUS
 62
       7
100
AcDbLine
 10
-86.19289274
 20
0.92731458
 30
0.0
 11
-84.77591876
 21
0.92731458
 31
0.0
  0
LINE
  5
3AD
100
AcDbEntity
  8
レイヤー_1
  6
CONTINUOUS
 62
       7
100
AcDbLine
 10
-84.77591876
 20
0.92731458
 30
0.0
 11
-84.77183694
 21
0.25847954
 31
0.0
  0
LINE
  5
3AE
100
AcDbEntity
  8
レイヤー_1
  6
CONTINUOUS
 62
       7
100
AcDbLine
 10
-84.77183694
 20
0.25847954
 30
0.0
 11
-80.35385204
 21
0.25847954
 31
0.0
  0
LINE
  5
3AF
100
AcDbEntity
  8
レイヤー_1
  6
CONTINUOUS
 62
       7
100
AcDbLine
 10
-80.35385204
 20
0.25847954
 30
0.0
 11
-80.35385204
 21
0.93460354
 31
0.0
  0
LINE
  5
3B0
100
AcDbEntity
  8
レイヤー_1
  6
CONTINUOUS
 62
       7
100
AcDbLine
 10
-80.35385204
 20
0.93460354
 30
0.0
 11
-79.06516377
 21
0.93460354
 31
0.0
  0
LINE
  5
3B1
100
AcDbEntity
  8
レイヤー_1
  6
CONTINUOUS
 62
       7
100
AcDbLine
 10
-79.06516377
 20
5.19893715
 30
0.0
 11
-80.35385204
 21
5.19893715
 31
0.0
  0
LINE
  5
3B2
100
AcDbEntity
  8
レイヤー_1
  6
CONTINUOUS
 62
       7
100
AcDbLine
 10
-84.76306094
 20
5.19252287
 30
0.0
 11
-86.19289274
 21
5.19252287
 31
0.0
  0
LINE
  5
3B3
100
AcDbEntity
  8
レイヤー_1
  6
CONTINUOUS
 62
       7
100
AcDbLine
 10
-86.19289274
 20
7.29844941
 30
0.0
 11
-84.77591876
 21
7.29844941
 31
0.0
  0
LINE
  5
3B4
100
AcDbEntity
  8
レイヤー_1
  6
CONTINUOUS
 62
       7
100
AcDbLine
 10
-84.77591876
 20
7.29844941
 30
0.0
 11
-84.76306094
 21
5.19252287
 31
0.0
  0
LINE
  5
3B5
100
AcDbEntity
  8
レイヤー_1
  6
CONTINUOUS
 62
       7
100
AcDbLine
 10
-80.35385204
 20
5.19893715
 30
0.0
 11
-80.35385204
 21
7.30573837
 31
0.0
  0
LINE
  5
3B6
100
AcDbEntity
  8
レイヤー_1
  6
CONTINUOUS
 62
       7
100
AcDbLine
 10
-80.35385204
 20
7.30573837
 30
0.0
 11
-79.06516377
 21
7.30573837
 31
0.0
  0
LINE
  5
3B7
100
AcDbEntity
  8
レイヤー_1
  6
CONTINUOUS
 62
       7
100
AcDbLine
 10
-79.06516377
 20
-21.08330604
 30
0.0
 11
-86.17452455
 21
-21.08330604
 31
0.0
  0
LINE
  5
3B8
100
AcDbEntity
  8
レイヤー_1
  6
CONTINUOUS
 62
       7
100
AcDbLine
 10
-86.17452455
 20
-21.62006512
 30
0.0
 11
-79.06516377
 21
-21.62006512
 31
0.0
  0
LINE
  5
3B9
100
AcDbEntity
  8
レイヤー_1
  6
CONTINUOUS
 62
       7
100
AcDbLine
 10
81.50123459
 20
-37.02123122
 30
0.0
 11
81.50123459
 21
-15.19470041
 31
0.0
  0
LINE
  5
3BA
100
AcDbEntity
  8
レイヤー_1
  6
CONTINUOUS
 62
       7
100
AcDbLine
 10
41.0162759
 20
-37.02123122
 30
0.0
 11
81.50123459
 21
-37.02123122
 31
0.0
  0
LINE
  5
3BB
100
AcDbEntity
  8
レイヤー_1
  6
CONTINUOUS
 62
       7
100
AcDbLine
 10
40.78457704
 20
57.97876878
 30
0.0
 11
77.14729572
 21
57.97876878
 31
0.0
  0
LINE
  5
3BC
100
AcDbEntity
  8
レイヤー_1
  6
CONTINUOUS
 62
       7
100
AcDbLine
 10
-86.11984416
 20
57.97876878
 30
0.0
 11
-86.11984416
 21
-37.02123122
 31
0.0
  0
LINE
  5
3BD
100
AcDbEntity
  8
レイヤー_1
  6
CONTINUOUS
 62
       7
100
AcDbLine
 10
-79.11984416
 20
57.97876878
 30
0.0
 11
-79.11984416
 21
-37.02123122
 31
0.0
  0
LINE
  5
3BE
100
AcDbEntity
  8
レイヤー_1
  6
CONTINUOUS
 62
       7
100
AcDbLine
 10
-79.11984416
 20
57.97876878
 30
0.0
 11
-86.11984416
 21
57.97876878
 31
0.0
  0
LINE
  5
3BF
100
AcDbEntity
  8
レイヤー_1
  6
CONTINUOUS
 62
       7
100
AcDbLine
 10
-79.11984416
 20
-37.02123122
 30
0.0
 11
-86.11984416
 21
-37.02123122
 31
0.0
  0
LINE
  5
3C0
100
AcDbEntity
  8
レイヤー_1
  6
CENTERX2
 62
       7
100
AcDbLine
 10
-22.2219867
 20
10.47876878
 30
0.0
 11
90.87054236
 21
10.47876878
 31
0.0
  0
LINE
  5
3C1
100
AcDbEntity
  8
レイヤー_1
  6
CENTERX2
 62
       7
100
AcDbLine
 10
-82.61984416
 20
61.94385498
 30
0.0
 11
-82.61984416
 21
-39.76578718
 31
0.0
  0
LINE
  5
3C2
100
AcDbEntity
  8
レイヤー_1
  6
CENTERX2
 62
       7
100
AcDbLine
 10
-72.14900212
 20
10.47876878
 30
0.0
 11
-91.46939997
 21
10.47876878
 31
0.0
  0
LINE
  5
3C3
100
AcDbEntity
  8
0
  6
CONTINUOUS
 62
       7
100
AcDbLine
 10
-79.09270979
 20
12.57385288
 30
0.0
 11
-80.48048162
 21
12.57385288
 31
0.0
  0
LINE
  5
3C4
100
AcDbEntity
  8
0
  6
CONTINUOUS
 62
       7
100
AcDbLine
 10
-80.48048162
 20
12.57385288
 30
0.0
 11
-80.48448096
 21
13.22917371
 31
0.0
  0
LINE
  5
3C5
100
AcDbEntity
  8
0
  6
CONTINUOUS
 62
       7
100
AcDbLine
 10
-80.48448096
 20
13.22917371
 30
0.0
 11
-84.81376916
 21
13.22917371
 31
0.0
  0
LINE
  5
3C6
100
AcDbEntity
  8
0
  6
CONTINUOUS
 62
       7
100
AcDbLine
 10
-84.81376916
 20
13.22917371
 30
0.0
 11
-84.81376916
 21
12.56728254
 31
0.0
  0
LINE
  5
3C7
100
AcDbEntity
  8
0
  6
CONTINUOUS
 62
       7
100
AcDbLine
 10
-84.81376916
 20
12.56728254
 30
0.0
 11
-86.07584737
 21
12.56728254
 31
0.0
  0
LINE
  5
3C8
100
AcDbEntity
  8
0
  6
CONTINUOUS
 62
       7
100
AcDbLine
 10
-18.49876541
 20
10.91983912
 30
0.0
 11
-16.49876541
 21
10.91983912
 31
0.0
  0
LINE
  5
3C9
100
AcDbEntity
  8
0
  6
CONTINUOUS
 62
       7
100
AcDbLine
 10
-16.49876541
 20
8.62250255
 30
0.0
 11
-18.49876541
 21
8.62250255
 31
0.0
  0
CIRCLE
  5
3CA
100
AcDbEntity
  8
0
  6
CONTINUOUS
 62
       7
100
AcDbCircle
 10
-82.6199117
 20
9.77133155
 30
0.0
 40
1.14847126
  0
CIRCLE
  5
3CB
100
AcDbEntity
  8
0
  6
CONTINUOUS
 62
       7
100
AcDbCircle
 10
-82.61995827
 20
9.77154375
 30
0.0
 40
2.10614065
  0
LINE
  5
3CC
100
AcDbEntity
  8
SLD-0
  6
CONTINUOUS
 62
       7
100
AcDbLine
 10
-18.49876541
 20
8.62250255
 30
0.0
 11
-18.49876541
 21
10.91983912
 31
0.0
  0
TEXT
  5
3CD
100
AcDbEntity
  8
SLD-0
 62
       7
100
AcDbText
 10
85.2194
 20
-64.44385498
 30
0.0
 40
5.0
  1
000
 72
       5
 11
100.2194
 21
-64.44385498
 31
0.0
100
AcDbText
  0
ENDSEC
  0
SECTION
  2
OBJECTS
  0
DICTIONARY
  5
19
100
AcDbDictionary
  3
ACAD_GROUP
350
1A
  3
ACAD_MLINESTYLE
350
1B
  0
DICTIONARY
  5
1A
102
{ACAD_REACTORS
330
19
102
}
100
AcDbDictionary
  0
DICTIONARY
  5
1B
102
{ACAD_REACTORS
330
19
102
}
100
AcDbDictionary
  3
STANDARD
350
1C
  0
MLINESTYLE
  5
1C
102
{ACAD_REACTORS
330
1B
102
}
100
AcDbMlineStyle
  2
STANDARD
 70
       0
  3

 62
       0
 51
90.0
 52
90.0
 71
       2
 49
0.5
 62
     256
  6
BYLAYER
 49
-0.5
 62
     256
  6
BYLAYER
  0
ENDSEC
  0
EOF
