  0
SECTION
  2
HEADER
  9
$ACADVER
  1
AC1014
  9
$ACADMAINTVER
 70
       0
  9
$DWGCODEPAGE
  3
ANSI_932
  9
$INSBASE
 10
0.0
 20
0.0
 30
0.0
  9
$EXTMIN
 10
-108.04280604
 20
-65.54305831
 30
0.0
  9
$EXTMAX
 10
107.76651267
 20
65.54305831
 30
0.0
  9
$LIMMIN
 10
-114.78684725
 20
-69.63949945
  9
$LIMMAX
 10
114.51055388
 20
69.63949945
  9
$ORTHOMODE
 70
       0
  9
$REGENMODE
 70
       1
  9
$FILLMODE
 70
       1
  9
$QTEXTMODE
 70
       0
  9
$MIRRTEXT
 70
       1
  9
$DRAGMODE
 70
       2
  9
$LTSCALE
 40
1.0
  9
$OSMODE
 70
       0
  9
$ATTMODE
 70
       1
  9
$TEXTSIZE
 40
0.2
  9
$TRACEWID
 40
0.05
  9
$TEXTSTYLE
  7
STANDARD
  9
$CLAYER
  8
0
  9
$CELTYPE
  6
CONTINUOUS
  9
$CECOLOR
 62
     256
  9
$CELTSCALE
 40
1.0
  9
$DELOBJ
 70
       1
  9
$DISPSILH
 70
       0
  9
$DIMSCALE
 40
1.0
  9
$DIMASZ
 40
0.18
  9
$DIMEXO
 40
0.0625
  9
$DIMDLI
 40
0.38
  9
$DIMRND
 40
0.0
  9
$DIMDLE
 40
0.0
  9
$DIMEXE
 40
0.18
  9
$DIMTP
 40
0.0
  9
$DIMTM
 40
0.0
  9
$DIMTXT
 40
0.18
  9
$DIMCEN
 40
0.09
  9
$DIMTSZ
 40
0.0
  9
$DIMTOL
 70
       0
  9
$DIMLIM
 70
       0
  9
$DIMTIH
 70
       1
  9
$DIMTOH
 70
       1
  9
$DIMSE1
 70
       0
  9
$DIMSE2
 70
       0
  9
$DIMTAD
 70
       0
  9
$DIMZIN
 70
       0
  9
$DIMBLK
  1

  9
$DIMASO
 70
       1
  9
$DIMSHO
 70
       1
  9
$DIMPOST
  1

  9
$DIMAPOST
  1

  9
$DIMALT
 70
       0
  9
$DIMALTD
 70
       2
  9
$DIMALTF
 40
25.4
  9
$DIMLFAC
 40
1.0
  9
$DIMTOFL
 70
       0
  9
$DIMTVP
 40
0.0
  9
$DIMTIX
 70
       0
  9
$DIMSOXD
 70
       0
  9
$DIMSAH
 70
       0
  9
$DIMBLK1
  1

  9
$DIMBLK2
  1

  9
$DIMSTYLE
  2
STANDARD
  9
$DIMCLRD
 70
       0
  9
$DIMCLRE
 70
       0
  9
$DIMCLRT
 70
       0
  9
$DIMTFAC
 40
1.0
  9
$DIMGAP
 40
0.09
  9
$DIMJUST
 70
       0
  9
$DIMSD1
 70
       0
  9
$DIMSD2
 70
       0
  9
$DIMTOLJ
 70
       1
  9
$DIMTZIN
 70
       0
  9
$DIMALTZ
 70
       0
  9
$DIMALTTZ
 70
       0
  9
$DIMFIT
 70
       3
  9
$DIMUPT
 70
       0
  9
$DIMUNIT
 70
       2
  9
$DIMDEC
 70
       4
  9
$DIMTDEC
 70
       4
  9
$DIMALTU
 70
       2
  9
$DIMALTTD
 70
       2
  9
$DIMTXSTY
  7
STANDARD
  9
$DIMAUNIT
 70
       0
  9
$LUNITS
 70
       2
  9
$LUPREC
 70
       4
  9
$SKETCHINC
 40
0.1
  9
$FILLETRAD
 40
0.0
  9
$AUNITS
 70
       0
  9
$AUPREC
 70
       0
  9
$MENU
  1
acad
  9
$ELEVATION
 40
0.0
  9
$PELEVATION
 40
0.0
  9
$THICKNESS
 40
0.0
  9
$LIMCHECK
 70
       0
  9
$BLIPMODE
 70
       1
  9
$CHAMFERA
 40
0.0
  9
$CHAMFERB
 40
0.0
  9
$CHAMFERC
 40
0.0
  9
$CHAMFERD
 40
0.0
  9
$SKPOLY
 70
       0
  9
$TDCREATE
 40
0.000000000
  9
$TDUPDATE
 40
0.000000000
  9
$TDINDWG
 40
0.0000000000
  9
$TDUSRTIMER
 40
0.0000000000
  9
$USRTIMER
 70
       1
  9
$ANGBASE
 50
0.0
  9
$ANGDIR
 70
       0
  9
$PDMODE
 70
       0
  9
$PDSIZE
 40
1.0
  9
$PLINEWID
 40
0.0
  9
$COORDS
 70
       1
  9
$SPLFRAME
 70
       0
  9
$SPLINETYPE
 70
       6
  9
$SPLINESEGS
 70
       8
  9
$ATTDIA
 70
       0
  9
$ATTREQ
 70
       1
  9
$HANDLING
 70
       1
  9
$HANDSEED
  5
381
  9
$SURFTAB1
 70
       6
  9
$SURFTAB2
 70
       6
  9
$SURFTYPE
 70
       6
  9
$SURFU
 70
       6
  9
$SURFV
 70
       6
  9
$UCSNAME
  2

  9
$UCSORG
 10
0.0
 20
0.0
 30
0.0
  9
$UCSXDIR
 10
1.0
 20
0.0
 30
0.0
  9
$UCSYDIR
 10
0.0
 20
1.0
 30
0.0
  9
$PUCSNAME
  2

  9
$PUCSORG
 10
0.0
 20
0.0
 30
0.0
  9
$PUCSXDIR
 10
1.0
 20
0.0
 30
0.0
  9
$PUCSYDIR
 10
0.0
 20
1.0
 30
0.0
  9
$USERI1
 70
       0
  9
$USERI2
 70
       0
  9
$USERI3
 70
       0
  9
$USERI4
 70
       0
  9
$USERI5
 70
       0
  9
$USERR1
 40
0.0
  9
$USERR2
 40
0.0
  9
$USERR3
 40
0.0
  9
$USERR4
 40
0.0
  9
$USERR5
 40
0.0
  9
$WORLDVIEW
 70
       1
  9
$SHADEDGE
 70
       3
  9
$SHADEDIF
 70
      70
  9
$TILEMODE
 70
       1
  9
$MAXACTVP
 70
      16
  9
$PINSBASE
 10
0.0
 20
0.0
 30
0.0
  9
$PLIMCHECK
 70
       0
  9
$PEXTMIN
 10
1.00000000E+20
 20
1.00000000E+20
 30
1.00000000E+20
  9
$PEXTMAX
 10
-1.00000000E+20
 20
-1.00000000E+20
 30
-1.00000000E+20
  9
$PLIMMIN
 10
0.0
 20
0.0
  9
$PLIMMAX
 10
12.0
 20
9.0
  9
$UNITMODE
 70
       0
  9
$VISRETAIN
 70
       0
  9
$PLINEGEN
 70
       1
  9
$PSLTSCALE
 70
       0
  9
$TREEDEPTH
 70
    3020
  9
$PICKSTYLE
 70
       1
  9
$CMLSTYLE
  2
STANDARD
  9
$CMLJUST
 70
       0
  9
$CMLSCALE
 40
1.0
  9
$PROXYGRAPHICS
 70
       0
  9
$MEASUREMENT
 70
       0
  0
ENDSEC
  0
SECTION
  2
CLASSES
  0
CLASS
  1
LWPOLYLINE
  2
AcDbPolyline
  3
"AutoCAD"
 90
        0
280
       0
281
       1
  0
CLASS
  1
IMAGE
  2
AcDbRasterImage
  3
ISM
 90
      127
280
       0
281
       1
  0
CLASS
  1
OLE2FRAME
  2
AcDbOle2Frame
  3
""
 90
        0
280
       0
281
       1
  0
CLASS
  1
HATCH
  2
AcDbHatch
  3
"ACAD_SEDONA"
 90
        0
280
       0
281
       1
  0
CLASS
  1
DICTIONARYVAR
  2
AcDbDictionaryVar
  3
"AutoCAD"
 90
        0
280
       0
281
       0
  0
CLASS
  1
RASTERVARIABLES
  2
AcDbRasterVariables
  3
ISM
 90
        0
280
       0
281
       0
  0
CLASS
  1
IMAGEDEF
  2
AcDbRasterImageDef
  3
ISM
 90
        0
280
       0
281
       0
  0
CLASS
  1
IMAGEDEF_REACTOR
  2
AcDbRasterImageDefReactor
  3
ISM
 90
        1
280
       0
281
       0
  0
CLASS
  1
IDBUFFER
  2
AcDbIdBuffer
  3
"Acad"
 90
        0
280
       0
281
       0
  0
CLASS
  1
SPATIAL_FILTER
  2
AcDbSpatialFilter
  3
"Acad"
 90
        0
280
       0
281
       0
  0
CLASS
  1
XRECORD
  2
AcDbXrecord
  3
"<Built In>"
 90
        0
280
       0
281
       0
  0
CLASS
  1
SORTENTSTABLE
  2
AcDbSortentsTable
  3
"AutoCAD"
 90
        0
280
       0
281
       0
  0
CLASS
  1
LAYER_INDEX
  2
AcDbLayerIndex
  3
"Acad"
 90
        0
280
       0
281
       0
  0
CLASS
  1
SPATIAL_INDEX
  2
AcDbSpatialIndex
  3
"Acad"
 90
        0
280
       0
281
       0
  0
CLASS
  1
OBJECT_PTR
  2
CAseDLPNTableRecord
  3
"ASE-LPNTableRecord"
 90
        1
280
       0
281
       0
  0
CLASS
  1
LAYOUT
  2
AcDbLayout
  3
"AutoCAD 2000"
 90
        1
280
       0
281
       0
  0
CLASS
  1
PLOTSETTINGS
  2
AcDbPlotSettings
  3
"AutoCAD 2000"
 90
        1
280
       0
281
       0
  0
CLASS
  1
ACDBDICTIONARYWDFLT
  2
AcDbDictionaryWithDefault
  3
"AutoCAD 2000"
 90
        1
280
       0
281
       0
  0
CLASS
  1
ACDBPLACEHOLDER
  2
AcDbPlaceHolder
  3
"AutoCAD 2000"
 90
        1
280
       0
281
       0
  0
CLASS
  1
VBA_PROJECT
  2
AcDbVbaProject
  3
"acadvba"
 90
        1
280
       0
281
       0
  0
CLASS
  1
WIPEOUT
  2
AcDbWipeout
  3
WipeOut|AutoCAD Express Tool|expresstools@autodesk.com
 90
      127
280
       0
281
       1
  0
CLASS
  1
WIPEOUTVARIABLES
  2
AcDbWipeoutVariables
  3
WipeOut|AutoCAD Express Tool|expresstools@autodesk.com
 90
        0
280
       0
281
       0
  0
CLASS
  1
RTEXT
  2
RText
  3
RText|AutoCAD Express Tool|expresstools@autodesk.com
 90
        0
280
       0
281
       1
  0
CLASS
  1
ARCALIGNEDTEXT
  2
AcDbArcAlignedText
  3
ATEXT|AutoCAD Express Tool|expresstools@autodesk.com
 90
        0
280
       0
281
       1
  0
ENDSEC
  0
SECTION
  2
TABLES
  0
TABLE
  2
VPORT
  5
7
100
AcDbSymbolTable
 70
       1
  0
VPORT
  5
15
100
AcDbSymbolTableRecord
100
AcDbViewportTableRecord
  2
*ACTIVE
 70
       0
 10
0.0
 20
0.0
 11
1.0
 21
1.0
 12
-0.13814668
 22
0.0
 13
0.0
 23
0.0
 14
1.0
 24
1.0
 15
0.0
 25
0.0
 16
0.0
 26
0.0
 36
1.0
 17
0.0
 27
0.0
 37
0.0
 40
139.2789989
 41
1.64631713
 42
50.0
 43
0.0
 44
0.0
 50
0.0
 51
0.0
 71
       0
 72
     100
 73
       1
 74
       1
 75
       0
 76
       0
 77
       0
 78
       0
  0
ENDTAB
  0
TABLE
  2
LTYPE
  5
4
100
AcDbSymbolTable
 70
      30
  0
LTYPE
  5
11
100
AcDbSymbolTableRecord
100
AcDbLinetypeTableRecord
  2
BYBLOCK
 70
      64
  3

 72
      65
 73
       0
 40
0.0
  0
LTYPE
  5
12
100
AcDbSymbolTableRecord
100
AcDbLinetypeTableRecord
  2
BYLAYER
 70
      64
  3

 72
      65
 73
       0
 40
0.0
  0
LTYPE
  5
13
100
AcDbSymbolTableRecord
100
AcDbLinetypeTableRecord
  2
CONTINUOUS
 70
      64
  3
Solid line
 72
      65
 73
       0
 40
0.0
  0
LTYPE
  5
1D
100
AcDbSymbolTableRecord
100
AcDbLinetypeTableRecord
  2
HIDDENX2
 70
      64
  3
CADPAC LINETYPE
 72
      65
 73
       2
 40
8.9864387
 49
6.73982903
 74
       0
 49
-2.24660968
 74
       0
  0
LTYPE
  5
1E
100
AcDbSymbolTableRecord
100
AcDbLinetypeTableRecord
  2
HIDDEN
 70
      64
  3
CADPAC LINETYPE
 72
      65
 73
       2
 40
6.73982903
 49
4.49321935
 74
       0
 49
-2.24660968
 74
       0
  0
LTYPE
  5
1F
100
AcDbSymbolTableRecord
100
AcDbLinetypeTableRecord
  2
HIDDEN2
 70
      64
  3
CADPAC LINETYPE
 72
      65
 73
       2
 40
5.61652419
 49
3.36991451
 74
       0
 49
-2.24660968
 74
       0
  0
LTYPE
  5
20
100
AcDbSymbolTableRecord
100
AcDbLinetypeTableRecord
  2
DASHED
 70
      64
  3
CADPAC LINETYPE
 72
      65
 73
       2
 40
6.73982903
 49
4.49321935
 74
       0
 49
-2.24660968
 74
       0
  0
LTYPE
  5
21
100
AcDbSymbolTableRecord
100
AcDbLinetypeTableRecord
  2
DASHED2
 70
      64
  3
CADPAC LINETYPE
 72
      65
 73
       2
 40
5.05487177
 49
3.36991451
 74
       0
 49
-1.68495726
 74
       0
  0
LTYPE
  5
22
100
AcDbSymbolTableRecord
100
AcDbLinetypeTableRecord
  2
DASHEDX2
 70
      64
  3
CADPAC LINETYPE
 72
      65
 73
       2
 40
10.10974354
 49
6.73982903
 74
       0
 49
-3.36991451
 74
       0
  0
LTYPE
  5
23
100
AcDbSymbolTableRecord
100
AcDbLinetypeTableRecord
  2
DOTX2
 70
      64
  3
CADPAC LINETYPE
 72
      65
 73
       2
 40
2.80826209
 49
0.0
 74
       0
 49
-2.80826209
 74
       0
  0
LTYPE
  5
24
100
AcDbSymbolTableRecord
100
AcDbLinetypeTableRecord
  2
DOT
 70
      64
  3
CADPAC LINETYPE
 72
      65
 73
       2
 40
2.24660968
 49
0.0
 74
       0
 49
-2.24660968
 74
       0
  0
LTYPE
  5
25
100
AcDbSymbolTableRecord
100
AcDbLinetypeTableRecord
  2
DOT2
 70
      64
  3
CADPAC LINETYPE
 72
      65
 73
       2
 40
1.68495726
 49
0.0
 74
       0
 49
-1.68495726
 74
       0
  0
LTYPE
  5
26
100
AcDbSymbolTableRecord
100
AcDbLinetypeTableRecord
  2
CENTERX2
 70
      64
  3
CADPAC LINETYPE
 72
      65
 73
       4
 40
13.47965805
 49
5.61652419
 74
       0
 49
-2.80826209
 74
       0
 49
2.24660968
 74
       0
 49
-2.80826209
 74
       0
  0
LTYPE
  5
27
100
AcDbSymbolTableRecord
100
AcDbLinetypeTableRecord
  2
CENTER
 70
      64
  3
CADPAC LINETYPE
 72
      65
 73
       4
 40
10.33440451
 49
4.49321935
 74
       0
 49
-2.24660968
 74
       0
 49
1.34796581
 74
       0
 49
-2.24660968
 74
       0
  0
LTYPE
  5
28
100
AcDbSymbolTableRecord
100
AcDbLinetypeTableRecord
  2
CENTER2
 70
      64
  3
CADPAC LINETYPE
 72
      65
 73
       4
 40
7.18915096
 49
3.36991451
 74
       0
 49
-1.68495726
 74
       0
 49
0.44932194
 74
       0
 49
-1.68495726
 74
       0
  0
LTYPE
  5
29
100
AcDbSymbolTableRecord
100
AcDbLinetypeTableRecord
  2
DASHDOTX2
 70
      64
  3
CADPAC LINETYPE
 72
      65
 73
       4
 40
11.23304838
 49
5.61652419
 74
       0
 49
-2.80826209
 74
       0
 49
0.0
 74
       0
 49
-2.80826209
 74
       0
  0
LTYPE
  5
2A
100
AcDbSymbolTableRecord
100
AcDbLinetypeTableRecord
  2
DASHDOT
 70
      64
  3
CADPAC LINETYPE
 72
      65
 73
       4
 40
8.9864387
 49
4.49321935
 74
       0
 49
-2.24660968
 74
       0
 49
0.0
 74
       0
 49
-2.24660968
 74
       0
  0
LTYPE
  5
2B
100
AcDbSymbolTableRecord
100
AcDbLinetypeTableRecord
  2
DASHDOT2
 70
      64
  3
CADPAC LINETYPE
 72
      65
 73
       4
 40
6.73982903
 49
3.36991451
 74
       0
 49
-1.68495726
 74
       0
 49
0.0
 74
       0
 49
-1.68495726
 74
       0
  0
LTYPE
  5
2C
100
AcDbSymbolTableRecord
100
AcDbLinetypeTableRecord
  2
DIVIDEX2
 70
      64
  3
CADPAC LINETYPE
 72
      65
 73
       6
 40
14.04131047
 49
5.61652419
 74
       0
 49
-2.80826209
 74
       0
 49
0.0
 74
       0
 49
-2.80826209
 74
       0
 49
0.0
 74
       0
 49
-2.80826209
 74
       0
  0
LTYPE
  5
2D
100
AcDbSymbolTableRecord
100
AcDbLinetypeTableRecord
  2
DIVIDE
 70
      64
  3
CADPAC LINETYPE
 72
      65
 73
       6
 40
11.23304838
 49
4.49321935
 74
       0
 49
-2.24660968
 74
       0
 49
0.0
 74
       0
 49
-2.24660968
 74
       0
 49
0.0
 74
       0
 49
-2.24660968
 74
       0
  0
LTYPE
  5
2E
100
AcDbSymbolTableRecord
100
AcDbLinetypeTableRecord
  2
DIVIDE2
 70
      64
  3
CADPAC LINETYPE
 72
      65
 73
       6
 40
8.42478628
 49
3.36991451
 74
       0
 49
-1.68495726
 74
       0
 49
0.0
 74
       0
 49
-1.68495726
 74
       0
 49
0.0
 74
       0
 49
-1.68495726
 74
       0
  0
LTYPE
  5
2F
100
AcDbSymbolTableRecord
100
AcDbLinetypeTableRecord
  2
BORDERX2
 70
      64
  3
CADPAC LINETYPE
 72
      65
 73
       6
 40
19.65783466
 49
5.61652419
 74
       0
 49
-2.80826209
 74
       0
 49
5.61652419
 74
       0
 49
-2.80826209
 74
       0
 49
0.0
 74
       0
 49
-2.80826209
 74
       0
  0
LTYPE
  5
30
100
AcDbSymbolTableRecord
100
AcDbLinetypeTableRecord
  2
BORDER
 70
      64
  3
CADPAC LINETYPE
 72
      65
 73
       6
 40
15.72626773
 49
4.49321935
 74
       0
 49
-2.24660968
 74
       0
 49
4.49321935
 74
       0
 49
-2.24660968
 74
       0
 49
0.0
 74
       0
 49
-2.24660968
 74
       0
  0
LTYPE
  5
31
100
AcDbSymbolTableRecord
100
AcDbLinetypeTableRecord
  2
BORDER2
 70
      64
  3
CADPAC LINETYPE
 72
      65
 73
       6
 40
11.7947008
 49
3.36991451
 74
       0
 49
-1.68495726
 74
       0
 49
3.36991451
 74
       0
 49
-1.68495726
 74
       0
 49
0.0
 74
       0
 49
-1.68495726
 74
       0
  0
LTYPE
  5
32
100
AcDbSymbolTableRecord
100
AcDbLinetypeTableRecord
  2
PHANTOMX2
 70
      64
  3
CADPAC LINETYPE
 72
      65
 73
       6
 40
16.84957257
 49
5.61652419
 74
       0
 49
-2.24660968
 74
       0
 49
2.24660968
 74
       0
 49
-2.24660968
 74
       0
 49
2.24660968
 74
       0
 49
-2.24660968
 74
       0
  0
LTYPE
  5
33
100
AcDbSymbolTableRecord
100
AcDbLinetypeTableRecord
  2
PHANTOM
 70
      64
  3
CADPAC LINETYPE
 72
      65
 73
       6
 40
13.92897999
 49
4.49321935
 74
       0
 49
-2.24660968
 74
       0
 49
1.34796581
 74
       0
 49
-2.24660968
 74
       0
 49
1.34796581
 74
       0
 49
-2.24660968
 74
       0
  0
LTYPE
  5
34
100
AcDbSymbolTableRecord
100
AcDbLinetypeTableRecord
  2
PHANTOM2
 70
      64
  3
CADPAC LINETYPE
 72
      65
 73
       6
 40
11.90703128
 49
3.36991451
 74
       0
 49
-2.24660968
 74
       0
 49
0.89864387
 74
       0
 49
-2.24660968
 74
       0
 49
0.89864387
 74
       0
 49
-2.24660968
 74
       0
  0
LTYPE
  5
35
100
AcDbSymbolTableRecord
100
AcDbLinetypeTableRecord
  2
ACAD_ISO06W100
 70
      64
  3
CADPAC LINETYPE
 72
      65
 73
       8
 40
15.16461531
 49
5.61652419
 74
       0
 49
-2.80826209
 74
       0
 49
0.0
 74
       0
 49
-2.24660968
 74
       0
 49
0.0
 74
       0
 49
-2.24660968
 74
       0
 49
0.0
 74
       0
 49
-2.24660968
 74
       0
  0
LTYPE
  5
36
100
AcDbSymbolTableRecord
100
AcDbLinetypeTableRecord
  2
ACAD_ISO13W100
 70
      64
  3
CADPAC LINETYPE
 72
      65
 73
       8
 40
17.97287741
 49
4.49321935
 74
       0
 49
-2.24660968
 74
       0
 49
4.49321935
 74
       0
 49
-2.24660968
 74
       0
 49
0.0
 74
       0
 49
-2.24660968
 74
       0
 49
0.0
 74
       0
 49
-2.24660968
 74
       0
  0
LTYPE
  5
37
100
AcDbSymbolTableRecord
100
AcDbLinetypeTableRecord
  2
ACAD_ISO14W100
 70
      64
  3
CADPAC LINETYPE
 72
      65
 73
       8
 40
13.47965805
 49
4.49321935
 74
       0
 49
-2.24660968
 74
       0
 49
0.0
 74
       0
 49
-2.24660968
 74
       0
 49
0.0
 74
       0
 49
-2.24660968
 74
       0
 49
0.0
 74
       0
 49
-2.24660968
 74
       0
  0
ENDTAB
  0
TABLE
  2
LAYER
  5
2
100
AcDbSymbolTable
 70
       3
  0
LAYER
  5
14
100
AcDbSymbolTableRecord
100
AcDbLayerTableRecord
  2
0
 70
       0
 62
       7
  6
CONTINUOUS
  0
LAYER
  5
38
100
AcDbSymbolTableRecord
100
AcDbLayerTableRecord
  2
SLD-0_0
 70
       0
 62
       7
  6
CONTINUOUS
  0
LAYER
  5
39
100
AcDbSymbolTableRecord
100
AcDbLayerTableRecord
  2
SLD-0
 70
       0
 62
       7
  6
CONTINUOUS
  0
ENDTAB
  0
TABLE
  2
STYLE
  5
3
100
AcDbSymbolTable
 70
       1
  0
STYLE
  5
17
100
AcDbSymbolTableRecord
100
AcDbTextStyleTableRecord
  2
STANDARD
 70
       0
 40
0.0
 41
1.0
 50
0.0
 71
       0
 42
5.0
  3
txt.shx
  4
bigfont.shx
  0
ENDTAB
  0
TABLE
  2
VIEW
  5
5
100
AcDbSymbolTable
 70
       1
  0
VIEW
  5
3A
100
AcDbSymbolTableRecord
100
AcDbViewTableRecord
  2
QQQQ
 70
       0
 40
139.2789989
 10
-0.13814668
 20
0.0
 41
229.29740112
 11
0.0
 21
0.0
 31
1.0
 12
100.0
 22
100.0
 32
0.0
 42
50.0
 43
0.0
 44
0.0
 50
0.0
 71
       0
  0
ENDTAB
  0
TABLE
  2
UCS
  5
6
100
AcDbSymbolTable
 70
       0
  0
ENDTAB
  0
TABLE
  2
APPID
  5
8
100
AcDbSymbolTable
 70
       1
  0
APPID
  5
16
100
AcDbSymbolTableRecord
100
AcDbRegAppTableRecord
  2
ACAD
 70
       0
  0
ENDTAB
  0
TABLE
  2
DIMSTYLE
  5
9
100
AcDbSymbolTable
 70
       1
  0
DIMSTYLE
105
18
100
AcDbSymbolTableRecord
100
AcDbDimStyleTableRecord
  2
STANDARD
 70
       0
  3

  4

  5

  6

  7

 40
1.0
 41
0.18
 42
0.0625
 43
0.38
 44
0.18
 45
0.0
 46
0.0
 47
0.0
 48
0.0
 71
       0
 72
       0
 73
       1
 74
       1
 75
       0
 76
       0
 77
       0
 78
       0
140
0.18
141
0.09
142
0.0
143
25.4
144
1.0
145
0.0
146
1.0
147
0.09
170
       0
171
       2
172
       0
173
       0
174
       0
175
       0
176
       0
177
       0
178
       0
270
       2
271
       4
272
       4
273
       2
274
       2
275
       0
280
       0
281
       0
282
       0
283
       1
284
       0
285
       0
286
       0
287
       0
288
       0
340
17
  0
ENDTAB
  0
TABLE
  2
BLOCK_RECORD
  5
1
100
AcDbSymbolTable
 70
      14
  0
BLOCK_RECORD
  5
A
100
AcDbSymbolTableRecord
100
AcDbBlockTableRecord
  2
*MODEL_SPACE
  0
BLOCK_RECORD
  5
B
100
AcDbSymbolTableRecord
100
AcDbBlockTableRecord
  2
*PAPER_SPACE
  0
BLOCK_RECORD
  5
3B
100
AcDbSymbolTableRecord
100
AcDbBlockTableRecord
  2
GROUP_1
  0
BLOCK_RECORD
  5
3C
100
AcDbSymbolTableRecord
100
AcDbBlockTableRecord
  2
GROUP_2
  0
BLOCK_RECORD
  5
3D
100
AcDbSymbolTableRecord
100
AcDbBlockTableRecord
  2
GROUP_3
  0
BLOCK_RECORD
  5
3E
100
AcDbSymbolTableRecord
100
AcDbBlockTableRecord
  2
GROUP_4
  0
BLOCK_RECORD
  5
3F
100
AcDbSymbolTableRecord
100
AcDbBlockTableRecord
  2
GROUP_5
  0
BLOCK_RECORD
  5
40
100
AcDbSymbolTableRecord
100
AcDbBlockTableRecord
  2
GROUP_6
  0
BLOCK_RECORD
  5
41
100
AcDbSymbolTableRecord
100
AcDbBlockTableRecord
  2
GROUP_7
  0
BLOCK_RECORD
  5
42
100
AcDbSymbolTableRecord
100
AcDbBlockTableRecord
  2
GROUP_8
  0
BLOCK_RECORD
  5
43
100
AcDbSymbolTableRecord
100
AcDbBlockTableRecord
  2
GROUP_9
  0
BLOCK_RECORD
  5
44
100
AcDbSymbolTableRecord
100
AcDbBlockTableRecord
  2
GROUP_10
  0
BLOCK_RECORD
  5
45
100
AcDbSymbolTableRecord
100
AcDbBlockTableRecord
  2
GROUP_11
  0
BLOCK_RECORD
  5
46
100
AcDbSymbolTableRecord
100
AcDbBlockTableRecord
  2
GROUP_12
  0
BLOCK_RECORD
  5
47
100
AcDbSymbolTableRecord
100
AcDbBlockTableRecord
  2
GROUP_13
  0
BLOCK_RECORD
  5
48
100
AcDbSymbolTableRecord
100
AcDbBlockTableRecord
  2
GROUP_14
  0
ENDTAB
  0
ENDSEC
  0
SECTION
  2
BLOCKS
  0
BLOCK
  5
D
100
AcDbEntity
  8
0
100
AcDbBlockBegin
  2
*MODEL_SPACE
 70
       0
 10
0.0
 20
0.0
 30
0.0
  3
*MODEL_SPACE
  1

  0
ENDBLK
  5
E
100
AcDbEntity
  8
0
100
AcDbBlockEnd
  0
BLOCK
  5
F
100
AcDbEntity
 67
       1
  8
0
100
AcDbBlockBegin
  2
*PAPER_SPACE
 70
       0
 10
0.0
 20
0.0
 30
0.0
  3
*PAPER_SPACE
  1

  0
ENDBLK
  5
10
100
AcDbEntity
 67
       1
  8
0
100
AcDbBlockEnd
  0
BLOCK
  5
49
100
AcDbEntity
  8
0
100
AcDbBlockBegin
  2
GROUP_1
 70
       0
 10
0.0
 20
0.0
 30
0.0
  3
GROUP_1
  1

  0
LINE
  5
4A
100
AcDbEntity
  8
SLD-0
  6
CONTINUOUS
 62
       7
100
AcDbLine
 10
21.23850774
 20
12.66877967
 30
0.0
 11
21.27370344
 21
12.66877967
 31
0.0
  0
LINE
  5
4B
100
AcDbEntity
  8
SLD-0
  6
CONTINUOUS
 62
       7
100
AcDbLine
 10
21.27370344
 20
12.66877967
 30
0.0
 11
21.30889259
 21
12.66877967
 31
0.0
  0
LINE
  5
4C
100
AcDbEntity
  8
SLD-0
  6
CONTINUOUS
 62
       7
100
AcDbLine
 10
21.30889259
 20
12.66877967
 30
0.0
 11
21.34404028
 21
12.66877967
 31
0.0
  0
LINE
  5
4D
100
AcDbEntity
  8
SLD-0
  6
CONTINUOUS
 62
       7
100
AcDbLine
 10
21.34404028
 20
12.66877967
 30
0.0
 11
21.37909382
 21
12.66877967
 31
0.0
  0
LINE
  5
4E
100
AcDbEntity
  8
SLD-0
  6
CONTINUOUS
 62
       7
100
AcDbLine
 10
21.37909382
 20
12.66877967
 30
0.0
 11
21.41400022
 21
12.66877967
 31
0.0
  0
LINE
  5
4F
100
AcDbEntity
  8
SLD-0
  6
CONTINUOUS
 62
       7
100
AcDbLine
 10
21.41400022
 20
12.66877967
 30
0.0
 11
21.44870651
 21
12.66877967
 31
0.0
  0
LINE
  5
50
100
AcDbEntity
  8
SLD-0
  6
CONTINUOUS
 62
       7
100
AcDbLine
 10
21.44870651
 20
12.66877967
 30
0.0
 11
21.48315972
 21
12.66877967
 31
0.0
  0
LINE
  5
51
100
AcDbEntity
  8
SLD-0
  6
CONTINUOUS
 62
       7
100
AcDbLine
 10
21.48315972
 20
12.66877967
 30
0.0
 11
21.51730686
 21
12.66877967
 31
0.0
  0
LINE
  5
52
100
AcDbEntity
  8
SLD-0
  6
CONTINUOUS
 62
       7
100
AcDbLine
 10
21.51730686
 20
12.66877967
 30
0.0
 11
21.55109497
 21
12.66877967
 31
0.0
  0
LINE
  5
53
100
AcDbEntity
  8
SLD-0
  6
CONTINUOUS
 62
       7
100
AcDbLine
 10
21.55109497
 20
12.66877967
 30
0.0
 11
21.58447107
 21
12.66877967
 31
0.0
  0
LINE
  5
54
100
AcDbEntity
  8
SLD-0
  6
CONTINUOUS
 62
       7
100
AcDbLine
 10
21.58447107
 20
12.66877967
 30
0.0
 11
21.61738223
 21
12.66877967
 31
0.0
  0
LINE
  5
55
100
AcDbEntity
  8
SLD-0
  6
CONTINUOUS
 62
       7
100
AcDbLine
 10
21.61738223
 20
12.66877967
 30
0.0
 11
21.64978134
 21
12.66877967
 31
0.0
  0
LINE
  5
56
100
AcDbEntity
  8
SLD-0
  6
CONTINUOUS
 62
       7
100
AcDbLine
 10
21.64978134
 20
12.66877967
 30
0.0
 11
21.68163172
 21
12.66877967
 31
0.0
  0
LINE
  5
57
100
AcDbEntity
  8
SLD-0
  6
CONTINUOUS
 62
       7
100
AcDbLine
 10
21.68163172
 20
12.66877967
 30
0.0
 11
21.71289782
 21
12.66877967
 31
0.0
  0
LINE
  5
58
100
AcDbEntity
  8
SLD-0
  6
CONTINUOUS
 62
       7
100
AcDbLine
 10
21.71289782
 20
12.66877967
 30
0.0
 11
21.74354408
 21
12.66877967
 31
0.0
  0
LINE
  5
59
100
AcDbEntity
  8
SLD-0
  6
CONTINUOUS
 62
       7
100
AcDbLine
 10
21.74354408
 20
12.66877967
 30
0.0
 11
21.77353493
 21
12.66877967
 31
0.0
  0
LINE
  5
5A
100
AcDbEntity
  8
SLD-0
  6
CONTINUOUS
 62
       7
100
AcDbLine
 10
21.77353493
 20
12.66877967
 30
0.0
 11
21.80283481
 21
12.66877967
 31
0.0
  0
LINE
  5
5B
100
AcDbEntity
  8
SLD-0
  6
CONTINUOUS
 62
       7
100
AcDbLine
 10
21.80283481
 20
12.66877967
 30
0.0
 11
21.83140817
 21
12.66877967
 31
0.0
  0
LINE
  5
5C
100
AcDbEntity
  8
SLD-0
  6
CONTINUOUS
 62
       7
100
AcDbLine
 10
21.83140817
 20
12.66877967
 30
0.0
 11
21.85922231
 21
12.66877967
 31
0.0
  0
LINE
  5
5D
100
AcDbEntity
  8
SLD-0
  6
CONTINUOUS
 62
       7
100
AcDbLine
 10
21.85922231
 20
12.66877967
 30
0.0
 11
21.88625399
 21
12.66877967
 31
0.0
  0
LINE
  5
5E
100
AcDbEntity
  8
SLD-0
  6
CONTINUOUS
 62
       7
100
AcDbLine
 10
21.88625399
 20
12.66877967
 30
0.0
 11
21.91248186
 21
12.66877967
 31
0.0
  0
LINE
  5
5F
100
AcDbEntity
  8
SLD-0
  6
CONTINUOUS
 62
       7
100
AcDbLine
 10
21.91248186
 20
12.66877967
 30
0.0
 11
21.93788457
 21
12.66877967
 31
0.0
  0
LINE
  5
60
100
AcDbEntity
  8
SLD-0
  6
CONTINUOUS
 62
       7
100
AcDbLine
 10
21.93788457
 20
12.66877967
 30
0.0
 11
21.96244081
 21
12.66877967
 31
0.0
  0
LINE
  5
61
100
AcDbEntity
  8
SLD-0
  6
CONTINUOUS
 62
       7
100
AcDbLine
 10
21.96244081
 20
12.66877967
 30
0.0
 11
21.98612922
 21
12.66877967
 31
0.0
  0
LINE
  5
62
100
AcDbEntity
  8
SLD-0
  6
CONTINUOUS
 62
       7
100
AcDbLine
 10
21.98612922
 20
12.66877967
 30
0.0
 11
22.00892847
 21
12.66877967
 31
0.0
  0
LINE
  5
63
100
AcDbEntity
  8
SLD-0
  6
CONTINUOUS
 62
       7
100
AcDbLine
 10
22.00892847
 20
12.66877967
 30
0.0
 11
22.03081722
 21
12.66877967
 31
0.0
  0
LINE
  5
64
100
AcDbEntity
  8
SLD-0
  6
CONTINUOUS
 62
       7
100
AcDbLine
 10
22.03081722
 20
12.66877967
 30
0.0
 11
22.05177413
 21
12.66877967
 31
0.0
  0
LINE
  5
65
100
AcDbEntity
  8
SLD-0
  6
CONTINUOUS
 62
       7
100
AcDbLine
 10
22.05177413
 20
12.66877967
 30
0.0
 11
22.07177751
 21
12.66877967
 31
0.0
  0
LINE
  5
66
100
AcDbEntity
  8
SLD-0
  6
CONTINUOUS
 62
       7
100
AcDbLine
 10
22.07177751
 20
12.66877967
 30
0.0
 11
22.09079328
 21
12.66877967
 31
0.0
  0
LINE
  5
67
100
AcDbEntity
  8
SLD-0
  6
CONTINUOUS
 62
       7
100
AcDbLine
 10
22.09079328
 20
12.66877967
 30
0.0
 11
22.10877223
 21
12.66877967
 31
0.0
  0
LINE
  5
68
100
AcDbEntity
  8
SLD-0
  6
CONTINUOUS
 62
       7
100
AcDbLine
 10
22.10877223
 20
12.66877967
 30
0.0
 11
22.12566422
 21
12.66877967
 31
0.0
  0
LINE
  5
69
100
AcDbEntity
  8
SLD-0
  6
CONTINUOUS
 62
       7
100
AcDbLine
 10
22.12566422
 20
12.66877967
 30
0.0
 11
22.14141909
 21
12.66877967
 31
0.0
  0
LINE
  5
6A
100
AcDbEntity
  8
SLD-0
  6
CONTINUOUS
 62
       7
100
AcDbLine
 10
22.14141909
 20
12.66877967
 30
0.0
 11
22.15598669
 21
12.66877967
 31
0.0
  0
LINE
  5
6B
100
AcDbEntity
  8
SLD-0
  6
CONTINUOUS
 62
       7
100
AcDbLine
 10
22.15598669
 20
12.66877967
 30
0.0
 11
22.16931689
 21
12.66877967
 31
0.0
  0
LINE
  5
6C
100
AcDbEntity
  8
SLD-0
  6
CONTINUOUS
 62
       7
100
AcDbLine
 10
22.16931689
 20
12.66877967
 30
0.0
 11
22.18135953
 21
12.66877967
 31
0.0
  0
LINE
  5
6D
100
AcDbEntity
  8
SLD-0
  6
CONTINUOUS
 62
       7
100
AcDbLine
 10
22.18135953
 20
12.66877967
 30
0.0
 11
22.19206447
 21
12.66877967
 31
0.0
  0
LINE
  5
6E
100
AcDbEntity
  8
SLD-0
  6
CONTINUOUS
 62
       7
100
AcDbLine
 10
22.19206447
 20
12.66877967
 30
0.0
 11
22.20138156
 21
12.66877967
 31
0.0
  0
LINE
  5
6F
100
AcDbEntity
  8
SLD-0
  6
CONTINUOUS
 62
       7
100
AcDbLine
 10
22.20138156
 20
12.66877967
 30
0.0
 11
22.20927957
 21
12.66877967
 31
0.0
  0
LINE
  5
70
100
AcDbEntity
  8
SLD-0
  6
CONTINUOUS
 62
       7
100
AcDbLine
 10
22.20927957
 20
12.66877967
 30
0.0
 11
22.21587491
 21
12.66877967
 31
0.0
  0
LINE
  5
71
100
AcDbEntity
  8
SLD-0
  6
CONTINUOUS
 62
       7
100
AcDbLine
 10
22.21587491
 20
12.66877967
 30
0.0
 11
22.22135332
 21
12.66877967
 31
0.0
  0
LINE
  5
72
100
AcDbEntity
  8
SLD-0
  6
CONTINUOUS
 62
       7
100
AcDbLine
 10
22.22135332
 20
12.66877967
 30
0.0
 11
22.22590097
 21
12.66877967
 31
0.0
  0
LINE
  5
73
100
AcDbEntity
  8
SLD-0
  6
CONTINUOUS
 62
       7
100
AcDbLine
 10
22.22590097
 20
12.66877967
 30
0.0
 11
22.22970401
 21
12.66877967
 31
0.0
  0
LINE
  5
74
100
AcDbEntity
  8
SLD-0
  6
CONTINUOUS
 62
       7
100
AcDbLine
 10
22.22970401
 20
12.66877967
 30
0.0
 11
22.23294859
 21
12.66877967
 31
0.0
  0
LINE
  5
75
100
AcDbEntity
  8
SLD-0
  6
CONTINUOUS
 62
       7
100
AcDbLine
 10
22.23294859
 20
12.66877967
 30
0.0
 11
22.23582086
 21
12.66877967
 31
0.0
  0
LINE
  5
76
100
AcDbEntity
  8
SLD-0
  6
CONTINUOUS
 62
       7
100
AcDbLine
 10
22.23582086
 20
12.66877967
 30
0.0
 11
22.23850697
 21
12.66877967
 31
0.0
  0
ENDBLK
  5
77
100
AcDbEntity
  8
0
100
AcDbBlockEnd
  0
BLOCK
  5
78
100
AcDbEntity
  8
0
100
AcDbBlockBegin
  2
GROUP_2
 70
       0
 10
0.0
 20
0.0
 30
0.0
  3
GROUP_2
  1

  0
LINE
  5
79
100
AcDbEntity
  8
SLD-0
  6
CONTINUOUS
 62
       7
100
AcDbLine
 10
22.23850697
 20
11.33574939
 30
0.0
 11
22.23838991
 21
11.32904027
 31
0.0
  0
LINE
  5
7A
100
AcDbEntity
  8
SLD-0
  6
CONTINUOUS
 62
       7
100
AcDbLine
 10
22.23838991
 20
11.32904027
 30
0.0
 11
22.23826717
 21
11.32233157
 31
0.0
  0
LINE
  5
7B
100
AcDbEntity
  8
SLD-0
  6
CONTINUOUS
 62
       7
100
AcDbLine
 10
22.23826717
 20
11.32233157
 30
0.0
 11
22.23813306
 21
11.31562372
 31
0.0
  0
LINE
  5
7C
100
AcDbEntity
  8
SLD-0
  6
CONTINUOUS
 62
       7
100
AcDbLine
 10
22.23813306
 20
11.31562372
 30
0.0
 11
22.23798191
 21
11.30891713
 31
0.0
  0
LINE
  5
7D
100
AcDbEntity
  8
SLD-0
  6
CONTINUOUS
 62
       7
100
AcDbLine
 10
22.23798191
 20
11.30891713
 30
0.0
 11
22.23780803
 21
11.30221223
 31
0.0
  0
LINE
  5
7E
100
AcDbEntity
  8
SLD-0
  6
CONTINUOUS
 62
       7
100
AcDbLine
 10
22.23780803
 20
11.30221223
 30
0.0
 11
22.23760574
 21
11.29550944
 31
0.0
  0
LINE
  5
7F
100
AcDbEntity
  8
SLD-0
  6
CONTINUOUS
 62
       7
100
AcDbLine
 10
22.23760574
 20
11.29550944
 30
0.0
 11
22.23736935
 21
11.28880918
 31
0.0
  0
LINE
  5
80
100
AcDbEntity
  8
SLD-0
  6
CONTINUOUS
 62
       7
100
AcDbLine
 10
22.23736935
 20
11.28880918
 30
0.0
 11
22.23709319
 21
11.28211188
 31
0.0
  0
LINE
  5
81
100
AcDbEntity
  8
SLD-0
  6
CONTINUOUS
 62
       7
100
AcDbLine
 10
22.23709319
 20
11.28211188
 30
0.0
 11
22.23677158
 21
11.27541795
 31
0.0
  0
LINE
  5
82
100
AcDbEntity
  8
SLD-0
  6
CONTINUOUS
 62
       7
100
AcDbLine
 10
22.23677158
 20
11.27541795
 30
0.0
 11
22.23639882
 21
11.26872782
 31
0.0
  0
LINE
  5
83
100
AcDbEntity
  8
SLD-0
  6
CONTINUOUS
 62
       7
100
AcDbLine
 10
22.23639882
 20
11.26872782
 30
0.0
 11
22.23596925
 21
11.26204191
 31
0.0
  0
LINE
  5
84
100
AcDbEntity
  8
SLD-0
  6
CONTINUOUS
 62
       7
100
AcDbLine
 10
22.23596925
 20
11.26204191
 30
0.0
 11
22.23547835
 21
11.25536056
 31
0.0
  0
LINE
  5
85
100
AcDbEntity
  8
SLD-0
  6
CONTINUOUS
 62
       7
100
AcDbLine
 10
22.23547835
 20
11.25536056
 30
0.0
 11
22.23492833
 21
11.2486836
 31
0.0
  0
LINE
  5
86
100
AcDbEntity
  8
SLD-0
  6
CONTINUOUS
 62
       7
100
AcDbLine
 10
22.23492833
 20
11.2486836
 30
0.0
 11
22.23432372
 21
11.24201069
 31
0.0
  0
LINE
  5
87
100
AcDbEntity
  8
SLD-0
  6
CONTINUOUS
 62
       7
100
AcDbLine
 10
22.23432372
 20
11.24201069
 30
0.0
 11
22.23366909
 21
11.2353415
 31
0.0
  0
LINE
  5
88
100
AcDbEntity
  8
SLD-0
  6
CONTINUOUS
 62
       7
100
AcDbLine
 10
22.23366909
 20
11.2353415
 30
0.0
 11
22.23296897
 21
11.22867569
 31
0.0
  0
LINE
  5
89
100
AcDbEntity
  8
SLD-0
  6
CONTINUOUS
 62
       7
100
AcDbLine
 10
22.23296897
 20
11.22867569
 30
0.0
 11
22.23222791
 21
11.22201292
 31
0.0
  0
LINE
  5
8A
100
AcDbEntity
  8
SLD-0
  6
CONTINUOUS
 62
       7
100
AcDbLine
 10
22.23222791
 20
11.22201292
 30
0.0
 11
22.23145047
 21
11.21535285
 31
0.0
  0
LINE
  5
8B
100
AcDbEntity
  8
SLD-0
  6
CONTINUOUS
 62
       7
100
AcDbLine
 10
22.23145047
 20
11.21535285
 30
0.0
 11
22.23064119
 21
11.20869515
 31
0.0
  0
LINE
  5
8C
100
AcDbEntity
  8
SLD-0
  6
CONTINUOUS
 62
       7
100
AcDbLine
 10
22.23064119
 20
11.20869515
 30
0.0
 11
22.22980462
 21
11.20203947
 31
0.0
  0
LINE
  5
8D
100
AcDbEntity
  8
SLD-0
  6
CONTINUOUS
 62
       7
100
AcDbLine
 10
22.22980462
 20
11.20203947
 30
0.0
 11
22.22894531
 21
11.19538549
 31
0.0
  0
LINE
  5
8E
100
AcDbEntity
  8
SLD-0
  6
CONTINUOUS
 62
       7
100
AcDbLine
 10
22.22894531
 20
11.19538549
 30
0.0
 11
22.2280678
 21
11.18873285
 31
0.0
  0
LINE
  5
8F
100
AcDbEntity
  8
SLD-0
  6
CONTINUOUS
 62
       7
100
AcDbLine
 10
22.2280678
 20
11.18873285
 30
0.0
 11
22.22717665
 21
11.18208123
 31
0.0
  0
LINE
  5
90
100
AcDbEntity
  8
SLD-0
  6
CONTINUOUS
 62
       7
100
AcDbLine
 10
22.22717665
 20
11.18208123
 30
0.0
 11
22.2262764
 21
11.17543028
 31
0.0
  0
LINE
  5
91
100
AcDbEntity
  8
SLD-0
  6
CONTINUOUS
 62
       7
100
AcDbLine
 10
22.2262764
 20
11.17543028
 30
0.0
 11
22.2253716
 21
11.16877967
 31
0.0
  0
ENDBLK
  5
92
100
AcDbEntity
  8
0
100
AcDbBlockEnd
  0
BLOCK
  5
93
100
AcDbEntity
  8
0
100
AcDbBlockBegin
  2
GROUP_3
 70
       0
 10
0.0
 20
0.0
 30
0.0
  3
GROUP_3
  1

  0
LINE
  5
94
100
AcDbEntity
  8
SLD-0
  6
CONTINUOUS
 62
       7
100
AcDbLine
 10
22.23850697
 20
13.66877972
 30
0.0
 11
22.23503856
 21
13.66877972
 31
0.0
  0
LINE
  5
95
100
AcDbEntity
  8
SLD-0
  6
CONTINUOUS
 62
       7
100
AcDbLine
 10
22.23503856
 20
13.66877972
 30
0.0
 11
22.2313382
 21
13.66877972
 31
0.0
  0
LINE
  5
96
100
AcDbEntity
  8
SLD-0
  6
CONTINUOUS
 62
       7
100
AcDbLine
 10
22.2313382
 20
13.66877972
 30
0.0
 11
22.22717395
 21
13.66877972
 31
0.0
  0
LINE
  5
97
100
AcDbEntity
  8
SLD-0
  6
CONTINUOUS
 62
       7
100
AcDbLine
 10
22.22717395
 20
13.66877972
 30
0.0
 11
22.22231388
 21
13.66877972
 31
0.0
  0
LINE
  5
98
100
AcDbEntity
  8
SLD-0
  6
CONTINUOUS
 62
       7
100
AcDbLine
 10
22.22231388
 20
13.66877972
 30
0.0
 11
22.21652604
 21
13.66877972
 31
0.0
  0
LINE
  5
99
100
AcDbEntity
  8
SLD-0
  6
CONTINUOUS
 62
       7
100
AcDbLine
 10
22.21652604
 20
13.66877972
 30
0.0
 11
22.20957848
 21
13.66877972
 31
0.0
  0
LINE
  5
9A
100
AcDbEntity
  8
SLD-0
  6
CONTINUOUS
 62
       7
100
AcDbLine
 10
22.20957848
 20
13.66877972
 30
0.0
 11
22.20123928
 21
13.66877972
 31
0.0
  0
LINE
  5
9B
100
AcDbEntity
  8
SLD-0
  6
CONTINUOUS
 62
       7
100
AcDbLine
 10
22.20123928
 20
13.66877972
 30
0.0
 11
22.19127647
 21
13.66877972
 31
0.0
  0
LINE
  5
9C
100
AcDbEntity
  8
SLD-0
  6
CONTINUOUS
 62
       7
100
AcDbLine
 10
22.19127647
 20
13.66877972
 30
0.0
 11
22.17951129
 21
13.66877972
 31
0.0
  0
LINE
  5
9D
100
AcDbEntity
  8
SLD-0
  6
CONTINUOUS
 62
       7
100
AcDbLine
 10
22.17951129
 20
13.66877972
 30
0.0
 11
22.16597301
 21
13.66877972
 31
0.0
  0
LINE
  5
9E
100
AcDbEntity
  8
SLD-0
  6
CONTINUOUS
 62
       7
100
AcDbLine
 10
22.16597301
 20
13.66877972
 30
0.0
 11
22.15074176
 21
13.66877972
 31
0.0
  0
LINE
  5
9F
100
AcDbEntity
  8
SLD-0
  6
CONTINUOUS
 62
       7
100
AcDbLine
 10
22.15074176
 20
13.66877972
 30
0.0
 11
22.13389771
 21
13.66877972
 31
0.0
  0
LINE
  5
A0
100
AcDbEntity
  8
SLD-0
  6
CONTINUOUS
 62
       7
100
AcDbLine
 10
22.13389771
 20
13.66877972
 30
0.0
 11
22.115521
 21
13.66877972
 31
0.0
  0
LINE
  5
A1
100
AcDbEntity
  8
SLD-0
  6
CONTINUOUS
 62
       7
100
AcDbLine
 10
22.115521
 20
13.66877972
 30
0.0
 11
22.09569177
 21
13.66877972
 31
0.0
  0
LINE
  5
A2
100
AcDbEntity
  8
SLD-0
  6
CONTINUOUS
 62
       7
100
AcDbLine
 10
22.09569177
 20
13.66877972
 30
0.0
 11
22.07449018
 21
13.66877972
 31
0.0
  0
LINE
  5
A3
100
AcDbEntity
  8
SLD-0
  6
CONTINUOUS
 62
       7
100
AcDbLine
 10
22.07449018
 20
13.66877972
 30
0.0
 11
22.05199636
 21
13.66877972
 31
0.0
  0
LINE
  5
A4
100
AcDbEntity
  8
SLD-0
  6
CONTINUOUS
 62
       7
100
AcDbLine
 10
22.05199636
 20
13.66877972
 30
0.0
 11
22.02829047
 21
13.66877972
 31
0.0
  0
LINE
  5
A5
100
AcDbEntity
  8
SLD-0
  6
CONTINUOUS
 62
       7
100
AcDbLine
 10
22.02829047
 20
13.66877972
 30
0.0
 11
22.00344209
 21
13.66877972
 31
0.0
  0
LINE
  5
A6
100
AcDbEntity
  8
SLD-0
  6
CONTINUOUS
 62
       7
100
AcDbLine
 10
22.00344209
 20
13.66877972
 30
0.0
 11
21.97748016
 21
13.66877972
 31
0.0
  0
LINE
  5
A7
100
AcDbEntity
  8
SLD-0
  6
CONTINUOUS
 62
       7
100
AcDbLine
 10
21.97748016
 20
13.66877972
 30
0.0
 11
21.95042387
 21
13.66877972
 31
0.0
  0
LINE
  5
A8
100
AcDbEntity
  8
SLD-0
  6
CONTINUOUS
 62
       7
100
AcDbLine
 10
21.95042387
 20
13.66877972
 30
0.0
 11
21.92229244
 21
13.66877972
 31
0.0
  0
LINE
  5
A9
100
AcDbEntity
  8
SLD-0
  6
CONTINUOUS
 62
       7
100
AcDbLine
 10
21.92229244
 20
13.66877972
 30
0.0
 11
21.89310504
 21
13.66877972
 31
0.0
  0
LINE
  5
AA
100
AcDbEntity
  8
SLD-0
  6
CONTINUOUS
 62
       7
100
AcDbLine
 10
21.89310504
 20
13.66877972
 30
0.0
 11
21.86288088
 21
13.66877972
 31
0.0
  0
LINE
  5
AB
100
AcDbEntity
  8
SLD-0
  6
CONTINUOUS
 62
       7
100
AcDbLine
 10
21.86288088
 20
13.66877972
 30
0.0
 11
21.83163915
 21
13.66877972
 31
0.0
  0
LINE
  5
AC
100
AcDbEntity
  8
SLD-0
  6
CONTINUOUS
 62
       7
100
AcDbLine
 10
21.83163915
 20
13.66877972
 30
0.0
 11
21.79940498
 21
13.66877972
 31
0.0
  0
LINE
  5
AD
100
AcDbEntity
  8
SLD-0
  6
CONTINUOUS
 62
       7
100
AcDbLine
 10
21.79940498
 20
13.66877972
 30
0.0
 11
21.7662325
 21
13.66877972
 31
0.0
  0
LINE
  5
AE
100
AcDbEntity
  8
SLD-0
  6
CONTINUOUS
 62
       7
100
AcDbLine
 10
21.7662325
 20
13.66877972
 30
0.0
 11
21.7321847
 21
13.66877972
 31
0.0
  0
LINE
  5
AF
100
AcDbEntity
  8
SLD-0
  6
CONTINUOUS
 62
       7
100
AcDbLine
 10
21.7321847
 20
13.66877972
 30
0.0
 11
21.69732456
 21
13.66877972
 31
0.0
  0
LINE
  5
B0
100
AcDbEntity
  8
SLD-0
  6
CONTINUOUS
 62
       7
100
AcDbLine
 10
21.69732456
 20
13.66877972
 30
0.0
 11
21.66171509
 21
13.66877972
 31
0.0
  0
LINE
  5
B1
100
AcDbEntity
  8
SLD-0
  6
CONTINUOUS
 62
       7
100
AcDbLine
 10
21.66171509
 20
13.66877972
 30
0.0
 11
21.62541926
 21
13.66877972
 31
0.0
  0
LINE
  5
B2
100
AcDbEntity
  8
SLD-0
  6
CONTINUOUS
 62
       7
100
AcDbLine
 10
21.62541926
 20
13.66877972
 30
0.0
 11
21.58850008
 21
13.66877972
 31
0.0
  0
LINE
  5
B3
100
AcDbEntity
  8
SLD-0
  6
CONTINUOUS
 62
       7
100
AcDbLine
 10
21.58850008
 20
13.66877972
 30
0.0
 11
21.55102053
 21
13.66877972
 31
0.0
  0
LINE
  5
B4
100
AcDbEntity
  8
SLD-0
  6
CONTINUOUS
 62
       7
100
AcDbLine
 10
21.55102053
 20
13.66877972
 30
0.0
 11
21.51304358
 21
13.66877972
 31
0.0
  0
LINE
  5
B5
100
AcDbEntity
  8
SLD-0
  6
CONTINUOUS
 62
       7
100
AcDbLine
 10
21.51304358
 20
13.66877972
 30
0.0
 11
21.47463176
 21
13.66877972
 31
0.0
  0
LINE
  5
B6
100
AcDbEntity
  8
SLD-0
  6
CONTINUOUS
 62
       7
100
AcDbLine
 10
21.47463176
 20
13.66877972
 30
0.0
 11
21.43584721
 21
13.66877972
 31
0.0
  0
LINE
  5
B7
100
AcDbEntity
  8
SLD-0
  6
CONTINUOUS
 62
       7
100
AcDbLine
 10
21.43584721
 20
13.66877972
 30
0.0
 11
21.39675205
 21
13.66877972
 31
0.0
  0
LINE
  5
B8
100
AcDbEntity
  8
SLD-0
  6
CONTINUOUS
 62
       7
100
AcDbLine
 10
21.39675205
 20
13.66877972
 30
0.0
 11
21.3574084
 21
13.66877972
 31
0.0
  0
LINE
  5
B9
100
AcDbEntity
  8
SLD-0
  6
CONTINUOUS
 62
       7
100
AcDbLine
 10
21.3574084
 20
13.66877972
 30
0.0
 11
21.31787838
 21
13.66877972
 31
0.0
  0
LINE
  5
BA
100
AcDbEntity
  8
SLD-0
  6
CONTINUOUS
 62
       7
100
AcDbLine
 10
21.31787838
 20
13.66877972
 30
0.0
 11
21.27822412
 21
13.66877972
 31
0.0
  0
LINE
  5
BB
100
AcDbEntity
  8
SLD-0
  6
CONTINUOUS
 62
       7
100
AcDbLine
 10
21.27822412
 20
13.66877972
 30
0.0
 11
21.23850774
 21
13.66877972
 31
0.0
  0
ENDBLK
  5
BC
100
AcDbEntity
  8
0
100
AcDbBlockEnd
  0
BLOCK
  5
BD
100
AcDbEntity
  8
0
100
AcDbBlockBegin
  2
GROUP_4
 70
       0
 10
0.0
 20
0.0
 30
0.0
  3
GROUP_4
  1

  0
LINE
  5
BE
100
AcDbEntity
  8
SLD-0
  6
CONTINUOUS
 62
       7
100
AcDbLine
 10
20.8739825
 20
49.86877946
 30
0.0
 11
20.87535221
 21
49.80937861
 31
0.0
  0
LINE
  5
BF
100
AcDbEntity
  8
SLD-0
  6
CONTINUOUS
 62
       7
100
AcDbLine
 10
20.87535221
 20
49.80937861
 30
0.0
 11
20.87680042
 21
49.75006923
 31
0.0
  0
LINE
  5
C0
100
AcDbEntity
  8
SLD-0
  6
CONTINUOUS
 62
       7
100
AcDbLine
 10
20.87680042
 20
49.75006923
 30
0.0
 11
20.87840563
 21
49.6909428
 31
0.0
  0
LINE
  5
C1
100
AcDbEntity
  8
SLD-0
  6
CONTINUOUS
 62
       7
100
AcDbLine
 10
20.87840563
 20
49.6909428
 30
0.0
 11
20.88024633
 21
49.6320908
 31
0.0
  0
LINE
  5
C2
100
AcDbEntity
  8
SLD-0
  6
CONTINUOUS
 62
       7
100
AcDbLine
 10
20.88024633
 20
49.6320908
 30
0.0
 11
20.88240103
 21
49.57360469
 31
0.0
  0
LINE
  5
C3
100
AcDbEntity
  8
SLD-0
  6
CONTINUOUS
 62
       7
100
AcDbLine
 10
20.88240103
 20
49.57360469
 30
0.0
 11
20.88494823
 21
49.51557595
 31
0.0
  0
LINE
  5
C4
100
AcDbEntity
  8
SLD-0
  6
CONTINUOUS
 62
       7
100
AcDbLine
 10
20.88494823
 20
49.51557595
 30
0.0
 11
20.88796642
 21
49.45809606
 31
0.0
  0
LINE
  5
C5
100
AcDbEntity
  8
SLD-0
  6
CONTINUOUS
 62
       7
100
AcDbLine
 10
20.88796642
 20
49.45809606
 30
0.0
 11
20.89153411
 21
49.40125649
 31
0.0
  0
LINE
  5
C6
100
AcDbEntity
  8
SLD-0
  6
CONTINUOUS
 62
       7
100
AcDbLine
 10
20.89153411
 20
49.40125649
 30
0.0
 11
20.89572662
 21
49.34514881
 31
0.0
  0
LINE
  5
C7
100
AcDbEntity
  8
SLD-0
  6
CONTINUOUS
 62
       7
100
AcDbLine
 10
20.89572662
 20
49.34514881
 30
0.0
 11
20.90056071
 21
49.28986639
 31
0.0
  0
LINE
  5
C8
100
AcDbEntity
  8
SLD-0
  6
CONTINUOUS
 62
       7
100
AcDbLine
 10
20.90056071
 20
49.28986639
 30
0.0
 11
20.90600157
 21
49.23550416
 31
0.0
  0
LINE
  5
C9
100
AcDbEntity
  8
SLD-0
  6
CONTINUOUS
 62
       7
100
AcDbLine
 10
20.90600157
 20
49.23550416
 30
0.0
 11
20.91201262
 21
49.18215711
 31
0.0
  0
LINE
  5
CA
100
AcDbEntity
  8
SLD-0
  6
CONTINUOUS
 62
       7
100
AcDbLine
 10
20.91201262
 20
49.18215711
 30
0.0
 11
20.91855731
 21
49.12992025
 31
0.0
  0
LINE
  5
CB
100
AcDbEntity
  8
SLD-0
  6
CONTINUOUS
 62
       7
100
AcDbLine
 10
20.91855731
 20
49.12992025
 30
0.0
 11
20.92559906
 21
49.07888855
 31
0.0
  0
LINE
  5
CC
100
AcDbEntity
  8
SLD-0
  6
CONTINUOUS
 62
       7
100
AcDbLine
 10
20.92559906
 20
49.07888855
 30
0.0
 11
20.93310129
 21
49.02915702
 31
0.0
  0
LINE
  5
CD
100
AcDbEntity
  8
SLD-0
  6
CONTINUOUS
 62
       7
100
AcDbLine
 10
20.93310129
 20
49.02915702
 30
0.0
 11
20.94102744
 21
48.98082063
 31
0.0
  0
LINE
  5
CE
100
AcDbEntity
  8
SLD-0
  6
CONTINUOUS
 62
       7
100
AcDbLine
 10
20.94102744
 20
48.98082063
 30
0.0
 11
20.94934094
 21
48.93397439
 31
0.0
  0
LINE
  5
CF
100
AcDbEntity
  8
SLD-0
  6
CONTINUOUS
 62
       7
100
AcDbLine
 10
20.94934094
 20
48.93397439
 30
0.0
 11
20.95801052
 21
48.88869608
 31
0.0
  0
LINE
  5
D0
100
AcDbEntity
  8
SLD-0
  6
CONTINUOUS
 62
       7
100
AcDbLine
 10
20.95801052
 20
48.88869608
 30
0.0
 11
20.96702074
 21
48.84501214
 31
0.0
  0
LINE
  5
D1
100
AcDbEntity
  8
SLD-0
  6
CONTINUOUS
 62
       7
100
AcDbLine
 10
20.96702074
 20
48.84501214
 30
0.0
 11
20.97635912
 21
48.80293943
 31
0.0
  0
LINE
  5
D2
100
AcDbEntity
  8
SLD-0
  6
CONTINUOUS
 62
       7
100
AcDbLine
 10
20.97635912
 20
48.80293943
 30
0.0
 11
20.98601315
 21
48.76249482
 31
0.0
  0
LINE
  5
D3
100
AcDbEntity
  8
SLD-0
  6
CONTINUOUS
 62
       7
100
AcDbLine
 10
20.98601315
 20
48.76249482
 30
0.0
 11
20.99597035
 21
48.72369518
 31
0.0
  0
LINE
  5
D4
100
AcDbEntity
  8
SLD-0
  6
CONTINUOUS
 62
       7
100
AcDbLine
 10
20.99597035
 20
48.72369518
 30
0.0
 11
21.00621824
 21
48.68655739
 31
0.0
  0
LINE
  5
D5
100
AcDbEntity
  8
SLD-0
  6
CONTINUOUS
 62
       7
100
AcDbLine
 10
21.00621824
 20
48.68655739
 30
0.0
 11
21.0167443
 21
48.65109829
 31
0.0
  0
LINE
  5
D6
100
AcDbEntity
  8
SLD-0
  6
CONTINUOUS
 62
       7
100
AcDbLine
 10
21.0167443
 20
48.65109829
 30
0.0
 11
21.02753607
 21
48.61733478
 31
0.0
  0
LINE
  5
D7
100
AcDbEntity
  8
SLD-0
  6
CONTINUOUS
 62
       7
100
AcDbLine
 10
21.02753607
 20
48.61733478
 30
0.0
 11
21.03858038
 21
48.58529202
 31
0.0
  0
LINE
  5
D8
100
AcDbEntity
  8
SLD-0
  6
CONTINUOUS
 62
       7
100
AcDbLine
 10
21.03858038
 20
48.58529202
 30
0.0
 11
21.0498556
 21
48.55510162
 31
0.0
  0
LINE
  5
D9
100
AcDbEntity
  8
SLD-0
  6
CONTINUOUS
 62
       7
100
AcDbLine
 10
21.0498556
 20
48.55510162
 30
0.0
 11
21.06133422
 21
48.52696875
 31
0.0
  0
LINE
  5
DA
100
AcDbEntity
  8
SLD-0
  6
CONTINUOUS
 62
       7
100
AcDbLine
 10
21.06133422
 20
48.52696875
 30
0.0
 11
21.07298862
 21
48.50110006
 31
0.0
  0
LINE
  5
DB
100
AcDbEntity
  8
SLD-0
  6
CONTINUOUS
 62
       7
100
AcDbLine
 10
21.07298862
 20
48.50110006
 30
0.0
 11
21.0847912
 21
48.47770217
 31
0.0
  0
LINE
  5
DC
100
AcDbEntity
  8
SLD-0
  6
CONTINUOUS
 62
       7
100
AcDbLine
 10
21.0847912
 20
48.47770217
 30
0.0
 11
21.09671432
 21
48.45698174
 31
0.0
  0
LINE
  5
DD
100
AcDbEntity
  8
SLD-0
  6
CONTINUOUS
 62
       7
100
AcDbLine
 10
21.09671432
 20
48.45698174
 30
0.0
 11
21.10873037
 21
48.4391454
 31
0.0
  0
LINE
  5
DE
100
AcDbEntity
  8
SLD-0
  6
CONTINUOUS
 62
       7
100
AcDbLine
 10
21.10873037
 20
48.4391454
 30
0.0
 11
21.12081172
 21
48.4243998
 31
0.0
  0
LINE
  5
DF
100
AcDbEntity
  8
SLD-0
  6
CONTINUOUS
 62
       7
100
AcDbLine
 10
21.12081172
 20
48.4243998
 30
0.0
 11
21.1329308
 21
48.41295093
 31
0.0
  0
LINE
  5
E0
100
AcDbEntity
  8
SLD-0
  6
CONTINUOUS
 62
       7
100
AcDbLine
 10
21.1329308
 20
48.41295093
 30
0.0
 11
21.14506665
 21
48.40480138
 31
0.0
  0
LINE
  5
E1
100
AcDbEntity
  8
SLD-0
  6
CONTINUOUS
 62
       7
100
AcDbLine
 10
21.14506665
 20
48.40480138
 30
0.0
 11
21.15721451
 21
48.39946198
 31
0.0
  0
LINE
  5
E2
100
AcDbEntity
  8
SLD-0
  6
CONTINUOUS
 62
       7
100
AcDbLine
 10
21.15721451
 20
48.39946198
 30
0.0
 11
21.16937197
 21
48.39637069
 31
0.0
  0
LINE
  5
E3
100
AcDbEntity
  8
SLD-0
  6
CONTINUOUS
 62
       7
100
AcDbLine
 10
21.16937197
 20
48.39637069
 30
0.0
 11
21.18153662
 21
48.39496548
 31
0.0
  0
LINE
  5
E4
100
AcDbEntity
  8
SLD-0
  6
CONTINUOUS
 62
       7
100
AcDbLine
 10
21.18153662
 20
48.39496548
 30
0.0
 11
21.19370607
 21
48.39468433
 31
0.0
  0
LINE
  5
E5
100
AcDbEntity
  8
SLD-0
  6
CONTINUOUS
 62
       7
100
AcDbLine
 10
21.19370607
 20
48.39468433
 30
0.0
 11
21.20587792
 21
48.39496521
 31
0.0
  0
ENDBLK
  5
E6
100
AcDbEntity
  8
0
100
AcDbBlockEnd
  0
BLOCK
  5
E7
100
AcDbEntity
  8
0
100
AcDbBlockBegin
  2
GROUP_5
 70
       0
 10
0.0
 20
0.0
 30
0.0
  3
GROUP_5
  1

  0
LINE
  5
E8
100
AcDbEntity
  8
SLD-0
  6
CONTINUOUS
 62
       7
100
AcDbLine
 10
20.8739825
 20
-27.13122012
 30
0.0
 11
20.87535221
 21
-27.19062097
 31
0.0
  0
LINE
  5
E9
100
AcDbEntity
  8
SLD-0
  6
CONTINUOUS
 62
       7
100
AcDbLine
 10
20.87535221
 20
-27.19062097
 30
0.0
 11
20.87680042
 21
-27.24993035
 31
0.0
  0
LINE
  5
EA
100
AcDbEntity
  8
SLD-0
  6
CONTINUOUS
 62
       7
100
AcDbLine
 10
20.87680042
 20
-27.24993035
 30
0.0
 11
20.87840563
 21
-27.30905678
 31
0.0
  0
LINE
  5
EB
100
AcDbEntity
  8
SLD-0
  6
CONTINUOUS
 62
       7
100
AcDbLine
 10
20.87840563
 20
-27.30905678
 30
0.0
 11
20.88024633
 21
-27.36790879
 31
0.0
  0
LINE
  5
EC
100
AcDbEntity
  8
SLD-0
  6
CONTINUOUS
 62
       7
100
AcDbLine
 10
20.88024633
 20
-27.36790879
 30
0.0
 11
20.88240103
 21
-27.4263949
 31
0.0
  0
LINE
  5
ED
100
AcDbEntity
  8
SLD-0
  6
CONTINUOUS
 62
       7
100
AcDbLine
 10
20.88240103
 20
-27.4263949
 30
0.0
 11
20.88494823
 21
-27.48442363
 31
0.0
  0
LINE
  5
EE
100
AcDbEntity
  8
SLD-0
  6
CONTINUOUS
 62
       7
100
AcDbLine
 10
20.88494823
 20
-27.48442363
 30
0.0
 11
20.88796642
 21
-27.54190352
 31
0.0
  0
LINE
  5
EF
100
AcDbEntity
  8
SLD-0
  6
CONTINUOUS
 62
       7
100
AcDbLine
 10
20.88796642
 20
-27.54190352
 30
0.0
 11
20.89153411
 21
-27.59874309
 31
0.0
  0
LINE
  5
F0
100
AcDbEntity
  8
SLD-0
  6
CONTINUOUS
 62
       7
100
AcDbLine
 10
20.89153411
 20
-27.59874309
 30
0.0
 11
20.89572662
 21
-27.65485077
 31
0.0
  0
LINE
  5
F1
100
AcDbEntity
  8
SLD-0
  6
CONTINUOUS
 62
       7
100
AcDbLine
 10
20.89572662
 20
-27.65485077
 30
0.0
 11
20.90056071
 21
-27.71013319
 31
0.0
  0
LINE
  5
F2
100
AcDbEntity
  8
SLD-0
  6
CONTINUOUS
 62
       7
100
AcDbLine
 10
20.90056071
 20
-27.71013319
 30
0.0
 11
20.90600157
 21
-27.76449542
 31
0.0
  0
LINE
  5
F3
100
AcDbEntity
  8
SLD-0
  6
CONTINUOUS
 62
       7
100
AcDbLine
 10
20.90600157
 20
-27.76449542
 30
0.0
 11
20.91201262
 21
-27.81784247
 31
0.0
  0
LINE
  5
F4
100
AcDbEntity
  8
SLD-0
  6
CONTINUOUS
 62
       7
100
AcDbLine
 10
20.91201262
 20
-27.81784247
 30
0.0
 11
20.91855731
 21
-27.87007934
 31
0.0
  0
LINE
  5
F5
100
AcDbEntity
  8
SLD-0
  6
CONTINUOUS
 62
       7
100
AcDbLine
 10
20.91855731
 20
-27.87007934
 30
0.0
 11
20.92559906
 21
-27.92111103
 31
0.0
  0
LINE
  5
F6
100
AcDbEntity
  8
SLD-0
  6
CONTINUOUS
 62
       7
100
AcDbLine
 10
20.92559906
 20
-27.92111103
 30
0.0
 11
20.93310129
 21
-27.97084257
 31
0.0
  0
LINE
  5
F7
100
AcDbEntity
  8
SLD-0
  6
CONTINUOUS
 62
       7
100
AcDbLine
 10
20.93310129
 20
-27.97084257
 30
0.0
 11
20.94102744
 21
-28.01917895
 31
0.0
  0
LINE
  5
F8
100
AcDbEntity
  8
SLD-0
  6
CONTINUOUS
 62
       7
100
AcDbLine
 10
20.94102744
 20
-28.01917895
 30
0.0
 11
20.94934094
 21
-28.06602519
 31
0.0
  0
LINE
  5
F9
100
AcDbEntity
  8
SLD-0
  6
CONTINUOUS
 62
       7
100
AcDbLine
 10
20.94934094
 20
-28.06602519
 30
0.0
 11
20.95801052
 21
-28.1113035
 31
0.0
  0
LINE
  5
FA
100
AcDbEntity
  8
SLD-0
  6
CONTINUOUS
 62
       7
100
AcDbLine
 10
20.95801052
 20
-28.1113035
 30
0.0
 11
20.96702074
 21
-28.15498744
 31
0.0
  0
LINE
  5
FB
100
AcDbEntity
  8
SLD-0
  6
CONTINUOUS
 62
       7
100
AcDbLine
 10
20.96702074
 20
-28.15498744
 30
0.0
 11
20.97635912
 21
-28.19706015
 31
0.0
  0
LINE
  5
FC
100
AcDbEntity
  8
SLD-0
  6
CONTINUOUS
 62
       7
100
AcDbLine
 10
20.97635912
 20
-28.19706015
 30
0.0
 11
20.98601315
 21
-28.23750476
 31
0.0
  0
LINE
  5
FD
100
AcDbEntity
  8
SLD-0
  6
CONTINUOUS
 62
       7
100
AcDbLine
 10
20.98601315
 20
-28.23750476
 30
0.0
 11
20.99597035
 21
-28.2763044
 31
0.0
  0
LINE
  5
FE
100
AcDbEntity
  8
SLD-0
  6
CONTINUOUS
 62
       7
100
AcDbLine
 10
20.99597035
 20
-28.2763044
 30
0.0
 11
21.00621824
 21
-28.3134422
 31
0.0
  0
LINE
  5
FF
100
AcDbEntity
  8
SLD-0
  6
CONTINUOUS
 62
       7
100
AcDbLine
 10
21.00621824
 20
-28.3134422
 30
0.0
 11
21.0167443
 21
-28.34890129
 31
0.0
  0
LINE
  5
100
100
AcDbEntity
  8
SLD-0
  6
CONTINUOUS
 62
       7
100
AcDbLine
 10
21.0167443
 20
-28.34890129
 30
0.0
 11
21.02753607
 21
-28.3826648
 31
0.0
  0
LINE
  5
101
100
AcDbEntity
  8
SLD-0
  6
CONTINUOUS
 62
       7
100
AcDbLine
 10
21.02753607
 20
-28.3826648
 30
0.0
 11
21.03858038
 21
-28.41470756
 31
0.0
  0
LINE
  5
102
100
AcDbEntity
  8
SLD-0
  6
CONTINUOUS
 62
       7
100
AcDbLine
 10
21.03858038
 20
-28.41470756
 30
0.0
 11
21.0498556
 21
-28.44489796
 31
0.0
  0
LINE
  5
103
100
AcDbEntity
  8
SLD-0
  6
CONTINUOUS
 62
       7
100
AcDbLine
 10
21.0498556
 20
-28.44489796
 30
0.0
 11
21.06133422
 21
-28.47303083
 31
0.0
  0
LINE
  5
104
100
AcDbEntity
  8
SLD-0
  6
CONTINUOUS
 62
       7
100
AcDbLine
 10
21.06133422
 20
-28.47303083
 30
0.0
 11
21.07298862
 21
-28.49889953
 31
0.0
  0
LINE
  5
105
100
AcDbEntity
  8
SLD-0
  6
CONTINUOUS
 62
       7
100
AcDbLine
 10
21.07298862
 20
-28.49889953
 30
0.0
 11
21.0847912
 21
-28.52229741
 31
0.0
  0
LINE
  5
106
100
AcDbEntity
  8
SLD-0
  6
CONTINUOUS
 62
       7
100
AcDbLine
 10
21.0847912
 20
-28.52229741
 30
0.0
 11
21.09671432
 21
-28.54301784
 31
0.0
  0
LINE
  5
107
100
AcDbEntity
  8
SLD-0
  6
CONTINUOUS
 62
       7
100
AcDbLine
 10
21.09671432
 20
-28.54301784
 30
0.0
 11
21.10873037
 21
-28.56085418
 31
0.0
  0
LINE
  5
108
100
AcDbEntity
  8
SLD-0
  6
CONTINUOUS
 62
       7
100
AcDbLine
 10
21.10873037
 20
-28.56085418
 30
0.0
 11
21.12081172
 21
-28.57559978
 31
0.0
  0
LINE
  5
109
100
AcDbEntity
  8
SLD-0
  6
CONTINUOUS
 62
       7
100
AcDbLine
 10
21.12081172
 20
-28.57559978
 30
0.0
 11
21.1329308
 21
-28.58704865
 31
0.0
  0
LINE
  5
10A
100
AcDbEntity
  8
SLD-0
  6
CONTINUOUS
 62
       7
100
AcDbLine
 10
21.1329308
 20
-28.58704865
 30
0.0
 11
21.14506665
 21
-28.5951982
 31
0.0
  0
LINE
  5
10B
100
AcDbEntity
  8
SLD-0
  6
CONTINUOUS
 62
       7
100
AcDbLine
 10
21.14506665
 20
-28.5951982
 30
0.0
 11
21.15721451
 21
-28.60053761
 31
0.0
  0
LINE
  5
10C
100
AcDbEntity
  8
SLD-0
  6
CONTINUOUS
 62
       7
100
AcDbLine
 10
21.15721451
 20
-28.60053761
 30
0.0
 11
21.16937197
 21
-28.6036289
 31
0.0
  0
LINE
  5
10D
100
AcDbEntity
  8
SLD-0
  6
CONTINUOUS
 62
       7
100
AcDbLine
 10
21.16937197
 20
-28.6036289
 30
0.0
 11
21.18153662
 21
-28.6050341
 31
0.0
  0
LINE
  5
10E
100
AcDbEntity
  8
SLD-0
  6
CONTINUOUS
 62
       7
100
AcDbLine
 10
21.18153662
 20
-28.6050341
 30
0.0
 11
21.19370607
 21
-28.60531525
 31
0.0
  0
LINE
  5
10F
100
AcDbEntity
  8
SLD-0
  6
CONTINUOUS
 62
       7
100
AcDbLine
 10
21.19370607
 20
-28.60531525
 30
0.0
 11
21.20587792
 21
-28.60503437
 31
0.0
  0
ENDBLK
  5
110
100
AcDbEntity
  8
0
100
AcDbBlockEnd
  0
BLOCK
  5
111
100
AcDbEntity
  8
0
100
AcDbBlockBegin
  2
GROUP_6
 70
       0
 10
0.0
 20
0.0
 30
0.0
  3
GROUP_6
  1

  0
LINE
  5
112
100
AcDbEntity
  8
SLD-0
  6
CONTINUOUS
 62
       7
100
AcDbLine
 10
21.20623462
 20
-25.6480852
 30
0.0
 11
21.19582942
 21
-25.6398239
 31
0.0
  0
LINE
  5
113
100
AcDbEntity
  8
SLD-0
  6
CONTINUOUS
 62
       7
100
AcDbLine
 10
21.19582942
 20
-25.6398239
 30
0.0
 11
21.18527615
 21
-25.63541053
 31
0.0
  0
LINE
  5
114
100
AcDbEntity
  8
SLD-0
  6
CONTINUOUS
 62
       7
100
AcDbLine
 10
21.18527615
 20
-25.63541053
 30
0.0
 11
21.17457643
 21
-25.63518628
 31
0.0
  0
LINE
  5
115
100
AcDbEntity
  8
SLD-0
  6
CONTINUOUS
 62
       7
100
AcDbLine
 10
21.17457643
 20
-25.63518628
 30
0.0
 11
21.16376221
 21
-25.63878091
 31
0.0
  0
LINE
  5
116
100
AcDbEntity
  8
SLD-0
  6
CONTINUOUS
 62
       7
100
AcDbLine
 10
21.16376221
 20
-25.63878091
 30
0.0
 11
21.15286547
 21
-25.64582423
 31
0.0
  0
LINE
  5
117
100
AcDbEntity
  8
SLD-0
  6
CONTINUOUS
 62
       7
100
AcDbLine
 10
21.15286547
 20
-25.64582423
 30
0.0
 11
21.14191819
 21
-25.65594601
 31
0.0
  0
LINE
  5
118
100
AcDbEntity
  8
SLD-0
  6
CONTINUOUS
 62
       7
100
AcDbLine
 10
21.14191819
 20
-25.65594601
 30
0.0
 11
21.13095234
 21
-25.66877603
 31
0.0
  0
LINE
  5
119
100
AcDbEntity
  8
SLD-0
  6
CONTINUOUS
 62
       7
100
AcDbLine
 10
21.13095234
 20
-25.66877603
 30
0.0
 11
21.11999989
 21
-25.68394408
 31
0.0
  0
LINE
  5
11A
100
AcDbEntity
  8
SLD-0
  6
CONTINUOUS
 62
       7
100
AcDbLine
 10
21.11999989
 20
-25.68394408
 30
0.0
 11
21.10909281
 21
-25.70107994
 31
0.0
  0
LINE
  5
11B
100
AcDbEntity
  8
SLD-0
  6
CONTINUOUS
 62
       7
100
AcDbLine
 10
21.10909281
 20
-25.70107994
 30
0.0
 11
21.09826308
 21
-25.7198134
 31
0.0
  0
LINE
  5
11C
100
AcDbEntity
  8
SLD-0
  6
CONTINUOUS
 62
       7
100
AcDbLine
 10
21.09826308
 20
-25.7198134
 30
0.0
 11
21.08754213
 21
-25.73978544
 31
0.0
  0
LINE
  5
11D
100
AcDbEntity
  8
SLD-0
  6
CONTINUOUS
 62
       7
100
AcDbLine
 10
21.08754213
 20
-25.73978544
 30
0.0
 11
21.07695095
 21
-25.76085468
 31
0.0
  0
LINE
  5
11E
100
AcDbEntity
  8
SLD-0
  6
CONTINUOUS
 62
       7
100
AcDbLine
 10
21.07695095
 20
-25.76085468
 30
0.0
 11
21.06650107
 21
-25.7830772
 31
0.0
  0
LINE
  5
11F
100
AcDbEntity
  8
SLD-0
  6
CONTINUOUS
 62
       7
100
AcDbLine
 10
21.06650107
 20
-25.7830772
 30
0.0
 11
21.05620367
 21
-25.80651625
 31
0.0
  0
LINE
  5
120
100
AcDbEntity
  8
SLD-0
  6
CONTINUOUS
 62
       7
100
AcDbLine
 10
21.05620367
 20
-25.80651625
 30
0.0
 11
21.04606992
 21
-25.83123508
 31
0.0
  0
LINE
  5
121
100
AcDbEntity
  8
SLD-0
  6
CONTINUOUS
 62
       7
100
AcDbLine
 10
21.04606992
 20
-25.83123508
 30
0.0
 11
21.03611102
 21
-25.85729694
 31
0.0
  0
LINE
  5
122
100
AcDbEntity
  8
SLD-0
  6
CONTINUOUS
 62
       7
100
AcDbLine
 10
21.03611102
 20
-25.85729694
 30
0.0
 11
21.02633812
 21
-25.88476508
 31
0.0
  0
LINE
  5
123
100
AcDbEntity
  8
SLD-0
  6
CONTINUOUS
 62
       7
100
AcDbLine
 10
21.02633812
 20
-25.88476508
 30
0.0
 11
21.01676242
 21
-25.91370273
 31
0.0
  0
LINE
  5
124
100
AcDbEntity
  8
SLD-0
  6
CONTINUOUS
 62
       7
100
AcDbLine
 10
21.01676242
 20
-25.91370273
 30
0.0
 11
21.00739509
 21
-25.94417316
 31
0.0
  0
LINE
  5
125
100
AcDbEntity
  8
SLD-0
  6
CONTINUOUS
 62
       7
100
AcDbLine
 10
21.00739509
 20
-25.94417316
 30
0.0
 11
20.99824732
 21
-25.9762396
 31
0.0
  0
LINE
  5
126
100
AcDbEntity
  8
SLD-0
  6
CONTINUOUS
 62
       7
100
AcDbLine
 10
20.99824732
 20
-25.9762396
 30
0.0
 11
20.9893302
 21
-26.00994194
 31
0.0
  0
LINE
  5
127
100
AcDbEntity
  8
SLD-0
  6
CONTINUOUS
 62
       7
100
AcDbLine
 10
20.9893302
 20
-26.00994194
 30
0.0
 11
20.98065453
 21
-26.04522801
 31
0.0
  0
LINE
  5
128
100
AcDbEntity
  8
SLD-0
  6
CONTINUOUS
 62
       7
100
AcDbLine
 10
20.98065453
 20
-26.04522801
 30
0.0
 11
20.97223101
 21
-26.08202299
 31
0.0
  0
LINE
  5
129
100
AcDbEntity
  8
SLD-0
  6
CONTINUOUS
 62
       7
100
AcDbLine
 10
20.97223101
 20
-26.08202299
 30
0.0
 11
20.96407039
 21
-26.12025203
 31
0.0
  0
LINE
  5
12A
100
AcDbEntity
  8
SLD-0
  6
CONTINUOUS
 62
       7
100
AcDbLine
 10
20.96407039
 20
-26.12025203
 30
0.0
 11
20.95618336
 21
-26.15984031
 31
0.0
  0
LINE
  5
12B
100
AcDbEntity
  8
SLD-0
  6
CONTINUOUS
 62
       7
100
AcDbLine
 10
20.95618336
 20
-26.15984031
 30
0.0
 11
20.94858064
 21
-26.20071298
 31
0.0
  0
LINE
  5
12C
100
AcDbEntity
  8
SLD-0
  6
CONTINUOUS
 62
       7
100
AcDbLine
 10
20.94858064
 20
-26.20071298
 30
0.0
 11
20.94127296
 21
-26.24279522
 31
0.0
  0
LINE
  5
12D
100
AcDbEntity
  8
SLD-0
  6
CONTINUOUS
 62
       7
100
AcDbLine
 10
20.94127296
 20
-26.24279522
 30
0.0
 11
20.93427103
 21
-26.28601218
 31
0.0
  0
LINE
  5
12E
100
AcDbEntity
  8
SLD-0
  6
CONTINUOUS
 62
       7
100
AcDbLine
 10
20.93427103
 20
-26.28601218
 30
0.0
 11
20.92758557
 21
-26.33028904
 31
0.0
  0
LINE
  5
12F
100
AcDbEntity
  8
SLD-0
  6
CONTINUOUS
 62
       7
100
AcDbLine
 10
20.92758557
 20
-26.33028904
 30
0.0
 11
20.92122745
 21
-26.37555124
 31
0.0
  0
LINE
  5
130
100
AcDbEntity
  8
SLD-0
  6
CONTINUOUS
 62
       7
100
AcDbLine
 10
20.92122745
 20
-26.37555124
 30
0.0
 11
20.91521157
 21
-26.42173147
 31
0.0
  0
LINE
  5
131
100
AcDbEntity
  8
SLD-0
  6
CONTINUOUS
 62
       7
100
AcDbLine
 10
20.91521157
 20
-26.42173147
 30
0.0
 11
20.90955707
 21
-26.46877004
 31
0.0
  0
LINE
  5
132
100
AcDbEntity
  8
SLD-0
  6
CONTINUOUS
 62
       7
100
AcDbLine
 10
20.90955707
 20
-26.46877004
 30
0.0
 11
20.9042833
 21
-26.51660761
 31
0.0
  0
LINE
  5
133
100
AcDbEntity
  8
SLD-0
  6
CONTINUOUS
 62
       7
100
AcDbLine
 10
20.9042833
 20
-26.51660761
 30
0.0
 11
20.89940958
 21
-26.56518485
 31
0.0
  0
LINE
  5
134
100
AcDbEntity
  8
SLD-0
  6
CONTINUOUS
 62
       7
100
AcDbLine
 10
20.89940958
 20
-26.56518485
 30
0.0
 11
20.89495526
 21
-26.61444244
 31
0.0
  0
LINE
  5
135
100
AcDbEntity
  8
SLD-0
  6
CONTINUOUS
 62
       7
100
AcDbLine
 10
20.89495526
 20
-26.61444244
 30
0.0
 11
20.89093969
 21
-26.66432104
 31
0.0
  0
LINE
  5
136
100
AcDbEntity
  8
SLD-0
  6
CONTINUOUS
 62
       7
100
AcDbLine
 10
20.89093969
 20
-26.66432104
 30
0.0
 11
20.88738219
 21
-26.71476132
 31
0.0
  0
LINE
  5
137
100
AcDbEntity
  8
SLD-0
  6
CONTINUOUS
 62
       7
100
AcDbLine
 10
20.88738219
 20
-26.71476132
 30
0.0
 11
20.88430212
 21
-26.76570396
 31
0.0
  0
LINE
  5
138
100
AcDbEntity
  8
SLD-0
  6
CONTINUOUS
 62
       7
100
AcDbLine
 10
20.88430212
 20
-26.76570396
 30
0.0
 11
20.88171881
 21
-26.81708962
 31
0.0
  0
LINE
  5
139
100
AcDbEntity
  8
SLD-0
  6
CONTINUOUS
 62
       7
100
AcDbLine
 10
20.88171881
 20
-26.81708962
 30
0.0
 11
20.87963562
 21
-26.86885827
 31
0.0
  0
LINE
  5
13A
100
AcDbEntity
  8
SLD-0
  6
CONTINUOUS
 62
       7
100
AcDbLine
 10
20.87963562
 20
-26.86885827
 30
0.0
 11
20.87798542
 21
-26.92094679
 31
0.0
  0
LINE
  5
13B
100
AcDbEntity
  8
SLD-0
  6
CONTINUOUS
 62
       7
100
AcDbLine
 10
20.87798542
 20
-26.92094679
 30
0.0
 11
20.8766816
 21
-26.97329122
 31
0.0
  0
LINE
  5
13C
100
AcDbEntity
  8
SLD-0
  6
CONTINUOUS
 62
       7
100
AcDbLine
 10
20.8766816
 20
-26.97329122
 30
0.0
 11
20.87563757
 21
-27.02582756
 31
0.0
  0
LINE
  5
13D
100
AcDbEntity
  8
SLD-0
  6
CONTINUOUS
 62
       7
100
AcDbLine
 10
20.87563757
 20
-27.02582756
 30
0.0
 11
20.87476674
 21
-27.07849185
 31
0.0
  0
LINE
  5
13E
100
AcDbEntity
  8
SLD-0
  6
CONTINUOUS
 62
       7
100
AcDbLine
 10
20.87476674
 20
-27.07849185
 30
0.0
 11
20.8739825
 21
-27.13122012
 31
0.0
  0
ENDBLK
  5
13F
100
AcDbEntity
  8
0
100
AcDbBlockEnd
  0
BLOCK
  5
140
100
AcDbEntity
  8
0
100
AcDbBlockBegin
  2
GROUP_7
 70
       0
 10
0.0
 20
0.0
 30
0.0
  3
GROUP_7
  1

  0
LINE
  5
141
100
AcDbEntity
  8
SLD-0
  6
CONTINUOUS
 62
       7
100
AcDbLine
 10
21.70099788
 20
-11.28356138
 30
0.0
 11
21.71316033
 21
-11.28502167
 31
0.0
  0
LINE
  5
142
100
AcDbEntity
  8
SLD-0
  6
CONTINUOUS
 62
       7
100
AcDbLine
 10
21.71316033
 20
-11.28502167
 30
0.0
 11
21.72526848
 21
-11.28656755
 31
0.0
  0
LINE
  5
143
100
AcDbEntity
  8
SLD-0
  6
CONTINUOUS
 62
       7
100
AcDbLine
 10
21.72526848
 20
-11.28656755
 30
0.0
 11
21.73726803
 21
-11.28828463
 31
0.0
  0
LINE
  5
144
100
AcDbEntity
  8
SLD-0
  6
CONTINUOUS
 62
       7
100
AcDbLine
 10
21.73726803
 20
-11.28828463
 30
0.0
 11
21.74910467
 21
-11.29025849
 31
0.0
  0
LINE
  5
145
100
AcDbEntity
  8
SLD-0
  6
CONTINUOUS
 62
       7
100
AcDbLine
 10
21.74910467
 20
-11.29025849
 30
0.0
 11
21.76072411
 21
-11.29257475
 31
0.0
  0
LINE
  5
146
100
AcDbEntity
  8
SLD-0
  6
CONTINUOUS
 62
       7
100
AcDbLine
 10
21.76072411
 20
-11.29257475
 30
0.0
 11
21.77207205
 21
-11.29531899
 31
0.0
  0
LINE
  5
147
100
AcDbEntity
  8
SLD-0
  6
CONTINUOUS
 62
       7
100
AcDbLine
 10
21.77207205
 20
-11.29531899
 30
0.0
 11
21.78309492
 21
-11.29857491
 31
0.0
  0
LINE
  5
148
100
AcDbEntity
  8
SLD-0
  6
CONTINUOUS
 62
       7
100
AcDbLine
 10
21.78309492
 20
-11.29857491
 30
0.0
 11
21.79376252
 21
-11.30236637
 31
0.0
  0
LINE
  5
149
100
AcDbEntity
  8
SLD-0
  6
CONTINUOUS
 62
       7
100
AcDbLine
 10
21.79376252
 20
-11.30236637
 30
0.0
 11
21.80407199
 21
-11.3066471
 31
0.0
  0
LINE
  5
14A
100
AcDbEntity
  8
SLD-0
  6
CONTINUOUS
 62
       7
100
AcDbLine
 10
21.80407199
 20
-11.3066471
 30
0.0
 11
21.81402206
 21
-11.3113668
 31
0.0
  0
LINE
  5
14B
100
AcDbEntity
  8
SLD-0
  6
CONTINUOUS
 62
       7
100
AcDbLine
 10
21.81402206
 20
-11.3113668
 30
0.0
 11
21.82361144
 21
-11.31647519
 31
0.0
  0
LINE
  5
14C
100
AcDbEntity
  8
SLD-0
  6
CONTINUOUS
 62
       7
100
AcDbLine
 10
21.82361144
 20
-11.31647519
 30
0.0
 11
21.83283887
 21
-11.32192197
 31
0.0
  0
LINE
  5
14D
100
AcDbEntity
  8
SLD-0
  6
CONTINUOUS
 62
       7
100
AcDbLine
 10
21.83283887
 20
-11.32192197
 30
0.0
 11
21.84170305
 21
-11.32765685
 31
0.0
  0
LINE
  5
14E
100
AcDbEntity
  8
SLD-0
  6
CONTINUOUS
 62
       7
100
AcDbLine
 10
21.84170305
 20
-11.32765685
 30
0.0
 11
21.85020332
 21
-11.33363453
 31
0.0
  0
LINE
  5
14F
100
AcDbEntity
  8
SLD-0
  6
CONTINUOUS
 62
       7
100
AcDbLine
 10
21.85020332
 20
-11.33363453
 30
0.0
 11
21.8583422
 21
-11.3398356
 31
0.0
  0
LINE
  5
150
100
AcDbEntity
  8
SLD-0
  6
CONTINUOUS
 62
       7
100
AcDbLine
 10
21.8583422
 20
-11.3398356
 30
0.0
 11
21.86612322
 21
-11.34624907
 31
0.0
  0
LINE
  5
151
100
AcDbEntity
  8
SLD-0
  6
CONTINUOUS
 62
       7
100
AcDbLine
 10
21.86612322
 20
-11.34624907
 30
0.0
 11
21.87354993
 21
-11.35286391
 31
0.0
  0
LINE
  5
152
100
AcDbEntity
  8
SLD-0
  6
CONTINUOUS
 62
       7
100
AcDbLine
 10
21.87354993
 20
-11.35286391
 30
0.0
 11
21.88062588
 21
-11.35966914
 31
0.0
  0
LINE
  5
153
100
AcDbEntity
  8
SLD-0
  6
CONTINUOUS
 62
       7
100
AcDbLine
 10
21.88062588
 20
-11.35966914
 30
0.0
 11
21.8873546
 21
-11.36665374
 31
0.0
  0
LINE
  5
154
100
AcDbEntity
  8
SLD-0
  6
CONTINUOUS
 62
       7
100
AcDbLine
 10
21.8873546
 20
-11.36665374
 30
0.0
 11
21.89373965
 21
-11.37380671
 31
0.0
  0
LINE
  5
155
100
AcDbEntity
  8
SLD-0
  6
CONTINUOUS
 62
       7
100
AcDbLine
 10
21.89373965
 20
-11.37380671
 30
0.0
 11
21.89978456
 21
-11.38111706
 31
0.0
  0
LINE
  5
156
100
AcDbEntity
  8
SLD-0
  6
CONTINUOUS
 62
       7
100
AcDbLine
 10
21.89978456
 20
-11.38111706
 30
0.0
 11
21.90549289
 21
-11.38857376
 31
0.0
  0
LINE
  5
157
100
AcDbEntity
  8
SLD-0
  6
CONTINUOUS
 62
       7
100
AcDbLine
 10
21.90549289
 20
-11.38857376
 30
0.0
 11
21.91086819
 21
-11.3961659
 31
0.0
  0
LINE
  5
158
100
AcDbEntity
  8
SLD-0
  6
CONTINUOUS
 62
       7
100
AcDbLine
 10
21.91086819
 20
-11.3961659
 30
0.0
 11
21.91591455
 21
-11.40388413
 31
0.0
  0
LINE
  5
159
100
AcDbEntity
  8
SLD-0
  6
CONTINUOUS
 62
       7
100
AcDbLine
 10
21.91591455
 20
-11.40388413
 30
0.0
 11
21.92063661
 21
-11.41172073
 31
0.0
  0
LINE
  5
15A
100
AcDbEntity
  8
SLD-0
  6
CONTINUOUS
 62
       7
100
AcDbLine
 10
21.92063661
 20
-11.41172073
 30
0.0
 11
21.92503901
 21
-11.41966808
 31
0.0
  0
LINE
  5
15B
100
AcDbEntity
  8
SLD-0
  6
CONTINUOUS
 62
       7
100
AcDbLine
 10
21.92503901
 20
-11.41966808
 30
0.0
 11
21.92912641
 21
-11.42771855
 31
0.0
  0
LINE
  5
15C
100
AcDbEntity
  8
SLD-0
  6
CONTINUOUS
 62
       7
100
AcDbLine
 10
21.92912641
 20
-11.42771855
 30
0.0
 11
21.93290347
 21
-11.43586448
 31
0.0
  0
LINE
  5
15D
100
AcDbEntity
  8
SLD-0
  6
CONTINUOUS
 62
       7
100
AcDbLine
 10
21.93290347
 20
-11.43586448
 30
0.0
 11
21.93637482
 21
-11.44409826
 31
0.0
  0
LINE
  5
15E
100
AcDbEntity
  8
SLD-0
  6
CONTINUOUS
 62
       7
100
AcDbLine
 10
21.93637482
 20
-11.44409826
 30
0.0
 11
21.93954512
 21
-11.45241225
 31
0.0
  0
LINE
  5
15F
100
AcDbEntity
  8
SLD-0
  6
CONTINUOUS
 62
       7
100
AcDbLine
 10
21.93954512
 20
-11.45241225
 30
0.0
 11
21.94241904
 21
-11.46079882
 31
0.0
  0
LINE
  5
160
100
AcDbEntity
  8
SLD-0
  6
CONTINUOUS
 62
       7
100
AcDbLine
 10
21.94241904
 20
-11.46079882
 30
0.0
 11
21.9450012
 21
-11.46925032
 31
0.0
  0
LINE
  5
161
100
AcDbEntity
  8
SLD-0
  6
CONTINUOUS
 62
       7
100
AcDbLine
 10
21.9450012
 20
-11.46925032
 30
0.0
 11
21.94729628
 21
-11.47775913
 31
0.0
  0
LINE
  5
162
100
AcDbEntity
  8
SLD-0
  6
CONTINUOUS
 62
       7
100
AcDbLine
 10
21.94729628
 20
-11.47775913
 30
0.0
 11
21.94930892
 21
-11.48631761
 31
0.0
  0
LINE
  5
163
100
AcDbEntity
  8
SLD-0
  6
CONTINUOUS
 62
       7
100
AcDbLine
 10
21.94930892
 20
-11.48631761
 30
0.0
 11
21.95104377
 21
-11.49491813
 31
0.0
  0
LINE
  5
164
100
AcDbEntity
  8
SLD-0
  6
CONTINUOUS
 62
       7
100
AcDbLine
 10
21.95104377
 20
-11.49491813
 30
0.0
 11
21.95250541
 21
-11.50355314
 31
0.0
  0
LINE
  5
165
100
AcDbEntity
  8
SLD-0
  6
CONTINUOUS
 62
       7
100
AcDbLine
 10
21.95250541
 20
-11.50355314
 30
0.0
 11
21.95369673
 21
-11.51221711
 31
0.0
  0
LINE
  5
166
100
AcDbEntity
  8
SLD-0
  6
CONTINUOUS
 62
       7
100
AcDbLine
 10
21.95369673
 20
-11.51221711
 30
0.0
 11
21.95461884
 21
-11.5209066
 31
0.0
  0
LINE
  5
167
100
AcDbEntity
  8
SLD-0
  6
CONTINUOUS
 62
       7
100
AcDbLine
 10
21.95461884
 20
-11.5209066
 30
0.0
 11
21.9552728
 21
-11.52961824
 31
0.0
  0
LINE
  5
168
100
AcDbEntity
  8
SLD-0
  6
CONTINUOUS
 62
       7
100
AcDbLine
 10
21.9552728
 20
-11.52961824
 30
0.0
 11
21.95565966
 21
-11.5383487
 31
0.0
  0
LINE
  5
169
100
AcDbEntity
  8
SLD-0
  6
CONTINUOUS
 62
       7
100
AcDbLine
 10
21.95565966
 20
-11.5383487
 30
0.0
 11
21.95578047
 21
-11.54709461
 31
0.0
  0
LINE
  5
16A
100
AcDbEntity
  8
SLD-0
  6
CONTINUOUS
 62
       7
100
AcDbLine
 10
21.95578047
 20
-11.54709461
 30
0.0
 11
21.95563627
 21
-11.55585262
 31
0.0
  0
LINE
  5
16B
100
AcDbEntity
  8
SLD-0
  6
CONTINUOUS
 62
       7
100
AcDbLine
 10
21.95563627
 20
-11.55585262
 30
0.0
 11
21.95522811
 21
-11.56461938
 31
0.0
  0
LINE
  5
16C
100
AcDbEntity
  8
SLD-0
  6
CONTINUOUS
 62
       7
100
AcDbLine
 10
21.95522811
 20
-11.56461938
 30
0.0
 11
21.95455705
 21
-11.57339154
 31
0.0
  0
LINE
  5
16D
100
AcDbEntity
  8
SLD-0
  6
CONTINUOUS
 62
       7
100
AcDbLine
 10
21.95455705
 20
-11.57339154
 30
0.0
 11
21.95362751
 21
-11.58216575
 31
0.0
  0
ENDBLK
  5
16E
100
AcDbEntity
  8
0
100
AcDbBlockEnd
  0
BLOCK
  5
16F
100
AcDbEntity
  8
0
100
AcDbBlockBegin
  2
GROUP_8
 70
       0
 10
0.0
 20
0.0
 30
0.0
  3
GROUP_8
  1

  0
LINE
  5
170
100
AcDbEntity
  8
SLD-0
  6
CONTINUOUS
 62
       7
100
AcDbLine
 10
21.20623462
 20
51.35191811
 30
0.0
 11
21.19582929
 21
51.36017552
 31
0.0
  0
LINE
  5
171
100
AcDbEntity
  8
SLD-0
  6
CONTINUOUS
 62
       7
100
AcDbLine
 10
21.19582929
 20
51.36017552
 30
0.0
 11
21.18527592
 21
51.36458619
 31
0.0
  0
LINE
  5
172
100
AcDbEntity
  8
SLD-0
  6
CONTINUOUS
 62
       7
100
AcDbLine
 10
21.18527592
 20
51.36458619
 30
0.0
 11
21.17457612
 21
51.36480898
 31
0.0
  0
LINE
  5
173
100
AcDbEntity
  8
SLD-0
  6
CONTINUOUS
 62
       7
100
AcDbLine
 10
21.17457612
 20
51.36480898
 30
0.0
 11
21.16376185
 21
51.36121391
 31
0.0
  0
LINE
  5
174
100
AcDbEntity
  8
SLD-0
  6
CONTINUOUS
 62
       7
100
AcDbLine
 10
21.16376185
 20
51.36121391
 30
0.0
 11
21.15286509
 21
51.35417097
 31
0.0
  0
LINE
  5
175
100
AcDbEntity
  8
SLD-0
  6
CONTINUOUS
 62
       7
100
AcDbLine
 10
21.15286509
 20
51.35417097
 30
0.0
 11
21.1419178
 21
51.3440502
 31
0.0
  0
LINE
  5
176
100
AcDbEntity
  8
SLD-0
  6
CONTINUOUS
 62
       7
100
AcDbLine
 10
21.1419178
 20
51.3440502
 30
0.0
 11
21.13095195
 21
51.33122159
 31
0.0
  0
LINE
  5
177
100
AcDbEntity
  8
SLD-0
  6
CONTINUOUS
 62
       7
100
AcDbLine
 10
21.13095195
 20
51.33122159
 30
0.0
 11
21.11999952
 21
51.31605515
 31
0.0
  0
LINE
  5
178
100
AcDbEntity
  8
SLD-0
  6
CONTINUOUS
 62
       7
100
AcDbLine
 10
21.11999952
 20
51.31605515
 30
0.0
 11
21.10909247
 21
51.2989209
 31
0.0
  0
LINE
  5
179
100
AcDbEntity
  8
SLD-0
  6
CONTINUOUS
 62
       7
100
AcDbLine
 10
21.10909247
 20
51.2989209
 30
0.0
 11
21.09826278
 21
51.28018886
 31
0.0
  0
LINE
  5
17A
100
AcDbEntity
  8
SLD-0
  6
CONTINUOUS
 62
       7
100
AcDbLine
 10
21.09826278
 20
51.28018886
 30
0.0
 11
21.08754187
 21
51.26021782
 31
0.0
  0
LINE
  5
17B
100
AcDbEntity
  8
SLD-0
  6
CONTINUOUS
 62
       7
100
AcDbLine
 10
21.08754187
 20
51.26021782
 30
0.0
 11
21.07695073
 21
51.23914912
 31
0.0
  0
LINE
  5
17C
100
AcDbEntity
  8
SLD-0
  6
CONTINUOUS
 62
       7
100
AcDbLine
 10
21.07695073
 20
51.23914912
 30
0.0
 11
21.06650089
 21
51.21692673
 31
0.0
  0
LINE
  5
17D
100
AcDbEntity
  8
SLD-0
  6
CONTINUOUS
 62
       7
100
AcDbLine
 10
21.06650089
 20
51.21692673
 30
0.0
 11
21.05620354
 21
51.19348747
 31
0.0
  0
LINE
  5
17E
100
AcDbEntity
  8
SLD-0
  6
CONTINUOUS
 62
       7
100
AcDbLine
 10
21.05620354
 20
51.19348747
 30
0.0
 11
21.04606983
 21
51.16876818
 31
0.0
  0
LINE
  5
17F
100
AcDbEntity
  8
SLD-0
  6
CONTINUOUS
 62
       7
100
AcDbLine
 10
21.04606983
 20
51.16876818
 30
0.0
 11
21.03611096
 21
51.14270569
 31
0.0
  0
LINE
  5
180
100
AcDbEntity
  8
SLD-0
  6
CONTINUOUS
 62
       7
100
AcDbLine
 10
21.03611096
 20
51.14270569
 30
0.0
 11
21.0263381
 21
51.11523681
 31
0.0
  0
LINE
  5
181
100
AcDbEntity
  8
SLD-0
  6
CONTINUOUS
 62
       7
100
AcDbLine
 10
21.0263381
 20
51.11523681
 30
0.0
 11
21.01676243
 21
51.08629839
 31
0.0
  0
LINE
  5
182
100
AcDbEntity
  8
SLD-0
  6
CONTINUOUS
 62
       7
100
AcDbLine
 10
21.01676243
 20
51.08629839
 30
0.0
 11
21.00739513
 21
51.05582724
 31
0.0
  0
LINE
  5
183
100
AcDbEntity
  8
SLD-0
  6
CONTINUOUS
 62
       7
100
AcDbLine
 10
21.00739513
 20
51.05582724
 30
0.0
 11
20.99824738
 21
51.02376019
 31
0.0
  0
LINE
  5
184
100
AcDbEntity
  8
SLD-0
  6
CONTINUOUS
 62
       7
100
AcDbLine
 10
20.99824738
 20
51.02376019
 30
0.0
 11
20.98933027
 21
50.99005741
 31
0.0
  0
LINE
  5
185
100
AcDbEntity
  8
SLD-0
  6
CONTINUOUS
 62
       7
100
AcDbLine
 10
20.98933027
 20
50.99005741
 30
0.0
 11
20.9806546
 21
50.95477107
 31
0.0
  0
LINE
  5
186
100
AcDbEntity
  8
SLD-0
  6
CONTINUOUS
 62
       7
100
AcDbLine
 10
20.9806546
 20
50.95477107
 30
0.0
 11
20.97223109
 21
50.91797596
 31
0.0
  0
LINE
  5
187
100
AcDbEntity
  8
SLD-0
  6
CONTINUOUS
 62
       7
100
AcDbLine
 10
20.97223109
 20
50.91797596
 30
0.0
 11
20.96407046
 21
50.8797469
 31
0.0
  0
LINE
  5
188
100
AcDbEntity
  8
SLD-0
  6
CONTINUOUS
 62
       7
100
AcDbLine
 10
20.96407046
 20
50.8797469
 30
0.0
 11
20.95618342
 21
50.8401587
 31
0.0
  0
LINE
  5
189
100
AcDbEntity
  8
SLD-0
  6
CONTINUOUS
 62
       7
100
AcDbLine
 10
20.95618342
 20
50.8401587
 30
0.0
 11
20.9485807
 21
50.79928616
 31
0.0
  0
LINE
  5
18A
100
AcDbEntity
  8
SLD-0
  6
CONTINUOUS
 62
       7
100
AcDbLine
 10
20.9485807
 20
50.79928616
 30
0.0
 11
20.94127301
 21
50.7572041
 31
0.0
  0
LINE
  5
18B
100
AcDbEntity
  8
SLD-0
  6
CONTINUOUS
 62
       7
100
AcDbLine
 10
20.94127301
 20
50.7572041
 30
0.0
 11
20.93427107
 21
50.71398732
 31
0.0
  0
LINE
  5
18C
100
AcDbEntity
  8
SLD-0
  6
CONTINUOUS
 62
       7
100
AcDbLine
 10
20.93427107
 20
50.71398732
 30
0.0
 11
20.92758559
 21
50.66971064
 31
0.0
  0
LINE
  5
18D
100
AcDbEntity
  8
SLD-0
  6
CONTINUOUS
 62
       7
100
AcDbLine
 10
20.92758559
 20
50.66971064
 30
0.0
 11
20.92122747
 21
50.62444857
 31
0.0
  0
LINE
  5
18E
100
AcDbEntity
  8
SLD-0
  6
CONTINUOUS
 62
       7
100
AcDbLine
 10
20.92122747
 20
50.62444857
 30
0.0
 11
20.91521158
 21
50.57826842
 31
0.0
  0
LINE
  5
18F
100
AcDbEntity
  8
SLD-0
  6
CONTINUOUS
 62
       7
100
AcDbLine
 10
20.91521158
 20
50.57826842
 30
0.0
 11
20.90955708
 21
50.5312299
 31
0.0
  0
LINE
  5
190
100
AcDbEntity
  8
SLD-0
  6
CONTINUOUS
 62
       7
100
AcDbLine
 10
20.90955708
 20
50.5312299
 30
0.0
 11
20.9042833
 21
50.48339234
 31
0.0
  0
LINE
  5
191
100
AcDbEntity
  8
SLD-0
  6
CONTINUOUS
 62
       7
100
AcDbLine
 10
20.9042833
 20
50.48339234
 30
0.0
 11
20.89940958
 21
50.43481508
 31
0.0
  0
LINE
  5
192
100
AcDbEntity
  8
SLD-0
  6
CONTINUOUS
 62
       7
100
AcDbLine
 10
20.89940958
 20
50.43481508
 30
0.0
 11
20.89495527
 21
50.38555745
 31
0.0
  0
LINE
  5
193
100
AcDbEntity
  8
SLD-0
  6
CONTINUOUS
 62
       7
100
AcDbLine
 10
20.89495527
 20
50.38555745
 30
0.0
 11
20.89093969
 21
50.3356788
 31
0.0
  0
LINE
  5
194
100
AcDbEntity
  8
SLD-0
  6
CONTINUOUS
 62
       7
100
AcDbLine
 10
20.89093969
 20
50.3356788
 30
0.0
 11
20.8873822
 21
50.28523845
 31
0.0
  0
LINE
  5
195
100
AcDbEntity
  8
SLD-0
  6
CONTINUOUS
 62
       7
100
AcDbLine
 10
20.8873822
 20
50.28523845
 30
0.0
 11
20.88430212
 21
50.23429576
 31
0.0
  0
LINE
  5
196
100
AcDbEntity
  8
SLD-0
  6
CONTINUOUS
 62
       7
100
AcDbLine
 10
20.88430212
 20
50.23429576
 30
0.0
 11
20.88171881
 21
50.18291004
 31
0.0
  0
LINE
  5
197
100
AcDbEntity
  8
SLD-0
  6
CONTINUOUS
 62
       7
100
AcDbLine
 10
20.88171881
 20
50.18291004
 30
0.0
 11
20.87963562
 21
50.13114135
 31
0.0
  0
LINE
  5
198
100
AcDbEntity
  8
SLD-0
  6
CONTINUOUS
 62
       7
100
AcDbLine
 10
20.87963562
 20
50.13114135
 30
0.0
 11
20.87798542
 21
50.07905281
 31
0.0
  0
LINE
  5
199
100
AcDbEntity
  8
SLD-0
  6
CONTINUOUS
 62
       7
100
AcDbLine
 10
20.87798542
 20
50.07905281
 30
0.0
 11
20.8766816
 21
50.02670837
 31
0.0
  0
LINE
  5
19A
100
AcDbEntity
  8
SLD-0
  6
CONTINUOUS
 62
       7
100
AcDbLine
 10
20.8766816
 20
50.02670837
 30
0.0
 11
20.87563757
 21
49.97417202
 31
0.0
  0
LINE
  5
19B
100
AcDbEntity
  8
SLD-0
  6
CONTINUOUS
 62
       7
100
AcDbLine
 10
20.87563757
 20
49.97417202
 30
0.0
 11
20.87476674
 21
49.92150773
 31
0.0
  0
LINE
  5
19C
100
AcDbEntity
  8
SLD-0
  6
CONTINUOUS
 62
       7
100
AcDbLine
 10
20.87476674
 20
49.92150773
 30
0.0
 11
20.8739825
 21
49.86877946
 31
0.0
  0
ENDBLK
  5
19D
100
AcDbEntity
  8
0
100
AcDbBlockEnd
  0
BLOCK
  5
19E
100
AcDbEntity
  8
0
100
AcDbBlockBegin
  2
GROUP_9
 70
       0
 10
0.0
 20
0.0
 30
0.0
  3
GROUP_9
  1

  0
LINE
  5
19F
100
AcDbEntity
  8
SLD-0
  6
CONTINUOUS
 62
       7
100
AcDbLine
 10
22.23644782
 20
46.71665115
 30
0.0
 11
22.23650126
 21
46.71641685
 31
0.0
  0
LINE
  5
1A0
100
AcDbEntity
  8
SLD-0
  6
CONTINUOUS
 62
       7
100
AcDbLine
 10
22.23650126
 20
46.71641685
 30
0.0
 11
22.2365523
 21
46.71618257
 31
0.0
  0
LINE
  5
1A1
100
AcDbEntity
  8
SLD-0
  6
CONTINUOUS
 62
       7
100
AcDbLine
 10
22.2365523
 20
46.71618257
 30
0.0
 11
22.23659853
 21
46.71594835
 31
0.0
  0
LINE
  5
1A2
100
AcDbEntity
  8
SLD-0
  6
CONTINUOUS
 62
       7
100
AcDbLine
 10
22.23659853
 20
46.71594835
 30
0.0
 11
22.23663755
 21
46.71571421
 31
0.0
  0
LINE
  5
1A3
100
AcDbEntity
  8
SLD-0
  6
CONTINUOUS
 62
       7
100
AcDbLine
 10
22.23663755
 20
46.71571421
 30
0.0
 11
22.23666696
 21
46.7154802
 31
0.0
  0
LINE
  5
1A4
100
AcDbEntity
  8
SLD-0
  6
CONTINUOUS
 62
       7
100
AcDbLine
 10
22.23666696
 20
46.7154802
 30
0.0
 11
22.23668435
 21
46.71524632
 31
0.0
  0
LINE
  5
1A5
100
AcDbEntity
  8
SLD-0
  6
CONTINUOUS
 62
       7
100
AcDbLine
 10
22.23668435
 20
46.71524632
 30
0.0
 11
22.23668799
 21
46.71501262
 31
0.0
  0
LINE
  5
1A6
100
AcDbEntity
  8
SLD-0
  6
CONTINUOUS
 62
       7
100
AcDbLine
 10
22.23668799
 20
46.71501262
 30
0.0
 11
22.2366782
 21
46.71477907
 31
0.0
  0
LINE
  5
1A7
100
AcDbEntity
  8
SLD-0
  6
CONTINUOUS
 62
       7
100
AcDbLine
 10
22.2366782
 20
46.71477907
 30
0.0
 11
22.23665575
 21
46.71454568
 31
0.0
  0
LINE
  5
1A8
100
AcDbEntity
  8
SLD-0
  6
CONTINUOUS
 62
       7
100
AcDbLine
 10
22.23665575
 20
46.71454568
 30
0.0
 11
22.23662136
 21
46.71431243
 31
0.0
  0
LINE
  5
1A9
100
AcDbEntity
  8
SLD-0
  6
CONTINUOUS
 62
       7
100
AcDbLine
 10
22.23662136
 20
46.71431243
 30
0.0
 11
22.2365758
 21
46.71407931
 31
0.0
  0
LINE
  5
1AA
100
AcDbEntity
  8
SLD-0
  6
CONTINUOUS
 62
       7
100
AcDbLine
 10
22.2365758
 20
46.71407931
 30
0.0
 11
22.23651979
 21
46.71384632
 31
0.0
  0
LINE
  5
1AB
100
AcDbEntity
  8
SLD-0
  6
CONTINUOUS
 62
       7
100
AcDbLine
 10
22.23651979
 20
46.71384632
 30
0.0
 11
22.2364541
 21
46.71361345
 31
0.0
  0
LINE
  5
1AC
100
AcDbEntity
  8
SLD-0
  6
CONTINUOUS
 62
       7
100
AcDbLine
 10
22.2364541
 20
46.71361345
 30
0.0
 11
22.23637946
 21
46.71338068
 31
0.0
  0
LINE
  5
1AD
100
AcDbEntity
  8
SLD-0
  6
CONTINUOUS
 62
       7
100
AcDbLine
 10
22.23637946
 20
46.71338068
 30
0.0
 11
22.23629662
 21
46.71314802
 31
0.0
  0
LINE
  5
1AE
100
AcDbEntity
  8
SLD-0
  6
CONTINUOUS
 62
       7
100
AcDbLine
 10
22.23629662
 20
46.71314802
 30
0.0
 11
22.23620633
 21
46.71291544
 31
0.0
  0
LINE
  5
1AF
100
AcDbEntity
  8
SLD-0
  6
CONTINUOUS
 62
       7
100
AcDbLine
 10
22.23620633
 20
46.71291544
 30
0.0
 11
22.23610932
 21
46.71268294
 31
0.0
  0
LINE
  5
1B0
100
AcDbEntity
  8
SLD-0
  6
CONTINUOUS
 62
       7
100
AcDbLine
 10
22.23610932
 20
46.71268294
 30
0.0
 11
22.23600636
 21
46.71245052
 31
0.0
  0
LINE
  5
1B1
100
AcDbEntity
  8
SLD-0
  6
CONTINUOUS
 62
       7
100
AcDbLine
 10
22.23600636
 20
46.71245052
 30
0.0
 11
22.23589817
 21
46.71221815
 31
0.0
  0
LINE
  5
1B2
100
AcDbEntity
  8
SLD-0
  6
CONTINUOUS
 62
       7
100
AcDbLine
 10
22.23589817
 20
46.71221815
 30
0.0
 11
22.23578551
 21
46.71198585
 31
0.0
  0
LINE
  5
1B3
100
AcDbEntity
  8
SLD-0
  6
CONTINUOUS
 62
       7
100
AcDbLine
 10
22.23578551
 20
46.71198585
 30
0.0
 11
22.23566913
 21
46.71175358
 31
0.0
  0
LINE
  5
1B4
100
AcDbEntity
  8
SLD-0
  6
CONTINUOUS
 62
       7
100
AcDbLine
 10
22.23566913
 20
46.71175358
 30
0.0
 11
22.23554976
 21
46.71152136
 31
0.0
  0
LINE
  5
1B5
100
AcDbEntity
  8
SLD-0
  6
CONTINUOUS
 62
       7
100
AcDbLine
 10
22.23554976
 20
46.71152136
 30
0.0
 11
22.23542816
 21
46.71128915
 31
0.0
  0
LINE
  5
1B6
100
AcDbEntity
  8
SLD-0
  6
CONTINUOUS
 62
       7
100
AcDbLine
 10
22.23542816
 20
46.71128915
 30
0.0
 11
22.23530506
 21
46.71105697
 31
0.0
  0
LINE
  5
1B7
100
AcDbEntity
  8
SLD-0
  6
CONTINUOUS
 62
       7
100
AcDbLine
 10
22.23530506
 20
46.71105697
 30
0.0
 11
22.23518122
 21
46.7108248
 31
0.0
  0
ENDBLK
  5
1B8
100
AcDbEntity
  8
0
100
AcDbBlockEnd
  0
BLOCK
  5
1B9
100
AcDbEntity
  8
0
100
AcDbBlockBegin
  2
GROUP_10
 70
       0
 10
0.0
 20
0.0
 30
0.0
  3
GROUP_10
  1

  0
LINE
  5
1BA
100
AcDbEntity
  8
SLD-0
  6
CONTINUOUS
 62
       7
100
AcDbLine
 10
89.17854563
 20
-37.0365734
 30
0.0
 11
88.91828779
 21
-37.04582324
 31
0.0
  0
LINE
  5
1BB
100
AcDbEntity
  8
SLD-0
  6
CONTINUOUS
 62
       7
100
AcDbLine
 10
88.91828779
 20
-37.04582324
 30
0.0
 11
88.65801838
 21
-37.05498229
 31
0.0
  0
LINE
  5
1BC
100
AcDbEntity
  8
SLD-0
  6
CONTINUOUS
 62
       7
100
AcDbLine
 10
88.65801838
 20
-37.05498229
 30
0.0
 11
88.3977258
 21
-37.06395975
 31
0.0
  0
LINE
  5
1BD
100
AcDbEntity
  8
SLD-0
  6
CONTINUOUS
 62
       7
100
AcDbLine
 10
88.3977258
 20
-37.06395975
 30
0.0
 11
88.13739847
 21
-37.07266485
 31
0.0
  0
LINE
  5
1BE
100
AcDbEntity
  8
SLD-0
  6
CONTINUOUS
 62
       7
100
AcDbLine
 10
88.13739847
 20
-37.07266485
 30
0.0
 11
87.87702482
 21
-37.08100678
 31
0.0
  0
LINE
  5
1BF
100
AcDbEntity
  8
SLD-0
  6
CONTINUOUS
 62
       7
100
AcDbLine
 10
87.87702482
 20
-37.08100678
 30
0.0
 11
87.61659326
 21
-37.08889475
 31
0.0
  0
LINE
  5
1C0
100
AcDbEntity
  8
SLD-0
  6
CONTINUOUS
 62
       7
100
AcDbLine
 10
87.61659326
 20
-37.08889475
 30
0.0
 11
87.35609222
 21
-37.09623798
 31
0.0
  0
LINE
  5
1C1
100
AcDbEntity
  8
SLD-0
  6
CONTINUOUS
 62
       7
100
AcDbLine
 10
87.35609222
 20
-37.09623798
 30
0.0
 11
87.0955101
 21
-37.10294568
 31
0.0
  0
LINE
  5
1C2
100
AcDbEntity
  8
SLD-0
  6
CONTINUOUS
 62
       7
100
AcDbLine
 10
87.0955101
 20
-37.10294568
 30
0.0
 11
86.83483542
 21
-37.10892753
 31
0.0
  0
LINE
  5
1C3
100
AcDbEntity
  8
SLD-0
  6
CONTINUOUS
 62
       7
100
AcDbLine
 10
86.83483542
 20
-37.10892753
 30
0.0
 11
86.57406456
 21
-37.11413425
 31
0.0
  0
LINE
  5
1C4
100
AcDbEntity
  8
SLD-0
  6
CONTINUOUS
 62
       7
100
AcDbLine
 10
86.57406456
 20
-37.11413425
 30
0.0
 11
86.31320764
 21
-37.11858811
 31
0.0
  0
LINE
  5
1C5
100
AcDbEntity
  8
SLD-0
  6
CONTINUOUS
 62
       7
100
AcDbLine
 10
86.31320764
 20
-37.11858811
 30
0.0
 11
86.05227615
 21
-37.12231854
 31
0.0
  0
LINE
  5
1C6
100
AcDbEntity
  8
SLD-0
  6
CONTINUOUS
 62
       7
100
AcDbLine
 10
86.05227615
 20
-37.12231854
 30
0.0
 11
85.79128158
 21
-37.12535498
 31
0.0
  0
LINE
  5
1C7
100
AcDbEntity
  8
SLD-0
  6
CONTINUOUS
 62
       7
100
AcDbLine
 10
85.79128158
 20
-37.12535498
 30
0.0
 11
85.53023542
 21
-37.12772688
 31
0.0
  0
LINE
  5
1C8
100
AcDbEntity
  8
SLD-0
  6
CONTINUOUS
 62
       7
100
AcDbLine
 10
85.53023542
 20
-37.12772688
 30
0.0
 11
85.26914916
 21
-37.12946367
 31
0.0
  0
LINE
  5
1C9
100
AcDbEntity
  8
SLD-0
  6
CONTINUOUS
 62
       7
100
AcDbLine
 10
85.26914916
 20
-37.12946367
 30
0.0
 11
85.0080343
 21
-37.13059482
 31
0.0
  0
LINE
  5
1CA
100
AcDbEntity
  8
SLD-0
  6
CONTINUOUS
 62
       7
100
AcDbLine
 10
85.0080343
 20
-37.13059482
 30
0.0
 11
84.74690233
 21
-37.13114975
 31
0.0
  0
LINE
  5
1CB
100
AcDbEntity
  8
SLD-0
  6
CONTINUOUS
 62
       7
100
AcDbLine
 10
84.74690233
 20
-37.13114975
 30
0.0
 11
84.48576474
 21
-37.13115601
 31
0.0
  0
LINE
  5
1CC
100
AcDbEntity
  8
SLD-0
  6
CONTINUOUS
 62
       7
100
AcDbLine
 10
84.48576474
 20
-37.13115601
 30
0.0
 11
84.22463303
 21
-37.13061028
 31
0.0
  0
LINE
  5
1CD
100
AcDbEntity
  8
SLD-0
  6
CONTINUOUS
 62
       7
100
AcDbLine
 10
84.22463303
 20
-37.13061028
 30
0.0
 11
83.9635187
 21
-37.12948408
 31
0.0
  0
LINE
  5
1CE
100
AcDbEntity
  8
SLD-0
  6
CONTINUOUS
 62
       7
100
AcDbLine
 10
83.9635187
 20
-37.12948408
 30
0.0
 11
83.70243328
 21
-37.12774823
 31
0.0
  0
LINE
  5
1CF
100
AcDbEntity
  8
SLD-0
  6
CONTINUOUS
 62
       7
100
AcDbLine
 10
83.70243328
 20
-37.12774823
 30
0.0
 11
83.44138826
 21
-37.12537353
 31
0.0
  0
LINE
  5
1D0
100
AcDbEntity
  8
SLD-0
  6
CONTINUOUS
 62
       7
100
AcDbLine
 10
83.44138826
 20
-37.12537353
 30
0.0
 11
83.18039515
 21
-37.1223308
 31
0.0
  0
LINE
  5
1D1
100
AcDbEntity
  8
SLD-0
  6
CONTINUOUS
 62
       7
100
AcDbLine
 10
83.18039515
 20
-37.1223308
 30
0.0
 11
82.91946546
 21
-37.11859084
 31
0.0
  0
LINE
  5
1D2
100
AcDbEntity
  8
SLD-0
  6
CONTINUOUS
 62
       7
100
AcDbLine
 10
82.91946546
 20
-37.11859084
 30
0.0
 11
82.65861071
 21
-37.11412446
 31
0.0
  0
LINE
  5
1D3
100
AcDbEntity
  8
SLD-0
  6
CONTINUOUS
 62
       7
100
AcDbLine
 10
82.65861071
 20
-37.11412446
 30
0.0
 11
82.39784239
 21
-37.10890248
 31
0.0
  0
LINE
  5
1D4
100
AcDbEntity
  8
SLD-0
  6
CONTINUOUS
 62
       7
100
AcDbLine
 10
82.39784239
 20
-37.10890248
 30
0.0
 11
82.13717013
 21
-37.10290547
 31
0.0
  0
LINE
  5
1D5
100
AcDbEntity
  8
SLD-0
  6
CONTINUOUS
 62
       7
100
AcDbLine
 10
82.13717013
 20
-37.10290547
 30
0.0
 11
81.8765892
 21
-37.09618874
 31
0.0
  0
LINE
  5
1D6
100
AcDbEntity
  8
SLD-0
  6
CONTINUOUS
 62
       7
100
AcDbLine
 10
81.8765892
 20
-37.09618874
 30
0.0
 11
81.61608819
 21
-37.08884211
 31
0.0
  0
LINE
  5
1D7
100
AcDbEntity
  8
SLD-0
  6
CONTINUOUS
 62
       7
100
AcDbLine
 10
81.61608819
 20
-37.08884211
 30
0.0
 11
81.35565571
 21
-37.08095554
 31
0.0
  0
LINE
  5
1D8
100
AcDbEntity
  8
SLD-0
  6
CONTINUOUS
 62
       7
100
AcDbLine
 10
81.35565571
 20
-37.08095554
 30
0.0
 11
81.09528031
 21
-37.07261904
 31
0.0
  0
LINE
  5
1D9
100
AcDbEntity
  8
SLD-0
  6
CONTINUOUS
 62
       7
100
AcDbLine
 10
81.09528031
 20
-37.07261904
 30
0.0
 11
80.8349506
 21
-37.06392259
 31
0.0
  0
LINE
  5
1DA
100
AcDbEntity
  8
SLD-0
  6
CONTINUOUS
 62
       7
100
AcDbLine
 10
80.8349506
 20
-37.06392259
 30
0.0
 11
80.57465514
 21
-37.05495617
 31
0.0
  0
LINE
  5
1DB
100
AcDbEntity
  8
SLD-0
  6
CONTINUOUS
 62
       7
100
AcDbLine
 10
80.57465514
 20
-37.05495617
 30
0.0
 11
80.31438252
 21
-37.04580978
 31
0.0
  0
LINE
  5
1DC
100
AcDbEntity
  8
SLD-0
  6
CONTINUOUS
 62
       7
100
AcDbLine
 10
80.31438252
 20
-37.04580978
 30
0.0
 11
80.05412132
 21
-37.0365734
 31
0.0
  0
ENDBLK
  5
1DD
100
AcDbEntity
  8
0
100
AcDbBlockEnd
  0
BLOCK
  5
1DE
100
AcDbEntity
  8
0
100
AcDbBlockBegin
  2
GROUP_11
 70
       0
 10
0.0
 20
0.0
 30
0.0
  3
GROUP_11
  1

  0
LINE
  5
1DF
100
AcDbEntity
  8
SLD-0
  6
CONTINUOUS
 62
       7
100
AcDbLine
 10
90.61633352
 20
-35.53786304
 30
0.0
 11
90.6132172
 21
-35.5950598
 31
0.0
  0
LINE
  5
1E0
100
AcDbEntity
  8
SLD-0
  6
CONTINUOUS
 62
       7
100
AcDbLine
 10
90.6132172
 20
-35.5950598
 30
0.0
 11
90.60953656
 21
-35.65218536
 31
0.0
  0
LINE
  5
1E1
100
AcDbEntity
  8
SLD-0
  6
CONTINUOUS
 62
       7
100
AcDbLine
 10
90.60953656
 20
-35.65218536
 30
0.0
 11
90.60472728
 21
-35.70916854
 31
0.0
  0
LINE
  5
1E2
100
AcDbEntity
  8
SLD-0
  6
CONTINUOUS
 62
       7
100
AcDbLine
 10
90.60472728
 20
-35.70916854
 30
0.0
 11
90.59822505
 21
-35.76593814
 31
0.0
  0
LINE
  5
1E3
100
AcDbEntity
  8
SLD-0
  6
CONTINUOUS
 62
       7
100
AcDbLine
 10
90.59822505
 20
-35.76593814
 30
0.0
 11
90.5894726
 21
-35.82242273
 31
0.0
  0
LINE
  5
1E4
100
AcDbEntity
  8
SLD-0
  6
CONTINUOUS
 62
       7
100
AcDbLine
 10
90.5894726
 20
-35.82242273
 30
0.0
 11
90.57818391
 21
-35.87854162
 31
0.0
  0
LINE
  5
1E5
100
AcDbEntity
  8
SLD-0
  6
CONTINUOUS
 62
       7
100
AcDbLine
 10
90.57818391
 20
-35.87854162
 30
0.0
 11
90.56442337
 21
-35.93420218
 31
0.0
  0
LINE
  5
1E6
100
AcDbEntity
  8
SLD-0
  6
CONTINUOUS
 62
       7
100
AcDbLine
 10
90.56442337
 20
-35.93420218
 30
0.0
 11
90.54827862
 21
-35.98931095
 31
0.0
  0
LINE
  5
1E7
100
AcDbEntity
  8
SLD-0
  6
CONTINUOUS
 62
       7
100
AcDbLine
 10
90.54827862
 20
-35.98931095
 30
0.0
 11
90.52983726
 21
-36.04377452
 31
0.0
  0
LINE
  5
1E8
100
AcDbEntity
  8
SLD-0
  6
CONTINUOUS
 62
       7
100
AcDbLine
 10
90.52983726
 20
-36.04377452
 30
0.0
 11
90.50918693
 21
-36.09749945
 31
0.0
  0
LINE
  5
1E9
100
AcDbEntity
  8
SLD-0
  6
CONTINUOUS
 62
       7
100
AcDbLine
 10
90.50918693
 20
-36.09749945
 30
0.0
 11
90.48641525
 21
-36.1503923
 31
0.0
  0
LINE
  5
1EA
100
AcDbEntity
  8
SLD-0
  6
CONTINUOUS
 62
       7
100
AcDbLine
 10
90.48641525
 20
-36.1503923
 30
0.0
 11
90.46160984
 21
-36.20235965
 31
0.0
  0
LINE
  5
1EB
100
AcDbEntity
  8
SLD-0
  6
CONTINUOUS
 62
       7
100
AcDbLine
 10
90.46160984
 20
-36.20235965
 30
0.0
 11
90.43485833
 21
-36.25330805
 31
0.0
  0
LINE
  5
1EC
100
AcDbEntity
  8
SLD-0
  6
CONTINUOUS
 62
       7
100
AcDbLine
 10
90.43485833
 20
-36.25330805
 30
0.0
 11
90.40624676
 21
-36.3031458
 31
0.0
  0
LINE
  5
1ED
100
AcDbEntity
  8
SLD-0
  6
CONTINUOUS
 62
       7
100
AcDbLine
 10
90.40624676
 20
-36.3031458
 30
0.0
 11
90.37583564
 21
-36.35180924
 31
0.0
  0
LINE
  5
1EE
100
AcDbEntity
  8
SLD-0
  6
CONTINUOUS
 62
       7
100
AcDbLine
 10
90.37583564
 20
-36.35180924
 30
0.0
 11
90.34366472
 21
-36.39925752
 31
0.0
  0
LINE
  5
1EF
100
AcDbEntity
  8
SLD-0
  6
CONTINUOUS
 62
       7
100
AcDbLine
 10
90.34366472
 20
-36.39925752
 30
0.0
 11
90.30977314
 21
-36.44545043
 31
0.0
  0
LINE
  5
1F0
100
AcDbEntity
  8
SLD-0
  6
CONTINUOUS
 62
       7
100
AcDbLine
 10
90.30977314
 20
-36.44545043
 30
0.0
 11
90.27420006
 21
-36.49034776
 31
0.0
  0
LINE
  5
1F1
100
AcDbEntity
  8
SLD-0
  6
CONTINUOUS
 62
       7
100
AcDbLine
 10
90.27420006
 20
-36.49034776
 30
0.0
 11
90.23698462
 21
-36.53390931
 31
0.0
  0
LINE
  5
1F2
100
AcDbEntity
  8
SLD-0
  6
CONTINUOUS
 62
       7
100
AcDbLine
 10
90.23698462
 20
-36.53390931
 30
0.0
 11
90.19816597
 21
-36.57609488
 31
0.0
  0
LINE
  5
1F3
100
AcDbEntity
  8
SLD-0
  6
CONTINUOUS
 62
       7
100
AcDbLine
 10
90.19816597
 20
-36.57609488
 30
0.0
 11
90.15778325
 21
-36.61686426
 31
0.0
  0
LINE
  5
1F4
100
AcDbEntity
  8
SLD-0
  6
CONTINUOUS
 62
       7
100
AcDbLine
 10
90.15778325
 20
-36.61686426
 30
0.0
 11
90.11587562
 21
-36.65617726
 31
0.0
  0
LINE
  5
1F5
100
AcDbEntity
  8
SLD-0
  6
CONTINUOUS
 62
       7
100
AcDbLine
 10
90.11587562
 20
-36.65617726
 30
0.0
 11
90.0724843
 21
-36.6939881
 31
0.0
  0
LINE
  5
1F6
100
AcDbEntity
  8
SLD-0
  6
CONTINUOUS
 62
       7
100
AcDbLine
 10
90.0724843
 20
-36.6939881
 30
0.0
 11
90.02767028
 21
-36.73019803
 31
0.0
  0
LINE
  5
1F7
100
AcDbEntity
  8
SLD-0
  6
CONTINUOUS
 62
       7
100
AcDbLine
 10
90.02767028
 20
-36.73019803
 30
0.0
 11
89.98150553
 21
-36.76467891
 31
0.0
  0
LINE
  5
1F8
100
AcDbEntity
  8
SLD-0
  6
CONTINUOUS
 62
       7
100
AcDbLine
 10
89.98150553
 20
-36.76467891
 30
0.0
 11
89.93406213
 21
-36.79730228
 31
0.0
  0
LINE
  5
1F9
100
AcDbEntity
  8
SLD-0
  6
CONTINUOUS
 62
       7
100
AcDbLine
 10
89.93406213
 20
-36.79730228
 30
0.0
 11
89.88541217
 21
-36.82793969
 31
0.0
  0
LINE
  5
1FA
100
AcDbEntity
  8
SLD-0
  6
CONTINUOUS
 62
       7
100
AcDbLine
 10
89.88541217
 20
-36.82793969
 30
0.0
 11
89.83562772
 21
-36.85646266
 31
0.0
  0
LINE
  5
1FB
100
AcDbEntity
  8
SLD-0
  6
CONTINUOUS
 62
       7
100
AcDbLine
 10
89.83562772
 20
-36.85646266
 30
0.0
 11
89.78478087
 21
-36.88274275
 31
0.0
  0
LINE
  5
1FC
100
AcDbEntity
  8
SLD-0
  6
CONTINUOUS
 62
       7
100
AcDbLine
 10
89.78478087
 20
-36.88274275
 30
0.0
 11
89.7329437
 21
-36.9066515
 31
0.0
  0
LINE
  5
1FD
100
AcDbEntity
  8
SLD-0
  6
CONTINUOUS
 62
       7
100
AcDbLine
 10
89.7329437
 20
-36.9066515
 30
0.0
 11
89.68018829
 21
-36.92806044
 31
0.0
  0
LINE
  5
1FE
100
AcDbEntity
  8
SLD-0
  6
CONTINUOUS
 62
       7
100
AcDbLine
 10
89.68018829
 20
-36.92806044
 30
0.0
 11
89.62658909
 21
-36.9468865
 31
0.0
  0
LINE
  5
1FF
100
AcDbEntity
  8
SLD-0
  6
CONTINUOUS
 62
       7
100
AcDbLine
 10
89.62658909
 20
-36.9468865
 30
0.0
 11
89.572235
 21
-36.96332361
 31
0.0
  0
LINE
  5
200
100
AcDbEntity
  8
SLD-0
  6
CONTINUOUS
 62
       7
100
AcDbLine
 10
89.572235
 20
-36.96332361
 30
0.0
 11
89.51722037
 21
-36.97767022
 31
0.0
  0
LINE
  5
201
100
AcDbEntity
  8
SLD-0
  6
CONTINUOUS
 62
       7
100
AcDbLine
 10
89.51722037
 20
-36.97767022
 30
0.0
 11
89.46163957
 21
-36.99022498
 31
0.0
  0
LINE
  5
202
100
AcDbEntity
  8
SLD-0
  6
CONTINUOUS
 62
       7
100
AcDbLine
 10
89.46163957
 20
-36.99022498
 30
0.0
 11
89.40558696
 21
-37.00128652
 31
0.0
  0
LINE
  5
203
100
AcDbEntity
  8
SLD-0
  6
CONTINUOUS
 62
       7
100
AcDbLine
 10
89.40558696
 20
-37.00128652
 30
0.0
 11
89.34915689
 21
-37.01115349
 31
0.0
  0
LINE
  5
204
100
AcDbEntity
  8
SLD-0
  6
CONTINUOUS
 62
       7
100
AcDbLine
 10
89.34915689
 20
-37.01115349
 30
0.0
 11
89.29244374
 21
-37.02012453
 31
0.0
  0
LINE
  5
205
100
AcDbEntity
  8
SLD-0
  6
CONTINUOUS
 62
       7
100
AcDbLine
 10
89.29244374
 20
-37.02012453
 30
0.0
 11
89.23554186
 21
-37.02849829
 31
0.0
  0
LINE
  5
206
100
AcDbEntity
  8
SLD-0
  6
CONTINUOUS
 62
       7
100
AcDbLine
 10
89.23554186
 20
-37.02849829
 30
0.0
 11
89.17854563
 21
-37.0365734
 31
0.0
  0
ENDBLK
  5
207
100
AcDbEntity
  8
0
100
AcDbBlockEnd
  0
BLOCK
  5
208
100
AcDbEntity
  8
0
100
AcDbBlockBegin
  2
GROUP_12
 70
       0
 10
0.0
 20
0.0
 30
0.0
  3
GROUP_12
  1

  0
LINE
  5
209
100
AcDbEntity
  8
SLD-0
  6
CONTINUOUS
 62
       7
100
AcDbLine
 10
80.05412132
 20
-37.0365734
 30
0.0
 11
79.99723618
 21
-37.03095953
 31
0.0
  0
LINE
  5
20A
100
AcDbEntity
  8
SLD-0
  6
CONTINUOUS
 62
       7
100
AcDbLine
 10
79.99723618
 20
-37.03095953
 30
0.0
 11
79.94044461
 21
-37.02481373
 31
0.0
  0
LINE
  5
20B
100
AcDbEntity
  8
SLD-0
  6
CONTINUOUS
 62
       7
100
AcDbLine
 10
79.94044461
 20
-37.02481373
 30
0.0
 11
79.88384018
 21
-37.0176041
 31
0.0
  0
LINE
  5
20C
100
AcDbEntity
  8
SLD-0
  6
CONTINUOUS
 62
       7
100
AcDbLine
 10
79.88384018
 20
-37.0176041
 30
0.0
 11
79.82751646
 21
-37.0087987
 31
0.0
  0
LINE
  5
20D
100
AcDbEntity
  8
SLD-0
  6
CONTINUOUS
 62
       7
100
AcDbLine
 10
79.82751646
 20
-37.0087987
 30
0.0
 11
79.77156703
 21
-36.99786603
 31
0.0
  0
LINE
  5
20E
100
AcDbEntity
  8
SLD-0
  6
CONTINUOUS
 62
       7
100
AcDbLine
 10
79.77156703
 20
-36.99786603
 30
0.0
 11
79.71608396
 21
-36.98443442
 31
0.0
  0
LINE
  5
20F
100
AcDbEntity
  8
SLD-0
  6
CONTINUOUS
 62
       7
100
AcDbLine
 10
79.71608396
 20
-36.98443442
 30
0.0
 11
79.66115561
 21
-36.96853418
 31
0.0
  0
LINE
  5
210
100
AcDbEntity
  8
SLD-0
  6
CONTINUOUS
 62
       7
100
AcDbLine
 10
79.66115561
 20
-36.96853418
 30
0.0
 11
79.60686978
 21
-36.95025784
 31
0.0
  0
LINE
  5
211
100
AcDbEntity
  8
SLD-0
  6
CONTINUOUS
 62
       7
100
AcDbLine
 10
79.60686978
 20
-36.95025784
 30
0.0
 11
79.55331423
 21
-36.92969791
 31
0.0
  0
LINE
  5
212
100
AcDbEntity
  8
SLD-0
  6
CONTINUOUS
 62
       7
100
AcDbLine
 10
79.55331423
 20
-36.92969791
 30
0.0
 11
79.50057677
 21
-36.90694689
 31
0.0
  0
LINE
  5
213
100
AcDbEntity
  8
SLD-0
  6
CONTINUOUS
 62
       7
100
AcDbLine
 10
79.50057677
 20
-36.90694689
 30
0.0
 11
79.44874516
 21
-36.88209732
 31
0.0
  0
LINE
  5
214
100
AcDbEntity
  8
SLD-0
  6
CONTINUOUS
 62
       7
100
AcDbLine
 10
79.44874516
 20
-36.88209732
 30
0.0
 11
79.3979072
 21
-36.85524169
 31
0.0
  0
LINE
  5
215
100
AcDbEntity
  8
SLD-0
  6
CONTINUOUS
 62
       7
100
AcDbLine
 10
79.3979072
 20
-36.85524169
 30
0.0
 11
79.34815066
 21
-36.82647253
 31
0.0
  0
LINE
  5
216
100
AcDbEntity
  8
SLD-0
  6
CONTINUOUS
 62
       7
100
AcDbLine
 10
79.34815066
 20
-36.82647253
 30
0.0
 11
79.29956305
 21
-36.79588204
 31
0.0
  0
LINE
  5
217
100
AcDbEntity
  8
SLD-0
  6
CONTINUOUS
 62
       7
100
AcDbLine
 10
79.29956305
 20
-36.79588204
 30
0.0
 11
79.25221387
 21
-36.7635429
 31
0.0
  0
LINE
  5
218
100
AcDbEntity
  8
SLD-0
  6
CONTINUOUS
 62
       7
100
AcDbLine
 10
79.25221387
 20
-36.7635429
 30
0.0
 11
79.20614431
 21
-36.72949703
 31
0.0
  0
LINE
  5
219
100
AcDbEntity
  8
SLD-0
  6
CONTINUOUS
 62
       7
100
AcDbLine
 10
79.20614431
 20
-36.72949703
 30
0.0
 11
79.16139305
 21
-36.69378366
 31
0.0
  0
LINE
  5
21A
100
AcDbEntity
  8
SLD-0
  6
CONTINUOUS
 62
       7
100
AcDbLine
 10
79.16139305
 20
-36.69378366
 30
0.0
 11
79.1179988
 21
-36.65644202
 31
0.0
  0
LINE
  5
21B
100
AcDbEntity
  8
SLD-0
  6
CONTINUOUS
 62
       7
100
AcDbLine
 10
79.1179988
 20
-36.65644202
 30
0.0
 11
79.07600024
 21
-36.61751132
 31
0.0
  0
LINE
  5
21C
100
AcDbEntity
  8
SLD-0
  6
CONTINUOUS
 62
       7
100
AcDbLine
 10
79.07600024
 20
-36.61751132
 30
0.0
 11
79.03543606
 21
-36.57703079
 31
0.0
  0
LINE
  5
21D
100
AcDbEntity
  8
SLD-0
  6
CONTINUOUS
 62
       7
100
AcDbLine
 10
79.03543606
 20
-36.57703079
 30
0.0
 11
78.99634495
 21
-36.53503965
 31
0.0
  0
LINE
  5
21E
100
AcDbEntity
  8
SLD-0
  6
CONTINUOUS
 62
       7
100
AcDbLine
 10
78.99634495
 20
-36.53503965
 30
0.0
 11
78.95876561
 21
-36.49157713
 31
0.0
  0
LINE
  5
21F
100
AcDbEntity
  8
SLD-0
  6
CONTINUOUS
 62
       7
100
AcDbLine
 10
78.95876561
 20
-36.49157713
 30
0.0
 11
78.92273906
 21
-36.44668347
 31
0.0
  0
LINE
  5
220
100
AcDbEntity
  8
SLD-0
  6
CONTINUOUS
 62
       7
100
AcDbLine
 10
78.92273906
 20
-36.44668347
 30
0.0
 11
78.88835124
 21
-36.40041844
 31
0.0
  0
LINE
  5
221
100
AcDbEntity
  8
SLD-0
  6
CONTINUOUS
 62
       7
100
AcDbLine
 10
78.88835124
 20
-36.40041844
 30
0.0
 11
78.85572865
 21
-36.35285949
 31
0.0
  0
LINE
  5
222
100
AcDbEntity
  8
SLD-0
  6
CONTINUOUS
 62
       7
100
AcDbLine
 10
78.85572865
 20
-36.35285949
 30
0.0
 11
78.82499925
 21
-36.30408467
 31
0.0
  0
LINE
  5
223
100
AcDbEntity
  8
SLD-0
  6
CONTINUOUS
 62
       7
100
AcDbLine
 10
78.82499925
 20
-36.30408467
 30
0.0
 11
78.79629098
 21
-36.25417205
 31
0.0
  0
LINE
  5
224
100
AcDbEntity
  8
SLD-0
  6
CONTINUOUS
 62
       7
100
AcDbLine
 10
78.79629098
 20
-36.25417205
 30
0.0
 11
78.7697318
 21
-36.20319969
 31
0.0
  0
LINE
  5
225
100
AcDbEntity
  8
SLD-0
  6
CONTINUOUS
 62
       7
100
AcDbLine
 10
78.7697318
 20
-36.20319969
 30
0.0
 11
78.74544966
 21
-36.15124566
 31
0.0
  0
LINE
  5
226
100
AcDbEntity
  8
SLD-0
  6
CONTINUOUS
 62
       7
100
AcDbLine
 10
78.74544966
 20
-36.15124566
 30
0.0
 11
78.7235725
 21
-36.09838803
 31
0.0
  0
LINE
  5
227
100
AcDbEntity
  8
SLD-0
  6
CONTINUOUS
 62
       7
100
AcDbLine
 10
78.7235725
 20
-36.09838803
 30
0.0
 11
78.70422829
 21
-36.04470484
 31
0.0
  0
LINE
  5
228
100
AcDbEntity
  8
SLD-0
  6
CONTINUOUS
 62
       7
100
AcDbLine
 10
78.70422829
 20
-36.04470484
 30
0.0
 11
78.68751166
 21
-35.99027457
 31
0.0
  0
LINE
  5
229
100
AcDbEntity
  8
SLD-0
  6
CONTINUOUS
 62
       7
100
AcDbLine
 10
78.68751166
 20
-35.99027457
 30
0.0
 11
78.67324757
 21
-35.93517883
 31
0.0
  0
LINE
  5
22A
100
AcDbEntity
  8
SLD-0
  6
CONTINUOUS
 62
       7
100
AcDbLine
 10
78.67324757
 20
-35.93517883
 30
0.0
 11
78.66113021
 21
-35.87950082
 31
0.0
  0
LINE
  5
22B
100
AcDbEntity
  8
SLD-0
  6
CONTINUOUS
 62
       7
100
AcDbLine
 10
78.66113021
 20
-35.87950082
 30
0.0
 11
78.65085289
 21
-35.8233237
 31
0.0
  0
LINE
  5
22C
100
AcDbEntity
  8
SLD-0
  6
CONTINUOUS
 62
       7
100
AcDbLine
 10
78.65085289
 20
-35.8233237
 30
0.0
 11
78.64210895
 21
-35.76673067
 31
0.0
  0
LINE
  5
22D
100
AcDbEntity
  8
SLD-0
  6
CONTINUOUS
 62
       7
100
AcDbLine
 10
78.64210895
 20
-35.76673067
 30
0.0
 11
78.6345917
 21
-35.7098049
 31
0.0
  0
LINE
  5
22E
100
AcDbEntity
  8
SLD-0
  6
CONTINUOUS
 62
       7
100
AcDbLine
 10
78.6345917
 20
-35.7098049
 30
0.0
 11
78.62799448
 21
-35.65262959
 31
0.0
  0
LINE
  5
22F
100
AcDbEntity
  8
SLD-0
  6
CONTINUOUS
 62
       7
100
AcDbLine
 10
78.62799448
 20
-35.65262959
 30
0.0
 11
78.62201061
 21
-35.5952879
 31
0.0
  0
LINE
  5
230
100
AcDbEntity
  8
SLD-0
  6
CONTINUOUS
 62
       7
100
AcDbLine
 10
78.62201061
 20
-35.5952879
 30
0.0
 11
78.61633342
 21
-35.53786304
 31
0.0
  0
ENDBLK
  5
231
100
AcDbEntity
  8
0
100
AcDbBlockEnd
  0
BLOCK
  5
232
100
AcDbEntity
  8
0
100
AcDbBlockBegin
  2
GROUP_13
 70
       0
 10
0.0
 20
0.0
 30
0.0
  3
GROUP_13
  1

  0
LINE
  5
233
100
AcDbEntity
  8
SLD-0
  6
CONTINUOUS
 62
       7
100
AcDbLine
 10
86.36639092
 20
41.0521852
 30
0.0
 11
86.44228056
 21
41.09337
 31
0.0
  0
LINE
  5
234
100
AcDbEntity
  8
SLD-0
  6
CONTINUOUS
 62
       7
100
AcDbLine
 10
86.44228056
 20
41.09337
 30
0.0
 11
86.51723413
 21
41.13630683
 31
0.0
  0
LINE
  5
235
100
AcDbEntity
  8
SLD-0
  6
CONTINUOUS
 62
       7
100
AcDbLine
 10
86.51723413
 20
41.13630683
 30
0.0
 11
86.59120548
 21
41.18096855
 31
0.0
  0
LINE
  5
236
100
AcDbEntity
  8
SLD-0
  6
CONTINUOUS
 62
       7
100
AcDbLine
 10
86.59120548
 20
41.18096855
 30
0.0
 11
86.66414853
 21
41.2273279
 31
0.0
  0
LINE
  5
237
100
AcDbEntity
  8
SLD-0
  6
CONTINUOUS
 62
       7
100
AcDbLine
 10
86.66414853
 20
41.2273279
 30
0.0
 11
86.73601722
 21
41.27535759
 31
0.0
  0
LINE
  5
238
100
AcDbEntity
  8
SLD-0
  6
CONTINUOUS
 62
       7
100
AcDbLine
 10
86.73601722
 20
41.27535759
 30
0.0
 11
86.80676548
 21
41.32503036
 31
0.0
  0
LINE
  5
239
100
AcDbEntity
  8
SLD-0
  6
CONTINUOUS
 62
       7
100
AcDbLine
 10
86.80676548
 20
41.32503036
 30
0.0
 11
86.87634724
 21
41.37631894
 31
0.0
  0
LINE
  5
23A
100
AcDbEntity
  8
SLD-0
  6
CONTINUOUS
 62
       7
100
AcDbLine
 10
86.87634724
 20
41.37631894
 30
0.0
 11
86.94471749
 21
41.42919582
 31
0.0
  0
LINE
  5
23B
100
AcDbEntity
  8
SLD-0
  6
CONTINUOUS
 62
       7
100
AcDbLine
 10
86.94471749
 20
41.42919582
 30
0.0
 11
87.01183992
 21
41.48363155
 31
0.0
  0
LINE
  5
23C
100
AcDbEntity
  8
SLD-0
  6
CONTINUOUS
 62
       7
100
AcDbLine
 10
87.01183992
 20
41.48363155
 30
0.0
 11
87.07768244
 21
41.53959573
 31
0.0
  0
LINE
  5
23D
100
AcDbEntity
  8
SLD-0
  6
CONTINUOUS
 62
       7
100
AcDbLine
 10
87.07768244
 20
41.53959573
 30
0.0
 11
87.14221299
 21
41.59705798
 31
0.0
  0
LINE
  5
23E
100
AcDbEntity
  8
SLD-0
  6
CONTINUOUS
 62
       7
100
AcDbLine
 10
87.14221299
 20
41.59705798
 30
0.0
 11
87.2053995
 21
41.6559879
 31
0.0
  0
LINE
  5
23F
100
AcDbEntity
  8
SLD-0
  6
CONTINUOUS
 62
       7
100
AcDbLine
 10
87.2053995
 20
41.6559879
 30
0.0
 11
87.26720989
 21
41.71635509
 31
0.0
  0
LINE
  5
240
100
AcDbEntity
  8
SLD-0
  6
CONTINUOUS
 62
       7
100
AcDbLine
 10
87.26720989
 20
41.71635509
 30
0.0
 11
87.32761211
 21
41.77812916
 31
0.0
  0
LINE
  5
241
100
AcDbEntity
  8
SLD-0
  6
CONTINUOUS
 62
       7
100
AcDbLine
 10
87.32761211
 20
41.77812916
 30
0.0
 11
87.38657411
 21
41.84127967
 31
0.0
  0
LINE
  5
242
100
AcDbEntity
  8
SLD-0
  6
CONTINUOUS
 62
       7
100
AcDbLine
 10
87.38657411
 20
41.84127967
 30
0.0
 11
87.44406525
 21
41.9057742
 31
0.0
  0
LINE
  5
243
100
AcDbEntity
  8
SLD-0
  6
CONTINUOUS
 62
       7
100
AcDbLine
 10
87.44406525
 20
41.9057742
 30
0.0
 11
87.50005693
 21
41.97157741
 31
0.0
  0
LINE
  5
244
100
AcDbEntity
  8
SLD-0
  6
CONTINUOUS
 62
       7
100
AcDbLine
 10
87.50005693
 20
41.97157741
 30
0.0
 11
87.55452067
 21
42.03865375
 31
0.0
  0
LINE
  5
245
100
AcDbEntity
  8
SLD-0
  6
CONTINUOUS
 62
       7
100
AcDbLine
 10
87.55452067
 20
42.03865375
 30
0.0
 11
87.60742805
 21
42.10696765
 31
0.0
  0
LINE
  5
246
100
AcDbEntity
  8
SLD-0
  6
CONTINUOUS
 62
       7
100
AcDbLine
 10
87.60742805
 20
42.10696765
 30
0.0
 11
87.65875061
 21
42.17648356
 31
0.0
  0
LINE
  5
247
100
AcDbEntity
  8
SLD-0
  6
CONTINUOUS
 62
       7
100
AcDbLine
 10
87.65875061
 20
42.17648356
 30
0.0
 11
87.70845989
 21
42.24716591
 31
0.0
  0
LINE
  5
248
100
AcDbEntity
  8
SLD-0
  6
CONTINUOUS
 62
       7
100
AcDbLine
 10
87.70845989
 20
42.24716591
 30
0.0
 11
87.75652746
 21
42.31897913
 31
0.0
  0
LINE
  5
249
100
AcDbEntity
  8
SLD-0
  6
CONTINUOUS
 62
       7
100
AcDbLine
 10
87.75652746
 20
42.31897913
 30
0.0
 11
87.80292639
 21
42.39188642
 31
0.0
  0
LINE
  5
24A
100
AcDbEntity
  8
SLD-0
  6
CONTINUOUS
 62
       7
100
AcDbLine
 10
87.80292639
 20
42.39188642
 30
0.0
 11
87.84763386
 21
42.46584758
 31
0.0
  0
LINE
  5
24B
100
AcDbEntity
  8
SLD-0
  6
CONTINUOUS
 62
       7
100
AcDbLine
 10
87.84763386
 20
42.46584758
 30
0.0
 11
87.89062772
 21
42.5408219
 31
0.0
  0
LINE
  5
24C
100
AcDbEntity
  8
SLD-0
  6
CONTINUOUS
 62
       7
100
AcDbLine
 10
87.89062772
 20
42.5408219
 30
0.0
 11
87.9318858
 21
42.61676865
 31
0.0
  0
LINE
  5
24D
100
AcDbEntity
  8
SLD-0
  6
CONTINUOUS
 62
       7
100
AcDbLine
 10
87.9318858
 20
42.61676865
 30
0.0
 11
87.97138595
 21
42.6936471
 31
0.0
  0
LINE
  5
24E
100
AcDbEntity
  8
SLD-0
  6
CONTINUOUS
 62
       7
100
AcDbLine
 10
87.97138595
 20
42.6936471
 30
0.0
 11
88.00910601
 21
42.77141652
 31
0.0
  0
LINE
  5
24F
100
AcDbEntity
  8
SLD-0
  6
CONTINUOUS
 62
       7
100
AcDbLine
 10
88.00910601
 20
42.77141652
 30
0.0
 11
88.04502383
 21
42.8500362
 31
0.0
  0
LINE
  5
250
100
AcDbEntity
  8
SLD-0
  6
CONTINUOUS
 62
       7
100
AcDbLine
 10
88.04502383
 20
42.8500362
 30
0.0
 11
88.07911768
 21
42.92946526
 31
0.0
  0
LINE
  5
251
100
AcDbEntity
  8
SLD-0
  6
CONTINUOUS
 62
       7
100
AcDbLine
 10
88.07911768
 20
42.92946526
 30
0.0
 11
88.11137022
 21
43.00966155
 31
0.0
  0
LINE
  5
252
100
AcDbEntity
  8
SLD-0
  6
CONTINUOUS
 62
       7
100
AcDbLine
 10
88.11137022
 20
43.00966155
 30
0.0
 11
88.1417666
 21
43.09058216
 31
0.0
  0
LINE
  5
253
100
AcDbEntity
  8
SLD-0
  6
CONTINUOUS
 62
       7
100
AcDbLine
 10
88.1417666
 20
43.09058216
 30
0.0
 11
88.17029199
 21
43.17218418
 31
0.0
  0
LINE
  5
254
100
AcDbEntity
  8
SLD-0
  6
CONTINUOUS
 62
       7
100
AcDbLine
 10
88.17029199
 20
43.17218418
 30
0.0
 11
88.19693158
 21
43.25442469
 31
0.0
  0
LINE
  5
255
100
AcDbEntity
  8
SLD-0
  6
CONTINUOUS
 62
       7
100
AcDbLine
 10
88.19693158
 20
43.25442469
 30
0.0
 11
88.22167054
 21
43.33726077
 31
0.0
  0
LINE
  5
256
100
AcDbEntity
  8
SLD-0
  6
CONTINUOUS
 62
       7
100
AcDbLine
 10
88.22167054
 20
43.33726077
 30
0.0
 11
88.24449407
 21
43.42064951
 31
0.0
  0
LINE
  5
257
100
AcDbEntity
  8
SLD-0
  6
CONTINUOUS
 62
       7
100
AcDbLine
 10
88.24449407
 20
43.42064951
 30
0.0
 11
88.26538749
 21
43.50454792
 31
0.0
  0
LINE
  5
258
100
AcDbEntity
  8
SLD-0
  6
CONTINUOUS
 62
       7
100
AcDbLine
 10
88.26538749
 20
43.50454792
 30
0.0
 11
88.28433957
 21
43.5889113
 31
0.0
  0
LINE
  5
259
100
AcDbEntity
  8
SLD-0
  6
CONTINUOUS
 62
       7
100
AcDbLine
 10
88.28433957
 20
43.5889113
 30
0.0
 11
88.30134246
 21
43.67369326
 31
0.0
  0
LINE
  5
25A
100
AcDbEntity
  8
SLD-0
  6
CONTINUOUS
 62
       7
100
AcDbLine
 10
88.30134246
 20
43.67369326
 30
0.0
 11
88.3163885
 21
43.75884735
 31
0.0
  0
LINE
  5
25B
100
AcDbEntity
  8
SLD-0
  6
CONTINUOUS
 62
       7
100
AcDbLine
 10
88.3163885
 20
43.75884735
 30
0.0
 11
88.32946998
 21
43.8443271
 31
0.0
  0
LINE
  5
25C
100
AcDbEntity
  8
SLD-0
  6
CONTINUOUS
 62
       7
100
AcDbLine
 10
88.32946998
 20
43.8443271
 30
0.0
 11
88.34057923
 21
43.93008606
 31
0.0
  0
LINE
  5
25D
100
AcDbEntity
  8
SLD-0
  6
CONTINUOUS
 62
       7
100
AcDbLine
 10
88.34057923
 20
43.93008606
 30
0.0
 11
88.34970855
 21
44.01607776
 31
0.0
  0
LINE
  5
25E
100
AcDbEntity
  8
SLD-0
  6
CONTINUOUS
 62
       7
100
AcDbLine
 10
88.34970855
 20
44.01607776
 30
0.0
 11
88.35685026
 21
44.10225575
 31
0.0
  0
LINE
  5
25F
100
AcDbEntity
  8
SLD-0
  6
CONTINUOUS
 62
       7
100
AcDbLine
 10
88.35685026
 20
44.10225575
 30
0.0
 11
88.36199853
 21
44.18857385
 31
0.0
  0
LINE
  5
260
100
AcDbEntity
  8
SLD-0
  6
CONTINUOUS
 62
       7
100
AcDbLine
 10
88.36199853
 20
44.18857385
 30
0.0
 11
88.36515325
 21
44.27498674
 31
0.0
  0
LINE
  5
261
100
AcDbEntity
  8
SLD-0
  6
CONTINUOUS
 62
       7
100
AcDbLine
 10
88.36515325
 20
44.27498674
 30
0.0
 11
88.36631546
 21
44.36144927
 31
0.0
  0
LINE
  5
262
100
AcDbEntity
  8
SLD-0
  6
CONTINUOUS
 62
       7
100
AcDbLine
 10
88.36631546
 20
44.36144927
 30
0.0
 11
88.36548614
 21
44.4479163
 31
0.0
  0
LINE
  5
263
100
AcDbEntity
  8
SLD-0
  6
CONTINUOUS
 62
       7
100
AcDbLine
 10
88.36548614
 20
44.4479163
 30
0.0
 11
88.36266633
 21
44.53434267
 31
0.0
  0
LINE
  5
264
100
AcDbEntity
  8
SLD-0
  6
CONTINUOUS
 62
       7
100
AcDbLine
 10
88.36266633
 20
44.53434267
 30
0.0
 11
88.35785702
 21
44.62068324
 31
0.0
  0
LINE
  5
265
100
AcDbEntity
  8
SLD-0
  6
CONTINUOUS
 62
       7
100
AcDbLine
 10
88.35785702
 20
44.62068324
 30
0.0
 11
88.35105924
 21
44.70689286
 31
0.0
  0
LINE
  5
266
100
AcDbEntity
  8
SLD-0
  6
CONTINUOUS
 62
       7
100
AcDbLine
 10
88.35105924
 20
44.70689286
 30
0.0
 11
88.34227463
 21
44.79292603
 31
0.0
  0
LINE
  5
267
100
AcDbEntity
  8
SLD-0
  6
CONTINUOUS
 62
       7
100
AcDbLine
 10
88.34227463
 20
44.79292603
 30
0.0
 11
88.33150844
 21
44.87873529
 31
0.0
  0
LINE
  5
268
100
AcDbEntity
  8
SLD-0
  6
CONTINUOUS
 62
       7
100
AcDbLine
 10
88.33150844
 20
44.87873529
 30
0.0
 11
88.31876716
 21
44.9642725
 31
0.0
  0
LINE
  5
269
100
AcDbEntity
  8
SLD-0
  6
CONTINUOUS
 62
       7
100
AcDbLine
 10
88.31876716
 20
44.9642725
 30
0.0
 11
88.30405726
 21
45.04948953
 31
0.0
  0
LINE
  5
26A
100
AcDbEntity
  8
SLD-0
  6
CONTINUOUS
 62
       7
100
AcDbLine
 10
88.30405726
 20
45.04948953
 30
0.0
 11
88.28738524
 21
45.13433824
 31
0.0
  0
LINE
  5
26B
100
AcDbEntity
  8
SLD-0
  6
CONTINUOUS
 62
       7
100
AcDbLine
 10
88.28738524
 20
45.13433824
 30
0.0
 11
88.26875759
 21
45.21877049
 31
0.0
  0
LINE
  5
26C
100
AcDbEntity
  8
SLD-0
  6
CONTINUOUS
 62
       7
100
AcDbLine
 10
88.26875759
 20
45.21877049
 30
0.0
 11
88.24818078
 21
45.30273815
 31
0.0
  0
LINE
  5
26D
100
AcDbEntity
  8
SLD-0
  6
CONTINUOUS
 62
       7
100
AcDbLine
 10
88.24818078
 20
45.30273815
 30
0.0
 11
88.22566162
 21
45.38619334
 31
0.0
  0
LINE
  5
26E
100
AcDbEntity
  8
SLD-0
  6
CONTINUOUS
 62
       7
100
AcDbLine
 10
88.22566162
 20
45.38619334
 30
0.0
 11
88.20121483
 21
45.4690944
 31
0.0
  0
LINE
  5
26F
100
AcDbEntity
  8
SLD-0
  6
CONTINUOUS
 62
       7
100
AcDbLine
 10
88.20121483
 20
45.4690944
 30
0.0
 11
88.17486333
 21
45.55140617
 31
0.0
  0
LINE
  5
270
100
AcDbEntity
  8
SLD-0
  6
CONTINUOUS
 62
       7
100
AcDbLine
 10
88.17486333
 20
45.55140617
 30
0.0
 11
88.14663044
 21
45.63309379
 31
0.0
  0
LINE
  5
271
100
AcDbEntity
  8
SLD-0
  6
CONTINUOUS
 62
       7
100
AcDbLine
 10
88.14663044
 20
45.63309379
 30
0.0
 11
88.11653945
 21
45.71412239
 31
0.0
  0
LINE
  5
272
100
AcDbEntity
  8
SLD-0
  6
CONTINUOUS
 62
       7
100
AcDbLine
 10
88.11653945
 20
45.71412239
 30
0.0
 11
88.08461369
 21
45.79445711
 31
0.0
  0
LINE
  5
273
100
AcDbEntity
  8
SLD-0
  6
CONTINUOUS
 62
       7
100
AcDbLine
 10
88.08461369
 20
45.79445711
 30
0.0
 11
88.05087645
 21
45.87406307
 31
0.0
  0
LINE
  5
274
100
AcDbEntity
  8
SLD-0
  6
CONTINUOUS
 62
       7
100
AcDbLine
 10
88.05087645
 20
45.87406307
 30
0.0
 11
88.01535094
 21
45.95290529
 31
0.0
  0
LINE
  5
275
100
AcDbEntity
  8
SLD-0
  6
CONTINUOUS
 62
       7
100
AcDbLine
 10
88.01535094
 20
45.95290529
 30
0.0
 11
87.97805086
 21
46.03093737
 31
0.0
  0
LINE
  5
276
100
AcDbEntity
  8
SLD-0
  6
CONTINUOUS
 62
       7
100
AcDbLine
 10
87.97805086
 20
46.03093737
 30
0.0
 11
87.93897335
 21
46.10809303
 31
0.0
  0
LINE
  5
277
100
AcDbEntity
  8
SLD-0
  6
CONTINUOUS
 62
       7
100
AcDbLine
 10
87.93897335
 20
46.10809303
 30
0.0
 11
87.89811386
 21
46.184304
 31
0.0
  0
LINE
  5
278
100
AcDbEntity
  8
SLD-0
  6
CONTINUOUS
 62
       7
100
AcDbLine
 10
87.89811386
 20
46.184304
 30
0.0
 11
87.85546787
 21
46.25950202
 31
0.0
  0
LINE
  5
279
100
AcDbEntity
  8
SLD-0
  6
CONTINUOUS
 62
       7
100
AcDbLine
 10
87.85546787
 20
46.25950202
 30
0.0
 11
87.81103085
 21
46.33361879
 31
0.0
  0
LINE
  5
27A
100
AcDbEntity
  8
SLD-0
  6
CONTINUOUS
 62
       7
100
AcDbLine
 10
87.81103085
 20
46.33361879
 30
0.0
 11
87.76479827
 21
46.40658606
 31
0.0
  0
LINE
  5
27B
100
AcDbEntity
  8
SLD-0
  6
CONTINUOUS
 62
       7
100
AcDbLine
 10
87.76479827
 20
46.40658606
 30
0.0
 11
87.71676558
 21
46.47833554
 31
0.0
  0
LINE
  5
27C
100
AcDbEntity
  8
SLD-0
  6
CONTINUOUS
 62
       7
100
AcDbLine
 10
87.71676558
 20
46.47833554
 30
0.0
 11
87.66703942
 21
46.54888615
 31
0.0
  0
LINE
  5
27D
100
AcDbEntity
  8
SLD-0
  6
CONTINUOUS
 62
       7
100
AcDbLine
 10
87.66703942
 20
46.54888615
 30
0.0
 11
87.61635585
 21
46.61875052
 31
0.0
  0
ENDBLK
  5
27E
100
AcDbEntity
  8
0
100
AcDbBlockEnd
  0
BLOCK
  5
27F
100
AcDbEntity
  8
0
100
AcDbBlockBegin
  2
GROUP_14
 70
       0
 10
0.0
 20
0.0
 30
0.0
  3
GROUP_14
  1

  0
LINE
  5
280
100
AcDbEntity
  8
SLD-0
  6
CONTINUOUS
 62
       7
100
AcDbLine
 10
81.61631109
 20
46.61875052
 30
0.0
 11
81.56531316
 21
46.5491056
 31
0.0
  0
LINE
  5
281
100
AcDbEntity
  8
SLD-0
  6
CONTINUOUS
 62
       7
100
AcDbLine
 10
81.56531316
 20
46.5491056
 30
0.0
 11
81.51594498
 21
46.47824839
 31
0.0
  0
LINE
  5
282
100
AcDbEntity
  8
SLD-0
  6
CONTINUOUS
 62
       7
100
AcDbLine
 10
81.51594498
 20
46.47824839
 30
0.0
 11
81.46822862
 21
46.40622693
 31
0.0
  0
LINE
  5
283
100
AcDbEntity
  8
SLD-0
  6
CONTINUOUS
 62
       7
100
AcDbLine
 10
81.46822862
 20
46.40622693
 30
0.0
 11
81.42218088
 21
46.33309338
 31
0.0
  0
LINE
  5
284
100
AcDbEntity
  8
SLD-0
  6
CONTINUOUS
 62
       7
100
AcDbLine
 10
81.42218088
 20
46.33309338
 30
0.0
 11
81.37781854
 21
46.25889989
 31
0.0
  0
LINE
  5
285
100
AcDbEntity
  8
SLD-0
  6
CONTINUOUS
 62
       7
100
AcDbLine
 10
81.37781854
 20
46.25889989
 30
0.0
 11
81.33515843
 21
46.1836986
 31
0.0
  0
LINE
  5
286
100
AcDbEntity
  8
SLD-0
  6
CONTINUOUS
 62
       7
100
AcDbLine
 10
81.33515843
 20
46.1836986
 30
0.0
 11
81.29421733
 21
46.10754168
 31
0.0
  0
LINE
  5
287
100
AcDbEntity
  8
SLD-0
  6
CONTINUOUS
 62
       7
100
AcDbLine
 10
81.29421733
 20
46.10754168
 30
0.0
 11
81.25501236
 21
46.03048079
 31
0.0
  0
LINE
  5
288
100
AcDbEntity
  8
SLD-0
  6
CONTINUOUS
 62
       7
100
AcDbLine
 10
81.25501236
 20
46.03048079
 30
0.0
 11
81.2175662
 21
45.95255935
 31
0.0
  0
LINE
  5
289
100
AcDbEntity
  8
SLD-0
  6
CONTINUOUS
 62
       7
100
AcDbLine
 10
81.2175662
 20
45.95255935
 30
0.0
 11
81.18190621
 21
45.8738138
 31
0.0
  0
LINE
  5
28A
100
AcDbEntity
  8
SLD-0
  6
CONTINUOUS
 62
       7
100
AcDbLine
 10
81.18190621
 20
45.8738138
 30
0.0
 11
81.14805991
 21
45.79428032
 31
0.0
  0
LINE
  5
28B
100
AcDbEntity
  8
SLD-0
  6
CONTINUOUS
 62
       7
100
AcDbLine
 10
81.14805991
 20
45.79428032
 30
0.0
 11
81.11605481
 21
45.71399514
 31
0.0
  0
LINE
  5
28C
100
AcDbEntity
  8
SLD-0
  6
CONTINUOUS
 62
       7
100
AcDbLine
 10
81.11605481
 20
45.71399514
 30
0.0
 11
81.08591844
 21
45.63299444
 31
0.0
  0
LINE
  5
28D
100
AcDbEntity
  8
SLD-0
  6
CONTINUOUS
 62
       7
100
AcDbLine
 10
81.08591844
 20
45.63299444
 30
0.0
 11
81.05767831
 21
45.55131443
 31
0.0
  0
LINE
  5
28E
100
AcDbEntity
  8
SLD-0
  6
CONTINUOUS
 62
       7
100
AcDbLine
 10
81.05767831
 20
45.55131443
 30
0.0
 11
81.03136185
 21
45.46899135
 31
0.0
  0
LINE
  5
28F
100
AcDbEntity
  8
SLD-0
  6
CONTINUOUS
 62
       7
100
AcDbLine
 10
81.03136185
 20
45.46899135
 30
0.0
 11
81.00698731
 21
45.38606531
 31
0.0
  0
LINE
  5
290
100
AcDbEntity
  8
SLD-0
  6
CONTINUOUS
 62
       7
100
AcDbLine
 10
81.00698731
 20
45.38606531
 30
0.0
 11
80.98455588
 21
45.30258361
 31
0.0
  0
LINE
  5
291
100
AcDbEntity
  8
SLD-0
  6
CONTINUOUS
 62
       7
100
AcDbLine
 10
80.98455588
 20
45.30258361
 30
0.0
 11
80.9640669
 21
45.21859435
 31
0.0
  0
LINE
  5
292
100
AcDbEntity
  8
SLD-0
  6
CONTINUOUS
 62
       7
100
AcDbLine
 10
80.9640669
 20
45.21859435
 30
0.0
 11
80.9455197
 21
45.1341456
 31
0.0
  0
LINE
  5
293
100
AcDbEntity
  8
SLD-0
  6
CONTINUOUS
 62
       7
100
AcDbLine
 10
80.9455197
 20
45.1341456
 30
0.0
 11
80.92891362
 21
45.04928545
 31
0.0
  0
LINE
  5
294
100
AcDbEntity
  8
SLD-0
  6
CONTINUOUS
 62
       7
100
AcDbLine
 10
80.92891362
 20
45.04928545
 30
0.0
 11
80.914248
 21
44.96406199
 31
0.0
  0
LINE
  5
295
100
AcDbEntity
  8
SLD-0
  6
CONTINUOUS
 62
       7
100
AcDbLine
 10
80.914248
 20
44.96406199
 30
0.0
 11
80.90152217
 21
44.8785233
 31
0.0
  0
LINE
  5
296
100
AcDbEntity
  8
SLD-0
  6
CONTINUOUS
 62
       7
100
AcDbLine
 10
80.90152217
 20
44.8785233
 30
0.0
 11
80.89073765
 21
44.7927171
 31
0.0
  0
LINE
  5
297
100
AcDbEntity
  8
SLD-0
  6
CONTINUOUS
 62
       7
100
AcDbLine
 10
80.89073765
 20
44.7927171
 30
0.0
 11
80.88190555
 21
44.7066894
 31
0.0
  0
LINE
  5
298
100
AcDbEntity
  8
SLD-0
  6
CONTINUOUS
 62
       7
100
AcDbLine
 10
80.88190555
 20
44.7066894
 30
0.0
 11
80.87503964
 21
44.62048578
 31
0.0
  0
LINE
  5
299
100
AcDbEntity
  8
SLD-0
  6
CONTINUOUS
 62
       7
100
AcDbLine
 10
80.87503964
 20
44.62048578
 30
0.0
 11
80.87015368
 21
44.5341518
 31
0.0
  0
LINE
  5
29A
100
AcDbEntity
  8
SLD-0
  6
CONTINUOUS
 62
       7
100
AcDbLine
 10
80.87015368
 20
44.5341518
 30
0.0
 11
80.86726143
 21
44.44773305
 31
0.0
  0
LINE
  5
29B
100
AcDbEntity
  8
SLD-0
  6
CONTINUOUS
 62
       7
100
AcDbLine
 10
80.86726143
 20
44.44773305
 30
0.0
 11
80.86637664
 21
44.36127508
 31
0.0
  0
LINE
  5
29C
100
AcDbEntity
  8
SLD-0
  6
CONTINUOUS
 62
       7
100
AcDbLine
 10
80.86637664
 20
44.36127508
 30
0.0
 11
80.86751308
 21
44.27482347
 31
0.0
  0
LINE
  5
29D
100
AcDbEntity
  8
SLD-0
  6
CONTINUOUS
 62
       7
100
AcDbLine
 10
80.86751308
 20
44.27482347
 30
0.0
 11
80.87068298
 21
44.18842373
 31
0.0
  0
LINE
  5
29E
100
AcDbEntity
  8
SLD-0
  6
CONTINUOUS
 62
       7
100
AcDbLine
 10
80.87068298
 20
44.18842373
 30
0.0
 11
80.87588095
 21
44.10212087
 31
0.0
  0
LINE
  5
29F
100
AcDbEntity
  8
SLD-0
  6
CONTINUOUS
 62
       7
100
AcDbLine
 10
80.87588095
 20
44.10212087
 30
0.0
 11
80.88309039
 21
44.01595956
 31
0.0
  0
LINE
  5
2A0
100
AcDbEntity
  8
SLD-0
  6
CONTINUOUS
 62
       7
100
AcDbLine
 10
80.88309039
 20
44.01595956
 30
0.0
 11
80.89229447
 21
43.92998444
 31
0.0
  0
LINE
  5
2A1
100
AcDbEntity
  8
SLD-0
  6
CONTINUOUS
 62
       7
100
AcDbLine
 10
80.89229447
 20
43.92998444
 30
0.0
 11
80.90347638
 21
43.84424018
 31
0.0
  0
LINE
  5
2A2
100
AcDbEntity
  8
SLD-0
  6
CONTINUOUS
 62
       7
100
AcDbLine
 10
80.90347638
 20
43.84424018
 30
0.0
 11
80.91661931
 21
43.75877144
 31
0.0
  0
LINE
  5
2A3
100
AcDbEntity
  8
SLD-0
  6
CONTINUOUS
 62
       7
100
AcDbLine
 10
80.91661931
 20
43.75877144
 30
0.0
 11
80.93170646
 21
43.67362287
 31
0.0
  0
LINE
  5
2A4
100
AcDbEntity
  8
SLD-0
  6
CONTINUOUS
 62
       7
100
AcDbLine
 10
80.93170646
 20
43.67362287
 30
0.0
 11
80.94872113
 21
43.58883916
 31
0.0
  0
LINE
  5
2A5
100
AcDbEntity
  8
SLD-0
  6
CONTINUOUS
 62
       7
100
AcDbLine
 10
80.94872113
 20
43.58883916
 30
0.0
 11
80.96765242
 21
43.50446614
 31
0.0
  0
LINE
  5
2A6
100
AcDbEntity
  8
SLD-0
  6
CONTINUOUS
 62
       7
100
AcDbLine
 10
80.96765242
 20
43.50446614
 30
0.0
 11
80.98849751
 21
43.42055124
 31
0.0
  0
LINE
  5
2A7
100
AcDbEntity
  8
SLD-0
  6
CONTINUOUS
 62
       7
100
AcDbLine
 10
80.98849751
 20
43.42055124
 30
0.0
 11
81.01125419
 21
43.33714203
 31
0.0
  0
LINE
  5
2A8
100
AcDbEntity
  8
SLD-0
  6
CONTINUOUS
 62
       7
100
AcDbLine
 10
81.01125419
 20
43.33714203
 30
0.0
 11
81.03592024
 21
43.25428606
 31
0.0
  0
LINE
  5
2A9
100
AcDbEntity
  8
SLD-0
  6
CONTINUOUS
 62
       7
100
AcDbLine
 10
81.03592024
 20
43.25428606
 30
0.0
 11
81.06249344
 21
43.17203089
 31
0.0
  0
LINE
  5
2AA
100
AcDbEntity
  8
SLD-0
  6
CONTINUOUS
 62
       7
100
AcDbLine
 10
81.06249344
 20
43.17203089
 30
0.0
 11
81.09097158
 21
43.09042408
 31
0.0
  0
LINE
  5
2AB
100
AcDbEntity
  8
SLD-0
  6
CONTINUOUS
 62
       7
100
AcDbLine
 10
81.09097158
 20
43.09042408
 30
0.0
 11
81.12135243
 21
43.00951318
 31
0.0
  0
LINE
  5
2AC
100
AcDbEntity
  8
SLD-0
  6
CONTINUOUS
 62
       7
100
AcDbLine
 10
81.12135243
 20
43.00951318
 30
0.0
 11
81.15362792
 21
42.92934329
 31
0.0
  0
LINE
  5
2AD
100
AcDbEntity
  8
SLD-0
  6
CONTINUOUS
 62
       7
100
AcDbLine
 10
81.15362792
 20
42.92934329
 30
0.0
 11
81.18777114
 21
42.84995156
 31
0.0
  0
LINE
  5
2AE
100
AcDbEntity
  8
SLD-0
  6
CONTINUOUS
 62
       7
100
AcDbLine
 10
81.18777114
 20
42.84995156
 30
0.0
 11
81.22375143
 21
42.7713736
 31
0.0
  0
LINE
  5
2AF
100
AcDbEntity
  8
SLD-0
  6
CONTINUOUS
 62
       7
100
AcDbLine
 10
81.22375143
 20
42.7713736
 30
0.0
 11
81.26153812
 21
42.69364496
 31
0.0
  0
LINE
  5
2B0
100
AcDbEntity
  8
SLD-0
  6
CONTINUOUS
 62
       7
100
AcDbLine
 10
81.26153812
 20
42.69364496
 30
0.0
 11
81.30110054
 21
42.61680126
 31
0.0
  0
LINE
  5
2B1
100
AcDbEntity
  8
SLD-0
  6
CONTINUOUS
 62
       7
100
AcDbLine
 10
81.30110054
 20
42.61680126
 30
0.0
 11
81.34240804
 21
42.54087805
 31
0.0
  0
LINE
  5
2B2
100
AcDbEntity
  8
SLD-0
  6
CONTINUOUS
 62
       7
100
AcDbLine
 10
81.34240804
 20
42.54087805
 30
0.0
 11
81.38542995
 21
42.46591093
 31
0.0
  0
LINE
  5
2B3
100
AcDbEntity
  8
SLD-0
  6
CONTINUOUS
 62
       7
100
AcDbLine
 10
81.38542995
 20
42.46591093
 30
0.0
 11
81.4301365
 21
42.39193617
 31
0.0
  0
LINE
  5
2B4
100
AcDbEntity
  8
SLD-0
  6
CONTINUOUS
 62
       7
100
AcDbLine
 10
81.4301365
 20
42.39193617
 30
0.0
 11
81.47650631
 21
42.31899634
 31
0.0
  0
LINE
  5
2B5
100
AcDbEntity
  8
SLD-0
  6
CONTINUOUS
 62
       7
100
AcDbLine
 10
81.47650631
 20
42.31899634
 30
0.0
 11
81.5245225
 21
42.24713742
 31
0.0
  0
LINE
  5
2B6
100
AcDbEntity
  8
SLD-0
  6
CONTINUOUS
 62
       7
100
AcDbLine
 10
81.5245225
 20
42.24713742
 30
0.0
 11
81.57416823
 21
42.17640542
 31
0.0
  0
LINE
  5
2B7
100
AcDbEntity
  8
SLD-0
  6
CONTINUOUS
 62
       7
100
AcDbLine
 10
81.57416823
 20
42.17640542
 30
0.0
 11
81.62542666
 21
42.10684635
 31
0.0
  0
LINE
  5
2B8
100
AcDbEntity
  8
SLD-0
  6
CONTINUOUS
 62
       7
100
AcDbLine
 10
81.62542666
 20
42.10684635
 30
0.0
 11
81.67828095
 21
42.03850622
 31
0.0
  0
LINE
  5
2B9
100
AcDbEntity
  8
SLD-0
  6
CONTINUOUS
 62
       7
100
AcDbLine
 10
81.67828095
 20
42.03850622
 30
0.0
 11
81.73271426
 21
41.97143104
 31
0.0
  0
LINE
  5
2BA
100
AcDbEntity
  8
SLD-0
  6
CONTINUOUS
 62
       7
100
AcDbLine
 10
81.73271426
 20
41.97143104
 30
0.0
 11
81.78870949
 21
41.90566651
 31
0.0
  0
LINE
  5
2BB
100
AcDbEntity
  8
SLD-0
  6
CONTINUOUS
 62
       7
100
AcDbLine
 10
81.78870949
 20
41.90566651
 30
0.0
 11
81.84623858
 21
41.84124556
 31
0.0
  0
LINE
  5
2BC
100
AcDbEntity
  8
SLD-0
  6
CONTINUOUS
 62
       7
100
AcDbLine
 10
81.84623858
 20
41.84124556
 30
0.0
 11
81.90525901
 21
41.77818425
 31
0.0
  0
LINE
  5
2BD
100
AcDbEntity
  8
SLD-0
  6
CONTINUOUS
 62
       7
100
AcDbLine
 10
81.90525901
 20
41.77818425
 30
0.0
 11
81.96572726
 21
41.71649748
 31
0.0
  0
LINE
  5
2BE
100
AcDbEntity
  8
SLD-0
  6
CONTINUOUS
 62
       7
100
AcDbLine
 10
81.96572726
 20
41.71649748
 30
0.0
 11
82.02759981
 21
41.65620012
 31
0.0
  0
LINE
  5
2BF
100
AcDbEntity
  8
SLD-0
  6
CONTINUOUS
 62
       7
100
AcDbLine
 10
82.02759981
 20
41.65620012
 30
0.0
 11
82.09083312
 21
41.59730709
 31
0.0
  0
LINE
  5
2C0
100
AcDbEntity
  8
SLD-0
  6
CONTINUOUS
 62
       7
100
AcDbLine
 10
82.09083312
 20
41.59730709
 30
0.0
 11
82.15538368
 21
41.53983327
 31
0.0
  0
LINE
  5
2C1
100
AcDbEntity
  8
SLD-0
  6
CONTINUOUS
 62
       7
100
AcDbLine
 10
82.15538368
 20
41.53983327
 30
0.0
 11
82.22120797
 21
41.48379356
 31
0.0
  0
LINE
  5
2C2
100
AcDbEntity
  8
SLD-0
  6
CONTINUOUS
 62
       7
100
AcDbLine
 10
82.22120797
 20
41.48379356
 30
0.0
 11
82.28826761
 21
41.42921435
 31
0.0
  0
LINE
  5
2C3
100
AcDbEntity
  8
SLD-0
  6
CONTINUOUS
 62
       7
100
AcDbLine
 10
82.28826761
 20
41.42921435
 30
0.0
 11
82.35654046
 21
41.37615822
 31
0.0
  0
LINE
  5
2C4
100
AcDbEntity
  8
SLD-0
  6
CONTINUOUS
 62
       7
100
AcDbLine
 10
82.35654046
 20
41.37615822
 30
0.0
 11
82.42600757
 21
41.32469489
 31
0.0
  0
LINE
  5
2C5
100
AcDbEntity
  8
SLD-0
  6
CONTINUOUS
 62
       7
100
AcDbLine
 10
82.42600757
 20
41.32469489
 30
0.0
 11
82.49664999
 21
41.27489408
 31
0.0
  0
LINE
  5
2C6
100
AcDbEntity
  8
SLD-0
  6
CONTINUOUS
 62
       7
100
AcDbLine
 10
82.49664999
 20
41.27489408
 30
0.0
 11
82.56844876
 21
41.22682549
 31
0.0
  0
LINE
  5
2C7
100
AcDbEntity
  8
SLD-0
  6
CONTINUOUS
 62
       7
100
AcDbLine
 10
82.56844876
 20
41.22682549
 30
0.0
 11
82.64138492
 21
41.18055885
 31
0.0
  0
LINE
  5
2C8
100
AcDbEntity
  8
SLD-0
  6
CONTINUOUS
 62
       7
100
AcDbLine
 10
82.64138492
 20
41.18055885
 30
0.0
 11
82.71543954
 21
41.13616386
 31
0.0
  0
LINE
  5
2C9
100
AcDbEntity
  8
SLD-0
  6
CONTINUOUS
 62
       7
100
AcDbLine
 10
82.71543954
 20
41.13616386
 30
0.0
 11
82.79054851
 21
41.09362176
 31
0.0
  0
LINE
  5
2CA
100
AcDbEntity
  8
SLD-0
  6
CONTINUOUS
 62
       7
100
AcDbLine
 10
82.79054851
 20
41.09362176
 30
0.0
 11
82.86627603
 21
41.0521852
 31
0.0
  0
ENDBLK
  5
2CB
100
AcDbEntity
  8
0
100
AcDbBlockEnd
  0
ENDSEC
  0
SECTION
  2
ENTITIES
  0
LINE
  5
2CC
100
AcDbEntity
  8
SLD-0
  6
CONTINUOUS
 62
       7
100
AcDbLine
 10
65.61633346
 20
-11.28356138
 30
0.0
 11
78.61633342
 21
-11.28356138
 31
0.0
  0
LINE
  5
2CD
100
AcDbEntity
  8
SLD-0
  6
CONTINUOUS
 62
       7
100
AcDbLine
 10
17.33850785
 20
-37.13122033
 30
0.0
 11
21.83850765
 21
-37.13122033
 31
0.0
  0
LINE
  5
2CE
100
AcDbEntity
  8
SLD-0
  6
CONTINUOUS
 62
       7
100
AcDbLine
 10
90.61633352
 20
-11.28356138
 30
0.0
 11
103.61633346
 21
-11.28356138
 31
0.0
  0
LINE
  5
2CF
100
AcDbEntity
  8
SLD-0
  6
CONTINUOUS
 62
       7
100
AcDbLine
 10
22.29936351
 20
50.68133233
 30
0.0
 11
22.29936351
 21
54.36877967
 31
0.0
  0
LINE
  5
2D0
100
AcDbEntity
  8
SLD-0
  6
CONTINUOUS
 62
       7
100
AcDbLine
 10
-13.04423418
 20
-31.63122033
 30
0.0
 11
-13.04423418
 21
54.36877967
 31
0.0
  0
LINE
  5
2D1
100
AcDbEntity
  8
SLD-0
  6
CONTINUOUS
 62
       7
100
AcDbLine
 10
65.61633346
 20
24.53190597
 30
0.0
 11
103.61633346
 21
24.53190597
 31
0.0
  0
LINE
  5
2D2
100
AcDbEntity
  8
SLD-0
  6
CONTINUOUS
 62
       7
100
AcDbLine
 10
-11.04423418
 20
56.36877967
 30
0.0
 11
20.29936351
 21
56.36877967
 31
0.0
  0
LINE
  5
2D3
100
AcDbEntity
  8
SLD-0
  6
CONTINUOUS
 62
       7
100
AcDbLine
 10
-11.04423418
 20
-33.63122033
 30
0.0
 11
19.95576582
 21
-33.63122033
 31
0.0
  0
LINE
  5
2D4
100
AcDbEntity
  8
SLD-0
  6
CONTINUOUS
 62
       7
100
AcDbLine
 10
-89.29262683
 20
-33.5431851
 30
0.0
 11
-89.29262683
 21
-35.53122033
 31
0.0
  0
LINE
  5
2D5
100
AcDbEntity
  8
SLD-0
  6
CONTINUOUS
 62
       7
100
AcDbLine
 10
-89.29262683
 20
-35.53122033
 30
0.0
 11
-80.49262683
 21
-35.53122033
 31
0.0
  0
LINE
  5
2D6
100
AcDbEntity
  8
SLD-0
  6
CONTINUOUS
 62
       7
100
AcDbLine
 10
-80.49262683
 20
-35.53122033
 30
0.0
 11
-80.49262683
 21
-33.5431851
 31
0.0
  0
LINE
  5
2D7
100
AcDbEntity
  8
SLD-0
  6
CONTINUOUS
 62
       7
100
AcDbLine
 10
-78.89262683
 20
-35.53786219
 30
0.0
 11
-78.89262683
 21
-33.46746207
 31
0.0
  0
LINE
  5
2D8
100
AcDbEntity
  8
SLD-0
  6
CONTINUOUS
 62
       7
100
AcDbLine
 10
-90.89262683
 20
-35.53786219
 30
0.0
 11
-90.89262683
 21
-33.46746207
 31
0.0
  0
LINE
  5
2D9
100
AcDbEntity
  8
SLD-0
  6
CONTINUOUS
 62
       7
100
AcDbLine
 10
-66.09262683
 20
-30.9673869
 30
0.0
 11
-66.09262683
 21
-30.96256256
 31
0.0
  0
LINE
  5
2DA
100
AcDbEntity
  8
SLD-0
  6
CONTINUOUS
 62
       7
100
AcDbLine
 10
-65.89262684
 20
53.87226798
 30
0.0
 11
-65.89262684
 21
-31.13470865
 31
0.0
  0
LINE
  5
2DB
100
AcDbEntity
  8
SLD-0
  6
CONTINUOUS
 62
       7
100
AcDbLine
 10
-103.89262683
 20
-31.13470865
 30
0.0
 11
-103.89262683
 21
53.87226798
 31
0.0
  0
LINE
  5
2DC
100
AcDbEntity
  8
SLD-0
  6
CONTINUOUS
 62
       7
100
AcDbLine
 10
-75.15976497
 20
30.77614798
 30
0.0
 11
-75.15976497
 21
55.93734907
 31
0.0
  0
LINE
  5
2DD
100
AcDbEntity
  8
SLD-0
  6
CONTINUOUS
 62
       7
100
AcDbLine
 10
-94.62548869
 20
30.77614798
 30
0.0
 11
-94.62548869
 21
55.93734907
 31
0.0
  0
LINE
  5
2DE
100
AcDbEntity
  8
SLD-0
  6
CONTINUOUS
 62
       7
100
AcDbLine
 10
-94.62548869
 20
-8.03858864
 30
0.0
 11
-94.62548869
 21
-33.19978973
 31
0.0
  0
LINE
  5
2DF
100
AcDbEntity
  8
SLD-0
  6
CONTINUOUS
 62
       7
100
AcDbLine
 10
-75.15976497
 20
-8.03858864
 30
0.0
 11
-75.15976497
 21
-33.19978973
 31
0.0
  0
LINE
  5
2E0
100
AcDbEntity
  8
SLD-0
  6
CONTINUOUS
 62
       7
100
AcDbLine
 10
20.43850724
 20
10.26877968
 30
0.0
 11
21.23850738
 21
10.26877968
 31
0.0
  0
LINE
  5
2E1
100
AcDbEntity
  8
SLD-0
  6
CONTINUOUS
 62
       7
100
AcDbLine
 10
21.23850735
 20
16.06877964
 30
0.0
 11
20.43850721
 21
16.06877964
 31
0.0
  0
LINE
  5
2E2
100
AcDbEntity
  8
SLD-0
  6
CONTINUOUS
 62
       7
100
AcDbLine
 10
18.23850725
 20
14.66877965
 30
0.0
 11
18.03850759
 21
14.66877965
 31
0.0
  0
LINE
  5
2E3
100
AcDbEntity
  8
SLD-0
  6
CONTINUOUS
 62
       7
100
AcDbLine
 10
18.03850759
 20
11.66877968
 30
0.0
 11
18.23850725
 21
11.66877968
 31
0.0
  0
LINE
  5
2E4
100
AcDbEntity
  8
SLD-0
  6
CONTINUOUS
 62
       7
100
AcDbLine
 10
19.43850707
 20
14.26877963
 30
0.0
 11
19.33850724
 21
14.26877963
 31
0.0
  0
LINE
  5
2E5
100
AcDbEntity
  8
SLD-0
  6
CONTINUOUS
 62
       7
100
AcDbLine
 10
18.33850708
 20
14.26877963
 30
0.0
 11
18.23850725
 21
14.26877963
 31
0.0
  0
LINE
  5
2E6
100
AcDbEntity
  8
SLD-0
  6
CONTINUOUS
 62
       7
100
AcDbLine
 10
19.33850724
 20
12.06877964
 30
0.0
 11
19.43850707
 21
12.06877964
 31
0.0
  0
LINE
  5
2E7
100
AcDbEntity
  8
SLD-0
  6
CONTINUOUS
 62
       7
100
AcDbLine
 10
18.23850725
 20
12.06877964
 30
0.0
 11
18.33850708
 21
12.06877964
 31
0.0
  0
LINE
  5
2E8
100
AcDbEntity
  8
SLD-0
  6
CONTINUOUS
 62
       7
100
AcDbLine
 10
19.33850724
 20
16.41877947
 30
0.0
 11
18.33850708
 21
16.41877947
 31
0.0
  0
LINE
  5
2E9
100
AcDbEntity
  8
SLD-0
  6
CONTINUOUS
 62
       7
100
AcDbLine
 10
21.83850765
 20
-37.13122033
 30
0.0
 11
21.83850765
 21
-32.3059671
 31
0.0
  0
LINE
  5
2EA
100
AcDbEntity
  8
SLD-0
  6
CONTINUOUS
 62
       7
100
AcDbLine
 10
17.53850751
 20
9.66877965
 30
0.0
 11
18.03850759
 21
9.66877965
 31
0.0
  0
LINE
  5
2EB
100
AcDbEntity
  8
SLD-0
  6
CONTINUOUS
 62
       7
100
AcDbLine
 10
21.52706966
 20
23.9113711
 30
0.0
 11
21.52706966
 21
24.51504713
 31
0.0
  0
LINE
  5
2EC
100
AcDbEntity
  8
SLD-0
  6
CONTINUOUS
 62
       7
100
AcDbLine
 10
21.95576582
 20
-31.63122033
 30
0.0
 11
21.95576582
 21
-28.31807898
 31
0.0
  0
LINE
  5
2ED
100
AcDbEntity
  8
SLD-0
  6
CONTINUOUS
 62
       7
100
AcDbLine
 10
21.95576582
 20
-25.94436126
 30
0.0
 11
21.95576582
 21
-11.54704185
 31
0.0
  0
LINE
  5
2EE
100
AcDbEntity
  8
SLD-0
  6
CONTINUOUS
 62
       7
100
AcDbLine
 10
22.29936351
 20
24.83172344
 30
0.0
 11
22.29936351
 21
49.05622701
 31
0.0
  0
LINE
  5
2EF
100
AcDbEntity
  8
SLD-0
  6
CONTINUOUS
 62
       7
100
AcDbLine
 10
22.2253716
 20
15.16877973
 30
0.0
 11
22.23850697
 21
15.00180989
 31
0.0
  0
LINE
  5
2F0
100
AcDbEntity
  8
SLD-0
  6
CONTINUOUS
 62
       7
100
AcDbLine
 10
22.23850697
 20
15.00180989
 30
0.0
 11
22.23850697
 21
13.66877972
 31
0.0
  0
LINE
  5
2F1
100
AcDbEntity
  8
SLD-0
  6
CONTINUOUS
 62
       7
100
AcDbLine
 10
22.23850697
 20
12.66877967
 30
0.0
 11
22.23850697
 21
11.33574939
 31
0.0
  0
LINE
  5
2F2
100
AcDbEntity
  8
SLD-0
  6
CONTINUOUS
 62
       7
100
AcDbLine
 10
22.2253716
 20
11.16877967
 30
0.0
 11
22.2334918
 21
11.16877967
 31
0.0
  0
LINE
  5
2F3
100
AcDbEntity
  8
SLD-0
  6
CONTINUOUS
 62
       7
100
AcDbLine
 10
20.73850766
 20
13.66877972
 30
0.0
 11
20.73850766
 21
12.66877967
 31
0.0
  0
LINE
  5
2F4
100
AcDbEntity
  8
SLD-0
  6
CONTINUOUS
 62
       7
100
AcDbLine
 10
21.23850774
 20
12.66877967
 30
0.0
 11
20.73850766
 21
12.66877967
 31
0.0
  0
LINE
  5
2F5
100
AcDbEntity
  8
SLD-0
  6
CONTINUOUS
 62
       7
100
AcDbLine
 10
20.73850766
 20
13.66877972
 30
0.0
 11
21.23850774
 21
13.66877972
 31
0.0
  0
LINE
  5
2F6
100
AcDbEntity
  8
SLD-0
  6
CONTINUOUS
 62
       7
100
AcDbLine
 10
19.43850739
 20
11.26877967
 30
0.0
 11
19.43850739
 21
15.06877967
 31
0.0
  0
LINE
  5
2F7
100
AcDbEntity
  8
SLD-0
  6
CONTINUOUS
 62
       7
100
AcDbLine
 10
18.23850725
 20
11.66877968
 30
0.0
 11
18.23850725
 21
14.66877965
 31
0.0
  0
LINE
  5
2F8
100
AcDbEntity
  8
SLD-0
  6
CONTINUOUS
 62
       7
100
AcDbLine
 10
19.33850724
 20
9.92031847
 30
0.0
 11
19.33850724
 21
16.41877947
 31
0.0
  0
LINE
  5
2F9
100
AcDbEntity
  8
SLD-0
  6
CONTINUOUS
 62
       7
100
AcDbLine
 10
18.33850708
 20
9.92031847
 30
0.0
 11
19.33850724
 21
9.92031847
 31
0.0
  0
LINE
  5
2FA
100
AcDbEntity
  8
SLD-0
  6
CONTINUOUS
 62
       7
100
AcDbLine
 10
18.33850708
 20
9.92031847
 30
0.0
 11
18.33850708
 21
16.41877947
 31
0.0
  0
LINE
  5
2FB
100
AcDbEntity
  8
SLD-0
  6
CONTINUOUS
 62
       7
100
AcDbLine
 10
19.03850775
 20
-11.190586
 30
0.0
 11
19.03850775
 21
-9.43122039
 31
0.0
  0
LINE
  5
2FC
100
AcDbEntity
  8
SLD-0
  6
CONTINUOUS
 62
       7
100
AcDbLine
 10
19.03850775
 20
-9.43122039
 30
0.0
 11
19.53850784
 21
-9.43122039
 31
0.0
  0
LINE
  5
2FD
100
AcDbEntity
  8
SLD-0
  6
CONTINUOUS
 62
       7
100
AcDbLine
 10
19.53850784
 20
-9.43122039
 30
0.0
 11
21.23226881
 21
-11.12498136
 31
0.0
  0
LINE
  5
2FE
100
AcDbEntity
  8
SLD-0
  6
CONTINUOUS
 62
       7
100
AcDbLine
 10
17.33850785
 20
-37.13122033
 30
0.0
 11
17.33850785
 21
-33.63122033
 31
0.0
  0
LINE
  5
2FF
100
AcDbEntity
  8
SLD-0
  6
CONTINUOUS
 62
       7
100
AcDbLine
 10
21.23226881
 20
-11.12498136
 30
0.0
 11
21.28684245
 21
-11.179555
 31
0.0
  0
LINE
  5
300
100
AcDbEntity
  8
SLD-0
  6
CONTINUOUS
 62
       7
100
AcDbLine
 10
21.28684245
 20
-11.179555
 30
0.0
 11
21.33959536
 21
-11.23230884
 31
0.0
  0
LINE
  5
301
100
AcDbEntity
  8
SLD-0
  6
CONTINUOUS
 62
       7
100
AcDbLine
 10
21.33959536
 20
-11.23230884
 30
0.0
 11
21.37962639
 21
-11.27233895
 31
0.0
  0
LINE
  5
302
100
AcDbEntity
  8
SLD-0
  6
CONTINUOUS
 62
       7
100
AcDbLine
 10
17.53850751
 20
16.33105727
 30
0.0
 11
18.03850759
 21
16.33105727
 31
0.0
  0
LINE
  5
303
100
AcDbEntity
  8
SLD-0
  6
CONTINUOUS
 62
       7
100
AcDbLine
 10
17.53850751
 20
16.33105727
 30
0.0
 11
17.53850751
 21
16.1687799
 31
0.0
  0
LINE
  5
304
100
AcDbEntity
  8
SLD-0
  6
CONTINUOUS
 62
       7
100
AcDbLine
 10
17.53850751
 20
10.16877961
 30
0.0
 11
17.53850751
 21
9.66877965
 31
0.0
  0
LINE
  5
305
100
AcDbEntity
  8
SLD-0
  6
CONTINUOUS
 62
       7
100
AcDbLine
 10
18.03850759
 20
16.33105727
 30
0.0
 11
18.03850759
 21
9.66877965
 31
0.0
  0
LINE
  5
306
100
AcDbEntity
  8
SLD-0
  6
CONTINUOUS
 62
       7
100
AcDbLine
 10
17.33850785
 20
22.36877961
 30
0.0
 11
17.33850785
 21
-11.13122122
 31
0.0
  0
LINE
  5
307
100
AcDbEntity
  8
SLD-0
  6
CONTINUOUS
 62
       7
100
AcDbLine
 10
16.58651469
 20
23.59583994
 30
0.0
 11
17.33850785
 21
22.36877961
 31
0.0
  0
LINE
  5
308
100
AcDbEntity
  8
SLD-0
  6
CONTINUOUS
 62
       7
100
AcDbLine
 10
17.33850785
 20
-11.13122122
 30
0.0
 11
21.70099788
 21
-11.28356138
 31
0.0
  0
LINE
  5
309
100
AcDbEntity
  8
SLD-0
  6
CONTINUOUS
 62
       7
100
AcDbLine
 10
21.52253598
 20
23.90853895
 30
0.0
 11
21.30849663
 21
23.77479171
 31
0.0
  0
LINE
  5
30A
100
AcDbEntity
  8
SLD-0
  6
CONTINUOUS
 62
       7
100
AcDbLine
 10
21.30849663
 20
23.77479171
 30
0.0
 11
21.06982101
 21
23.62565065
 31
0.0
  0
LINE
  5
30B
100
AcDbEntity
  8
SLD-0
  6
CONTINUOUS
 62
       7
100
AcDbLine
 10
21.06982101
 20
23.62565065
 30
0.0
 11
20.80661994
 21
23.46118467
 31
0.0
  0
LINE
  5
30C
100
AcDbEntity
  8
SLD-0
  6
CONTINUOUS
 62
       7
100
AcDbLine
 10
17.33850785
 20
21.56878004
 30
0.0
 11
17.53850751
 21
21.56878004
 31
0.0
  0
LINE
  5
30D
100
AcDbEntity
  8
SLD-0
  6
CONTINUOUS
 62
       7
100
AcDbLine
 10
17.53850765
 20
19.76877967
 30
0.0
 11
17.33850811
 21
19.76877937
 31
0.0
  0
LINE
  5
30E
100
AcDbEntity
  8
SLD-0
  6
CONTINUOUS
 62
       7
100
AcDbLine
 10
19.53850784
 20
22.66878003
 30
0.0
 11
18.83850716
 21
22.66878003
 31
0.0
  0
LINE
  5
30F
100
AcDbEntity
  8
SLD-0
  6
CONTINUOUS
 62
       7
100
AcDbLine
 10
18.83850716
 20
22.66878003
 30
0.0
 11
18.83850716
 21
24.42116124
 31
0.0
  0
LINE
  5
310
100
AcDbEntity
  8
SLD-0
  6
CONTINUOUS
 62
       7
100
AcDbLine
 10
20.51513087
 20
23.27904126
 30
0.0
 11
19.53850784
 21
22.66878003
 31
0.0
  0
LINE
  5
311
100
AcDbEntity
  8
SLD-0
  6
CONTINUOUS
 62
       7
100
AcDbLine
 10
20.80661994
 20
23.46118467
 30
0.0
 11
20.78793854
 21
23.44951054
 31
0.0
  0
LINE
  5
312
100
AcDbEntity
  8
SLD-0
  6
CONTINUOUS
 62
       7
100
AcDbLine
 10
20.78793854
 20
23.44951054
 30
0.0
 11
20.7594084
 21
23.43168316
 31
0.0
  0
LINE
  5
313
100
AcDbEntity
  8
SLD-0
  6
CONTINUOUS
 62
       7
100
AcDbLine
 10
20.7594084
 20
23.43168316
 30
0.0
 11
20.72205957
 21
23.40834515
 31
0.0
  0
LINE
  5
314
100
AcDbEntity
  8
SLD-0
  6
CONTINUOUS
 62
       7
100
AcDbLine
 10
20.72205957
 20
23.40834515
 30
0.0
 11
20.6772406
 21
23.38033935
 31
0.0
  0
LINE
  5
315
100
AcDbEntity
  8
SLD-0
  6
CONTINUOUS
 62
       7
100
AcDbLine
 10
20.6772406
 20
23.38033935
 30
0.0
 11
20.62656827
 21
23.34867624
 31
0.0
  0
LINE
  5
316
100
AcDbEntity
  8
SLD-0
  6
CONTINUOUS
 62
       7
100
AcDbLine
 10
20.62656827
 20
23.34867624
 30
0.0
 11
20.57187356
 21
23.31449857
 31
0.0
  0
LINE
  5
317
100
AcDbEntity
  8
SLD-0
  6
CONTINUOUS
 62
       7
100
AcDbLine
 10
20.57187356
 20
23.31449857
 30
0.0
 11
20.51513087
 21
23.27904126
 31
0.0
  0
LINE
  5
318
100
AcDbEntity
  8
SLD-0
  6
CONTINUOUS
 62
       7
100
AcDbLine
 10
21.91788148
 20
24.52869454
 30
0.0
 11
16.99537753
 21
24.35679741
 31
0.0
  0
LINE
  5
319
100
AcDbEntity
  8
SLD-0
  6
CONTINUOUS
 62
       7
100
AcDbLine
 10
22.00983354
 20
24.53190597
 30
0.0
 11
21.97059527
 21
24.53053577
 31
0.0
  0
LINE
  5
31A
100
AcDbEntity
  8
SLD-0
  6
CONTINUOUS
 62
       7
100
AcDbLine
 10
21.97059527
 20
24.53053577
 30
0.0
 11
21.91788148
 21
24.52869454
 31
0.0
  0
LINE
  5
31B
100
AcDbEntity
  8
SLD-0
  6
CONTINUOUS
 62
       7
100
AcDbLine
 10
18.83850716
 20
23.06877935
 30
0.0
 11
17.00768158
 21
22.90860304
 31
0.0
  0
LINE
  5
31C
100
AcDbEntity
  8
SLD-0
  6
CONTINUOUS
 62
       7
100
AcDbLine
 10
16.71574362
 20
23.38497175
 30
0.0
 11
18.83850716
 21
23.57068958
 31
0.0
  0
LINE
  5
31D
100
AcDbEntity
  8
SLD-0
  6
CONTINUOUS
 62
       7
100
AcDbLine
 10
17.53850751
 20
16.1687799
 30
0.0
 11
17.53850751
 21
10.16877961
 31
0.0
  0
LINE
  5
31E
100
AcDbEntity
  8
SLD-0
  6
CONTINUOUS
 62
       7
100
AcDbLine
 10
17.53850751
 20
10.16877961
 30
0.0
 11
17.33850785
 21
10.16877961
 31
0.0
  0
LINE
  5
31F
100
AcDbEntity
  8
SLD-0
  6
CONTINUOUS
 62
       7
100
AcDbLine
 10
17.33850785
 20
16.1687799
 30
0.0
 11
17.53850751
 21
16.1687799
 31
0.0
  0
LINE
  5
320
100
AcDbEntity
  8
SLD-0
  6
CONTINUOUS
 62
       7
100
AcDbLine
 10
78.61633342
 20
-9.43122039
 30
0.0
 11
78.61633342
 21
-11.12498178
 31
0.0
  0
LINE
  5
321
100
AcDbEntity
  8
SLD-0
  6
CONTINUOUS
 62
       7
100
AcDbLine
 10
78.61633342
 20
-9.43122039
 30
0.0
 11
90.61633352
 21
-9.43122039
 31
0.0
  0
LINE
  5
322
100
AcDbEntity
  8
SLD-0
  6
CONTINUOUS
 62
       7
100
AcDbLine
 10
90.61633352
 20
-9.43122039
 30
0.0
 11
90.61633352
 21
-11.12498136
 31
0.0
  0
LINE
  5
323
100
AcDbEntity
  8
SLD-0
  6
CONTINUOUS
 62
       7
100
AcDbLine
 10
90.61633352
 20
-11.12498136
 30
0.0
 11
90.61633352
 21
-35.53786304
 31
0.0
  0
LINE
  5
324
100
AcDbEntity
  8
SLD-0
  6
CONTINUOUS
 62
       7
100
AcDbLine
 10
78.61633342
 20
-35.53786304
 30
0.0
 11
78.61633342
 21
-11.12498178
 31
0.0
  0
LINE
  5
325
100
AcDbEntity
  8
SLD-0
  6
CONTINUOUS
 62
       7
100
AcDbLine
 10
83.11633346
 20
16.56877968
 30
0.0
 11
83.11633346
 21
16.33105733
 31
0.0
  0
LINE
  5
326
100
AcDbEntity
  8
SLD-0
  6
CONTINUOUS
 62
       7
100
AcDbLine
 10
86.11633346
 20
16.56877968
 30
0.0
 11
86.11633346
 21
16.33105733
 31
0.0
  0
LINE
  5
327
100
AcDbEntity
  8
SLD-0
  6
CONTINUOUS
 62
       7
100
AcDbLine
 10
86.36633285
 20
24.83172363
 30
0.0
 11
86.36633285
 21
41.0521554
 31
0.0
  0
LINE
  5
328
100
AcDbEntity
  8
SLD-0
  6
CONTINUOUS
 62
       7
100
AcDbLine
 10
82.86633347
 20
41.0521554
 30
0.0
 11
82.86633347
 21
24.83172363
 31
0.0
  0
LINE
  5
329
100
AcDbEntity
  8
SLD-0
  6
CONTINUOUS
 62
       7
100
AcDbLine
 10
87.6163335
 20
46.61878032
 30
0.0
 11
87.6163335
 21
53.72194407
 31
0.0
  0
LINE
  5
32A
100
AcDbEntity
  8
SLD-0
  6
CONTINUOUS
 62
       7
100
AcDbLine
 10
81.61633345
 20
53.72194407
 30
0.0
 11
81.61633345
 21
46.61878032
 31
0.0
  0
LINE
  5
32B
100
AcDbEntity
  8
SLD-0
  6
CONTINUOUS
 62
       7
100
AcDbLine
 10
97.61633374
 20
22.66878003
 30
0.0
 11
93.61633347
 21
22.66878003
 31
0.0
  0
LINE
  5
32C
100
AcDbEntity
  8
SLD-0
  6
CONTINUOUS
 62
       7
100
AcDbLine
 10
93.61633347
 20
24.53190597
 30
0.0
 11
93.61633347
 21
22.66878003
 31
0.0
  0
LINE
  5
32D
100
AcDbEntity
  8
SLD-0
  6
CONTINUOUS
 62
       7
100
AcDbLine
 10
97.61633292
 20
24.53190597
 30
0.0
 11
97.61633374
 21
22.66878003
 31
0.0
  0
LINE
  5
32E
100
AcDbEntity
  8
SLD-0
  6
CONTINUOUS
 62
       7
100
AcDbLine
 10
75.61633318
 20
24.53190597
 30
0.0
 11
75.61633386
 21
22.66878003
 31
0.0
  0
LINE
  5
32F
100
AcDbEntity
  8
SLD-0
  6
CONTINUOUS
 62
       7
100
AcDbLine
 10
71.61633347
 20
22.66878003
 30
0.0
 11
75.61633386
 21
22.66878003
 31
0.0
  0
LINE
  5
330
100
AcDbEntity
  8
SLD-0
  6
CONTINUOUS
 62
       7
100
AcDbLine
 10
71.61633347
 20
24.53190597
 30
0.0
 11
71.61633347
 21
22.66878003
 31
0.0
  0
LINE
  5
331
100
AcDbEntity
  8
SLD-0
  6
CONTINUOUS
 62
       7
100
AcDbLine
 10
82.56633352
 20
16.46877979
 30
0.0
 11
79.31633368
 21
16.46877979
 31
0.0
  0
LINE
  5
332
100
AcDbEntity
  8
SLD-0
  6
CONTINUOUS
 62
       7
100
AcDbLine
 10
79.31633368
 20
16.46877979
 30
0.0
 11
79.31633368
 21
9.8687796
 31
0.0
  0
LINE
  5
333
100
AcDbEntity
  8
SLD-0
  6
CONTINUOUS
 62
       7
100
AcDbLine
 10
79.31633368
 20
9.8687796
 30
0.0
 11
83.45014316
 21
9.8687796
 31
0.0
  0
LINE
  5
334
100
AcDbEntity
  8
SLD-0
  6
CONTINUOUS
 62
       7
100
AcDbLine
 10
85.78252317
 20
9.86877966
 30
0.0
 11
89.91633264
 21
9.86877966
 31
0.0
  0
LINE
  5
335
100
AcDbEntity
  8
SLD-0
  6
CONTINUOUS
 62
       7
100
AcDbLine
 10
89.91633264
 20
9.86877966
 30
0.0
 11
89.91633264
 21
16.46877985
 31
0.0
  0
LINE
  5
336
100
AcDbEntity
  8
SLD-0
  6
CONTINUOUS
 62
       7
100
AcDbLine
 10
89.91633264
 20
16.46877985
 30
0.0
 11
86.66633281
 21
16.46877985
 31
0.0
  0
LINE
  5
337
100
AcDbEntity
  8
SLD-0
  6
CONTINUOUS
 62
       7
100
AcDbLine
 10
86.36633285
 20
16.46877985
 30
0.0
 11
86.36633285
 21
22.28416616
 31
0.0
  0
LINE
  5
338
100
AcDbEntity
  8
SLD-0
  6
CONTINUOUS
 62
       7
100
AcDbLine
 10
86.66633281
 20
16.46877985
 30
0.0
 11
86.36633285
 21
16.46877985
 31
0.0
  0
LINE
  5
339
100
AcDbEntity
  8
SLD-0
  6
CONTINUOUS
 62
       7
100
AcDbLine
 10
82.86633347
 20
22.28416618
 30
0.0
 11
82.86633347
 21
16.46877979
 31
0.0
  0
LINE
  5
33A
100
AcDbEntity
  8
SLD-0
  6
CONTINUOUS
 62
       7
100
AcDbLine
 10
82.86633347
 20
16.46877979
 30
0.0
 11
82.56633352
 21
16.46877979
 31
0.0
  0
LINE
  5
33B
100
AcDbEntity
  8
SLD-0
  6
CONTINUOUS
 62
       7
100
AcDbLine
 10
86.36633285
 20
22.28416616
 30
0.0
 11
86.36633285
 21
23.42638859
 31
0.0
  0
LINE
  5
33C
100
AcDbEntity
  8
SLD-0
  6
CONTINUOUS
 62
       7
100
AcDbLine
 10
82.86633347
 20
23.42638853
 30
0.0
 11
82.86633347
 21
22.28416618
 31
0.0
  0
LINE
  5
33D
100
AcDbEntity
  8
SLD-0
  6
CONTINUOUS
 62
       7
100
AcDbLine
 10
87.6163335
 20
47.66877947
 30
0.0
 11
81.61633345
 21
47.66877947
 31
0.0
  0
LINE
  5
33E
100
AcDbEntity
  8
SLD-0
  6
CONTINUOUS
 62
       7
100
AcDbLine
 10
86.36633285
 20
24.28755836
 30
0.0
 11
86.36633285
 21
24.65661449
 31
0.0
  0
LINE
  5
33F
100
AcDbEntity
  8
SLD-0
  6
CONTINUOUS
 62
       7
100
AcDbLine
 10
82.86633347
 20
24.65661443
 30
0.0
 11
82.86633347
 21
24.2875583
 31
0.0
  0
LINE
  5
340
100
AcDbEntity
  8
SLD-0
  6
CONTINUOUS
 62
       7
100
AcDbLine
 10
82.86633347
 20
24.2875583
 30
0.0
 11
82.86633347
 21
23.43908339
 31
0.0
  0
LINE
  5
341
100
AcDbEntity
  8
SLD-0
  6
CONTINUOUS
 62
       7
100
AcDbLine
 10
86.36633285
 20
23.43908345
 30
0.0
 11
86.36633285
 21
24.28755836
 31
0.0
  0
LINE
  5
342
100
AcDbEntity
  8
SLD-0
  6
CONTINUOUS
 62
       7
100
AcDbLine
 10
86.36633285
 20
23.42638859
 30
0.0
 11
86.36633285
 21
23.43908345
 31
0.0
  0
LINE
  5
343
100
AcDbEntity
  8
SLD-0
  6
CONTINUOUS
 62
       7
100
AcDbLine
 10
82.86633347
 20
23.43908339
 30
0.0
 11
82.86633347
 21
23.42638853
 31
0.0
  0
LINE
  5
344
100
AcDbEntity
  8
SLD-0
  6
CONTINUOUS
 62
       7
100
AcDbLine
 10
82.86633347
 20
16.46877979
 30
0.0
 11
83.11633351
 21
16.46877979
 31
0.0
  0
LINE
  5
345
100
AcDbEntity
  8
SLD-0
  6
CONTINUOUS
 62
       7
100
AcDbLine
 10
86.11633281
 20
16.46877985
 30
0.0
 11
86.36633285
 21
16.46877985
 31
0.0
  0
ARC
  5
346
100
AcDbEntity
  8
SLD-0
  6
CONTINUOUS
 62
       7
100
AcDbCircle
 10
20.29936351
 20
54.36877967
 30
0.0
 40
2.0
100
AcDbArc
 50
0.0
 51
90.0
  0
ARC
  5
347
100
AcDbEntity
  8
SLD-0
  6
CONTINUOUS
 62
       7
100
AcDbCircle
 10
102.61633346
 20
-31.13470865
 30
0.0
 40
1.0
100
AcDbArc
 50
279.50522888
 51
360.0
  0
ARC
  5
348
100
AcDbEntity
  8
SLD-0
  6
CONTINUOUS
 62
       7
100
AcDbCircle
 10
84.61633346
 20
76.36877967
 30
0.0
 40
110.0
100
AcDbArc
 50
273.12677615
 51
279.50522888
  0
ARC
  5
349
100
AcDbEntity
  8
SLD-0
  6
CONTINUOUS
 62
       7
100
AcDbCircle
 10
19.95576582
 20
-31.63122033
 30
0.0
 40
2.0
100
AcDbArc
 50
270.0
 51
360.0
  0
ARC
  5
34A
100
AcDbEntity
  8
SLD-0
  6
CONTINUOUS
 62
       7
100
AcDbCircle
 10
-11.04423418
 20
-31.63122033
 30
0.0
 40
2.0
100
AcDbArc
 50
180.0
 51
270.0
  0
ARC
  5
34B
100
AcDbEntity
  8
SLD-0
  6
CONTINUOUS
 62
       7
100
AcDbCircle
 10
-11.04423418
 20
54.36877967
 30
0.0
 40
2.0
100
AcDbArc
 50
90.0
 51
180.0
  0
ARC
  5
34C
100
AcDbEntity
  8
SLD-0
  6
CONTINUOUS
 62
       7
100
AcDbCircle
 10
-80.39262683
 20
-35.53786219
 30
0.0
 40
1.5
100
AcDbArc
 50
272.37700445
 51
360.0
  0
ARC
  5
34D
100
AcDbEntity
  8
SLD-0
  6
CONTINUOUS
 62
       7
100
AcDbCircle
 10
-84.89262683
 20
72.86877967
 30
0.0
 40
110.0
100
AcDbArc
 50
267.62299555
 51
272.37700445
  0
ARC
  5
34E
100
AcDbEntity
  8
SLD-0
  6
CONTINUOUS
 62
       7
100
AcDbCircle
 10
-89.39262683
 20
-35.53786219
 30
0.0
 40
1.5
100
AcDbArc
 50
180.0
 51
267.62299564
  0
ARC
  5
34F
100
AcDbEntity
  8
SLD-0
  6
CONTINUOUS
 62
       7
100
AcDbCircle
 10
-84.89262683
 20
-53.63122033
 30
0.0
 40
110.0
100
AcDbArc
 50
80.49477112
 51
99.50522888
  0
ARC
  5
350
100
AcDbEntity
  8
SLD-0
  6
CONTINUOUS
 62
       7
100
AcDbCircle
 10
-66.89262684
 20
53.87226798
 30
0.0
 40
1.0
100
AcDbArc
 50
359.99999989
 51
440.49477003
  0
ARC
  5
351
100
AcDbEntity
  8
SLD-0
  6
CONTINUOUS
 62
       7
100
AcDbCircle
 10
-102.89262683
 20
53.87226798
 30
0.0
 40
1.0
100
AcDbArc
 50
99.5052293
 51
180.0
  0
ARC
  5
352
100
AcDbEntity
  8
SLD-0
  6
CONTINUOUS
 62
       7
100
AcDbCircle
 10
-84.89262683
 20
76.36877967
 30
0.0
 40
110.0
100
AcDbArc
 50
260.49477112
 51
279.50522888
  0
ARC
  5
353
100
AcDbEntity
  8
SLD-0
  6
CONTINUOUS
 62
       7
100
AcDbCircle
 10
-102.89262683
 20
-31.13470865
 30
0.0
 40
1.0
100
AcDbArc
 50
180.0
 51
260.49477061
  0
ARC
  5
354
100
AcDbEntity
  8
SLD-0
  6
CONTINUOUS
 62
       7
100
AcDbCircle
 10
-66.89262683
 20
-31.13470865
 30
0.0
 40
1.0
100
AcDbArc
 50
279.50522939
 51
360.0
  0
ARC
  5
355
100
AcDbEntity
  8
SLD-0
  6
CONTINUOUS
 62
       7
100
AcDbCircle
 10
-81.8613475
 20
10.80521118
 30
0.0
 40
20.0
100
AcDbArc
 50
289.57734965
 51
322.98101301
  0
ARC
  5
356
100
AcDbEntity
  8
SLD-0
  6
CONTINUOUS
 62
       7
100
AcDbCircle
 10
-87.92390616
 20
10.80521118
 30
0.0
 40
20.0
100
AcDbArc
 50
217.01898699
 51
250.42265035
  0
ARC
  5
357
100
AcDbEntity
  8
SLD-0
  6
CONTINUOUS
 62
       7
100
AcDbCircle
 10
-87.92390616
 20
11.93234816
 30
0.0
 40
20.0
100
AcDbArc
 50
109.57734965
 51
142.98101301
  0
ARC
  5
358
100
AcDbEntity
  8
SLD-0
  6
CONTINUOUS
 62
       7
100
AcDbCircle
 10
-81.8613475
 20
11.93234816
 30
0.0
 40
20.0
100
AcDbArc
 50
37.01898699
 51
70.42265035
  0
ARC
  5
359
100
AcDbEntity
  8
SLD-0
  6
CONTINUOUS
 62
       7
100
AcDbCircle
 10
-48.54562264
 20
11.36877967
 30
0.0
 40
50.0
100
AcDbArc
 50
157.16072787
 51
202.83927213
  0
ARC
  5
35A
100
AcDbEntity
  8
SLD-0
  6
CONTINUOUS
 62
       7
100
AcDbCircle
 10
-121.23963102
 20
11.36877967
 30
0.0
 40
50.0
100
AcDbArc
 50
337.16072787
 51
382.83927213
  0
ARC
  5
35B
100
AcDbEntity
  8
SLD-0
  6
CONTINUOUS
 62
       7
100
AcDbCircle
 10
21.23850735
 20
15.06877964
 30
0.0
 40
1.0
100
AcDbArc
 50
5.71030209
 51
90.0
  0
ARC
  5
35C
100
AcDbEntity
  8
SLD-0
  6
CONTINUOUS
 62
       7
100
AcDbCircle
 10
21.23850738
 20
11.26877968
 30
0.0
 40
1.0
100
AcDbArc
 50
270.0
 51
354.27631043
  0
ARC
  5
35D
100
AcDbEntity
  8
SLD-0
  6
CONTINUOUS
 62
       7
100
AcDbCircle
 10
20.43850736
 20
15.06877967
 30
0.0
 40
0.99999997
100
AcDbArc
 50
90.00000859
 51
180.0
  0
ARC
  5
35E
100
AcDbEntity
  8
SLD-0
  6
CONTINUOUS
 62
       7
100
AcDbCircle
 10
20.43850739
 20
11.26877967
 30
0.0
 40
1.0
100
AcDbArc
 50
180.0
 51
269.99999141
  0
ARC
  5
35F
100
AcDbEntity
  8
SLD-0
  6
CONTINUOUS
 62
       7
100
AcDbCircle
 10
21.03850739
 20
-27.13122033
 30
0.0
 40
1.5
100
AcDbArc
 50
276.55050397
 51
443.5452037
  0
ARC
  5
360
100
AcDbEntity
  8
SLD-0
  6
CONTINUOUS
 62
       7
100
AcDbCircle
 10
21.03850739
 20
49.86877967
 30
0.0
 40
1.5
100
AcDbArc
 50
276.55050397
 51
443.5452037
  0
ARC
  5
361
100
AcDbEntity
  8
SLD-0
  6
CONTINUOUS
 62
       7
100
AcDbCircle
 10
21.9993637
 20
24.83172303
 30
0.0
 40
0.29999981
100
AcDbArc
 50
271.99999953
 51
360.0000783
  0
ARC
  5
362
100
AcDbEntity
  8
SLD-0
  6
CONTINUOUS
 62
       7
100
AcDbCircle
 10
17.01282729
 20
23.85710181
 30
0.0
 40
0.50000019
100
AcDbArc
 50
92.00000059
 51
211.50167787
  0
ARC
  5
363
100
AcDbEntity
  8
SLD-0
  6
CONTINUOUS
 62
       7
100
AcDbCircle
 10
16.33850751
 20
20.66877976
 30
0.0
 40
1.50000016
100
AcDbArc
 50
323.13010258
 51
396.8699062
  0
ARC
  5
364
100
AcDbEntity
  8
SLD-0
  6
CONTINUOUS
 62
       7
100
AcDbCircle
 10
84.61633346
 20
44.36877967
 30
0.0
 40
2.90000015
100
AcDbArc
 50
189.92819184
 51
350.07178526
  0
ARC
  5
365
100
AcDbEntity
  8
SLD-0
  6
CONTINUOUS
 62
       7
100
AcDbCircle
 10
84.61633346
 20
44.36877967
 30
0.0
 40
2.90000015
100
AcDbArc
 50
9.92819184
 51
170.07179222
  0
ARC
  5
366
100
AcDbEntity
  8
SLD-0
  6
CONTINUOUS
 62
       7
100
AcDbCircle
 10
84.61633346
 20
44.36877967
 30
0.0
 40
2.90000015
100
AcDbArc
 50
170.07179222
 51
189.92819184
  0
ARC
  5
367
100
AcDbEntity
  8
SLD-0
  6
CONTINUOUS
 62
       7
100
AcDbCircle
 10
84.61633346
 20
44.36877967
 30
0.0
 40
2.90000015
100
AcDbArc
 50
350.07178526
 51
369.92819184
  0
ARC
  5
368
100
AcDbEntity
  8
SLD-0
  6
CONTINUOUS
 62
       7
100
AcDbCircle
 10
84.61633346
 20
13.16877967
 30
0.0
 40
3.5
100
AcDbArc
 50
115.37693353
 51
424.62306647
  0
LINE
  5
369
100
AcDbEntity
  8
SLD-0
  6
CENTERX2
 62
       7
100
AcDbLine
 10
84.61633346
 20
63.02217145
 30
0.0
 11
84.61633346
 21
-41.25636061
 31
0.0
  0
LINE
  5
36A
100
AcDbEntity
  8
SLD-0
  6
CENTERX2
 62
       7
100
AcDbLine
 10
-84.89262683
 20
61.81721753
 30
0.0
 11
-84.89262683
 21
-40.9675882
 31
0.0
  0
LINE
  5
36B
100
AcDbEntity
  8
SLD-0_0
  6
CONTINUOUS
 62
       7
100
AcDbLine
 10
65.61633346
 20
-31.13470865
 30
0.0
 11
65.61633346
 21
53.87226798
 31
0.0
  0
LINE
  5
36C
100
AcDbEntity
  8
SLD-0_0
  6
CONTINUOUS
 62
       7
100
AcDbLine
 10
103.61633346
 20
53.87226798
 30
0.0
 11
103.61633346
 21
-31.13470865
 31
0.0
  0
ARC
  5
36D
100
AcDbEntity
  8
SLD-0_0
  6
CONTINUOUS
 62
       7
100
AcDbCircle
 10
84.61633346
 20
76.36877967
 30
0.0
 40
110.0
100
AcDbArc
 50
260.49477112
 51
266.87322387
  0
ARC
  5
36E
100
AcDbEntity
  8
SLD-0_0
  6
CONTINUOUS
 62
       7
100
AcDbCircle
 10
84.61633346
 20
-53.63122033
 30
0.0
 40
110.0
100
AcDbArc
 50
80.49477112
 51
99.50522888
  0
ARC
  5
36F
100
AcDbEntity
  8
SLD-0_0
  6
CONTINUOUS
 62
       7
100
AcDbCircle
 10
66.61633346
 20
53.87226798
 30
0.0
 40
1.0
100
AcDbArc
 50
99.5052293
 51
180.0
  0
ARC
  5
370
100
AcDbEntity
  8
SLD-0_0
  6
CONTINUOUS
 62
       7
100
AcDbCircle
 10
66.61633346
 20
-31.13470865
 30
0.0
 40
1.0
100
AcDbArc
 50
180.0
 51
260.49477061
  0
ARC
  5
371
100
AcDbEntity
  8
SLD-0_0
  6
CONTINUOUS
 62
       7
100
AcDbCircle
 10
102.61633345
 20
53.87226798
 30
0.0
 40
1.0
100
AcDbArc
 50
359.99999991
 51
440.49477016
  0
INSERT
  5
372
100
AcDbEntity
  8
0
  6
CONTINUOUS
100
AcDbBlockReference
  2
GROUP_1
 10
0.0
 20
0.0
 30
0.0
  0
INSERT
  5
373
100
AcDbEntity
  8
0
  6
CONTINUOUS
100
AcDbBlockReference
  2
GROUP_2
 10
0.0
 20
0.0
 30
0.0
  0
INSERT
  5
374
100
AcDbEntity
  8
0
  6
CONTINUOUS
100
AcDbBlockReference
  2
GROUP_3
 10
0.0
 20
0.0
 30
0.0
  0
INSERT
  5
375
100
AcDbEntity
  8
0
  6
CONTINUOUS
100
AcDbBlockReference
  2
GROUP_4
 10
0.0
 20
0.0
 30
0.0
  0
INSERT
  5
376
100
AcDbEntity
  8
0
  6
CONTINUOUS
100
AcDbBlockReference
  2
GROUP_5
 10
0.0
 20
0.0
 30
0.0
  0
INSERT
  5
377
100
AcDbEntity
  8
0
  6
CONTINUOUS
100
AcDbBlockReference
  2
GROUP_6
 10
0.0
 20
0.0
 30
0.0
  0
INSERT
  5
378
100
AcDbEntity
  8
0
  6
CONTINUOUS
100
AcDbBlockReference
  2
GROUP_7
 10
0.0
 20
0.0
 30
0.0
  0
INSERT
  5
379
100
AcDbEntity
  8
0
  6
CONTINUOUS
100
AcDbBlockReference
  2
GROUP_8
 10
0.0
 20
0.0
 30
0.0
  0
INSERT
  5
37A
100
AcDbEntity
  8
0
  6
CONTINUOUS
100
AcDbBlockReference
  2
GROUP_9
 10
0.0
 20
0.0
 30
0.0
  0
INSERT
  5
37B
100
AcDbEntity
  8
0
  6
CONTINUOUS
100
AcDbBlockReference
  2
GROUP_10
 10
0.0
 20
0.0
 30
0.0
  0
INSERT
  5
37C
100
AcDbEntity
  8
0
  6
CONTINUOUS
100
AcDbBlockReference
  2
GROUP_11
 10
0.0
 20
0.0
 30
0.0
  0
INSERT
  5
37D
100
AcDbEntity
  8
0
  6
CONTINUOUS
100
AcDbBlockReference
  2
GROUP_12
 10
0.0
 20
0.0
 30
0.0
  0
INSERT
  5
37E
100
AcDbEntity
  8
0
  6
CONTINUOUS
100
AcDbBlockReference
  2
GROUP_13
 10
0.0
 20
0.0
 30
0.0
  0
INSERT
  5
37F
100
AcDbEntity
  8
0
  6
CONTINUOUS
100
AcDbBlockReference
  2
GROUP_14
 10
0.0
 20
0.0
 30
0.0
  0
TEXT
  5
380
100
AcDbEntity
  8
SLD-0_0
 62
       7
100
AcDbText
 10
77.36063182
 20
-63.02217145
 30
0.0
 40
5.0
  1
000
 72
       5
 11
92.36063182
 21
-63.02217145
 31
0.0
100
AcDbText
  0
ENDSEC
  0
SECTION
  2
OBJECTS
  0
DICTIONARY
  5
19
100
AcDbDictionary
  3
ACAD_GROUP
350
1A
  3
ACAD_MLINESTYLE
350
1B
  0
DICTIONARY
  5
1A
102
{ACAD_REACTORS
330
19
102
}
100
AcDbDictionary
  0
DICTIONARY
  5
1B
102
{ACAD_REACTORS
330
19
102
}
100
AcDbDictionary
  3
STANDARD
350
1C
  0
MLINESTYLE
  5
1C
102
{ACAD_REACTORS
330
1B
102
}
100
AcDbMlineStyle
  2
STANDARD
 70
       0
  3

 62
       0
 51
90.0
 52
90.0
 71
       2
 49
0.5
 62
     256
  6
BYLAYER
 49
-0.5
 62
     256
  6
BYLAYER
  0
ENDSEC
  0
EOF
