  0
SECTION
  2
HEADER
  9
$ACADVER
  1
AC1014
  9
$ACADMAINTVER
 70
       0
  9
$DWGCODEPAGE
  3
ANSI_932
  9
$INSBASE
 10
0.0
 20
0.0
 30
0.0
  9
$EXTMIN
 10
-83.4916908
 20
-97.40590024
 30
0.0
  9
$EXTMAX
 10
105.6190989
 20
46.54797115
 30
0.0
  9
$LIMMIN
 10
-89.40140298
 20
-101.90445872
  9
$LIMMAX
 10
111.52881107
 20
51.04652963
  9
$ORTHOMODE
 70
       0
  9
$REGENMODE
 70
       1
  9
$FILLMODE
 70
       1
  9
$QTEXTMODE
 70
       0
  9
$MIRRTEXT
 70
       1
  9
$DRAGMODE
 70
       2
  9
$LTSCALE
 40
1.0
  9
$OSMODE
 70
       0
  9
$ATTMODE
 70
       1
  9
$TEXTSIZE
 40
0.2
  9
$TRACEWID
 40
0.05
  9
$TEXTSTYLE
  7
STANDARD
  9
$CLAYER
  8
0
  9
$CELTYPE
  6
CONTINUOUS
  9
$CECOLOR
 62
     256
  9
$CELTSCALE
 40
1.0
  9
$DELOBJ
 70
       1
  9
$DISPSILH
 70
       0
  9
$DIMSCALE
 40
1.0
  9
$DIMASZ
 40
0.18
  9
$DIMEXO
 40
0.0625
  9
$DIMDLI
 40
0.38
  9
$DIMRND
 40
0.0
  9
$DIMDLE
 40
0.0
  9
$DIMEXE
 40
0.18
  9
$DIMTP
 40
0.0
  9
$DIMTM
 40
0.0
  9
$DIMTXT
 40
0.18
  9
$DIMCEN
 40
0.09
  9
$DIMTSZ
 40
0.0
  9
$DIMTOL
 70
       0
  9
$DIMLIM
 70
       0
  9
$DIMTIH
 70
       1
  9
$DIMTOH
 70
       1
  9
$DIMSE1
 70
       0
  9
$DIMSE2
 70
       0
  9
$DIMTAD
 70
       0
  9
$DIMZIN
 70
       0
  9
$DIMBLK
  1

  9
$DIMASO
 70
       1
  9
$DIMSHO
 70
       1
  9
$DIMPOST
  1

  9
$DIMAPOST
  1

  9
$DIMALT
 70
       0
  9
$DIMALTD
 70
       2
  9
$DIMALTF
 40
25.4
  9
$DIMLFAC
 40
1.0
  9
$DIMTOFL
 70
       0
  9
$DIMTVP
 40
0.0
  9
$DIMTIX
 70
       0
  9
$DIMSOXD
 70
       0
  9
$DIMSAH
 70
       0
  9
$DIMBLK1
  1

  9
$DIMBLK2
  1

  9
$DIMSTYLE
  2
STANDARD
  9
$DIMCLRD
 70
       0
  9
$DIMCLRE
 70
       0
  9
$DIMCLRT
 70
       0
  9
$DIMTFAC
 40
1.0
  9
$DIMGAP
 40
0.09
  9
$DIMJUST
 70
       0
  9
$DIMSD1
 70
       0
  9
$DIMSD2
 70
       0
  9
$DIMTOLJ
 70
       1
  9
$DIMTZIN
 70
       0
  9
$DIMALTZ
 70
       0
  9
$DIMALTTZ
 70
       0
  9
$DIMFIT
 70
       3
  9
$DIMUPT
 70
       0
  9
$DIMUNIT
 70
       2
  9
$DIMDEC
 70
       4
  9
$DIMTDEC
 70
       4
  9
$DIMALTU
 70
       2
  9
$DIMALTTD
 70
       2
  9
$DIMTXSTY
  7
STANDARD
  9
$DIMAUNIT
 70
       0
  9
$LUNITS
 70
       2
  9
$LUPREC
 70
       4
  9
$SKETCHINC
 40
0.1
  9
$FILLETRAD
 40
0.0
  9
$AUNITS
 70
       0
  9
$AUPREC
 70
       0
  9
$MENU
  1
acad
  9
$ELEVATION
 40
0.0
  9
$PELEVATION
 40
0.0
  9
$THICKNESS
 40
0.0
  9
$LIMCHECK
 70
       0
  9
$BLIPMODE
 70
       1
  9
$CHAMFERA
 40
0.0
  9
$CHAMFERB
 40
0.0
  9
$CHAMFERC
 40
0.0
  9
$CHAMFERD
 40
0.0
  9
$SKPOLY
 70
       0
  9
$TDCREATE
 40
0.000000000
  9
$TDUPDATE
 40
0.000000000
  9
$TDINDWG
 40
0.0000000000
  9
$TDUSRTIMER
 40
0.0000000000
  9
$USRTIMER
 70
       1
  9
$ANGBASE
 50
0.0
  9
$ANGDIR
 70
       0
  9
$PDMODE
 70
       0
  9
$PDSIZE
 40
1.0
  9
$PLINEWID
 40
0.0
  9
$COORDS
 70
       1
  9
$SPLFRAME
 70
       0
  9
$SPLINETYPE
 70
       6
  9
$SPLINESEGS
 70
       8
  9
$ATTDIA
 70
       0
  9
$ATTREQ
 70
       1
  9
$HANDLING
 70
       1
  9
$HANDSEED
  5
2F5
  9
$SURFTAB1
 70
       6
  9
$SURFTAB2
 70
       6
  9
$SURFTYPE
 70
       6
  9
$SURFU
 70
       6
  9
$SURFV
 70
       6
  9
$UCSNAME
  2

  9
$UCSORG
 10
0.0
 20
0.0
 30
0.0
  9
$UCSXDIR
 10
1.0
 20
0.0
 30
0.0
  9
$UCSYDIR
 10
0.0
 20
1.0
 30
0.0
  9
$PUCSNAME
  2

  9
$PUCSORG
 10
0.0
 20
0.0
 30
0.0
  9
$PUCSXDIR
 10
1.0
 20
0.0
 30
0.0
  9
$PUCSYDIR
 10
0.0
 20
1.0
 30
0.0
  9
$USERI1
 70
       0
  9
$USERI2
 70
       0
  9
$USERI3
 70
       0
  9
$USERI4
 70
       0
  9
$USERI5
 70
       0
  9
$USERR1
 40
0.0
  9
$USERR2
 40
0.0
  9
$USERR3
 40
0.0
  9
$USERR4
 40
0.0
  9
$USERR5
 40
0.0
  9
$WORLDVIEW
 70
       1
  9
$SHADEDGE
 70
       3
  9
$SHADEDIF
 70
      70
  9
$TILEMODE
 70
       1
  9
$MAXACTVP
 70
      16
  9
$PINSBASE
 10
0.0
 20
0.0
 30
0.0
  9
$PLIMCHECK
 70
       0
  9
$PEXTMIN
 10
1.00000000E+20
 20
1.00000000E+20
 30
1.00000000E+20
  9
$PEXTMAX
 10
-1.00000000E+20
 20
-1.00000000E+20
 30
-1.00000000E+20
  9
$PLIMMIN
 10
0.0
 20
0.0
  9
$PLIMMAX
 10
12.0
 20
9.0
  9
$UNITMODE
 70
       0
  9
$VISRETAIN
 70
       0
  9
$PLINEGEN
 70
       1
  9
$PSLTSCALE
 70
       0
  9
$TREEDEPTH
 70
    3020
  9
$PICKSTYLE
 70
       1
  9
$CMLSTYLE
  2
STANDARD
  9
$CMLJUST
 70
       0
  9
$CMLSCALE
 40
1.0
  9
$PROXYGRAPHICS
 70
       0
  9
$MEASUREMENT
 70
       0
  0
ENDSEC
  0
SECTION
  2
CLASSES
  0
CLASS
  1
LWPOLYLINE
  2
AcDbPolyline
  3
"AutoCAD"
 90
        0
280
       0
281
       1
  0
CLASS
  1
IMAGE
  2
AcDbRasterImage
  3
ISM
 90
      127
280
       0
281
       1
  0
CLASS
  1
OLE2FRAME
  2
AcDbOle2Frame
  3
""
 90
        0
280
       0
281
       1
  0
CLASS
  1
HATCH
  2
AcDbHatch
  3
"ACAD_SEDONA"
 90
        0
280
       0
281
       1
  0
CLASS
  1
DICTIONARYVAR
  2
AcDbDictionaryVar
  3
"AutoCAD"
 90
        0
280
       0
281
       0
  0
CLASS
  1
RASTERVARIABLES
  2
AcDbRasterVariables
  3
ISM
 90
        0
280
       0
281
       0
  0
CLASS
  1
IMAGEDEF
  2
AcDbRasterImageDef
  3
ISM
 90
        0
280
       0
281
       0
  0
CLASS
  1
IMAGEDEF_REACTOR
  2
AcDbRasterImageDefReactor
  3
ISM
 90
        1
280
       0
281
       0
  0
CLASS
  1
IDBUFFER
  2
AcDbIdBuffer
  3
"Acad"
 90
        0
280
       0
281
       0
  0
CLASS
  1
SPATIAL_FILTER
  2
AcDbSpatialFilter
  3
"Acad"
 90
        0
280
       0
281
       0
  0
CLASS
  1
XRECORD
  2
AcDbXrecord
  3
"<Built In>"
 90
        0
280
       0
281
       0
  0
CLASS
  1
SORTENTSTABLE
  2
AcDbSortentsTable
  3
"AutoCAD"
 90
        0
280
       0
281
       0
  0
CLASS
  1
LAYER_INDEX
  2
AcDbLayerIndex
  3
"Acad"
 90
        0
280
       0
281
       0
  0
CLASS
  1
SPATIAL_INDEX
  2
AcDbSpatialIndex
  3
"Acad"
 90
        0
280
       0
281
       0
  0
CLASS
  1
OBJECT_PTR
  2
CAseDLPNTableRecord
  3
"ASE-LPNTableRecord"
 90
        1
280
       0
281
       0
  0
CLASS
  1
LAYOUT
  2
AcDbLayout
  3
"AutoCAD 2000"
 90
        1
280
       0
281
       0
  0
CLASS
  1
PLOTSETTINGS
  2
AcDbPlotSettings
  3
"AutoCAD 2000"
 90
        1
280
       0
281
       0
  0
CLASS
  1
ACDBDICTIONARYWDFLT
  2
AcDbDictionaryWithDefault
  3
"AutoCAD 2000"
 90
        1
280
       0
281
       0
  0
CLASS
  1
ACDBPLACEHOLDER
  2
AcDbPlaceHolder
  3
"AutoCAD 2000"
 90
        1
280
       0
281
       0
  0
CLASS
  1
VBA_PROJECT
  2
AcDbVbaProject
  3
"acadvba"
 90
        1
280
       0
281
       0
  0
CLASS
  1
WIPEOUT
  2
AcDbWipeout
  3
WipeOut|AutoCAD Express Tool|expresstools@autodesk.com
 90
      127
280
       0
281
       1
  0
CLASS
  1
WIPEOUTVARIABLES
  2
AcDbWipeoutVariables
  3
WipeOut|AutoCAD Express Tool|expresstools@autodesk.com
 90
        0
280
       0
281
       0
  0
CLASS
  1
RTEXT
  2
RText
  3
RText|AutoCAD Express Tool|expresstools@autodesk.com
 90
        0
280
       0
281
       1
  0
CLASS
  1
ARCALIGNEDTEXT
  2
AcDbArcAlignedText
  3
ATEXT|AutoCAD Express Tool|expresstools@autodesk.com
 90
        0
280
       0
281
       1
  0
ENDSEC
  0
SECTION
  2
TABLES
  0
TABLE
  2
VPORT
  5
7
100
AcDbSymbolTable
 70
       1
  0
VPORT
  5
15
100
AcDbSymbolTableRecord
100
AcDbViewportTableRecord
  2
*ACTIVE
 70
       0
 10
0.0
 20
0.0
 11
1.0
 21
1.0
 12
11.06370405
 22
-25.42896455
 13
0.0
 23
0.0
 14
1.0
 24
1.0
 15
0.0
 25
0.0
 16
0.0
 26
0.0
 36
1.0
 17
0.0
 27
0.0
 37
0.0
 40
152.95098835
 41
1.3136902
 42
50.0
 43
0.0
 44
0.0
 50
0.0
 51
0.0
 71
       0
 72
     100
 73
       1
 74
       1
 75
       0
 76
       0
 77
       0
 78
       0
  0
ENDTAB
  0
TABLE
  2
LTYPE
  5
4
100
AcDbSymbolTable
 70
      30
  0
LTYPE
  5
11
100
AcDbSymbolTableRecord
100
AcDbLinetypeTableRecord
  2
BYBLOCK
 70
      64
  3

 72
      65
 73
       0
 40
0.0
  0
LTYPE
  5
12
100
AcDbSymbolTableRecord
100
AcDbLinetypeTableRecord
  2
BYLAYER
 70
      64
  3

 72
      65
 73
       0
 40
0.0
  0
LTYPE
  5
13
100
AcDbSymbolTableRecord
100
AcDbLinetypeTableRecord
  2
CONTINUOUS
 70
      64
  3
Solid line
 72
      65
 73
       0
 40
0.0
  0
LTYPE
  5
1D
100
AcDbSymbolTableRecord
100
AcDbLinetypeTableRecord
  2
HIDDENX2
 70
      64
  3
CADPAC LINETYPE
 72
      65
 73
       2
 40
11.88
 49
8.91
 74
       0
 49
-2.97
 74
       0
  0
LTYPE
  5
1E
100
AcDbSymbolTableRecord
100
AcDbLinetypeTableRecord
  2
HIDDEN
 70
      64
  3
CADPAC LINETYPE
 72
      65
 73
       2
 40
8.91
 49
5.94
 74
       0
 49
-2.97
 74
       0
  0
LTYPE
  5
1F
100
AcDbSymbolTableRecord
100
AcDbLinetypeTableRecord
  2
HIDDEN2
 70
      64
  3
CADPAC LINETYPE
 72
      65
 73
       2
 40
7.425
 49
4.455
 74
       0
 49
-2.97
 74
       0
  0
LTYPE
  5
20
100
AcDbSymbolTableRecord
100
AcDbLinetypeTableRecord
  2
DASHED
 70
      64
  3
CADPAC LINETYPE
 72
      65
 73
       2
 40
8.91
 49
5.94
 74
       0
 49
-2.97
 74
       0
  0
LTYPE
  5
21
100
AcDbSymbolTableRecord
100
AcDbLinetypeTableRecord
  2
DASHED2
 70
      64
  3
CADPAC LINETYPE
 72
      65
 73
       2
 40
6.6825
 49
4.455
 74
       0
 49
-2.2275
 74
       0
  0
LTYPE
  5
22
100
AcDbSymbolTableRecord
100
AcDbLinetypeTableRecord
  2
DASHEDX2
 70
      64
  3
CADPAC LINETYPE
 72
      65
 73
       2
 40
13.365
 49
8.91
 74
       0
 49
-4.455
 74
       0
  0
LTYPE
  5
23
100
AcDbSymbolTableRecord
100
AcDbLinetypeTableRecord
  2
DOTX2
 70
      64
  3
CADPAC LINETYPE
 72
      65
 73
       2
 40
3.7125
 49
0.0
 74
       0
 49
-3.7125
 74
       0
  0
LTYPE
  5
24
100
AcDbSymbolTableRecord
100
AcDbLinetypeTableRecord
  2
DOT
 70
      64
  3
CADPAC LINETYPE
 72
      65
 73
       2
 40
2.97
 49
0.0
 74
       0
 49
-2.97
 74
       0
  0
LTYPE
  5
25
100
AcDbSymbolTableRecord
100
AcDbLinetypeTableRecord
  2
DOT2
 70
      64
  3
CADPAC LINETYPE
 72
      65
 73
       2
 40
2.2275
 49
0.0
 74
       0
 49
-2.2275
 74
       0
  0
LTYPE
  5
26
100
AcDbSymbolTableRecord
100
AcDbLinetypeTableRecord
  2
CENTERX2
 70
      64
  3
CADPAC LINETYPE
 72
      65
 73
       4
 40
17.82
 49
7.425
 74
       0
 49
-3.7125
 74
       0
 49
2.97
 74
       0
 49
-3.7125
 74
       0
  0
LTYPE
  5
27
100
AcDbSymbolTableRecord
100
AcDbLinetypeTableRecord
  2
CENTER
 70
      64
  3
CADPAC LINETYPE
 72
      65
 73
       4
 40
13.662
 49
5.94
 74
       0
 49
-2.97
 74
       0
 49
1.782
 74
       0
 49
-2.97
 74
       0
  0
LTYPE
  5
28
100
AcDbSymbolTableRecord
100
AcDbLinetypeTableRecord
  2
CENTER2
 70
      64
  3
CADPAC LINETYPE
 72
      65
 73
       4
 40
9.504
 49
4.455
 74
       0
 49
-2.2275
 74
       0
 49
0.594
 74
       0
 49
-2.2275
 74
       0
  0
LTYPE
  5
29
100
AcDbSymbolTableRecord
100
AcDbLinetypeTableRecord
  2
DASHDOTX2
 70
      64
  3
CADPAC LINETYPE
 72
      65
 73
       4
 40
14.85
 49
7.425
 74
       0
 49
-3.7125
 74
       0
 49
0.0
 74
       0
 49
-3.7125
 74
       0
  0
LTYPE
  5
2A
100
AcDbSymbolTableRecord
100
AcDbLinetypeTableRecord
  2
DASHDOT
 70
      64
  3
CADPAC LINETYPE
 72
      65
 73
       4
 40
11.88
 49
5.94
 74
       0
 49
-2.97
 74
       0
 49
0.0
 74
       0
 49
-2.97
 74
       0
  0
LTYPE
  5
2B
100
AcDbSymbolTableRecord
100
AcDbLinetypeTableRecord
  2
DASHDOT2
 70
      64
  3
CADPAC LINETYPE
 72
      65
 73
       4
 40
8.91
 49
4.455
 74
       0
 49
-2.2275
 74
       0
 49
0.0
 74
       0
 49
-2.2275
 74
       0
  0
LTYPE
  5
2C
100
AcDbSymbolTableRecord
100
AcDbLinetypeTableRecord
  2
DIVIDEX2
 70
      64
  3
CADPAC LINETYPE
 72
      65
 73
       6
 40
18.5625
 49
7.425
 74
       0
 49
-3.7125
 74
       0
 49
0.0
 74
       0
 49
-3.7125
 74
       0
 49
0.0
 74
       0
 49
-3.7125
 74
       0
  0
LTYPE
  5
2D
100
AcDbSymbolTableRecord
100
AcDbLinetypeTableRecord
  2
DIVIDE
 70
      64
  3
CADPAC LINETYPE
 72
      65
 73
       6
 40
14.85
 49
5.94
 74
       0
 49
-2.97
 74
       0
 49
0.0
 74
       0
 49
-2.97
 74
       0
 49
0.0
 74
       0
 49
-2.97
 74
       0
  0
LTYPE
  5
2E
100
AcDbSymbolTableRecord
100
AcDbLinetypeTableRecord
  2
DIVIDE2
 70
      64
  3
CADPAC LINETYPE
 72
      65
 73
       6
 40
11.1375
 49
4.455
 74
       0
 49
-2.2275
 74
       0
 49
0.0
 74
       0
 49
-2.2275
 74
       0
 49
0.0
 74
       0
 49
-2.2275
 74
       0
  0
LTYPE
  5
2F
100
AcDbSymbolTableRecord
100
AcDbLinetypeTableRecord
  2
BORDERX2
 70
      64
  3
CADPAC LINETYPE
 72
      65
 73
       6
 40
25.9875
 49
7.425
 74
       0
 49
-3.7125
 74
       0
 49
7.425
 74
       0
 49
-3.7125
 74
       0
 49
0.0
 74
       0
 49
-3.7125
 74
       0
  0
LTYPE
  5
30
100
AcDbSymbolTableRecord
100
AcDbLinetypeTableRecord
  2
BORDER
 70
      64
  3
CADPAC LINETYPE
 72
      65
 73
       6
 40
20.79
 49
5.94
 74
       0
 49
-2.97
 74
       0
 49
5.94
 74
       0
 49
-2.97
 74
       0
 49
0.0
 74
       0
 49
-2.97
 74
       0
  0
LTYPE
  5
31
100
AcDbSymbolTableRecord
100
AcDbLinetypeTableRecord
  2
BORDER2
 70
      64
  3
CADPAC LINETYPE
 72
      65
 73
       6
 40
15.5925
 49
4.455
 74
       0
 49
-2.2275
 74
       0
 49
4.455
 74
       0
 49
-2.2275
 74
       0
 49
0.0
 74
       0
 49
-2.2275
 74
       0
  0
LTYPE
  5
32
100
AcDbSymbolTableRecord
100
AcDbLinetypeTableRecord
  2
PHANTOMX2
 70
      64
  3
CADPAC LINETYPE
 72
      65
 73
       6
 40
22.275
 49
7.425
 74
       0
 49
-2.97
 74
       0
 49
2.97
 74
       0
 49
-2.97
 74
       0
 49
2.97
 74
       0
 49
-2.97
 74
       0
  0
LTYPE
  5
33
100
AcDbSymbolTableRecord
100
AcDbLinetypeTableRecord
  2
PHANTOM
 70
      64
  3
CADPAC LINETYPE
 72
      65
 73
       6
 40
18.414
 49
5.94
 74
       0
 49
-2.97
 74
       0
 49
1.782
 74
       0
 49
-2.97
 74
       0
 49
1.782
 74
       0
 49
-2.97
 74
       0
  0
LTYPE
  5
34
100
AcDbSymbolTableRecord
100
AcDbLinetypeTableRecord
  2
PHANTOM2
 70
      64
  3
CADPAC LINETYPE
 72
      65
 73
       6
 40
15.741
 49
4.455
 74
       0
 49
-2.97
 74
       0
 49
1.188
 74
       0
 49
-2.97
 74
       0
 49
1.188
 74
       0
 49
-2.97
 74
       0
  0
LTYPE
  5
35
100
AcDbSymbolTableRecord
100
AcDbLinetypeTableRecord
  2
ACAD_ISO06W100
 70
      64
  3
CADPAC LINETYPE
 72
      65
 73
       8
 40
20.0475
 49
7.425
 74
       0
 49
-3.7125
 74
       0
 49
0.0
 74
       0
 49
-2.97
 74
       0
 49
0.0
 74
       0
 49
-2.97
 74
       0
 49
0.0
 74
       0
 49
-2.97
 74
       0
  0
LTYPE
  5
36
100
AcDbSymbolTableRecord
100
AcDbLinetypeTableRecord
  2
ACAD_ISO13W100
 70
      64
  3
CADPAC LINETYPE
 72
      65
 73
       8
 40
23.76
 49
5.94
 74
       0
 49
-2.97
 74
       0
 49
5.94
 74
       0
 49
-2.97
 74
       0
 49
0.0
 74
       0
 49
-2.97
 74
       0
 49
0.0
 74
       0
 49
-2.97
 74
       0
  0
LTYPE
  5
37
100
AcDbSymbolTableRecord
100
AcDbLinetypeTableRecord
  2
ACAD_ISO14W100
 70
      64
  3
CADPAC LINETYPE
 72
      65
 73
       8
 40
17.82
 49
5.94
 74
       0
 49
-2.97
 74
       0
 49
0.0
 74
       0
 49
-2.97
 74
       0
 49
0.0
 74
       0
 49
-2.97
 74
       0
 49
0.0
 74
       0
 49
-2.97
 74
       0
  0
ENDTAB
  0
TABLE
  2
LAYER
  5
2
100
AcDbSymbolTable
 70
       2
  0
LAYER
  5
14
100
AcDbSymbolTableRecord
100
AcDbLayerTableRecord
  2
0
 70
       0
 62
       7
  6
CONTINUOUS
  0
LAYER
  5
38
100
AcDbSymbolTableRecord
100
AcDbLayerTableRecord
  2
レイヤー_1
 70
       0
 62
       7
  6
CONTINUOUS
  0
ENDTAB
  0
TABLE
  2
STYLE
  5
3
100
AcDbSymbolTable
 70
       1
  0
STYLE
  5
17
100
AcDbSymbolTableRecord
100
AcDbTextStyleTableRecord
  2
STANDARD
 70
       0
 40
0.0
 41
0.8
 50
0.0
 71
       0
 42
5.0
  3
txt.shx
  4
bigfont.shx
  0
ENDTAB
  0
TABLE
  2
VIEW
  5
5
100
AcDbSymbolTable
 70
       1
  0
VIEW
  5
39
100
AcDbSymbolTableRecord
100
AcDbViewTableRecord
  2
QQQQ
 70
       0
 40
152.95098835
 10
11.06370405
 20
-25.42896455
 41
200.93021405
 11
0.0
 21
0.0
 31
1.0
 12
100.0
 22
100.0
 32
0.0
 42
50.0
 43
0.0
 44
0.0
 50
0.0
 71
       0
  0
ENDTAB
  0
TABLE
  2
UCS
  5
6
100
AcDbSymbolTable
 70
       0
  0
ENDTAB
  0
TABLE
  2
APPID
  5
8
100
AcDbSymbolTable
 70
       1
  0
APPID
  5
16
100
AcDbSymbolTableRecord
100
AcDbRegAppTableRecord
  2
ACAD
 70
       0
  0
ENDTAB
  0
TABLE
  2
DIMSTYLE
  5
9
100
AcDbSymbolTable
 70
       1
  0
DIMSTYLE
105
18
100
AcDbSymbolTableRecord
100
AcDbDimStyleTableRecord
  2
STANDARD
 70
       0
  3

  4

  5

  6

  7

 40
1.0
 41
0.18
 42
0.0625
 43
0.38
 44
0.18
 45
0.0
 46
0.0
 47
0.0
 48
0.0
 71
       0
 72
       0
 73
       1
 74
       1
 75
       0
 76
       0
 77
       0
 78
       0
140
0.18
141
0.09
142
0.0
143
25.4
144
1.0
145
0.0
146
1.0
147
0.09
170
       0
171
       2
172
       0
173
       0
174
       0
175
       0
176
       0
177
       0
178
       0
270
       2
271
       4
272
       4
273
       2
274
       2
275
       0
280
       0
281
       0
282
       0
283
       1
284
       0
285
       0
286
       0
287
       0
288
       0
340
17
  0
ENDTAB
  0
TABLE
  2
BLOCK_RECORD
  5
1
100
AcDbSymbolTable
 70
       0
  0
BLOCK_RECORD
  5
A
100
AcDbSymbolTableRecord
100
AcDbBlockTableRecord
  2
*MODEL_SPACE
  0
BLOCK_RECORD
  5
B
100
AcDbSymbolTableRecord
100
AcDbBlockTableRecord
  2
*PAPER_SPACE
  0
ENDTAB
  0
ENDSEC
  0
SECTION
  2
BLOCKS
  0
BLOCK
  5
D
100
AcDbEntity
  8
0
100
AcDbBlockBegin
  2
*MODEL_SPACE
 70
       0
 10
0.0
 20
0.0
 30
0.0
  3
*MODEL_SPACE
  1

  0
ENDBLK
  5
E
100
AcDbEntity
  8
0
100
AcDbBlockEnd
  0
BLOCK
  5
F
100
AcDbEntity
 67
       1
  8
0
100
AcDbBlockBegin
  2
*PAPER_SPACE
 70
       0
 10
0.0
 20
0.0
 30
0.0
  3
*PAPER_SPACE
  1

  0
ENDBLK
  5
10
100
AcDbEntity
 67
       1
  8
0
100
AcDbBlockEnd
  0
ENDSEC
  0
SECTION
  2
ENTITIES
  0
LINE
  5
3A
100
AcDbEntity
  8
レイヤー_1
  6
CONTINUOUS
 62
       3
100
AcDbLine
 10
73.94488355
 20
-17.5107744
 30
0.0
 11
69.90981546
 21
-17.5107744
 31
0.0
  0
LINE
  5
3B
100
AcDbEntity
  8
レイヤー_1
  6
CONTINUOUS
 62
       3
100
AcDbLine
 10
69.90981546
 20
-17.5107744
 30
0.0
 11
69.90981546
 21
17.48881191
 31
0.0
  0
LINE
  5
3C
100
AcDbEntity
  8
レイヤー_1
  6
CONTINUOUS
 62
       3
100
AcDbLine
 10
69.90981546
 20
17.48881191
 30
0.0
 11
73.94488355
 21
17.48881191
 31
0.0
  0
LINE
  5
3D
100
AcDbEntity
  8
レイヤー_1
  6
CONTINUOUS
 62
       3
100
AcDbLine
 10
73.94488355
 20
17.48881191
 30
0.0
 11
73.94488355
 21
39.48402404
 31
0.0
  0
LINE
  5
3E
100
AcDbEntity
  8
レイヤー_1
  6
CONTINUOUS
 62
       3
100
AcDbLine
 10
73.94488355
 20
39.48402404
 30
0.0
 11
42.94591436
 21
39.48402404
 31
0.0
  0
LINE
  5
3F
100
AcDbEntity
  8
レイヤー_1
  6
CONTINUOUS
 62
       3
100
AcDbLine
 10
42.94591436
 20
-39.5348392
 30
0.0
 11
73.94488355
 21
-39.5348392
 31
0.0
  0
LINE
  5
40
100
AcDbEntity
  8
レイヤー_1
  6
CONTINUOUS
 62
       3
100
AcDbLine
 10
73.94488355
 20
-39.5348392
 30
0.0
 11
73.94488355
 21
-17.5107744
 31
0.0
  0
LINE
  5
41
100
AcDbEntity
  8
レイヤー_1
  6
CONTINUOUS
 62
       3
100
AcDbLine
 10
71.45321824
 20
17.48881191
 30
0.0
 11
71.45321824
 21
15.48893398
 31
0.0
  0
LINE
  5
42
100
AcDbEntity
  8
レイヤー_1
  6
CONTINUOUS
 62
       3
100
AcDbLine
 10
71.45321824
 20
15.48893398
 30
0.0
 11
71.94586689
 21
15.48893398
 31
0.0
  0
LINE
  5
43
100
AcDbEntity
  8
レイヤー_1
  6
CONTINUOUS
 62
       3
100
AcDbLine
 10
71.94586689
 20
15.48893398
 30
0.0
 11
73.952635
 21
17.48881191
 31
0.0
  0
LINE
  5
44
100
AcDbEntity
  8
レイヤー_1
  6
CONTINUOUS
 62
       3
100
AcDbLine
 10
71.45321824
 20
-17.48881191
 30
0.0
 11
71.45321824
 21
-15.48764207
 31
0.0
  0
LINE
  5
45
100
AcDbEntity
  8
レイヤー_1
  6
CONTINUOUS
 62
       3
100
AcDbLine
 10
71.45321824
 20
-15.48764207
 30
0.0
 11
71.94586689
 21
-15.48764207
 31
0.0
  0
LINE
  5
46
100
AcDbEntity
  8
レイヤー_1
  6
CONTINUOUS
 62
       3
100
AcDbLine
 10
71.94586689
 20
-15.48764207
 30
0.0
 11
73.952635
 21
-17.48881191
 31
0.0
  0
LINE
  5
47
100
AcDbEntity
  8
レイヤー_1
  6
CONTINUOUS
 62
       3
100
AcDbLine
 10
23.94488355
 20
21.97992451
 30
0.0
 11
41.15015834
 21
21.97992451
 31
0.0
  0
LINE
  5
48
100
AcDbEntity
  8
レイヤー_1
  6
CONTINUOUS
 62
       3
100
AcDbLine
 10
41.15015834
 20
21.97992451
 30
0.0
 11
41.15015834
 21
-22.02643331
 31
0.0
  0
LINE
  5
49
100
AcDbEntity
  8
レイヤー_1
  6
CONTINUOUS
 62
       3
100
AcDbLine
 10
41.15015834
 20
-22.02643331
 30
0.0
 11
23.94488355
 21
-22.02643331
 31
0.0
  0
LINE
  5
4A
100
AcDbEntity
  8
レイヤー_1
  6
CONTINUOUS
 62
       3
100
AcDbLine
 10
42.94591436
 20
-40.0256229
 30
0.0
 11
42.94591436
 21
39.9743771
 31
0.0
  0
LINE
  5
4B
100
AcDbEntity
  8
レイヤー_1
  6
CONTINUOUS
 62
       3
100
AcDbLine
 10
-73.04356044
 20
23.99487473
 30
0.0
 11
-73.04356044
 21
-24.01597595
 31
0.0
  0
LINE
  5
4C
100
AcDbEntity
  8
レイヤー_1
  6
CONTINUOUS
 62
       3
100
AcDbLine
 10
-29.06820848
 20
23.99487473
 30
0.0
 11
-29.06820848
 21
-24.01597595
 31
0.0
  0
LINE
  5
4D
100
AcDbEntity
  8
レイヤー_1
  6
CONTINUOUS
 62
       3
100
AcDbLine
 10
-74.02196756
 20
-24.02415805
 30
0.0
 11
-28.02219136
 21
-24.02415805
 31
0.0
  0
LINE
  5
4E
100
AcDbEntity
  8
レイヤー_1
  6
CONTINUOUS
 62
       3
100
AcDbLine
 10
-28.02219136
 20
-24.02415805
 30
0.0
 11
-28.02219136
 21
-40.02791849
 31
0.0
  0
LINE
  5
4F
100
AcDbEntity
  8
レイヤー_1
  6
CONTINUOUS
 62
       3
100
AcDbLine
 10
-28.02219136
 20
-40.02791849
 30
0.0
 11
-74.02196756
 21
-40.02791849
 31
0.0
  0
LINE
  5
50
100
AcDbEntity
  8
レイヤー_1
  6
CONTINUOUS
 62
       3
100
AcDbLine
 10
-74.02196756
 20
-40.02791849
 30
0.0
 11
-74.02196756
 21
-24.02415805
 31
0.0
  0
LINE
  5
51
100
AcDbEntity
  8
レイヤー_1
  6
CONTINUOUS
 62
       3
100
AcDbLine
 10
-73.01901412
 20
-22.01265292
 30
0.0
 11
-76.03347267
 21
-22.01265292
 31
0.0
  0
LINE
  5
52
100
AcDbEntity
  8
レイヤー_1
  6
CONTINUOUS
 62
       3
100
AcDbLine
 10
-74.53313359
 20
-40.01629129
 30
0.0
 11
-74.53313359
 21
-22.01265292
 31
0.0
  0
LINE
  5
53
100
AcDbEntity
  8
レイヤー_1
  6
CONTINUOUS
 62
       3
100
AcDbLine
 10
-29.06648592
 20
-22.02298821
 30
0.0
 11
-26.05202737
 21
-22.02298821
 31
0.0
  0
LINE
  5
54
100
AcDbEntity
  8
レイヤー_1
  6
CONTINUOUS
 62
       3
100
AcDbLine
 10
-27.55193583
 20
-40.02791849
 30
0.0
 11
-27.55193583
 21
-22.02298821
 31
0.0
  0
LINE
  5
55
100
AcDbEntity
  8
レイヤー_1
  6
CONTINUOUS
 62
       3
100
AcDbLine
 10
-74.02196756
 20
23.98023308
 30
0.0
 11
-28.02219136
 21
23.98023308
 31
0.0
  0
LINE
  5
56
100
AcDbEntity
  8
レイヤー_1
  6
CONTINUOUS
 62
       3
100
AcDbLine
 10
-28.02219136
 20
23.98023308
 30
0.0
 11
-28.02219136
 21
39.98399352
 31
0.0
  0
LINE
  5
57
100
AcDbEntity
  8
レイヤー_1
  6
CONTINUOUS
 62
       3
100
AcDbLine
 10
-74.02196756
 20
39.98399352
 30
0.0
 11
-74.02196756
 21
23.98023308
 31
0.0
  0
LINE
  5
58
100
AcDbEntity
  8
レイヤー_1
  6
CONTINUOUS
 62
       3
100
AcDbLine
 10
-73.01901412
 20
21.96829732
 30
0.0
 11
-76.03347267
 21
21.96829732
 31
0.0
  0
LINE
  5
59
100
AcDbEntity
  8
レイヤー_1
  6
CONTINUOUS
 62
       3
100
AcDbLine
 10
-74.53313359
 20
39.97236632
 30
0.0
 11
-74.53313359
 21
21.96829732
 31
0.0
  0
LINE
  5
5A
100
AcDbEntity
  8
レイヤー_1
  6
CONTINUOUS
 62
       3
100
AcDbLine
 10
-29.06648592
 20
21.97992451
 30
0.0
 11
-26.05202737
 21
21.97992451
 31
0.0
  0
LINE
  5
5B
100
AcDbEntity
  8
レイヤー_1
  6
CONTINUOUS
 62
       3
100
AcDbLine
 10
-27.55193583
 20
39.98399352
 30
0.0
 11
-27.55193583
 21
21.97992451
 31
0.0
  0
LINE
  5
5C
100
AcDbEntity
  8
レイヤー_1
  6
CONTINUOUS
 62
       3
100
AcDbLine
 10
69.43783738
 20
-42.535948
 30
0.0
 11
73.93799334
 21
-42.535948
 31
0.0
  0
LINE
  5
5D
100
AcDbEntity
  8
レイヤー_1
  6
CONTINUOUS
 62
       3
100
AcDbLine
 10
73.93799334
 20
-42.535948
 30
0.0
 11
73.93799334
 21
-39.53570047
 31
0.0
  0
LINE
  5
5E
100
AcDbEntity
  8
レイヤー_1
  6
CONTINUOUS
 62
       3
100
AcDbLine
 10
69.43783738
 20
-39.53570047
 30
0.0
 11
69.43783738
 21
-42.535948
 31
0.0
  0
LINE
  5
5F
100
AcDbEntity
  8
レイヤー_1
  6
CONTINUOUS
 62
       3
100
AcDbLine
 10
-32.02711485
 20
-30.23308139
 30
0.0
 11
-31.78545125
 21
-30.24509176
 31
0.0
  0
LINE
  5
60
100
AcDbEntity
  8
レイヤー_1
  6
CONTINUOUS
 62
       3
100
AcDbLine
 10
-31.78545125
 20
-30.24509176
 30
0.0
 11
-31.55064355
 21
-30.28035734
 31
0.0
  0
LINE
  5
61
100
AcDbEntity
  8
レイヤー_1
  6
CONTINUOUS
 62
       3
100
AcDbLine
 10
-31.55064355
 20
-30.28035734
 30
0.0
 11
-31.32384303
 21
-30.33772985
 31
0.0
  0
LINE
  5
62
100
AcDbEntity
  8
レイヤー_1
  6
CONTINUOUS
 62
       3
100
AcDbLine
 10
-31.32384303
 20
-30.33772985
 30
0.0
 11
-31.10620103
 21
-30.41606097
 31
0.0
  0
LINE
  5
63
100
AcDbEntity
  8
レイヤー_1
  6
CONTINUOUS
 62
       3
100
AcDbLine
 10
-31.10620103
 20
-30.41606097
 30
0.0
 11
-30.89886882
 21
-30.51420243
 31
0.0
  0
LINE
  5
64
100
AcDbEntity
  8
レイヤー_1
  6
CONTINUOUS
 62
       3
100
AcDbLine
 10
-30.89886882
 20
-30.51420243
 30
0.0
 11
-30.70299773
 21
-30.63100593
 31
0.0
  0
LINE
  5
65
100
AcDbEntity
  8
レイヤー_1
  6
CONTINUOUS
 62
       3
100
AcDbLine
 10
-30.70299773
 20
-30.63100593
 30
0.0
 11
-30.51973906
 21
-30.76532317
 31
0.0
  0
LINE
  5
66
100
AcDbEntity
  8
レイヤー_1
  6
CONTINUOUS
 62
       3
100
AcDbLine
 10
-30.51973906
 20
-30.76532317
 30
0.0
 11
-30.35024413
 21
-30.91600586
 31
0.0
  0
LINE
  5
67
100
AcDbEntity
  8
レイヤー_1
  6
CONTINUOUS
 62
       3
100
AcDbLine
 10
-30.35024413
 20
-30.91600586
 30
0.0
 11
-30.19566421
 21
-31.0819057
 31
0.0
  0
LINE
  5
68
100
AcDbEntity
  8
レイヤー_1
  6
CONTINUOUS
 62
       3
100
AcDbLine
 10
-30.19566421
 20
-31.0819057
 30
0.0
 11
-30.05715061
 21
-31.2618744
 31
0.0
  0
LINE
  5
69
100
AcDbEntity
  8
レイヤー_1
  6
CONTINUOUS
 62
       3
100
AcDbLine
 10
-30.05715061
 20
-31.2618744
 30
0.0
 11
-29.93585466
 21
-31.45476367
 31
0.0
  0
LINE
  5
6A
100
AcDbEntity
  8
レイヤー_1
  6
CONTINUOUS
 62
       3
100
AcDbLine
 10
-29.93585466
 20
-31.45476367
 30
0.0
 11
-29.83292766
 21
-31.65942521
 31
0.0
  0
LINE
  5
6B
100
AcDbEntity
  8
レイヤー_1
  6
CONTINUOUS
 62
       3
100
AcDbLine
 10
-29.83292766
 20
-31.65942521
 30
0.0
 11
-29.7495209
 21
-31.87471073
 31
0.0
  0
LINE
  5
6C
100
AcDbEntity
  8
レイヤー_1
  6
CONTINUOUS
 62
       3
100
AcDbLine
 10
-29.7495209
 20
-31.87471073
 30
0.0
 11
-29.68678569
 21
-32.09947193
 31
0.0
  0
LINE
  5
6D
100
AcDbEntity
  8
レイヤー_1
  6
CONTINUOUS
 62
       3
100
AcDbLine
 10
-29.68678569
 20
-32.09947193
 30
0.0
 11
-29.64587332
 21
-32.33256052
 31
0.0
  0
LINE
  5
6E
100
AcDbEntity
  8
レイヤー_1
  6
CONTINUOUS
 62
       3
100
AcDbLine
 10
-29.64587332
 20
-32.33256052
 30
0.0
 11
-29.62793514
 21
-32.57282821
 31
0.0
  0
LINE
  5
6F
100
AcDbEntity
  8
レイヤー_1
  6
CONTINUOUS
 62
       3
100
AcDbLine
 10
-29.62793514
 20
-32.57282821
 30
0.0
 11
-29.63396051
 21
-32.81573044
 31
0.0
  0
LINE
  5
70
100
AcDbEntity
  8
レイヤー_1
  6
CONTINUOUS
 62
       3
100
AcDbLine
 10
-29.63396051
 20
-32.81573044
 30
0.0
 11
-29.66352969
 21
-33.0523713
 31
0.0
  0
LINE
  5
71
100
AcDbEntity
  8
レイヤー_1
  6
CONTINUOUS
 62
       3
100
AcDbLine
 10
-29.66352969
 20
-33.0523713
 30
0.0
 11
-29.71549739
 21
-33.28130046
 31
0.0
  0
LINE
  5
72
100
AcDbEntity
  8
レイヤー_1
  6
CONTINUOUS
 62
       3
100
AcDbLine
 10
-29.71549739
 20
-33.28130046
 30
0.0
 11
-29.78871229
 21
-33.50136542
 31
0.0
  0
LINE
  5
73
100
AcDbEntity
  8
レイヤー_1
  6
CONTINUOUS
 62
       3
100
AcDbLine
 10
-29.78871229
 20
-33.50136542
 30
0.0
 11
-29.88202309
 21
-33.71141367
 31
0.0
  0
LINE
  5
74
100
AcDbEntity
  8
レイヤー_1
  6
CONTINUOUS
 62
       3
100
AcDbLine
 10
-29.88202309
 20
-33.71141367
 30
0.0
 11
-29.99427848
 21
-33.91029269
 31
0.0
  0
LINE
  5
75
100
AcDbEntity
  8
レイヤー_1
  6
CONTINUOUS
 62
       3
100
AcDbLine
 10
-29.99427848
 20
-33.91029269
 30
0.0
 11
-30.12432716
 21
-34.09684999
 31
0.0
  0
LINE
  5
76
100
AcDbEntity
  8
レイヤー_1
  6
CONTINUOUS
 62
       3
100
AcDbLine
 10
-30.12432716
 20
-34.09684999
 30
0.0
 11
-30.27101783
 21
-34.26993304
 31
0.0
  0
LINE
  5
77
100
AcDbEntity
  8
レイヤー_1
  6
CONTINUOUS
 62
       3
100
AcDbLine
 10
-30.27101783
 20
-34.26993304
 30
0.0
 11
-30.43319917
 21
-34.42838934
 31
0.0
  0
LINE
  5
78
100
AcDbEntity
  8
レイヤー_1
  6
CONTINUOUS
 62
       3
100
AcDbLine
 10
-30.43319917
 20
-34.42838934
 30
0.0
 11
-30.60971989
 21
-34.57106639
 31
0.0
  0
LINE
  5
79
100
AcDbEntity
  8
レイヤー_1
  6
CONTINUOUS
 62
       3
100
AcDbLine
 10
-30.60971989
 20
-34.57106639
 30
0.0
 11
-30.79942868
 21
-34.69681166
 31
0.0
  0
LINE
  5
7A
100
AcDbEntity
  8
レイヤー_1
  6
CONTINUOUS
 62
       3
100
AcDbLine
 10
-30.79942868
 20
-34.69681166
 30
0.0
 11
-31.00117425
 21
-34.80447266
 31
0.0
  0
LINE
  5
7B
100
AcDbEntity
  8
レイヤー_1
  6
CONTINUOUS
 62
       3
100
AcDbLine
 10
-31.00117425
 20
-34.80447266
 30
0.0
 11
-31.21380527
 21
-34.89289688
 31
0.0
  0
LINE
  5
7C
100
AcDbEntity
  8
レイヤー_1
  6
CONTINUOUS
 62
       3
100
AcDbLine
 10
-31.21380527
 20
-34.89289688
 30
0.0
 11
-31.43617043
 21
-34.96093179
 31
0.0
  0
LINE
  5
7D
100
AcDbEntity
  8
レイヤー_1
  6
CONTINUOUS
 62
       3
100
AcDbLine
 10
-31.43617043
 20
-34.96093179
 30
0.0
 11
-31.66711845
 21
-35.00742491
 31
0.0
  0
LINE
  5
7E
100
AcDbEntity
  8
レイヤー_1
  6
CONTINUOUS
 62
       3
100
AcDbLine
 10
-31.66711845
 20
-35.00742491
 30
0.0
 11
-31.90549803
 21
-35.03122371
 31
0.0
  0
LINE
  5
7F
100
AcDbEntity
  8
レイヤー_1
  6
CONTINUOUS
 62
       3
100
AcDbLine
 10
-31.90549803
 20
-35.03122371
 30
0.0
 11
-32.14873169
 21
-35.03122371
 31
0.0
  0
LINE
  5
80
100
AcDbEntity
  8
レイヤー_1
  6
CONTINUOUS
 62
       3
100
AcDbLine
 10
-32.14873169
 20
-35.03122371
 30
0.0
 11
-32.38711127
 21
-35.00742491
 31
0.0
  0
LINE
  5
81
100
AcDbEntity
  8
レイヤー_1
  6
CONTINUOUS
 62
       3
100
AcDbLine
 10
-32.38711127
 20
-35.00742491
 30
0.0
 11
-32.61805929
 21
-34.96093179
 31
0.0
  0
LINE
  5
82
100
AcDbEntity
  8
レイヤー_1
  6
CONTINUOUS
 62
       3
100
AcDbLine
 10
-32.61805929
 20
-34.96093179
 30
0.0
 11
-32.84042446
 21
-34.89289688
 31
0.0
  0
LINE
  5
83
100
AcDbEntity
  8
レイヤー_1
  6
CONTINUOUS
 62
       3
100
AcDbLine
 10
-32.84042446
 20
-34.89289688
 30
0.0
 11
-33.05305547
 21
-34.80447266
 31
0.0
  0
LINE
  5
84
100
AcDbEntity
  8
レイヤー_1
  6
CONTINUOUS
 62
       3
100
AcDbLine
 10
-33.05305547
 20
-34.80447266
 30
0.0
 11
-33.25480104
 21
-34.69681166
 31
0.0
  0
LINE
  5
85
100
AcDbEntity
  8
レイヤー_1
  6
CONTINUOUS
 62
       3
100
AcDbLine
 10
-33.25480104
 20
-34.69681166
 30
0.0
 11
-33.44450982
 21
-34.57106639
 31
0.0
  0
LINE
  5
86
100
AcDbEntity
  8
レイヤー_1
  6
CONTINUOUS
 62
       3
100
AcDbLine
 10
-33.44450982
 20
-34.57106639
 30
0.0
 11
-33.62103054
 21
-34.42838934
 31
0.0
  0
LINE
  5
87
100
AcDbEntity
  8
レイヤー_1
  6
CONTINUOUS
 62
       3
100
AcDbLine
 10
-33.62103054
 20
-34.42838934
 30
0.0
 11
-33.78321189
 21
-34.26993304
 31
0.0
  0
LINE
  5
88
100
AcDbEntity
  8
レイヤー_1
  6
CONTINUOUS
 62
       3
100
AcDbLine
 10
-33.78321189
 20
-34.26993304
 30
0.0
 11
-33.92990255
 21
-34.09684999
 31
0.0
  0
LINE
  5
89
100
AcDbEntity
  8
レイヤー_1
  6
CONTINUOUS
 62
       3
100
AcDbLine
 10
-33.92990255
 20
-34.09684999
 30
0.0
 11
-34.05995124
 21
-33.91029269
 31
0.0
  0
LINE
  5
8A
100
AcDbEntity
  8
レイヤー_1
  6
CONTINUOUS
 62
       3
100
AcDbLine
 10
-34.05995124
 20
-33.91029269
 30
0.0
 11
-34.17220663
 21
-33.71141367
 31
0.0
  0
LINE
  5
8B
100
AcDbEntity
  8
レイヤー_1
  6
CONTINUOUS
 62
       3
100
AcDbLine
 10
-34.17220663
 20
-33.71141367
 30
0.0
 11
-34.26551743
 21
-33.50136542
 31
0.0
  0
LINE
  5
8C
100
AcDbEntity
  8
レイヤー_1
  6
CONTINUOUS
 62
       3
100
AcDbLine
 10
-34.26551743
 20
-33.50136542
 30
0.0
 11
-34.33873234
 21
-33.28130046
 31
0.0
  0
LINE
  5
8D
100
AcDbEntity
  8
レイヤー_1
  6
CONTINUOUS
 62
       3
100
AcDbLine
 10
-34.33873234
 20
-33.28130046
 30
0.0
 11
-34.39070003
 21
-33.0523713
 31
0.0
  0
LINE
  5
8E
100
AcDbEntity
  8
レイヤー_1
  6
CONTINUOUS
 62
       3
100
AcDbLine
 10
-34.39070003
 20
-33.0523713
 30
0.0
 11
-34.42026922
 21
-32.81573044
 31
0.0
  0
LINE
  5
8F
100
AcDbEntity
  8
レイヤー_1
  6
CONTINUOUS
 62
       3
100
AcDbLine
 10
-34.42026922
 20
-32.81573044
 30
0.0
 11
-34.42629458
 21
-32.57282821
 31
0.0
  0
LINE
  5
90
100
AcDbEntity
  8
レイヤー_1
  6
CONTINUOUS
 62
       3
100
AcDbLine
 10
-34.42629458
 20
-32.57282821
 30
0.0
 11
-34.40835639
 21
-32.33256052
 31
0.0
  0
LINE
  5
91
100
AcDbEntity
  8
レイヤー_1
  6
CONTINUOUS
 62
       3
100
AcDbLine
 10
-34.40835639
 20
-32.33256052
 30
0.0
 11
-34.36744404
 21
-32.09947193
 31
0.0
  0
LINE
  5
92
100
AcDbEntity
  8
レイヤー_1
  6
CONTINUOUS
 62
       3
100
AcDbLine
 10
-34.36744404
 20
-32.09947193
 30
0.0
 11
-34.30470883
 21
-31.87471073
 31
0.0
  0
LINE
  5
93
100
AcDbEntity
  8
レイヤー_1
  6
CONTINUOUS
 62
       3
100
AcDbLine
 10
-34.30470883
 20
-31.87471073
 30
0.0
 11
-34.22130207
 21
-31.65942521
 31
0.0
  0
LINE
  5
94
100
AcDbEntity
  8
レイヤー_1
  6
CONTINUOUS
 62
       3
100
AcDbLine
 10
-34.22130207
 20
-31.65942521
 30
0.0
 11
-34.11837506
 21
-31.45476367
 31
0.0
  0
LINE
  5
95
100
AcDbEntity
  8
レイヤー_1
  6
CONTINUOUS
 62
       3
100
AcDbLine
 10
-34.11837506
 20
-31.45476367
 30
0.0
 11
-33.9970791
 21
-31.2618744
 31
0.0
  0
LINE
  5
96
100
AcDbEntity
  8
レイヤー_1
  6
CONTINUOUS
 62
       3
100
AcDbLine
 10
-33.9970791
 20
-31.2618744
 30
0.0
 11
-33.85856551
 21
-31.0819057
 31
0.0
  0
LINE
  5
97
100
AcDbEntity
  8
レイヤー_1
  6
CONTINUOUS
 62
       3
100
AcDbLine
 10
-33.85856551
 20
-31.0819057
 30
0.0
 11
-33.7039856
 21
-30.91600586
 31
0.0
  0
LINE
  5
98
100
AcDbEntity
  8
レイヤー_1
  6
CONTINUOUS
 62
       3
100
AcDbLine
 10
-33.7039856
 20
-30.91600586
 30
0.0
 11
-33.53449065
 21
-30.76532317
 31
0.0
  0
LINE
  5
99
100
AcDbEntity
  8
レイヤー_1
  6
CONTINUOUS
 62
       3
100
AcDbLine
 10
-33.53449065
 20
-30.76532317
 30
0.0
 11
-33.35123198
 21
-30.63100593
 31
0.0
  0
LINE
  5
9A
100
AcDbEntity
  8
レイヤー_1
  6
CONTINUOUS
 62
       3
100
AcDbLine
 10
-33.35123198
 20
-30.63100593
 30
0.0
 11
-33.1553609
 21
-30.51420243
 31
0.0
  0
LINE
  5
9B
100
AcDbEntity
  8
レイヤー_1
  6
CONTINUOUS
 62
       3
100
AcDbLine
 10
-33.1553609
 20
-30.51420243
 30
0.0
 11
-32.9480287
 21
-30.41606097
 31
0.0
  0
LINE
  5
9C
100
AcDbEntity
  8
レイヤー_1
  6
CONTINUOUS
 62
       3
100
AcDbLine
 10
-32.9480287
 20
-30.41606097
 30
0.0
 11
-32.73038668
 21
-30.33772985
 31
0.0
  0
LINE
  5
9D
100
AcDbEntity
  8
レイヤー_1
  6
CONTINUOUS
 62
       3
100
AcDbLine
 10
-32.73038668
 20
-30.33772985
 30
0.0
 11
-32.50358617
 21
-30.28035734
 31
0.0
  0
LINE
  5
9E
100
AcDbEntity
  8
レイヤー_1
  6
CONTINUOUS
 62
       3
100
AcDbLine
 10
-32.50358617
 20
-30.28035734
 30
0.0
 11
-32.26877846
 21
-30.24509176
 31
0.0
  0
LINE
  5
9F
100
AcDbEntity
  8
レイヤー_1
  6
CONTINUOUS
 62
       3
100
AcDbLine
 10
-32.26877846
 20
-30.24509176
 30
0.0
 11
-32.02711485
 21
-30.23308139
 31
0.0
  0
LINE
  5
A0
100
AcDbEntity
  8
レイヤー_1
  6
CONTINUOUS
 62
       3
100
AcDbLine
 10
-60.52623662
 20
-30.23308139
 30
0.0
 11
-60.28471305
 21
-30.24509176
 31
0.0
  0
LINE
  5
A1
100
AcDbEntity
  8
レイヤー_1
  6
CONTINUOUS
 62
       3
100
AcDbLine
 10
-60.28471305
 20
-30.24509176
 30
0.0
 11
-60.05000985
 21
-30.28035734
 31
0.0
  0
LINE
  5
A2
100
AcDbEntity
  8
レイヤー_1
  6
CONTINUOUS
 62
       3
100
AcDbLine
 10
-60.05000985
 20
-30.28035734
 30
0.0
 11
-59.82328195
 21
-30.33772985
 31
0.0
  0
LINE
  5
A3
100
AcDbEntity
  8
レイヤー_1
  6
CONTINUOUS
 62
       3
100
AcDbLine
 10
-59.82328195
 20
-30.33772985
 30
0.0
 11
-59.60568423
 21
-30.41606097
 31
0.0
  0
LINE
  5
A4
100
AcDbEntity
  8
レイヤー_1
  6
CONTINUOUS
 62
       3
100
AcDbLine
 10
-59.60568423
 20
-30.41606097
 30
0.0
 11
-59.39837164
 21
-30.51420243
 31
0.0
  0
LINE
  5
A5
100
AcDbEntity
  8
レイヤー_1
  6
CONTINUOUS
 62
       3
100
AcDbLine
 10
-59.39837164
 20
-30.51420243
 30
0.0
 11
-59.20249908
 21
-30.63100593
 31
0.0
  0
LINE
  5
A6
100
AcDbEntity
  8
レイヤー_1
  6
CONTINUOUS
 62
       3
100
AcDbLine
 10
-59.20249908
 20
-30.63100593
 30
0.0
 11
-59.01922149
 21
-30.76532317
 31
0.0
  0
LINE
  5
A7
100
AcDbEntity
  8
レイヤー_1
  6
CONTINUOUS
 62
       3
100
AcDbLine
 10
-59.01922149
 20
-30.76532317
 30
0.0
 11
-58.84969376
 21
-30.91600586
 31
0.0
  0
LINE
  5
A8
100
AcDbEntity
  8
レイヤー_1
  6
CONTINUOUS
 62
       3
100
AcDbLine
 10
-58.84969376
 20
-30.91600586
 30
0.0
 11
-58.69507081
 21
-31.0819057
 31
0.0
  0
LINE
  5
A9
100
AcDbEntity
  8
レイヤー_1
  6
CONTINUOUS
 62
       3
100
AcDbLine
 10
-58.69507081
 20
-31.0819057
 30
0.0
 11
-58.55650759
 21
-31.2618744
 31
0.0
  0
LINE
  5
AA
100
AcDbEntity
  8
レイヤー_1
  6
CONTINUOUS
 62
       3
100
AcDbLine
 10
-58.55650759
 20
-31.2618744
 30
0.0
 11
-58.43515899
 21
-31.45476367
 31
0.0
  0
LINE
  5
AB
100
AcDbEntity
  8
レイヤー_1
  6
CONTINUOUS
 62
       3
100
AcDbLine
 10
-58.43515899
 20
-31.45476367
 30
0.0
 11
-58.33217993
 21
-31.65942521
 31
0.0
  0
LINE
  5
AC
100
AcDbEntity
  8
レイヤー_1
  6
CONTINUOUS
 62
       3
100
AcDbLine
 10
-58.33217993
 20
-31.65942521
 30
0.0
 11
-58.24872534
 21
-31.87471073
 31
0.0
  0
LINE
  5
AD
100
AcDbEntity
  8
レイヤー_1
  6
CONTINUOUS
 62
       3
100
AcDbLine
 10
-58.24872534
 20
-31.87471073
 30
0.0
 11
-58.18595013
 21
-32.09947193
 31
0.0
  0
LINE
  5
AE
100
AcDbEntity
  8
レイヤー_1
  6
CONTINUOUS
 62
       3
100
AcDbLine
 10
-58.18595013
 20
-32.09947193
 30
0.0
 11
-58.1450092
 21
-32.33256052
 31
0.0
  0
LINE
  5
AF
100
AcDbEntity
  8
レイヤー_1
  6
CONTINUOUS
 62
       3
100
AcDbLine
 10
-58.1450092
 20
-32.33256052
 30
0.0
 11
-58.1270575
 21
-32.57282821
 31
0.0
  0
LINE
  5
B0
100
AcDbEntity
  8
レイヤー_1
  6
CONTINUOUS
 62
       3
100
AcDbLine
 10
-58.1270575
 20
-32.57282821
 30
0.0
 11
-58.13308752
 21
-32.81573044
 31
0.0
  0
LINE
  5
B1
100
AcDbEntity
  8
レイヤー_1
  6
CONTINUOUS
 62
       3
100
AcDbLine
 10
-58.13308752
 20
-32.81573044
 30
0.0
 11
-58.16267819
 21
-33.0523713
 31
0.0
  0
LINE
  5
B2
100
AcDbEntity
  8
レイヤー_1
  6
CONTINUOUS
 62
       3
100
AcDbLine
 10
-58.16267819
 20
-33.0523713
 30
0.0
 11
-58.21468063
 21
-33.28130046
 31
0.0
  0
LINE
  5
B3
100
AcDbEntity
  8
レイヤー_1
  6
CONTINUOUS
 62
       3
100
AcDbLine
 10
-58.21468063
 20
-33.28130046
 30
0.0
 11
-58.28793989
 21
-33.50136542
 31
0.0
  0
LINE
  5
B4
100
AcDbEntity
  8
レイヤー_1
  6
CONTINUOUS
 62
       3
100
AcDbLine
 10
-58.28793989
 20
-33.50136542
 30
0.0
 11
-58.38130109
 21
-33.71141367
 31
0.0
  0
LINE
  5
B5
100
AcDbEntity
  8
レイヤー_1
  6
CONTINUOUS
 62
       3
100
AcDbLine
 10
-58.38130109
 20
-33.71141367
 30
0.0
 11
-58.49360929
 21
-33.91029269
 31
0.0
  0
LINE
  5
B6
100
AcDbEntity
  8
レイヤー_1
  6
CONTINUOUS
 62
       3
100
AcDbLine
 10
-58.49360929
 20
-33.91029269
 30
0.0
 11
-58.62370956
 21
-34.09684999
 31
0.0
  0
LINE
  5
B7
100
AcDbEntity
  8
レイヤー_1
  6
CONTINUOUS
 62
       3
100
AcDbLine
 10
-58.62370956
 20
-34.09684999
 30
0.0
 11
-58.770447
 21
-34.26993304
 31
0.0
  0
LINE
  5
B8
100
AcDbEntity
  8
レイヤー_1
  6
CONTINUOUS
 62
       3
100
AcDbLine
 10
-58.770447
 20
-34.26993304
 30
0.0
 11
-58.93266671
 21
-34.42838934
 31
0.0
  0
LINE
  5
B9
100
AcDbEntity
  8
レイヤー_1
  6
CONTINUOUS
 62
       3
100
AcDbLine
 10
-58.93266671
 20
-34.42838934
 30
0.0
 11
-59.10921373
 21
-34.57106639
 31
0.0
  0
LINE
  5
BA
100
AcDbEntity
  8
レイヤー_1
  6
CONTINUOUS
 62
       3
100
AcDbLine
 10
-59.10921373
 20
-34.57106639
 30
0.0
 11
-59.29893318
 21
-34.69681166
 31
0.0
  0
LINE
  5
BB
100
AcDbEntity
  8
レイヤー_1
  6
CONTINUOUS
 62
       3
100
AcDbLine
 10
-59.29893318
 20
-34.69681166
 30
0.0
 11
-59.50067012
 21
-34.80447266
 31
0.0
  0
LINE
  5
BC
100
AcDbEntity
  8
レイヤー_1
  6
CONTINUOUS
 62
       3
100
AcDbLine
 10
-59.50067012
 20
-34.80447266
 30
0.0
 11
-59.71326962
 21
-34.89289688
 31
0.0
  0
LINE
  5
BD
100
AcDbEntity
  8
レイヤー_1
  6
CONTINUOUS
 62
       3
100
AcDbLine
 10
-59.71326962
 20
-34.89289688
 30
0.0
 11
-59.9355768
 21
-34.96093179
 31
0.0
  0
LINE
  5
BE
100
AcDbEntity
  8
レイヤー_1
  6
CONTINUOUS
 62
       3
100
AcDbLine
 10
-59.9355768
 20
-34.96093179
 30
0.0
 11
-60.16643672
 21
-35.00742491
 31
0.0
  0
LINE
  5
BF
100
AcDbEntity
  8
レイヤー_1
  6
CONTINUOUS
 62
       3
100
AcDbLine
 10
-60.16643672
 20
-35.00742491
 30
0.0
 11
-60.40469447
 21
-35.03122371
 31
0.0
  0
LINE
  5
C0
100
AcDbEntity
  8
レイヤー_1
  6
CONTINUOUS
 62
       3
100
AcDbLine
 10
-60.40469447
 20
-35.03122371
 30
0.0
 11
-60.64785586
 21
-35.03122371
 31
0.0
  0
LINE
  5
C1
100
AcDbEntity
  8
レイヤー_1
  6
CONTINUOUS
 62
       3
100
AcDbLine
 10
-60.64785586
 20
-35.03122371
 30
0.0
 11
-60.88625369
 21
-35.00742491
 31
0.0
  0
LINE
  5
C2
100
AcDbEntity
  8
レイヤー_1
  6
CONTINUOUS
 62
       3
100
AcDbLine
 10
-60.88625369
 20
-35.00742491
 30
0.0
 11
-61.11723593
 21
-34.96093179
 31
0.0
  0
LINE
  5
C3
100
AcDbEntity
  8
レイヤー_1
  6
CONTINUOUS
 62
       3
100
AcDbLine
 10
-61.11723593
 20
-34.96093179
 30
0.0
 11
-61.33964887
 21
-34.89289688
 31
0.0
  0
LINE
  5
C4
100
AcDbEntity
  8
レイヤー_1
  6
CONTINUOUS
 62
       3
100
AcDbLine
 10
-61.33964887
 20
-34.89289688
 30
0.0
 11
-61.55233881
 21
-34.80447266
 31
0.0
  0
LINE
  5
C5
100
AcDbEntity
  8
レイヤー_1
  6
CONTINUOUS
 62
       3
100
AcDbLine
 10
-61.55233881
 20
-34.80447266
 30
0.0
 11
-61.754152
 21
-34.69681166
 31
0.0
  0
LINE
  5
C6
100
AcDbEntity
  8
レイヤー_1
  6
CONTINUOUS
 62
       3
100
AcDbLine
 10
-61.754152
 20
-34.69681166
 30
0.0
 11
-61.94393476
 21
-34.57106639
 31
0.0
  0
LINE
  5
C7
100
AcDbEntity
  8
レイヤー_1
  6
CONTINUOUS
 62
       3
100
AcDbLine
 10
-61.94393476
 20
-34.57106639
 30
0.0
 11
-62.12053335
 21
-34.42838934
 31
0.0
  0
LINE
  5
C8
100
AcDbEntity
  8
レイヤー_1
  6
CONTINUOUS
 62
       3
100
AcDbLine
 10
-62.12053335
 20
-34.42838934
 30
0.0
 11
-62.28279409
 21
-34.26993304
 31
0.0
  0
LINE
  5
C9
100
AcDbEntity
  8
レイヤー_1
  6
CONTINUOUS
 62
       3
100
AcDbLine
 10
-62.28279409
 20
-34.26993304
 30
0.0
 11
-62.42956324
 21
-34.09684999
 31
0.0
  0
LINE
  5
CA
100
AcDbEntity
  8
レイヤー_1
  6
CONTINUOUS
 62
       3
100
AcDbLine
 10
-62.42956324
 20
-34.09684999
 30
0.0
 11
-62.55968708
 21
-33.91029269
 31
0.0
  0
LINE
  5
CB
100
AcDbEntity
  8
レイヤー_1
  6
CONTINUOUS
 62
       3
100
AcDbLine
 10
-62.55968708
 20
-33.91029269
 30
0.0
 11
-62.67201192
 21
-33.71141367
 31
0.0
  0
LINE
  5
CC
100
AcDbEntity
  8
レイヤー_1
  6
CONTINUOUS
 62
       3
100
AcDbLine
 10
-62.67201192
 20
-33.71141367
 30
0.0
 11
-62.76538403
 21
-33.50136542
 31
0.0
  0
LINE
  5
CD
100
AcDbEntity
  8
レイヤー_1
  6
CONTINUOUS
 62
       3
100
AcDbLine
 10
-62.76538403
 20
-33.50136542
 30
0.0
 11
-62.83864972
 21
-33.28130046
 31
0.0
  0
LINE
  5
CE
100
AcDbEntity
  8
レイヤー_1
  6
CONTINUOUS
 62
       3
100
AcDbLine
 10
-62.83864972
 20
-33.28130046
 30
0.0
 11
-62.89065525
 21
-33.0523713
 31
0.0
  0
LINE
  5
CF
100
AcDbEntity
  8
レイヤー_1
  6
CONTINUOUS
 62
       3
100
AcDbLine
 10
-62.89065525
 20
-33.0523713
 30
0.0
 11
-62.92024691
 21
-32.81573044
 31
0.0
  0
LINE
  5
D0
100
AcDbEntity
  8
レイヤー_1
  6
CONTINUOUS
 62
       3
100
AcDbLine
 10
-62.92024691
 20
-32.81573044
 30
0.0
 11
-62.92627701
 21
-32.57282821
 31
0.0
  0
LINE
  5
D1
100
AcDbEntity
  8
レイヤー_1
  6
CONTINUOUS
 62
       3
100
AcDbLine
 10
-62.92627701
 20
-32.57282821
 30
0.0
 11
-62.90832493
 21
-32.33256052
 31
0.0
  0
LINE
  5
D2
100
AcDbEntity
  8
レイヤー_1
  6
CONTINUOUS
 62
       3
100
AcDbLine
 10
-62.90832493
 20
-32.33256052
 30
0.0
 11
-62.86738211
 21
-32.09947193
 31
0.0
  0
LINE
  5
D3
100
AcDbEntity
  8
レイヤー_1
  6
CONTINUOUS
 62
       3
100
AcDbLine
 10
-62.86738211
 20
-32.09947193
 30
0.0
 11
-62.80460229
 21
-31.87471073
 31
0.0
  0
LINE
  5
D4
100
AcDbEntity
  8
レイヤー_1
  6
CONTINUOUS
 62
       3
100
AcDbLine
 10
-62.80460229
 20
-31.87471073
 30
0.0
 11
-62.72113918
 21
-31.65942521
 31
0.0
  0
LINE
  5
D5
100
AcDbEntity
  8
レイヤー_1
  6
CONTINUOUS
 62
       3
100
AcDbLine
 10
-62.72113918
 20
-31.65942521
 30
0.0
 11
-62.61814648
 21
-31.45476367
 31
0.0
  0
LINE
  5
D6
100
AcDbEntity
  8
レイヤー_1
  6
CONTINUOUS
 62
       3
100
AcDbLine
 10
-62.61814648
 20
-31.45476367
 30
0.0
 11
-62.49677793
 21
-31.2618744
 31
0.0
  0
LINE
  5
D7
100
AcDbEntity
  8
レイヤー_1
  6
CONTINUOUS
 62
       3
100
AcDbLine
 10
-62.49677793
 20
-31.2618744
 30
0.0
 11
-62.35818722
 21
-31.0819057
 31
0.0
  0
LINE
  5
D8
100
AcDbEntity
  8
レイヤー_1
  6
CONTINUOUS
 62
       3
100
AcDbLine
 10
-62.35818722
 20
-31.0819057
 30
0.0
 11
-62.20352807
 21
-30.91600586
 31
0.0
  0
LINE
  5
D9
100
AcDbEntity
  8
レイヤー_1
  6
CONTINUOUS
 62
       3
100
AcDbLine
 10
-62.20352807
 20
-30.91600586
 30
0.0
 11
-62.03395418
 21
-30.76532317
 31
0.0
  0
LINE
  5
DA
100
AcDbEntity
  8
レイヤー_1
  6
CONTINUOUS
 62
       3
100
AcDbLine
 10
-62.03395418
 20
-30.76532317
 30
0.0
 11
-61.8506193
 21
-30.63100593
 31
0.0
  0
LINE
  5
DB
100
AcDbEntity
  8
レイヤー_1
  6
CONTINUOUS
 62
       3
100
AcDbLine
 10
-61.8506193
 20
-30.63100593
 30
0.0
 11
-61.65467711
 21
-30.51420243
 31
0.0
  0
LINE
  5
DC
100
AcDbEntity
  8
レイヤー_1
  6
CONTINUOUS
 62
       3
100
AcDbLine
 10
-61.65467711
 20
-30.51420243
 30
0.0
 11
-61.44728133
 21
-30.41606097
 31
0.0
  0
LINE
  5
DD
100
AcDbEntity
  8
レイヤー_1
  6
CONTINUOUS
 62
       3
100
AcDbLine
 10
-61.44728133
 20
-30.41606097
 30
0.0
 11
-61.22958567
 21
-30.33772985
 31
0.0
  0
LINE
  5
DE
100
AcDbEntity
  8
レイヤー_1
  6
CONTINUOUS
 62
       3
100
AcDbLine
 10
-61.22958567
 20
-30.33772985
 30
0.0
 11
-61.00274386
 21
-30.28035734
 31
0.0
  0
LINE
  5
DF
100
AcDbEntity
  8
レイヤー_1
  6
CONTINUOUS
 62
       3
100
AcDbLine
 10
-61.00274386
 20
-30.28035734
 30
0.0
 11
-60.76790961
 21
-30.24509176
 31
0.0
  0
LINE
  5
E0
100
AcDbEntity
  8
レイヤー_1
  6
CONTINUOUS
 62
       3
100
AcDbLine
 10
-60.76790961
 20
-30.24509176
 30
0.0
 11
-60.52623662
 21
-30.23308139
 31
0.0
  0
LINE
  5
E1
100
AcDbEntity
  8
レイヤー_1
  6
CONTINUOUS
 62
       3
100
AcDbLine
 10
-70.02651807
 20
-30.23308139
 30
0.0
 11
-69.78485914
 21
-30.24509176
 31
0.0
  0
LINE
  5
E2
100
AcDbEntity
  8
レイヤー_1
  6
CONTINUOUS
 62
       3
100
AcDbLine
 10
-69.78485914
 20
-30.24509176
 30
0.0
 11
-69.55006472
 21
-30.28035734
 31
0.0
  0
LINE
  5
E3
100
AcDbEntity
  8
レイヤー_1
  6
CONTINUOUS
 62
       3
100
AcDbLine
 10
-69.55006472
 20
-30.28035734
 30
0.0
 11
-69.32328485
 21
-30.33772985
 31
0.0
  0
LINE
  5
E4
100
AcDbEntity
  8
レイヤー_1
  6
CONTINUOUS
 62
       3
100
AcDbLine
 10
-69.32328485
 20
-30.33772985
 30
0.0
 11
-69.10566966
 21
-30.41606097
 31
0.0
  0
LINE
  5
E5
100
AcDbEntity
  8
レイヤー_1
  6
CONTINUOUS
 62
       3
100
AcDbLine
 10
-69.10566966
 20
-30.41606097
 30
0.0
 11
-68.89836924
 21
-30.51420243
 31
0.0
  0
LINE
  5
E6
100
AcDbEntity
  8
レイヤー_1
  6
CONTINUOUS
 62
       3
100
AcDbLine
 10
-68.89836924
 20
-30.51420243
 30
0.0
 11
-68.70253372
 21
-30.63100593
 31
0.0
  0
LINE
  5
E7
100
AcDbEntity
  8
レイヤー_1
  6
CONTINUOUS
 62
       3
100
AcDbLine
 10
-68.70253372
 20
-30.63100593
 30
0.0
 11
-68.51931316
 21
-30.76532317
 31
0.0
  0
LINE
  5
E8
100
AcDbEntity
  8
レイヤー_1
  6
CONTINUOUS
 62
       3
100
AcDbLine
 10
-68.51931316
 20
-30.76532317
 30
0.0
 11
-68.34985767
 21
-30.91600586
 31
0.0
  0
LINE
  5
E9
100
AcDbEntity
  8
レイヤー_1
  6
CONTINUOUS
 62
       3
100
AcDbLine
 10
-68.34985767
 20
-30.91600586
 30
0.0
 11
-68.19531738
 21
-31.0819057
 31
0.0
  0
LINE
  5
EA
100
AcDbEntity
  8
レイヤー_1
  6
CONTINUOUS
 62
       3
100
AcDbLine
 10
-68.19531738
 20
-31.0819057
 30
0.0
 11
-68.05684234
 21
-31.2618744
 31
0.0
  0
LINE
  5
EB
100
AcDbEntity
  8
レイヤー_1
  6
CONTINUOUS
 62
       3
100
AcDbLine
 10
-68.05684234
 20
-31.2618744
 30
0.0
 11
-67.93558269
 21
-31.45476367
 31
0.0
  0
LINE
  5
EC
100
AcDbEntity
  8
レイヤー_1
  6
CONTINUOUS
 62
       3
100
AcDbLine
 10
-67.93558269
 20
-31.45476367
 30
0.0
 11
-67.83268854
 21
-31.65942521
 31
0.0
  0
LINE
  5
ED
100
AcDbEntity
  8
レイヤー_1
  6
CONTINUOUS
 62
       3
100
AcDbLine
 10
-67.83268854
 20
-31.65942521
 30
0.0
 11
-67.74930994
 21
-31.87471073
 31
0.0
  0
LINE
  5
EE
100
AcDbEntity
  8
レイヤー_1
  6
CONTINUOUS
 62
       3
100
AcDbLine
 10
-67.74930994
 20
-31.87471073
 30
0.0
 11
-67.68659704
 21
-32.09947193
 31
0.0
  0
LINE
  5
EF
100
AcDbEntity
  8
レイヤー_1
  6
CONTINUOUS
 62
       3
100
AcDbLine
 10
-67.68659704
 20
-32.09947193
 30
0.0
 11
-67.64569991
 21
-32.33256052
 31
0.0
  0
LINE
  5
F0
100
AcDbEntity
  8
レイヤー_1
  6
CONTINUOUS
 62
       3
100
AcDbLine
 10
-67.64569991
 20
-32.33256052
 30
0.0
 11
-67.62776867
 21
-32.57282821
 31
0.0
  0
LINE
  5
F1
100
AcDbEntity
  8
レイヤー_1
  6
CONTINUOUS
 62
       3
100
AcDbLine
 10
-67.62776867
 20
-32.57282821
 30
0.0
 11
-67.63379167
 21
-32.81573044
 31
0.0
  0
LINE
  5
F2
100
AcDbEntity
  8
レイヤー_1
  6
CONTINUOUS
 62
       3
100
AcDbLine
 10
-67.63379167
 20
-32.81573044
 30
0.0
 11
-67.66334962
 21
-33.0523713
 31
0.0
  0
LINE
  5
F3
100
AcDbEntity
  8
レイヤー_1
  6
CONTINUOUS
 62
       3
100
AcDbLine
 10
-67.66334962
 20
-33.0523713
 30
0.0
 11
-67.7152984
 21
-33.28130046
 31
0.0
  0
LINE
  5
F4
100
AcDbEntity
  8
レイヤー_1
  6
CONTINUOUS
 62
       3
100
AcDbLine
 10
-67.7152984
 20
-33.28130046
 30
0.0
 11
-67.78848792
 21
-33.50136542
 31
0.0
  0
LINE
  5
F5
100
AcDbEntity
  8
レイヤー_1
  6
CONTINUOUS
 62
       3
100
AcDbLine
 10
-67.78848792
 20
-33.50136542
 30
0.0
 11
-67.88176805
 21
-33.71141367
 31
0.0
  0
LINE
  5
F6
100
AcDbEntity
  8
レイヤー_1
  6
CONTINUOUS
 62
       3
100
AcDbLine
 10
-67.88176805
 20
-33.71141367
 30
0.0
 11
-67.99398872
 21
-33.91029269
 31
0.0
  0
LINE
  5
F7
100
AcDbEntity
  8
レイヤー_1
  6
CONTINUOUS
 62
       3
100
AcDbLine
 10
-67.99398872
 20
-33.91029269
 30
0.0
 11
-68.12399982
 21
-34.09684999
 31
0.0
  0
LINE
  5
F8
100
AcDbEntity
  8
レイヤー_1
  6
CONTINUOUS
 62
       3
100
AcDbLine
 10
-68.12399982
 20
-34.09684999
 30
0.0
 11
-68.27065124
 21
-34.26993304
 31
0.0
  0
LINE
  5
F9
100
AcDbEntity
  8
レイヤー_1
  6
CONTINUOUS
 62
       3
100
AcDbLine
 10
-68.27065124
 20
-34.26993304
 30
0.0
 11
-68.4327929
 21
-34.42838934
 31
0.0
  0
LINE
  5
FA
100
AcDbEntity
  8
レイヤー_1
  6
CONTINUOUS
 62
       3
100
AcDbLine
 10
-68.4327929
 20
-34.42838934
 30
0.0
 11
-68.60927469
 21
-34.57106639
 31
0.0
  0
LINE
  5
FB
100
AcDbEntity
  8
レイヤー_1
  6
CONTINUOUS
 62
       3
100
AcDbLine
 10
-68.60927469
 20
-34.57106639
 30
0.0
 11
-68.79894649
 21
-34.69681166
 31
0.0
  0
LINE
  5
FC
100
AcDbEntity
  8
レイヤー_1
  6
CONTINUOUS
 62
       3
100
AcDbLine
 10
-68.79894649
 20
-34.69681166
 30
0.0
 11
-69.00065822
 21
-34.80447266
 31
0.0
  0
LINE
  5
FD
100
AcDbEntity
  8
レイヤー_1
  6
CONTINUOUS
 62
       3
100
AcDbLine
 10
-69.00065822
 20
-34.80447266
 30
0.0
 11
-69.21325979
 21
-34.89289688
 31
0.0
  0
LINE
  5
FE
100
AcDbEntity
  8
レイヤー_1
  6
CONTINUOUS
 62
       3
100
AcDbLine
 10
-69.21325979
 20
-34.89289688
 30
0.0
 11
-69.43560107
 21
-34.96093179
 31
0.0
  0
LINE
  5
FF
100
AcDbEntity
  8
レイヤー_1
  6
CONTINUOUS
 62
       3
100
AcDbLine
 10
-69.43560107
 20
-34.96093179
 30
0.0
 11
-69.666532
 21
-35.00742491
 31
0.0
  0
LINE
  5
100
100
AcDbEntity
  8
レイヤー_1
  6
CONTINUOUS
 62
       3
100
AcDbLine
 10
-69.666532
 20
-35.00742491
 30
0.0
 11
-69.90490243
 21
-35.03122371
 31
0.0
  0
LINE
  5
101
100
AcDbEntity
  8
レイヤー_1
  6
CONTINUOUS
 62
       3
100
AcDbLine
 10
-69.90490243
 20
-35.03122371
 30
0.0
 11
-70.14813489
 21
-35.03122371
 31
0.0
  0
LINE
  5
102
100
AcDbEntity
  8
レイヤー_1
  6
CONTINUOUS
 62
       3
100
AcDbLine
 10
-70.14813489
 20
-35.03122371
 30
0.0
 11
-70.38651447
 21
-35.00742491
 31
0.0
  0
LINE
  5
103
100
AcDbEntity
  8
レイヤー_1
  6
CONTINUOUS
 62
       3
100
AcDbLine
 10
-70.38651447
 20
-35.00742491
 30
0.0
 11
-70.61746249
 21
-34.96093179
 31
0.0
  0
LINE
  5
104
100
AcDbEntity
  8
レイヤー_1
  6
CONTINUOUS
 62
       3
100
AcDbLine
 10
-70.61746249
 20
-34.96093179
 30
0.0
 11
-70.83982767
 21
-34.89289688
 31
0.0
  0
LINE
  5
105
100
AcDbEntity
  8
レイヤー_1
  6
CONTINUOUS
 62
       3
100
AcDbLine
 10
-70.83982767
 20
-34.89289688
 30
0.0
 11
-71.05245867
 21
-34.80447266
 31
0.0
  0
LINE
  5
106
100
AcDbEntity
  8
レイヤー_1
  6
CONTINUOUS
 62
       3
100
AcDbLine
 10
-71.05245867
 20
-34.80447266
 30
0.0
 11
-71.25420424
 21
-34.69681166
 31
0.0
  0
LINE
  5
107
100
AcDbEntity
  8
レイヤー_1
  6
CONTINUOUS
 62
       3
100
AcDbLine
 10
-71.25420424
 20
-34.69681166
 30
0.0
 11
-71.44391303
 21
-34.57106639
 31
0.0
  0
LINE
  5
108
100
AcDbEntity
  8
レイヤー_1
  6
CONTINUOUS
 62
       3
100
AcDbLine
 10
-71.44391303
 20
-34.57106639
 30
0.0
 11
-71.62043375
 21
-34.42838934
 31
0.0
  0
LINE
  5
109
100
AcDbEntity
  8
レイヤー_1
  6
CONTINUOUS
 62
       3
100
AcDbLine
 10
-71.62043375
 20
-34.42838934
 30
0.0
 11
-71.78261509
 21
-34.26993304
 31
0.0
  0
LINE
  5
10A
100
AcDbEntity
  8
レイヤー_1
  6
CONTINUOUS
 62
       3
100
AcDbLine
 10
-71.78261509
 20
-34.26993304
 30
0.0
 11
-71.92930576
 21
-34.09684999
 31
0.0
  0
LINE
  5
10B
100
AcDbEntity
  8
レイヤー_1
  6
CONTINUOUS
 62
       3
100
AcDbLine
 10
-71.92930576
 20
-34.09684999
 30
0.0
 11
-72.05935444
 21
-33.91029269
 31
0.0
  0
LINE
  5
10C
100
AcDbEntity
  8
レイヤー_1
  6
CONTINUOUS
 62
       3
100
AcDbLine
 10
-72.05935444
 20
-33.91029269
 30
0.0
 11
-72.17160983
 21
-33.71141367
 31
0.0
  0
LINE
  5
10D
100
AcDbEntity
  8
レイヤー_1
  6
CONTINUOUS
 62
       3
100
AcDbLine
 10
-72.17160983
 20
-33.71141367
 30
0.0
 11
-72.26492063
 21
-33.50136542
 31
0.0
  0
LINE
  5
10E
100
AcDbEntity
  8
レイヤー_1
  6
CONTINUOUS
 62
       3
100
AcDbLine
 10
-72.26492063
 20
-33.50136542
 30
0.0
 11
-72.33813553
 21
-33.28130046
 31
0.0
  0
LINE
  5
10F
100
AcDbEntity
  8
レイヤー_1
  6
CONTINUOUS
 62
       3
100
AcDbLine
 10
-72.33813553
 20
-33.28130046
 30
0.0
 11
-72.39010323
 21
-33.0523713
 31
0.0
  0
LINE
  5
110
100
AcDbEntity
  8
レイヤー_1
  6
CONTINUOUS
 62
       3
100
AcDbLine
 10
-72.39010323
 20
-33.0523713
 30
0.0
 11
-72.41967241
 21
-32.81573044
 31
0.0
  0
LINE
  5
111
100
AcDbEntity
  8
レイヤー_1
  6
CONTINUOUS
 62
       3
100
AcDbLine
 10
-72.41967241
 20
-32.81573044
 30
0.0
 11
-72.42569778
 21
-32.57282821
 31
0.0
  0
LINE
  5
112
100
AcDbEntity
  8
レイヤー_1
  6
CONTINUOUS
 62
       3
100
AcDbLine
 10
-72.42569778
 20
-32.57282821
 30
0.0
 11
-72.4077596
 21
-32.33256052
 31
0.0
  0
LINE
  5
113
100
AcDbEntity
  8
レイヤー_1
  6
CONTINUOUS
 62
       3
100
AcDbLine
 10
-72.4077596
 20
-32.33256052
 30
0.0
 11
-72.36684723
 21
-32.09947193
 31
0.0
  0
LINE
  5
114
100
AcDbEntity
  8
レイヤー_1
  6
CONTINUOUS
 62
       3
100
AcDbLine
 10
-72.36684723
 20
-32.09947193
 30
0.0
 11
-72.30411202
 21
-31.87471073
 31
0.0
  0
LINE
  5
115
100
AcDbEntity
  8
レイヤー_1
  6
CONTINUOUS
 62
       3
100
AcDbLine
 10
-72.30411202
 20
-31.87471073
 30
0.0
 11
-72.22070526
 21
-31.65942521
 31
0.0
  0
LINE
  5
116
100
AcDbEntity
  8
レイヤー_1
  6
CONTINUOUS
 62
       3
100
AcDbLine
 10
-72.22070526
 20
-31.65942521
 30
0.0
 11
-72.11777826
 21
-31.45476367
 31
0.0
  0
LINE
  5
117
100
AcDbEntity
  8
レイヤー_1
  6
CONTINUOUS
 62
       3
100
AcDbLine
 10
-72.11777826
 20
-31.45476367
 30
0.0
 11
-71.99648231
 21
-31.2618744
 31
0.0
  0
LINE
  5
118
100
AcDbEntity
  8
レイヤー_1
  6
CONTINUOUS
 62
       3
100
AcDbLine
 10
-71.99648231
 20
-31.2618744
 30
0.0
 11
-71.85796871
 21
-31.0819057
 31
0.0
  0
LINE
  5
119
100
AcDbEntity
  8
レイヤー_1
  6
CONTINUOUS
 62
       3
100
AcDbLine
 10
-71.85796871
 20
-31.0819057
 30
0.0
 11
-71.70338879
 21
-30.91600586
 31
0.0
  0
LINE
  5
11A
100
AcDbEntity
  8
レイヤー_1
  6
CONTINUOUS
 62
       3
100
AcDbLine
 10
-71.70338879
 20
-30.91600586
 30
0.0
 11
-71.53389386
 21
-30.76532317
 31
0.0
  0
LINE
  5
11B
100
AcDbEntity
  8
レイヤー_1
  6
CONTINUOUS
 62
       3
100
AcDbLine
 10
-71.53389386
 20
-30.76532317
 30
0.0
 11
-71.35063519
 21
-30.63100593
 31
0.0
  0
LINE
  5
11C
100
AcDbEntity
  8
レイヤー_1
  6
CONTINUOUS
 62
       3
100
AcDbLine
 10
-71.35063519
 20
-30.63100593
 30
0.0
 11
-71.1547641
 21
-30.51420243
 31
0.0
  0
LINE
  5
11D
100
AcDbEntity
  8
レイヤー_1
  6
CONTINUOUS
 62
       3
100
AcDbLine
 10
-71.1547641
 20
-30.51420243
 30
0.0
 11
-70.94743189
 21
-30.41606097
 31
0.0
  0
LINE
  5
11E
100
AcDbEntity
  8
レイヤー_1
  6
CONTINUOUS
 62
       3
100
AcDbLine
 10
-70.94743189
 20
-30.41606097
 30
0.0
 11
-70.72978989
 21
-30.33772985
 31
0.0
  0
LINE
  5
11F
100
AcDbEntity
  8
レイヤー_1
  6
CONTINUOUS
 62
       3
100
AcDbLine
 10
-70.72978989
 20
-30.33772985
 30
0.0
 11
-70.50298937
 21
-30.28035734
 31
0.0
  0
LINE
  5
120
100
AcDbEntity
  8
レイヤー_1
  6
CONTINUOUS
 62
       3
100
AcDbLine
 10
-70.50298937
 20
-30.28035734
 30
0.0
 11
-70.26818167
 21
-30.24509176
 31
0.0
  0
LINE
  5
121
100
AcDbEntity
  8
レイヤー_1
  6
CONTINUOUS
 62
       3
100
AcDbLine
 10
-70.26818167
 20
-30.24509176
 30
0.0
 11
-70.02651807
 21
-30.23308139
 31
0.0
  0
LINE
  5
122
100
AcDbEntity
  8
レイヤー_1
  6
CONTINUOUS
 62
       3
100
AcDbLine
 10
-41.52653503
 20
-30.23308139
 30
0.0
 11
-41.28501146
 21
-30.24509176
 31
0.0
  0
LINE
  5
123
100
AcDbEntity
  8
レイヤー_1
  6
CONTINUOUS
 62
       3
100
AcDbLine
 10
-41.28501146
 20
-30.24509176
 30
0.0
 11
-41.05030826
 21
-30.28035734
 31
0.0
  0
LINE
  5
124
100
AcDbEntity
  8
レイヤー_1
  6
CONTINUOUS
 62
       3
100
AcDbLine
 10
-41.05030826
 20
-30.28035734
 30
0.0
 11
-40.82358034
 21
-30.33772985
 31
0.0
  0
LINE
  5
125
100
AcDbEntity
  8
レイヤー_1
  6
CONTINUOUS
 62
       3
100
AcDbLine
 10
-40.82358034
 20
-30.33772985
 30
0.0
 11
-40.60598262
 21
-30.41606097
 31
0.0
  0
LINE
  5
126
100
AcDbEntity
  8
レイヤー_1
  6
CONTINUOUS
 62
       3
100
AcDbLine
 10
-40.60598262
 20
-30.41606097
 30
0.0
 11
-40.39867003
 21
-30.51420243
 31
0.0
  0
LINE
  5
127
100
AcDbEntity
  8
レイヤー_1
  6
CONTINUOUS
 62
       3
100
AcDbLine
 10
-40.39867003
 20
-30.51420243
 30
0.0
 11
-40.20279747
 21
-30.63100593
 31
0.0
  0
LINE
  5
128
100
AcDbEntity
  8
レイヤー_1
  6
CONTINUOUS
 62
       3
100
AcDbLine
 10
-40.20279747
 20
-30.63100593
 30
0.0
 11
-40.01951988
 21
-30.76532317
 31
0.0
  0
LINE
  5
129
100
AcDbEntity
  8
レイヤー_1
  6
CONTINUOUS
 62
       3
100
AcDbLine
 10
-40.01951988
 20
-30.76532317
 30
0.0
 11
-39.84999215
 21
-30.91600586
 31
0.0
  0
LINE
  5
12A
100
AcDbEntity
  8
レイヤー_1
  6
CONTINUOUS
 62
       3
100
AcDbLine
 10
-39.84999215
 20
-30.91600586
 30
0.0
 11
-39.69536921
 21
-31.0819057
 31
0.0
  0
LINE
  5
12B
100
AcDbEntity
  8
レイヤー_1
  6
CONTINUOUS
 62
       3
100
AcDbLine
 10
-39.69536921
 20
-31.0819057
 30
0.0
 11
-39.556806
 21
-31.2618744
 31
0.0
  0
LINE
  5
12C
100
AcDbEntity
  8
レイヤー_1
  6
CONTINUOUS
 62
       3
100
AcDbLine
 10
-39.556806
 20
-31.2618744
 30
0.0
 11
-39.4354574
 21
-31.45476367
 31
0.0
  0
LINE
  5
12D
100
AcDbEntity
  8
レイヤー_1
  6
CONTINUOUS
 62
       3
100
AcDbLine
 10
-39.4354574
 20
-31.45476367
 30
0.0
 11
-39.33247834
 21
-31.65942521
 31
0.0
  0
LINE
  5
12E
100
AcDbEntity
  8
レイヤー_1
  6
CONTINUOUS
 62
       3
100
AcDbLine
 10
-39.33247834
 20
-31.65942521
 30
0.0
 11
-39.24902373
 21
-31.87471073
 31
0.0
  0
LINE
  5
12F
100
AcDbEntity
  8
レイヤー_1
  6
CONTINUOUS
 62
       3
100
AcDbLine
 10
-39.24902373
 20
-31.87471073
 30
0.0
 11
-39.18624852
 21
-32.09947193
 31
0.0
  0
LINE
  5
130
100
AcDbEntity
  8
レイヤー_1
  6
CONTINUOUS
 62
       3
100
AcDbLine
 10
-39.18624852
 20
-32.09947193
 30
0.0
 11
-39.1453076
 21
-32.33256052
 31
0.0
  0
LINE
  5
131
100
AcDbEntity
  8
レイヤー_1
  6
CONTINUOUS
 62
       3
100
AcDbLine
 10
-39.1453076
 20
-32.33256052
 30
0.0
 11
-39.12735589
 21
-32.57282821
 31
0.0
  0
LINE
  5
132
100
AcDbEntity
  8
レイヤー_1
  6
CONTINUOUS
 62
       3
100
AcDbLine
 10
-39.12735589
 20
-32.57282821
 30
0.0
 11
-39.13338592
 21
-32.81573044
 31
0.0
  0
LINE
  5
133
100
AcDbEntity
  8
レイヤー_1
  6
CONTINUOUS
 62
       3
100
AcDbLine
 10
-39.13338592
 20
-32.81573044
 30
0.0
 11
-39.1629766
 21
-33.0523713
 31
0.0
  0
LINE
  5
134
100
AcDbEntity
  8
レイヤー_1
  6
CONTINUOUS
 62
       3
100
AcDbLine
 10
-39.1629766
 20
-33.0523713
 30
0.0
 11
-39.21497903
 21
-33.28130046
 31
0.0
  0
LINE
  5
135
100
AcDbEntity
  8
レイヤー_1
  6
CONTINUOUS
 62
       3
100
AcDbLine
 10
-39.21497903
 20
-33.28130046
 30
0.0
 11
-39.28823829
 21
-33.50136542
 31
0.0
  0
LINE
  5
136
100
AcDbEntity
  8
レイヤー_1
  6
CONTINUOUS
 62
       3
100
AcDbLine
 10
-39.28823829
 20
-33.50136542
 30
0.0
 11
-39.38159948
 21
-33.71141367
 31
0.0
  0
LINE
  5
137
100
AcDbEntity
  8
レイヤー_1
  6
CONTINUOUS
 62
       3
100
AcDbLine
 10
-39.38159948
 20
-33.71141367
 30
0.0
 11
-39.49390768
 21
-33.91029269
 31
0.0
  0
LINE
  5
138
100
AcDbEntity
  8
レイヤー_1
  6
CONTINUOUS
 62
       3
100
AcDbLine
 10
-39.49390768
 20
-33.91029269
 30
0.0
 11
-39.62400795
 21
-34.09684999
 31
0.0
  0
LINE
  5
139
100
AcDbEntity
  8
レイヤー_1
  6
CONTINUOUS
 62
       3
100
AcDbLine
 10
-39.62400795
 20
-34.09684999
 30
0.0
 11
-39.77074541
 21
-34.26993304
 31
0.0
  0
LINE
  5
13A
100
AcDbEntity
  8
レイヤー_1
  6
CONTINUOUS
 62
       3
100
AcDbLine
 10
-39.77074541
 20
-34.26993304
 30
0.0
 11
-39.9329651
 21
-34.42838934
 31
0.0
  0
LINE
  5
13B
100
AcDbEntity
  8
レイヤー_1
  6
CONTINUOUS
 62
       3
100
AcDbLine
 10
-39.9329651
 20
-34.42838934
 30
0.0
 11
-40.10951212
 21
-34.57106639
 31
0.0
  0
LINE
  5
13C
100
AcDbEntity
  8
レイヤー_1
  6
CONTINUOUS
 62
       3
100
AcDbLine
 10
-40.10951212
 20
-34.57106639
 30
0.0
 11
-40.29923157
 21
-34.69681166
 31
0.0
  0
LINE
  5
13D
100
AcDbEntity
  8
レイヤー_1
  6
CONTINUOUS
 62
       3
100
AcDbLine
 10
-40.29923157
 20
-34.69681166
 30
0.0
 11
-40.50096851
 21
-34.80447266
 31
0.0
  0
LINE
  5
13E
100
AcDbEntity
  8
レイヤー_1
  6
CONTINUOUS
 62
       3
100
AcDbLine
 10
-40.50096851
 20
-34.80447266
 30
0.0
 11
-40.71356803
 21
-34.89289688
 31
0.0
  0
LINE
  5
13F
100
AcDbEntity
  8
レイヤー_1
  6
CONTINUOUS
 62
       3
100
AcDbLine
 10
-40.71356803
 20
-34.89289688
 30
0.0
 11
-40.93587521
 21
-34.96093179
 31
0.0
  0
LINE
  5
140
100
AcDbEntity
  8
レイヤー_1
  6
CONTINUOUS
 62
       3
100
AcDbLine
 10
-40.93587521
 20
-34.96093179
 30
0.0
 11
-41.16673513
 21
-35.00742491
 31
0.0
  0
LINE
  5
141
100
AcDbEntity
  8
レイヤー_1
  6
CONTINUOUS
 62
       3
100
AcDbLine
 10
-41.16673513
 20
-35.00742491
 30
0.0
 11
-41.40499288
 21
-35.03122371
 31
0.0
  0
LINE
  5
142
100
AcDbEntity
  8
レイヤー_1
  6
CONTINUOUS
 62
       3
100
AcDbLine
 10
-41.40499288
 20
-35.03122371
 30
0.0
 11
-41.64815425
 21
-35.03122371
 31
0.0
  0
LINE
  5
143
100
AcDbEntity
  8
レイヤー_1
  6
CONTINUOUS
 62
       3
100
AcDbLine
 10
-41.64815425
 20
-35.03122371
 30
0.0
 11
-41.88655209
 21
-35.00742491
 31
0.0
  0
LINE
  5
144
100
AcDbEntity
  8
レイヤー_1
  6
CONTINUOUS
 62
       3
100
AcDbLine
 10
-41.88655209
 20
-35.00742491
 30
0.0
 11
-42.11753434
 21
-34.96093179
 31
0.0
  0
LINE
  5
145
100
AcDbEntity
  8
レイヤー_1
  6
CONTINUOUS
 62
       3
100
AcDbLine
 10
-42.11753434
 20
-34.96093179
 30
0.0
 11
-42.33994728
 21
-34.89289688
 31
0.0
  0
LINE
  5
146
100
AcDbEntity
  8
レイヤー_1
  6
CONTINUOUS
 62
       3
100
AcDbLine
 10
-42.33994728
 20
-34.89289688
 30
0.0
 11
-42.5526372
 21
-34.80447266
 31
0.0
  0
LINE
  5
147
100
AcDbEntity
  8
レイヤー_1
  6
CONTINUOUS
 62
       3
100
AcDbLine
 10
-42.5526372
 20
-34.80447266
 30
0.0
 11
-42.75445041
 21
-34.69681166
 31
0.0
  0
LINE
  5
148
100
AcDbEntity
  8
レイヤー_1
  6
CONTINUOUS
 62
       3
100
AcDbLine
 10
-42.75445041
 20
-34.69681166
 30
0.0
 11
-42.94423315
 21
-34.57106639
 31
0.0
  0
LINE
  5
149
100
AcDbEntity
  8
レイヤー_1
  6
CONTINUOUS
 62
       3
100
AcDbLine
 10
-42.94423315
 20
-34.57106639
 30
0.0
 11
-43.12083175
 21
-34.42838934
 31
0.0
  0
LINE
  5
14A
100
AcDbEntity
  8
レイヤー_1
  6
CONTINUOUS
 62
       3
100
AcDbLine
 10
-43.12083175
 20
-34.42838934
 30
0.0
 11
-43.28309248
 21
-34.26993304
 31
0.0
  0
LINE
  5
14B
100
AcDbEntity
  8
レイヤー_1
  6
CONTINUOUS
 62
       3
100
AcDbLine
 10
-43.28309248
 20
-34.26993304
 30
0.0
 11
-43.42986163
 21
-34.09684999
 31
0.0
  0
LINE
  5
14C
100
AcDbEntity
  8
レイヤー_1
  6
CONTINUOUS
 62
       3
100
AcDbLine
 10
-43.42986163
 20
-34.09684999
 30
0.0
 11
-43.55998548
 21
-33.91029269
 31
0.0
  0
LINE
  5
14D
100
AcDbEntity
  8
レイヤー_1
  6
CONTINUOUS
 62
       3
100
AcDbLine
 10
-43.55998548
 20
-33.91029269
 30
0.0
 11
-43.67231032
 21
-33.71141367
 31
0.0
  0
LINE
  5
14E
100
AcDbEntity
  8
レイヤー_1
  6
CONTINUOUS
 62
       3
100
AcDbLine
 10
-43.67231032
 20
-33.71141367
 30
0.0
 11
-43.76568244
 21
-33.50136542
 31
0.0
  0
LINE
  5
14F
100
AcDbEntity
  8
レイヤー_1
  6
CONTINUOUS
 62
       3
100
AcDbLine
 10
-43.76568244
 20
-33.50136542
 30
0.0
 11
-43.83894811
 21
-33.28130046
 31
0.0
  0
LINE
  5
150
100
AcDbEntity
  8
レイヤー_1
  6
CONTINUOUS
 62
       3
100
AcDbLine
 10
-43.83894811
 20
-33.28130046
 30
0.0
 11
-43.89095366
 21
-33.0523713
 31
0.0
  0
LINE
  5
151
100
AcDbEntity
  8
レイヤー_1
  6
CONTINUOUS
 62
       3
100
AcDbLine
 10
-43.89095366
 20
-33.0523713
 30
0.0
 11
-43.92054531
 21
-32.81573044
 31
0.0
  0
LINE
  5
152
100
AcDbEntity
  8
レイヤー_1
  6
CONTINUOUS
 62
       3
100
AcDbLine
 10
-43.92054531
 20
-32.81573044
 30
0.0
 11
-43.92657542
 21
-32.57282821
 31
0.0
  0
LINE
  5
153
100
AcDbEntity
  8
レイヤー_1
  6
CONTINUOUS
 62
       3
100
AcDbLine
 10
-43.92657542
 20
-32.57282821
 30
0.0
 11
-43.90862332
 21
-32.33256052
 31
0.0
  0
LINE
  5
154
100
AcDbEntity
  8
レイヤー_1
  6
CONTINUOUS
 62
       3
100
AcDbLine
 10
-43.90862332
 20
-32.33256052
 30
0.0
 11
-43.86768052
 21
-32.09947193
 31
0.0
  0
LINE
  5
155
100
AcDbEntity
  8
レイヤー_1
  6
CONTINUOUS
 62
       3
100
AcDbLine
 10
-43.86768052
 20
-32.09947193
 30
0.0
 11
-43.8049007
 21
-31.87471073
 31
0.0
  0
LINE
  5
156
100
AcDbEntity
  8
レイヤー_1
  6
CONTINUOUS
 62
       3
100
AcDbLine
 10
-43.8049007
 20
-31.87471073
 30
0.0
 11
-43.72143757
 21
-31.65942521
 31
0.0
  0
LINE
  5
157
100
AcDbEntity
  8
レイヤー_1
  6
CONTINUOUS
 62
       3
100
AcDbLine
 10
-43.72143757
 20
-31.65942521
 30
0.0
 11
-43.61844489
 21
-31.45476367
 31
0.0
  0
LINE
  5
158
100
AcDbEntity
  8
レイヤー_1
  6
CONTINUOUS
 62
       3
100
AcDbLine
 10
-43.61844489
 20
-31.45476367
 30
0.0
 11
-43.49707632
 21
-31.2618744
 31
0.0
  0
LINE
  5
159
100
AcDbEntity
  8
レイヤー_1
  6
CONTINUOUS
 62
       3
100
AcDbLine
 10
-43.49707632
 20
-31.2618744
 30
0.0
 11
-43.35848561
 21
-31.0819057
 31
0.0
  0
LINE
  5
15A
100
AcDbEntity
  8
レイヤー_1
  6
CONTINUOUS
 62
       3
100
AcDbLine
 10
-43.35848561
 20
-31.0819057
 30
0.0
 11
-43.20382647
 21
-30.91600586
 31
0.0
  0
LINE
  5
15B
100
AcDbEntity
  8
レイヤー_1
  6
CONTINUOUS
 62
       3
100
AcDbLine
 10
-43.20382647
 20
-30.91600586
 30
0.0
 11
-43.03425259
 21
-30.76532317
 31
0.0
  0
LINE
  5
15C
100
AcDbEntity
  8
レイヤー_1
  6
CONTINUOUS
 62
       3
100
AcDbLine
 10
-43.03425259
 20
-30.76532317
 30
0.0
 11
-42.85091769
 21
-30.63100593
 31
0.0
  0
LINE
  5
15D
100
AcDbEntity
  8
レイヤー_1
  6
CONTINUOUS
 62
       3
100
AcDbLine
 10
-42.85091769
 20
-30.63100593
 30
0.0
 11
-42.6549755
 21
-30.51420243
 31
0.0
  0
LINE
  5
15E
100
AcDbEntity
  8
レイヤー_1
  6
CONTINUOUS
 62
       3
100
AcDbLine
 10
-42.6549755
 20
-30.51420243
 30
0.0
 11
-42.44757972
 21
-30.41606097
 31
0.0
  0
LINE
  5
15F
100
AcDbEntity
  8
レイヤー_1
  6
CONTINUOUS
 62
       3
100
AcDbLine
 10
-42.44757972
 20
-30.41606097
 30
0.0
 11
-42.22988408
 21
-30.33772985
 31
0.0
  0
LINE
  5
160
100
AcDbEntity
  8
レイヤー_1
  6
CONTINUOUS
 62
       3
100
AcDbLine
 10
-42.22988408
 20
-30.33772985
 30
0.0
 11
-42.00304227
 21
-30.28035734
 31
0.0
  0
LINE
  5
161
100
AcDbEntity
  8
レイヤー_1
  6
CONTINUOUS
 62
       3
100
AcDbLine
 10
-42.00304227
 20
-30.28035734
 30
0.0
 11
-41.76820801
 21
-30.24509176
 31
0.0
  0
LINE
  5
162
100
AcDbEntity
  8
レイヤー_1
  6
CONTINUOUS
 62
       3
100
AcDbLine
 10
-41.76820801
 20
-30.24509176
 30
0.0
 11
-41.52653503
 21
-30.23308139
 31
0.0
  0
LINE
  5
163
100
AcDbEntity
  8
レイヤー_1
  6
CONTINUOUS
 62
       3
100
AcDbLine
 10
-51.02681646
 20
-30.23308139
 30
0.0
 11
-50.78515285
 21
-30.24509176
 31
0.0
  0
LINE
  5
164
100
AcDbEntity
  8
レイヤー_1
  6
CONTINUOUS
 62
       3
100
AcDbLine
 10
-50.78515285
 20
-30.24509176
 30
0.0
 11
-50.55034514
 21
-30.28035734
 31
0.0
  0
LINE
  5
165
100
AcDbEntity
  8
レイヤー_1
  6
CONTINUOUS
 62
       3
100
AcDbLine
 10
-50.55034514
 20
-30.28035734
 30
0.0
 11
-50.32354464
 21
-30.33772985
 31
0.0
  0
LINE
  5
166
100
AcDbEntity
  8
レイヤー_1
  6
CONTINUOUS
 62
       3
100
AcDbLine
 10
-50.32354464
 20
-30.33772985
 30
0.0
 11
-50.10590262
 21
-30.41606097
 31
0.0
  0
LINE
  5
167
100
AcDbEntity
  8
レイヤー_1
  6
CONTINUOUS
 62
       3
100
AcDbLine
 10
-50.10590262
 20
-30.41606097
 30
0.0
 11
-49.89857043
 21
-30.51420243
 31
0.0
  0
LINE
  5
168
100
AcDbEntity
  8
レイヤー_1
  6
CONTINUOUS
 62
       3
100
AcDbLine
 10
-49.89857043
 20
-30.51420243
 30
0.0
 11
-49.70269934
 21
-30.63100593
 31
0.0
  0
LINE
  5
169
100
AcDbEntity
  8
レイヤー_1
  6
CONTINUOUS
 62
       3
100
AcDbLine
 10
-49.70269934
 20
-30.63100593
 30
0.0
 11
-49.51944067
 21
-30.76532317
 31
0.0
  0
LINE
  5
16A
100
AcDbEntity
  8
レイヤー_1
  6
CONTINUOUS
 62
       3
100
AcDbLine
 10
-49.51944067
 20
-30.76532317
 30
0.0
 11
-49.34994572
 21
-30.91600586
 31
0.0
  0
LINE
  5
16B
100
AcDbEntity
  8
レイヤー_1
  6
CONTINUOUS
 62
       3
100
AcDbLine
 10
-49.34994572
 20
-30.91600586
 30
0.0
 11
-49.1953658
 21
-31.0819057
 31
0.0
  0
LINE
  5
16C
100
AcDbEntity
  8
レイヤー_1
  6
CONTINUOUS
 62
       3
100
AcDbLine
 10
-49.1953658
 20
-31.0819057
 30
0.0
 11
-49.05685221
 21
-31.2618744
 31
0.0
  0
LINE
  5
16D
100
AcDbEntity
  8
レイヤー_1
  6
CONTINUOUS
 62
       3
100
AcDbLine
 10
-49.05685221
 20
-31.2618744
 30
0.0
 11
-48.93555627
 21
-31.45476367
 31
0.0
  0
LINE
  5
16E
100
AcDbEntity
  8
レイヤー_1
  6
CONTINUOUS
 62
       3
100
AcDbLine
 10
-48.93555627
 20
-31.45476367
 30
0.0
 11
-48.83262926
 21
-31.65942521
 31
0.0
  0
LINE
  5
16F
100
AcDbEntity
  8
レイヤー_1
  6
CONTINUOUS
 62
       3
100
AcDbLine
 10
-48.83262926
 20
-31.65942521
 30
0.0
 11
-48.74922249
 21
-31.87471073
 31
0.0
  0
LINE
  5
170
100
AcDbEntity
  8
レイヤー_1
  6
CONTINUOUS
 62
       3
100
AcDbLine
 10
-48.74922249
 20
-31.87471073
 30
0.0
 11
-48.68648728
 21
-32.09947193
 31
0.0
  0
LINE
  5
171
100
AcDbEntity
  8
レイヤー_1
  6
CONTINUOUS
 62
       3
100
AcDbLine
 10
-48.68648728
 20
-32.09947193
 30
0.0
 11
-48.64557493
 21
-32.33256052
 31
0.0
  0
LINE
  5
172
100
AcDbEntity
  8
レイヤー_1
  6
CONTINUOUS
 62
       3
100
AcDbLine
 10
-48.64557493
 20
-32.33256052
 30
0.0
 11
-48.62763673
 21
-32.57282821
 31
0.0
  0
LINE
  5
173
100
AcDbEntity
  8
レイヤー_1
  6
CONTINUOUS
 62
       3
100
AcDbLine
 10
-48.62763673
 20
-32.57282821
 30
0.0
 11
-48.6336621
 21
-32.81573044
 31
0.0
  0
LINE
  5
174
100
AcDbEntity
  8
レイヤー_1
  6
CONTINUOUS
 62
       3
100
AcDbLine
 10
-48.6336621
 20
-32.81573044
 30
0.0
 11
-48.6632313
 21
-33.0523713
 31
0.0
  0
LINE
  5
175
100
AcDbEntity
  8
レイヤー_1
  6
CONTINUOUS
 62
       3
100
AcDbLine
 10
-48.6632313
 20
-33.0523713
 30
0.0
 11
-48.71519899
 21
-33.28130046
 31
0.0
  0
LINE
  5
176
100
AcDbEntity
  8
レイヤー_1
  6
CONTINUOUS
 62
       3
100
AcDbLine
 10
-48.71519899
 20
-33.28130046
 30
0.0
 11
-48.78841388
 21
-33.50136542
 31
0.0
  0
LINE
  5
177
100
AcDbEntity
  8
レイヤー_1
  6
CONTINUOUS
 62
       3
100
AcDbLine
 10
-48.78841388
 20
-33.50136542
 30
0.0
 11
-48.88172468
 21
-33.71141367
 31
0.0
  0
LINE
  5
178
100
AcDbEntity
  8
レイヤー_1
  6
CONTINUOUS
 62
       3
100
AcDbLine
 10
-48.88172468
 20
-33.71141367
 30
0.0
 11
-48.99398007
 21
-33.91029269
 31
0.0
  0
LINE
  5
179
100
AcDbEntity
  8
レイヤー_1
  6
CONTINUOUS
 62
       3
100
AcDbLine
 10
-48.99398007
 20
-33.91029269
 30
0.0
 11
-49.12402877
 21
-34.09684999
 31
0.0
  0
LINE
  5
17A
100
AcDbEntity
  8
レイヤー_1
  6
CONTINUOUS
 62
       3
100
AcDbLine
 10
-49.12402877
 20
-34.09684999
 30
0.0
 11
-49.27071942
 21
-34.26993304
 31
0.0
  0
LINE
  5
17B
100
AcDbEntity
  8
レイヤー_1
  6
CONTINUOUS
 62
       3
100
AcDbLine
 10
-49.27071942
 20
-34.26993304
 30
0.0
 11
-49.43290077
 21
-34.42838934
 31
0.0
  0
LINE
  5
17C
100
AcDbEntity
  8
レイヤー_1
  6
CONTINUOUS
 62
       3
100
AcDbLine
 10
-49.43290077
 20
-34.42838934
 30
0.0
 11
-49.60942149
 21
-34.57106639
 31
0.0
  0
LINE
  5
17D
100
AcDbEntity
  8
レイヤー_1
  6
CONTINUOUS
 62
       3
100
AcDbLine
 10
-49.60942149
 20
-34.57106639
 30
0.0
 11
-49.79913029
 21
-34.69681166
 31
0.0
  0
LINE
  5
17E
100
AcDbEntity
  8
レイヤー_1
  6
CONTINUOUS
 62
       3
100
AcDbLine
 10
-49.79913029
 20
-34.69681166
 30
0.0
 11
-50.00087584
 21
-34.80447266
 31
0.0
  0
LINE
  5
17F
100
AcDbEntity
  8
レイヤー_1
  6
CONTINUOUS
 62
       3
100
AcDbLine
 10
-50.00087584
 20
-34.80447266
 30
0.0
 11
-50.21350686
 21
-34.89289688
 31
0.0
  0
LINE
  5
180
100
AcDbEntity
  8
レイヤー_1
  6
CONTINUOUS
 62
       3
100
AcDbLine
 10
-50.21350686
 20
-34.89289688
 30
0.0
 11
-50.43587204
 21
-34.96093179
 31
0.0
  0
LINE
  5
181
100
AcDbEntity
  8
レイヤー_1
  6
CONTINUOUS
 62
       3
100
AcDbLine
 10
-50.43587204
 20
-34.96093179
 30
0.0
 11
-50.66682006
 21
-35.00742491
 31
0.0
  0
LINE
  5
182
100
AcDbEntity
  8
レイヤー_1
  6
CONTINUOUS
 62
       3
100
AcDbLine
 10
-50.66682006
 20
-35.00742491
 30
0.0
 11
-50.90519962
 21
-35.03122371
 31
0.0
  0
LINE
  5
183
100
AcDbEntity
  8
レイヤー_1
  6
CONTINUOUS
 62
       3
100
AcDbLine
 10
-50.90519962
 20
-35.03122371
 30
0.0
 11
-51.1484333
 21
-35.03122371
 31
0.0
  0
LINE
  5
184
100
AcDbEntity
  8
レイヤー_1
  6
CONTINUOUS
 62
       3
100
AcDbLine
 10
-51.1484333
 20
-35.03122371
 30
0.0
 11
-51.38681286
 21
-35.00742491
 31
0.0
  0
LINE
  5
185
100
AcDbEntity
  8
レイヤー_1
  6
CONTINUOUS
 62
       3
100
AcDbLine
 10
-51.38681286
 20
-35.00742491
 30
0.0
 11
-51.61776088
 21
-34.96093179
 31
0.0
  0
LINE
  5
186
100
AcDbEntity
  8
レイヤー_1
  6
CONTINUOUS
 62
       3
100
AcDbLine
 10
-51.61776088
 20
-34.96093179
 30
0.0
 11
-51.84012605
 21
-34.89289688
 31
0.0
  0
LINE
  5
187
100
AcDbEntity
  8
レイヤー_1
  6
CONTINUOUS
 62
       3
100
AcDbLine
 10
-51.84012605
 20
-34.89289688
 30
0.0
 11
-52.05275708
 21
-34.80447266
 31
0.0
  0
LINE
  5
188
100
AcDbEntity
  8
レイヤー_1
  6
CONTINUOUS
 62
       3
100
AcDbLine
 10
-52.05275708
 20
-34.80447266
 30
0.0
 11
-52.25450263
 21
-34.69681166
 31
0.0
  0
LINE
  5
189
100
AcDbEntity
  8
レイヤー_1
  6
CONTINUOUS
 62
       3
100
AcDbLine
 10
-52.25450263
 20
-34.69681166
 30
0.0
 11
-52.44421143
 21
-34.57106639
 31
0.0
  0
LINE
  5
18A
100
AcDbEntity
  8
レイヤー_1
  6
CONTINUOUS
 62
       3
100
AcDbLine
 10
-52.44421143
 20
-34.57106639
 30
0.0
 11
-52.62073215
 21
-34.42838934
 31
0.0
  0
LINE
  5
18B
100
AcDbEntity
  8
レイヤー_1
  6
CONTINUOUS
 62
       3
100
AcDbLine
 10
-52.62073215
 20
-34.42838934
 30
0.0
 11
-52.7829135
 21
-34.26993304
 31
0.0
  0
LINE
  5
18C
100
AcDbEntity
  8
レイヤー_1
  6
CONTINUOUS
 62
       3
100
AcDbLine
 10
-52.7829135
 20
-34.26993304
 30
0.0
 11
-52.92960415
 21
-34.09684999
 31
0.0
  0
LINE
  5
18D
100
AcDbEntity
  8
レイヤー_1
  6
CONTINUOUS
 62
       3
100
AcDbLine
 10
-52.92960415
 20
-34.09684999
 30
0.0
 11
-53.05965285
 21
-33.91029269
 31
0.0
  0
LINE
  5
18E
100
AcDbEntity
  8
レイヤー_1
  6
CONTINUOUS
 62
       3
100
AcDbLine
 10
-53.05965285
 20
-33.91029269
 30
0.0
 11
-53.17190824
 21
-33.71141367
 31
0.0
  0
LINE
  5
18F
100
AcDbEntity
  8
レイヤー_1
  6
CONTINUOUS
 62
       3
100
AcDbLine
 10
-53.17190824
 20
-33.71141367
 30
0.0
 11
-53.26521904
 21
-33.50136542
 31
0.0
  0
LINE
  5
190
100
AcDbEntity
  8
レイヤー_1
  6
CONTINUOUS
 62
       3
100
AcDbLine
 10
-53.26521904
 20
-33.50136542
 30
0.0
 11
-53.33843393
 21
-33.28130046
 31
0.0
  0
LINE
  5
191
100
AcDbEntity
  8
レイヤー_1
  6
CONTINUOUS
 62
       3
100
AcDbLine
 10
-53.33843393
 20
-33.28130046
 30
0.0
 11
-53.39040162
 21
-33.0523713
 31
0.0
  0
LINE
  5
192
100
AcDbEntity
  8
レイヤー_1
  6
CONTINUOUS
 62
       3
100
AcDbLine
 10
-53.39040162
 20
-33.0523713
 30
0.0
 11
-53.41997081
 21
-32.81573044
 31
0.0
  0
LINE
  5
193
100
AcDbEntity
  8
レイヤー_1
  6
CONTINUOUS
 62
       3
100
AcDbLine
 10
-53.41997081
 20
-32.81573044
 30
0.0
 11
-53.42599619
 21
-32.57282821
 31
0.0
  0
LINE
  5
194
100
AcDbEntity
  8
レイヤー_1
  6
CONTINUOUS
 62
       3
100
AcDbLine
 10
-53.42599619
 20
-32.57282821
 30
0.0
 11
-53.40805799
 21
-32.33256052
 31
0.0
  0
LINE
  5
195
100
AcDbEntity
  8
レイヤー_1
  6
CONTINUOUS
 62
       3
100
AcDbLine
 10
-53.40805799
 20
-32.33256052
 30
0.0
 11
-53.36714564
 21
-32.09947193
 31
0.0
  0
LINE
  5
196
100
AcDbEntity
  8
レイヤー_1
  6
CONTINUOUS
 62
       3
100
AcDbLine
 10
-53.36714564
 20
-32.09947193
 30
0.0
 11
-53.30441043
 21
-31.87471073
 31
0.0
  0
LINE
  5
197
100
AcDbEntity
  8
レイヤー_1
  6
CONTINUOUS
 62
       3
100
AcDbLine
 10
-53.30441043
 20
-31.87471073
 30
0.0
 11
-53.22100366
 21
-31.65942521
 31
0.0
  0
LINE
  5
198
100
AcDbEntity
  8
レイヤー_1
  6
CONTINUOUS
 62
       3
100
AcDbLine
 10
-53.22100366
 20
-31.65942521
 30
0.0
 11
-53.11807665
 21
-31.45476367
 31
0.0
  0
LINE
  5
199
100
AcDbEntity
  8
レイヤー_1
  6
CONTINUOUS
 62
       3
100
AcDbLine
 10
-53.11807665
 20
-31.45476367
 30
0.0
 11
-52.9967807
 21
-31.2618744
 31
0.0
  0
LINE
  5
19A
100
AcDbEntity
  8
レイヤー_1
  6
CONTINUOUS
 62
       3
100
AcDbLine
 10
-52.9967807
 20
-31.2618744
 30
0.0
 11
-52.85826712
 21
-31.0819057
 31
0.0
  0
LINE
  5
19B
100
AcDbEntity
  8
レイヤー_1
  6
CONTINUOUS
 62
       3
100
AcDbLine
 10
-52.85826712
 20
-31.0819057
 30
0.0
 11
-52.7036872
 21
-30.91600586
 31
0.0
  0
LINE
  5
19C
100
AcDbEntity
  8
レイヤー_1
  6
CONTINUOUS
 62
       3
100
AcDbLine
 10
-52.7036872
 20
-30.91600586
 30
0.0
 11
-52.53419225
 21
-30.76532317
 31
0.0
  0
LINE
  5
19D
100
AcDbEntity
  8
レイヤー_1
  6
CONTINUOUS
 62
       3
100
AcDbLine
 10
-52.53419225
 20
-30.76532317
 30
0.0
 11
-52.35093358
 21
-30.63100593
 31
0.0
  0
LINE
  5
19E
100
AcDbEntity
  8
レイヤー_1
  6
CONTINUOUS
 62
       3
100
AcDbLine
 10
-52.35093358
 20
-30.63100593
 30
0.0
 11
-52.15506249
 21
-30.51420243
 31
0.0
  0
LINE
  5
19F
100
AcDbEntity
  8
レイヤー_1
  6
CONTINUOUS
 62
       3
100
AcDbLine
 10
-52.15506249
 20
-30.51420243
 30
0.0
 11
-51.9477303
 21
-30.41606097
 31
0.0
  0
LINE
  5
1A0
100
AcDbEntity
  8
レイヤー_1
  6
CONTINUOUS
 62
       3
100
AcDbLine
 10
-51.9477303
 20
-30.41606097
 30
0.0
 11
-51.73008828
 21
-30.33772985
 31
0.0
  0
LINE
  5
1A1
100
AcDbEntity
  8
レイヤー_1
  6
CONTINUOUS
 62
       3
100
AcDbLine
 10
-51.73008828
 20
-30.33772985
 30
0.0
 11
-51.50328778
 21
-30.28035734
 31
0.0
  0
LINE
  5
1A2
100
AcDbEntity
  8
レイヤー_1
  6
CONTINUOUS
 62
       3
100
AcDbLine
 10
-51.50328778
 20
-30.28035734
 30
0.0
 11
-51.26848007
 21
-30.24509176
 31
0.0
  0
LINE
  5
1A3
100
AcDbEntity
  8
レイヤー_1
  6
CONTINUOUS
 62
       3
100
AcDbLine
 10
-51.26848007
 20
-30.24509176
 30
0.0
 11
-51.02681646
 21
-30.23308139
 31
0.0
  0
LINE
  5
1A4
100
AcDbEntity
  8
レイヤー_1
  6
CONTINUOUS
 62
       3
100
AcDbLine
 10
-32.02711485
 20
30.18915642
 30
0.0
 11
-31.78545125
 21
30.20117587
 31
0.0
  0
LINE
  5
1A5
100
AcDbEntity
  8
レイヤー_1
  6
CONTINUOUS
 62
       3
100
AcDbLine
 10
-31.78545125
 20
30.20117587
 30
0.0
 11
-31.55064355
 21
30.23646589
 31
0.0
  0
LINE
  5
1A6
100
AcDbEntity
  8
レイヤー_1
  6
CONTINUOUS
 62
       3
100
AcDbLine
 10
-31.55064355
 20
30.23646589
 30
0.0
 11
-31.32384303
 21
30.29387397
 31
0.0
  0
LINE
  5
1A7
100
AcDbEntity
  8
レイヤー_1
  6
CONTINUOUS
 62
       3
100
AcDbLine
 10
-31.32384303
 20
30.29387397
 30
0.0
 11
-31.10620103
 21
30.3722476
 31
0.0
  0
LINE
  5
1A8
100
AcDbEntity
  8
レイヤー_1
  6
CONTINUOUS
 62
       3
100
AcDbLine
 10
-31.10620103
 20
30.3722476
 30
0.0
 11
-30.89886882
 21
30.47043427
 31
0.0
  0
LINE
  5
1A9
100
AcDbEntity
  8
レイヤー_1
  6
CONTINUOUS
 62
       3
100
AcDbLine
 10
-30.89886882
 20
30.47043427
 30
0.0
 11
-30.70299773
 21
30.58728147
 31
0.0
  0
LINE
  5
1AA
100
AcDbEntity
  8
レイヤー_1
  6
CONTINUOUS
 62
       3
100
AcDbLine
 10
-30.70299773
 20
30.58728147
 30
0.0
 11
-30.51973906
 21
30.7216367
 31
0.0
  0
LINE
  5
1AB
100
AcDbEntity
  8
レイヤー_1
  6
CONTINUOUS
 62
       3
100
AcDbLine
 10
-30.51973906
 20
30.7216367
 30
0.0
 11
-30.35024413
 21
30.87234743
 31
0.0
  0
LINE
  5
1AC
100
AcDbEntity
  8
レイヤー_1
  6
CONTINUOUS
 62
       3
100
AcDbLine
 10
-30.35024413
 20
30.87234743
 30
0.0
 11
-30.19566421
 21
31.03826118
 31
0.0
  0
LINE
  5
1AD
100
AcDbEntity
  8
レイヤー_1
  6
CONTINUOUS
 62
       3
100
AcDbLine
 10
-30.19566421
 20
31.03826118
 30
0.0
 11
-30.05715061
 21
31.21822541
 31
0.0
  0
LINE
  5
1AE
100
AcDbEntity
  8
レイヤー_1
  6
CONTINUOUS
 62
       3
100
AcDbLine
 10
-30.05715061
 20
31.21822541
 30
0.0
 11
-29.93585466
 21
31.41108763
 31
0.0
  0
LINE
  5
1AF
100
AcDbEntity
  8
レイヤー_1
  6
CONTINUOUS
 62
       3
100
AcDbLine
 10
-29.93585466
 20
31.41108763
 30
0.0
 11
-29.83292766
 21
31.61569533
 31
0.0
  0
LINE
  5
1B0
100
AcDbEntity
  8
レイヤー_1
  6
CONTINUOUS
 62
       3
100
AcDbLine
 10
-29.83292766
 20
31.61569533
 30
0.0
 11
-29.7495209
 21
31.830896
 31
0.0
  0
LINE
  5
1B1
100
AcDbEntity
  8
レイヤー_1
  6
CONTINUOUS
 62
       3
100
AcDbLine
 10
-29.7495209
 20
31.830896
 30
0.0
 11
-29.68678569
 21
32.05553713
 31
0.0
  0
LINE
  5
1B2
100
AcDbEntity
  8
レイヤー_1
  6
CONTINUOUS
 62
       3
100
AcDbLine
 10
-29.68678569
 20
32.05553713
 30
0.0
 11
-29.64587332
 21
32.2884662
 31
0.0
  0
LINE
  5
1B3
100
AcDbEntity
  8
レイヤー_1
  6
CONTINUOUS
 62
       3
100
AcDbLine
 10
-29.64587332
 20
32.2884662
 30
0.0
 11
-29.62793514
 21
32.52853071
 31
0.0
  0
LINE
  5
1B4
100
AcDbEntity
  8
レイヤー_1
  6
CONTINUOUS
 62
       3
100
AcDbLine
 10
-29.62793514
 20
32.52853071
 30
0.0
 11
-29.63396051
 21
32.7713775
 31
0.0
  0
LINE
  5
1B5
100
AcDbEntity
  8
レイヤー_1
  6
CONTINUOUS
 62
       3
100
AcDbLine
 10
-29.63396051
 20
32.7713775
 30
0.0
 11
-29.66352969
 21
33.0080296
 31
0.0
  0
LINE
  5
1B6
100
AcDbEntity
  8
レイヤー_1
  6
CONTINUOUS
 62
       3
100
AcDbLine
 10
-29.66352969
 20
33.0080296
 30
0.0
 11
-29.71549739
 21
33.23697768
 31
0.0
  0
LINE
  5
1B7
100
AcDbEntity
  8
レイヤー_1
  6
CONTINUOUS
 62
       3
100
AcDbLine
 10
-29.71549739
 20
33.23697768
 30
0.0
 11
-29.78871229
 21
33.45706803
 31
0.0
  0
LINE
  5
1B8
100
AcDbEntity
  8
レイヤー_1
  6
CONTINUOUS
 62
       3
100
AcDbLine
 10
-29.78871229
 20
33.45706803
 30
0.0
 11
-29.88202309
 21
33.66714694
 31
0.0
  0
LINE
  5
1B9
100
AcDbEntity
  8
レイヤー_1
  6
CONTINUOUS
 62
       3
100
AcDbLine
 10
-29.88202309
 20
33.66714694
 30
0.0
 11
-29.99427848
 21
33.86606068
 31
0.0
  0
LINE
  5
1BA
100
AcDbEntity
  8
レイヤー_1
  6
CONTINUOUS
 62
       3
100
AcDbLine
 10
-29.99427848
 20
33.86606068
 30
0.0
 11
-30.12432716
 21
34.05265556
 31
0.0
  0
LINE
  5
1BB
100
AcDbEntity
  8
レイヤー_1
  6
CONTINUOUS
 62
       3
100
AcDbLine
 10
-30.12432716
 20
34.05265556
 30
0.0
 11
-30.27101783
 21
34.22577785
 31
0.0
  0
LINE
  5
1BC
100
AcDbEntity
  8
レイヤー_1
  6
CONTINUOUS
 62
       3
100
AcDbLine
 10
-30.27101783
 20
34.22577785
 30
0.0
 11
-30.43319917
 21
34.38427385
 31
0.0
  0
LINE
  5
1BD
100
AcDbEntity
  8
レイヤー_1
  6
CONTINUOUS
 62
       3
100
AcDbLine
 10
-30.43319917
 20
34.38427385
 30
0.0
 11
-30.60971989
 21
34.52698983
 31
0.0
  0
LINE
  5
1BE
100
AcDbEntity
  8
レイヤー_1
  6
CONTINUOUS
 62
       3
100
AcDbLine
 10
-30.60971989
 20
34.52698983
 30
0.0
 11
-30.79942868
 21
34.65277209
 31
0.0
  0
LINE
  5
1BF
100
AcDbEntity
  8
レイヤー_1
  6
CONTINUOUS
 62
       3
100
AcDbLine
 10
-30.79942868
 20
34.65277209
 30
0.0
 11
-31.00117425
 21
34.76046691
 31
0.0
  0
LINE
  5
1C0
100
AcDbEntity
  8
レイヤー_1
  6
CONTINUOUS
 62
       3
100
AcDbLine
 10
-31.00117425
 20
34.76046691
 30
0.0
 11
-31.21380527
 21
34.84892058
 31
0.0
  0
LINE
  5
1C1
100
AcDbEntity
  8
レイヤー_1
  6
CONTINUOUS
 62
       3
100
AcDbLine
 10
-31.21380527
 20
34.84892058
 30
0.0
 11
-31.43617043
 21
34.91697938
 31
0.0
  0
LINE
  5
1C2
100
AcDbEntity
  8
レイヤー_1
  6
CONTINUOUS
 62
       3
100
AcDbLine
 10
-31.43617043
 20
34.91697938
 30
0.0
 11
-31.66711845
 21
34.96348961
 31
0.0
  0
LINE
  5
1C3
100
AcDbEntity
  8
レイヤー_1
  6
CONTINUOUS
 62
       3
100
AcDbLine
 10
-31.66711845
 20
34.96348961
 30
0.0
 11
-31.90549803
 21
34.98729754
 31
0.0
  0
LINE
  5
1C4
100
AcDbEntity
  8
レイヤー_1
  6
CONTINUOUS
 62
       3
100
AcDbLine
 10
-31.90549803
 20
34.98729754
 30
0.0
 11
-32.14873169
 21
34.98729754
 31
0.0
  0
LINE
  5
1C5
100
AcDbEntity
  8
レイヤー_1
  6
CONTINUOUS
 62
       3
100
AcDbLine
 10
-32.14873169
 20
34.98729754
 30
0.0
 11
-32.38711127
 21
34.96348961
 31
0.0
  0
LINE
  5
1C6
100
AcDbEntity
  8
レイヤー_1
  6
CONTINUOUS
 62
       3
100
AcDbLine
 10
-32.38711127
 20
34.96348961
 30
0.0
 11
-32.61805929
 21
34.91697938
 31
0.0
  0
LINE
  5
1C7
100
AcDbEntity
  8
レイヤー_1
  6
CONTINUOUS
 62
       3
100
AcDbLine
 10
-32.61805929
 20
34.91697938
 30
0.0
 11
-32.84042446
 21
34.84892058
 31
0.0
  0
LINE
  5
1C8
100
AcDbEntity
  8
レイヤー_1
  6
CONTINUOUS
 62
       3
100
AcDbLine
 10
-32.84042446
 20
34.84892058
 30
0.0
 11
-33.05305547
 21
34.76046691
 31
0.0
  0
LINE
  5
1C9
100
AcDbEntity
  8
レイヤー_1
  6
CONTINUOUS
 62
       3
100
AcDbLine
 10
-33.05305547
 20
34.76046691
 30
0.0
 11
-33.25480104
 21
34.65277209
 31
0.0
  0
LINE
  5
1CA
100
AcDbEntity
  8
レイヤー_1
  6
CONTINUOUS
 62
       3
100
AcDbLine
 10
-33.25480104
 20
34.65277209
 30
0.0
 11
-33.44450982
 21
34.52698983
 31
0.0
  0
LINE
  5
1CB
100
AcDbEntity
  8
レイヤー_1
  6
CONTINUOUS
 62
       3
100
AcDbLine
 10
-33.44450982
 20
34.52698983
 30
0.0
 11
-33.62103054
 21
34.38427385
 31
0.0
  0
LINE
  5
1CC
100
AcDbEntity
  8
レイヤー_1
  6
CONTINUOUS
 62
       3
100
AcDbLine
 10
-33.62103054
 20
34.38427385
 30
0.0
 11
-33.78321189
 21
34.22577785
 31
0.0
  0
LINE
  5
1CD
100
AcDbEntity
  8
レイヤー_1
  6
CONTINUOUS
 62
       3
100
AcDbLine
 10
-33.78321189
 20
34.22577785
 30
0.0
 11
-33.92990255
 21
34.05265556
 31
0.0
  0
LINE
  5
1CE
100
AcDbEntity
  8
レイヤー_1
  6
CONTINUOUS
 62
       3
100
AcDbLine
 10
-33.92990255
 20
34.05265556
 30
0.0
 11
-34.05995124
 21
33.86606068
 31
0.0
  0
LINE
  5
1CF
100
AcDbEntity
  8
レイヤー_1
  6
CONTINUOUS
 62
       3
100
AcDbLine
 10
-34.05995124
 20
33.86606068
 30
0.0
 11
-34.17220663
 21
33.66714694
 31
0.0
  0
LINE
  5
1D0
100
AcDbEntity
  8
レイヤー_1
  6
CONTINUOUS
 62
       3
100
AcDbLine
 10
-34.17220663
 20
33.66714694
 30
0.0
 11
-34.26551743
 21
33.45706803
 31
0.0
  0
LINE
  5
1D1
100
AcDbEntity
  8
レイヤー_1
  6
CONTINUOUS
 62
       3
100
AcDbLine
 10
-34.26551743
 20
33.45706803
 30
0.0
 11
-34.33873234
 21
33.23697768
 31
0.0
  0
LINE
  5
1D2
100
AcDbEntity
  8
レイヤー_1
  6
CONTINUOUS
 62
       3
100
AcDbLine
 10
-34.33873234
 20
33.23697768
 30
0.0
 11
-34.39070003
 21
33.0080296
 31
0.0
  0
LINE
  5
1D3
100
AcDbEntity
  8
レイヤー_1
  6
CONTINUOUS
 62
       3
100
AcDbLine
 10
-34.39070003
 20
33.0080296
 30
0.0
 11
-34.42026922
 21
32.7713775
 31
0.0
  0
LINE
  5
1D4
100
AcDbEntity
  8
レイヤー_1
  6
CONTINUOUS
 62
       3
100
AcDbLine
 10
-34.42026922
 20
32.7713775
 30
0.0
 11
-34.42629458
 21
32.52853071
 31
0.0
  0
LINE
  5
1D5
100
AcDbEntity
  8
レイヤー_1
  6
CONTINUOUS
 62
       3
100
AcDbLine
 10
-34.42629458
 20
32.52853071
 30
0.0
 11
-34.40835639
 21
32.2884662
 31
0.0
  0
LINE
  5
1D6
100
AcDbEntity
  8
レイヤー_1
  6
CONTINUOUS
 62
       3
100
AcDbLine
 10
-34.40835639
 20
32.2884662
 30
0.0
 11
-34.36744404
 21
32.05553713
 31
0.0
  0
LINE
  5
1D7
100
AcDbEntity
  8
レイヤー_1
  6
CONTINUOUS
 62
       3
100
AcDbLine
 10
-34.36744404
 20
32.05553713
 30
0.0
 11
-34.30470883
 21
31.830896
 31
0.0
  0
LINE
  5
1D8
100
AcDbEntity
  8
レイヤー_1
  6
CONTINUOUS
 62
       3
100
AcDbLine
 10
-34.30470883
 20
31.830896
 30
0.0
 11
-34.22130207
 21
31.61569533
 31
0.0
  0
LINE
  5
1D9
100
AcDbEntity
  8
レイヤー_1
  6
CONTINUOUS
 62
       3
100
AcDbLine
 10
-34.22130207
 20
31.61569533
 30
0.0
 11
-34.11837506
 21
31.41108763
 31
0.0
  0
LINE
  5
1DA
100
AcDbEntity
  8
レイヤー_1
  6
CONTINUOUS
 62
       3
100
AcDbLine
 10
-34.11837506
 20
31.41108763
 30
0.0
 11
-33.9970791
 21
31.21822541
 31
0.0
  0
LINE
  5
1DB
100
AcDbEntity
  8
レイヤー_1
  6
CONTINUOUS
 62
       3
100
AcDbLine
 10
-33.9970791
 20
31.21822541
 30
0.0
 11
-33.85856551
 21
31.03826118
 31
0.0
  0
LINE
  5
1DC
100
AcDbEntity
  8
レイヤー_1
  6
CONTINUOUS
 62
       3
100
AcDbLine
 10
-33.85856551
 20
31.03826118
 30
0.0
 11
-33.7039856
 21
30.87234743
 31
0.0
  0
LINE
  5
1DD
100
AcDbEntity
  8
レイヤー_1
  6
CONTINUOUS
 62
       3
100
AcDbLine
 10
-33.7039856
 20
30.87234743
 30
0.0
 11
-33.53449065
 21
30.7216367
 31
0.0
  0
LINE
  5
1DE
100
AcDbEntity
  8
レイヤー_1
  6
CONTINUOUS
 62
       3
100
AcDbLine
 10
-33.53449065
 20
30.7216367
 30
0.0
 11
-33.35123198
 21
30.58728147
 31
0.0
  0
LINE
  5
1DF
100
AcDbEntity
  8
レイヤー_1
  6
CONTINUOUS
 62
       3
100
AcDbLine
 10
-33.35123198
 20
30.58728147
 30
0.0
 11
-33.1553609
 21
30.47043427
 31
0.0
  0
LINE
  5
1E0
100
AcDbEntity
  8
レイヤー_1
  6
CONTINUOUS
 62
       3
100
AcDbLine
 10
-33.1553609
 20
30.47043427
 30
0.0
 11
-32.9480287
 21
30.3722476
 31
0.0
  0
LINE
  5
1E1
100
AcDbEntity
  8
レイヤー_1
  6
CONTINUOUS
 62
       3
100
AcDbLine
 10
-32.9480287
 20
30.3722476
 30
0.0
 11
-32.73038668
 21
30.29387397
 31
0.0
  0
LINE
  5
1E2
100
AcDbEntity
  8
レイヤー_1
  6
CONTINUOUS
 62
       3
100
AcDbLine
 10
-32.73038668
 20
30.29387397
 30
0.0
 11
-32.50358617
 21
30.23646589
 31
0.0
  0
LINE
  5
1E3
100
AcDbEntity
  8
レイヤー_1
  6
CONTINUOUS
 62
       3
100
AcDbLine
 10
-32.50358617
 20
30.23646589
 30
0.0
 11
-32.26877846
 21
30.20117587
 31
0.0
  0
LINE
  5
1E4
100
AcDbEntity
  8
レイヤー_1
  6
CONTINUOUS
 62
       3
100
AcDbLine
 10
-32.26877846
 20
30.20117587
 30
0.0
 11
-32.02711485
 21
30.18915642
 31
0.0
  0
LINE
  5
1E5
100
AcDbEntity
  8
レイヤー_1
  6
CONTINUOUS
 62
       3
100
AcDbLine
 10
-60.52623662
 20
30.18915642
 30
0.0
 11
-60.28471305
 21
30.20117587
 31
0.0
  0
LINE
  5
1E6
100
AcDbEntity
  8
レイヤー_1
  6
CONTINUOUS
 62
       3
100
AcDbLine
 10
-60.28471305
 20
30.20117587
 30
0.0
 11
-60.05000985
 21
30.23646589
 31
0.0
  0
LINE
  5
1E7
100
AcDbEntity
  8
レイヤー_1
  6
CONTINUOUS
 62
       3
100
AcDbLine
 10
-60.05000985
 20
30.23646589
 30
0.0
 11
-59.82328195
 21
30.29387397
 31
0.0
  0
LINE
  5
1E8
100
AcDbEntity
  8
レイヤー_1
  6
CONTINUOUS
 62
       3
100
AcDbLine
 10
-59.82328195
 20
30.29387397
 30
0.0
 11
-59.60568423
 21
30.3722476
 31
0.0
  0
LINE
  5
1E9
100
AcDbEntity
  8
レイヤー_1
  6
CONTINUOUS
 62
       3
100
AcDbLine
 10
-59.60568423
 20
30.3722476
 30
0.0
 11
-59.39837164
 21
30.47043427
 31
0.0
  0
LINE
  5
1EA
100
AcDbEntity
  8
レイヤー_1
  6
CONTINUOUS
 62
       3
100
AcDbLine
 10
-59.39837164
 20
30.47043427
 30
0.0
 11
-59.20249908
 21
30.58728147
 31
0.0
  0
LINE
  5
1EB
100
AcDbEntity
  8
レイヤー_1
  6
CONTINUOUS
 62
       3
100
AcDbLine
 10
-59.20249908
 20
30.58728147
 30
0.0
 11
-59.01922149
 21
30.7216367
 31
0.0
  0
LINE
  5
1EC
100
AcDbEntity
  8
レイヤー_1
  6
CONTINUOUS
 62
       3
100
AcDbLine
 10
-59.01922149
 20
30.7216367
 30
0.0
 11
-58.84969376
 21
30.87234743
 31
0.0
  0
LINE
  5
1ED
100
AcDbEntity
  8
レイヤー_1
  6
CONTINUOUS
 62
       3
100
AcDbLine
 10
-58.84969376
 20
30.87234743
 30
0.0
 11
-58.69507081
 21
31.03826118
 31
0.0
  0
LINE
  5
1EE
100
AcDbEntity
  8
レイヤー_1
  6
CONTINUOUS
 62
       3
100
AcDbLine
 10
-58.69507081
 20
31.03826118
 30
0.0
 11
-58.55650759
 21
31.21822541
 31
0.0
  0
LINE
  5
1EF
100
AcDbEntity
  8
レイヤー_1
  6
CONTINUOUS
 62
       3
100
AcDbLine
 10
-58.55650759
 20
31.21822541
 30
0.0
 11
-58.43515899
 21
31.41108763
 31
0.0
  0
LINE
  5
1F0
100
AcDbEntity
  8
レイヤー_1
  6
CONTINUOUS
 62
       3
100
AcDbLine
 10
-58.43515899
 20
31.41108763
 30
0.0
 11
-58.33217993
 21
31.61569533
 31
0.0
  0
LINE
  5
1F1
100
AcDbEntity
  8
レイヤー_1
  6
CONTINUOUS
 62
       3
100
AcDbLine
 10
-58.33217993
 20
31.61569533
 30
0.0
 11
-58.24872534
 21
31.830896
 31
0.0
  0
LINE
  5
1F2
100
AcDbEntity
  8
レイヤー_1
  6
CONTINUOUS
 62
       3
100
AcDbLine
 10
-58.24872534
 20
31.830896
 30
0.0
 11
-58.18595013
 21
32.05553713
 31
0.0
  0
LINE
  5
1F3
100
AcDbEntity
  8
レイヤー_1
  6
CONTINUOUS
 62
       3
100
AcDbLine
 10
-58.18595013
 20
32.05553713
 30
0.0
 11
-58.1450092
 21
32.2884662
 31
0.0
  0
LINE
  5
1F4
100
AcDbEntity
  8
レイヤー_1
  6
CONTINUOUS
 62
       3
100
AcDbLine
 10
-58.1450092
 20
32.2884662
 30
0.0
 11
-58.1270575
 21
32.52853071
 31
0.0
  0
LINE
  5
1F5
100
AcDbEntity
  8
レイヤー_1
  6
CONTINUOUS
 62
       3
100
AcDbLine
 10
-58.1270575
 20
32.52853071
 30
0.0
 11
-58.13308752
 21
32.7713775
 31
0.0
  0
LINE
  5
1F6
100
AcDbEntity
  8
レイヤー_1
  6
CONTINUOUS
 62
       3
100
AcDbLine
 10
-58.13308752
 20
32.7713775
 30
0.0
 11
-58.16267819
 21
33.0080296
 31
0.0
  0
LINE
  5
1F7
100
AcDbEntity
  8
レイヤー_1
  6
CONTINUOUS
 62
       3
100
AcDbLine
 10
-58.16267819
 20
33.0080296
 30
0.0
 11
-58.21468063
 21
33.23697768
 31
0.0
  0
LINE
  5
1F8
100
AcDbEntity
  8
レイヤー_1
  6
CONTINUOUS
 62
       3
100
AcDbLine
 10
-58.21468063
 20
33.23697768
 30
0.0
 11
-58.28793989
 21
33.45706803
 31
0.0
  0
LINE
  5
1F9
100
AcDbEntity
  8
レイヤー_1
  6
CONTINUOUS
 62
       3
100
AcDbLine
 10
-58.28793989
 20
33.45706803
 30
0.0
 11
-58.38130109
 21
33.66714694
 31
0.0
  0
LINE
  5
1FA
100
AcDbEntity
  8
レイヤー_1
  6
CONTINUOUS
 62
       3
100
AcDbLine
 10
-58.38130109
 20
33.66714694
 30
0.0
 11
-58.49360929
 21
33.86606068
 31
0.0
  0
LINE
  5
1FB
100
AcDbEntity
  8
レイヤー_1
  6
CONTINUOUS
 62
       3
100
AcDbLine
 10
-58.49360929
 20
33.86606068
 30
0.0
 11
-58.62370956
 21
34.05265556
 31
0.0
  0
LINE
  5
1FC
100
AcDbEntity
  8
レイヤー_1
  6
CONTINUOUS
 62
       3
100
AcDbLine
 10
-58.62370956
 20
34.05265556
 30
0.0
 11
-58.770447
 21
34.22577785
 31
0.0
  0
LINE
  5
1FD
100
AcDbEntity
  8
レイヤー_1
  6
CONTINUOUS
 62
       3
100
AcDbLine
 10
-58.770447
 20
34.22577785
 30
0.0
 11
-58.93266671
 21
34.38427385
 31
0.0
  0
LINE
  5
1FE
100
AcDbEntity
  8
レイヤー_1
  6
CONTINUOUS
 62
       3
100
AcDbLine
 10
-58.93266671
 20
34.38427385
 30
0.0
 11
-59.10921373
 21
34.52698983
 31
0.0
  0
LINE
  5
1FF
100
AcDbEntity
  8
レイヤー_1
  6
CONTINUOUS
 62
       3
100
AcDbLine
 10
-59.10921373
 20
34.52698983
 30
0.0
 11
-59.29893318
 21
34.65277209
 31
0.0
  0
LINE
  5
200
100
AcDbEntity
  8
レイヤー_1
  6
CONTINUOUS
 62
       3
100
AcDbLine
 10
-59.29893318
 20
34.65277209
 30
0.0
 11
-59.50067012
 21
34.76046691
 31
0.0
  0
LINE
  5
201
100
AcDbEntity
  8
レイヤー_1
  6
CONTINUOUS
 62
       3
100
AcDbLine
 10
-59.50067012
 20
34.76046691
 30
0.0
 11
-59.71326962
 21
34.84892058
 31
0.0
  0
LINE
  5
202
100
AcDbEntity
  8
レイヤー_1
  6
CONTINUOUS
 62
       3
100
AcDbLine
 10
-59.71326962
 20
34.84892058
 30
0.0
 11
-59.9355768
 21
34.91697938
 31
0.0
  0
LINE
  5
203
100
AcDbEntity
  8
レイヤー_1
  6
CONTINUOUS
 62
       3
100
AcDbLine
 10
-59.9355768
 20
34.91697938
 30
0.0
 11
-60.16643672
 21
34.96348961
 31
0.0
  0
LINE
  5
204
100
AcDbEntity
  8
レイヤー_1
  6
CONTINUOUS
 62
       3
100
AcDbLine
 10
-60.16643672
 20
34.96348961
 30
0.0
 11
-60.40469447
 21
34.98729754
 31
0.0
  0
LINE
  5
205
100
AcDbEntity
  8
レイヤー_1
  6
CONTINUOUS
 62
       3
100
AcDbLine
 10
-60.40469447
 20
34.98729754
 30
0.0
 11
-60.64785586
 21
34.98729754
 31
0.0
  0
LINE
  5
206
100
AcDbEntity
  8
レイヤー_1
  6
CONTINUOUS
 62
       3
100
AcDbLine
 10
-60.64785586
 20
34.98729754
 30
0.0
 11
-60.88625369
 21
34.96348961
 31
0.0
  0
LINE
  5
207
100
AcDbEntity
  8
レイヤー_1
  6
CONTINUOUS
 62
       3
100
AcDbLine
 10
-60.88625369
 20
34.96348961
 30
0.0
 11
-61.11723593
 21
34.91697938
 31
0.0
  0
LINE
  5
208
100
AcDbEntity
  8
レイヤー_1
  6
CONTINUOUS
 62
       3
100
AcDbLine
 10
-61.11723593
 20
34.91697938
 30
0.0
 11
-61.33964887
 21
34.84892058
 31
0.0
  0
LINE
  5
209
100
AcDbEntity
  8
レイヤー_1
  6
CONTINUOUS
 62
       3
100
AcDbLine
 10
-61.33964887
 20
34.84892058
 30
0.0
 11
-61.55233881
 21
34.76046691
 31
0.0
  0
LINE
  5
20A
100
AcDbEntity
  8
レイヤー_1
  6
CONTINUOUS
 62
       3
100
AcDbLine
 10
-61.55233881
 20
34.76046691
 30
0.0
 11
-61.754152
 21
34.65277209
 31
0.0
  0
LINE
  5
20B
100
AcDbEntity
  8
レイヤー_1
  6
CONTINUOUS
 62
       3
100
AcDbLine
 10
-61.754152
 20
34.65277209
 30
0.0
 11
-61.94393476
 21
34.52698983
 31
0.0
  0
LINE
  5
20C
100
AcDbEntity
  8
レイヤー_1
  6
CONTINUOUS
 62
       3
100
AcDbLine
 10
-61.94393476
 20
34.52698983
 30
0.0
 11
-62.12053335
 21
34.38427385
 31
0.0
  0
LINE
  5
20D
100
AcDbEntity
  8
レイヤー_1
  6
CONTINUOUS
 62
       3
100
AcDbLine
 10
-62.12053335
 20
34.38427385
 30
0.0
 11
-62.28279409
 21
34.22577785
 31
0.0
  0
LINE
  5
20E
100
AcDbEntity
  8
レイヤー_1
  6
CONTINUOUS
 62
       3
100
AcDbLine
 10
-62.28279409
 20
34.22577785
 30
0.0
 11
-62.42956324
 21
34.05265556
 31
0.0
  0
LINE
  5
20F
100
AcDbEntity
  8
レイヤー_1
  6
CONTINUOUS
 62
       3
100
AcDbLine
 10
-62.42956324
 20
34.05265556
 30
0.0
 11
-62.55968708
 21
33.86606068
 31
0.0
  0
LINE
  5
210
100
AcDbEntity
  8
レイヤー_1
  6
CONTINUOUS
 62
       3
100
AcDbLine
 10
-62.55968708
 20
33.86606068
 30
0.0
 11
-62.67201192
 21
33.66714694
 31
0.0
  0
LINE
  5
211
100
AcDbEntity
  8
レイヤー_1
  6
CONTINUOUS
 62
       3
100
AcDbLine
 10
-62.67201192
 20
33.66714694
 30
0.0
 11
-62.76538403
 21
33.45706803
 31
0.0
  0
LINE
  5
212
100
AcDbEntity
  8
レイヤー_1
  6
CONTINUOUS
 62
       3
100
AcDbLine
 10
-62.76538403
 20
33.45706803
 30
0.0
 11
-62.83864972
 21
33.23697768
 31
0.0
  0
LINE
  5
213
100
AcDbEntity
  8
レイヤー_1
  6
CONTINUOUS
 62
       3
100
AcDbLine
 10
-62.83864972
 20
33.23697768
 30
0.0
 11
-62.89065525
 21
33.0080296
 31
0.0
  0
LINE
  5
214
100
AcDbEntity
  8
レイヤー_1
  6
CONTINUOUS
 62
       3
100
AcDbLine
 10
-62.89065525
 20
33.0080296
 30
0.0
 11
-62.92024691
 21
32.7713775
 31
0.0
  0
LINE
  5
215
100
AcDbEntity
  8
レイヤー_1
  6
CONTINUOUS
 62
       3
100
AcDbLine
 10
-62.92024691
 20
32.7713775
 30
0.0
 11
-62.92627701
 21
32.52853071
 31
0.0
  0
LINE
  5
216
100
AcDbEntity
  8
レイヤー_1
  6
CONTINUOUS
 62
       3
100
AcDbLine
 10
-62.92627701
 20
32.52853071
 30
0.0
 11
-62.90832493
 21
32.2884662
 31
0.0
  0
LINE
  5
217
100
AcDbEntity
  8
レイヤー_1
  6
CONTINUOUS
 62
       3
100
AcDbLine
 10
-62.90832493
 20
32.2884662
 30
0.0
 11
-62.86738211
 21
32.05553713
 31
0.0
  0
LINE
  5
218
100
AcDbEntity
  8
レイヤー_1
  6
CONTINUOUS
 62
       3
100
AcDbLine
 10
-62.86738211
 20
32.05553713
 30
0.0
 11
-62.80460229
 21
31.830896
 31
0.0
  0
LINE
  5
219
100
AcDbEntity
  8
レイヤー_1
  6
CONTINUOUS
 62
       3
100
AcDbLine
 10
-62.80460229
 20
31.830896
 30
0.0
 11
-62.72113918
 21
31.61569533
 31
0.0
  0
LINE
  5
21A
100
AcDbEntity
  8
レイヤー_1
  6
CONTINUOUS
 62
       3
100
AcDbLine
 10
-62.72113918
 20
31.61569533
 30
0.0
 11
-62.61814648
 21
31.41108763
 31
0.0
  0
LINE
  5
21B
100
AcDbEntity
  8
レイヤー_1
  6
CONTINUOUS
 62
       3
100
AcDbLine
 10
-62.61814648
 20
31.41108763
 30
0.0
 11
-62.49677793
 21
31.21822541
 31
0.0
  0
LINE
  5
21C
100
AcDbEntity
  8
レイヤー_1
  6
CONTINUOUS
 62
       3
100
AcDbLine
 10
-62.49677793
 20
31.21822541
 30
0.0
 11
-62.35818722
 21
31.03826118
 31
0.0
  0
LINE
  5
21D
100
AcDbEntity
  8
レイヤー_1
  6
CONTINUOUS
 62
       3
100
AcDbLine
 10
-62.35818722
 20
31.03826118
 30
0.0
 11
-62.20352807
 21
30.87234743
 31
0.0
  0
LINE
  5
21E
100
AcDbEntity
  8
レイヤー_1
  6
CONTINUOUS
 62
       3
100
AcDbLine
 10
-62.20352807
 20
30.87234743
 30
0.0
 11
-62.03395418
 21
30.7216367
 31
0.0
  0
LINE
  5
21F
100
AcDbEntity
  8
レイヤー_1
  6
CONTINUOUS
 62
       3
100
AcDbLine
 10
-62.03395418
 20
30.7216367
 30
0.0
 11
-61.8506193
 21
30.58728147
 31
0.0
  0
LINE
  5
220
100
AcDbEntity
  8
レイヤー_1
  6
CONTINUOUS
 62
       3
100
AcDbLine
 10
-61.8506193
 20
30.58728147
 30
0.0
 11
-61.65467711
 21
30.47043427
 31
0.0
  0
LINE
  5
221
100
AcDbEntity
  8
レイヤー_1
  6
CONTINUOUS
 62
       3
100
AcDbLine
 10
-61.65467711
 20
30.47043427
 30
0.0
 11
-61.44728133
 21
30.3722476
 31
0.0
  0
LINE
  5
222
100
AcDbEntity
  8
レイヤー_1
  6
CONTINUOUS
 62
       3
100
AcDbLine
 10
-61.44728133
 20
30.3722476
 30
0.0
 11
-61.22958567
 21
30.29387397
 31
0.0
  0
LINE
  5
223
100
AcDbEntity
  8
レイヤー_1
  6
CONTINUOUS
 62
       3
100
AcDbLine
 10
-61.22958567
 20
30.29387397
 30
0.0
 11
-61.00274386
 21
30.23646589
 31
0.0
  0
LINE
  5
224
100
AcDbEntity
  8
レイヤー_1
  6
CONTINUOUS
 62
       3
100
AcDbLine
 10
-61.00274386
 20
30.23646589
 30
0.0
 11
-60.76790961
 21
30.20117587
 31
0.0
  0
LINE
  5
225
100
AcDbEntity
  8
レイヤー_1
  6
CONTINUOUS
 62
       3
100
AcDbLine
 10
-60.76790961
 20
30.20117587
 30
0.0
 11
-60.52623662
 21
30.18915642
 31
0.0
  0
LINE
  5
226
100
AcDbEntity
  8
レイヤー_1
  6
CONTINUOUS
 62
       3
100
AcDbLine
 10
-70.02651807
 20
30.18915642
 30
0.0
 11
-69.78485914
 21
30.20117587
 31
0.0
  0
LINE
  5
227
100
AcDbEntity
  8
レイヤー_1
  6
CONTINUOUS
 62
       3
100
AcDbLine
 10
-69.78485914
 20
30.20117587
 30
0.0
 11
-69.55006472
 21
30.23646589
 31
0.0
  0
LINE
  5
228
100
AcDbEntity
  8
レイヤー_1
  6
CONTINUOUS
 62
       3
100
AcDbLine
 10
-69.55006472
 20
30.23646589
 30
0.0
 11
-69.32328485
 21
30.29387397
 31
0.0
  0
LINE
  5
229
100
AcDbEntity
  8
レイヤー_1
  6
CONTINUOUS
 62
       3
100
AcDbLine
 10
-69.32328485
 20
30.29387397
 30
0.0
 11
-69.10566966
 21
30.3722476
 31
0.0
  0
LINE
  5
22A
100
AcDbEntity
  8
レイヤー_1
  6
CONTINUOUS
 62
       3
100
AcDbLine
 10
-69.10566966
 20
30.3722476
 30
0.0
 11
-68.89836924
 21
30.47043427
 31
0.0
  0
LINE
  5
22B
100
AcDbEntity
  8
レイヤー_1
  6
CONTINUOUS
 62
       3
100
AcDbLine
 10
-68.89836924
 20
30.47043427
 30
0.0
 11
-68.70253372
 21
30.58728147
 31
0.0
  0
LINE
  5
22C
100
AcDbEntity
  8
レイヤー_1
  6
CONTINUOUS
 62
       3
100
AcDbLine
 10
-68.70253372
 20
30.58728147
 30
0.0
 11
-68.51931316
 21
30.7216367
 31
0.0
  0
LINE
  5
22D
100
AcDbEntity
  8
レイヤー_1
  6
CONTINUOUS
 62
       3
100
AcDbLine
 10
-68.51931316
 20
30.7216367
 30
0.0
 11
-68.34985767
 21
30.87234743
 31
0.0
  0
LINE
  5
22E
100
AcDbEntity
  8
レイヤー_1
  6
CONTINUOUS
 62
       3
100
AcDbLine
 10
-68.34985767
 20
30.87234743
 30
0.0
 11
-68.19531738
 21
31.03826118
 31
0.0
  0
LINE
  5
22F
100
AcDbEntity
  8
レイヤー_1
  6
CONTINUOUS
 62
       3
100
AcDbLine
 10
-68.19531738
 20
31.03826118
 30
0.0
 11
-68.05684234
 21
31.21822541
 31
0.0
  0
LINE
  5
230
100
AcDbEntity
  8
レイヤー_1
  6
CONTINUOUS
 62
       3
100
AcDbLine
 10
-68.05684234
 20
31.21822541
 30
0.0
 11
-67.93558269
 21
31.41108763
 31
0.0
  0
LINE
  5
231
100
AcDbEntity
  8
レイヤー_1
  6
CONTINUOUS
 62
       3
100
AcDbLine
 10
-67.93558269
 20
31.41108763
 30
0.0
 11
-67.83268854
 21
31.61569533
 31
0.0
  0
LINE
  5
232
100
AcDbEntity
  8
レイヤー_1
  6
CONTINUOUS
 62
       3
100
AcDbLine
 10
-67.83268854
 20
31.61569533
 30
0.0
 11
-67.74930994
 21
31.830896
 31
0.0
  0
LINE
  5
233
100
AcDbEntity
  8
レイヤー_1
  6
CONTINUOUS
 62
       3
100
AcDbLine
 10
-67.74930994
 20
31.830896
 30
0.0
 11
-67.68659704
 21
32.05553713
 31
0.0
  0
LINE
  5
234
100
AcDbEntity
  8
レイヤー_1
  6
CONTINUOUS
 62
       3
100
AcDbLine
 10
-67.68659704
 20
32.05553713
 30
0.0
 11
-67.64569991
 21
32.2884662
 31
0.0
  0
LINE
  5
235
100
AcDbEntity
  8
レイヤー_1
  6
CONTINUOUS
 62
       3
100
AcDbLine
 10
-67.64569991
 20
32.2884662
 30
0.0
 11
-67.62776867
 21
32.52853071
 31
0.0
  0
LINE
  5
236
100
AcDbEntity
  8
レイヤー_1
  6
CONTINUOUS
 62
       3
100
AcDbLine
 10
-67.62776867
 20
32.52853071
 30
0.0
 11
-67.63379167
 21
32.7713775
 31
0.0
  0
LINE
  5
237
100
AcDbEntity
  8
レイヤー_1
  6
CONTINUOUS
 62
       3
100
AcDbLine
 10
-67.63379167
 20
32.7713775
 30
0.0
 11
-67.66334962
 21
33.0080296
 31
0.0
  0
LINE
  5
238
100
AcDbEntity
  8
レイヤー_1
  6
CONTINUOUS
 62
       3
100
AcDbLine
 10
-67.66334962
 20
33.0080296
 30
0.0
 11
-67.7152984
 21
33.23697768
 31
0.0
  0
LINE
  5
239
100
AcDbEntity
  8
レイヤー_1
  6
CONTINUOUS
 62
       3
100
AcDbLine
 10
-67.7152984
 20
33.23697768
 30
0.0
 11
-67.78848792
 21
33.45706803
 31
0.0
  0
LINE
  5
23A
100
AcDbEntity
  8
レイヤー_1
  6
CONTINUOUS
 62
       3
100
AcDbLine
 10
-67.78848792
 20
33.45706803
 30
0.0
 11
-67.88176805
 21
33.66714694
 31
0.0
  0
LINE
  5
23B
100
AcDbEntity
  8
レイヤー_1
  6
CONTINUOUS
 62
       3
100
AcDbLine
 10
-67.88176805
 20
33.66714694
 30
0.0
 11
-67.99398872
 21
33.86606068
 31
0.0
  0
LINE
  5
23C
100
AcDbEntity
  8
レイヤー_1
  6
CONTINUOUS
 62
       3
100
AcDbLine
 10
-67.99398872
 20
33.86606068
 30
0.0
 11
-68.12399982
 21
34.05265556
 31
0.0
  0
LINE
  5
23D
100
AcDbEntity
  8
レイヤー_1
  6
CONTINUOUS
 62
       3
100
AcDbLine
 10
-68.12399982
 20
34.05265556
 30
0.0
 11
-68.27065124
 21
34.22577785
 31
0.0
  0
LINE
  5
23E
100
AcDbEntity
  8
レイヤー_1
  6
CONTINUOUS
 62
       3
100
AcDbLine
 10
-68.27065124
 20
34.22577785
 30
0.0
 11
-68.4327929
 21
34.38427385
 31
0.0
  0
LINE
  5
23F
100
AcDbEntity
  8
レイヤー_1
  6
CONTINUOUS
 62
       3
100
AcDbLine
 10
-68.4327929
 20
34.38427385
 30
0.0
 11
-68.60927469
 21
34.52698983
 31
0.0
  0
LINE
  5
240
100
AcDbEntity
  8
レイヤー_1
  6
CONTINUOUS
 62
       3
100
AcDbLine
 10
-68.60927469
 20
34.52698983
 30
0.0
 11
-68.79894649
 21
34.65277209
 31
0.0
  0
LINE
  5
241
100
AcDbEntity
  8
レイヤー_1
  6
CONTINUOUS
 62
       3
100
AcDbLine
 10
-68.79894649
 20
34.65277209
 30
0.0
 11
-69.00065822
 21
34.76046691
 31
0.0
  0
LINE
  5
242
100
AcDbEntity
  8
レイヤー_1
  6
CONTINUOUS
 62
       3
100
AcDbLine
 10
-69.00065822
 20
34.76046691
 30
0.0
 11
-69.21325979
 21
34.84892058
 31
0.0
  0
LINE
  5
243
100
AcDbEntity
  8
レイヤー_1
  6
CONTINUOUS
 62
       3
100
AcDbLine
 10
-69.21325979
 20
34.84892058
 30
0.0
 11
-69.43560107
 21
34.91697938
 31
0.0
  0
LINE
  5
244
100
AcDbEntity
  8
レイヤー_1
  6
CONTINUOUS
 62
       3
100
AcDbLine
 10
-69.43560107
 20
34.91697938
 30
0.0
 11
-69.666532
 21
34.96348961
 31
0.0
  0
LINE
  5
245
100
AcDbEntity
  8
レイヤー_1
  6
CONTINUOUS
 62
       3
100
AcDbLine
 10
-69.666532
 20
34.96348961
 30
0.0
 11
-69.90490243
 21
34.98729754
 31
0.0
  0
LINE
  5
246
100
AcDbEntity
  8
レイヤー_1
  6
CONTINUOUS
 62
       3
100
AcDbLine
 10
-69.90490243
 20
34.98729754
 30
0.0
 11
-70.14813489
 21
34.98729754
 31
0.0
  0
LINE
  5
247
100
AcDbEntity
  8
レイヤー_1
  6
CONTINUOUS
 62
       3
100
AcDbLine
 10
-70.14813489
 20
34.98729754
 30
0.0
 11
-70.38651447
 21
34.96348961
 31
0.0
  0
LINE
  5
248
100
AcDbEntity
  8
レイヤー_1
  6
CONTINUOUS
 62
       3
100
AcDbLine
 10
-70.38651447
 20
34.96348961
 30
0.0
 11
-70.61746249
 21
34.91697938
 31
0.0
  0
LINE
  5
249
100
AcDbEntity
  8
レイヤー_1
  6
CONTINUOUS
 62
       3
100
AcDbLine
 10
-70.61746249
 20
34.91697938
 30
0.0
 11
-70.83982767
 21
34.84892058
 31
0.0
  0
LINE
  5
24A
100
AcDbEntity
  8
レイヤー_1
  6
CONTINUOUS
 62
       3
100
AcDbLine
 10
-70.83982767
 20
34.84892058
 30
0.0
 11
-71.05245867
 21
34.76046691
 31
0.0
  0
LINE
  5
24B
100
AcDbEntity
  8
レイヤー_1
  6
CONTINUOUS
 62
       3
100
AcDbLine
 10
-71.05245867
 20
34.76046691
 30
0.0
 11
-71.25420424
 21
34.65277209
 31
0.0
  0
LINE
  5
24C
100
AcDbEntity
  8
レイヤー_1
  6
CONTINUOUS
 62
       3
100
AcDbLine
 10
-71.25420424
 20
34.65277209
 30
0.0
 11
-71.44391303
 21
34.52698983
 31
0.0
  0
LINE
  5
24D
100
AcDbEntity
  8
レイヤー_1
  6
CONTINUOUS
 62
       3
100
AcDbLine
 10
-71.44391303
 20
34.52698983
 30
0.0
 11
-71.62043375
 21
34.38427385
 31
0.0
  0
LINE
  5
24E
100
AcDbEntity
  8
レイヤー_1
  6
CONTINUOUS
 62
       3
100
AcDbLine
 10
-71.62043375
 20
34.38427385
 30
0.0
 11
-71.78261509
 21
34.22577785
 31
0.0
  0
LINE
  5
24F
100
AcDbEntity
  8
レイヤー_1
  6
CONTINUOUS
 62
       3
100
AcDbLine
 10
-71.78261509
 20
34.22577785
 30
0.0
 11
-71.92930576
 21
34.05265556
 31
0.0
  0
LINE
  5
250
100
AcDbEntity
  8
レイヤー_1
  6
CONTINUOUS
 62
       3
100
AcDbLine
 10
-71.92930576
 20
34.05265556
 30
0.0
 11
-72.05935444
 21
33.86606068
 31
0.0
  0
LINE
  5
251
100
AcDbEntity
  8
レイヤー_1
  6
CONTINUOUS
 62
       3
100
AcDbLine
 10
-72.05935444
 20
33.86606068
 30
0.0
 11
-72.17160983
 21
33.66714694
 31
0.0
  0
LINE
  5
252
100
AcDbEntity
  8
レイヤー_1
  6
CONTINUOUS
 62
       3
100
AcDbLine
 10
-72.17160983
 20
33.66714694
 30
0.0
 11
-72.26492063
 21
33.45706803
 31
0.0
  0
LINE
  5
253
100
AcDbEntity
  8
レイヤー_1
  6
CONTINUOUS
 62
       3
100
AcDbLine
 10
-72.26492063
 20
33.45706803
 30
0.0
 11
-72.33813553
 21
33.23697768
 31
0.0
  0
LINE
  5
254
100
AcDbEntity
  8
レイヤー_1
  6
CONTINUOUS
 62
       3
100
AcDbLine
 10
-72.33813553
 20
33.23697768
 30
0.0
 11
-72.39010323
 21
33.0080296
 31
0.0
  0
LINE
  5
255
100
AcDbEntity
  8
レイヤー_1
  6
CONTINUOUS
 62
       3
100
AcDbLine
 10
-72.39010323
 20
33.0080296
 30
0.0
 11
-72.41967241
 21
32.7713775
 31
0.0
  0
LINE
  5
256
100
AcDbEntity
  8
レイヤー_1
  6
CONTINUOUS
 62
       3
100
AcDbLine
 10
-72.41967241
 20
32.7713775
 30
0.0
 11
-72.42569778
 21
32.52853071
 31
0.0
  0
LINE
  5
257
100
AcDbEntity
  8
レイヤー_1
  6
CONTINUOUS
 62
       3
100
AcDbLine
 10
-72.42569778
 20
32.52853071
 30
0.0
 11
-72.4077596
 21
32.2884662
 31
0.0
  0
LINE
  5
258
100
AcDbEntity
  8
レイヤー_1
  6
CONTINUOUS
 62
       3
100
AcDbLine
 10
-72.4077596
 20
32.2884662
 30
0.0
 11
-72.36684723
 21
32.05553713
 31
0.0
  0
LINE
  5
259
100
AcDbEntity
  8
レイヤー_1
  6
CONTINUOUS
 62
       3
100
AcDbLine
 10
-72.36684723
 20
32.05553713
 30
0.0
 11
-72.30411202
 21
31.830896
 31
0.0
  0
LINE
  5
25A
100
AcDbEntity
  8
レイヤー_1
  6
CONTINUOUS
 62
       3
100
AcDbLine
 10
-72.30411202
 20
31.830896
 30
0.0
 11
-72.22070526
 21
31.61569533
 31
0.0
  0
LINE
  5
25B
100
AcDbEntity
  8
レイヤー_1
  6
CONTINUOUS
 62
       3
100
AcDbLine
 10
-72.22070526
 20
31.61569533
 30
0.0
 11
-72.11777826
 21
31.41108763
 31
0.0
  0
LINE
  5
25C
100
AcDbEntity
  8
レイヤー_1
  6
CONTINUOUS
 62
       3
100
AcDbLine
 10
-72.11777826
 20
31.41108763
 30
0.0
 11
-71.99648231
 21
31.21822541
 31
0.0
  0
LINE
  5
25D
100
AcDbEntity
  8
レイヤー_1
  6
CONTINUOUS
 62
       3
100
AcDbLine
 10
-71.99648231
 20
31.21822541
 30
0.0
 11
-71.85796871
 21
31.03826118
 31
0.0
  0
LINE
  5
25E
100
AcDbEntity
  8
レイヤー_1
  6
CONTINUOUS
 62
       3
100
AcDbLine
 10
-71.85796871
 20
31.03826118
 30
0.0
 11
-71.70338879
 21
30.87234743
 31
0.0
  0
LINE
  5
25F
100
AcDbEntity
  8
レイヤー_1
  6
CONTINUOUS
 62
       3
100
AcDbLine
 10
-71.70338879
 20
30.87234743
 30
0.0
 11
-71.53389386
 21
30.7216367
 31
0.0
  0
LINE
  5
260
100
AcDbEntity
  8
レイヤー_1
  6
CONTINUOUS
 62
       3
100
AcDbLine
 10
-71.53389386
 20
30.7216367
 30
0.0
 11
-71.35063519
 21
30.58728147
 31
0.0
  0
LINE
  5
261
100
AcDbEntity
  8
レイヤー_1
  6
CONTINUOUS
 62
       3
100
AcDbLine
 10
-71.35063519
 20
30.58728147
 30
0.0
 11
-71.1547641
 21
30.47043427
 31
0.0
  0
LINE
  5
262
100
AcDbEntity
  8
レイヤー_1
  6
CONTINUOUS
 62
       3
100
AcDbLine
 10
-71.1547641
 20
30.47043427
 30
0.0
 11
-70.94743189
 21
30.3722476
 31
0.0
  0
LINE
  5
263
100
AcDbEntity
  8
レイヤー_1
  6
CONTINUOUS
 62
       3
100
AcDbLine
 10
-70.94743189
 20
30.3722476
 30
0.0
 11
-70.72978989
 21
30.29387397
 31
0.0
  0
LINE
  5
264
100
AcDbEntity
  8
レイヤー_1
  6
CONTINUOUS
 62
       3
100
AcDbLine
 10
-70.72978989
 20
30.29387397
 30
0.0
 11
-70.50298937
 21
30.23646589
 31
0.0
  0
LINE
  5
265
100
AcDbEntity
  8
レイヤー_1
  6
CONTINUOUS
 62
       3
100
AcDbLine
 10
-70.50298937
 20
30.23646589
 30
0.0
 11
-70.26818167
 21
30.20117587
 31
0.0
  0
LINE
  5
266
100
AcDbEntity
  8
レイヤー_1
  6
CONTINUOUS
 62
       3
100
AcDbLine
 10
-70.26818167
 20
30.20117587
 30
0.0
 11
-70.02651807
 21
30.18915642
 31
0.0
  0
LINE
  5
267
100
AcDbEntity
  8
レイヤー_1
  6
CONTINUOUS
 62
       3
100
AcDbLine
 10
-41.52653503
 20
30.18915642
 30
0.0
 11
-41.28501146
 21
30.20117587
 31
0.0
  0
LINE
  5
268
100
AcDbEntity
  8
レイヤー_1
  6
CONTINUOUS
 62
       3
100
AcDbLine
 10
-41.28501146
 20
30.20117587
 30
0.0
 11
-41.05030826
 21
30.23646589
 31
0.0
  0
LINE
  5
269
100
AcDbEntity
  8
レイヤー_1
  6
CONTINUOUS
 62
       3
100
AcDbLine
 10
-41.05030826
 20
30.23646589
 30
0.0
 11
-40.82358034
 21
30.29387397
 31
0.0
  0
LINE
  5
26A
100
AcDbEntity
  8
レイヤー_1
  6
CONTINUOUS
 62
       3
100
AcDbLine
 10
-40.82358034
 20
30.29387397
 30
0.0
 11
-40.60598262
 21
30.3722476
 31
0.0
  0
LINE
  5
26B
100
AcDbEntity
  8
レイヤー_1
  6
CONTINUOUS
 62
       3
100
AcDbLine
 10
-40.60598262
 20
30.3722476
 30
0.0
 11
-40.39867003
 21
30.47043427
 31
0.0
  0
LINE
  5
26C
100
AcDbEntity
  8
レイヤー_1
  6
CONTINUOUS
 62
       3
100
AcDbLine
 10
-40.39867003
 20
30.47043427
 30
0.0
 11
-40.20279747
 21
30.58728147
 31
0.0
  0
LINE
  5
26D
100
AcDbEntity
  8
レイヤー_1
  6
CONTINUOUS
 62
       3
100
AcDbLine
 10
-40.20279747
 20
30.58728147
 30
0.0
 11
-40.01951988
 21
30.7216367
 31
0.0
  0
LINE
  5
26E
100
AcDbEntity
  8
レイヤー_1
  6
CONTINUOUS
 62
       3
100
AcDbLine
 10
-40.01951988
 20
30.7216367
 30
0.0
 11
-39.84999215
 21
30.87234743
 31
0.0
  0
LINE
  5
26F
100
AcDbEntity
  8
レイヤー_1
  6
CONTINUOUS
 62
       3
100
AcDbLine
 10
-39.84999215
 20
30.87234743
 30
0.0
 11
-39.69536921
 21
31.03826118
 31
0.0
  0
LINE
  5
270
100
AcDbEntity
  8
レイヤー_1
  6
CONTINUOUS
 62
       3
100
AcDbLine
 10
-39.69536921
 20
31.03826118
 30
0.0
 11
-39.556806
 21
31.21822541
 31
0.0
  0
LINE
  5
271
100
AcDbEntity
  8
レイヤー_1
  6
CONTINUOUS
 62
       3
100
AcDbLine
 10
-39.556806
 20
31.21822541
 30
0.0
 11
-39.4354574
 21
31.41108763
 31
0.0
  0
LINE
  5
272
100
AcDbEntity
  8
レイヤー_1
  6
CONTINUOUS
 62
       3
100
AcDbLine
 10
-39.4354574
 20
31.41108763
 30
0.0
 11
-39.33247834
 21
31.61569533
 31
0.0
  0
LINE
  5
273
100
AcDbEntity
  8
レイヤー_1
  6
CONTINUOUS
 62
       3
100
AcDbLine
 10
-39.33247834
 20
31.61569533
 30
0.0
 11
-39.24902373
 21
31.830896
 31
0.0
  0
LINE
  5
274
100
AcDbEntity
  8
レイヤー_1
  6
CONTINUOUS
 62
       3
100
AcDbLine
 10
-39.24902373
 20
31.830896
 30
0.0
 11
-39.18624852
 21
32.05553713
 31
0.0
  0
LINE
  5
275
100
AcDbEntity
  8
レイヤー_1
  6
CONTINUOUS
 62
       3
100
AcDbLine
 10
-39.18624852
 20
32.05553713
 30
0.0
 11
-39.1453076
 21
32.2884662
 31
0.0
  0
LINE
  5
276
100
AcDbEntity
  8
レイヤー_1
  6
CONTINUOUS
 62
       3
100
AcDbLine
 10
-39.1453076
 20
32.2884662
 30
0.0
 11
-39.12735589
 21
32.52853071
 31
0.0
  0
LINE
  5
277
100
AcDbEntity
  8
レイヤー_1
  6
CONTINUOUS
 62
       3
100
AcDbLine
 10
-39.12735589
 20
32.52853071
 30
0.0
 11
-39.13338592
 21
32.7713775
 31
0.0
  0
LINE
  5
278
100
AcDbEntity
  8
レイヤー_1
  6
CONTINUOUS
 62
       3
100
AcDbLine
 10
-39.13338592
 20
32.7713775
 30
0.0
 11
-39.1629766
 21
33.0080296
 31
0.0
  0
LINE
  5
279
100
AcDbEntity
  8
レイヤー_1
  6
CONTINUOUS
 62
       3
100
AcDbLine
 10
-39.1629766
 20
33.0080296
 30
0.0
 11
-39.21497903
 21
33.23697768
 31
0.0
  0
LINE
  5
27A
100
AcDbEntity
  8
レイヤー_1
  6
CONTINUOUS
 62
       3
100
AcDbLine
 10
-39.21497903
 20
33.23697768
 30
0.0
 11
-39.28823829
 21
33.45706803
 31
0.0
  0
LINE
  5
27B
100
AcDbEntity
  8
レイヤー_1
  6
CONTINUOUS
 62
       3
100
AcDbLine
 10
-39.28823829
 20
33.45706803
 30
0.0
 11
-39.38159948
 21
33.66714694
 31
0.0
  0
LINE
  5
27C
100
AcDbEntity
  8
レイヤー_1
  6
CONTINUOUS
 62
       3
100
AcDbLine
 10
-39.38159948
 20
33.66714694
 30
0.0
 11
-39.49390768
 21
33.86606068
 31
0.0
  0
LINE
  5
27D
100
AcDbEntity
  8
レイヤー_1
  6
CONTINUOUS
 62
       3
100
AcDbLine
 10
-39.49390768
 20
33.86606068
 30
0.0
 11
-39.62400795
 21
34.05265556
 31
0.0
  0
LINE
  5
27E
100
AcDbEntity
  8
レイヤー_1
  6
CONTINUOUS
 62
       3
100
AcDbLine
 10
-39.62400795
 20
34.05265556
 30
0.0
 11
-39.77074541
 21
34.22577785
 31
0.0
  0
LINE
  5
27F
100
AcDbEntity
  8
レイヤー_1
  6
CONTINUOUS
 62
       3
100
AcDbLine
 10
-39.77074541
 20
34.22577785
 30
0.0
 11
-39.9329651
 21
34.38427385
 31
0.0
  0
LINE
  5
280
100
AcDbEntity
  8
レイヤー_1
  6
CONTINUOUS
 62
       3
100
AcDbLine
 10
-39.9329651
 20
34.38427385
 30
0.0
 11
-40.10951212
 21
34.52698983
 31
0.0
  0
LINE
  5
281
100
AcDbEntity
  8
レイヤー_1
  6
CONTINUOUS
 62
       3
100
AcDbLine
 10
-40.10951212
 20
34.52698983
 30
0.0
 11
-40.29923157
 21
34.65277209
 31
0.0
  0
LINE
  5
282
100
AcDbEntity
  8
レイヤー_1
  6
CONTINUOUS
 62
       3
100
AcDbLine
 10
-40.29923157
 20
34.65277209
 30
0.0
 11
-40.50096851
 21
34.76046691
 31
0.0
  0
LINE
  5
283
100
AcDbEntity
  8
レイヤー_1
  6
CONTINUOUS
 62
       3
100
AcDbLine
 10
-40.50096851
 20
34.76046691
 30
0.0
 11
-40.71356803
 21
34.84892058
 31
0.0
  0
LINE
  5
284
100
AcDbEntity
  8
レイヤー_1
  6
CONTINUOUS
 62
       3
100
AcDbLine
 10
-40.71356803
 20
34.84892058
 30
0.0
 11
-40.93587521
 21
34.91697938
 31
0.0
  0
LINE
  5
285
100
AcDbEntity
  8
レイヤー_1
  6
CONTINUOUS
 62
       3
100
AcDbLine
 10
-40.93587521
 20
34.91697938
 30
0.0
 11
-41.16673513
 21
34.96348961
 31
0.0
  0
LINE
  5
286
100
AcDbEntity
  8
レイヤー_1
  6
CONTINUOUS
 62
       3
100
AcDbLine
 10
-41.16673513
 20
34.96348961
 30
0.0
 11
-41.40499288
 21
34.98729754
 31
0.0
  0
LINE
  5
287
100
AcDbEntity
  8
レイヤー_1
  6
CONTINUOUS
 62
       3
100
AcDbLine
 10
-41.40499288
 20
34.98729754
 30
0.0
 11
-41.64815425
 21
34.98729754
 31
0.0
  0
LINE
  5
288
100
AcDbEntity
  8
レイヤー_1
  6
CONTINUOUS
 62
       3
100
AcDbLine
 10
-41.64815425
 20
34.98729754
 30
0.0
 11
-41.88655209
 21
34.96348961
 31
0.0
  0
LINE
  5
289
100
AcDbEntity
  8
レイヤー_1
  6
CONTINUOUS
 62
       3
100
AcDbLine
 10
-41.88655209
 20
34.96348961
 30
0.0
 11
-42.11753434
 21
34.91697938
 31
0.0
  0
LINE
  5
28A
100
AcDbEntity
  8
レイヤー_1
  6
CONTINUOUS
 62
       3
100
AcDbLine
 10
-42.11753434
 20
34.91697938
 30
0.0
 11
-42.33994728
 21
34.84892058
 31
0.0
  0
LINE
  5
28B
100
AcDbEntity
  8
レイヤー_1
  6
CONTINUOUS
 62
       3
100
AcDbLine
 10
-42.33994728
 20
34.84892058
 30
0.0
 11
-42.5526372
 21
34.76046691
 31
0.0
  0
LINE
  5
28C
100
AcDbEntity
  8
レイヤー_1
  6
CONTINUOUS
 62
       3
100
AcDbLine
 10
-42.5526372
 20
34.76046691
 30
0.0
 11
-42.75445041
 21
34.65277209
 31
0.0
  0
LINE
  5
28D
100
AcDbEntity
  8
レイヤー_1
  6
CONTINUOUS
 62
       3
100
AcDbLine
 10
-42.75445041
 20
34.65277209
 30
0.0
 11
-42.94423315
 21
34.52698983
 31
0.0
  0
LINE
  5
28E
100
AcDbEntity
  8
レイヤー_1
  6
CONTINUOUS
 62
       3
100
AcDbLine
 10
-42.94423315
 20
34.52698983
 30
0.0
 11
-43.12083175
 21
34.38427385
 31
0.0
  0
LINE
  5
28F
100
AcDbEntity
  8
レイヤー_1
  6
CONTINUOUS
 62
       3
100
AcDbLine
 10
-43.12083175
 20
34.38427385
 30
0.0
 11
-43.28309248
 21
34.22577785
 31
0.0
  0
LINE
  5
290
100
AcDbEntity
  8
レイヤー_1
  6
CONTINUOUS
 62
       3
100
AcDbLine
 10
-43.28309248
 20
34.22577785
 30
0.0
 11
-43.42986163
 21
34.05265556
 31
0.0
  0
LINE
  5
291
100
AcDbEntity
  8
レイヤー_1
  6
CONTINUOUS
 62
       3
100
AcDbLine
 10
-43.42986163
 20
34.05265556
 30
0.0
 11
-43.55998548
 21
33.86606068
 31
0.0
  0
LINE
  5
292
100
AcDbEntity
  8
レイヤー_1
  6
CONTINUOUS
 62
       3
100
AcDbLine
 10
-43.55998548
 20
33.86606068
 30
0.0
 11
-43.67231032
 21
33.66714694
 31
0.0
  0
LINE
  5
293
100
AcDbEntity
  8
レイヤー_1
  6
CONTINUOUS
 62
       3
100
AcDbLine
 10
-43.67231032
 20
33.66714694
 30
0.0
 11
-43.76568244
 21
33.45706803
 31
0.0
  0
LINE
  5
294
100
AcDbEntity
  8
レイヤー_1
  6
CONTINUOUS
 62
       3
100
AcDbLine
 10
-43.76568244
 20
33.45706803
 30
0.0
 11
-43.83894811
 21
33.23697768
 31
0.0
  0
LINE
  5
295
100
AcDbEntity
  8
レイヤー_1
  6
CONTINUOUS
 62
       3
100
AcDbLine
 10
-43.83894811
 20
33.23697768
 30
0.0
 11
-43.89095366
 21
33.0080296
 31
0.0
  0
LINE
  5
296
100
AcDbEntity
  8
レイヤー_1
  6
CONTINUOUS
 62
       3
100
AcDbLine
 10
-43.89095366
 20
33.0080296
 30
0.0
 11
-43.92054531
 21
32.7713775
 31
0.0
  0
LINE
  5
297
100
AcDbEntity
  8
レイヤー_1
  6
CONTINUOUS
 62
       3
100
AcDbLine
 10
-43.92054531
 20
32.7713775
 30
0.0
 11
-43.92657542
 21
32.52853071
 31
0.0
  0
LINE
  5
298
100
AcDbEntity
  8
レイヤー_1
  6
CONTINUOUS
 62
       3
100
AcDbLine
 10
-43.92657542
 20
32.52853071
 30
0.0
 11
-43.90862332
 21
32.2884662
 31
0.0
  0
LINE
  5
299
100
AcDbEntity
  8
レイヤー_1
  6
CONTINUOUS
 62
       3
100
AcDbLine
 10
-43.90862332
 20
32.2884662
 30
0.0
 11
-43.86768052
 21
32.05553713
 31
0.0
  0
LINE
  5
29A
100
AcDbEntity
  8
レイヤー_1
  6
CONTINUOUS
 62
       3
100
AcDbLine
 10
-43.86768052
 20
32.05553713
 30
0.0
 11
-43.8049007
 21
31.830896
 31
0.0
  0
LINE
  5
29B
100
AcDbEntity
  8
レイヤー_1
  6
CONTINUOUS
 62
       3
100
AcDbLine
 10
-43.8049007
 20
31.830896
 30
0.0
 11
-43.72143757
 21
31.61569533
 31
0.0
  0
LINE
  5
29C
100
AcDbEntity
  8
レイヤー_1
  6
CONTINUOUS
 62
       3
100
AcDbLine
 10
-43.72143757
 20
31.61569533
 30
0.0
 11
-43.61844489
 21
31.41108763
 31
0.0
  0
LINE
  5
29D
100
AcDbEntity
  8
レイヤー_1
  6
CONTINUOUS
 62
       3
100
AcDbLine
 10
-43.61844489
 20
31.41108763
 30
0.0
 11
-43.49707632
 21
31.21822541
 31
0.0
  0
LINE
  5
29E
100
AcDbEntity
  8
レイヤー_1
  6
CONTINUOUS
 62
       3
100
AcDbLine
 10
-43.49707632
 20
31.21822541
 30
0.0
 11
-43.35848561
 21
31.03826118
 31
0.0
  0
LINE
  5
29F
100
AcDbEntity
  8
レイヤー_1
  6
CONTINUOUS
 62
       3
100
AcDbLine
 10
-43.35848561
 20
31.03826118
 30
0.0
 11
-43.20382647
 21
30.87234743
 31
0.0
  0
LINE
  5
2A0
100
AcDbEntity
  8
レイヤー_1
  6
CONTINUOUS
 62
       3
100
AcDbLine
 10
-43.20382647
 20
30.87234743
 30
0.0
 11
-43.03425259
 21
30.7216367
 31
0.0
  0
LINE
  5
2A1
100
AcDbEntity
  8
レイヤー_1
  6
CONTINUOUS
 62
       3
100
AcDbLine
 10
-43.03425259
 20
30.7216367
 30
0.0
 11
-42.85091769
 21
30.58728147
 31
0.0
  0
LINE
  5
2A2
100
AcDbEntity
  8
レイヤー_1
  6
CONTINUOUS
 62
       3
100
AcDbLine
 10
-42.85091769
 20
30.58728147
 30
0.0
 11
-42.6549755
 21
30.47043427
 31
0.0
  0
LINE
  5
2A3
100
AcDbEntity
  8
レイヤー_1
  6
CONTINUOUS
 62
       3
100
AcDbLine
 10
-42.6549755
 20
30.47043427
 30
0.0
 11
-42.44757972
 21
30.3722476
 31
0.0
  0
LINE
  5
2A4
100
AcDbEntity
  8
レイヤー_1
  6
CONTINUOUS
 62
       3
100
AcDbLine
 10
-42.44757972
 20
30.3722476
 30
0.0
 11
-42.22988408
 21
30.29387397
 31
0.0
  0
LINE
  5
2A5
100
AcDbEntity
  8
レイヤー_1
  6
CONTINUOUS
 62
       3
100
AcDbLine
 10
-42.22988408
 20
30.29387397
 30
0.0
 11
-42.00304227
 21
30.23646589
 31
0.0
  0
LINE
  5
2A6
100
AcDbEntity
  8
レイヤー_1
  6
CONTINUOUS
 62
       3
100
AcDbLine
 10
-42.00304227
 20
30.23646589
 30
0.0
 11
-41.76820801
 21
30.20117587
 31
0.0
  0
LINE
  5
2A7
100
AcDbEntity
  8
レイヤー_1
  6
CONTINUOUS
 62
       3
100
AcDbLine
 10
-41.76820801
 20
30.20117587
 30
0.0
 11
-41.52653503
 21
30.18915642
 31
0.0
  0
LINE
  5
2A8
100
AcDbEntity
  8
レイヤー_1
  6
CONTINUOUS
 62
       3
100
AcDbLine
 10
-51.02681646
 20
30.18915642
 30
0.0
 11
-50.78515285
 21
30.20117587
 31
0.0
  0
LINE
  5
2A9
100
AcDbEntity
  8
レイヤー_1
  6
CONTINUOUS
 62
       3
100
AcDbLine
 10
-50.78515285
 20
30.20117587
 30
0.0
 11
-50.55034514
 21
30.23646589
 31
0.0
  0
LINE
  5
2AA
100
AcDbEntity
  8
レイヤー_1
  6
CONTINUOUS
 62
       3
100
AcDbLine
 10
-50.55034514
 20
30.23646589
 30
0.0
 11
-50.32354464
 21
30.29387397
 31
0.0
  0
LINE
  5
2AB
100
AcDbEntity
  8
レイヤー_1
  6
CONTINUOUS
 62
       3
100
AcDbLine
 10
-50.32354464
 20
30.29387397
 30
0.0
 11
-50.10590262
 21
30.3722476
 31
0.0
  0
LINE
  5
2AC
100
AcDbEntity
  8
レイヤー_1
  6
CONTINUOUS
 62
       3
100
AcDbLine
 10
-50.10590262
 20
30.3722476
 30
0.0
 11
-49.89857043
 21
30.47043427
 31
0.0
  0
LINE
  5
2AD
100
AcDbEntity
  8
レイヤー_1
  6
CONTINUOUS
 62
       3
100
AcDbLine
 10
-49.89857043
 20
30.47043427
 30
0.0
 11
-49.70269934
 21
30.58728147
 31
0.0
  0
LINE
  5
2AE
100
AcDbEntity
  8
レイヤー_1
  6
CONTINUOUS
 62
       3
100
AcDbLine
 10
-49.70269934
 20
30.58728147
 30
0.0
 11
-49.51944067
 21
30.7216367
 31
0.0
  0
LINE
  5
2AF
100
AcDbEntity
  8
レイヤー_1
  6
CONTINUOUS
 62
       3
100
AcDbLine
 10
-49.51944067
 20
30.7216367
 30
0.0
 11
-49.34994572
 21
30.87234743
 31
0.0
  0
LINE
  5
2B0
100
AcDbEntity
  8
レイヤー_1
  6
CONTINUOUS
 62
       3
100
AcDbLine
 10
-49.34994572
 20
30.87234743
 30
0.0
 11
-49.1953658
 21
31.03826118
 31
0.0
  0
LINE
  5
2B1
100
AcDbEntity
  8
レイヤー_1
  6
CONTINUOUS
 62
       3
100
AcDbLine
 10
-49.1953658
 20
31.03826118
 30
0.0
 11
-49.05685221
 21
31.21822541
 31
0.0
  0
LINE
  5
2B2
100
AcDbEntity
  8
レイヤー_1
  6
CONTINUOUS
 62
       3
100
AcDbLine
 10
-49.05685221
 20
31.21822541
 30
0.0
 11
-48.93555627
 21
31.41108763
 31
0.0
  0
LINE
  5
2B3
100
AcDbEntity
  8
レイヤー_1
  6
CONTINUOUS
 62
       3
100
AcDbLine
 10
-48.93555627
 20
31.41108763
 30
0.0
 11
-48.83262926
 21
31.61569533
 31
0.0
  0
LINE
  5
2B4
100
AcDbEntity
  8
レイヤー_1
  6
CONTINUOUS
 62
       3
100
AcDbLine
 10
-48.83262926
 20
31.61569533
 30
0.0
 11
-48.74922249
 21
31.830896
 31
0.0
  0
LINE
  5
2B5
100
AcDbEntity
  8
レイヤー_1
  6
CONTINUOUS
 62
       3
100
AcDbLine
 10
-48.74922249
 20
31.830896
 30
0.0
 11
-48.68648728
 21
32.05553713
 31
0.0
  0
LINE
  5
2B6
100
AcDbEntity
  8
レイヤー_1
  6
CONTINUOUS
 62
       3
100
AcDbLine
 10
-48.68648728
 20
32.05553713
 30
0.0
 11
-48.64557493
 21
32.2884662
 31
0.0
  0
LINE
  5
2B7
100
AcDbEntity
  8
レイヤー_1
  6
CONTINUOUS
 62
       3
100
AcDbLine
 10
-48.64557493
 20
32.2884662
 30
0.0
 11
-48.62763673
 21
32.52853071
 31
0.0
  0
LINE
  5
2B8
100
AcDbEntity
  8
レイヤー_1
  6
CONTINUOUS
 62
       3
100
AcDbLine
 10
-48.62763673
 20
32.52853071
 30
0.0
 11
-48.6336621
 21
32.7713775
 31
0.0
  0
LINE
  5
2B9
100
AcDbEntity
  8
レイヤー_1
  6
CONTINUOUS
 62
       3
100
AcDbLine
 10
-48.6336621
 20
32.7713775
 30
0.0
 11
-48.6632313
 21
33.0080296
 31
0.0
  0
LINE
  5
2BA
100
AcDbEntity
  8
レイヤー_1
  6
CONTINUOUS
 62
       3
100
AcDbLine
 10
-48.6632313
 20
33.0080296
 30
0.0
 11
-48.71519899
 21
33.23697768
 31
0.0
  0
LINE
  5
2BB
100
AcDbEntity
  8
レイヤー_1
  6
CONTINUOUS
 62
       3
100
AcDbLine
 10
-48.71519899
 20
33.23697768
 30
0.0
 11
-48.78841388
 21
33.45706803
 31
0.0
  0
LINE
  5
2BC
100
AcDbEntity
  8
レイヤー_1
  6
CONTINUOUS
 62
       3
100
AcDbLine
 10
-48.78841388
 20
33.45706803
 30
0.0
 11
-48.88172468
 21
33.66714694
 31
0.0
  0
LINE
  5
2BD
100
AcDbEntity
  8
レイヤー_1
  6
CONTINUOUS
 62
       3
100
AcDbLine
 10
-48.88172468
 20
33.66714694
 30
0.0
 11
-48.99398007
 21
33.86606068
 31
0.0
  0
LINE
  5
2BE
100
AcDbEntity
  8
レイヤー_1
  6
CONTINUOUS
 62
       3
100
AcDbLine
 10
-48.99398007
 20
33.86606068
 30
0.0
 11
-49.12402877
 21
34.05265556
 31
0.0
  0
LINE
  5
2BF
100
AcDbEntity
  8
レイヤー_1
  6
CONTINUOUS
 62
       3
100
AcDbLine
 10
-49.12402877
 20
34.05265556
 30
0.0
 11
-49.27071942
 21
34.22577785
 31
0.0
  0
LINE
  5
2C0
100
AcDbEntity
  8
レイヤー_1
  6
CONTINUOUS
 62
       3
100
AcDbLine
 10
-49.27071942
 20
34.22577785
 30
0.0
 11
-49.43290077
 21
34.38427385
 31
0.0
  0
LINE
  5
2C1
100
AcDbEntity
  8
レイヤー_1
  6
CONTINUOUS
 62
       3
100
AcDbLine
 10
-49.43290077
 20
34.38427385
 30
0.0
 11
-49.60942149
 21
34.52698983
 31
0.0
  0
LINE
  5
2C2
100
AcDbEntity
  8
レイヤー_1
  6
CONTINUOUS
 62
       3
100
AcDbLine
 10
-49.60942149
 20
34.52698983
 30
0.0
 11
-49.79913029
 21
34.65277209
 31
0.0
  0
LINE
  5
2C3
100
AcDbEntity
  8
レイヤー_1
  6
CONTINUOUS
 62
       3
100
AcDbLine
 10
-49.79913029
 20
34.65277209
 30
0.0
 11
-50.00087584
 21
34.76046691
 31
0.0
  0
LINE
  5
2C4
100
AcDbEntity
  8
レイヤー_1
  6
CONTINUOUS
 62
       3
100
AcDbLine
 10
-50.00087584
 20
34.76046691
 30
0.0
 11
-50.21350686
 21
34.84892058
 31
0.0
  0
LINE
  5
2C5
100
AcDbEntity
  8
レイヤー_1
  6
CONTINUOUS
 62
       3
100
AcDbLine
 10
-50.21350686
 20
34.84892058
 30
0.0
 11
-50.43587204
 21
34.91697938
 31
0.0
  0
LINE
  5
2C6
100
AcDbEntity
  8
レイヤー_1
  6
CONTINUOUS
 62
       3
100
AcDbLine
 10
-50.43587204
 20
34.91697938
 30
0.0
 11
-50.66682006
 21
34.96348961
 31
0.0
  0
LINE
  5
2C7
100
AcDbEntity
  8
レイヤー_1
  6
CONTINUOUS
 62
       3
100
AcDbLine
 10
-50.66682006
 20
34.96348961
 30
0.0
 11
-50.90519962
 21
34.98729754
 31
0.0
  0
LINE
  5
2C8
100
AcDbEntity
  8
レイヤー_1
  6
CONTINUOUS
 62
       3
100
AcDbLine
 10
-50.90519962
 20
34.98729754
 30
0.0
 11
-51.1484333
 21
34.98729754
 31
0.0
  0
LINE
  5
2C9
100
AcDbEntity
  8
レイヤー_1
  6
CONTINUOUS
 62
       3
100
AcDbLine
 10
-51.1484333
 20
34.98729754
 30
0.0
 11
-51.38681286
 21
34.96348961
 31
0.0
  0
LINE
  5
2CA
100
AcDbEntity
  8
レイヤー_1
  6
CONTINUOUS
 62
       3
100
AcDbLine
 10
-51.38681286
 20
34.96348961
 30
0.0
 11
-51.61776088
 21
34.91697938
 31
0.0
  0
LINE
  5
2CB
100
AcDbEntity
  8
レイヤー_1
  6
CONTINUOUS
 62
       3
100
AcDbLine
 10
-51.61776088
 20
34.91697938
 30
0.0
 11
-51.84012605
 21
34.84892058
 31
0.0
  0
LINE
  5
2CC
100
AcDbEntity
  8
レイヤー_1
  6
CONTINUOUS
 62
       3
100
AcDbLine
 10
-51.84012605
 20
34.84892058
 30
0.0
 11
-52.05275708
 21
34.76046691
 31
0.0
  0
LINE
  5
2CD
100
AcDbEntity
  8
レイヤー_1
  6
CONTINUOUS
 62
       3
100
AcDbLine
 10
-52.05275708
 20
34.76046691
 30
0.0
 11
-52.25450263
 21
34.65277209
 31
0.0
  0
LINE
  5
2CE
100
AcDbEntity
  8
レイヤー_1
  6
CONTINUOUS
 62
       3
100
AcDbLine
 10
-52.25450263
 20
34.65277209
 30
0.0
 11
-52.44421143
 21
34.52698983
 31
0.0
  0
LINE
  5
2CF
100
AcDbEntity
  8
レイヤー_1
  6
CONTINUOUS
 62
       3
100
AcDbLine
 10
-52.44421143
 20
34.52698983
 30
0.0
 11
-52.62073215
 21
34.38427385
 31
0.0
  0
LINE
  5
2D0
100
AcDbEntity
  8
レイヤー_1
  6
CONTINUOUS
 62
       3
100
AcDbLine
 10
-52.62073215
 20
34.38427385
 30
0.0
 11
-52.7829135
 21
34.22577785
 31
0.0
  0
LINE
  5
2D1
100
AcDbEntity
  8
レイヤー_1
  6
CONTINUOUS
 62
       3
100
AcDbLine
 10
-52.7829135
 20
34.22577785
 30
0.0
 11
-52.92960415
 21
34.05265556
 31
0.0
  0
LINE
  5
2D2
100
AcDbEntity
  8
レイヤー_1
  6
CONTINUOUS
 62
       3
100
AcDbLine
 10
-52.92960415
 20
34.05265556
 30
0.0
 11
-53.05965285
 21
33.86606068
 31
0.0
  0
LINE
  5
2D3
100
AcDbEntity
  8
レイヤー_1
  6
CONTINUOUS
 62
       3
100
AcDbLine
 10
-53.05965285
 20
33.86606068
 30
0.0
 11
-53.17190824
 21
33.66714694
 31
0.0
  0
LINE
  5
2D4
100
AcDbEntity
  8
レイヤー_1
  6
CONTINUOUS
 62
       3
100
AcDbLine
 10
-53.17190824
 20
33.66714694
 30
0.0
 11
-53.26521904
 21
33.45706803
 31
0.0
  0
LINE
  5
2D5
100
AcDbEntity
  8
レイヤー_1
  6
CONTINUOUS
 62
       3
100
AcDbLine
 10
-53.26521904
 20
33.45706803
 30
0.0
 11
-53.33843393
 21
33.23697768
 31
0.0
  0
LINE
  5
2D6
100
AcDbEntity
  8
レイヤー_1
  6
CONTINUOUS
 62
       3
100
AcDbLine
 10
-53.33843393
 20
33.23697768
 30
0.0
 11
-53.39040162
 21
33.0080296
 31
0.0
  0
LINE
  5
2D7
100
AcDbEntity
  8
レイヤー_1
  6
CONTINUOUS
 62
       3
100
AcDbLine
 10
-53.39040162
 20
33.0080296
 30
0.0
 11
-53.41997081
 21
32.7713775
 31
0.0
  0
LINE
  5
2D8
100
AcDbEntity
  8
レイヤー_1
  6
CONTINUOUS
 62
       3
100
AcDbLine
 10
-53.41997081
 20
32.7713775
 30
0.0
 11
-53.42599619
 21
32.52853071
 31
0.0
  0
LINE
  5
2D9
100
AcDbEntity
  8
レイヤー_1
  6
CONTINUOUS
 62
       3
100
AcDbLine
 10
-53.42599619
 20
32.52853071
 30
0.0
 11
-53.40805799
 21
32.2884662
 31
0.0
  0
LINE
  5
2DA
100
AcDbEntity
  8
レイヤー_1
  6
CONTINUOUS
 62
       3
100
AcDbLine
 10
-53.40805799
 20
32.2884662
 30
0.0
 11
-53.36714564
 21
32.05553713
 31
0.0
  0
LINE
  5
2DB
100
AcDbEntity
  8
レイヤー_1
  6
CONTINUOUS
 62
       3
100
AcDbLine
 10
-53.36714564
 20
32.05553713
 30
0.0
 11
-53.30441043
 21
31.830896
 31
0.0
  0
LINE
  5
2DC
100
AcDbEntity
  8
レイヤー_1
  6
CONTINUOUS
 62
       3
100
AcDbLine
 10
-53.30441043
 20
31.830896
 30
0.0
 11
-53.22100366
 21
31.61569533
 31
0.0
  0
LINE
  5
2DD
100
AcDbEntity
  8
レイヤー_1
  6
CONTINUOUS
 62
       3
100
AcDbLine
 10
-53.22100366
 20
31.61569533
 30
0.0
 11
-53.11807665
 21
31.41108763
 31
0.0
  0
LINE
  5
2DE
100
AcDbEntity
  8
レイヤー_1
  6
CONTINUOUS
 62
       3
100
AcDbLine
 10
-53.11807665
 20
31.41108763
 30
0.0
 11
-52.9967807
 21
31.21822541
 31
0.0
  0
LINE
  5
2DF
100
AcDbEntity
  8
レイヤー_1
  6
CONTINUOUS
 62
       3
100
AcDbLine
 10
-52.9967807
 20
31.21822541
 30
0.0
 11
-52.85826712
 21
31.03826118
 31
0.0
  0
LINE
  5
2E0
100
AcDbEntity
  8
レイヤー_1
  6
CONTINUOUS
 62
       3
100
AcDbLine
 10
-52.85826712
 20
31.03826118
 30
0.0
 11
-52.7036872
 21
30.87234743
 31
0.0
  0
LINE
  5
2E1
100
AcDbEntity
  8
レイヤー_1
  6
CONTINUOUS
 62
       3
100
AcDbLine
 10
-52.7036872
 20
30.87234743
 30
0.0
 11
-52.53419225
 21
30.7216367
 31
0.0
  0
LINE
  5
2E2
100
AcDbEntity
  8
レイヤー_1
  6
CONTINUOUS
 62
       3
100
AcDbLine
 10
-52.53419225
 20
30.7216367
 30
0.0
 11
-52.35093358
 21
30.58728147
 31
0.0
  0
LINE
  5
2E3
100
AcDbEntity
  8
レイヤー_1
  6
CONTINUOUS
 62
       3
100
AcDbLine
 10
-52.35093358
 20
30.58728147
 30
0.0
 11
-52.15506249
 21
30.47043427
 31
0.0
  0
LINE
  5
2E4
100
AcDbEntity
  8
レイヤー_1
  6
CONTINUOUS
 62
       3
100
AcDbLine
 10
-52.15506249
 20
30.47043427
 30
0.0
 11
-51.9477303
 21
30.3722476
 31
0.0
  0
LINE
  5
2E5
100
AcDbEntity
  8
レイヤー_1
  6
CONTINUOUS
 62
       3
100
AcDbLine
 10
-51.9477303
 20
30.3722476
 30
0.0
 11
-51.73008828
 21
30.29387397
 31
0.0
  0
LINE
  5
2E6
100
AcDbEntity
  8
レイヤー_1
  6
CONTINUOUS
 62
       3
100
AcDbLine
 10
-51.73008828
 20
30.29387397
 30
0.0
 11
-51.50328778
 21
30.23646589
 31
0.0
  0
LINE
  5
2E7
100
AcDbEntity
  8
レイヤー_1
  6
CONTINUOUS
 62
       3
100
AcDbLine
 10
-51.50328778
 20
30.23646589
 30
0.0
 11
-51.26848007
 21
30.20117587
 31
0.0
  0
LINE
  5
2E8
100
AcDbEntity
  8
レイヤー_1
  6
CONTINUOUS
 62
       3
100
AcDbLine
 10
-51.26848007
 20
30.20117587
 30
0.0
 11
-51.02681646
 21
30.18915642
 31
0.0
  0
LINE
  5
2E9
100
AcDbEntity
  8
レイヤー_1
  6
CONTINUOUS
 62
       3
100
AcDbLine
 10
23.94488355
 20
-40.0256229
 30
0.0
 11
42.94591436
 21
-40.0256229
 31
0.0
  0
LINE
  5
2EA
100
AcDbEntity
  8
レイヤー_1
  6
CONTINUOUS
 62
       3
100
AcDbLine
 10
23.94488355
 20
39.9743771
 30
0.0
 11
42.94591436
 21
39.9743771
 31
0.0
  0
LINE
  5
2EB
100
AcDbEntity
  8
レイヤー_1
  6
CONTINUOUS
 62
       3
100
AcDbLine
 10
23.94488355
 20
-40.0256229
 30
0.0
 11
23.94488355
 21
-22.02643331
 31
0.0
  0
LINE
  5
2EC
100
AcDbEntity
  8
レイヤー_1
  6
CONTINUOUS
 62
       3
100
AcDbLine
 10
-76.10691494
 20
39.9743771
 30
0.0
 11
-76.10691494
 21
-40.0256229
 31
0.0
  0
LINE
  5
2ED
100
AcDbEntity
  8
レイヤー_1
  6
CONTINUOUS
 62
       3
100
AcDbLine
 10
-26.10691494
 20
39.9743771
 30
0.0
 11
-26.10691494
 21
-40.0256229
 31
0.0
  0
LINE
  5
2EE
100
AcDbEntity
  8
レイヤー_1
  6
CONTINUOUS
 62
       3
100
AcDbLine
 10
-76.10691494
 20
-40.0256229
 30
0.0
 11
-26.10691494
 21
-40.0256229
 31
0.0
  0
LINE
  5
2EF
100
AcDbEntity
  8
レイヤー_1
  6
CONTINUOUS
 62
       3
100
AcDbLine
 10
-76.10691494
 20
39.9743771
 30
0.0
 11
-26.10691494
 21
39.9743771
 31
0.0
  0
LINE
  5
2F0
100
AcDbEntity
  8
レイヤー_1
  6
CONTINUOUS
 62
       3
100
AcDbLine
 10
23.94488355
 20
21.97992451
 30
0.0
 11
23.94488355
 21
39.9743771
 31
0.0
  0
LINE
  5
2F1
100
AcDbEntity
  8
レイヤー_1
  6
CENTERX2
 62
       3
100
AcDbLine
 10
20.19191996
 20
-0.0256229
 30
0.0
 11
79.85494485
 21
-0.0256229
 31
0.0
  0
LINE
  5
2F2
100
AcDbEntity
  8
レイヤー_1
  6
CENTERX2
 62
       3
100
AcDbLine
 10
-79.85494485
 20
-0.0256229
 30
0.0
 11
-22.30462477
 21
-0.0256229
 31
0.0
  0
LINE
  5
2F3
100
AcDbEntity
  8
レイヤー_1
  6
CENTERX2
 62
       3
100
AcDbLine
 10
-51.10691494
 20
43.77962747
 30
0.0
 11
-51.10691494
 21
-43.77962747
 31
0.0
  0
TEXT
  5
2F4
100
AcDbEntity
  8
0
 62
       7
100
AcDbText
 10
99.58235294
 20
-94.63755656
 30
0.0
 40
5.0
  1
000
 41
0.8
 72
       5
 11
111.58235294
 21
-94.63755656
 31
0.0
100
AcDbText
  0
ENDSEC
  0
SECTION
  2
OBJECTS
  0
DICTIONARY
  5
19
100
AcDbDictionary
  3
ACAD_GROUP
350
1A
  3
ACAD_MLINESTYLE
350
1B
  0
DICTIONARY
  5
1A
102
{ACAD_REACTORS
330
19
102
}
100
AcDbDictionary
  0
DICTIONARY
  5
1B
102
{ACAD_REACTORS
330
19
102
}
100
AcDbDictionary
  3
STANDARD
350
1C
  0
MLINESTYLE
  5
1C
102
{ACAD_REACTORS
330
1B
102
}
100
AcDbMlineStyle
  2
STANDARD
 70
       0
  3

 62
       0
 51
90.0
 52
90.0
 71
       2
 49
0.5
 62
     256
  6
BYLAYER
 49
-0.5
 62
     256
  6
BYLAYER
  0
ENDSEC
  0
EOF
