  0
SECTION
  2
HEADER
  9
$ACADVER
  1
AC1014
  9
$ACADMAINTVER
 70
       0
  9
$DWGCODEPAGE
  3
ANSI_932
  9
$INSBASE
 10
0.0
 20
0.0
 30
0.0
  9
$EXTMIN
 10
-113.08289418
 20
-135.18376667
 30
0.0
  9
$EXTMAX
 10
109.8328942
 20
135.18376667
 30
0.0
  9
$LIMMIN
 10
-120.04901256
 20
-143.63275209
  9
$LIMMAX
 10
116.79901259
 20
143.63275209
  9
$ORTHOMODE
 70
       0
  9
$REGENMODE
 70
       1
  9
$FILLMODE
 70
       1
  9
$QTEXTMODE
 70
       0
  9
$MIRRTEXT
 70
       1
  9
$DRAGMODE
 70
       2
  9
$LTSCALE
 40
1.0
  9
$OSMODE
 70
       0
  9
$ATTMODE
 70
       1
  9
$TEXTSIZE
 40
0.2
  9
$TRACEWID
 40
0.05
  9
$TEXTSTYLE
  7
STANDARD
  9
$CLAYER
  8
0
  9
$CELTYPE
  6
CONTINUOUS
  9
$CECOLOR
 62
     256
  9
$CELTSCALE
 40
1.0
  9
$DELOBJ
 70
       1
  9
$DISPSILH
 70
       0
  9
$DIMSCALE
 40
1.0
  9
$DIMASZ
 40
0.18
  9
$DIMEXO
 40
0.0625
  9
$DIMDLI
 40
0.38
  9
$DIMRND
 40
0.0
  9
$DIMDLE
 40
0.0
  9
$DIMEXE
 40
0.18
  9
$DIMTP
 40
0.0
  9
$DIMTM
 40
0.0
  9
$DIMTXT
 40
0.18
  9
$DIMCEN
 40
0.09
  9
$DIMTSZ
 40
0.0
  9
$DIMTOL
 70
       0
  9
$DIMLIM
 70
       0
  9
$DIMTIH
 70
       1
  9
$DIMTOH
 70
       1
  9
$DIMSE1
 70
       0
  9
$DIMSE2
 70
       0
  9
$DIMTAD
 70
       0
  9
$DIMZIN
 70
       0
  9
$DIMBLK
  1

  9
$DIMASO
 70
       1
  9
$DIMSHO
 70
       1
  9
$DIMPOST
  1

  9
$DIMAPOST
  1

  9
$DIMALT
 70
       0
  9
$DIMALTD
 70
       2
  9
$DIMALTF
 40
25.4
  9
$DIMLFAC
 40
1.0
  9
$DIMTOFL
 70
       0
  9
$DIMTVP
 40
0.0
  9
$DIMTIX
 70
       0
  9
$DIMSOXD
 70
       0
  9
$DIMSAH
 70
       0
  9
$DIMBLK1
  1

  9
$DIMBLK2
  1

  9
$DIMSTYLE
  2
STANDARD
  9
$DIMCLRD
 70
       0
  9
$DIMCLRE
 70
       0
  9
$DIMCLRT
 70
       0
  9
$DIMTFAC
 40
1.0
  9
$DIMGAP
 40
0.09
  9
$DIMJUST
 70
       0
  9
$DIMSD1
 70
       0
  9
$DIMSD2
 70
       0
  9
$DIMTOLJ
 70
       1
  9
$DIMTZIN
 70
       0
  9
$DIMALTZ
 70
       0
  9
$DIMALTTZ
 70
       0
  9
$DIMFIT
 70
       3
  9
$DIMUPT
 70
       0
  9
$DIMUNIT
 70
       2
  9
$DIMDEC
 70
       4
  9
$DIMTDEC
 70
       4
  9
$DIMALTU
 70
       2
  9
$DIMALTTD
 70
       2
  9
$DIMTXSTY
  7
STANDARD
  9
$DIMAUNIT
 70
       0
  9
$LUNITS
 70
       2
  9
$LUPREC
 70
       4
  9
$SKETCHINC
 40
0.1
  9
$FILLETRAD
 40
0.0
  9
$AUNITS
 70
       0
  9
$AUPREC
 70
       0
  9
$MENU
  1
acad
  9
$ELEVATION
 40
0.0
  9
$PELEVATION
 40
0.0
  9
$THICKNESS
 40
0.0
  9
$LIMCHECK
 70
       0
  9
$BLIPMODE
 70
       1
  9
$CHAMFERA
 40
0.0
  9
$CHAMFERB
 40
0.0
  9
$CHAMFERC
 40
0.0
  9
$CHAMFERD
 40
0.0
  9
$SKPOLY
 70
       0
  9
$TDCREATE
 40
0.000000000
  9
$TDUPDATE
 40
0.000000000
  9
$TDINDWG
 40
0.0000000000
  9
$TDUSRTIMER
 40
0.0000000000
  9
$USRTIMER
 70
       1
  9
$ANGBASE
 50
0.0
  9
$ANGDIR
 70
       0
  9
$PDMODE
 70
       0
  9
$PDSIZE
 40
1.0
  9
$PLINEWID
 40
0.0
  9
$COORDS
 70
       1
  9
$SPLFRAME
 70
       0
  9
$SPLINETYPE
 70
       6
  9
$SPLINESEGS
 70
       8
  9
$ATTDIA
 70
       0
  9
$ATTREQ
 70
       1
  9
$HANDLING
 70
       1
  9
$HANDSEED
  5
308
  9
$SURFTAB1
 70
       6
  9
$SURFTAB2
 70
       6
  9
$SURFTYPE
 70
       6
  9
$SURFU
 70
       6
  9
$SURFV
 70
       6
  9
$UCSNAME
  2

  9
$UCSORG
 10
0.0
 20
0.0
 30
0.0
  9
$UCSXDIR
 10
1.0
 20
0.0
 30
0.0
  9
$UCSYDIR
 10
0.0
 20
1.0
 30
0.0
  9
$PUCSNAME
  2

  9
$PUCSORG
 10
0.0
 20
0.0
 30
0.0
  9
$PUCSXDIR
 10
1.0
 20
0.0
 30
0.0
  9
$PUCSYDIR
 10
0.0
 20
1.0
 30
0.0
  9
$USERI1
 70
       0
  9
$USERI2
 70
       0
  9
$USERI3
 70
       0
  9
$USERI4
 70
       0
  9
$USERI5
 70
       0
  9
$USERR1
 40
0.0
  9
$USERR2
 40
0.0
  9
$USERR3
 40
0.0
  9
$USERR4
 40
0.0
  9
$USERR5
 40
0.0
  9
$WORLDVIEW
 70
       1
  9
$SHADEDGE
 70
       3
  9
$SHADEDIF
 70
      70
  9
$TILEMODE
 70
       1
  9
$MAXACTVP
 70
      16
  9
$PINSBASE
 10
0.0
 20
0.0
 30
0.0
  9
$PLIMCHECK
 70
       0
  9
$PEXTMIN
 10
1.00000000E+20
 20
1.00000000E+20
 30
1.00000000E+20
  9
$PEXTMAX
 10
-1.00000000E+20
 20
-1.00000000E+20
 30
-1.00000000E+20
  9
$PLIMMIN
 10
0.0
 20
0.0
  9
$PLIMMAX
 10
12.0
 20
9.0
  9
$UNITMODE
 70
       0
  9
$VISRETAIN
 70
       0
  9
$PLINEGEN
 70
       1
  9
$PSLTSCALE
 70
       0
  9
$TREEDEPTH
 70
    3020
  9
$PICKSTYLE
 70
       1
  9
$CMLSTYLE
  2
STANDARD
  9
$CMLJUST
 70
       0
  9
$CMLSCALE
 40
1.0
  9
$PROXYGRAPHICS
 70
       0
  9
$MEASUREMENT
 70
       0
  0
ENDSEC
  0
SECTION
  2
CLASSES
  0
CLASS
  1
LWPOLYLINE
  2
AcDbPolyline
  3
"AutoCAD"
 90
        0
280
       0
281
       1
  0
CLASS
  1
IMAGE
  2
AcDbRasterImage
  3
ISM
 90
      127
280
       0
281
       1
  0
CLASS
  1
OLE2FRAME
  2
AcDbOle2Frame
  3
""
 90
        0
280
       0
281
       1
  0
CLASS
  1
HATCH
  2
AcDbHatch
  3
"ACAD_SEDONA"
 90
        0
280
       0
281
       1
  0
CLASS
  1
DICTIONARYVAR
  2
AcDbDictionaryVar
  3
"AutoCAD"
 90
        0
280
       0
281
       0
  0
CLASS
  1
RASTERVARIABLES
  2
AcDbRasterVariables
  3
ISM
 90
        0
280
       0
281
       0
  0
CLASS
  1
IMAGEDEF
  2
AcDbRasterImageDef
  3
ISM
 90
        0
280
       0
281
       0
  0
CLASS
  1
IMAGEDEF_REACTOR
  2
AcDbRasterImageDefReactor
  3
ISM
 90
        1
280
       0
281
       0
  0
CLASS
  1
IDBUFFER
  2
AcDbIdBuffer
  3
"Acad"
 90
        0
280
       0
281
       0
  0
CLASS
  1
SPATIAL_FILTER
  2
AcDbSpatialFilter
  3
"Acad"
 90
        0
280
       0
281
       0
  0
CLASS
  1
XRECORD
  2
AcDbXrecord
  3
"<Built In>"
 90
        0
280
       0
281
       0
  0
CLASS
  1
SORTENTSTABLE
  2
AcDbSortentsTable
  3
"AutoCAD"
 90
        0
280
       0
281
       0
  0
CLASS
  1
LAYER_INDEX
  2
AcDbLayerIndex
  3
"Acad"
 90
        0
280
       0
281
       0
  0
CLASS
  1
SPATIAL_INDEX
  2
AcDbSpatialIndex
  3
"Acad"
 90
        0
280
       0
281
       0
  0
CLASS
  1
OBJECT_PTR
  2
CAseDLPNTableRecord
  3
"ASE-LPNTableRecord"
 90
        1
280
       0
281
       0
  0
CLASS
  1
LAYOUT
  2
AcDbLayout
  3
"AutoCAD 2000"
 90
        1
280
       0
281
       0
  0
CLASS
  1
PLOTSETTINGS
  2
AcDbPlotSettings
  3
"AutoCAD 2000"
 90
        1
280
       0
281
       0
  0
CLASS
  1
ACDBDICTIONARYWDFLT
  2
AcDbDictionaryWithDefault
  3
"AutoCAD 2000"
 90
        1
280
       0
281
       0
  0
CLASS
  1
ACDBPLACEHOLDER
  2
AcDbPlaceHolder
  3
"AutoCAD 2000"
 90
        1
280
       0
281
       0
  0
CLASS
  1
VBA_PROJECT
  2
AcDbVbaProject
  3
"acadvba"
 90
        1
280
       0
281
       0
  0
CLASS
  1
WIPEOUT
  2
AcDbWipeout
  3
WipeOut|AutoCAD Express Tool|expresstools@autodesk.com
 90
      127
280
       0
281
       1
  0
CLASS
  1
WIPEOUTVARIABLES
  2
AcDbWipeoutVariables
  3
WipeOut|AutoCAD Express Tool|expresstools@autodesk.com
 90
        0
280
       0
281
       0
  0
CLASS
  1
RTEXT
  2
RText
  3
RText|AutoCAD Express Tool|expresstools@autodesk.com
 90
        0
280
       0
281
       1
  0
CLASS
  1
ARCALIGNEDTEXT
  2
AcDbArcAlignedText
  3
ATEXT|AutoCAD Express Tool|expresstools@autodesk.com
 90
        0
280
       0
281
       1
  0
ENDSEC
  0
SECTION
  2
TABLES
  0
TABLE
  2
VPORT
  5
7
100
AcDbSymbolTable
 70
       1
  0
VPORT
  5
15
100
AcDbSymbolTableRecord
100
AcDbViewportTableRecord
  2
*ACTIVE
 70
       0
 10
0.0
 20
0.0
 11
1.0
 21
1.0
 12
-1.62499999
 22
0.0
 13
0.0
 23
0.0
 14
1.0
 24
1.0
 15
0.0
 25
0.0
 16
0.0
 26
0.0
 36
1.0
 17
0.0
 27
0.0
 37
0.0
 40
287.26550418
 41
0.8244917
 42
50.0
 43
0.0
 44
0.0
 50
0.0
 51
0.0
 71
       0
 72
     100
 73
       1
 74
       1
 75
       0
 76
       0
 77
       0
 78
       0
  0
ENDTAB
  0
TABLE
  2
LTYPE
  5
4
100
AcDbSymbolTable
 70
      30
  0
LTYPE
  5
11
100
AcDbSymbolTableRecord
100
AcDbLinetypeTableRecord
  2
BYBLOCK
 70
      64
  3

 72
      65
 73
       0
 40
0.0
  0
LTYPE
  5
12
100
AcDbSymbolTableRecord
100
AcDbLinetypeTableRecord
  2
BYLAYER
 70
      64
  3

 72
      65
 73
       0
 40
0.0
  0
LTYPE
  5
13
100
AcDbSymbolTableRecord
100
AcDbLinetypeTableRecord
  2
CONTINUOUS
 70
      64
  3
Solid line
 72
      65
 73
       0
 40
0.0
  0
LTYPE
  5
1D
100
AcDbSymbolTableRecord
100
AcDbLinetypeTableRecord
  2
HIDDENX2
 70
      64
  3
CADPAC LINETYPE
 72
      65
 73
       2
 40
15.28975016
 49
11.46731262
 74
       0
 49
-3.82243754
 74
       0
  0
LTYPE
  5
1E
100
AcDbSymbolTableRecord
100
AcDbLinetypeTableRecord
  2
HIDDEN
 70
      64
  3
CADPAC LINETYPE
 72
      65
 73
       2
 40
11.46731262
 49
7.64487508
 74
       0
 49
-3.82243754
 74
       0
  0
LTYPE
  5
1F
100
AcDbSymbolTableRecord
100
AcDbLinetypeTableRecord
  2
HIDDEN2
 70
      64
  3
CADPAC LINETYPE
 72
      65
 73
       2
 40
9.55609385
 49
5.73365631
 74
       0
 49
-3.82243754
 74
       0
  0
LTYPE
  5
20
100
AcDbSymbolTableRecord
100
AcDbLinetypeTableRecord
  2
DASHED
 70
      64
  3
CADPAC LINETYPE
 72
      65
 73
       2
 40
11.46731262
 49
7.64487508
 74
       0
 49
-3.82243754
 74
       0
  0
LTYPE
  5
21
100
AcDbSymbolTableRecord
100
AcDbLinetypeTableRecord
  2
DASHED2
 70
      64
  3
CADPAC LINETYPE
 72
      65
 73
       2
 40
8.60048447
 49
5.73365631
 74
       0
 49
-2.86682816
 74
       0
  0
LTYPE
  5
22
100
AcDbSymbolTableRecord
100
AcDbLinetypeTableRecord
  2
DASHEDX2
 70
      64
  3
CADPAC LINETYPE
 72
      65
 73
       2
 40
17.20096893
 49
11.46731262
 74
       0
 49
-5.73365631
 74
       0
  0
LTYPE
  5
23
100
AcDbSymbolTableRecord
100
AcDbLinetypeTableRecord
  2
DOTX2
 70
      64
  3
CADPAC LINETYPE
 72
      65
 73
       2
 40
4.77804693
 49
0.0
 74
       0
 49
-4.77804693
 74
       0
  0
LTYPE
  5
24
100
AcDbSymbolTableRecord
100
AcDbLinetypeTableRecord
  2
DOT
 70
      64
  3
CADPAC LINETYPE
 72
      65
 73
       2
 40
3.82243754
 49
0.0
 74
       0
 49
-3.82243754
 74
       0
  0
LTYPE
  5
25
100
AcDbSymbolTableRecord
100
AcDbLinetypeTableRecord
  2
DOT2
 70
      64
  3
CADPAC LINETYPE
 72
      65
 73
       2
 40
2.86682816
 49
0.0
 74
       0
 49
-2.86682816
 74
       0
  0
LTYPE
  5
26
100
AcDbSymbolTableRecord
100
AcDbLinetypeTableRecord
  2
CENTERX2
 70
      64
  3
CADPAC LINETYPE
 72
      65
 73
       4
 40
22.93462524
 49
9.55609385
 74
       0
 49
-4.77804693
 74
       0
 49
3.82243754
 74
       0
 49
-4.77804693
 74
       0
  0
LTYPE
  5
27
100
AcDbSymbolTableRecord
100
AcDbLinetypeTableRecord
  2
CENTER
 70
      64
  3
CADPAC LINETYPE
 72
      65
 73
       4
 40
17.58321269
 49
7.64487508
 74
       0
 49
-3.82243754
 74
       0
 49
2.29346252
 74
       0
 49
-3.82243754
 74
       0
  0
LTYPE
  5
28
100
AcDbSymbolTableRecord
100
AcDbLinetypeTableRecord
  2
CENTER2
 70
      64
  3
CADPAC LINETYPE
 72
      65
 73
       4
 40
12.23180013
 49
5.73365631
 74
       0
 49
-2.86682816
 74
       0
 49
0.76448751
 74
       0
 49
-2.86682816
 74
       0
  0
LTYPE
  5
29
100
AcDbSymbolTableRecord
100
AcDbLinetypeTableRecord
  2
DASHDOTX2
 70
      64
  3
CADPAC LINETYPE
 72
      65
 73
       4
 40
19.1121877
 49
9.55609385
 74
       0
 49
-4.77804693
 74
       0
 49
0.0
 74
       0
 49
-4.77804693
 74
       0
  0
LTYPE
  5
2A
100
AcDbSymbolTableRecord
100
AcDbLinetypeTableRecord
  2
DASHDOT
 70
      64
  3
CADPAC LINETYPE
 72
      65
 73
       4
 40
15.28975016
 49
7.64487508
 74
       0
 49
-3.82243754
 74
       0
 49
0.0
 74
       0
 49
-3.82243754
 74
       0
  0
LTYPE
  5
2B
100
AcDbSymbolTableRecord
100
AcDbLinetypeTableRecord
  2
DASHDOT2
 70
      64
  3
CADPAC LINETYPE
 72
      65
 73
       4
 40
11.46731262
 49
5.73365631
 74
       0
 49
-2.86682816
 74
       0
 49
0.0
 74
       0
 49
-2.86682816
 74
       0
  0
LTYPE
  5
2C
100
AcDbSymbolTableRecord
100
AcDbLinetypeTableRecord
  2
DIVIDEX2
 70
      64
  3
CADPAC LINETYPE
 72
      65
 73
       6
 40
23.89023463
 49
9.55609385
 74
       0
 49
-4.77804693
 74
       0
 49
0.0
 74
       0
 49
-4.77804693
 74
       0
 49
0.0
 74
       0
 49
-4.77804693
 74
       0
  0
LTYPE
  5
2D
100
AcDbSymbolTableRecord
100
AcDbLinetypeTableRecord
  2
DIVIDE
 70
      64
  3
CADPAC LINETYPE
 72
      65
 73
       6
 40
19.1121877
 49
7.64487508
 74
       0
 49
-3.82243754
 74
       0
 49
0.0
 74
       0
 49
-3.82243754
 74
       0
 49
0.0
 74
       0
 49
-3.82243754
 74
       0
  0
LTYPE
  5
2E
100
AcDbSymbolTableRecord
100
AcDbLinetypeTableRecord
  2
DIVIDE2
 70
      64
  3
CADPAC LINETYPE
 72
      65
 73
       6
 40
14.33414078
 49
5.73365631
 74
       0
 49
-2.86682816
 74
       0
 49
0.0
 74
       0
 49
-2.86682816
 74
       0
 49
0.0
 74
       0
 49
-2.86682816
 74
       0
  0
LTYPE
  5
2F
100
AcDbSymbolTableRecord
100
AcDbLinetypeTableRecord
  2
BORDERX2
 70
      64
  3
CADPAC LINETYPE
 72
      65
 73
       6
 40
33.44632848
 49
9.55609385
 74
       0
 49
-4.77804693
 74
       0
 49
9.55609385
 74
       0
 49
-4.77804693
 74
       0
 49
0.0
 74
       0
 49
-4.77804693
 74
       0
  0
LTYPE
  5
30
100
AcDbSymbolTableRecord
100
AcDbLinetypeTableRecord
  2
BORDER
 70
      64
  3
CADPAC LINETYPE
 72
      65
 73
       6
 40
26.75706278
 49
7.64487508
 74
       0
 49
-3.82243754
 74
       0
 49
7.64487508
 74
       0
 49
-3.82243754
 74
       0
 49
0.0
 74
       0
 49
-3.82243754
 74
       0
  0
LTYPE
  5
31
100
AcDbSymbolTableRecord
100
AcDbLinetypeTableRecord
  2
BORDER2
 70
      64
  3
CADPAC LINETYPE
 72
      65
 73
       6
 40
20.06779709
 49
5.73365631
 74
       0
 49
-2.86682816
 74
       0
 49
5.73365631
 74
       0
 49
-2.86682816
 74
       0
 49
0.0
 74
       0
 49
-2.86682816
 74
       0
  0
LTYPE
  5
32
100
AcDbSymbolTableRecord
100
AcDbLinetypeTableRecord
  2
PHANTOMX2
 70
      64
  3
CADPAC LINETYPE
 72
      65
 73
       6
 40
28.66828155
 49
9.55609385
 74
       0
 49
-3.82243754
 74
       0
 49
3.82243754
 74
       0
 49
-3.82243754
 74
       0
 49
3.82243754
 74
       0
 49
-3.82243754
 74
       0
  0
LTYPE
  5
33
100
AcDbSymbolTableRecord
100
AcDbLinetypeTableRecord
  2
PHANTOM
 70
      64
  3
CADPAC LINETYPE
 72
      65
 73
       6
 40
23.69911275
 49
7.64487508
 74
       0
 49
-3.82243754
 74
       0
 49
2.29346252
 74
       0
 49
-3.82243754
 74
       0
 49
2.29346252
 74
       0
 49
-3.82243754
 74
       0
  0
LTYPE
  5
34
100
AcDbSymbolTableRecord
100
AcDbLinetypeTableRecord
  2
PHANTOM2
 70
      64
  3
CADPAC LINETYPE
 72
      65
 73
       6
 40
20.25891896
 49
5.73365631
 74
       0
 49
-3.82243754
 74
       0
 49
1.52897502
 74
       0
 49
-3.82243754
 74
       0
 49
1.52897502
 74
       0
 49
-3.82243754
 74
       0
  0
LTYPE
  5
35
100
AcDbSymbolTableRecord
100
AcDbLinetypeTableRecord
  2
ACAD_ISO06W100
 70
      64
  3
CADPAC LINETYPE
 72
      65
 73
       8
 40
25.8014534
 49
9.55609385
 74
       0
 49
-4.77804693
 74
       0
 49
0.0
 74
       0
 49
-3.82243754
 74
       0
 49
0.0
 74
       0
 49
-3.82243754
 74
       0
 49
0.0
 74
       0
 49
-3.82243754
 74
       0
  0
LTYPE
  5
36
100
AcDbSymbolTableRecord
100
AcDbLinetypeTableRecord
  2
ACAD_ISO13W100
 70
      64
  3
CADPAC LINETYPE
 72
      65
 73
       8
 40
30.57950032
 49
7.64487508
 74
       0
 49
-3.82243754
 74
       0
 49
7.64487508
 74
       0
 49
-3.82243754
 74
       0
 49
0.0
 74
       0
 49
-3.82243754
 74
       0
 49
0.0
 74
       0
 49
-3.82243754
 74
       0
  0
LTYPE
  5
37
100
AcDbSymbolTableRecord
100
AcDbLinetypeTableRecord
  2
ACAD_ISO14W100
 70
      64
  3
CADPAC LINETYPE
 72
      65
 73
       8
 40
22.93462524
 49
7.64487508
 74
       0
 49
-3.82243754
 74
       0
 49
0.0
 74
       0
 49
-3.82243754
 74
       0
 49
0.0
 74
       0
 49
-3.82243754
 74
       0
 49
0.0
 74
       0
 49
-3.82243754
 74
       0
  0
ENDTAB
  0
TABLE
  2
LAYER
  5
2
100
AcDbSymbolTable
 70
       5
  0
LAYER
  5
14
100
AcDbSymbolTableRecord
100
AcDbLayerTableRecord
  2
0
 70
       0
 62
       7
  6
CONTINUOUS
  0
LAYER
  5
38
100
AcDbSymbolTableRecord
100
AcDbLayerTableRecord
  2
SLD-0_2
 70
       0
 62
       7
  6
CONTINUOUS
  0
LAYER
  5
39
100
AcDbSymbolTableRecord
100
AcDbLayerTableRecord
  2
SLD-0_1
 70
       0
 62
       7
  6
CONTINUOUS
  0
LAYER
  5
3A
100
AcDbSymbolTableRecord
100
AcDbLayerTableRecord
  2
SLD-0_0
 70
       0
 62
       7
  6
CONTINUOUS
  0
LAYER
  5
3B
100
AcDbSymbolTableRecord
100
AcDbLayerTableRecord
  2
SLD-0
 70
       0
 62
       7
  6
CONTINUOUS
  0
ENDTAB
  0
TABLE
  2
STYLE
  5
3
100
AcDbSymbolTable
 70
       1
  0
STYLE
  5
17
100
AcDbSymbolTableRecord
100
AcDbTextStyleTableRecord
  2
STANDARD
 70
       0
 40
0.0
 41
1.0
 50
0.0
 71
       0
 42
5.0
  3
txt.shx
  4
bigfont.shx
  0
ENDTAB
  0
TABLE
  2
VIEW
  5
5
100
AcDbSymbolTable
 70
       1
  0
VIEW
  5
3C
100
AcDbSymbolTableRecord
100
AcDbViewTableRecord
  2
QQQQ
 70
       0
 40
287.26550418
 10
-1.62499999
 20
0.0
 41
236.84802515
 11
0.0
 21
0.0
 31
1.0
 12
100.0
 22
100.0
 32
0.0
 42
50.0
 43
0.0
 44
0.0
 50
0.0
 71
       0
  0
ENDTAB
  0
TABLE
  2
UCS
  5
6
100
AcDbSymbolTable
 70
       0
  0
ENDTAB
  0
TABLE
  2
APPID
  5
8
100
AcDbSymbolTable
 70
       1
  0
APPID
  5
16
100
AcDbSymbolTableRecord
100
AcDbRegAppTableRecord
  2
ACAD
 70
       0
  0
ENDTAB
  0
TABLE
  2
DIMSTYLE
  5
9
100
AcDbSymbolTable
 70
       1
  0
DIMSTYLE
105
18
100
AcDbSymbolTableRecord
100
AcDbDimStyleTableRecord
  2
STANDARD
 70
       0
  3

  4

  5

  6

  7

 40
1.0
 41
0.18
 42
0.0625
 43
0.38
 44
0.18
 45
0.0
 46
0.0
 47
0.0
 48
0.0
 71
       0
 72
       0
 73
       1
 74
       1
 75
       0
 76
       0
 77
       0
 78
       0
140
0.18
141
0.09
142
0.0
143
25.4
144
1.0
145
0.0
146
1.0
147
0.09
170
       0
171
       2
172
       0
173
       0
174
       0
175
       0
176
       0
177
       0
178
       0
270
       2
271
       4
272
       4
273
       2
274
       2
275
       0
280
       0
281
       0
282
       0
283
       1
284
       0
285
       0
286
       0
287
       0
288
       0
340
17
  0
ENDTAB
  0
TABLE
  2
BLOCK_RECORD
  5
1
100
AcDbSymbolTable
 70
       0
  0
BLOCK_RECORD
  5
A
100
AcDbSymbolTableRecord
100
AcDbBlockTableRecord
  2
*MODEL_SPACE
  0
BLOCK_RECORD
  5
B
100
AcDbSymbolTableRecord
100
AcDbBlockTableRecord
  2
*PAPER_SPACE
  0
ENDTAB
  0
ENDSEC
  0
SECTION
  2
BLOCKS
  0
BLOCK
  5
D
100
AcDbEntity
  8
0
100
AcDbBlockBegin
  2
*MODEL_SPACE
 70
       0
 10
0.0
 20
0.0
 30
0.0
  3
*MODEL_SPACE
  1

  0
ENDBLK
  5
E
100
AcDbEntity
  8
0
100
AcDbBlockEnd
  0
BLOCK
  5
F
100
AcDbEntity
 67
       1
  8
0
100
AcDbBlockBegin
  2
*PAPER_SPACE
 70
       0
 10
0.0
 20
0.0
 30
0.0
  3
*PAPER_SPACE
  1

  0
ENDBLK
  5
10
100
AcDbEntity
 67
       1
  8
0
100
AcDbBlockEnd
  0
ENDSEC
  0
SECTION
  2
ENTITIES
  0
LINE
  5
3D
100
AcDbEntity
  8
SLD-0
  6
CONTINUOUS
 62
       7
100
AcDbLine
 10
46.74100917
 20
58.40170871
 30
0.0
 11
46.74100917
 21
36.90170871
 31
0.0
  0
LINE
  5
3E
100
AcDbEntity
  8
SLD-0
  6
CONTINUOUS
 62
       7
100
AcDbLine
 10
65.24100917
 20
115.90170871
 30
0.0
 11
47.74100917
 21
115.90170871
 31
0.0
  0
LINE
  5
3F
100
AcDbEntity
  8
SLD-0
  6
CONTINUOUS
 62
       7
100
AcDbLine
 10
65.17669645
 20
125.90170871
 30
0.0
 11
65.17669645
 21
25.90170871
 31
0.0
  0
LINE
  5
40
100
AcDbEntity
  8
SLD-0
  6
CONTINUOUS
 62
       7
100
AcDbLine
 10
65.24100917
 20
35.90170871
 30
0.0
 11
47.74100917
 21
35.90170871
 31
0.0
  0
LINE
  5
41
100
AcDbEntity
  8
SLD-0
  6
CONTINUOUS
 62
       7
100
AcDbLine
 10
46.74100917
 20
114.90170871
 30
0.0
 11
46.74100917
 21
103.40170871
 31
0.0
  0
LINE
  5
42
100
AcDbEntity
  8
SLD-0
  6
CONTINUOUS
 62
       7
100
AcDbLine
 10
46.74100917
 20
103.40170871
 30
0.0
 11
-13.82330355
 21
103.40170871
 31
0.0
  0
LINE
  5
43
100
AcDbEntity
  8
SLD-0
  6
CONTINUOUS
 62
       7
100
AcDbLine
 10
46.74100917
 20
58.40170871
 30
0.0
 11
-13.82330355
 21
58.40170871
 31
0.0
  0
LINE
  5
44
100
AcDbEntity
  8
SLD-0
  6
CONTINUOUS
 62
       7
100
AcDbLine
 10
38.17669645
 20
103.40170871
 30
0.0
 11
38.17669645
 21
58.40170871
 31
0.0
  0
LINE
  5
45
100
AcDbEntity
  8
SLD-0
  6
CONTINUOUS
 62
       7
100
AcDbLine
 10
-14.82330355
 20
102.40170871
 30
0.0
 11
-14.82330355
 21
59.40170871
 31
0.0
  0
LINE
  5
46
100
AcDbEntity
  8
SLD-0
  6
CONTINUOUS
 62
       7
100
AcDbLine
 10
64.17669645
 20
125.90170871
 30
0.0
 11
64.17669645
 21
115.90170871
 31
0.0
  0
LINE
  5
47
100
AcDbEntity
  8
SLD-0
  6
CONTINUOUS
 62
       7
100
AcDbLine
 10
64.17669645
 20
125.90170871
 30
0.0
 11
65.17669645
 21
125.90170871
 31
0.0
  0
LINE
  5
48
100
AcDbEntity
  8
SLD-0
  6
CONTINUOUS
 62
       7
100
AcDbLine
 10
64.24100917
 20
35.90170871
 30
0.0
 11
64.24100917
 21
25.90170871
 31
0.0
  0
LINE
  5
49
100
AcDbEntity
  8
SLD-0
  6
CONTINUOUS
 62
       7
100
AcDbLine
 10
64.24100917
 20
25.90170871
 30
0.0
 11
65.17669645
 21
25.90170871
 31
0.0
  0
LINE
  5
4A
100
AcDbEntity
  8
SLD-0
  6
CONTINUOUS
 62
       7
100
AcDbLine
 10
73.67669645
 20
-14.09829129
 30
0.0
 11
73.67669645
 21
-46.09829129
 31
0.0
  0
LINE
  5
4B
100
AcDbEntity
  8
SLD-0
  6
CONTINUOUS
 62
       7
100
AcDbLine
 10
70.17669645
 20
-46.09829129
 30
0.0
 11
70.17669645
 21
-81.69829129
 31
0.0
  0
LINE
  5
4C
100
AcDbEntity
  8
SLD-0
  6
CONTINUOUS
 62
       7
100
AcDbLine
 10
70.17669645
 20
-46.09829129
 30
0.0
 11
73.67669645
 21
-46.09829129
 31
0.0
  0
LINE
  5
4D
100
AcDbEntity
  8
SLD-0
  6
CONTINUOUS
 62
       7
100
AcDbLine
 10
70.17669645
 20
-81.69829129
 30
0.0
 11
73.67669645
 21
-81.69829129
 31
0.0
  0
LINE
  5
4E
100
AcDbEntity
  8
SLD-0
  6
CONTINUOUS
 62
       7
100
AcDbLine
 10
73.67669645
 20
-81.69829129
 30
0.0
 11
73.67669645
 21
-118.09829129
 31
0.0
  0
LINE
  5
4F
100
AcDbEntity
  8
SLD-0
  6
CONTINUOUS
 62
       7
100
AcDbLine
 10
63.17669645
 20
-15.34829129
 30
0.0
 11
63.17669645
 21
-22.84829129
 31
0.0
  0
LINE
  5
50
100
AcDbEntity
  8
SLD-0
  6
CONTINUOUS
 62
       7
100
AcDbLine
 10
61.17669645
 20
-16.69829129
 30
0.0
 11
61.17669645
 21
-21.49829129
 31
0.0
  0
LINE
  5
51
100
AcDbEntity
  8
SLD-0
  6
CONTINUOUS
 62
       7
100
AcDbLine
 10
63.17669645
 20
-22.84829129
 30
0.0
 11
64.17669645
 21
-22.84829129
 31
0.0
  0
LINE
  5
52
100
AcDbEntity
  8
SLD-0
  6
CONTINUOUS
 62
       7
100
AcDbLine
 10
63.17669645
 20
-15.34829129
 30
0.0
 11
64.17669645
 21
-15.34829129
 31
0.0
  0
LINE
  5
53
100
AcDbEntity
  8
SLD-0
  6
CONTINUOUS
 62
       7
100
AcDbLine
 10
62.17669645
 20
-22.49829129
 30
0.0
 11
63.17669645
 21
-22.49829129
 31
0.0
  0
LINE
  5
54
100
AcDbEntity
  8
SLD-0
  6
CONTINUOUS
 62
       7
100
AcDbLine
 10
62.17669645
 20
-15.69829129
 30
0.0
 11
63.17669645
 21
-15.69829129
 31
0.0
  0
LINE
  5
55
100
AcDbEntity
  8
SLD-0
  6
CONTINUOUS
 62
       7
100
AcDbLine
 10
70.17669645
 20
-114.09829129
 30
0.0
 11
70.17669645
 21
-118.09829129
 31
0.0
  0
LINE
  5
56
100
AcDbEntity
  8
SLD-0
  6
CONTINUOUS
 62
       7
100
AcDbLine
 10
70.17669645
 20
-118.09829129
 30
0.0
 11
73.67669645
 21
-118.09829129
 31
0.0
  0
LINE
  5
57
100
AcDbEntity
  8
SLD-0
  6
CONTINUOUS
 62
       7
100
AcDbLine
 10
-81.04259918
 20
-118.09829129
 30
0.0
 11
-90.2148214
 21
-118.09829129
 31
0.0
  0
ARC
  5
58
100
AcDbEntity
  8
SLD-0
  6
CONTINUOUS
 62
       7
100
AcDbCircle
 10
-13.82330355
 20
59.40170871
 30
0.0
 40
1.0
100
AcDbArc
 50
180.0
 51
270.0
  0
ARC
  5
59
100
AcDbEntity
  8
SLD-0
  6
CONTINUOUS
 62
       7
100
AcDbCircle
 10
-13.82330355
 20
102.40170871
 30
0.0
 40
1.0
100
AcDbArc
 50
90.0
 51
180.0
  0
ARC
  5
5A
100
AcDbEntity
  8
SLD-0
  6
CONTINUOUS
 62
       7
100
AcDbCircle
 10
47.74100917
 20
36.90170871
 30
0.0
 40
1.0
100
AcDbArc
 50
180.0
 51
270.0
  0
ARC
  5
5B
100
AcDbEntity
  8
SLD-0
  6
CONTINUOUS
 62
       7
100
AcDbCircle
 10
47.74100917
 20
114.90170871
 30
0.0
 40
1.0
100
AcDbArc
 50
90.0
 51
180.0
  0
ARC
  5
5C
100
AcDbEntity
  8
SLD-0
  6
CONTINUOUS
 62
       7
100
AcDbCircle
 10
62.17669645
 20
-21.49829129
 30
0.0
 40
1.0
100
AcDbArc
 50
180.0
 51
270.0
  0
ARC
  5
5D
100
AcDbEntity
  8
SLD-0
  6
CONTINUOUS
 62
       7
100
AcDbCircle
 10
62.17669645
 20
-16.69829129
 30
0.0
 40
1.0
100
AcDbArc
 50
90.0
 51
180.0
  0
CIRCLE
  5
5E
100
AcDbEntity
  8
SLD-0
  6
CONTINUOUS
 62
       7
100
AcDbCircle
 10
-85.7372308
 20
-109.09829129
 30
0.0
 40
2.5
  0
CIRCLE
  5
5F
100
AcDbEntity
  8
SLD-0
  6
CONTINUOUS
 62
       7
100
AcDbCircle
 10
-85.7372308
 20
-19.09829129
 30
0.0
 40
2.5
  0
LINE
  5
60
100
AcDbEntity
  8
SLD-0
  6
CENTERX2
 62
       7
100
AcDbLine
 10
72.43299932
 20
75.90170871
 30
0.0
 11
-20.78670041
 21
75.90170871
 31
0.0
  0
LINE
  5
61
100
AcDbEntity
  8
SLD-0
  6
CENTERX2
 62
       7
100
AcDbLine
 10
-66.20434647
 20
75.90170871
 30
0.0
 11
-108.11993384
 21
75.90170871
 31
0.0
  0
LINE
  5
62
100
AcDbEntity
  8
SLD-0
  6
CENTERX2
 62
       7
100
AcDbLine
 10
-85.7372308
 20
129.98439103
 30
0.0
 11
-85.7372308
 21
19.14094888
 31
0.0
  0
LINE
  5
63
100
AcDbEntity
  8
SLD-0_2
  6
CONTINUOUS
 62
       7
100
AcDbLine
 10
-74.2372308
 20
115.90170871
 30
0.0
 11
-74.2372308
 21
124.90170871
 31
0.0
  0
LINE
  5
64
100
AcDbEntity
  8
SLD-0_2
  6
CONTINUOUS
 62
       7
100
AcDbLine
 10
-101.4872308
 20
115.90170871
 30
0.0
 11
-69.9872308
 21
115.90170871
 31
0.0
  0
LINE
  5
65
100
AcDbEntity
  8
SLD-0_2
  6
CONTINUOUS
 62
       7
100
AcDbLine
 10
-101.4872308
 20
35.90170871
 30
0.0
 11
-101.4872308
 21
115.90170871
 31
0.0
  0
LINE
  5
66
100
AcDbEntity
  8
SLD-0_2
  6
CONTINUOUS
 62
       7
100
AcDbLine
 10
-97.2372308
 20
35.90170871
 30
0.0
 11
-97.2372308
 21
26.90170871
 31
0.0
  0
LINE
  5
67
100
AcDbEntity
  8
SLD-0_2
  6
CONTINUOUS
 62
       7
100
AcDbLine
 10
-96.2372308
 20
25.90170871
 30
0.0
 11
-75.2372308
 21
25.90170871
 31
0.0
  0
LINE
  5
68
100
AcDbEntity
  8
SLD-0_2
  6
CONTINUOUS
 62
       7
100
AcDbLine
 10
-69.9872308
 20
-104.09829129
 30
0.0
 11
-69.9872308
 21
-24.09829129
 31
0.0
  0
LINE
  5
69
100
AcDbEntity
  8
SLD-0_2
  6
CONTINUOUS
 62
       7
100
AcDbLine
 10
-97.2372308
 20
-104.09829129
 30
0.0
 11
-97.2372308
 21
-113.09829129
 31
0.0
  0
LINE
  5
6A
100
AcDbEntity
  8
SLD-0_2
  6
CONTINUOUS
 62
       7
100
AcDbLine
 10
-96.2372308
 20
125.90170871
 30
0.0
 11
-75.2372308
 21
125.90170871
 31
0.0
  0
LINE
  5
6B
100
AcDbEntity
  8
SLD-0_2
  6
CONTINUOUS
 62
       7
100
AcDbLine
 10
-97.2372308
 20
115.90170871
 30
0.0
 11
-97.2372308
 21
124.90170871
 31
0.0
  0
LINE
  5
6C
100
AcDbEntity
  8
SLD-0_2
  6
CONTINUOUS
 62
       7
100
AcDbLine
 10
-69.9872308
 20
35.90170871
 30
0.0
 11
-69.9872308
 21
115.90170871
 31
0.0
  0
LINE
  5
6D
100
AcDbEntity
  8
SLD-0_2
  6
CONTINUOUS
 62
       7
100
AcDbLine
 10
-101.4872308
 20
35.90170871
 30
0.0
 11
-69.9872308
 21
35.90170871
 31
0.0
  0
LINE
  5
6E
100
AcDbEntity
  8
SLD-0_2
  6
CONTINUOUS
 62
       7
100
AcDbLine
 10
-74.2372308
 20
35.90170871
 30
0.0
 11
-74.2372308
 21
26.90170871
 31
0.0
  0
LINE
  5
6F
100
AcDbEntity
  8
SLD-0_2
  6
CONTINUOUS
 62
       7
100
AcDbLine
 10
-74.2372308
 20
-24.09829129
 30
0.0
 11
-74.2372308
 21
-15.09829129
 31
0.0
  0
LINE
  5
70
100
AcDbEntity
  8
SLD-0_2
  6
CONTINUOUS
 62
       7
100
AcDbLine
 10
-101.4872308
 20
-24.09829129
 30
0.0
 11
-69.9872308
 21
-24.09829129
 31
0.0
  0
LINE
  5
71
100
AcDbEntity
  8
SLD-0_2
  6
CONTINUOUS
 62
       7
100
AcDbLine
 10
-74.2372308
 20
-104.09829129
 30
0.0
 11
-74.2372308
 21
-113.09829129
 31
0.0
  0
LINE
  5
72
100
AcDbEntity
  8
SLD-0_2
  6
CONTINUOUS
 62
       7
100
AcDbLine
 10
-88.98009918
 20
-116.17624944
 30
0.0
 11
-82.27732141
 21
-116.17624944
 31
0.0
  0
LINE
  5
73
100
AcDbEntity
  8
SLD-0_2
  6
CONTINUOUS
 62
       7
100
AcDbLine
 10
-96.2372308
 20
-114.09829129
 30
0.0
 11
-75.2372308
 21
-114.09829129
 31
0.0
  0
LINE
  5
74
100
AcDbEntity
  8
SLD-0_2
  6
CONTINUOUS
 62
       7
100
AcDbLine
 10
-96.2372308
 20
-14.09829129
 30
0.0
 11
-75.2372308
 21
-14.09829129
 31
0.0
  0
LINE
  5
75
100
AcDbEntity
  8
SLD-0_2
  6
CONTINUOUS
 62
       7
100
AcDbLine
 10
-97.2372308
 20
-24.09829129
 30
0.0
 11
-97.2372308
 21
-15.09829129
 31
0.0
  0
LINE
  5
76
100
AcDbEntity
  8
SLD-0_2
  6
CONTINUOUS
 62
       7
100
AcDbLine
 10
-101.4872308
 20
-104.09829129
 30
0.0
 11
-101.4872308
 21
-24.09829129
 31
0.0
  0
LINE
  5
77
100
AcDbEntity
  8
SLD-0_2
  6
CONTINUOUS
 62
       7
100
AcDbLine
 10
-101.4872308
 20
-104.09829129
 30
0.0
 11
-69.9872308
 21
-104.09829129
 31
0.0
  0
LINE
  5
78
100
AcDbEntity
  8
SLD-0_2
  6
CONTINUOUS
 62
       7
100
AcDbLine
 10
-71.21408627
 20
37.40672852
 30
0.0
 11
-80.21439823
 21
37.40672852
 31
0.0
  0
LINE
  5
79
100
AcDbEntity
  8
SLD-0_2
  6
CONTINUOUS
 62
       7
100
AcDbLine
 10
-69.9872308
 20
48.90163412
 30
0.0
 11
-101.48889638
 21
48.90163412
 31
0.0
  0
LINE
  5
7A
100
AcDbEntity
  8
SLD-0_2
  6
CONTINUOUS
 62
       7
100
AcDbLine
 10
-81.23655806
 20
48.90163412
 30
0.0
 11
-81.23655806
 21
35.91775825
 31
0.0
  0
LINE
  5
7B
100
AcDbEntity
  8
SLD-0_2
  6
CONTINUOUS
 62
       7
100
AcDbLine
 10
-81.21416494
 20
38.90672309
 30
0.0
 11
-90.21413238
 21
38.90672309
 31
0.0
  0
LINE
  5
7C
100
AcDbEntity
  8
SLD-0_2
  6
CONTINUOUS
 62
       7
100
AcDbLine
 10
-91.23663672
 20
48.90163412
 30
0.0
 11
-91.23663672
 21
35.91775825
 31
0.0
  0
LINE
  5
7D
100
AcDbEntity
  8
SLD-0_2
  6
CONTINUOUS
 62
       7
100
AcDbLine
 10
-91.21458811
 20
38.90672309
 30
0.0
 11
-100.21455556
 21
38.90672309
 31
0.0
  0
LINE
  5
7E
100
AcDbEntity
  8
SLD-0_2
  6
CONTINUOUS
 62
       7
100
AcDbLine
 10
-92.05593906
 20
78.783151
 30
0.0
 11
-91.90901997
 21
78.98210706
 31
0.0
  0
LINE
  5
7F
100
AcDbEntity
  8
SLD-0_2
  6
CONTINUOUS
 62
       7
100
AcDbLine
 10
-91.78427734
 20
79.19146075
 30
0.0
 11
-91.68171118
 21
79.4095145
 31
0.0
  0
LINE
  5
80
100
AcDbEntity
  8
SLD-0_2
  6
CONTINUOUS
 62
       7
100
AcDbLine
 10
-91.60132149
 20
79.63457073
 30
0.0
 11
-91.54310826
 21
79.86493188
 31
0.0
  0
LINE
  5
81
100
AcDbEntity
  8
SLD-0_2
  6
CONTINUOUS
 62
       7
100
AcDbLine
 10
-91.5070715
 20
80.09890037
 30
0.0
 11
-91.49321121
 21
80.33477863
 31
0.0
  0
LINE
  5
82
100
AcDbEntity
  8
SLD-0_2
  6
CONTINUOUS
 62
       7
100
AcDbLine
 10
-91.50152739
 20
80.57086909
 30
0.0
 11
-91.53202003
 21
80.80547417
 31
0.0
  0
LINE
  5
83
100
AcDbEntity
  8
SLD-0_2
  6
CONTINUOUS
 62
       7
100
AcDbLine
 10
-91.58468914
 20
81.0368963
 30
0.0
 11
-91.65953471
 21
81.26343791
 31
0.0
  0
LINE
  5
84
100
AcDbEntity
  8
SLD-0_2
  6
CONTINUOUS
 62
       7
100
AcDbLine
 10
-91.75655676
 20
81.48340143
 30
0.0
 11
-91.87575526
 21
81.69508928
 31
0.0
  0
LINE
  5
85
100
AcDbEntity
  8
SLD-0_2
  6
CONTINUOUS
 62
       7
100
AcDbLine
 10
-92.01713024
 20
81.8968039
 30
0.0
 11
-92.18068169
 21
82.0868477
 31
0.0
  0
LINE
  5
86
100
AcDbEntity
  8
SLD-0_2
  6
CONTINUOUS
 62
       7
100
AcDbLine
 10
-92.36397576
 20
82.26123687
 30
0.0
 11
-92.56004918
 21
82.41370008
 31
0.0
  0
LINE
  5
87
100
AcDbEntity
  8
SLD-0_2
  6
CONTINUOUS
 62
       7
100
AcDbLine
 10
-92.76693234
 20
82.54398682
 30
0.0
 11
-92.9829296
 21
82.6520971
 31
0.0
  0
LINE
  5
88
100
AcDbEntity
  8
SLD-0_2
  6
CONTINUOUS
 62
       7
100
AcDbLine
 10
-93.2063453
 20
82.73803091
 30
0.0
 11
-93.43548381
 21
82.80178825
 31
0.0
  0
LINE
  5
89
100
AcDbEntity
  8
SLD-0_2
  6
CONTINUOUS
 62
       7
100
AcDbLine
 10
-93.66864948
 20
82.84336912
 30
0.0
 11
-93.90414666
 21
82.86277353
 31
0.0
  0
LINE
  5
8A
100
AcDbEntity
  8
SLD-0_2
  6
CONTINUOUS
 62
       7
100
AcDbLine
 10
-94.14027971
 20
82.86000147
 30
0.0
 11
-94.37535298
 21
82.83505295
 31
0.0
  0
LINE
  5
8B
100
AcDbEntity
  8
SLD-0_2
  6
CONTINUOUS
 62
       7
100
AcDbLine
 10
-94.60767082
 20
82.78792796
 30
0.0
 11
-94.8355376
 21
82.7186265
 31
0.0
  0
LINE
  5
8C
100
AcDbEntity
  8
SLD-0_2
  6
CONTINUOUS
 62
       7
100
AcDbLine
 10
-95.05725766
 20
82.62714857
 30
0.0
 11
-95.27113536
 21
82.51349418
 31
0.0
  0
LINE
  5
8D
100
AcDbEntity
  8
SLD-0_2
  6
CONTINUOUS
 62
       7
100
AcDbLine
 10
-95.47547505
 20
82.37766332
 30
0.0
 11
-95.66858109
 21
82.21965599
 31
0.0
  0
LINE
  5
8E
100
AcDbEntity
  8
SLD-0_2
  6
CONTINUOUS
 62
       7
100
AcDbLine
 10
-95.84777309
 20
82.04052372
 30
0.0
 11
-96.00589196
 21
81.84740307
 31
0.0
  0
LINE
  5
8F
100
AcDbEntity
  8
SLD-0_2
  6
CONTINUOUS
 62
       7
100
AcDbLine
 10
-96.14181872
 20
81.643036
 30
0.0
 11
-96.25555335
 21
81.42912008
 31
0.0
  0
LINE
  5
90
100
AcDbEntity
  8
SLD-0_2
  6
CONTINUOUS
 62
       7
100
AcDbLine
 10
-96.34709585
 20
81.20735289
 30
0.0
 11
-96.41644624
 21
80.97943201
 31
0.0
  0
LINE
  5
91
100
AcDbEntity
  8
SLD-0_2
  6
CONTINUOUS
 62
       7
100
AcDbLine
 10
-96.4636045
 20
80.74705499
 30
0.0
 11
-96.48857064
 21
80.51191942
 31
0.0
  0
LINE
  5
92
100
AcDbEntity
  8
SLD-0_2
  6
CONTINUOUS
 62
       7
100
AcDbLine
 10
-71.21408627
 20
-101.09327691
 30
0.0
 11
-80.21439823
 21
-101.09327691
 31
0.0
  0
LINE
  5
93
100
AcDbEntity
  8
SLD-0_2
  6
CONTINUOUS
 62
       7
100
AcDbLine
 10
-81.23655806
 20
-91.09836588
 30
0.0
 11
-81.23655806
 21
-104.08224175
 31
0.0
  0
LINE
  5
94
100
AcDbEntity
  8
SLD-0_2
  6
CONTINUOUS
 62
       7
100
AcDbLine
 10
-91.23663672
 20
-91.09836588
 30
0.0
 11
-91.23663672
 21
-104.08224175
 31
0.0
  0
LINE
  5
95
100
AcDbEntity
  8
SLD-0_2
  6
CONTINUOUS
 62
       7
100
AcDbLine
 10
-92.22503462
 20
-61.40370985
 30
0.0
 11
-92.05593906
 21
-61.216849
 31
0.0
  0
LINE
  5
96
100
AcDbEntity
  8
SLD-0_2
  6
CONTINUOUS
 62
       7
100
AcDbLine
 10
-91.68171118
 20
-60.5904855
 30
0.0
 11
-91.60132149
 21
-60.36542927
 31
0.0
  0
LINE
  5
97
100
AcDbEntity
  8
SLD-0_2
  6
CONTINUOUS
 62
       7
100
AcDbLine
 10
-91.49321121
 20
-59.66522137
 30
0.0
 11
-91.50152739
 21
-59.42913091
 31
0.0
  0
LINE
  5
98
100
AcDbEntity
  8
SLD-0_2
  6
CONTINUOUS
 62
       7
100
AcDbLine
 10
-91.65953471
 20
-58.73656209
 30
0.0
 11
-91.75655676
 21
-58.51659857
 31
0.0
  0
LINE
  5
99
100
AcDbEntity
  8
SLD-0_2
  6
CONTINUOUS
 62
       7
100
AcDbLine
 10
-92.18068169
 20
-57.9131523
 30
0.0
 11
-92.36397576
 21
-57.73876313
 31
0.0
  0
LINE
  5
9A
100
AcDbEntity
  8
SLD-0_2
  6
CONTINUOUS
 62
       7
100
AcDbLine
 10
-93.43548381
 20
-57.19821175
 30
0.0
 11
-93.66864948
 21
-57.15663088
 31
0.0
  0
LINE
  5
9B
100
AcDbEntity
  8
SLD-0_2
  6
CONTINUOUS
 62
       7
100
AcDbLine
 10
-94.37535298
 20
-57.16494705
 30
0.0
 11
-94.60767082
 21
-57.21207204
 31
0.0
  0
LINE
  5
9C
100
AcDbEntity
  8
SLD-0_2
  6
CONTINUOUS
 62
       7
100
AcDbLine
 10
-94.8355376
 20
-57.2813735
 30
0.0
 11
-95.05725766
 21
-57.37285143
 31
0.0
  0
LINE
  5
9D
100
AcDbEntity
  8
SLD-0_2
  6
CONTINUOUS
 62
       7
100
AcDbLine
 10
-95.66858109
 20
-57.78034401
 30
0.0
 11
-95.84777309
 21
-57.95947628
 31
0.0
  0
LINE
  5
9E
100
AcDbEntity
  8
SLD-0_2
  6
CONTINUOUS
 62
       7
100
AcDbLine
 10
-96.25555335
 20
-58.57087992
 30
0.0
 11
-96.34709585
 21
-58.79264711
 31
0.0
  0
LINE
  5
9F
100
AcDbEntity
  8
SLD-0_2
  6
CONTINUOUS
 62
       7
100
AcDbLine
 10
-96.48857064
 20
-59.48808058
 30
0.0
 11
-96.49134465
 21
-59.72427714
 31
0.0
  0
LINE
  5
A0
100
AcDbEntity
  8
SLD-0_2
  6
CONTINUOUS
 62
       7
100
AcDbLine
 10
-96.36651396
 20
-60.42225697
 30
0.0
 11
-96.28051948
 21
-60.64572173
 31
0.0
  0
LINE
  5
A1
100
AcDbEntity
  8
SLD-0_2
  6
CONTINUOUS
 62
       7
100
AcDbLine
 10
-96.04195416
 20
-61.06867304
 30
0.0
 11
-95.88938332
 21
-61.26476445
 31
0.0
  0
LINE
  5
A2
100
AcDbEntity
  8
SLD-0_2
  6
CONTINUOUS
 62
       7
100
AcDbLine
 10
-95.11152854
 20
-61.87218772
 30
0.0
 11
-94.89161011
 21
-61.96920976
 31
0.0
  0
LINE
  5
A3
100
AcDbEntity
  8
SLD-0_2
  6
CONTINUOUS
 62
       7
100
AcDbLine
 10
-94.19921362
 20
-62.12721709
 30
0.0
 11
-93.96318655
 21
-62.13553326
 31
0.0
  0
LINE
  5
A4
100
AcDbEntity
  8
SLD-0_2
  6
CONTINUOUS
 62
       7
100
AcDbLine
 10
-93.26315965
 20
-62.02742299
 30
0.0
 11
-93.03815428
 21
-61.94703329
 31
0.0
  0
LINE
  5
A5
100
AcDbEntity
  8
SLD-0_2
  6
CONTINUOUS
 62
       7
100
AcDbLine
 10
-97.48225033
 20
-56.09654026
 30
0.0
 11
-97.44395082
 21
-56.09654026
 31
0.0
  0
LINE
  5
A6
100
AcDbEntity
  8
SLD-0_2
  6
CONTINUOUS
 62
       7
100
AcDbLine
 10
-96.94810527
 20
-56.09654026
 30
0.0
 11
-96.68861072
 21
-56.09654026
 31
0.0
  0
LINE
  5
A7
100
AcDbEntity
  8
SLD-0_2
  6
CONTINUOUS
 62
       7
100
AcDbLine
 10
-95.76512144
 20
-56.09654026
 30
0.0
 11
-95.4417261
 21
-56.09654026
 31
0.0
  0
LINE
  5
A8
100
AcDbEntity
  8
SLD-0_2
  6
CONTINUOUS
 62
       7
100
AcDbLine
 10
-94.56247582
 20
-56.09654026
 30
0.0
 11
-94.33247394
 21
-56.09654026
 31
0.0
  0
LINE
  5
A9
100
AcDbEntity
  8
SLD-0_2
  6
CONTINUOUS
 62
       7
100
AcDbLine
 10
-93.96934542
 20
-56.09654026
 30
0.0
 11
-93.70167898
 21
-56.10643723
 31
0.0
  0
LINE
  5
AA
100
AcDbEntity
  8
SLD-0_2
  6
CONTINUOUS
 62
       7
100
AcDbLine
 10
-92.70183019
 20
-56.33215374
 30
0.0
 11
-92.39553219
 21
-56.46825245
 31
0.0
  0
LINE
  5
AB
100
AcDbEntity
  8
SLD-0_2
  6
CONTINUOUS
 62
       7
100
AcDbLine
 10
-91.58110946
 20
-57.03561168
 30
0.0
 11
-91.35005814
 21
-57.2721533
 31
0.0
  0
LINE
  5
AC
100
AcDbEntity
  8
SLD-0_2
  6
CONTINUOUS
 62
       7
100
AcDbLine
 10
-90.80168943
 20
-58.1005273
 30
0.0
 11
-90.67276078
 21
-58.41063585
 31
0.0
  0
LINE
  5
AD
100
AcDbEntity
  8
SLD-0_2
  6
CONTINUOUS
 62
       7
100
AcDbLine
 10
-90.47107403
 20
-59.41939668
 30
0.0
 11
-90.47107403
 21
-59.77408799
 31
0.0
  0
LINE
  5
AE
100
AcDbEntity
  8
SLD-0_2
  6
CONTINUOUS
 62
       7
100
AcDbLine
 10
-90.67276078
 20
-60.78274165
 30
0.0
 11
-90.80168943
 21
-61.0928376
 31
0.0
  0
LINE
  5
AF
100
AcDbEntity
  8
SLD-0_2
  6
CONTINUOUS
 62
       7
100
AcDbLine
 10
-96.49134465
 20
80.27572286
 30
0.0
 11
-96.47192654
 21
80.0401629
 31
0.0
  0
LINE
  5
B0
100
AcDbEntity
  8
SLD-0_2
  6
CONTINUOUS
 62
       7
100
AcDbLine
 10
-91.35005814
 20
-61.92122294
 30
0.0
 11
-91.58110946
 21
-62.1577799
 31
0.0
  0
LINE
  5
B1
100
AcDbEntity
  8
SLD-0_2
  6
CONTINUOUS
 62
       7
100
AcDbLine
 10
-96.43031631
 20
79.8069371
 30
0.0
 11
-96.36651396
 21
79.57774303
 31
0.0
  0
LINE
  5
B2
100
AcDbEntity
  8
SLD-0_2
  6
CONTINUOUS
 62
       7
100
AcDbLine
 10
-96.28051948
 20
79.35427827
 30
0.0
 11
-96.17233289
 21
79.13824039
 31
0.0
  0
LINE
  5
B3
100
AcDbEntity
  8
SLD-0_2
  6
CONTINUOUS
 62
       7
100
AcDbLine
 10
-96.04195416
 20
78.93132696
 30
0.0
 11
-95.88938332
 21
78.73523555
 31
0.0
  0
LINE
  5
B4
100
AcDbEntity
  8
SLD-0_2
  6
CONTINUOUS
 62
       7
100
AcDbLine
 10
-95.71490364
 20
78.55193721
 30
0.0
 11
-95.52487095
 21
78.38838577
 31
0.0
  0
LINE
  5
B5
100
AcDbEntity
  8
SLD-0_2
  6
CONTINUOUS
 62
       7
100
AcDbLine
 10
-95.32318071
 20
78.24701079
 30
0.0
 11
-95.11152854
 21
78.12781228
 31
0.0
  0
LINE
  5
B6
100
AcDbEntity
  8
SLD-0_2
  6
CONTINUOUS
 62
       7
100
AcDbLine
 10
-94.89161011
 20
78.03079024
 30
0.0
 11
-94.66512104
 21
77.95594466
 31
0.0
  0
LINE
  5
B7
100
AcDbEntity
  8
SLD-0_2
  6
CONTINUOUS
 62
       7
100
AcDbLine
 10
-94.433757
 20
77.90327555
 30
0.0
 11
-94.19921362
 21
77.87278291
 31
0.0
  0
LINE
  5
B8
100
AcDbEntity
  8
SLD-0_2
  6
CONTINUOUS
 62
       7
100
AcDbLine
 10
-93.96318655
 20
77.86446674
 30
0.0
 11
-93.72737143
 21
77.87832703
 31
0.0
  0
LINE
  5
B9
100
AcDbEntity
  8
SLD-0_2
  6
CONTINUOUS
 62
       7
100
AcDbLine
 10
-93.49346392
 20
77.91436379
 30
0.0
 11
-93.26315965
 21
77.97257701
 31
0.0
  0
LINE
  5
BA
100
AcDbEntity
  8
SLD-0_2
  6
CONTINUOUS
 62
       7
100
AcDbLine
 10
-93.03815428
 20
78.05296671
 30
0.0
 11
-92.82014344
 21
78.15553287
 31
0.0
  0
LINE
  5
BB
100
AcDbEntity
  8
SLD-0_2
  6
CONTINUOUS
 62
       7
100
AcDbLine
 10
-92.61082279
 20
78.28027549
 30
0.0
 11
-92.41188797
 21
78.42719459
 31
0.0
  0
LINE
  5
BC
100
AcDbEntity
  8
SLD-0_2
  6
CONTINUOUS
 62
       7
100
AcDbLine
 10
-97.48225033
 20
83.90345974
 30
0.0
 11
-97.44395082
 21
83.90345974
 31
0.0
  0
LINE
  5
BD
100
AcDbEntity
  8
SLD-0_2
  6
CONTINUOUS
 62
       7
100
AcDbLine
 10
-97.33560621
 20
83.90345974
 30
0.0
 11
-97.1670474
 21
83.90345974
 31
0.0
  0
LINE
  5
BE
100
AcDbEntity
  8
SLD-0_2
  6
CONTINUOUS
 62
       7
100
AcDbLine
 10
-96.94810527
 20
83.90345974
 30
0.0
 11
-96.68861072
 21
83.90345974
 31
0.0
  0
LINE
  5
BF
100
AcDbEntity
  8
SLD-0_2
  6
CONTINUOUS
 62
       7
100
AcDbLine
 10
-96.39839464
 20
83.90345974
 30
0.0
 11
-96.08728792
 21
83.90345974
 31
0.0
  0
LINE
  5
C0
100
AcDbEntity
  8
SLD-0_2
  6
CONTINUOUS
 62
       7
100
AcDbLine
 10
-95.76512144
 20
83.90345974
 30
0.0
 11
-95.4417261
 21
83.90345974
 31
0.0
  0
LINE
  5
C1
100
AcDbEntity
  8
SLD-0_2
  6
CONTINUOUS
 62
       7
100
AcDbLine
 10
-95.12693279
 20
83.90345974
 30
0.0
 11
-94.8305724
 21
83.90345974
 31
0.0
  0
LINE
  5
C2
100
AcDbEntity
  8
SLD-0_2
  6
CONTINUOUS
 62
       7
100
AcDbLine
 10
-94.56247582
 20
83.90345974
 30
0.0
 11
-94.33247394
 21
83.90345974
 31
0.0
  0
LINE
  5
C3
100
AcDbEntity
  8
SLD-0_2
  6
CONTINUOUS
 62
       7
100
AcDbLine
 10
-94.15039766
 20
83.90345974
 30
0.0
 11
-94.02607785
 21
83.90345974
 31
0.0
  0
LINE
  5
C4
100
AcDbEntity
  8
SLD-0_2
  6
CONTINUOUS
 62
       7
100
AcDbLine
 10
-93.96934542
 20
83.90345974
 30
0.0
 11
-93.70167898
 21
83.89356277
 31
0.0
  0
LINE
  5
C5
100
AcDbEntity
  8
SLD-0_2
  6
CONTINUOUS
 62
       7
100
AcDbLine
 10
-93.35658334
 20
83.85043362
 30
0.0
 11
-93.02274049
 21
83.77463486
 31
0.0
  0
LINE
  5
C6
100
AcDbEntity
  8
SLD-0_2
  6
CONTINUOUS
 62
       7
100
AcDbLine
 10
-92.70183019
 20
83.66784626
 30
0.0
 11
-92.39553219
 21
83.53174755
 31
0.0
  0
LINE
  5
C7
100
AcDbEntity
  8
SLD-0_2
  6
CONTINUOUS
 62
       7
100
AcDbLine
 10
-92.10552623
 20
83.3680185
 30
0.0
 11
-91.83349208
 21
83.17833884
 31
0.0
  0
LINE
  5
C8
100
AcDbEntity
  8
SLD-0_2
  6
CONTINUOUS
 62
       7
100
AcDbLine
 10
-91.58110946
 20
82.96438832
 30
0.0
 11
-91.35005814
 21
82.7278467
 31
0.0
  0
LINE
  5
C9
100
AcDbEntity
  8
SLD-0_2
  6
CONTINUOUS
 62
       7
100
AcDbLine
 10
-91.14201787
 20
82.47039373
 30
0.0
 11
-90.95866838
 21
82.19370914
 31
0.0
  0
LINE
  5
CA
100
AcDbEntity
  8
SLD-0_2
  6
CONTINUOUS
 62
       7
100
AcDbLine
 10
-90.80168943
 20
81.8994727
 30
0.0
 11
-90.67276078
 21
81.58936415
 31
0.0
  0
LINE
  5
CB
100
AcDbEntity
  8
SLD-0_2
  6
CONTINUOUS
 62
       7
100
AcDbLine
 10
-90.57356216
 20
81.26506324
 30
0.0
 11
-90.50577333
 21
80.92824971
 31
0.0
  0
LINE
  5
CC
100
AcDbEntity
  8
SLD-0_2
  6
CONTINUOUS
 62
       7
100
AcDbLine
 10
-90.47107403
 20
80.58060332
 30
0.0
 11
-90.47107403
 21
80.22591201
 31
0.0
  0
LINE
  5
CD
100
AcDbEntity
  8
SLD-0_2
  6
CONTINUOUS
 62
       7
100
AcDbLine
 10
-90.50577333
 20
79.87831435
 30
0.0
 11
-90.57356216
 21
79.54153606
 31
0.0
  0
LINE
  5
CE
100
AcDbEntity
  8
SLD-0_2
  6
CONTINUOUS
 62
       7
100
AcDbLine
 10
-90.67276078
 20
79.21725835
 30
0.0
 11
-90.80168943
 21
78.9071624
 31
0.0
  0
LINE
  5
CF
100
AcDbEntity
  8
SLD-0_2
  6
CONTINUOUS
 62
       7
100
AcDbLine
 10
-90.95866838
 20
78.6129294
 30
0.0
 11
-91.14201787
 21
78.33624056
 31
0.0
  0
LINE
  5
D0
100
AcDbEntity
  8
SLD-0_2
  6
CONTINUOUS
 62
       7
100
AcDbLine
 10
-91.35005814
 20
78.07877706
 30
0.0
 11
-91.58110946
 21
77.8422201
 31
0.0
  0
LINE
  5
D1
100
AcDbEntity
  8
SLD-0_2
  6
CONTINUOUS
 62
       7
100
AcDbLine
 10
-91.83349208
 20
77.62825087
 30
0.0
 11
-92.10552623
 21
77.43855058
 31
0.0
  0
LINE
  5
D2
100
AcDbEntity
  8
SLD-0_2
  6
CONTINUOUS
 62
       7
100
AcDbLine
 10
-92.39553219
 20
77.2748004
 30
0.0
 11
-92.70183019
 21
77.13868154
 31
0.0
  0
LINE
  5
D3
100
AcDbEntity
  8
SLD-0_2
  6
CONTINUOUS
 62
       7
100
AcDbLine
 10
-93.02274049
 20
77.03187518
 30
0.0
 11
-93.35658334
 21
76.95606254
 31
0.0
  0
LINE
  5
D4
100
AcDbEntity
  8
SLD-0_2
  6
CONTINUOUS
 62
       7
100
AcDbLine
 10
-93.70167898
 20
76.91292478
 30
0.0
 11
-93.96934542
 21
76.90302572
 31
0.0
  0
LINE
  5
D5
100
AcDbEntity
  8
SLD-0_2
  6
CONTINUOUS
 62
       7
100
AcDbLine
 10
-94.02607785
 20
76.90302572
 30
0.0
 11
-94.15039766
 21
76.90302572
 31
0.0
  0
LINE
  5
D6
100
AcDbEntity
  8
SLD-0_2
  6
CONTINUOUS
 62
       7
100
AcDbLine
 10
-94.33247394
 20
76.90302572
 30
0.0
 11
-94.56247582
 21
76.90302572
 31
0.0
  0
LINE
  5
D7
100
AcDbEntity
  8
SLD-0_2
  6
CONTINUOUS
 62
       7
100
AcDbLine
 10
-94.8305724
 20
76.90302572
 30
0.0
 11
-95.12693279
 21
76.90302572
 31
0.0
  0
LINE
  5
D8
100
AcDbEntity
  8
SLD-0_2
  6
CONTINUOUS
 62
       7
100
AcDbLine
 10
-95.4417261
 20
76.90302572
 30
0.0
 11
-95.76512144
 21
76.90302572
 31
0.0
  0
LINE
  5
D9
100
AcDbEntity
  8
SLD-0_2
  6
CONTINUOUS
 62
       7
100
AcDbLine
 10
-96.08728792
 20
76.90302572
 30
0.0
 11
-96.39839464
 21
76.90302572
 31
0.0
  0
LINE
  5
DA
100
AcDbEntity
  8
SLD-0_2
  6
CONTINUOUS
 62
       7
100
AcDbLine
 10
-96.68861072
 20
76.90302572
 30
0.0
 11
-96.94810527
 21
76.90302572
 31
0.0
  0
LINE
  5
DB
100
AcDbEntity
  8
SLD-0_2
  6
CONTINUOUS
 62
       7
100
AcDbLine
 10
-97.1670474
 20
76.90302572
 30
0.0
 11
-97.33560621
 21
76.90302572
 31
0.0
  0
LINE
  5
DC
100
AcDbEntity
  8
SLD-0_2
  6
CONTINUOUS
 62
       7
100
AcDbLine
 10
-97.44395082
 20
76.90302572
 30
0.0
 11
-97.48225033
 21
76.90302572
 31
0.0
  0
LINE
  5
DD
100
AcDbEntity
  8
SLD-0_2
  6
CONTINUOUS
 62
       7
100
AcDbLine
 10
-93.47946289
 20
85.37615576
 30
0.0
 11
-92.96951252
 21
85.29608328
 31
0.0
  0
LINE
  5
DE
100
AcDbEntity
  8
SLD-0_2
  6
CONTINUOUS
 62
       7
100
AcDbLine
 10
-92.47799916
 20
85.16597169
 30
0.0
 11
-92.00765761
 21
84.98855578
 31
0.0
  0
LINE
  5
DF
100
AcDbEntity
  8
SLD-0_2
  6
CONTINUOUS
 62
       7
100
AcDbLine
 10
-91.56122266
 20
84.76657035
 30
0.0
 11
-91.14142911
 21
84.50275019
 31
0.0
  0
LINE
  5
E0
100
AcDbEntity
  8
SLD-0_2
  6
CONTINUOUS
 62
       7
100
AcDbLine
 10
-90.75101176
 20
84.19983011
 30
0.0
 11
-90.3927054
 21
83.8605449
 31
0.0
  0
LINE
  5
E1
100
AcDbEntity
  8
SLD-0_2
  6
CONTINUOUS
 62
       7
100
AcDbLine
 10
-90.06924484
 20
83.48762936
 30
0.0
 11
-89.78336488
 21
83.08381829
 31
0.0
  0
LINE
  5
E2
100
AcDbEntity
  8
SLD-0_2
  6
CONTINUOUS
 62
       7
100
AcDbLine
 10
-89.5378003
 20
82.65184649
 30
0.0
 11
-89.33528592
 21
82.19444875
 31
0.0
  0
LINE
  5
E3
100
AcDbEntity
  8
SLD-0_2
  6
CONTINUOUS
 62
       7
100
AcDbLine
 10
-89.17855652
 20
81.71435988
 30
0.0
 11
-89.0703469
 21
81.21431467
 31
0.0
  0
LINE
  5
E4
100
AcDbEntity
  8
SLD-0_2
  6
CONTINUOUS
 62
       7
100
AcDbLine
 10
-89.01339187
 20
80.69704792
 30
0.0
 11
-89.0103462
 21
80.16785754
 31
0.0
  0
LINE
  5
E5
100
AcDbEntity
  8
SLD-0_2
  6
CONTINUOUS
 62
       7
100
AcDbLine
 10
-89.06143746
 20
79.64886116
 30
0.0
 11
-89.16408717
 21
79.14679637
 31
0.0
  0
LINE
  5
E6
100
AcDbEntity
  8
SLD-0_2
  6
CONTINUOUS
 62
       7
100
AcDbLine
 10
-89.31556053
 20
78.66439577
 30
0.0
 11
-89.51312275
 21
78.20439195
 31
0.0
  0
LINE
  5
E7
100
AcDbEntity
  8
SLD-0_2
  6
CONTINUOUS
 62
       7
100
AcDbLine
 10
-89.75403902
 20
77.76951753
 30
0.0
 11
-90.03557455
 21
77.36250509
 31
0.0
  0
LINE
  5
E8
100
AcDbEntity
  8
SLD-0_2
  6
CONTINUOUS
 62
       7
100
AcDbLine
 10
-90.35499454
 20
76.98608725
 30
0.0
 11
-90.70956419
 21
76.64299661
 31
0.0
  0
LINE
  5
E9
100
AcDbEntity
  8
SLD-0_2
  6
CONTINUOUS
 62
       7
100
AcDbLine
 10
-91.09654871
 20
76.33596576
 30
0.0
 11
-91.51321329
 21
76.06772731
 31
0.0
  0
LINE
  5
EA
100
AcDbEntity
  8
SLD-0_2
  6
CONTINUOUS
 62
       7
100
AcDbLine
 10
-91.95682314
 20
75.84101386
 30
0.0
 11
-92.42464345
 21
75.65855801
 31
0.0
  0
LINE
  5
EB
100
AcDbEntity
  8
SLD-0_2
  6
CONTINUOUS
 62
       7
100
AcDbLine
 10
-92.91393944
 20
75.52309236
 30
0.0
 11
-93.4219763
 21
75.43734951
 31
0.0
  0
LINE
  5
EC
100
AcDbEntity
  8
SLD-0_2
  6
CONTINUOUS
 62
       7
100
AcDbLine
 10
-93.94601923
 20
75.40406208
 30
0.0
 11
-94.02381046
 21
75.40372016
 31
0.0
  0
LINE
  5
ED
100
AcDbEntity
  8
SLD-0_2
  6
CONTINUOUS
 62
       7
100
AcDbLine
 10
-94.08577382
 20
75.40372016
 30
0.0
 11
-94.18498546
 21
75.40372016
 31
0.0
  0
LINE
  5
EE
100
AcDbEntity
  8
SLD-0_2
  6
CONTINUOUS
 62
       7
100
AcDbLine
 10
-94.31512022
 20
75.40372016
 30
0.0
 11
-94.46985291
 21
75.40372016
 31
0.0
  0
LINE
  5
EF
100
AcDbEntity
  8
SLD-0_2
  6
CONTINUOUS
 62
       7
100
AcDbLine
 10
-94.64285834
 20
75.40372016
 30
0.0
 11
-94.82781134
 21
75.40372016
 31
0.0
  0
LINE
  5
F0
100
AcDbEntity
  8
SLD-0_2
  6
CONTINUOUS
 62
       7
100
AcDbLine
 10
-95.01838673
 20
75.40372016
 30
0.0
 11
-95.20825931
 21
75.40372016
 31
0.0
  0
LINE
  5
F1
100
AcDbEntity
  8
SLD-0_2
  6
CONTINUOUS
 62
       7
100
AcDbLine
 10
-95.39110392
 20
75.40372016
 30
0.0
 11
-95.56059536
 21
75.40372016
 31
0.0
  0
LINE
  5
F2
100
AcDbEntity
  8
SLD-0_2
  6
CONTINUOUS
 62
       7
100
AcDbLine
 10
-95.71040846
 20
75.40372016
 30
0.0
 11
-95.83421804
 21
75.40372016
 31
0.0
  0
LINE
  5
F3
100
AcDbEntity
  8
SLD-0_2
  6
CONTINUOUS
 62
       7
100
AcDbLine
 10
-95.92569891
 20
75.40372016
 30
0.0
 11
-95.97852589
 21
75.40372016
 31
0.0
  0
LINE
  5
F4
100
AcDbEntity
  8
SLD-0_2
  6
CONTINUOUS
 62
       7
100
AcDbLine
 10
-95.98914595
 20
75.38199133
 30
0.0
 11
-95.98914595
 21
75.07117456
 31
0.0
  0
LINE
  5
F5
100
AcDbEntity
  8
SLD-0_2
  6
CONTINUOUS
 62
       7
100
AcDbLine
 10
-95.98914595
 20
74.43159113
 30
0.0
 11
-95.98914595
 21
73.51425654
 31
0.0
  0
LINE
  5
F6
100
AcDbEntity
  8
SLD-0_2
  6
CONTINUOUS
 62
       7
100
AcDbLine
 10
-95.98914595
 20
72.37018631
 30
0.0
 11
-95.98914595
 21
71.05039597
 31
0.0
  0
LINE
  5
F7
100
AcDbEntity
  8
SLD-0_2
  6
CONTINUOUS
 62
       7
100
AcDbLine
 10
-95.98914595
 20
69.60590103
 30
0.0
 11
-95.98914595
 21
68.08771701
 31
0.0
  0
LINE
  5
F8
100
AcDbEntity
  8
SLD-0_2
  6
CONTINUOUS
 62
       7
100
AcDbLine
 10
-95.98914595
 20
66.54685943
 30
0.0
 11
-95.98914595
 21
65.0343438
 31
0.0
  0
LINE
  5
F9
100
AcDbEntity
  8
SLD-0_2
  6
CONTINUOUS
 62
       7
100
AcDbLine
 10
-95.98914595
 20
63.60118564
 30
0.0
 11
-95.98914595
 21
62.29840047
 31
0.0
  0
LINE
  5
FA
100
AcDbEntity
  8
SLD-0_2
  6
CONTINUOUS
 62
       7
100
AcDbLine
 10
-95.98914595
 20
61.17700381
 30
0.0
 11
-95.98914595
 21
60.28801117
 31
0.0
  0
LINE
  5
FB
100
AcDbEntity
  8
SLD-0_2
  6
CONTINUOUS
 62
       7
100
AcDbLine
 10
-95.98914595
 20
59.68243808
 30
0.0
 11
-95.98914595
 21
59.41130005
 31
0.0
  0
LINE
  5
FC
100
AcDbEntity
  8
SLD-0_2
  6
CONTINUOUS
 62
       7
100
AcDbLine
 10
-95.84052065
 20
59.40159614
 30
0.0
 11
-95.24708033
 21
59.40159614
 31
0.0
  0
LINE
  5
FD
100
AcDbEntity
  8
SLD-0_2
  6
CONTINUOUS
 62
       7
100
AcDbLine
 10
-94.2615095
 20
59.40159614
 30
0.0
 11
-92.94916324
 21
59.40159614
 31
0.0
  0
LINE
  5
FE
100
AcDbEntity
  8
SLD-0_2
  6
CONTINUOUS
 62
       7
100
AcDbLine
 10
-91.37539663
 20
59.40159614
 30
0.0
 11
-89.60556476
 21
59.40159614
 31
0.0
  0
LINE
  5
FF
100
AcDbEntity
  8
SLD-0_2
  6
CONTINUOUS
 62
       7
100
AcDbLine
 10
-87.70502273
 20
59.40159614
 30
0.0
 11
-85.7391256
 21
59.40159614
 31
0.0
  0
LINE
  5
100
100
AcDbEntity
  8
SLD-0_2
  6
CONTINUOUS
 62
       7
100
AcDbLine
 10
-83.77322848
 20
59.40159614
 30
0.0
 11
-81.87268644
 21
59.40159614
 31
0.0
  0
LINE
  5
101
100
AcDbEntity
  8
SLD-0_2
  6
CONTINUOUS
 62
       7
100
AcDbLine
 10
-80.10285458
 20
59.40159614
 30
0.0
 11
-78.52908797
 21
59.40159614
 31
0.0
  0
LINE
  5
102
100
AcDbEntity
  8
SLD-0_2
  6
CONTINUOUS
 62
       7
100
AcDbLine
 10
-77.21674171
 20
59.40159614
 30
0.0
 11
-76.23117087
 21
59.40159614
 31
0.0
  0
LINE
  5
103
100
AcDbEntity
  8
SLD-0_2
  6
CONTINUOUS
 62
       7
100
AcDbLine
 10
-75.63773056
 20
59.40159614
 30
0.0
 11
-75.48910526
 21
59.42706565
 31
0.0
  0
LINE
  5
104
100
AcDbEntity
  8
SLD-0_2
  6
CONTINUOUS
 62
       7
100
AcDbLine
 10
-75.48910526
 20
60.13871177
 30
0.0
 11
-75.48910526
 21
61.72813742
 31
0.0
  0
LINE
  5
105
100
AcDbEntity
  8
SLD-0_2
  6
CONTINUOUS
 62
       7
100
AcDbLine
 10
-75.48910526
 20
64.06144404
 30
0.0
 11
-75.48910526
 21
67.00473305
 31
0.0
  0
LINE
  5
106
100
AcDbEntity
  8
SLD-0_2
  6
CONTINUOUS
 62
       7
100
AcDbLine
 10
-75.48910526
 20
70.42410587
 30
0.0
 11
-75.48910526
 21
74.18566393
 31
0.0
  0
LINE
  5
107
100
AcDbEntity
  8
SLD-0_2
  6
CONTINUOUS
 62
       7
100
AcDbLine
 10
-75.48910526
 20
78.15550867
 30
0.0
 11
-75.48910526
 21
82.1997415
 31
0.0
  0
LINE
  5
108
100
AcDbEntity
  8
SLD-0_2
  6
CONTINUOUS
 62
       7
100
AcDbLine
 10
-75.48910526
 20
86.18446385
 30
0.0
 11
-75.48910526
 21
89.97577715
 31
0.0
  0
LINE
  5
109
100
AcDbEntity
  8
SLD-0_2
  6
CONTINUOUS
 62
       7
100
AcDbLine
 10
-75.48910526
 20
93.43978283
 30
0.0
 11
-75.48910526
 21
96.44258232
 31
0.0
  0
LINE
  5
10A
100
AcDbEntity
  8
SLD-0_2
  6
CONTINUOUS
 62
       7
100
AcDbLine
 10
-75.48910526
 20
98.85027703
 30
0.0
 11
-75.48910526
 21
100.5289684
 31
0.0
  0
LINE
  5
10B
100
AcDbEntity
  8
SLD-0_2
  6
CONTINUOUS
 62
       7
100
AcDbLine
 10
-75.48910526
 20
101.34475786
 30
0.0
 11
-75.59883726
 21
101.40178873
 31
0.0
  0
LINE
  5
10C
100
AcDbEntity
  8
SLD-0_2
  6
CONTINUOUS
 62
       7
100
AcDbLine
 10
-76.14467325
 20
101.40178873
 30
0.0
 11
-77.08990144
 21
101.40178873
 31
0.0
  0
LINE
  5
10D
100
AcDbEntity
  8
SLD-0_2
  6
CONTINUOUS
 62
       7
100
AcDbLine
 10
-78.36916674
 20
101.40178873
 30
0.0
 11
-79.91711405
 21
101.40178873
 31
0.0
  0
LINE
  5
10E
100
AcDbEntity
  8
SLD-0_2
  6
CONTINUOUS
 62
       7
100
AcDbLine
 10
-81.6683883
 20
101.40178873
 30
0.0
 11
-83.55763439
 21
101.40178873
 31
0.0
  0
LINE
  5
10F
100
AcDbEntity
  8
SLD-0_2
  6
CONTINUOUS
 62
       7
100
AcDbLine
 10
-85.51949725
 20
101.40178873
 30
0.0
 11
-87.48862179
 21
101.40178873
 31
0.0
  0
LINE
  5
110
100
AcDbEntity
  8
SLD-0_2
  6
CONTINUOUS
 62
       7
100
AcDbLine
 10
-89.39965291
 20
101.40178873
 30
0.0
 11
-91.18723554
 21
101.40178873
 31
0.0
  0
LINE
  5
111
100
AcDbEntity
  8
SLD-0_2
  6
CONTINUOUS
 62
       7
100
AcDbLine
 10
-92.78601459
 20
101.40178873
 30
0.0
 11
-94.13063497
 21
101.40178873
 31
0.0
  0
LINE
  5
112
100
AcDbEntity
  8
SLD-0_2
  6
CONTINUOUS
 62
       7
100
AcDbLine
 10
-95.1557416
 20
101.40178873
 30
0.0
 11
-95.79597938
 21
101.40178873
 31
0.0
  0
LINE
  5
113
100
AcDbEntity
  8
SLD-0_2
  6
CONTINUOUS
 62
       7
100
AcDbLine
 10
-95.98914595
 20
101.39935167
 30
0.0
 11
-95.98914595
 21
101.16857686
 31
0.0
  0
LINE
  5
114
100
AcDbEntity
  8
SLD-0_2
  6
CONTINUOUS
 62
       7
100
AcDbLine
 10
-95.98914595
 20
100.59777914
 30
0.0
 11
-95.98914595
 21
99.73796195
 31
0.0
  0
LINE
  5
115
100
AcDbEntity
  8
SLD-0_2
  6
CONTINUOUS
 62
       7
100
AcDbLine
 10
-95.98914595
 20
98.64012872
 30
0.0
 11
-95.98914595
 21
97.3552829
 31
0.0
  0
LINE
  5
116
100
AcDbEntity
  8
SLD-0_2
  6
CONTINUOUS
 62
       7
100
AcDbLine
 10
-95.98914595
 20
95.93442791
 30
0.0
 11
-95.98914595
 21
94.42856719
 31
0.0
  0
LINE
  5
117
100
AcDbEntity
  8
SLD-0_2
  6
CONTINUOUS
 62
       7
100
AcDbLine
 10
-95.98914595
 20
92.88870418
 30
0.0
 11
-95.98914595
 21
91.36584232
 31
0.0
  0
LINE
  5
118
100
AcDbEntity
  8
SLD-0_2
  6
CONTINUOUS
 62
       7
100
AcDbLine
 10
-95.98914595
 20
89.91098504
 30
0.0
 11
-95.98914595
 21
88.57513577
 31
0.0
  0
LINE
  5
119
100
AcDbEntity
  8
SLD-0_2
  6
CONTINUOUS
 62
       7
100
AcDbLine
 10
-95.98914595
 20
87.40929797
 30
0.0
 11
-95.98914595
 21
86.46447505
 31
0.0
  0
LINE
  5
11A
100
AcDbEntity
  8
SLD-0_2
  6
CONTINUOUS
 62
       7
100
AcDbLine
 10
-95.98914595
 20
85.79167046
 30
0.0
 11
-95.98914595
 21
85.44188763
 31
0.0
  0
LINE
  5
11B
100
AcDbEntity
  8
SLD-0_2
  6
CONTINUOUS
 62
       7
100
AcDbLine
 10
-95.98173475
 20
85.40345432
 30
0.0
 11
-95.93359309
 21
85.40345432
 31
0.0
  0
LINE
  5
11C
100
AcDbEntity
  8
SLD-0_2
  6
CONTINUOUS
 62
       7
100
AcDbLine
 10
-95.84609475
 20
85.40345432
 30
0.0
 11
-95.72556489
 21
85.40345432
 31
0.0
  0
LINE
  5
11D
100
AcDbEntity
  8
SLD-0_2
  6
CONTINUOUS
 62
       7
100
AcDbLine
 10
-95.57832872
 20
85.40345432
 30
0.0
 11
-95.4107114
 21
85.40345432
 31
0.0
  0
LINE
  5
11E
100
AcDbEntity
  8
SLD-0_2
  6
CONTINUOUS
 62
       7
100
AcDbLine
 10
-95.22903813
 20
85.40345432
 30
0.0
 11
-95.03963407
 21
85.40345432
 31
0.0
  0
LINE
  5
11F
100
AcDbEntity
  8
SLD-0_2
  6
CONTINUOUS
 62
       7
100
AcDbLine
 10
-94.84882442
 20
85.40345432
 30
0.0
 11
-94.66293436
 21
85.40345432
 31
0.0
  0
LINE
  5
120
100
AcDbEntity
  8
SLD-0_2
  6
CONTINUOUS
 62
       7
100
AcDbLine
 10
-94.48828906
 20
85.40345432
 30
0.0
 11
-94.33121372
 21
85.40345432
 31
0.0
  0
LINE
  5
121
100
AcDbEntity
  8
SLD-0_2
  6
CONTINUOUS
 62
       7
100
AcDbLine
 10
-94.1980335
 20
85.40345432
 30
0.0
 11
-94.0950736
 21
85.40345432
 31
0.0
  0
LINE
  5
122
100
AcDbEntity
  8
SLD-0_2
  6
CONTINUOUS
 62
       7
100
AcDbLine
 10
-94.02865919
 20
85.40345432
 30
0.0
 11
-94.00511546
 21
85.40345432
 31
0.0
  0
LINE
  5
123
100
AcDbEntity
  8
SLD-0_2
  6
CONTINUOUS
 62
       7
100
AcDbLine
 10
-91.21458811
 20
114.3966889
 30
0.0
 11
-100.21455556
 21
114.3966889
 31
0.0
  0
LINE
  5
124
100
AcDbEntity
  8
SLD-0_2
  6
CONTINUOUS
 62
       7
100
AcDbLine
 10
-100.23660417
 20
115.88565917
 30
0.0
 11
-100.23660417
 21
102.9017833
 31
0.0
  0
LINE
  5
125
100
AcDbEntity
  8
SLD-0_2
  6
CONTINUOUS
 62
       7
100
AcDbLine
 10
-81.21416494
 20
114.3966889
 30
0.0
 11
-90.21413238
 21
114.3966889
 31
0.0
  0
LINE
  5
126
100
AcDbEntity
  8
SLD-0_2
  6
CONTINUOUS
 62
       7
100
AcDbLine
 10
-90.23687001
 20
115.88565917
 30
0.0
 11
-90.23687001
 21
102.9017833
 31
0.0
  0
LINE
  5
127
100
AcDbEntity
  8
SLD-0_2
  6
CONTINUOUS
 62
       7
100
AcDbLine
 10
-101.48889638
 20
57.90160157
 30
0.0
 11
-69.98935483
 21
57.90160157
 31
0.0
  0
LINE
  5
128
100
AcDbEntity
  8
SLD-0_2
  6
CONTINUOUS
 62
       7
100
AcDbLine
 10
-97.48914052
 20
102.9017833
 30
0.0
 11
-97.48914052
 21
57.90160157
 31
0.0
  0
LINE
  5
129
100
AcDbEntity
  8
SLD-0_2
  6
CONTINUOUS
 62
       7
100
AcDbLine
 10
-71.21408627
 20
114.3966889
 30
0.0
 11
-80.21439823
 21
114.3966889
 31
0.0
  0
LINE
  5
12A
100
AcDbEntity
  8
SLD-0_2
  6
CONTINUOUS
 62
       7
100
AcDbLine
 10
-80.23610233
 20
115.88565917
 30
0.0
 11
-80.23610233
 21
102.9017833
 31
0.0
  0
LINE
  5
12B
100
AcDbEntity
  8
SLD-0_2
  6
CONTINUOUS
 62
       7
100
AcDbLine
 10
-80.23610233
 20
35.91775825
 30
0.0
 11
-80.23610233
 21
48.90163412
 31
0.0
  0
LINE
  5
12C
100
AcDbEntity
  8
SLD-0_2
  6
CONTINUOUS
 62
       7
100
AcDbLine
 10
-71.23613489
 20
48.90163412
 30
0.0
 11
-71.23613489
 21
35.91775825
 31
0.0
  0
LINE
  5
12D
100
AcDbEntity
  8
SLD-0_2
  6
CONTINUOUS
 62
       7
100
AcDbLine
 10
-71.21408627
 20
38.90672309
 30
0.0
 11
-80.21439823
 21
38.90672309
 31
0.0
  0
LINE
  5
12E
100
AcDbEntity
  8
SLD-0_2
  6
CONTINUOUS
 62
       7
100
AcDbLine
 10
-90.23687001
 20
35.91775825
 30
0.0
 11
-90.23687001
 21
48.90163412
 31
0.0
  0
LINE
  5
12F
100
AcDbEntity
  8
SLD-0_2
  6
CONTINUOUS
 62
       7
100
AcDbLine
 10
-81.21416494
 20
37.40672852
 30
0.0
 11
-90.21413238
 21
37.40672852
 31
0.0
  0
LINE
  5
130
100
AcDbEntity
  8
SLD-0_2
  6
CONTINUOUS
 62
       7
100
AcDbLine
 10
-100.23660417
 20
35.91775825
 30
0.0
 11
-100.23660417
 21
48.90163412
 31
0.0
  0
LINE
  5
131
100
AcDbEntity
  8
SLD-0_2
  6
CONTINUOUS
 62
       7
100
AcDbLine
 10
-91.21458811
 20
37.40672852
 30
0.0
 11
-100.21455556
 21
37.40672852
 31
0.0
  0
LINE
  5
132
100
AcDbEntity
  8
SLD-0_2
  6
CONTINUOUS
 62
       7
100
AcDbLine
 10
-92.22503462
 20
78.59629015
 30
0.0
 11
-92.05593906
 21
78.783151
 31
0.0
  0
LINE
  5
133
100
AcDbEntity
  8
SLD-0_2
  6
CONTINUOUS
 62
       7
100
AcDbLine
 10
-91.90901997
 20
78.98210706
 30
0.0
 11
-91.78427734
 21
79.19146075
 31
0.0
  0
LINE
  5
134
100
AcDbEntity
  8
SLD-0_2
  6
CONTINUOUS
 62
       7
100
AcDbLine
 10
-91.68171118
 20
79.4095145
 30
0.0
 11
-91.60132149
 21
79.63457073
 31
0.0
  0
LINE
  5
135
100
AcDbEntity
  8
SLD-0_2
  6
CONTINUOUS
 62
       7
100
AcDbLine
 10
-91.54310826
 20
79.86493188
 30
0.0
 11
-91.5070715
 21
80.09890037
 31
0.0
  0
LINE
  5
136
100
AcDbEntity
  8
SLD-0_2
  6
CONTINUOUS
 62
       7
100
AcDbLine
 10
-91.49321121
 20
80.33477863
 30
0.0
 11
-91.50152739
 21
80.57086909
 31
0.0
  0
LINE
  5
137
100
AcDbEntity
  8
SLD-0_2
  6
CONTINUOUS
 62
       7
100
AcDbLine
 10
-91.53202003
 20
80.80547417
 30
0.0
 11
-91.58468914
 21
81.0368963
 31
0.0
  0
LINE
  5
138
100
AcDbEntity
  8
SLD-0_2
  6
CONTINUOUS
 62
       7
100
AcDbLine
 10
-91.65953471
 20
81.26343791
 30
0.0
 11
-91.75655676
 21
81.48340143
 31
0.0
  0
LINE
  5
139
100
AcDbEntity
  8
SLD-0_2
  6
CONTINUOUS
 62
       7
100
AcDbLine
 10
-91.87575526
 20
81.69508928
 30
0.0
 11
-92.01713024
 21
81.8968039
 31
0.0
  0
LINE
  5
13A
100
AcDbEntity
  8
SLD-0_2
  6
CONTINUOUS
 62
       7
100
AcDbLine
 10
-92.18068169
 20
82.0868477
 30
0.0
 11
-92.36397576
 21
82.26123687
 31
0.0
  0
LINE
  5
13B
100
AcDbEntity
  8
SLD-0_2
  6
CONTINUOUS
 62
       7
100
AcDbLine
 10
-92.56004918
 20
82.41370008
 30
0.0
 11
-92.76693234
 21
82.54398682
 31
0.0
  0
LINE
  5
13C
100
AcDbEntity
  8
SLD-0_2
  6
CONTINUOUS
 62
       7
100
AcDbLine
 10
-92.9829296
 20
82.6520971
 30
0.0
 11
-93.2063453
 21
82.73803091
 31
0.0
  0
LINE
  5
13D
100
AcDbEntity
  8
SLD-0_2
  6
CONTINUOUS
 62
       7
100
AcDbLine
 10
-93.43548381
 20
82.80178825
 30
0.0
 11
-93.66864948
 21
82.84336912
 31
0.0
  0
LINE
  5
13E
100
AcDbEntity
  8
SLD-0_2
  6
CONTINUOUS
 62
       7
100
AcDbLine
 10
-93.90414666
 20
82.86277353
 30
0.0
 11
-94.14027971
 21
82.86000147
 31
0.0
  0
LINE
  5
13F
100
AcDbEntity
  8
SLD-0_2
  6
CONTINUOUS
 62
       7
100
AcDbLine
 10
-94.37535298
 20
82.83505295
 30
0.0
 11
-94.60767082
 21
82.78792796
 31
0.0
  0
LINE
  5
140
100
AcDbEntity
  8
SLD-0_2
  6
CONTINUOUS
 62
       7
100
AcDbLine
 10
-94.8355376
 20
82.7186265
 30
0.0
 11
-95.05725766
 21
82.62714857
 31
0.0
  0
LINE
  5
141
100
AcDbEntity
  8
SLD-0_2
  6
CONTINUOUS
 62
       7
100
AcDbLine
 10
-95.27113536
 20
82.51349418
 30
0.0
 11
-95.47547505
 21
82.37766332
 31
0.0
  0
LINE
  5
142
100
AcDbEntity
  8
SLD-0_2
  6
CONTINUOUS
 62
       7
100
AcDbLine
 10
-95.66858109
 20
82.21965599
 30
0.0
 11
-95.84777309
 21
82.04052372
 31
0.0
  0
LINE
  5
143
100
AcDbEntity
  8
SLD-0_2
  6
CONTINUOUS
 62
       7
100
AcDbLine
 10
-96.00589196
 20
81.84740307
 30
0.0
 11
-96.14181872
 21
81.643036
 31
0.0
  0
LINE
  5
144
100
AcDbEntity
  8
SLD-0_2
  6
CONTINUOUS
 62
       7
100
AcDbLine
 10
-96.25555335
 20
81.42912008
 30
0.0
 11
-96.34709585
 21
81.20735289
 31
0.0
  0
LINE
  5
145
100
AcDbEntity
  8
SLD-0_2
  6
CONTINUOUS
 62
       7
100
AcDbLine
 10
-96.41644624
 20
80.97943201
 30
0.0
 11
-96.4636045
 21
80.74705499
 31
0.0
  0
LINE
  5
146
100
AcDbEntity
  8
SLD-0_2
  6
CONTINUOUS
 62
       7
100
AcDbLine
 10
-96.48857064
 20
80.51191942
 30
0.0
 11
-96.49134465
 21
80.27572286
 31
0.0
  0
LINE
  5
147
100
AcDbEntity
  8
SLD-0_2
  6
CONTINUOUS
 62
       7
100
AcDbLine
 10
-96.47192654
 20
80.0401629
 30
0.0
 11
-96.43031631
 21
79.8069371
 31
0.0
  0
LINE
  5
148
100
AcDbEntity
  8
SLD-0_2
  6
CONTINUOUS
 62
       7
100
AcDbLine
 10
-96.36651396
 20
79.57774303
 30
0.0
 11
-96.28051948
 21
79.35427827
 31
0.0
  0
LINE
  5
149
100
AcDbEntity
  8
SLD-0_2
  6
CONTINUOUS
 62
       7
100
AcDbLine
 10
-96.17233289
 20
79.13824039
 30
0.0
 11
-96.04195416
 21
78.93132696
 31
0.0
  0
LINE
  5
14A
100
AcDbEntity
  8
SLD-0_2
  6
CONTINUOUS
 62
       7
100
AcDbLine
 10
-95.88938332
 20
78.73523555
 30
0.0
 11
-95.71490364
 21
78.55193721
 31
0.0
  0
LINE
  5
14B
100
AcDbEntity
  8
SLD-0_2
  6
CONTINUOUS
 62
       7
100
AcDbLine
 10
-95.52487095
 20
78.38838577
 30
0.0
 11
-95.32318071
 21
78.24701079
 31
0.0
  0
LINE
  5
14C
100
AcDbEntity
  8
SLD-0_2
  6
CONTINUOUS
 62
       7
100
AcDbLine
 10
-95.11152854
 20
78.12781228
 30
0.0
 11
-94.89161011
 21
78.03079024
 31
0.0
  0
LINE
  5
14D
100
AcDbEntity
  8
SLD-0_2
  6
CONTINUOUS
 62
       7
100
AcDbLine
 10
-94.66512104
 20
77.95594466
 30
0.0
 11
-94.433757
 21
77.90327555
 31
0.0
  0
LINE
  5
14E
100
AcDbEntity
  8
SLD-0_2
  6
CONTINUOUS
 62
       7
100
AcDbLine
 10
-94.19921362
 20
77.87278291
 30
0.0
 11
-93.96318655
 21
77.86446674
 31
0.0
  0
LINE
  5
14F
100
AcDbEntity
  8
SLD-0_2
  6
CONTINUOUS
 62
       7
100
AcDbLine
 10
-93.72737143
 20
77.87832703
 30
0.0
 11
-93.49346392
 21
77.91436379
 31
0.0
  0
LINE
  5
150
100
AcDbEntity
  8
SLD-0_2
  6
CONTINUOUS
 62
       7
100
AcDbLine
 10
-93.26315965
 20
77.97257701
 30
0.0
 11
-93.03815428
 21
78.05296671
 31
0.0
  0
LINE
  5
151
100
AcDbEntity
  8
SLD-0_2
  6
CONTINUOUS
 62
       7
100
AcDbLine
 10
-92.82014344
 20
78.15553287
 30
0.0
 11
-92.61082279
 21
78.28027549
 31
0.0
  0
LINE
  5
152
100
AcDbEntity
  8
SLD-0_2
  6
CONTINUOUS
 62
       7
100
AcDbLine
 10
-92.41188797
 20
78.42719459
 30
0.0
 11
-92.22503462
 21
78.59629015
 31
0.0
  0
LINE
  5
153
100
AcDbEntity
  8
SLD-0_2
  6
CONTINUOUS
 62
       7
100
AcDbLine
 10
-97.44395082
 20
83.90345974
 30
0.0
 11
-97.33560621
 21
83.90345974
 31
0.0
  0
LINE
  5
154
100
AcDbEntity
  8
SLD-0_2
  6
CONTINUOUS
 62
       7
100
AcDbLine
 10
-97.1670474
 20
83.90345974
 30
0.0
 11
-96.94810527
 21
83.90345974
 31
0.0
  0
LINE
  5
155
100
AcDbEntity
  8
SLD-0_2
  6
CONTINUOUS
 62
       7
100
AcDbLine
 10
-96.68861072
 20
83.90345974
 30
0.0
 11
-96.39839464
 21
83.90345974
 31
0.0
  0
LINE
  5
156
100
AcDbEntity
  8
SLD-0_2
  6
CONTINUOUS
 62
       7
100
AcDbLine
 10
-96.08728792
 20
83.90345974
 30
0.0
 11
-95.76512144
 21
83.90345974
 31
0.0
  0
LINE
  5
157
100
AcDbEntity
  8
SLD-0_2
  6
CONTINUOUS
 62
       7
100
AcDbLine
 10
-95.4417261
 20
83.90345974
 30
0.0
 11
-95.12693279
 21
83.90345974
 31
0.0
  0
LINE
  5
158
100
AcDbEntity
  8
SLD-0_2
  6
CONTINUOUS
 62
       7
100
AcDbLine
 10
-94.8305724
 20
83.90345974
 30
0.0
 11
-94.56247582
 21
83.90345974
 31
0.0
  0
LINE
  5
159
100
AcDbEntity
  8
SLD-0_2
  6
CONTINUOUS
 62
       7
100
AcDbLine
 10
-94.33247394
 20
83.90345974
 30
0.0
 11
-94.15039766
 21
83.90345974
 31
0.0
  0
LINE
  5
15A
100
AcDbEntity
  8
SLD-0_2
  6
CONTINUOUS
 62
       7
100
AcDbLine
 10
-94.02607785
 20
83.90345974
 30
0.0
 11
-93.96934542
 21
83.90345974
 31
0.0
  0
LINE
  5
15B
100
AcDbEntity
  8
SLD-0_2
  6
CONTINUOUS
 62
       7
100
AcDbLine
 10
-93.70167898
 20
83.89356277
 30
0.0
 11
-93.35658334
 21
83.85043362
 31
0.0
  0
LINE
  5
15C
100
AcDbEntity
  8
SLD-0_2
  6
CONTINUOUS
 62
       7
100
AcDbLine
 10
-93.02274049
 20
83.77463486
 30
0.0
 11
-92.70183019
 21
83.66784626
 31
0.0
  0
LINE
  5
15D
100
AcDbEntity
  8
SLD-0_2
  6
CONTINUOUS
 62
       7
100
AcDbLine
 10
-92.39553219
 20
83.53174755
 30
0.0
 11
-92.10552623
 21
83.3680185
 31
0.0
  0
LINE
  5
15E
100
AcDbEntity
  8
SLD-0_2
  6
CONTINUOUS
 62
       7
100
AcDbLine
 10
-91.83349208
 20
83.17833884
 30
0.0
 11
-91.58110946
 21
82.96438832
 31
0.0
  0
LINE
  5
15F
100
AcDbEntity
  8
SLD-0_2
  6
CONTINUOUS
 62
       7
100
AcDbLine
 10
-91.35005814
 20
82.7278467
 30
0.0
 11
-91.14201787
 21
82.47039373
 31
0.0
  0
LINE
  5
160
100
AcDbEntity
  8
SLD-0_2
  6
CONTINUOUS
 62
       7
100
AcDbLine
 10
-90.95866838
 20
82.19370914
 30
0.0
 11
-90.80168943
 21
81.8994727
 31
0.0
  0
LINE
  5
161
100
AcDbEntity
  8
SLD-0_2
  6
CONTINUOUS
 62
       7
100
AcDbLine
 10
-90.67276078
 20
81.58936415
 30
0.0
 11
-90.57356216
 21
81.26506324
 31
0.0
  0
LINE
  5
162
100
AcDbEntity
  8
SLD-0_2
  6
CONTINUOUS
 62
       7
100
AcDbLine
 10
-90.50577333
 20
80.92824971
 30
0.0
 11
-90.47107403
 21
80.58060332
 31
0.0
  0
LINE
  5
163
100
AcDbEntity
  8
SLD-0_2
  6
CONTINUOUS
 62
       7
100
AcDbLine
 10
-90.47107403
 20
80.22591201
 30
0.0
 11
-90.50577333
 21
79.87831435
 31
0.0
  0
LINE
  5
164
100
AcDbEntity
  8
SLD-0_2
  6
CONTINUOUS
 62
       7
100
AcDbLine
 10
-90.57356216
 20
79.54153606
 30
0.0
 11
-90.67276078
 21
79.21725835
 31
0.0
  0
LINE
  5
165
100
AcDbEntity
  8
SLD-0_2
  6
CONTINUOUS
 62
       7
100
AcDbLine
 10
-90.80168943
 20
78.9071624
 30
0.0
 11
-90.95866838
 21
78.6129294
 31
0.0
  0
LINE
  5
166
100
AcDbEntity
  8
SLD-0_2
  6
CONTINUOUS
 62
       7
100
AcDbLine
 10
-91.14201787
 20
78.33624056
 30
0.0
 11
-91.35005814
 21
78.07877706
 31
0.0
  0
LINE
  5
167
100
AcDbEntity
  8
SLD-0_2
  6
CONTINUOUS
 62
       7
100
AcDbLine
 10
-91.58110946
 20
77.8422201
 30
0.0
 11
-91.83349208
 21
77.62825087
 31
0.0
  0
LINE
  5
168
100
AcDbEntity
  8
SLD-0_2
  6
CONTINUOUS
 62
       7
100
AcDbLine
 10
-92.10552623
 20
77.43855058
 30
0.0
 11
-92.39553219
 21
77.2748004
 31
0.0
  0
LINE
  5
169
100
AcDbEntity
  8
SLD-0_2
  6
CONTINUOUS
 62
       7
100
AcDbLine
 10
-92.70183019
 20
77.13868154
 30
0.0
 11
-93.02274049
 21
77.03187518
 31
0.0
  0
LINE
  5
16A
100
AcDbEntity
  8
SLD-0_2
  6
CONTINUOUS
 62
       7
100
AcDbLine
 10
-93.35658334
 20
76.95606254
 30
0.0
 11
-93.70167898
 21
76.91292478
 31
0.0
  0
LINE
  5
16B
100
AcDbEntity
  8
SLD-0_2
  6
CONTINUOUS
 62
       7
100
AcDbLine
 10
-93.96934542
 20
76.90302572
 30
0.0
 11
-94.02607785
 21
76.90302572
 31
0.0
  0
LINE
  5
16C
100
AcDbEntity
  8
SLD-0_2
  6
CONTINUOUS
 62
       7
100
AcDbLine
 10
-94.15039766
 20
76.90302572
 30
0.0
 11
-94.33247394
 21
76.90302572
 31
0.0
  0
LINE
  5
16D
100
AcDbEntity
  8
SLD-0_2
  6
CONTINUOUS
 62
       7
100
AcDbLine
 10
-94.56247582
 20
76.90302572
 30
0.0
 11
-94.8305724
 21
76.90302572
 31
0.0
  0
LINE
  5
16E
100
AcDbEntity
  8
SLD-0_2
  6
CONTINUOUS
 62
       7
100
AcDbLine
 10
-95.12693279
 20
76.90302572
 30
0.0
 11
-95.4417261
 21
76.90302572
 31
0.0
  0
LINE
  5
16F
100
AcDbEntity
  8
SLD-0_2
  6
CONTINUOUS
 62
       7
100
AcDbLine
 10
-95.76512144
 20
76.90302572
 30
0.0
 11
-96.08728792
 21
76.90302572
 31
0.0
  0
LINE
  5
170
100
AcDbEntity
  8
SLD-0_2
  6
CONTINUOUS
 62
       7
100
AcDbLine
 10
-96.39839464
 20
76.90302572
 30
0.0
 11
-96.68861072
 21
76.90302572
 31
0.0
  0
LINE
  5
171
100
AcDbEntity
  8
SLD-0_2
  6
CONTINUOUS
 62
       7
100
AcDbLine
 10
-96.94810527
 20
76.90302572
 30
0.0
 11
-97.1670474
 21
76.90302572
 31
0.0
  0
LINE
  5
172
100
AcDbEntity
  8
SLD-0_2
  6
CONTINUOUS
 62
       7
100
AcDbLine
 10
-97.33560621
 20
76.90302572
 30
0.0
 11
-97.44395082
 21
76.90302572
 31
0.0
  0
LINE
  5
173
100
AcDbEntity
  8
SLD-0_2
  6
CONTINUOUS
 62
       7
100
AcDbLine
 10
-94.00511546
 20
85.40345432
 30
0.0
 11
-93.47946289
 21
85.37615576
 31
0.0
  0
LINE
  5
174
100
AcDbEntity
  8
SLD-0_2
  6
CONTINUOUS
 62
       7
100
AcDbLine
 10
-92.96951252
 20
85.29608328
 30
0.0
 11
-92.47799916
 21
85.16597169
 31
0.0
  0
LINE
  5
175
100
AcDbEntity
  8
SLD-0_2
  6
CONTINUOUS
 62
       7
100
AcDbLine
 10
-92.00765761
 20
84.98855578
 30
0.0
 11
-91.56122266
 21
84.76657035
 31
0.0
  0
LINE
  5
176
100
AcDbEntity
  8
SLD-0_2
  6
CONTINUOUS
 62
       7
100
AcDbLine
 10
-91.14142911
 20
84.50275019
 30
0.0
 11
-90.75101176
 21
84.19983011
 31
0.0
  0
LINE
  5
177
100
AcDbEntity
  8
SLD-0_2
  6
CONTINUOUS
 62
       7
100
AcDbLine
 10
-90.3927054
 20
83.8605449
 30
0.0
 11
-90.06924484
 21
83.48762936
 31
0.0
  0
LINE
  5
178
100
AcDbEntity
  8
SLD-0_2
  6
CONTINUOUS
 62
       7
100
AcDbLine
 10
-89.78336488
 20
83.08381829
 30
0.0
 11
-89.5378003
 21
82.65184649
 31
0.0
  0
LINE
  5
179
100
AcDbEntity
  8
SLD-0_2
  6
CONTINUOUS
 62
       7
100
AcDbLine
 10
-89.33528592
 20
82.19444875
 30
0.0
 11
-89.17855652
 21
81.71435988
 31
0.0
  0
LINE
  5
17A
100
AcDbEntity
  8
SLD-0_2
  6
CONTINUOUS
 62
       7
100
AcDbLine
 10
-89.0703469
 20
81.21431467
 30
0.0
 11
-89.01339187
 21
80.69704792
 31
0.0
  0
LINE
  5
17B
100
AcDbEntity
  8
SLD-0_2
  6
CONTINUOUS
 62
       7
100
AcDbLine
 10
-89.0103462
 20
80.16785754
 30
0.0
 11
-89.06143746
 21
79.64886116
 31
0.0
  0
LINE
  5
17C
100
AcDbEntity
  8
SLD-0_2
  6
CONTINUOUS
 62
       7
100
AcDbLine
 10
-89.16408717
 20
79.14679637
 30
0.0
 11
-89.31556053
 21
78.66439577
 31
0.0
  0
LINE
  5
17D
100
AcDbEntity
  8
SLD-0_2
  6
CONTINUOUS
 62
       7
100
AcDbLine
 10
-89.51312275
 20
78.20439195
 30
0.0
 11
-89.75403902
 21
77.76951753
 31
0.0
  0
LINE
  5
17E
100
AcDbEntity
  8
SLD-0_2
  6
CONTINUOUS
 62
       7
100
AcDbLine
 10
-90.03557455
 20
77.36250509
 30
0.0
 11
-90.35499454
 21
76.98608725
 31
0.0
  0
LINE
  5
17F
100
AcDbEntity
  8
SLD-0_2
  6
CONTINUOUS
 62
       7
100
AcDbLine
 10
-90.70956419
 20
76.64299661
 30
0.0
 11
-91.09654871
 21
76.33596576
 31
0.0
  0
LINE
  5
180
100
AcDbEntity
  8
SLD-0_2
  6
CONTINUOUS
 62
       7
100
AcDbLine
 10
-91.51321329
 20
76.06772731
 30
0.0
 11
-91.95682314
 21
75.84101386
 31
0.0
  0
LINE
  5
181
100
AcDbEntity
  8
SLD-0_2
  6
CONTINUOUS
 62
       7
100
AcDbLine
 10
-92.42464345
 20
75.65855801
 30
0.0
 11
-92.91393944
 21
75.52309236
 31
0.0
  0
LINE
  5
182
100
AcDbEntity
  8
SLD-0_2
  6
CONTINUOUS
 62
       7
100
AcDbLine
 10
-93.4219763
 20
75.43734951
 30
0.0
 11
-93.94601923
 21
75.40406208
 31
0.0
  0
LINE
  5
183
100
AcDbEntity
  8
SLD-0_2
  6
CONTINUOUS
 62
       7
100
AcDbLine
 10
-94.02381046
 20
75.40372016
 30
0.0
 11
-94.08577382
 21
75.40372016
 31
0.0
  0
LINE
  5
184
100
AcDbEntity
  8
SLD-0_2
  6
CONTINUOUS
 62
       7
100
AcDbLine
 10
-94.18498546
 20
75.40372016
 30
0.0
 11
-94.31512022
 21
75.40372016
 31
0.0
  0
LINE
  5
185
100
AcDbEntity
  8
SLD-0_2
  6
CONTINUOUS
 62
       7
100
AcDbLine
 10
-94.46985291
 20
75.40372016
 30
0.0
 11
-94.64285834
 21
75.40372016
 31
0.0
  0
LINE
  5
186
100
AcDbEntity
  8
SLD-0_2
  6
CONTINUOUS
 62
       7
100
AcDbLine
 10
-94.82781134
 20
75.40372016
 30
0.0
 11
-95.01838673
 21
75.40372016
 31
0.0
  0
LINE
  5
187
100
AcDbEntity
  8
SLD-0_2
  6
CONTINUOUS
 62
       7
100
AcDbLine
 10
-95.20825931
 20
75.40372016
 30
0.0
 11
-95.39110392
 21
75.40372016
 31
0.0
  0
LINE
  5
188
100
AcDbEntity
  8
SLD-0_2
  6
CONTINUOUS
 62
       7
100
AcDbLine
 10
-95.56059536
 20
75.40372016
 30
0.0
 11
-95.71040846
 21
75.40372016
 31
0.0
  0
LINE
  5
189
100
AcDbEntity
  8
SLD-0_2
  6
CONTINUOUS
 62
       7
100
AcDbLine
 10
-95.83421804
 20
75.40372016
 30
0.0
 11
-95.92569891
 21
75.40372016
 31
0.0
  0
LINE
  5
18A
100
AcDbEntity
  8
SLD-0_2
  6
CONTINUOUS
 62
       7
100
AcDbLine
 10
-95.97852589
 20
75.40372016
 30
0.0
 11
-95.98914595
 21
75.38199133
 31
0.0
  0
LINE
  5
18B
100
AcDbEntity
  8
SLD-0_2
  6
CONTINUOUS
 62
       7
100
AcDbLine
 10
-95.98914595
 20
75.07117456
 30
0.0
 11
-95.98914595
 21
74.43159113
 31
0.0
  0
LINE
  5
18C
100
AcDbEntity
  8
SLD-0_2
  6
CONTINUOUS
 62
       7
100
AcDbLine
 10
-95.98914595
 20
73.51425654
 30
0.0
 11
-95.98914595
 21
72.37018631
 31
0.0
  0
LINE
  5
18D
100
AcDbEntity
  8
SLD-0_2
  6
CONTINUOUS
 62
       7
100
AcDbLine
 10
-95.98914595
 20
71.05039597
 30
0.0
 11
-95.98914595
 21
69.60590103
 31
0.0
  0
LINE
  5
18E
100
AcDbEntity
  8
SLD-0_2
  6
CONTINUOUS
 62
       7
100
AcDbLine
 10
-95.98914595
 20
68.08771701
 30
0.0
 11
-95.98914595
 21
66.54685943
 31
0.0
  0
LINE
  5
18F
100
AcDbEntity
  8
SLD-0_2
  6
CONTINUOUS
 62
       7
100
AcDbLine
 10
-95.98914595
 20
65.0343438
 30
0.0
 11
-95.98914595
 21
63.60118564
 31
0.0
  0
LINE
  5
190
100
AcDbEntity
  8
SLD-0_2
  6
CONTINUOUS
 62
       7
100
AcDbLine
 10
-95.98914595
 20
62.29840047
 30
0.0
 11
-95.98914595
 21
61.17700381
 31
0.0
  0
LINE
  5
191
100
AcDbEntity
  8
SLD-0_2
  6
CONTINUOUS
 62
       7
100
AcDbLine
 10
-95.98914595
 20
60.28801117
 30
0.0
 11
-95.98914595
 21
59.68243808
 31
0.0
  0
LINE
  5
192
100
AcDbEntity
  8
SLD-0_2
  6
CONTINUOUS
 62
       7
100
AcDbLine
 10
-95.98914595
 20
59.41130005
 30
0.0
 11
-95.84052065
 21
59.40159614
 31
0.0
  0
LINE
  5
193
100
AcDbEntity
  8
SLD-0_2
  6
CONTINUOUS
 62
       7
100
AcDbLine
 10
-95.24708033
 20
59.40159614
 30
0.0
 11
-94.2615095
 21
59.40159614
 31
0.0
  0
LINE
  5
194
100
AcDbEntity
  8
SLD-0_2
  6
CONTINUOUS
 62
       7
100
AcDbLine
 10
-92.94916324
 20
59.40159614
 30
0.0
 11
-91.37539663
 21
59.40159614
 31
0.0
  0
LINE
  5
195
100
AcDbEntity
  8
SLD-0_2
  6
CONTINUOUS
 62
       7
100
AcDbLine
 10
-89.60556476
 20
59.40159614
 30
0.0
 11
-87.70502273
 21
59.40159614
 31
0.0
  0
LINE
  5
196
100
AcDbEntity
  8
SLD-0_2
  6
CONTINUOUS
 62
       7
100
AcDbLine
 10
-85.7391256
 20
59.40159614
 30
0.0
 11
-83.77322848
 21
59.40159614
 31
0.0
  0
LINE
  5
197
100
AcDbEntity
  8
SLD-0_2
  6
CONTINUOUS
 62
       7
100
AcDbLine
 10
-81.87268644
 20
59.40159614
 30
0.0
 11
-80.10285458
 21
59.40159614
 31
0.0
  0
LINE
  5
198
100
AcDbEntity
  8
SLD-0_2
  6
CONTINUOUS
 62
       7
100
AcDbLine
 10
-78.52908797
 20
59.40159614
 30
0.0
 11
-77.21674171
 21
59.40159614
 31
0.0
  0
LINE
  5
199
100
AcDbEntity
  8
SLD-0_2
  6
CONTINUOUS
 62
       7
100
AcDbLine
 10
-76.23117087
 20
59.40159614
 30
0.0
 11
-75.63773056
 21
59.40159614
 31
0.0
  0
LINE
  5
19A
100
AcDbEntity
  8
SLD-0_2
  6
CONTINUOUS
 62
       7
100
AcDbLine
 10
-75.48910526
 20
59.42706565
 30
0.0
 11
-75.48910526
 21
60.13871177
 31
0.0
  0
LINE
  5
19B
100
AcDbEntity
  8
SLD-0_2
  6
CONTINUOUS
 62
       7
100
AcDbLine
 10
-75.48910526
 20
61.72813742
 30
0.0
 11
-75.48910526
 21
64.06144404
 31
0.0
  0
LINE
  5
19C
100
AcDbEntity
  8
SLD-0_2
  6
CONTINUOUS
 62
       7
100
AcDbLine
 10
-75.48910526
 20
67.00473305
 30
0.0
 11
-75.48910526
 21
70.42410587
 31
0.0
  0
LINE
  5
19D
100
AcDbEntity
  8
SLD-0_2
  6
CONTINUOUS
 62
       7
100
AcDbLine
 10
-75.48910526
 20
74.18566393
 30
0.0
 11
-75.48910526
 21
78.15550867
 31
0.0
  0
LINE
  5
19E
100
AcDbEntity
  8
SLD-0_2
  6
CONTINUOUS
 62
       7
100
AcDbLine
 10
-75.48910526
 20
82.1997415
 30
0.0
 11
-75.48910526
 21
86.18446385
 31
0.0
  0
LINE
  5
19F
100
AcDbEntity
  8
SLD-0_2
  6
CONTINUOUS
 62
       7
100
AcDbLine
 10
-75.48910526
 20
89.97577715
 30
0.0
 11
-75.48910526
 21
93.43978283
 31
0.0
  0
LINE
  5
1A0
100
AcDbEntity
  8
SLD-0_2
  6
CONTINUOUS
 62
       7
100
AcDbLine
 10
-75.48910526
 20
96.44258232
 30
0.0
 11
-75.48910526
 21
98.85027703
 31
0.0
  0
LINE
  5
1A1
100
AcDbEntity
  8
SLD-0_2
  6
CONTINUOUS
 62
       7
100
AcDbLine
 10
-75.48910526
 20
100.5289684
 30
0.0
 11
-75.48910526
 21
101.34475786
 31
0.0
  0
LINE
  5
1A2
100
AcDbEntity
  8
SLD-0_2
  6
CONTINUOUS
 62
       7
100
AcDbLine
 10
-75.59883726
 20
101.40178873
 30
0.0
 11
-76.14467325
 21
101.40178873
 31
0.0
  0
LINE
  5
1A3
100
AcDbEntity
  8
SLD-0_2
  6
CONTINUOUS
 62
       7
100
AcDbLine
 10
-77.08990144
 20
101.40178873
 30
0.0
 11
-78.36916674
 21
101.40178873
 31
0.0
  0
LINE
  5
1A4
100
AcDbEntity
  8
SLD-0_2
  6
CONTINUOUS
 62
       7
100
AcDbLine
 10
-79.91711405
 20
101.40178873
 30
0.0
 11
-81.6683883
 21
101.40178873
 31
0.0
  0
LINE
  5
1A5
100
AcDbEntity
  8
SLD-0_2
  6
CONTINUOUS
 62
       7
100
AcDbLine
 10
-83.55763439
 20
101.40178873
 30
0.0
 11
-85.51949725
 21
101.40178873
 31
0.0
  0
LINE
  5
1A6
100
AcDbEntity
  8
SLD-0_2
  6
CONTINUOUS
 62
       7
100
AcDbLine
 10
-87.48862179
 20
101.40178873
 30
0.0
 11
-89.39965291
 21
101.40178873
 31
0.0
  0
LINE
  5
1A7
100
AcDbEntity
  8
SLD-0_2
  6
CONTINUOUS
 62
       7
100
AcDbLine
 10
-91.18723554
 20
101.40178873
 30
0.0
 11
-92.78601459
 21
101.40178873
 31
0.0
  0
LINE
  5
1A8
100
AcDbEntity
  8
SLD-0_2
  6
CONTINUOUS
 62
       7
100
AcDbLine
 10
-94.13063497
 20
101.40178873
 30
0.0
 11
-95.1557416
 21
101.40178873
 31
0.0
  0
LINE
  5
1A9
100
AcDbEntity
  8
SLD-0_2
  6
CONTINUOUS
 62
       7
100
AcDbLine
 10
-95.79597938
 20
101.40178873
 30
0.0
 11
-95.98914595
 21
101.39935167
 31
0.0
  0
LINE
  5
1AA
100
AcDbEntity
  8
SLD-0_2
  6
CONTINUOUS
 62
       7
100
AcDbLine
 10
-95.98914595
 20
101.16857686
 30
0.0
 11
-95.98914595
 21
100.59777914
 31
0.0
  0
LINE
  5
1AB
100
AcDbEntity
  8
SLD-0_2
  6
CONTINUOUS
 62
       7
100
AcDbLine
 10
-95.98914595
 20
99.73796195
 30
0.0
 11
-95.98914595
 21
98.64012872
 31
0.0
  0
LINE
  5
1AC
100
AcDbEntity
  8
SLD-0_2
  6
CONTINUOUS
 62
       7
100
AcDbLine
 10
-95.98914595
 20
97.3552829
 30
0.0
 11
-95.98914595
 21
95.93442791
 31
0.0
  0
LINE
  5
1AD
100
AcDbEntity
  8
SLD-0_2
  6
CONTINUOUS
 62
       7
100
AcDbLine
 10
-95.98914595
 20
94.42856719
 30
0.0
 11
-95.98914595
 21
92.88870418
 31
0.0
  0
LINE
  5
1AE
100
AcDbEntity
  8
SLD-0_2
  6
CONTINUOUS
 62
       7
100
AcDbLine
 10
-95.98914595
 20
91.36584232
 30
0.0
 11
-95.98914595
 21
89.91098504
 31
0.0
  0
LINE
  5
1AF
100
AcDbEntity
  8
SLD-0_2
  6
CONTINUOUS
 62
       7
100
AcDbLine
 10
-95.98914595
 20
88.57513577
 30
0.0
 11
-95.98914595
 21
87.40929797
 31
0.0
  0
LINE
  5
1B0
100
AcDbEntity
  8
SLD-0_2
  6
CONTINUOUS
 62
       7
100
AcDbLine
 10
-95.98914595
 20
86.46447505
 30
0.0
 11
-95.98914595
 21
85.79167046
 31
0.0
  0
LINE
  5
1B1
100
AcDbEntity
  8
SLD-0_2
  6
CONTINUOUS
 62
       7
100
AcDbLine
 10
-95.98914595
 20
85.44188763
 30
0.0
 11
-95.98173475
 21
85.40345432
 31
0.0
  0
LINE
  5
1B2
100
AcDbEntity
  8
SLD-0_2
  6
CONTINUOUS
 62
       7
100
AcDbLine
 10
-95.93359309
 20
85.40345432
 30
0.0
 11
-95.84609475
 21
85.40345432
 31
0.0
  0
LINE
  5
1B3
100
AcDbEntity
  8
SLD-0_2
  6
CONTINUOUS
 62
       7
100
AcDbLine
 10
-95.72556489
 20
85.40345432
 30
0.0
 11
-95.57832872
 21
85.40345432
 31
0.0
  0
LINE
  5
1B4
100
AcDbEntity
  8
SLD-0_2
  6
CONTINUOUS
 62
       7
100
AcDbLine
 10
-95.4107114
 20
85.40345432
 30
0.0
 11
-95.22903813
 21
85.40345432
 31
0.0
  0
LINE
  5
1B5
100
AcDbEntity
  8
SLD-0_2
  6
CONTINUOUS
 62
       7
100
AcDbLine
 10
-95.03963407
 20
85.40345432
 30
0.0
 11
-94.84882442
 21
85.40345432
 31
0.0
  0
LINE
  5
1B6
100
AcDbEntity
  8
SLD-0_2
  6
CONTINUOUS
 62
       7
100
AcDbLine
 10
-94.66293436
 20
85.40345432
 30
0.0
 11
-94.48828906
 21
85.40345432
 31
0.0
  0
LINE
  5
1B7
100
AcDbEntity
  8
SLD-0_2
  6
CONTINUOUS
 62
       7
100
AcDbLine
 10
-94.33121372
 20
85.40345432
 30
0.0
 11
-94.1980335
 21
85.40345432
 31
0.0
  0
LINE
  5
1B8
100
AcDbEntity
  8
SLD-0_2
  6
CONTINUOUS
 62
       7
100
AcDbLine
 10
-94.0950736
 20
85.40345432
 30
0.0
 11
-94.02865919
 21
85.40345432
 31
0.0
  0
LINE
  5
1B9
100
AcDbEntity
  8
SLD-0_2
  6
CONTINUOUS
 62
       7
100
AcDbLine
 10
-91.21458811
 20
112.89669433
 30
0.0
 11
-100.21455556
 21
112.89669433
 31
0.0
  0
LINE
  5
1BA
100
AcDbEntity
  8
SLD-0_2
  6
CONTINUOUS
 62
       7
100
AcDbLine
 10
-91.23663672
 20
102.9017833
 30
0.0
 11
-91.23663672
 21
115.88565917
 31
0.0
  0
LINE
  5
1BB
100
AcDbEntity
  8
SLD-0_2
  6
CONTINUOUS
 62
       7
100
AcDbLine
 10
-81.21416494
 20
112.89669433
 30
0.0
 11
-90.21413238
 21
112.89669433
 31
0.0
  0
LINE
  5
1BC
100
AcDbEntity
  8
SLD-0_2
  6
CONTINUOUS
 62
       7
100
AcDbLine
 10
-81.23655806
 20
102.9017833
 30
0.0
 11
-81.23655806
 21
115.88565917
 31
0.0
  0
LINE
  5
1BD
100
AcDbEntity
  8
SLD-0_2
  6
CONTINUOUS
 62
       7
100
AcDbLine
 10
-69.9872308
 20
102.9017833
 30
0.0
 11
-101.48889638
 21
102.9017833
 31
0.0
  0
LINE
  5
1BE
100
AcDbEntity
  8
SLD-0_2
  6
CONTINUOUS
 62
       7
100
AcDbLine
 10
-73.98911069
 20
57.90160157
 30
0.0
 11
-73.98911069
 21
102.9017833
 31
0.0
  0
LINE
  5
1BF
100
AcDbEntity
  8
SLD-0_2
  6
CONTINUOUS
 62
       7
100
AcDbLine
 10
-71.21408627
 20
112.89669433
 30
0.0
 11
-80.21439823
 21
112.89669433
 31
0.0
  0
LINE
  5
1C0
100
AcDbEntity
  8
SLD-0_2
  6
CONTINUOUS
 62
       7
100
AcDbLine
 10
-71.23613489
 20
102.9017833
 30
0.0
 11
-71.23613489
 21
115.88565917
 31
0.0
  0
LINE
  5
1C1
100
AcDbEntity
  8
SLD-0_2
  6
CONTINUOUS
 62
       7
100
AcDbLine
 10
-92.39553219
 20
-62.7251996
 30
0.0
 11
-92.70183019
 21
-62.86131846
 31
0.0
  0
LINE
  5
1C2
100
AcDbEntity
  8
SLD-0_2
  6
CONTINUOUS
 62
       7
100
AcDbLine
 10
-93.70167898
 20
-63.08707522
 30
0.0
 11
-93.96934542
 21
-63.09697428
 31
0.0
  0
LINE
  5
1C3
100
AcDbEntity
  8
SLD-0_2
  6
CONTINUOUS
 62
       7
100
AcDbLine
 10
-94.33247394
 20
-63.09697428
 30
0.0
 11
-94.56247582
 21
-63.09697428
 31
0.0
  0
LINE
  5
1C4
100
AcDbEntity
  8
SLD-0_2
  6
CONTINUOUS
 62
       7
100
AcDbLine
 10
-95.4417261
 20
-63.09697428
 30
0.0
 11
-95.76512144
 21
-63.09697428
 31
0.0
  0
LINE
  5
1C5
100
AcDbEntity
  8
SLD-0_2
  6
CONTINUOUS
 62
       7
100
AcDbLine
 10
-96.68861072
 20
-63.09697428
 30
0.0
 11
-96.94810527
 21
-63.09697428
 31
0.0
  0
LINE
  5
1C6
100
AcDbEntity
  8
SLD-0_2
  6
CONTINUOUS
 62
       7
100
AcDbLine
 10
-97.44395082
 20
-63.09697428
 30
0.0
 11
-97.48225033
 21
-63.09697428
 31
0.0
  0
LINE
  5
1C7
100
AcDbEntity
  8
SLD-0_2
  6
CONTINUOUS
 62
       7
100
AcDbLine
 10
-92.47799916
 20
-54.83402831
 30
0.0
 11
-92.00765761
 21
-55.01144422
 31
0.0
  0
LINE
  5
1C8
100
AcDbEntity
  8
SLD-0_2
  6
CONTINUOUS
 62
       7
100
AcDbLine
 10
-90.75101176
 20
-55.80016989
 30
0.0
 11
-90.3927054
 21
-56.1394551
 31
0.0
  0
LINE
  5
1C9
100
AcDbEntity
  8
SLD-0_2
  6
CONTINUOUS
 62
       7
100
AcDbLine
 10
-89.5378003
 20
-57.34815351
 30
0.0
 11
-89.33528592
 21
-57.80555125
 31
0.0
  0
LINE
  5
1CA
100
AcDbEntity
  8
SLD-0_2
  6
CONTINUOUS
 62
       7
100
AcDbLine
 10
-89.01339187
 20
-59.30295208
 30
0.0
 11
-89.0103462
 21
-59.83214246
 31
0.0
  0
LINE
  5
1CB
100
AcDbEntity
  8
SLD-0_2
  6
CONTINUOUS
 62
       7
100
AcDbLine
 10
-89.31556053
 20
-61.33560423
 30
0.0
 11
-89.51312275
 21
-61.79560805
 31
0.0
  0
LINE
  5
1CC
100
AcDbEntity
  8
SLD-0_2
  6
CONTINUOUS
 62
       7
100
AcDbLine
 10
-90.35499454
 20
-63.01391275
 30
0.0
 11
-90.70956419
 21
-63.35700339
 31
0.0
  0
LINE
  5
1CD
100
AcDbEntity
  8
SLD-0_2
  6
CONTINUOUS
 62
       7
100
AcDbLine
 10
-91.95682314
 20
-64.15898614
 30
0.0
 11
-92.42464345
 21
-64.34144199
 31
0.0
  0
LINE
  5
1CE
100
AcDbEntity
  8
SLD-0_2
  6
CONTINUOUS
 62
       7
100
AcDbLine
 10
-93.94601923
 20
-64.59593792
 30
0.0
 11
-94.02381046
 21
-64.59627984
 31
0.0
  0
LINE
  5
1CF
100
AcDbEntity
  8
SLD-0_2
  6
CONTINUOUS
 62
       7
100
AcDbLine
 10
-94.31512022
 20
-64.59627984
 30
0.0
 11
-94.46985291
 21
-64.59627984
 31
0.0
  0
LINE
  5
1D0
100
AcDbEntity
  8
SLD-0_2
  6
CONTINUOUS
 62
       7
100
AcDbLine
 10
-95.01838673
 20
-64.59627984
 30
0.0
 11
-95.20825931
 21
-64.59627984
 31
0.0
  0
LINE
  5
1D1
100
AcDbEntity
  8
SLD-0_2
  6
CONTINUOUS
 62
       7
100
AcDbLine
 10
-95.71040846
 20
-64.59627984
 30
0.0
 11
-95.83421804
 21
-64.59627984
 31
0.0
  0
LINE
  5
1D2
100
AcDbEntity
  8
SLD-0_2
  6
CONTINUOUS
 62
       7
100
AcDbLine
 10
-95.98914595
 20
-64.61800867
 30
0.0
 11
-95.98914595
 21
-64.92882544
 31
0.0
  0
LINE
  5
1D3
100
AcDbEntity
  8
SLD-0_2
  6
CONTINUOUS
 62
       7
100
AcDbLine
 10
-95.98914595
 20
-67.62981369
 30
0.0
 11
-95.98914595
 21
-68.94960403
 31
0.0
  0
LINE
  5
1D4
100
AcDbEntity
  8
SLD-0_2
  6
CONTINUOUS
 62
       7
100
AcDbLine
 10
-95.98914595
 20
-73.45314057
 30
0.0
 11
-95.98914595
 21
-74.9656562
 31
0.0
  0
LINE
  5
1D5
100
AcDbEntity
  8
SLD-0_2
  6
CONTINUOUS
 62
       7
100
AcDbLine
 10
-95.98914595
 20
-78.82299619
 30
0.0
 11
-95.98914595
 21
-79.71198883
 31
0.0
  0
LINE
  5
1D6
100
AcDbEntity
  8
SLD-0_2
  6
CONTINUOUS
 62
       7
100
AcDbLine
 10
-95.84052065
 20
-80.59840386
 30
0.0
 11
-95.24708033
 21
-80.59840386
 31
0.0
  0
LINE
  5
1D7
100
AcDbEntity
  8
SLD-0_2
  6
CONTINUOUS
 62
       7
100
AcDbLine
 10
-91.37539663
 20
-80.59840386
 30
0.0
 11
-89.60556476
 21
-80.59840386
 31
0.0
  0
LINE
  5
1D8
100
AcDbEntity
  8
SLD-0_2
  6
CONTINUOUS
 62
       7
100
AcDbLine
 10
-83.77322848
 20
-80.59840386
 30
0.0
 11
-81.87268644
 21
-80.59840386
 31
0.0
  0
LINE
  5
1D9
100
AcDbEntity
  8
SLD-0_2
  6
CONTINUOUS
 62
       7
100
AcDbLine
 10
-77.21674171
 20
-80.59840386
 30
0.0
 11
-76.23117087
 21
-80.59840386
 31
0.0
  0
LINE
  5
1DA
100
AcDbEntity
  8
SLD-0_2
  6
CONTINUOUS
 62
       7
100
AcDbLine
 10
-75.48910526
 20
-79.86128823
 30
0.0
 11
-75.48910526
 21
-78.27186258
 31
0.0
  0
LINE
  5
1DB
100
AcDbEntity
  8
SLD-0_2
  6
CONTINUOUS
 62
       7
100
AcDbLine
 10
-75.48910526
 20
-69.57589413
 30
0.0
 11
-75.48910526
 21
-65.81433607
 31
0.0
  0
LINE
  5
1DC
100
AcDbEntity
  8
SLD-0_2
  6
CONTINUOUS
 62
       7
100
AcDbLine
 10
-75.48910526
 20
-53.81553615
 30
0.0
 11
-75.48910526
 21
-50.02422285
 31
0.0
  0
LINE
  5
1DD
100
AcDbEntity
  8
SLD-0_2
  6
CONTINUOUS
 62
       7
100
AcDbLine
 10
-75.48910526
 20
-41.14972297
 30
0.0
 11
-75.48910526
 21
-39.4710316
 31
0.0
  0
LINE
  5
1DE
100
AcDbEntity
  8
SLD-0_2
  6
CONTINUOUS
 62
       7
100
AcDbLine
 10
-76.14467325
 20
-38.59821127
 30
0.0
 11
-77.08990144
 21
-38.59821127
 31
0.0
  0
LINE
  5
1DF
100
AcDbEntity
  8
SLD-0_2
  6
CONTINUOUS
 62
       7
100
AcDbLine
 10
-81.6683883
 20
-38.59821127
 30
0.0
 11
-83.55763439
 21
-38.59821127
 31
0.0
  0
LINE
  5
1E0
100
AcDbEntity
  8
SLD-0_2
  6
CONTINUOUS
 62
       7
100
AcDbLine
 10
-89.39965291
 20
-38.59821127
 30
0.0
 11
-91.18723554
 21
-38.59821127
 31
0.0
  0
LINE
  5
1E1
100
AcDbEntity
  8
SLD-0_2
  6
CONTINUOUS
 62
       7
100
AcDbLine
 10
-95.1557416
 20
-38.59821127
 30
0.0
 11
-95.79597938
 21
-38.59821127
 31
0.0
  0
LINE
  5
1E2
100
AcDbEntity
  8
SLD-0_2
  6
CONTINUOUS
 62
       7
100
AcDbLine
 10
-95.98914595
 20
-39.40222086
 30
0.0
 11
-95.98914595
 21
-40.26203805
 31
0.0
  0
LINE
  5
1E3
100
AcDbEntity
  8
SLD-0_2
  6
CONTINUOUS
 62
       7
100
AcDbLine
 10
-95.98914595
 20
-44.06557209
 30
0.0
 11
-95.98914595
 21
-45.57143281
 31
0.0
  0
LINE
  5
1E4
100
AcDbEntity
  8
SLD-0_2
  6
CONTINUOUS
 62
       7
100
AcDbLine
 10
-95.98914595
 20
-50.08901496
 30
0.0
 11
-95.98914595
 21
-51.42486423
 31
0.0
  0
LINE
  5
1E5
100
AcDbEntity
  8
SLD-0_2
  6
CONTINUOUS
 62
       7
100
AcDbLine
 10
-95.98914595
 20
-54.20832954
 30
0.0
 11
-95.98914595
 21
-54.55811237
 31
0.0
  0
LINE
  5
1E6
100
AcDbEntity
  8
SLD-0_2
  6
CONTINUOUS
 62
       7
100
AcDbLine
 10
-95.84609475
 20
-54.59654568
 30
0.0
 11
-95.72556489
 21
-54.59654568
 31
0.0
  0
LINE
  5
1E7
100
AcDbEntity
  8
SLD-0_2
  6
CONTINUOUS
 62
       7
100
AcDbLine
 10
-95.22903813
 20
-54.59654568
 30
0.0
 11
-95.03963407
 21
-54.59654568
 31
0.0
  0
LINE
  5
1E8
100
AcDbEntity
  8
SLD-0_2
  6
CONTINUOUS
 62
       7
100
AcDbLine
 10
-94.48828906
 20
-54.59654568
 30
0.0
 11
-94.33121372
 21
-54.59654568
 31
0.0
  0
LINE
  5
1E9
100
AcDbEntity
  8
SLD-0_2
  6
CONTINUOUS
 62
       7
100
AcDbLine
 10
-94.02865919
 20
-54.59654568
 30
0.0
 11
-94.00511546
 21
-54.59654568
 31
0.0
  0
LINE
  5
1EA
100
AcDbEntity
  8
SLD-0_2
  6
CONTINUOUS
 62
       7
100
AcDbLine
 10
-100.23660417
 20
-24.11434083
 30
0.0
 11
-100.23660417
 21
-37.0982167
 31
0.0
  0
LINE
  5
1EB
100
AcDbEntity
  8
SLD-0_2
  6
CONTINUOUS
 62
       7
100
AcDbLine
 10
-90.23687001
 20
-24.11434083
 30
0.0
 11
-90.23687001
 21
-37.0982167
 31
0.0
  0
LINE
  5
1EC
100
AcDbEntity
  8
SLD-0_2
  6
CONTINUOUS
 62
       7
100
AcDbLine
 10
-97.48914052
 20
-37.0982167
 30
0.0
 11
-97.48914052
 21
-82.09839843
 31
0.0
  0
LINE
  5
1ED
100
AcDbEntity
  8
SLD-0_2
  6
CONTINUOUS
 62
       7
100
AcDbLine
 10
-80.23610233
 20
-24.11434083
 30
0.0
 11
-80.23610233
 21
-37.0982167
 31
0.0
  0
LINE
  5
1EE
100
AcDbEntity
  8
SLD-0_2
  6
CONTINUOUS
 62
       7
100
AcDbLine
 10
-71.21408627
 20
-102.59327148
 30
0.0
 11
-80.21439823
 21
-102.59327148
 31
0.0
  0
LINE
  5
1EF
100
AcDbEntity
  8
SLD-0_2
  6
CONTINUOUS
 62
       7
100
AcDbLine
 10
-81.21416494
 20
-102.59327148
 30
0.0
 11
-90.21413238
 21
-102.59327148
 31
0.0
  0
LINE
  5
1F0
100
AcDbEntity
  8
SLD-0_2
  6
CONTINUOUS
 62
       7
100
AcDbLine
 10
-91.21458811
 20
-102.59327148
 30
0.0
 11
-100.21455556
 21
-102.59327148
 31
0.0
  0
LINE
  5
1F1
100
AcDbEntity
  8
SLD-0_2
  6
CONTINUOUS
 62
       7
100
AcDbLine
 10
-91.78427734
 20
-60.80853925
 30
0.0
 11
-91.68171118
 21
-60.5904855
 31
0.0
  0
LINE
  5
1F2
100
AcDbEntity
  8
SLD-0_2
  6
CONTINUOUS
 62
       7
100
AcDbLine
 10
-91.5070715
 20
-59.90109963
 30
0.0
 11
-91.49321121
 21
-59.66522137
 31
0.0
  0
LINE
  5
1F3
100
AcDbEntity
  8
SLD-0_2
  6
CONTINUOUS
 62
       7
100
AcDbLine
 10
-91.58468914
 20
-58.9631037
 30
0.0
 11
-91.65953471
 21
-58.73656209
 31
0.0
  0
LINE
  5
1F4
100
AcDbEntity
  8
SLD-0_2
  6
CONTINUOUS
 62
       7
100
AcDbLine
 10
-92.01713024
 20
-58.1031961
 30
0.0
 11
-92.18068169
 21
-57.9131523
 31
0.0
  0
LINE
  5
1F5
100
AcDbEntity
  8
SLD-0_2
  6
CONTINUOUS
 62
       7
100
AcDbLine
 10
-92.56004918
 20
-57.58629992
 30
0.0
 11
-92.76693234
 21
-57.45601318
 31
0.0
  0
LINE
  5
1F6
100
AcDbEntity
  8
SLD-0_2
  6
CONTINUOUS
 62
       7
100
AcDbLine
 10
-93.2063453
 20
-57.26196909
 30
0.0
 11
-93.43548381
 21
-57.19821175
 31
0.0
  0
LINE
  5
1F7
100
AcDbEntity
  8
SLD-0_2
  6
CONTINUOUS
 62
       7
100
AcDbLine
 10
-94.14027971
 20
-57.13999853
 30
0.0
 11
-94.37535298
 21
-57.16494705
 31
0.0
  0
LINE
  5
1F8
100
AcDbEntity
  8
SLD-0_2
  6
CONTINUOUS
 62
       7
100
AcDbLine
 10
-95.47547505
 20
-57.62233668
 30
0.0
 11
-95.66858109
 21
-57.78034401
 31
0.0
  0
LINE
  5
1F9
100
AcDbEntity
  8
SLD-0_2
  6
CONTINUOUS
 62
       7
100
AcDbLine
 10
-96.14181872
 20
-58.356964
 30
0.0
 11
-96.25555335
 21
-58.57087992
 31
0.0
  0
LINE
  5
1FA
100
AcDbEntity
  8
SLD-0_2
  6
CONTINUOUS
 62
       7
100
AcDbLine
 10
-96.4636045
 20
-59.25294501
 30
0.0
 11
-96.48857064
 21
-59.48808058
 31
0.0
  0
LINE
  5
1FB
100
AcDbEntity
  8
SLD-0_2
  6
CONTINUOUS
 62
       7
100
AcDbLine
 10
-96.43031631
 20
-60.1930629
 30
0.0
 11
-96.36651396
 21
-60.42225697
 31
0.0
  0
LINE
  5
1FC
100
AcDbEntity
  8
SLD-0_2
  6
CONTINUOUS
 62
       7
100
AcDbLine
 10
-95.88938332
 20
-61.26476445
 30
0.0
 11
-95.71490364
 21
-61.44806279
 31
0.0
  0
LINE
  5
1FD
100
AcDbEntity
  8
SLD-0_2
  6
CONTINUOUS
 62
       7
100
AcDbLine
 10
-95.32318071
 20
-61.75298921
 30
0.0
 11
-95.11152854
 21
-61.87218772
 31
0.0
  0
LINE
  5
1FE
100
AcDbEntity
  8
SLD-0_2
  6
CONTINUOUS
 62
       7
100
AcDbLine
 10
-94.433757
 20
-62.09672445
 30
0.0
 11
-94.19921362
 21
-62.12721709
 31
0.0
  0
LINE
  5
1FF
100
AcDbEntity
  8
SLD-0_2
  6
CONTINUOUS
 62
       7
100
AcDbLine
 10
-93.49346392
 20
-62.08563621
 30
0.0
 11
-93.26315965
 21
-62.02742299
 31
0.0
  0
LINE
  5
200
100
AcDbEntity
  8
SLD-0_2
  6
CONTINUOUS
 62
       7
100
AcDbLine
 10
-92.61082279
 20
-61.71972451
 30
0.0
 11
-92.41188797
 21
-61.57280541
 31
0.0
  0
LINE
  5
201
100
AcDbEntity
  8
SLD-0_2
  6
CONTINUOUS
 62
       7
100
AcDbLine
 10
-97.44395082
 20
-56.09654026
 30
0.0
 11
-97.33560621
 21
-56.09654026
 31
0.0
  0
LINE
  5
202
100
AcDbEntity
  8
SLD-0_2
  6
CONTINUOUS
 62
       7
100
AcDbLine
 10
-96.68861072
 20
-56.09654026
 30
0.0
 11
-96.39839464
 21
-56.09654026
 31
0.0
  0
LINE
  5
203
100
AcDbEntity
  8
SLD-0_2
  6
CONTINUOUS
 62
       7
100
AcDbLine
 10
-95.4417261
 20
-56.09654026
 30
0.0
 11
-95.12693279
 21
-56.09654026
 31
0.0
  0
LINE
  5
204
100
AcDbEntity
  8
SLD-0_2
  6
CONTINUOUS
 62
       7
100
AcDbLine
 10
-94.33247394
 20
-56.09654026
 30
0.0
 11
-94.15039766
 21
-56.09654026
 31
0.0
  0
LINE
  5
205
100
AcDbEntity
  8
SLD-0_2
  6
CONTINUOUS
 62
       7
100
AcDbLine
 10
-93.70167898
 20
-56.10643723
 30
0.0
 11
-93.35658334
 21
-56.14956638
 31
0.0
  0
LINE
  5
206
100
AcDbEntity
  8
SLD-0_2
  6
CONTINUOUS
 62
       7
100
AcDbLine
 10
-92.39553219
 20
-56.46825245
 30
0.0
 11
-92.10552623
 21
-56.6319815
 31
0.0
  0
LINE
  5
207
100
AcDbEntity
  8
SLD-0_2
  6
CONTINUOUS
 62
       7
100
AcDbLine
 10
-91.35005814
 20
-57.2721533
 30
0.0
 11
-91.14201787
 21
-57.52960627
 31
0.0
  0
LINE
  5
208
100
AcDbEntity
  8
SLD-0_2
  6
CONTINUOUS
 62
       7
100
AcDbLine
 10
-90.67276078
 20
-58.41063585
 30
0.0
 11
-90.57356216
 21
-58.73493676
 31
0.0
  0
LINE
  5
209
100
AcDbEntity
  8
SLD-0_2
  6
CONTINUOUS
 62
       7
100
AcDbLine
 10
-90.47107403
 20
-59.77408799
 30
0.0
 11
-90.50577333
 21
-60.12168565
 31
0.0
  0
LINE
  5
20A
100
AcDbEntity
  8
SLD-0_2
  6
CONTINUOUS
 62
       7
100
AcDbLine
 10
-90.80168943
 20
-61.0928376
 30
0.0
 11
-90.95866838
 21
-61.3870706
 31
0.0
  0
LINE
  5
20B
100
AcDbEntity
  8
SLD-0_2
  6
CONTINUOUS
 62
       7
100
AcDbLine
 10
-91.58110946
 20
-62.1577799
 30
0.0
 11
-91.83349208
 21
-62.37174913
 31
0.0
  0
LINE
  5
20C
100
AcDbEntity
  8
SLD-0_2
  6
CONTINUOUS
 62
       7
100
AcDbLine
 10
-92.70183019
 20
-62.86131846
 30
0.0
 11
-93.02274049
 21
-62.96812482
 31
0.0
  0
LINE
  5
20D
100
AcDbEntity
  8
SLD-0_2
  6
CONTINUOUS
 62
       7
100
AcDbLine
 10
-93.96934542
 20
-63.09697428
 30
0.0
 11
-94.02607785
 21
-63.09697428
 31
0.0
  0
LINE
  5
20E
100
AcDbEntity
  8
SLD-0_2
  6
CONTINUOUS
 62
       7
100
AcDbLine
 10
-94.56247582
 20
-63.09697428
 30
0.0
 11
-94.8305724
 21
-63.09697428
 31
0.0
  0
LINE
  5
20F
100
AcDbEntity
  8
SLD-0_2
  6
CONTINUOUS
 62
       7
100
AcDbLine
 10
-95.76512144
 20
-63.09697428
 30
0.0
 11
-96.08728792
 21
-63.09697428
 31
0.0
  0
LINE
  5
210
100
AcDbEntity
  8
SLD-0_2
  6
CONTINUOUS
 62
       7
100
AcDbLine
 10
-96.94810527
 20
-63.09697428
 30
0.0
 11
-97.1670474
 21
-63.09697428
 31
0.0
  0
LINE
  5
211
100
AcDbEntity
  8
SLD-0_2
  6
CONTINUOUS
 62
       7
100
AcDbLine
 10
-94.00511546
 20
-54.59654568
 30
0.0
 11
-93.47946289
 21
-54.62384424
 31
0.0
  0
LINE
  5
212
100
AcDbEntity
  8
SLD-0_2
  6
CONTINUOUS
 62
       7
100
AcDbLine
 10
-92.00765761
 20
-55.01144422
 30
0.0
 11
-91.56122266
 21
-55.23342965
 31
0.0
  0
LINE
  5
213
100
AcDbEntity
  8
SLD-0_2
  6
CONTINUOUS
 62
       7
100
AcDbLine
 10
-90.3927054
 20
-56.1394551
 30
0.0
 11
-90.06924484
 21
-56.51237064
 31
0.0
  0
LINE
  5
214
100
AcDbEntity
  8
SLD-0_2
  6
CONTINUOUS
 62
       7
100
AcDbLine
 10
-89.33528592
 20
-57.80555125
 30
0.0
 11
-89.17855652
 21
-58.28564012
 31
0.0
  0
LINE
  5
215
100
AcDbEntity
  8
SLD-0_2
  6
CONTINUOUS
 62
       7
100
AcDbLine
 10
-89.0103462
 20
-59.83214246
 30
0.0
 11
-89.06143746
 21
-60.35113884
 31
0.0
  0
LINE
  5
216
100
AcDbEntity
  8
SLD-0_2
  6
CONTINUOUS
 62
       7
100
AcDbLine
 10
-89.51312275
 20
-61.79560805
 30
0.0
 11
-89.75403902
 21
-62.23048247
 31
0.0
  0
LINE
  5
217
100
AcDbEntity
  8
SLD-0_2
  6
CONTINUOUS
 62
       7
100
AcDbLine
 10
-90.70956419
 20
-63.35700339
 30
0.0
 11
-91.09654871
 21
-63.66403424
 31
0.0
  0
LINE
  5
218
100
AcDbEntity
  8
SLD-0_2
  6
CONTINUOUS
 62
       7
100
AcDbLine
 10
-92.42464345
 20
-64.34144199
 30
0.0
 11
-92.91393944
 21
-64.47690764
 31
0.0
  0
LINE
  5
219
100
AcDbEntity
  8
SLD-0_2
  6
CONTINUOUS
 62
       7
100
AcDbLine
 10
-94.02381046
 20
-64.59627984
 30
0.0
 11
-94.08577382
 21
-64.59627984
 31
0.0
  0
LINE
  5
21A
100
AcDbEntity
  8
SLD-0_2
  6
CONTINUOUS
 62
       7
100
AcDbLine
 10
-94.46985291
 20
-64.59627984
 30
0.0
 11
-94.64285834
 21
-64.59627984
 31
0.0
  0
LINE
  5
21B
100
AcDbEntity
  8
SLD-0_2
  6
CONTINUOUS
 62
       7
100
AcDbLine
 10
-95.20825931
 20
-64.59627984
 30
0.0
 11
-95.39110392
 21
-64.59627984
 31
0.0
  0
LINE
  5
21C
100
AcDbEntity
  8
SLD-0_2
  6
CONTINUOUS
 62
       7
100
AcDbLine
 10
-95.83421804
 20
-64.59627984
 30
0.0
 11
-95.92569891
 21
-64.59627984
 31
0.0
  0
LINE
  5
21D
100
AcDbEntity
  8
SLD-0_2
  6
CONTINUOUS
 62
       7
100
AcDbLine
 10
-95.98914595
 20
-64.92882544
 30
0.0
 11
-95.98914595
 21
-65.56840887
 31
0.0
  0
LINE
  5
21E
100
AcDbEntity
  8
SLD-0_2
  6
CONTINUOUS
 62
       7
100
AcDbLine
 10
-95.98914595
 20
-68.94960403
 30
0.0
 11
-95.98914595
 21
-70.39409897
 31
0.0
  0
LINE
  5
21F
100
AcDbEntity
  8
SLD-0_2
  6
CONTINUOUS
 62
       7
100
AcDbLine
 10
-95.98914595
 20
-74.9656562
 30
0.0
 11
-95.98914595
 21
-76.39881436
 31
0.0
  0
LINE
  5
220
100
AcDbEntity
  8
SLD-0_2
  6
CONTINUOUS
 62
       7
100
AcDbLine
 10
-95.98914595
 20
-79.71198883
 30
0.0
 11
-95.98914595
 21
-80.31756192
 31
0.0
  0
LINE
  5
221
100
AcDbEntity
  8
SLD-0_2
  6
CONTINUOUS
 62
       7
100
AcDbLine
 10
-95.24708033
 20
-80.59840386
 30
0.0
 11
-94.2615095
 21
-80.59840386
 31
0.0
  0
LINE
  5
222
100
AcDbEntity
  8
SLD-0_2
  6
CONTINUOUS
 62
       7
100
AcDbLine
 10
-89.60556476
 20
-80.59840386
 30
0.0
 11
-87.70502273
 21
-80.59840386
 31
0.0
  0
LINE
  5
223
100
AcDbEntity
  8
SLD-0_2
  6
CONTINUOUS
 62
       7
100
AcDbLine
 10
-81.87268644
 20
-80.59840386
 30
0.0
 11
-80.10285458
 21
-80.59840386
 31
0.0
  0
LINE
  5
224
100
AcDbEntity
  8
SLD-0_2
  6
CONTINUOUS
 62
       7
100
AcDbLine
 10
-76.23117087
 20
-80.59840386
 30
0.0
 11
-75.63773056
 21
-80.59840386
 31
0.0
  0
LINE
  5
225
100
AcDbEntity
  8
SLD-0_2
  6
CONTINUOUS
 62
       7
100
AcDbLine
 10
-75.48910526
 20
-78.27186258
 30
0.0
 11
-75.48910526
 21
-75.93855596
 31
0.0
  0
LINE
  5
226
100
AcDbEntity
  8
SLD-0_2
  6
CONTINUOUS
 62
       7
100
AcDbLine
 10
-75.48910526
 20
-65.81433607
 30
0.0
 11
-75.48910526
 21
-61.84449133
 31
0.0
  0
LINE
  5
227
100
AcDbEntity
  8
SLD-0_2
  6
CONTINUOUS
 62
       7
100
AcDbLine
 10
-75.48910526
 20
-50.02422285
 30
0.0
 11
-75.48910526
 21
-46.56021717
 31
0.0
  0
LINE
  5
228
100
AcDbEntity
  8
SLD-0_2
  6
CONTINUOUS
 62
       7
100
AcDbLine
 10
-75.48910526
 20
-39.4710316
 30
0.0
 11
-75.48910526
 21
-38.65524214
 31
0.0
  0
LINE
  5
229
100
AcDbEntity
  8
SLD-0_2
  6
CONTINUOUS
 62
       7
100
AcDbLine
 10
-77.08990144
 20
-38.59821127
 30
0.0
 11
-78.36916674
 21
-38.59821127
 31
0.0
  0
LINE
  5
22A
100
AcDbEntity
  8
SLD-0_2
  6
CONTINUOUS
 62
       7
100
AcDbLine
 10
-83.55763439
 20
-38.59821127
 30
0.0
 11
-85.51949725
 21
-38.59821127
 31
0.0
  0
LINE
  5
22B
100
AcDbEntity
  8
SLD-0_2
  6
CONTINUOUS
 62
       7
100
AcDbLine
 10
-91.18723554
 20
-38.59821127
 30
0.0
 11
-92.78601459
 21
-38.59821127
 31
0.0
  0
LINE
  5
22C
100
AcDbEntity
  8
SLD-0_2
  6
CONTINUOUS
 62
       7
100
AcDbLine
 10
-95.79597938
 20
-38.59821127
 30
0.0
 11
-95.98914595
 21
-38.60064833
 31
0.0
  0
LINE
  5
22D
100
AcDbEntity
  8
SLD-0_2
  6
CONTINUOUS
 62
       7
100
AcDbLine
 10
-95.98914595
 20
-40.26203805
 30
0.0
 11
-95.98914595
 21
-41.35987128
 31
0.0
  0
LINE
  5
22E
100
AcDbEntity
  8
SLD-0_2
  6
CONTINUOUS
 62
       7
100
AcDbLine
 10
-95.98914595
 20
-48.63415768
 30
0.0
 11
-95.98914595
 21
-50.08901496
 31
0.0
  0
LINE
  5
22F
100
AcDbEntity
  8
SLD-0_2
  6
CONTINUOUS
 62
       7
100
AcDbLine
 10
-95.98914595
 20
-53.53552495
 30
0.0
 11
-95.98914595
 21
-54.20832954
 31
0.0
  0
LINE
  5
230
100
AcDbEntity
  8
SLD-0_2
  6
CONTINUOUS
 62
       7
100
AcDbLine
 10
-95.93359309
 20
-54.59654568
 30
0.0
 11
-95.84609475
 21
-54.59654568
 31
0.0
  0
LINE
  5
231
100
AcDbEntity
  8
SLD-0_2
  6
CONTINUOUS
 62
       7
100
AcDbLine
 10
-95.4107114
 20
-54.59654568
 30
0.0
 11
-95.22903813
 21
-54.59654568
 31
0.0
  0
LINE
  5
232
100
AcDbEntity
  8
SLD-0_2
  6
CONTINUOUS
 62
       7
100
AcDbLine
 10
-94.66293436
 20
-54.59654568
 30
0.0
 11
-94.48828906
 21
-54.59654568
 31
0.0
  0
LINE
  5
233
100
AcDbEntity
  8
SLD-0_2
  6
CONTINUOUS
 62
       7
100
AcDbLine
 10
-91.21458811
 20
-27.10330567
 30
0.0
 11
-100.21455556
 21
-27.10330567
 31
0.0
  0
LINE
  5
234
100
AcDbEntity
  8
SLD-0_2
  6
CONTINUOUS
 62
       7
100
AcDbLine
 10
-81.21416494
 20
-27.10330567
 30
0.0
 11
-90.21413238
 21
-27.10330567
 31
0.0
  0
LINE
  5
235
100
AcDbEntity
  8
SLD-0_2
  6
CONTINUOUS
 62
       7
100
AcDbLine
 10
-69.9872308
 20
-37.0982167
 30
0.0
 11
-101.48889638
 21
-37.0982167
 31
0.0
  0
LINE
  5
236
100
AcDbEntity
  8
SLD-0_2
  6
CONTINUOUS
 62
       7
100
AcDbLine
 10
-71.21408627
 20
-27.10330567
 30
0.0
 11
-80.21439823
 21
-27.10330567
 31
0.0
  0
LINE
  5
237
100
AcDbEntity
  8
SLD-0_2
  6
CONTINUOUS
 62
       7
100
AcDbLine
 10
-88.98009918
 20
-116.17624944
 30
0.0
 11
-88.98009918
 21
-115.29361598
 31
0.0
  0
LINE
  5
238
100
AcDbEntity
  8
SLD-0_2
  6
CONTINUOUS
 62
       7
100
AcDbLine
 10
-82.27732141
 20
-115.29361598
 30
0.0
 11
-82.27732141
 21
-116.17624944
 31
0.0
  0
LINE
  5
239
100
AcDbEntity
  8
SLD-0_2
  6
CONTINUOUS
 62
       7
100
AcDbLine
 10
-71.23613489
 20
-91.09836588
 30
0.0
 11
-71.23613489
 21
-104.08224175
 31
0.0
  0
LINE
  5
23A
100
AcDbEntity
  8
SLD-0_2
  6
CONTINUOUS
 62
       7
100
AcDbLine
 10
-69.9872308
 20
-91.09836588
 30
0.0
 11
-101.48889638
 21
-91.09836588
 31
0.0
  0
LINE
  5
23B
100
AcDbEntity
  8
SLD-0_2
  6
CONTINUOUS
 62
       7
100
AcDbLine
 10
-81.21416494
 20
-101.09327691
 30
0.0
 11
-90.21413238
 21
-101.09327691
 31
0.0
  0
LINE
  5
23C
100
AcDbEntity
  8
SLD-0_2
  6
CONTINUOUS
 62
       7
100
AcDbLine
 10
-91.21458811
 20
-101.09327691
 30
0.0
 11
-100.21455556
 21
-101.09327691
 31
0.0
  0
LINE
  5
23D
100
AcDbEntity
  8
SLD-0_2
  6
CONTINUOUS
 62
       7
100
AcDbLine
 10
-91.90901997
 20
-61.01789294
 30
0.0
 11
-91.78427734
 21
-60.80853925
 31
0.0
  0
LINE
  5
23E
100
AcDbEntity
  8
SLD-0_2
  6
CONTINUOUS
 62
       7
100
AcDbLine
 10
-91.54310826
 20
-60.13506812
 30
0.0
 11
-91.5070715
 21
-59.90109963
 31
0.0
  0
LINE
  5
23F
100
AcDbEntity
  8
SLD-0_2
  6
CONTINUOUS
 62
       7
100
AcDbLine
 10
-91.53202003
 20
-59.19452583
 30
0.0
 11
-91.58468914
 21
-58.9631037
 31
0.0
  0
LINE
  5
240
100
AcDbEntity
  8
SLD-0_2
  6
CONTINUOUS
 62
       7
100
AcDbLine
 10
-91.87575526
 20
-58.30491072
 30
0.0
 11
-92.01713024
 21
-58.1031961
 31
0.0
  0
LINE
  5
241
100
AcDbEntity
  8
SLD-0_2
  6
CONTINUOUS
 62
       7
100
AcDbLine
 10
-92.76693234
 20
-57.45601318
 30
0.0
 11
-92.9829296
 21
-57.3479029
 31
0.0
  0
LINE
  5
242
100
AcDbEntity
  8
SLD-0_2
  6
CONTINUOUS
 62
       7
100
AcDbLine
 10
-93.90414666
 20
-57.13722647
 30
0.0
 11
-94.14027971
 21
-57.13999853
 31
0.0
  0
LINE
  5
243
100
AcDbEntity
  8
SLD-0_2
  6
CONTINUOUS
 62
       7
100
AcDbLine
 10
-94.60767082
 20
-57.21207204
 30
0.0
 11
-94.8355376
 21
-57.2813735
 31
0.0
  0
LINE
  5
244
100
AcDbEntity
  8
SLD-0_2
  6
CONTINUOUS
 62
       7
100
AcDbLine
 10
-95.27113536
 20
-57.48650582
 30
0.0
 11
-95.47547505
 21
-57.62233668
 31
0.0
  0
LINE
  5
245
100
AcDbEntity
  8
SLD-0_2
  6
CONTINUOUS
 62
       7
100
AcDbLine
 10
-96.00589196
 20
-58.15259693
 30
0.0
 11
-96.14181872
 21
-58.356964
 31
0.0
  0
LINE
  5
246
100
AcDbEntity
  8
SLD-0_2
  6
CONTINUOUS
 62
       7
100
AcDbLine
 10
-96.41644624
 20
-59.02056799
 30
0.0
 11
-96.4636045
 21
-59.25294501
 31
0.0
  0
LINE
  5
247
100
AcDbEntity
  8
SLD-0_2
  6
CONTINUOUS
 62
       7
100
AcDbLine
 10
-96.47192654
 20
-59.9598371
 30
0.0
 11
-96.43031631
 21
-60.1930629
 31
0.0
  0
LINE
  5
248
100
AcDbEntity
  8
SLD-0_2
  6
CONTINUOUS
 62
       7
100
AcDbLine
 10
-96.28051948
 20
-60.64572173
 30
0.0
 11
-96.17233289
 21
-60.86175961
 31
0.0
  0
LINE
  5
249
100
AcDbEntity
  8
SLD-0_2
  6
CONTINUOUS
 62
       7
100
AcDbLine
 10
-80.23610233
 20
-104.08224175
 30
0.0
 11
-80.23610233
 21
-91.09836588
 31
0.0
  0
LINE
  5
24A
100
AcDbEntity
  8
SLD-0_2
  6
CONTINUOUS
 62
       7
100
AcDbLine
 10
-95.52487095
 20
-61.61161423
 30
0.0
 11
-95.32318071
 21
-61.75298921
 31
0.0
  0
LINE
  5
24B
100
AcDbEntity
  8
SLD-0_2
  6
CONTINUOUS
 62
       7
100
AcDbLine
 10
-94.66512104
 20
-62.04405534
 30
0.0
 11
-94.433757
 21
-62.09672445
 31
0.0
  0
LINE
  5
24C
100
AcDbEntity
  8
SLD-0_2
  6
CONTINUOUS
 62
       7
100
AcDbLine
 10
-93.72737143
 20
-62.12167297
 30
0.0
 11
-93.49346392
 21
-62.08563621
 31
0.0
  0
LINE
  5
24D
100
AcDbEntity
  8
SLD-0_2
  6
CONTINUOUS
 62
       7
100
AcDbLine
 10
-92.82014344
 20
-61.84446713
 30
0.0
 11
-92.61082279
 21
-61.71972451
 31
0.0
  0
LINE
  5
24E
100
AcDbEntity
  8
SLD-0_2
  6
CONTINUOUS
 62
       7
100
AcDbLine
 10
-97.33560621
 20
-56.09654026
 30
0.0
 11
-97.1670474
 21
-56.09654026
 31
0.0
  0
LINE
  5
24F
100
AcDbEntity
  8
SLD-0_2
  6
CONTINUOUS
 62
       7
100
AcDbLine
 10
-96.39839464
 20
-56.09654026
 30
0.0
 11
-96.08728792
 21
-56.09654026
 31
0.0
  0
LINE
  5
250
100
AcDbEntity
  8
SLD-0_2
  6
CONTINUOUS
 62
       7
100
AcDbLine
 10
-95.12693279
 20
-56.09654026
 30
0.0
 11
-94.8305724
 21
-56.09654026
 31
0.0
  0
LINE
  5
251
100
AcDbEntity
  8
SLD-0_2
  6
CONTINUOUS
 62
       7
100
AcDbLine
 10
-94.15039766
 20
-56.09654026
 30
0.0
 11
-94.02607785
 21
-56.09654026
 31
0.0
  0
LINE
  5
252
100
AcDbEntity
  8
SLD-0_2
  6
CONTINUOUS
 62
       7
100
AcDbLine
 10
-93.35658334
 20
-56.14956638
 30
0.0
 11
-93.02274049
 21
-56.22536514
 31
0.0
  0
LINE
  5
253
100
AcDbEntity
  8
SLD-0_2
  6
CONTINUOUS
 62
       7
100
AcDbLine
 10
-92.10552623
 20
-56.6319815
 30
0.0
 11
-91.83349208
 21
-56.82166116
 31
0.0
  0
LINE
  5
254
100
AcDbEntity
  8
SLD-0_2
  6
CONTINUOUS
 62
       7
100
AcDbLine
 10
-91.14201787
 20
-57.52960627
 30
0.0
 11
-90.95866838
 21
-57.80629086
 31
0.0
  0
LINE
  5
255
100
AcDbEntity
  8
SLD-0_2
  6
CONTINUOUS
 62
       7
100
AcDbLine
 10
-90.57356216
 20
-58.73493676
 30
0.0
 11
-90.50577333
 21
-59.07175029
 31
0.0
  0
LINE
  5
256
100
AcDbEntity
  8
SLD-0_2
  6
CONTINUOUS
 62
       7
100
AcDbLine
 10
-90.50577333
 20
-60.12168565
 30
0.0
 11
-90.57356216
 21
-60.45846394
 31
0.0
  0
LINE
  5
257
100
AcDbEntity
  8
SLD-0_2
  6
CONTINUOUS
 62
       7
100
AcDbLine
 10
-90.95866838
 20
-61.3870706
 30
0.0
 11
-91.14201787
 21
-61.66375944
 31
0.0
  0
LINE
  5
258
100
AcDbEntity
  8
SLD-0_2
  6
CONTINUOUS
 62
       7
100
AcDbLine
 10
-91.83349208
 20
-62.37174913
 30
0.0
 11
-92.10552623
 21
-62.56144942
 31
0.0
  0
LINE
  5
259
100
AcDbEntity
  8
SLD-0_2
  6
CONTINUOUS
 62
       7
100
AcDbLine
 10
-93.02274049
 20
-62.96812482
 30
0.0
 11
-93.35658334
 21
-63.04393746
 31
0.0
  0
LINE
  5
25A
100
AcDbEntity
  8
SLD-0_2
  6
CONTINUOUS
 62
       7
100
AcDbLine
 10
-94.02607785
 20
-63.09697428
 30
0.0
 11
-94.15039766
 21
-63.09697428
 31
0.0
  0
LINE
  5
25B
100
AcDbEntity
  8
SLD-0_2
  6
CONTINUOUS
 62
       7
100
AcDbLine
 10
-94.8305724
 20
-63.09697428
 30
0.0
 11
-95.12693279
 21
-63.09697428
 31
0.0
  0
LINE
  5
25C
100
AcDbEntity
  8
SLD-0_2
  6
CONTINUOUS
 62
       7
100
AcDbLine
 10
-96.08728792
 20
-63.09697428
 30
0.0
 11
-96.39839464
 21
-63.09697428
 31
0.0
  0
LINE
  5
25D
100
AcDbEntity
  8
SLD-0_2
  6
CONTINUOUS
 62
       7
100
AcDbLine
 10
-97.1670474
 20
-63.09697428
 30
0.0
 11
-97.33560621
 21
-63.09697428
 31
0.0
  0
LINE
  5
25E
100
AcDbEntity
  8
SLD-0_2
  6
CONTINUOUS
 62
       7
100
AcDbLine
 10
-93.47946289
 20
-54.62384424
 30
0.0
 11
-92.96951252
 21
-54.70391672
 31
0.0
  0
LINE
  5
25F
100
AcDbEntity
  8
SLD-0_2
  6
CONTINUOUS
 62
       7
100
AcDbLine
 10
-91.56122266
 20
-55.23342965
 30
0.0
 11
-91.14142911
 21
-55.49724981
 31
0.0
  0
LINE
  5
260
100
AcDbEntity
  8
SLD-0_2
  6
CONTINUOUS
 62
       7
100
AcDbLine
 10
-90.06924484
 20
-56.51237064
 30
0.0
 11
-89.78336488
 21
-56.91618171
 31
0.0
  0
LINE
  5
261
100
AcDbEntity
  8
SLD-0_2
  6
CONTINUOUS
 62
       7
100
AcDbLine
 10
-89.17855652
 20
-58.28564012
 30
0.0
 11
-89.0703469
 21
-58.78568533
 31
0.0
  0
LINE
  5
262
100
AcDbEntity
  8
SLD-0_2
  6
CONTINUOUS
 62
       7
100
AcDbLine
 10
-89.06143746
 20
-60.35113884
 30
0.0
 11
-89.16408717
 21
-60.85320363
 31
0.0
  0
LINE
  5
263
100
AcDbEntity
  8
SLD-0_2
  6
CONTINUOUS
 62
       7
100
AcDbLine
 10
-89.75403902
 20
-62.23048247
 30
0.0
 11
-90.03557455
 21
-62.63749491
 31
0.0
  0
LINE
  5
264
100
AcDbEntity
  8
SLD-0_2
  6
CONTINUOUS
 62
       7
100
AcDbLine
 10
-91.09654871
 20
-63.66403424
 30
0.0
 11
-91.51321329
 21
-63.93227269
 31
0.0
  0
LINE
  5
265
100
AcDbEntity
  8
SLD-0_2
  6
CONTINUOUS
 62
       7
100
AcDbLine
 10
-92.91393944
 20
-64.47690764
 30
0.0
 11
-93.4219763
 21
-64.56265049
 31
0.0
  0
LINE
  5
266
100
AcDbEntity
  8
SLD-0_2
  6
CONTINUOUS
 62
       7
100
AcDbLine
 10
-94.08577382
 20
-64.59627984
 30
0.0
 11
-94.18498546
 21
-64.59627984
 31
0.0
  0
LINE
  5
267
100
AcDbEntity
  8
SLD-0_2
  6
CONTINUOUS
 62
       7
100
AcDbLine
 10
-94.64285834
 20
-64.59627984
 30
0.0
 11
-94.82781134
 21
-64.59627984
 31
0.0
  0
LINE
  5
268
100
AcDbEntity
  8
SLD-0_2
  6
CONTINUOUS
 62
       7
100
AcDbLine
 10
-95.39110392
 20
-64.59627984
 30
0.0
 11
-95.56059536
 21
-64.59627984
 31
0.0
  0
LINE
  5
269
100
AcDbEntity
  8
SLD-0_2
  6
CONTINUOUS
 62
       7
100
AcDbLine
 10
-95.92569891
 20
-64.59627984
 30
0.0
 11
-95.97852589
 21
-64.59627984
 31
0.0
  0
LINE
  5
26A
100
AcDbEntity
  8
SLD-0_2
  6
CONTINUOUS
 62
       7
100
AcDbLine
 10
-95.98914595
 20
-65.56840887
 30
0.0
 11
-95.98914595
 21
-66.48574346
 31
0.0
  0
LINE
  5
26B
100
AcDbEntity
  8
SLD-0_2
  6
CONTINUOUS
 62
       7
100
AcDbLine
 10
-95.98914595
 20
-70.39409897
 30
0.0
 11
-95.98914595
 21
-71.91228299
 31
0.0
  0
LINE
  5
26C
100
AcDbEntity
  8
SLD-0_2
  6
CONTINUOUS
 62
       7
100
AcDbLine
 10
-95.98914595
 20
-76.39881436
 30
0.0
 11
-95.98914595
 21
-77.70159953
 31
0.0
  0
LINE
  5
26D
100
AcDbEntity
  8
SLD-0_2
  6
CONTINUOUS
 62
       7
100
AcDbLine
 10
-95.98914595
 20
-80.31756192
 30
0.0
 11
-95.98914595
 21
-80.58869995
 31
0.0
  0
LINE
  5
26E
100
AcDbEntity
  8
SLD-0_2
  6
CONTINUOUS
 62
       7
100
AcDbLine
 10
-94.2615095
 20
-80.59840386
 30
0.0
 11
-92.94916324
 21
-80.59840386
 31
0.0
  0
LINE
  5
26F
100
AcDbEntity
  8
SLD-0_2
  6
CONTINUOUS
 62
       7
100
AcDbLine
 10
-87.70502273
 20
-80.59840386
 30
0.0
 11
-85.7391256
 21
-80.59840386
 31
0.0
  0
LINE
  5
270
100
AcDbEntity
  8
SLD-0_2
  6
CONTINUOUS
 62
       7
100
AcDbLine
 10
-80.10285458
 20
-80.59840386
 30
0.0
 11
-78.52908797
 21
-80.59840386
 31
0.0
  0
LINE
  5
271
100
AcDbEntity
  8
SLD-0_2
  6
CONTINUOUS
 62
       7
100
AcDbLine
 10
-75.63773056
 20
-80.59840386
 30
0.0
 11
-75.48910526
 21
-80.57293435
 31
0.0
  0
LINE
  5
272
100
AcDbEntity
  8
SLD-0_2
  6
CONTINUOUS
 62
       7
100
AcDbLine
 10
-75.48910526
 20
-75.93855596
 30
0.0
 11
-75.48910526
 21
-72.99526695
 31
0.0
  0
LINE
  5
273
100
AcDbEntity
  8
SLD-0_2
  6
CONTINUOUS
 62
       7
100
AcDbLine
 10
-75.48910526
 20
-61.84449133
 30
0.0
 11
-75.48910526
 21
-57.8002585
 31
0.0
  0
LINE
  5
274
100
AcDbEntity
  8
SLD-0_2
  6
CONTINUOUS
 62
       7
100
AcDbLine
 10
-75.48910526
 20
-46.56021717
 30
0.0
 11
-75.48910526
 21
-43.55741768
 31
0.0
  0
LINE
  5
275
100
AcDbEntity
  8
SLD-0_2
  6
CONTINUOUS
 62
       7
100
AcDbLine
 10
-75.48910526
 20
-38.65524214
 30
0.0
 11
-75.59883726
 21
-38.59821127
 31
0.0
  0
LINE
  5
276
100
AcDbEntity
  8
SLD-0_2
  6
CONTINUOUS
 62
       7
100
AcDbLine
 10
-78.36916674
 20
-38.59821127
 30
0.0
 11
-79.91711405
 21
-38.59821127
 31
0.0
  0
LINE
  5
277
100
AcDbEntity
  8
SLD-0_2
  6
CONTINUOUS
 62
       7
100
AcDbLine
 10
-85.51949725
 20
-38.59821127
 30
0.0
 11
-87.48862179
 21
-38.59821127
 31
0.0
  0
LINE
  5
278
100
AcDbEntity
  8
SLD-0_2
  6
CONTINUOUS
 62
       7
100
AcDbLine
 10
-92.78601459
 20
-38.59821127
 30
0.0
 11
-94.13063497
 21
-38.59821127
 31
0.0
  0
LINE
  5
279
100
AcDbEntity
  8
SLD-0_2
  6
CONTINUOUS
 62
       7
100
AcDbLine
 10
-95.98914595
 20
-38.60064833
 30
0.0
 11
-95.98914595
 21
-38.83142314
 31
0.0
  0
LINE
  5
27A
100
AcDbEntity
  8
SLD-0_2
  6
CONTINUOUS
 62
       7
100
AcDbLine
 10
-95.98914595
 20
-41.35987128
 30
0.0
 11
-95.98914595
 21
-42.6447171
 31
0.0
  0
LINE
  5
27B
100
AcDbEntity
  8
SLD-0_2
  6
CONTINUOUS
 62
       7
100
AcDbLine
 10
-95.98914595
 20
-47.11129582
 30
0.0
 11
-95.98914595
 21
-48.63415768
 31
0.0
  0
LINE
  5
27C
100
AcDbEntity
  8
SLD-0_2
  6
CONTINUOUS
 62
       7
100
AcDbLine
 10
-95.98914595
 20
-52.59070203
 30
0.0
 11
-95.98914595
 21
-53.53552495
 31
0.0
  0
LINE
  5
27D
100
AcDbEntity
  8
SLD-0_2
  6
CONTINUOUS
 62
       7
100
AcDbLine
 10
-95.98173475
 20
-54.59654568
 30
0.0
 11
-95.93359309
 21
-54.59654568
 31
0.0
  0
LINE
  5
27E
100
AcDbEntity
  8
SLD-0_2
  6
CONTINUOUS
 62
       7
100
AcDbLine
 10
-95.57832872
 20
-54.59654568
 30
0.0
 11
-95.4107114
 21
-54.59654568
 31
0.0
  0
LINE
  5
27F
100
AcDbEntity
  8
SLD-0_2
  6
CONTINUOUS
 62
       7
100
AcDbLine
 10
-94.84882442
 20
-54.59654568
 30
0.0
 11
-94.66293436
 21
-54.59654568
 31
0.0
  0
LINE
  5
280
100
AcDbEntity
  8
SLD-0_2
  6
CONTINUOUS
 62
       7
100
AcDbLine
 10
-94.1980335
 20
-54.59654568
 30
0.0
 11
-94.0950736
 21
-54.59654568
 31
0.0
  0
LINE
  5
281
100
AcDbEntity
  8
SLD-0_2
  6
CONTINUOUS
 62
       7
100
AcDbLine
 10
-91.21458811
 20
-25.6033111
 30
0.0
 11
-100.21455556
 21
-25.6033111
 31
0.0
  0
LINE
  5
282
100
AcDbEntity
  8
SLD-0_2
  6
CONTINUOUS
 62
       7
100
AcDbLine
 10
-81.21416494
 20
-25.6033111
 30
0.0
 11
-90.21413238
 21
-25.6033111
 31
0.0
  0
LINE
  5
283
100
AcDbEntity
  8
SLD-0_2
  6
CONTINUOUS
 62
       7
100
AcDbLine
 10
-101.48889638
 20
-82.09839843
 30
0.0
 11
-69.98935483
 21
-82.09839843
 31
0.0
  0
LINE
  5
284
100
AcDbEntity
  8
SLD-0_2
  6
CONTINUOUS
 62
       7
100
AcDbLine
 10
-71.21408627
 20
-25.6033111
 30
0.0
 11
-80.21439823
 21
-25.6033111
 31
0.0
  0
LINE
  5
285
100
AcDbEntity
  8
SLD-0_2
  6
CONTINUOUS
 62
       7
100
AcDbLine
 10
-90.23687001
 20
-104.08224175
 30
0.0
 11
-90.23687001
 21
-91.09836588
 31
0.0
  0
LINE
  5
286
100
AcDbEntity
  8
SLD-0_2
  6
CONTINUOUS
 62
       7
100
AcDbLine
 10
-100.23660417
 20
-104.08224175
 30
0.0
 11
-100.23660417
 21
-91.09836588
 31
0.0
  0
LINE
  5
287
100
AcDbEntity
  8
SLD-0_2
  6
CONTINUOUS
 62
       7
100
AcDbLine
 10
-92.05593906
 20
-61.216849
 30
0.0
 11
-91.90901997
 21
-61.01789294
 31
0.0
  0
LINE
  5
288
100
AcDbEntity
  8
SLD-0_2
  6
CONTINUOUS
 62
       7
100
AcDbLine
 10
-91.60132149
 20
-60.36542927
 30
0.0
 11
-91.54310826
 21
-60.13506812
 31
0.0
  0
LINE
  5
289
100
AcDbEntity
  8
SLD-0_2
  6
CONTINUOUS
 62
       7
100
AcDbLine
 10
-91.50152739
 20
-59.42913091
 30
0.0
 11
-91.53202003
 21
-59.19452583
 31
0.0
  0
LINE
  5
28A
100
AcDbEntity
  8
SLD-0_2
  6
CONTINUOUS
 62
       7
100
AcDbLine
 10
-91.75655676
 20
-58.51659857
 30
0.0
 11
-91.87575526
 21
-58.30491072
 31
0.0
  0
LINE
  5
28B
100
AcDbEntity
  8
SLD-0_2
  6
CONTINUOUS
 62
       7
100
AcDbLine
 10
-92.36397576
 20
-57.73876313
 30
0.0
 11
-92.56004918
 21
-57.58629992
 31
0.0
  0
LINE
  5
28C
100
AcDbEntity
  8
SLD-0_2
  6
CONTINUOUS
 62
       7
100
AcDbLine
 10
-92.9829296
 20
-57.3479029
 30
0.0
 11
-93.2063453
 21
-57.26196909
 31
0.0
  0
LINE
  5
28D
100
AcDbEntity
  8
SLD-0_2
  6
CONTINUOUS
 62
       7
100
AcDbLine
 10
-93.66864948
 20
-57.15663088
 30
0.0
 11
-93.90414666
 21
-57.13722647
 31
0.0
  0
LINE
  5
28E
100
AcDbEntity
  8
SLD-0_2
  6
CONTINUOUS
 62
       7
100
AcDbLine
 10
-95.05725766
 20
-57.37285143
 30
0.0
 11
-95.27113536
 21
-57.48650582
 31
0.0
  0
LINE
  5
28F
100
AcDbEntity
  8
SLD-0_2
  6
CONTINUOUS
 62
       7
100
AcDbLine
 10
-95.84777309
 20
-57.95947628
 30
0.0
 11
-96.00589196
 21
-58.15259693
 31
0.0
  0
LINE
  5
290
100
AcDbEntity
  8
SLD-0_2
  6
CONTINUOUS
 62
       7
100
AcDbLine
 10
-96.34709585
 20
-58.79264711
 30
0.0
 11
-96.41644624
 21
-59.02056799
 31
0.0
  0
LINE
  5
291
100
AcDbEntity
  8
SLD-0_2
  6
CONTINUOUS
 62
       7
100
AcDbLine
 10
-96.49134465
 20
-59.72427714
 30
0.0
 11
-96.47192654
 21
-59.9598371
 31
0.0
  0
LINE
  5
292
100
AcDbEntity
  8
SLD-0_2
  6
CONTINUOUS
 62
       7
100
AcDbLine
 10
-96.17233289
 20
-60.86175961
 30
0.0
 11
-96.04195416
 21
-61.06867304
 31
0.0
  0
LINE
  5
293
100
AcDbEntity
  8
SLD-0_2
  6
CONTINUOUS
 62
       7
100
AcDbLine
 10
-95.71490364
 20
-61.44806279
 30
0.0
 11
-95.52487095
 21
-61.61161423
 31
0.0
  0
LINE
  5
294
100
AcDbEntity
  8
SLD-0_2
  6
CONTINUOUS
 62
       7
100
AcDbLine
 10
-94.89161011
 20
-61.96920976
 30
0.0
 11
-94.66512104
 21
-62.04405534
 31
0.0
  0
LINE
  5
295
100
AcDbEntity
  8
SLD-0_2
  6
CONTINUOUS
 62
       7
100
AcDbLine
 10
-93.96318655
 20
-62.13553326
 30
0.0
 11
-93.72737143
 21
-62.12167297
 31
0.0
  0
LINE
  5
296
100
AcDbEntity
  8
SLD-0_2
  6
CONTINUOUS
 62
       7
100
AcDbLine
 10
-93.03815428
 20
-61.94703329
 30
0.0
 11
-92.82014344
 21
-61.84446713
 31
0.0
  0
LINE
  5
297
100
AcDbEntity
  8
SLD-0_2
  6
CONTINUOUS
 62
       7
100
AcDbLine
 10
-92.41188797
 20
-61.57280541
 30
0.0
 11
-92.22503462
 21
-61.40370985
 31
0.0
  0
LINE
  5
298
100
AcDbEntity
  8
SLD-0_2
  6
CONTINUOUS
 62
       7
100
AcDbLine
 10
-97.1670474
 20
-56.09654026
 30
0.0
 11
-96.94810527
 21
-56.09654026
 31
0.0
  0
LINE
  5
299
100
AcDbEntity
  8
SLD-0_2
  6
CONTINUOUS
 62
       7
100
AcDbLine
 10
-96.08728792
 20
-56.09654026
 30
0.0
 11
-95.76512144
 21
-56.09654026
 31
0.0
  0
LINE
  5
29A
100
AcDbEntity
  8
SLD-0_2
  6
CONTINUOUS
 62
       7
100
AcDbLine
 10
-94.8305724
 20
-56.09654026
 30
0.0
 11
-94.56247582
 21
-56.09654026
 31
0.0
  0
LINE
  5
29B
100
AcDbEntity
  8
SLD-0_2
  6
CONTINUOUS
 62
       7
100
AcDbLine
 10
-94.02607785
 20
-56.09654026
 30
0.0
 11
-93.96934542
 21
-56.09654026
 31
0.0
  0
LINE
  5
29C
100
AcDbEntity
  8
SLD-0_2
  6
CONTINUOUS
 62
       7
100
AcDbLine
 10
-93.02274049
 20
-56.22536514
 30
0.0
 11
-92.70183019
 21
-56.33215374
 31
0.0
  0
LINE
  5
29D
100
AcDbEntity
  8
SLD-0_2
  6
CONTINUOUS
 62
       7
100
AcDbLine
 10
-91.83349208
 20
-56.82166116
 30
0.0
 11
-91.58110946
 21
-57.03561168
 31
0.0
  0
LINE
  5
29E
100
AcDbEntity
  8
SLD-0_2
  6
CONTINUOUS
 62
       7
100
AcDbLine
 10
-90.95866838
 20
-57.80629086
 30
0.0
 11
-90.80168943
 21
-58.1005273
 31
0.0
  0
LINE
  5
29F
100
AcDbEntity
  8
SLD-0_2
  6
CONTINUOUS
 62
       7
100
AcDbLine
 10
-90.50577333
 20
-59.07175029
 30
0.0
 11
-90.47107403
 21
-59.41939668
 31
0.0
  0
LINE
  5
2A0
100
AcDbEntity
  8
SLD-0_2
  6
CONTINUOUS
 62
       7
100
AcDbLine
 10
-90.57356216
 20
-60.45846394
 30
0.0
 11
-90.67276078
 21
-60.78274165
 31
0.0
  0
LINE
  5
2A1
100
AcDbEntity
  8
SLD-0_2
  6
CONTINUOUS
 62
       7
100
AcDbLine
 10
-91.14201787
 20
-61.66375944
 30
0.0
 11
-91.35005814
 21
-61.92122294
 31
0.0
  0
LINE
  5
2A2
100
AcDbEntity
  8
SLD-0_2
  6
CONTINUOUS
 62
       7
100
AcDbLine
 10
-92.10552623
 20
-62.56144942
 30
0.0
 11
-92.39553219
 21
-62.7251996
 31
0.0
  0
LINE
  5
2A3
100
AcDbEntity
  8
SLD-0_2
  6
CONTINUOUS
 62
       7
100
AcDbLine
 10
-93.35658334
 20
-63.04393746
 30
0.0
 11
-93.70167898
 21
-63.08707522
 31
0.0
  0
LINE
  5
2A4
100
AcDbEntity
  8
SLD-0_2
  6
CONTINUOUS
 62
       7
100
AcDbLine
 10
-94.15039766
 20
-63.09697428
 30
0.0
 11
-94.33247394
 21
-63.09697428
 31
0.0
  0
LINE
  5
2A5
100
AcDbEntity
  8
SLD-0_2
  6
CONTINUOUS
 62
       7
100
AcDbLine
 10
-95.12693279
 20
-63.09697428
 30
0.0
 11
-95.4417261
 21
-63.09697428
 31
0.0
  0
LINE
  5
2A6
100
AcDbEntity
  8
SLD-0_2
  6
CONTINUOUS
 62
       7
100
AcDbLine
 10
-96.39839464
 20
-63.09697428
 30
0.0
 11
-96.68861072
 21
-63.09697428
 31
0.0
  0
LINE
  5
2A7
100
AcDbEntity
  8
SLD-0_2
  6
CONTINUOUS
 62
       7
100
AcDbLine
 10
-97.33560621
 20
-63.09697428
 30
0.0
 11
-97.44395082
 21
-63.09697428
 31
0.0
  0
LINE
  5
2A8
100
AcDbEntity
  8
SLD-0_2
  6
CONTINUOUS
 62
       7
100
AcDbLine
 10
-92.96951252
 20
-54.70391672
 30
0.0
 11
-92.47799916
 21
-54.83402831
 31
0.0
  0
LINE
  5
2A9
100
AcDbEntity
  8
SLD-0_2
  6
CONTINUOUS
 62
       7
100
AcDbLine
 10
-91.14142911
 20
-55.49724981
 30
0.0
 11
-90.75101176
 21
-55.80016989
 31
0.0
  0
LINE
  5
2AA
100
AcDbEntity
  8
SLD-0_2
  6
CONTINUOUS
 62
       7
100
AcDbLine
 10
-89.78336488
 20
-56.91618171
 30
0.0
 11
-89.5378003
 21
-57.34815351
 31
0.0
  0
LINE
  5
2AB
100
AcDbEntity
  8
SLD-0_2
  6
CONTINUOUS
 62
       7
100
AcDbLine
 10
-89.0703469
 20
-58.78568533
 30
0.0
 11
-89.01339187
 21
-59.30295208
 31
0.0
  0
LINE
  5
2AC
100
AcDbEntity
  8
SLD-0_2
  6
CONTINUOUS
 62
       7
100
AcDbLine
 10
-89.16408717
 20
-60.85320363
 30
0.0
 11
-89.31556053
 21
-61.33560423
 31
0.0
  0
LINE
  5
2AD
100
AcDbEntity
  8
SLD-0_2
  6
CONTINUOUS
 62
       7
100
AcDbLine
 10
-90.03557455
 20
-62.63749491
 30
0.0
 11
-90.35499454
 21
-63.01391275
 31
0.0
  0
LINE
  5
2AE
100
AcDbEntity
  8
SLD-0_2
  6
CONTINUOUS
 62
       7
100
AcDbLine
 10
-91.51321329
 20
-63.93227269
 30
0.0
 11
-91.95682314
 21
-64.15898614
 31
0.0
  0
LINE
  5
2AF
100
AcDbEntity
  8
SLD-0_2
  6
CONTINUOUS
 62
       7
100
AcDbLine
 10
-93.4219763
 20
-64.56265049
 30
0.0
 11
-93.94601923
 21
-64.59593792
 31
0.0
  0
LINE
  5
2B0
100
AcDbEntity
  8
SLD-0_2
  6
CONTINUOUS
 62
       7
100
AcDbLine
 10
-94.18498546
 20
-64.59627984
 30
0.0
 11
-94.31512022
 21
-64.59627984
 31
0.0
  0
LINE
  5
2B1
100
AcDbEntity
  8
SLD-0_2
  6
CONTINUOUS
 62
       7
100
AcDbLine
 10
-94.82781134
 20
-64.59627984
 30
0.0
 11
-95.01838673
 21
-64.59627984
 31
0.0
  0
LINE
  5
2B2
100
AcDbEntity
  8
SLD-0_2
  6
CONTINUOUS
 62
       7
100
AcDbLine
 10
-95.56059536
 20
-64.59627984
 30
0.0
 11
-95.71040846
 21
-64.59627984
 31
0.0
  0
LINE
  5
2B3
100
AcDbEntity
  8
SLD-0_2
  6
CONTINUOUS
 62
       7
100
AcDbLine
 10
-95.97852589
 20
-64.59627984
 30
0.0
 11
-95.98914595
 21
-64.61800867
 31
0.0
  0
LINE
  5
2B4
100
AcDbEntity
  8
SLD-0_2
  6
CONTINUOUS
 62
       7
100
AcDbLine
 10
-95.98914595
 20
-66.48574346
 30
0.0
 11
-95.98914595
 21
-67.62981369
 31
0.0
  0
LINE
  5
2B5
100
AcDbEntity
  8
SLD-0_2
  6
CONTINUOUS
 62
       7
100
AcDbLine
 10
-95.98914595
 20
-71.91228299
 30
0.0
 11
-95.98914595
 21
-73.45314057
 31
0.0
  0
LINE
  5
2B6
100
AcDbEntity
  8
SLD-0_2
  6
CONTINUOUS
 62
       7
100
AcDbLine
 10
-95.98914595
 20
-77.70159953
 30
0.0
 11
-95.98914595
 21
-78.82299619
 31
0.0
  0
LINE
  5
2B7
100
AcDbEntity
  8
SLD-0_2
  6
CONTINUOUS
 62
       7
100
AcDbLine
 10
-95.98914595
 20
-80.58869995
 30
0.0
 11
-95.84052065
 21
-80.59840386
 31
0.0
  0
LINE
  5
2B8
100
AcDbEntity
  8
SLD-0_2
  6
CONTINUOUS
 62
       7
100
AcDbLine
 10
-92.94916324
 20
-80.59840386
 30
0.0
 11
-91.37539663
 21
-80.59840386
 31
0.0
  0
LINE
  5
2B9
100
AcDbEntity
  8
SLD-0_2
  6
CONTINUOUS
 62
       7
100
AcDbLine
 10
-85.7391256
 20
-80.59840386
 30
0.0
 11
-83.77322848
 21
-80.59840386
 31
0.0
  0
LINE
  5
2BA
100
AcDbEntity
  8
SLD-0_2
  6
CONTINUOUS
 62
       7
100
AcDbLine
 10
-78.52908797
 20
-80.59840386
 30
0.0
 11
-77.21674171
 21
-80.59840386
 31
0.0
  0
LINE
  5
2BB
100
AcDbEntity
  8
SLD-0_2
  6
CONTINUOUS
 62
       7
100
AcDbLine
 10
-75.48910526
 20
-80.57293435
 30
0.0
 11
-75.48910526
 21
-79.86128823
 31
0.0
  0
LINE
  5
2BC
100
AcDbEntity
  8
SLD-0_2
  6
CONTINUOUS
 62
       7
100
AcDbLine
 10
-75.48910526
 20
-72.99526695
 30
0.0
 11
-75.48910526
 21
-69.57589413
 31
0.0
  0
LINE
  5
2BD
100
AcDbEntity
  8
SLD-0_2
  6
CONTINUOUS
 62
       7
100
AcDbLine
 10
-75.48910526
 20
-57.8002585
 30
0.0
 11
-75.48910526
 21
-53.81553615
 31
0.0
  0
LINE
  5
2BE
100
AcDbEntity
  8
SLD-0_2
  6
CONTINUOUS
 62
       7
100
AcDbLine
 10
-75.48910526
 20
-43.55741768
 30
0.0
 11
-75.48910526
 21
-41.14972297
 31
0.0
  0
LINE
  5
2BF
100
AcDbEntity
  8
SLD-0_2
  6
CONTINUOUS
 62
       7
100
AcDbLine
 10
-75.59883726
 20
-38.59821127
 30
0.0
 11
-76.14467325
 21
-38.59821127
 31
0.0
  0
LINE
  5
2C0
100
AcDbEntity
  8
SLD-0_2
  6
CONTINUOUS
 62
       7
100
AcDbLine
 10
-79.91711405
 20
-38.59821127
 30
0.0
 11
-81.6683883
 21
-38.59821127
 31
0.0
  0
LINE
  5
2C1
100
AcDbEntity
  8
SLD-0_2
  6
CONTINUOUS
 62
       7
100
AcDbLine
 10
-87.48862179
 20
-38.59821127
 30
0.0
 11
-89.39965291
 21
-38.59821127
 31
0.0
  0
LINE
  5
2C2
100
AcDbEntity
  8
SLD-0_2
  6
CONTINUOUS
 62
       7
100
AcDbLine
 10
-94.13063497
 20
-38.59821127
 30
0.0
 11
-95.1557416
 21
-38.59821127
 31
0.0
  0
LINE
  5
2C3
100
AcDbEntity
  8
SLD-0_2
  6
CONTINUOUS
 62
       7
100
AcDbLine
 10
-95.98914595
 20
-38.83142314
 30
0.0
 11
-95.98914595
 21
-39.40222086
 31
0.0
  0
LINE
  5
2C4
100
AcDbEntity
  8
SLD-0_2
  6
CONTINUOUS
 62
       7
100
AcDbLine
 10
-95.98914595
 20
-42.6447171
 30
0.0
 11
-95.98914595
 21
-44.06557209
 31
0.0
  0
LINE
  5
2C5
100
AcDbEntity
  8
SLD-0_2
  6
CONTINUOUS
 62
       7
100
AcDbLine
 10
-95.98914595
 20
-45.57143281
 30
0.0
 11
-95.98914595
 21
-47.11129582
 31
0.0
  0
LINE
  5
2C6
100
AcDbEntity
  8
SLD-0_2
  6
CONTINUOUS
 62
       7
100
AcDbLine
 10
-95.98914595
 20
-51.42486423
 30
0.0
 11
-95.98914595
 21
-52.59070203
 31
0.0
  0
LINE
  5
2C7
100
AcDbEntity
  8
SLD-0_2
  6
CONTINUOUS
 62
       7
100
AcDbLine
 10
-95.98914595
 20
-54.55811237
 30
0.0
 11
-95.98173475
 21
-54.59654568
 31
0.0
  0
LINE
  5
2C8
100
AcDbEntity
  8
SLD-0_2
  6
CONTINUOUS
 62
       7
100
AcDbLine
 10
-95.72556489
 20
-54.59654568
 30
0.0
 11
-95.57832872
 21
-54.59654568
 31
0.0
  0
LINE
  5
2C9
100
AcDbEntity
  8
SLD-0_2
  6
CONTINUOUS
 62
       7
100
AcDbLine
 10
-95.03963407
 20
-54.59654568
 30
0.0
 11
-94.84882442
 21
-54.59654568
 31
0.0
  0
LINE
  5
2CA
100
AcDbEntity
  8
SLD-0_2
  6
CONTINUOUS
 62
       7
100
AcDbLine
 10
-94.33121372
 20
-54.59654568
 30
0.0
 11
-94.1980335
 21
-54.59654568
 31
0.0
  0
LINE
  5
2CB
100
AcDbEntity
  8
SLD-0_2
  6
CONTINUOUS
 62
       7
100
AcDbLine
 10
-94.0950736
 20
-54.59654568
 30
0.0
 11
-94.02865919
 21
-54.59654568
 31
0.0
  0
LINE
  5
2CC
100
AcDbEntity
  8
SLD-0_2
  6
CONTINUOUS
 62
       7
100
AcDbLine
 10
-91.23663672
 20
-37.0982167
 30
0.0
 11
-91.23663672
 21
-24.11434083
 31
0.0
  0
LINE
  5
2CD
100
AcDbEntity
  8
SLD-0_2
  6
CONTINUOUS
 62
       7
100
AcDbLine
 10
-81.23655806
 20
-37.0982167
 30
0.0
 11
-81.23655806
 21
-24.11434083
 31
0.0
  0
LINE
  5
2CE
100
AcDbEntity
  8
SLD-0_2
  6
CONTINUOUS
 62
       7
100
AcDbLine
 10
-73.98911069
 20
-82.09839843
 30
0.0
 11
-73.98911069
 21
-37.0982167
 31
0.0
  0
LINE
  5
2CF
100
AcDbEntity
  8
SLD-0_2
  6
CONTINUOUS
 62
       7
100
AcDbLine
 10
-71.23613489
 20
-37.0982167
 30
0.0
 11
-71.23613489
 21
-24.11434083
 31
0.0
  0
LINE
  5
2D0
100
AcDbEntity
  8
SLD-0_2
  6
CONTINUOUS
 62
       7
100
AcDbLine
 10
-81.04259918
 20
-114.09829129
 30
0.0
 11
-81.04259918
 21
-118.09829129
 31
0.0
  0
LINE
  5
2D1
100
AcDbEntity
  8
SLD-0_2
  6
CONTINUOUS
 62
       7
100
AcDbLine
 10
-88.98009918
 20
-115.29361598
 30
0.0
 11
-82.27732141
 21
-115.29361598
 31
0.0
  0
LINE
  5
2D2
100
AcDbEntity
  8
SLD-0_2
  6
CONTINUOUS
 62
       7
100
AcDbLine
 10
-90.2148214
 20
-118.09829129
 30
0.0
 11
-90.2148214
 21
-114.09829129
 31
0.0
  0
ARC
  5
2D3
100
AcDbEntity
  8
SLD-0_2
  6
CONTINUOUS
 62
       7
100
AcDbCircle
 10
-96.2372308
 20
124.90170871
 30
0.0
 40
1.0
100
AcDbArc
 50
90.0
 51
180.0
  0
CIRCLE
  5
2D4
100
AcDbEntity
  8
SLD-0_2
  6
CONTINUOUS
 62
       7
100
AcDbCircle
 10
-95.73741018
 20
107.88552579
 30
0.0
 40
3.50045927
  0
CIRCLE
  5
2D5
100
AcDbEntity
  8
SLD-0_2
  6
CONTINUOUS
 62
       7
100
AcDbCircle
 10
-75.73690834
 20
107.88552579
 30
0.0
 40
3.50045927
  0
CIRCLE
  5
2D6
100
AcDbEntity
  8
SLD-0_2
  6
CONTINUOUS
 62
       7
100
AcDbCircle
 10
-85.73767602
 20
43.91789162
 30
0.0
 40
3.50045927
  0
CIRCLE
  5
2D7
100
AcDbEntity
  8
SLD-0_2
  6
CONTINUOUS
 62
       7
100
AcDbCircle
 10
-85.7372308
 20
30.90170871
 30
0.0
 40
2.5
  0
ARC
  5
2D8
100
AcDbEntity
  8
SLD-0_2
  6
CONTINUOUS
 62
       7
100
AcDbCircle
 10
-75.2372308
 20
26.90170871
 30
0.0
 40
1.0
100
AcDbArc
 50
270.0
 51
360.0
  0
ARC
  5
2D9
100
AcDbEntity
  8
SLD-0_2
  6
CONTINUOUS
 62
       7
100
AcDbCircle
 10
-75.2372308
 20
124.90170871
 30
0.0
 40
1.0
100
AcDbArc
 50
0.0
 51
90.0
  0
CIRCLE
  5
2DA
100
AcDbEntity
  8
SLD-0_2
  6
CONTINUOUS
 62
       7
100
AcDbCircle
 10
-85.7372308
 20
120.90170871
 30
0.0
 40
2.5
  0
CIRCLE
  5
2DB
100
AcDbEntity
  8
SLD-0_2
  6
CONTINUOUS
 62
       7
100
AcDbCircle
 10
-85.73767602
 20
107.88552579
 30
0.0
 40
3.50045927
  0
CIRCLE
  5
2DC
100
AcDbEntity
  8
SLD-0_2
  6
CONTINUOUS
 62
       7
100
AcDbCircle
 10
-75.73690834
 20
43.91789162
 30
0.0
 40
3.50045927
  0
CIRCLE
  5
2DD
100
AcDbEntity
  8
SLD-0_2
  6
CONTINUOUS
 62
       7
100
AcDbCircle
 10
-85.7372308
 20
-19.09829129
 30
0.0
 40
3.75
  0
CIRCLE
  5
2DE
100
AcDbEntity
  8
SLD-0_2
  6
CONTINUOUS
 62
       7
100
AcDbCircle
 10
-75.73690834
 20
-96.08210838
 30
0.0
 40
3.50045927
  0
CIRCLE
  5
2DF
100
AcDbEntity
  8
SLD-0_2
  6
CONTINUOUS
 62
       7
100
AcDbCircle
 10
-95.73741018
 20
43.91789162
 30
0.0
 40
3.50045927
  0
ARC
  5
2E0
100
AcDbEntity
  8
SLD-0_2
  6
CONTINUOUS
 62
       7
100
AcDbCircle
 10
-96.2372308
 20
26.90170871
 30
0.0
 40
1.0
100
AcDbArc
 50
180.0
 51
270.0
  0
ARC
  5
2E1
100
AcDbEntity
  8
SLD-0_2
  6
CONTINUOUS
 62
       7
100
AcDbCircle
 10
-96.2372308
 20
-113.09829129
 30
0.0
 40
1.0
100
AcDbArc
 50
180.0
 51
270.0
  0
CIRCLE
  5
2E2
100
AcDbEntity
  8
SLD-0_2
  6
CONTINUOUS
 62
       7
100
AcDbCircle
 10
-95.73741018
 20
-32.11447421
 30
0.0
 40
3.50045927
  0
CIRCLE
  5
2E3
100
AcDbEntity
  8
SLD-0_2
  6
CONTINUOUS
 62
       7
100
AcDbCircle
 10
-85.73767602
 20
-96.08210838
 30
0.0
 40
3.50045927
  0
ARC
  5
2E4
100
AcDbEntity
  8
SLD-0_2
  6
CONTINUOUS
 62
       7
100
AcDbCircle
 10
-75.2372308
 20
-113.09829129
 30
0.0
 40
1.0
100
AcDbArc
 50
270.0
 51
360.0
  0
ARC
  5
2E5
100
AcDbEntity
  8
SLD-0_2
  6
CONTINUOUS
 62
       7
100
AcDbCircle
 10
-75.2372308
 20
-15.09829129
 30
0.0
 40
1.0
100
AcDbArc
 50
0.0
 51
90.0
  0
CIRCLE
  5
2E6
100
AcDbEntity
  8
SLD-0_2
  6
CONTINUOUS
 62
       7
100
AcDbCircle
 10
-85.73767602
 20
-32.11447421
 30
0.0
 40
3.50045927
  0
CIRCLE
  5
2E7
100
AcDbEntity
  8
SLD-0_2
  6
CONTINUOUS
 62
       7
100
AcDbCircle
 10
-95.73741018
 20
-96.08210838
 30
0.0
 40
3.50045927
  0
ARC
  5
2E8
100
AcDbEntity
  8
SLD-0_2
  6
CONTINUOUS
 62
       7
100
AcDbCircle
 10
-96.2372308
 20
-15.09829129
 30
0.0
 40
1.0
100
AcDbArc
 50
90.0
 51
180.0
  0
CIRCLE
  5
2E9
100
AcDbEntity
  8
SLD-0_2
  6
CONTINUOUS
 62
       7
100
AcDbCircle
 10
-75.73690834
 20
-32.11447421
 30
0.0
 40
3.50045927
  0
CIRCLE
  5
2EA
100
AcDbEntity
  8
SLD-0_2
  6
CONTINUOUS
 62
       7
100
AcDbCircle
 10
-85.7372308
 20
-109.09829129
 30
0.0
 40
3.75
  0
LINE
  5
2EB
100
AcDbEntity
  8
SLD-0_0
  6
CONTINUOUS
 62
       7
100
AcDbLine
 10
73.67669645
 20
-104.09829129
 30
0.0
 11
47.74100917
 21
-104.09829129
 31
0.0
  0
LINE
  5
2EC
100
AcDbEntity
  8
SLD-0_0
  6
CONTINUOUS
 62
       7
100
AcDbLine
 10
64.17669645
 20
-14.09829129
 30
0.0
 11
64.17669645
 21
-24.09829129
 31
0.0
  0
LINE
  5
2ED
100
AcDbEntity
  8
SLD-0_0
  6
CONTINUOUS
 62
       7
100
AcDbLine
 10
46.74100917
 20
-81.59829129
 30
0.0
 11
-13.82330355
 21
-81.59829129
 31
0.0
  0
LINE
  5
2EE
100
AcDbEntity
  8
SLD-0_0
  6
CONTINUOUS
 62
       7
100
AcDbLine
 10
-14.82330355
 20
-37.59829129
 30
0.0
 11
-14.82330355
 21
-80.59829129
 31
0.0
  0
LINE
  5
2EF
100
AcDbEntity
  8
SLD-0_0
  6
CONTINUOUS
 62
       7
100
AcDbLine
 10
65.17669645
 20
-14.09829129
 30
0.0
 11
65.17669645
 21
-114.09829129
 31
0.0
  0
LINE
  5
2F0
100
AcDbEntity
  8
SLD-0_0
  6
CONTINUOUS
 62
       7
100
AcDbLine
 10
46.74100917
 20
-25.09829129
 30
0.0
 11
46.74100917
 21
-36.59829129
 31
0.0
  0
LINE
  5
2F1
100
AcDbEntity
  8
SLD-0_0
  6
CONTINUOUS
 62
       7
100
AcDbLine
 10
64.17669645
 20
-14.09829129
 30
0.0
 11
73.67669645
 21
-14.09829129
 31
0.0
  0
LINE
  5
2F2
100
AcDbEntity
  8
SLD-0_0
  6
CONTINUOUS
 62
       7
100
AcDbLine
 10
64.24100917
 20
-104.09829129
 30
0.0
 11
64.24100917
 21
-114.09829129
 31
0.0
  0
LINE
  5
2F3
100
AcDbEntity
  8
SLD-0_0
  6
CONTINUOUS
 62
       7
100
AcDbLine
 10
64.24100917
 20
-114.09829129
 30
0.0
 11
73.67669645
 21
-114.09829129
 31
0.0
  0
LINE
  5
2F4
100
AcDbEntity
  8
SLD-0_0
  6
CONTINUOUS
 62
       7
100
AcDbLine
 10
73.67669645
 20
-24.09829129
 30
0.0
 11
47.74100917
 21
-24.09829129
 31
0.0
  0
LINE
  5
2F5
100
AcDbEntity
  8
SLD-0_0
  6
CONTINUOUS
 62
       7
100
AcDbLine
 10
46.74100917
 20
-36.59829129
 30
0.0
 11
-13.82330355
 21
-36.59829129
 31
0.0
  0
LINE
  5
2F6
100
AcDbEntity
  8
SLD-0_0
  6
CONTINUOUS
 62
       7
100
AcDbLine
 10
46.74100917
 20
-81.59829129
 30
0.0
 11
46.74100917
 21
-103.09829129
 31
0.0
  0
LINE
  5
2F7
100
AcDbEntity
  8
SLD-0_0
  6
CONTINUOUS
 62
       7
100
AcDbLine
 10
38.17669645
 20
-36.59829129
 30
0.0
 11
38.17669645
 21
-81.59829129
 31
0.0
  0
ARC
  5
2F8
100
AcDbEntity
  8
SLD-0_0
  6
CONTINUOUS
 62
       7
100
AcDbCircle
 10
-13.82330355
 20
-37.59829129
 30
0.0
 40
1.0
100
AcDbArc
 50
90.0
 51
180.0
  0
ARC
  5
2F9
100
AcDbEntity
  8
SLD-0_0
  6
CONTINUOUS
 62
       7
100
AcDbCircle
 10
47.74100917
 20
-25.09829129
 30
0.0
 40
1.0
100
AcDbArc
 50
90.0
 51
180.0
  0
ARC
  5
2FA
100
AcDbEntity
  8
SLD-0_0
  6
CONTINUOUS
 62
       7
100
AcDbCircle
 10
-13.82330355
 20
-80.59829129
 30
0.0
 40
1.0
100
AcDbArc
 50
180.0
 51
270.0
  0
ARC
  5
2FB
100
AcDbEntity
  8
SLD-0_0
  6
CONTINUOUS
 62
       7
100
AcDbCircle
 10
47.74100917
 20
-103.09829129
 30
0.0
 40
1.0
100
AcDbArc
 50
180.0
 51
270.0
  0
LINE
  5
2FC
100
AcDbEntity
  8
SLD-0_0
  6
CENTERX2
 62
       7
100
AcDbLine
 10
-85.7372308
 20
-6.75374234
 30
0.0
 11
-85.7372308
 21
-129.98439103
 31
0.0
  0
LINE
  5
2FD
100
AcDbEntity
  8
SLD-0_0
  6
CENTERX2
 62
       7
100
AcDbLine
 10
72.43299932
 20
-64.09829129
 30
0.0
 11
-21.44534669
 21
-64.09829129
 31
0.0
  0
LINE
  5
2FE
100
AcDbEntity
  8
SLD-0_0
  6
CENTERX2
 62
       7
100
AcDbLine
 10
-58.87946055
 20
-64.09829129
 30
0.0
 11
-108.79605209
 21
-64.09829129
 31
0.0
  0
LINE
  5
2FF
100
AcDbEntity
  8
SLD-0_1
  6
CONTINUOUS
 62
       7
100
AcDbLine
 10
63.17669645
 20
-112.84829129
 30
0.0
 11
64.17669645
 21
-112.84829129
 31
0.0
  0
LINE
  5
300
100
AcDbEntity
  8
SLD-0_1
  6
CONTINUOUS
 62
       7
100
AcDbLine
 10
63.17669645
 20
-105.34829129
 30
0.0
 11
64.17669645
 21
-105.34829129
 31
0.0
  0
LINE
  5
301
100
AcDbEntity
  8
SLD-0_1
  6
CONTINUOUS
 62
       7
100
AcDbLine
 10
61.17669645
 20
-106.69829129
 30
0.0
 11
61.17669645
 21
-111.49829129
 31
0.0
  0
LINE
  5
302
100
AcDbEntity
  8
SLD-0_1
  6
CONTINUOUS
 62
       7
100
AcDbLine
 10
62.17669645
 20
-105.69829129
 30
0.0
 11
63.17669645
 21
-105.69829129
 31
0.0
  0
LINE
  5
303
100
AcDbEntity
  8
SLD-0_1
  6
CONTINUOUS
 62
       7
100
AcDbLine
 10
62.17669645
 20
-112.49829129
 30
0.0
 11
63.17669645
 21
-112.49829129
 31
0.0
  0
LINE
  5
304
100
AcDbEntity
  8
SLD-0_1
  6
CONTINUOUS
 62
       7
100
AcDbLine
 10
63.17669645
 20
-105.34829129
 30
0.0
 11
63.17669645
 21
-112.84829129
 31
0.0
  0
ARC
  5
305
100
AcDbEntity
  8
SLD-0_1
  6
CONTINUOUS
 62
       7
100
AcDbCircle
 10
62.17669645
 20
-106.69829129
 30
0.0
 40
1.0
100
AcDbArc
 50
90.0
 51
180.0
  0
ARC
  5
306
100
AcDbEntity
  8
SLD-0_1
  6
CONTINUOUS
 62
       7
100
AcDbCircle
 10
62.17669645
 20
-111.49829129
 30
0.0
 40
1.0
100
AcDbArc
 50
180.0
 51
270.0
  0
TEXT
  5
307
100
AcDbEntity
  8
SLD-0
 62
       7
100
AcDbText
 10
102.54605212
 20
-117.10314686
 30
0.0
 40
5.0
  1
000
 72
       5
 11
117.54605212
 21
-117.10314686
 31
0.0
100
AcDbText
  0
ENDSEC
  0
SECTION
  2
OBJECTS
  0
DICTIONARY
  5
19
100
AcDbDictionary
  3
ACAD_GROUP
350
1A
  3
ACAD_MLINESTYLE
350
1B
  0
DICTIONARY
  5
1A
102
{ACAD_REACTORS
330
19
102
}
100
AcDbDictionary
  0
DICTIONARY
  5
1B
102
{ACAD_REACTORS
330
19
102
}
100
AcDbDictionary
  3
STANDARD
350
1C
  0
MLINESTYLE
  5
1C
102
{ACAD_REACTORS
330
1B
102
}
100
AcDbMlineStyle
  2
STANDARD
 70
       0
  3

 62
       0
 51
90.0
 52
90.0
 71
       2
 49
0.5
 62
     256
  6
BYLAYER
 49
-0.5
 62
     256
  6
BYLAYER
  0
ENDSEC
  0
EOF
