  0
SECTION
  2
HEADER
  9
$ACADVER
  1
AC1014
  9
$ACADMAINTVER
 70
       0
  9
$DWGCODEPAGE
  3
ANSI_932
  9
$INSBASE
 10
0.0
 20
0.0
 30
0.0
  9
$EXTMIN
 10
-108.89146593
 20
-129.78638191
 30
0.0
  9
$EXTMAX
 10
105.64146595
 20
127.28638191
 30
0.0
  9
$LIMMIN
 10
-115.59562005
 20
-137.81990578
  9
$LIMMAX
 10
112.34562007
 20
135.31990578
  9
$ORTHOMODE
 70
       0
  9
$REGENMODE
 70
       1
  9
$FILLMODE
 70
       1
  9
$QTEXTMODE
 70
       0
  9
$MIRRTEXT
 70
       1
  9
$DRAGMODE
 70
       2
  9
$LTSCALE
 40
1.0
  9
$OSMODE
 70
       0
  9
$ATTMODE
 70
       1
  9
$TEXTSIZE
 40
0.2
  9
$TRACEWID
 40
0.05
  9
$TEXTSTYLE
  7
STANDARD
  9
$CLAYER
  8
0
  9
$CELTYPE
  6
CONTINUOUS
  9
$CECOLOR
 62
     256
  9
$CELTSCALE
 40
1.0
  9
$DELOBJ
 70
       1
  9
$DISPSILH
 70
       0
  9
$DIMSCALE
 40
1.0
  9
$DIMASZ
 40
0.18
  9
$DIMEXO
 40
0.0625
  9
$DIMDLI
 40
0.38
  9
$DIMRND
 40
0.0
  9
$DIMDLE
 40
0.0
  9
$DIMEXE
 40
0.18
  9
$DIMTP
 40
0.0
  9
$DIMTM
 40
0.0
  9
$DIMTXT
 40
0.18
  9
$DIMCEN
 40
0.09
  9
$DIMTSZ
 40
0.0
  9
$DIMTOL
 70
       0
  9
$DIMLIM
 70
       0
  9
$DIMTIH
 70
       1
  9
$DIMTOH
 70
       1
  9
$DIMSE1
 70
       0
  9
$DIMSE2
 70
       0
  9
$DIMTAD
 70
       0
  9
$DIMZIN
 70
       0
  9
$DIMBLK
  1

  9
$DIMASO
 70
       1
  9
$DIMSHO
 70
       1
  9
$DIMPOST
  1

  9
$DIMAPOST
  1

  9
$DIMALT
 70
       0
  9
$DIMALTD
 70
       2
  9
$DIMALTF
 40
25.4
  9
$DIMLFAC
 40
1.0
  9
$DIMTOFL
 70
       0
  9
$DIMTVP
 40
0.0
  9
$DIMTIX
 70
       0
  9
$DIMSOXD
 70
       0
  9
$DIMSAH
 70
       0
  9
$DIMBLK1
  1

  9
$DIMBLK2
  1

  9
$DIMSTYLE
  2
STANDARD
  9
$DIMCLRD
 70
       0
  9
$DIMCLRE
 70
       0
  9
$DIMCLRT
 70
       0
  9
$DIMTFAC
 40
1.0
  9
$DIMGAP
 40
0.09
  9
$DIMJUST
 70
       0
  9
$DIMSD1
 70
       0
  9
$DIMSD2
 70
       0
  9
$DIMTOLJ
 70
       1
  9
$DIMTZIN
 70
       0
  9
$DIMALTZ
 70
       0
  9
$DIMALTTZ
 70
       0
  9
$DIMFIT
 70
       3
  9
$DIMUPT
 70
       0
  9
$DIMUNIT
 70
       2
  9
$DIMDEC
 70
       4
  9
$DIMTDEC
 70
       4
  9
$DIMALTU
 70
       2
  9
$DIMALTTD
 70
       2
  9
$DIMTXSTY
  7
STANDARD
  9
$DIMAUNIT
 70
       0
  9
$LUNITS
 70
       2
  9
$LUPREC
 70
       4
  9
$SKETCHINC
 40
0.1
  9
$FILLETRAD
 40
0.0
  9
$AUNITS
 70
       0
  9
$AUPREC
 70
       0
  9
$MENU
  1
acad
  9
$ELEVATION
 40
0.0
  9
$PELEVATION
 40
0.0
  9
$THICKNESS
 40
0.0
  9
$LIMCHECK
 70
       0
  9
$BLIPMODE
 70
       1
  9
$CHAMFERA
 40
0.0
  9
$CHAMFERB
 40
0.0
  9
$CHAMFERC
 40
0.0
  9
$CHAMFERD
 40
0.0
  9
$SKPOLY
 70
       0
  9
$TDCREATE
 40
0.000000000
  9
$TDUPDATE
 40
0.000000000
  9
$TDINDWG
 40
0.0000000000
  9
$TDUSRTIMER
 40
0.0000000000
  9
$USRTIMER
 70
       1
  9
$ANGBASE
 50
0.0
  9
$ANGDIR
 70
       0
  9
$PDMODE
 70
       0
  9
$PDSIZE
 40
1.0
  9
$PLINEWID
 40
0.0
  9
$COORDS
 70
       1
  9
$SPLFRAME
 70
       0
  9
$SPLINETYPE
 70
       6
  9
$SPLINESEGS
 70
       8
  9
$ATTDIA
 70
       0
  9
$ATTREQ
 70
       1
  9
$HANDLING
 70
       1
  9
$HANDSEED
  5
F5
  9
$SURFTAB1
 70
       6
  9
$SURFTAB2
 70
       6
  9
$SURFTYPE
 70
       6
  9
$SURFU
 70
       6
  9
$SURFV
 70
       6
  9
$UCSNAME
  2

  9
$UCSORG
 10
0.0
 20
0.0
 30
0.0
  9
$UCSXDIR
 10
1.0
 20
0.0
 30
0.0
  9
$UCSYDIR
 10
0.0
 20
1.0
 30
0.0
  9
$PUCSNAME
  2

  9
$PUCSORG
 10
0.0
 20
0.0
 30
0.0
  9
$PUCSXDIR
 10
1.0
 20
0.0
 30
0.0
  9
$PUCSYDIR
 10
0.0
 20
1.0
 30
0.0
  9
$USERI1
 70
       0
  9
$USERI2
 70
       0
  9
$USERI3
 70
       0
  9
$USERI4
 70
       0
  9
$USERI5
 70
       0
  9
$USERR1
 40
0.0
  9
$USERR2
 40
0.0
  9
$USERR3
 40
0.0
  9
$USERR4
 40
0.0
  9
$USERR5
 40
0.0
  9
$WORLDVIEW
 70
       1
  9
$SHADEDGE
 70
       3
  9
$SHADEDIF
 70
      70
  9
$TILEMODE
 70
       1
  9
$MAXACTVP
 70
      16
  9
$PINSBASE
 10
0.0
 20
0.0
 30
0.0
  9
$PLIMCHECK
 70
       0
  9
$PEXTMIN
 10
1.00000000E+20
 20
1.00000000E+20
 30
1.00000000E+20
  9
$PEXTMAX
 10
-1.00000000E+20
 20
-1.00000000E+20
 30
-1.00000000E+20
  9
$PLIMMIN
 10
0.0
 20
0.0
  9
$PLIMMAX
 10
12.0
 20
9.0
  9
$UNITMODE
 70
       0
  9
$VISRETAIN
 70
       0
  9
$PLINEGEN
 70
       1
  9
$PSLTSCALE
 70
       0
  9
$TREEDEPTH
 70
    3020
  9
$PICKSTYLE
 70
       1
  9
$CMLSTYLE
  2
STANDARD
  9
$CMLJUST
 70
       0
  9
$CMLSCALE
 40
1.0
  9
$PROXYGRAPHICS
 70
       0
  9
$MEASUREMENT
 70
       0
  0
ENDSEC
  0
SECTION
  2
CLASSES
  0
CLASS
  1
LWPOLYLINE
  2
AcDbPolyline
  3
"AutoCAD"
 90
        0
280
       0
281
       1
  0
CLASS
  1
IMAGE
  2
AcDbRasterImage
  3
ISM
 90
      127
280
       0
281
       1
  0
CLASS
  1
OLE2FRAME
  2
AcDbOle2Frame
  3
""
 90
        0
280
       0
281
       1
  0
CLASS
  1
HATCH
  2
AcDbHatch
  3
"ACAD_SEDONA"
 90
        0
280
       0
281
       1
  0
CLASS
  1
DICTIONARYVAR
  2
AcDbDictionaryVar
  3
"AutoCAD"
 90
        0
280
       0
281
       0
  0
CLASS
  1
RASTERVARIABLES
  2
AcDbRasterVariables
  3
ISM
 90
        0
280
       0
281
       0
  0
CLASS
  1
IMAGEDEF
  2
AcDbRasterImageDef
  3
ISM
 90
        0
280
       0
281
       0
  0
CLASS
  1
IMAGEDEF_REACTOR
  2
AcDbRasterImageDefReactor
  3
ISM
 90
        1
280
       0
281
       0
  0
CLASS
  1
IDBUFFER
  2
AcDbIdBuffer
  3
"Acad"
 90
        0
280
       0
281
       0
  0
CLASS
  1
SPATIAL_FILTER
  2
AcDbSpatialFilter
  3
"Acad"
 90
        0
280
       0
281
       0
  0
CLASS
  1
XRECORD
  2
AcDbXrecord
  3
"<Built In>"
 90
        0
280
       0
281
       0
  0
CLASS
  1
SORTENTSTABLE
  2
AcDbSortentsTable
  3
"AutoCAD"
 90
        0
280
       0
281
       0
  0
CLASS
  1
LAYER_INDEX
  2
AcDbLayerIndex
  3
"Acad"
 90
        0
280
       0
281
       0
  0
CLASS
  1
SPATIAL_INDEX
  2
AcDbSpatialIndex
  3
"Acad"
 90
        0
280
       0
281
       0
  0
CLASS
  1
OBJECT_PTR
  2
CAseDLPNTableRecord
  3
"ASE-LPNTableRecord"
 90
        1
280
       0
281
       0
  0
CLASS
  1
LAYOUT
  2
AcDbLayout
  3
"AutoCAD 2000"
 90
        1
280
       0
281
       0
  0
CLASS
  1
PLOTSETTINGS
  2
AcDbPlotSettings
  3
"AutoCAD 2000"
 90
        1
280
       0
281
       0
  0
CLASS
  1
ACDBDICTIONARYWDFLT
  2
AcDbDictionaryWithDefault
  3
"AutoCAD 2000"
 90
        1
280
       0
281
       0
  0
CLASS
  1
ACDBPLACEHOLDER
  2
AcDbPlaceHolder
  3
"AutoCAD 2000"
 90
        1
280
       0
281
       0
  0
CLASS
  1
VBA_PROJECT
  2
AcDbVbaProject
  3
"acadvba"
 90
        1
280
       0
281
       0
  0
CLASS
  1
WIPEOUT
  2
AcDbWipeout
  3
WipeOut|AutoCAD Express Tool|expresstools@autodesk.com
 90
      127
280
       0
281
       1
  0
CLASS
  1
WIPEOUTVARIABLES
  2
AcDbWipeoutVariables
  3
WipeOut|AutoCAD Express Tool|expresstools@autodesk.com
 90
        0
280
       0
281
       0
  0
CLASS
  1
RTEXT
  2
RText
  3
RText|AutoCAD Express Tool|expresstools@autodesk.com
 90
        0
280
       0
281
       1
  0
CLASS
  1
ARCALIGNEDTEXT
  2
AcDbArcAlignedText
  3
ATEXT|AutoCAD Express Tool|expresstools@autodesk.com
 90
        0
280
       0
281
       1
  0
ENDSEC
  0
SECTION
  2
TABLES
  0
TABLE
  2
VPORT
  5
7
100
AcDbSymbolTable
 70
       1
  0
VPORT
  5
15
100
AcDbSymbolTableRecord
100
AcDbViewportTableRecord
  2
*ACTIVE
 70
       0
 10
0.0
 20
0.0
 11
1.0
 21
1.0
 12
-1.62499999
 22
-1.25
 13
0.0
 23
0.0
 14
1.0
 24
1.0
 15
0.0
 25
0.0
 16
0.0
 26
0.0
 36
1.0
 17
0.0
 27
0.0
 37
0.0
 40
273.13981155
 41
0.83452221
 42
50.0
 43
0.0
 44
0.0
 50
0.0
 51
0.0
 71
       0
 72
     100
 73
       1
 74
       1
 75
       0
 76
       0
 77
       0
 78
       0
  0
ENDTAB
  0
TABLE
  2
LTYPE
  5
4
100
AcDbSymbolTable
 70
      30
  0
LTYPE
  5
11
100
AcDbSymbolTableRecord
100
AcDbLinetypeTableRecord
  2
BYBLOCK
 70
      64
  3

 72
      65
 73
       0
 40
0.0
  0
LTYPE
  5
12
100
AcDbSymbolTableRecord
100
AcDbLinetypeTableRecord
  2
BYLAYER
 70
      64
  3

 72
      65
 73
       0
 40
0.0
  0
LTYPE
  5
13
100
AcDbSymbolTableRecord
100
AcDbLinetypeTableRecord
  2
CONTINUOUS
 70
      64
  3
Solid line
 72
      65
 73
       0
 40
0.0
  0
LTYPE
  5
1D
100
AcDbSymbolTableRecord
100
AcDbLinetypeTableRecord
  2
HIDDENX2
 70
      64
  3
CADPAC LINETYPE
 72
      65
 73
       2
 40
14.39087354
 49
10.79315515
 74
       0
 49
-3.59771838
 74
       0
  0
LTYPE
  5
1E
100
AcDbSymbolTableRecord
100
AcDbLinetypeTableRecord
  2
HIDDEN
 70
      64
  3
CADPAC LINETYPE
 72
      65
 73
       2
 40
10.79315515
 49
7.19543677
 74
       0
 49
-3.59771838
 74
       0
  0
LTYPE
  5
1F
100
AcDbSymbolTableRecord
100
AcDbLinetypeTableRecord
  2
HIDDEN2
 70
      64
  3
CADPAC LINETYPE
 72
      65
 73
       2
 40
8.99429596
 49
5.39657758
 74
       0
 49
-3.59771838
 74
       0
  0
LTYPE
  5
20
100
AcDbSymbolTableRecord
100
AcDbLinetypeTableRecord
  2
DASHED
 70
      64
  3
CADPAC LINETYPE
 72
      65
 73
       2
 40
10.79315515
 49
7.19543677
 74
       0
 49
-3.59771838
 74
       0
  0
LTYPE
  5
21
100
AcDbSymbolTableRecord
100
AcDbLinetypeTableRecord
  2
DASHED2
 70
      64
  3
CADPAC LINETYPE
 72
      65
 73
       2
 40
8.09486637
 49
5.39657758
 74
       0
 49
-2.69828879
 74
       0
  0
LTYPE
  5
22
100
AcDbSymbolTableRecord
100
AcDbLinetypeTableRecord
  2
DASHEDX2
 70
      64
  3
CADPAC LINETYPE
 72
      65
 73
       2
 40
16.18973273
 49
10.79315515
 74
       0
 49
-5.39657758
 74
       0
  0
LTYPE
  5
23
100
AcDbSymbolTableRecord
100
AcDbLinetypeTableRecord
  2
DOTX2
 70
      64
  3
CADPAC LINETYPE
 72
      65
 73
       2
 40
4.49714798
 49
0.0
 74
       0
 49
-4.49714798
 74
       0
  0
LTYPE
  5
24
100
AcDbSymbolTableRecord
100
AcDbLinetypeTableRecord
  2
DOT
 70
      64
  3
CADPAC LINETYPE
 72
      65
 73
       2
 40
3.59771838
 49
0.0
 74
       0
 49
-3.59771838
 74
       0
  0
LTYPE
  5
25
100
AcDbSymbolTableRecord
100
AcDbLinetypeTableRecord
  2
DOT2
 70
      64
  3
CADPAC LINETYPE
 72
      65
 73
       2
 40
2.69828879
 49
0.0
 74
       0
 49
-2.69828879
 74
       0
  0
LTYPE
  5
26
100
AcDbSymbolTableRecord
100
AcDbLinetypeTableRecord
  2
CENTERX2
 70
      64
  3
CADPAC LINETYPE
 72
      65
 73
       4
 40
21.58631031
 49
8.99429596
 74
       0
 49
-4.49714798
 74
       0
 49
3.59771838
 74
       0
 49
-4.49714798
 74
       0
  0
LTYPE
  5
27
100
AcDbSymbolTableRecord
100
AcDbLinetypeTableRecord
  2
CENTER
 70
      64
  3
CADPAC LINETYPE
 72
      65
 73
       4
 40
16.54950457
 49
7.19543677
 74
       0
 49
-3.59771838
 74
       0
 49
2.15863103
 74
       0
 49
-3.59771838
 74
       0
  0
LTYPE
  5
28
100
AcDbSymbolTableRecord
100
AcDbLinetypeTableRecord
  2
CENTER2
 70
      64
  3
CADPAC LINETYPE
 72
      65
 73
       4
 40
11.51269883
 49
5.39657758
 74
       0
 49
-2.69828879
 74
       0
 49
0.71954368
 74
       0
 49
-2.69828879
 74
       0
  0
LTYPE
  5
29
100
AcDbSymbolTableRecord
100
AcDbLinetypeTableRecord
  2
DASHDOTX2
 70
      64
  3
CADPAC LINETYPE
 72
      65
 73
       4
 40
17.98859192
 49
8.99429596
 74
       0
 49
-4.49714798
 74
       0
 49
0.0
 74
       0
 49
-4.49714798
 74
       0
  0
LTYPE
  5
2A
100
AcDbSymbolTableRecord
100
AcDbLinetypeTableRecord
  2
DASHDOT
 70
      64
  3
CADPAC LINETYPE
 72
      65
 73
       4
 40
14.39087354
 49
7.19543677
 74
       0
 49
-3.59771838
 74
       0
 49
0.0
 74
       0
 49
-3.59771838
 74
       0
  0
LTYPE
  5
2B
100
AcDbSymbolTableRecord
100
AcDbLinetypeTableRecord
  2
DASHDOT2
 70
      64
  3
CADPAC LINETYPE
 72
      65
 73
       4
 40
10.79315515
 49
5.39657758
 74
       0
 49
-2.69828879
 74
       0
 49
0.0
 74
       0
 49
-2.69828879
 74
       0
  0
LTYPE
  5
2C
100
AcDbSymbolTableRecord
100
AcDbLinetypeTableRecord
  2
DIVIDEX2
 70
      64
  3
CADPAC LINETYPE
 72
      65
 73
       6
 40
22.48573991
 49
8.99429596
 74
       0
 49
-4.49714798
 74
       0
 49
0.0
 74
       0
 49
-4.49714798
 74
       0
 49
0.0
 74
       0
 49
-4.49714798
 74
       0
  0
LTYPE
  5
2D
100
AcDbSymbolTableRecord
100
AcDbLinetypeTableRecord
  2
DIVIDE
 70
      64
  3
CADPAC LINETYPE
 72
      65
 73
       6
 40
17.98859192
 49
7.19543677
 74
       0
 49
-3.59771838
 74
       0
 49
0.0
 74
       0
 49
-3.59771838
 74
       0
 49
0.0
 74
       0
 49
-3.59771838
 74
       0
  0
LTYPE
  5
2E
100
AcDbSymbolTableRecord
100
AcDbLinetypeTableRecord
  2
DIVIDE2
 70
      64
  3
CADPAC LINETYPE
 72
      65
 73
       6
 40
13.49144394
 49
5.39657758
 74
       0
 49
-2.69828879
 74
       0
 49
0.0
 74
       0
 49
-2.69828879
 74
       0
 49
0.0
 74
       0
 49
-2.69828879
 74
       0
  0
LTYPE
  5
2F
100
AcDbSymbolTableRecord
100
AcDbLinetypeTableRecord
  2
BORDERX2
 70
      64
  3
CADPAC LINETYPE
 72
      65
 73
       6
 40
31.48003587
 49
8.99429596
 74
       0
 49
-4.49714798
 74
       0
 49
8.99429596
 74
       0
 49
-4.49714798
 74
       0
 49
0.0
 74
       0
 49
-4.49714798
 74
       0
  0
LTYPE
  5
30
100
AcDbSymbolTableRecord
100
AcDbLinetypeTableRecord
  2
BORDER
 70
      64
  3
CADPAC LINETYPE
 72
      65
 73
       6
 40
25.18402869
 49
7.19543677
 74
       0
 49
-3.59771838
 74
       0
 49
7.19543677
 74
       0
 49
-3.59771838
 74
       0
 49
0.0
 74
       0
 49
-3.59771838
 74
       0
  0
LTYPE
  5
31
100
AcDbSymbolTableRecord
100
AcDbLinetypeTableRecord
  2
BORDER2
 70
      64
  3
CADPAC LINETYPE
 72
      65
 73
       6
 40
18.88802152
 49
5.39657758
 74
       0
 49
-2.69828879
 74
       0
 49
5.39657758
 74
       0
 49
-2.69828879
 74
       0
 49
0.0
 74
       0
 49
-2.69828879
 74
       0
  0
LTYPE
  5
32
100
AcDbSymbolTableRecord
100
AcDbLinetypeTableRecord
  2
PHANTOMX2
 70
      64
  3
CADPAC LINETYPE
 72
      65
 73
       6
 40
26.98288789
 49
8.99429596
 74
       0
 49
-3.59771838
 74
       0
 49
3.59771838
 74
       0
 49
-3.59771838
 74
       0
 49
3.59771838
 74
       0
 49
-3.59771838
 74
       0
  0
LTYPE
  5
33
100
AcDbSymbolTableRecord
100
AcDbLinetypeTableRecord
  2
PHANTOM
 70
      64
  3
CADPAC LINETYPE
 72
      65
 73
       6
 40
22.30585399
 49
7.19543677
 74
       0
 49
-3.59771838
 74
       0
 49
2.15863103
 74
       0
 49
-3.59771838
 74
       0
 49
2.15863103
 74
       0
 49
-3.59771838
 74
       0
  0
LTYPE
  5
34
100
AcDbSymbolTableRecord
100
AcDbLinetypeTableRecord
  2
PHANTOM2
 70
      64
  3
CADPAC LINETYPE
 72
      65
 73
       6
 40
19.06790744
 49
5.39657758
 74
       0
 49
-3.59771838
 74
       0
 49
1.43908735
 74
       0
 49
-3.59771838
 74
       0
 49
1.43908735
 74
       0
 49
-3.59771838
 74
       0
  0
LTYPE
  5
35
100
AcDbSymbolTableRecord
100
AcDbLinetypeTableRecord
  2
ACAD_ISO06W100
 70
      64
  3
CADPAC LINETYPE
 72
      65
 73
       8
 40
24.2845991
 49
8.99429596
 74
       0
 49
-4.49714798
 74
       0
 49
0.0
 74
       0
 49
-3.59771838
 74
       0
 49
0.0
 74
       0
 49
-3.59771838
 74
       0
 49
0.0
 74
       0
 49
-3.59771838
 74
       0
  0
LTYPE
  5
36
100
AcDbSymbolTableRecord
100
AcDbLinetypeTableRecord
  2
ACAD_ISO13W100
 70
      64
  3
CADPAC LINETYPE
 72
      65
 73
       8
 40
28.78174708
 49
7.19543677
 74
       0
 49
-3.59771838
 74
       0
 49
7.19543677
 74
       0
 49
-3.59771838
 74
       0
 49
0.0
 74
       0
 49
-3.59771838
 74
       0
 49
0.0
 74
       0
 49
-3.59771838
 74
       0
  0
LTYPE
  5
37
100
AcDbSymbolTableRecord
100
AcDbLinetypeTableRecord
  2
ACAD_ISO14W100
 70
      64
  3
CADPAC LINETYPE
 72
      65
 73
       8
 40
21.58631031
 49
7.19543677
 74
       0
 49
-3.59771838
 74
       0
 49
0.0
 74
       0
 49
-3.59771838
 74
       0
 49
0.0
 74
       0
 49
-3.59771838
 74
       0
 49
0.0
 74
       0
 49
-3.59771838
 74
       0
  0
ENDTAB
  0
TABLE
  2
LAYER
  5
2
100
AcDbSymbolTable
 70
       5
  0
LAYER
  5
14
100
AcDbSymbolTableRecord
100
AcDbLayerTableRecord
  2
0
 70
       0
 62
       7
  6
CONTINUOUS
  0
LAYER
  5
38
100
AcDbSymbolTableRecord
100
AcDbLayerTableRecord
  2
SLD-0_2
 70
       0
 62
       7
  6
CONTINUOUS
  0
LAYER
  5
39
100
AcDbSymbolTableRecord
100
AcDbLayerTableRecord
  2
SLD-0_1
 70
       0
 62
       7
  6
CONTINUOUS
  0
LAYER
  5
3A
100
AcDbSymbolTableRecord
100
AcDbLayerTableRecord
  2
SLD-0_0
 70
       0
 62
       7
  6
CONTINUOUS
  0
LAYER
  5
3B
100
AcDbSymbolTableRecord
100
AcDbLayerTableRecord
  2
SLD-0
 70
       0
 62
       7
  6
CONTINUOUS
  0
ENDTAB
  0
TABLE
  2
STYLE
  5
3
100
AcDbSymbolTable
 70
       1
  0
STYLE
  5
17
100
AcDbSymbolTableRecord
100
AcDbTextStyleTableRecord
  2
STANDARD
 70
       0
 40
0.0
 41
1.0
 50
0.0
 71
       0
 42
5.0
  3
txt.shx
  4
bigfont.shx
  0
ENDTAB
  0
TABLE
  2
VIEW
  5
5
100
AcDbSymbolTable
 70
       1
  0
VIEW
  5
3C
100
AcDbSymbolTableRecord
100
AcDbViewTableRecord
  2
QQQQ
 70
       0
 40
273.13981155
 10
-1.62499999
 20
-1.25
 41
227.94124012
 11
0.0
 21
0.0
 31
1.0
 12
100.0
 22
100.0
 32
0.0
 42
50.0
 43
0.0
 44
0.0
 50
0.0
 71
       0
  0
ENDTAB
  0
TABLE
  2
UCS
  5
6
100
AcDbSymbolTable
 70
       0
  0
ENDTAB
  0
TABLE
  2
APPID
  5
8
100
AcDbSymbolTable
 70
       1
  0
APPID
  5
16
100
AcDbSymbolTableRecord
100
AcDbRegAppTableRecord
  2
ACAD
 70
       0
  0
ENDTAB
  0
TABLE
  2
DIMSTYLE
  5
9
100
AcDbSymbolTable
 70
       1
  0
DIMSTYLE
105
18
100
AcDbSymbolTableRecord
100
AcDbDimStyleTableRecord
  2
STANDARD
 70
       0
  3

  4

  5

  6

  7

 40
1.0
 41
0.18
 42
0.0625
 43
0.38
 44
0.18
 45
0.0
 46
0.0
 47
0.0
 48
0.0
 71
       0
 72
       0
 73
       1
 74
       1
 75
       0
 76
       0
 77
       0
 78
       0
140
0.18
141
0.09
142
0.0
143
25.4
144
1.0
145
0.0
146
1.0
147
0.09
170
       0
171
       2
172
       0
173
       0
174
       0
175
       0
176
       0
177
       0
178
       0
270
       2
271
       4
272
       4
273
       2
274
       2
275
       0
280
       0
281
       0
282
       0
283
       1
284
       0
285
       0
286
       0
287
       0
288
       0
340
17
  0
ENDTAB
  0
TABLE
  2
BLOCK_RECORD
  5
1
100
AcDbSymbolTable
 70
       0
  0
BLOCK_RECORD
  5
A
100
AcDbSymbolTableRecord
100
AcDbBlockTableRecord
  2
*MODEL_SPACE
  0
BLOCK_RECORD
  5
B
100
AcDbSymbolTableRecord
100
AcDbBlockTableRecord
  2
*PAPER_SPACE
  0
ENDTAB
  0
ENDSEC
  0
SECTION
  2
BLOCKS
  0
BLOCK
  5
D
100
AcDbEntity
  8
0
100
AcDbBlockBegin
  2
*MODEL_SPACE
 70
       0
 10
0.0
 20
0.0
 30
0.0
  3
*MODEL_SPACE
  1

  0
ENDBLK
  5
E
100
AcDbEntity
  8
0
100
AcDbBlockEnd
  0
BLOCK
  5
F
100
AcDbEntity
 67
       1
  8
0
100
AcDbBlockBegin
  2
*PAPER_SPACE
 70
       0
 10
0.0
 20
0.0
 30
0.0
  3
*PAPER_SPACE
  1

  0
ENDBLK
  5
10
100
AcDbEntity
 67
       1
  8
0
100
AcDbBlockEnd
  0
ENDSEC
  0
SECTION
  2
ENTITIES
  0
LINE
  5
3D
100
AcDbEntity
  8
SLD-0
  6
CONTINUOUS
 62
       7
100
AcDbLine
 10
42.7107897
 20
52.788075
 30
0.0
 11
42.7107897
 21
31.288075
 31
0.0
  0
LINE
  5
3E
100
AcDbEntity
  8
SLD-0
  6
CONTINUOUS
 62
       7
100
AcDbLine
 10
61.2107897
 20
110.288075
 30
0.0
 11
43.7107897
 21
110.288075
 31
0.0
  0
LINE
  5
3F
100
AcDbEntity
  8
SLD-0
  6
CONTINUOUS
 62
       7
100
AcDbLine
 10
61.14647698
 20
120.288075
 30
0.0
 11
61.14647698
 21
20.288075
 31
0.0
  0
LINE
  5
40
100
AcDbEntity
  8
SLD-0
  6
CONTINUOUS
 62
       7
100
AcDbLine
 10
61.2107897
 20
30.288075
 30
0.0
 11
43.7107897
 21
30.288075
 31
0.0
  0
LINE
  5
41
100
AcDbEntity
  8
SLD-0
  6
CONTINUOUS
 62
       7
100
AcDbLine
 10
42.7107897
 20
109.288075
 30
0.0
 11
42.7107897
 21
97.788075
 31
0.0
  0
LINE
  5
42
100
AcDbEntity
  8
SLD-0
  6
CONTINUOUS
 62
       7
100
AcDbLine
 10
42.7107897
 20
97.788075
 30
0.0
 11
-17.85352302
 21
97.788075
 31
0.0
  0
LINE
  5
43
100
AcDbEntity
  8
SLD-0
  6
CONTINUOUS
 62
       7
100
AcDbLine
 10
42.7107897
 20
52.788075
 30
0.0
 11
-17.85352302
 21
52.788075
 31
0.0
  0
LINE
  5
44
100
AcDbEntity
  8
SLD-0
  6
CONTINUOUS
 62
       7
100
AcDbLine
 10
34.14647698
 20
97.788075
 30
0.0
 11
34.14647698
 21
52.788075
 31
0.0
  0
LINE
  5
45
100
AcDbEntity
  8
SLD-0
  6
CONTINUOUS
 62
       7
100
AcDbLine
 10
-18.85352302
 20
96.788075
 30
0.0
 11
-18.85352302
 21
53.788075
 31
0.0
  0
LINE
  5
46
100
AcDbEntity
  8
SLD-0
  6
CONTINUOUS
 62
       7
100
AcDbLine
 10
60.14647698
 20
120.288075
 30
0.0
 11
60.14647698
 21
110.288075
 31
0.0
  0
LINE
  5
47
100
AcDbEntity
  8
SLD-0
  6
CONTINUOUS
 62
       7
100
AcDbLine
 10
60.14647698
 20
120.288075
 30
0.0
 11
61.14647698
 21
120.288075
 31
0.0
  0
LINE
  5
48
100
AcDbEntity
  8
SLD-0
  6
CONTINUOUS
 62
       7
100
AcDbLine
 10
60.2107897
 20
30.288075
 30
0.0
 11
60.2107897
 21
20.288075
 31
0.0
  0
LINE
  5
49
100
AcDbEntity
  8
SLD-0
  6
CONTINUOUS
 62
       7
100
AcDbLine
 10
60.2107897
 20
20.288075
 30
0.0
 11
61.14647698
 21
20.288075
 31
0.0
  0
LINE
  5
4A
100
AcDbEntity
  8
SLD-0
  6
CONTINUOUS
 62
       7
100
AcDbLine
 10
-101.51745027
 20
110.288075
 30
0.0
 11
-101.51745027
 21
30.288075
 31
0.0
  0
LINE
  5
4B
100
AcDbEntity
  8
SLD-0
  6
CONTINUOUS
 62
       7
100
AcDbLine
 10
-78.01745027
 20
110.288075
 30
0.0
 11
-78.01745027
 21
30.288075
 31
0.0
  0
LINE
  5
4C
100
AcDbEntity
  8
SLD-0
  6
CONTINUOUS
 62
       7
100
AcDbLine
 10
-97.26745027
 20
30.288075
 30
0.0
 11
-97.26745027
 21
22.288075
 31
0.0
  0
LINE
  5
4D
100
AcDbEntity
  8
SLD-0
  6
CONTINUOUS
 62
       7
100
AcDbLine
 10
-95.26745027
 20
120.288075
 30
0.0
 11
-84.26745027
 21
120.288075
 31
0.0
  0
LINE
  5
4E
100
AcDbEntity
  8
SLD-0
  6
CONTINUOUS
 62
       7
100
AcDbLine
 10
-97.26745027
 20
118.288075
 30
0.0
 11
-97.26745027
 21
110.288075
 31
0.0
  0
LINE
  5
4F
100
AcDbEntity
  8
SLD-0
  6
CONTINUOUS
 62
       7
100
AcDbLine
 10
-95.26745027
 20
20.288075
 30
0.0
 11
-84.26745027
 21
20.288075
 31
0.0
  0
LINE
  5
50
100
AcDbEntity
  8
SLD-0
  6
CONTINUOUS
 62
       7
100
AcDbLine
 10
-82.26745027
 20
118.288075
 30
0.0
 11
-82.26745027
 21
110.288075
 31
0.0
  0
LINE
  5
51
100
AcDbEntity
  8
SLD-0
  6
CONTINUOUS
 62
       7
100
AcDbLine
 10
-82.26745027
 20
30.288075
 30
0.0
 11
-82.26745027
 21
22.288075
 31
0.0
  0
LINE
  5
52
100
AcDbEntity
  8
SLD-0
  6
CONTINUOUS
 62
       7
100
AcDbLine
 10
69.64647698
 20
-19.711925
 30
0.0
 11
69.64647698
 21
-51.711925
 31
0.0
  0
LINE
  5
53
100
AcDbEntity
  8
SLD-0
  6
CONTINUOUS
 62
       7
100
AcDbLine
 10
66.14647698
 20
-51.711925
 30
0.0
 11
66.14647698
 21
-87.311925
 31
0.0
  0
LINE
  5
54
100
AcDbEntity
  8
SLD-0
  6
CONTINUOUS
 62
       7
100
AcDbLine
 10
66.14647698
 20
-51.711925
 30
0.0
 11
69.64647698
 21
-51.711925
 31
0.0
  0
LINE
  5
55
100
AcDbEntity
  8
SLD-0
  6
CONTINUOUS
 62
       7
100
AcDbLine
 10
66.14647698
 20
-87.311925
 30
0.0
 11
69.64647698
 21
-87.311925
 31
0.0
  0
LINE
  5
56
100
AcDbEntity
  8
SLD-0
  6
CONTINUOUS
 62
       7
100
AcDbLine
 10
69.64647698
 20
-87.311925
 30
0.0
 11
69.64647698
 21
-119.711925
 31
0.0
  0
LINE
  5
57
100
AcDbEntity
  8
SLD-0
  6
CONTINUOUS
 62
       7
100
AcDbLine
 10
59.14647698
 20
-20.961925
 30
0.0
 11
59.14647698
 21
-28.461925
 31
0.0
  0
LINE
  5
58
100
AcDbEntity
  8
SLD-0
  6
CONTINUOUS
 62
       7
100
AcDbLine
 10
57.14647698
 20
-22.311925
 30
0.0
 11
57.14647698
 21
-27.111925
 31
0.0
  0
LINE
  5
59
100
AcDbEntity
  8
SLD-0
  6
CONTINUOUS
 62
       7
100
AcDbLine
 10
59.14647698
 20
-28.461925
 30
0.0
 11
60.14647698
 21
-28.461925
 31
0.0
  0
LINE
  5
5A
100
AcDbEntity
  8
SLD-0
  6
CONTINUOUS
 62
       7
100
AcDbLine
 10
59.14647698
 20
-20.961925
 30
0.0
 11
60.14647698
 21
-20.961925
 31
0.0
  0
LINE
  5
5B
100
AcDbEntity
  8
SLD-0
  6
CONTINUOUS
 62
       7
100
AcDbLine
 10
58.14647698
 20
-28.111925
 30
0.0
 11
59.14647698
 21
-28.111925
 31
0.0
  0
LINE
  5
5C
100
AcDbEntity
  8
SLD-0
  6
CONTINUOUS
 62
       7
100
AcDbLine
 10
58.14647698
 20
-21.311925
 30
0.0
 11
59.14647698
 21
-21.311925
 31
0.0
  0
LINE
  5
5D
100
AcDbEntity
  8
SLD-0
  6
CONTINUOUS
 62
       7
100
AcDbLine
 10
-97.26745027
 20
78.538075
 30
0.0
 11
-101.51745027
 21
78.538075
 31
0.0
  0
LINE
  5
5E
100
AcDbEntity
  8
SLD-0
  6
CONTINUOUS
 62
       7
100
AcDbLine
 10
-97.26745027
 20
72.038075
 30
0.0
 11
-101.51745027
 21
72.038075
 31
0.0
  0
LINE
  5
5F
100
AcDbEntity
  8
SLD-0
  6
CONTINUOUS
 62
       7
100
AcDbLine
 10
-97.26745027
 20
70.538075
 30
0.0
 11
-100.01745027
 21
70.538075
 31
0.0
  0
LINE
  5
60
100
AcDbEntity
  8
SLD-0
  6
CONTINUOUS
 62
       7
100
AcDbLine
 10
-97.26745027
 20
80.038075
 30
0.0
 11
-100.01745027
 21
80.038075
 31
0.0
  0
LINE
  5
61
100
AcDbEntity
  8
SLD-0
  6
CONTINUOUS
 62
       7
100
AcDbLine
 10
-100.01745027
 20
96.288075
 30
0.0
 11
-79.51745027
 21
96.288075
 31
0.0
  0
LINE
  5
62
100
AcDbEntity
  8
SLD-0
  6
CONTINUOUS
 62
       7
100
AcDbLine
 10
-79.51745027
 20
96.288075
 30
0.0
 11
-79.51745027
 21
54.288075
 31
0.0
  0
LINE
  5
63
100
AcDbEntity
  8
SLD-0
  6
CONTINUOUS
 62
       7
100
AcDbLine
 10
-100.01745027
 20
54.288075
 30
0.0
 11
-79.51745027
 21
54.288075
 31
0.0
  0
LINE
  5
64
100
AcDbEntity
  8
SLD-0
  6
CONTINUOUS
 62
       7
100
AcDbLine
 10
-100.01745027
 20
96.288075
 30
0.0
 11
-100.01745027
 21
80.038075
 31
0.0
  0
LINE
  5
65
100
AcDbEntity
  8
SLD-0
  6
CONTINUOUS
 62
       7
100
AcDbLine
 10
-100.01745027
 20
70.538075
 30
0.0
 11
-100.01745027
 21
54.288075
 31
0.0
  0
LINE
  5
66
100
AcDbEntity
  8
SLD-0
  6
CONTINUOUS
 62
       7
100
AcDbLine
 10
-19.85352302
 20
59.39778366
 30
0.0
 11
-19.85352302
 21
56.02400166
 31
0.0
  0
ARC
  5
67
100
AcDbEntity
  8
SLD-0
  6
CONTINUOUS
 62
       7
100
AcDbCircle
 10
-17.85352302
 20
53.788075
 30
0.0
 40
1.0
100
AcDbArc
 50
180.0
 51
270.0
  0
ARC
  5
68
100
AcDbEntity
  8
SLD-0
  6
CONTINUOUS
 62
       7
100
AcDbCircle
 10
-17.85352302
 20
96.788075
 30
0.0
 40
1.0
100
AcDbArc
 50
90.0
 51
180.0
  0
ARC
  5
69
100
AcDbEntity
  8
SLD-0
  6
CONTINUOUS
 62
       7
100
AcDbCircle
 10
43.7107897
 20
31.288075
 30
0.0
 40
1.0
100
AcDbArc
 50
180.0
 51
270.0
  0
ARC
  5
6A
100
AcDbEntity
  8
SLD-0
  6
CONTINUOUS
 62
       7
100
AcDbCircle
 10
43.7107897
 20
109.288075
 30
0.0
 40
1.0
100
AcDbArc
 50
90.0
 51
180.0
  0
ARC
  5
6B
100
AcDbEntity
  8
SLD-0
  6
CONTINUOUS
 62
       7
100
AcDbCircle
 10
-95.26745027
 20
22.288075
 30
0.0
 40
2.0
100
AcDbArc
 50
180.0
 51
270.0
  0
ARC
  5
6C
100
AcDbEntity
  8
SLD-0
  6
CONTINUOUS
 62
       7
100
AcDbCircle
 10
-84.26745027
 20
22.288075
 30
0.0
 40
2.0
100
AcDbArc
 50
270.0
 51
360.0
  0
ARC
  5
6D
100
AcDbEntity
  8
SLD-0
  6
CONTINUOUS
 62
       7
100
AcDbCircle
 10
-84.26745027
 20
118.288075
 30
0.0
 40
2.0
100
AcDbArc
 50
0.0
 51
90.0
  0
ARC
  5
6E
100
AcDbEntity
  8
SLD-0
  6
CONTINUOUS
 62
       7
100
AcDbCircle
 10
-95.26745027
 20
118.288075
 30
0.0
 40
2.0
100
AcDbArc
 50
90.0
 51
180.0
  0
CIRCLE
  5
6F
100
AcDbEntity
  8
SLD-0
  6
CONTINUOUS
 62
       7
100
AcDbCircle
 10
-89.76745027
 20
115.288075
 30
0.0
 40
2.5
  0
CIRCLE
  5
70
100
AcDbEntity
  8
SLD-0
  6
CONTINUOUS
 62
       7
100
AcDbCircle
 10
-89.76745027
 20
25.288075
 30
0.0
 40
2.5
  0
ARC
  5
71
100
AcDbEntity
  8
SLD-0
  6
CONTINUOUS
 62
       7
100
AcDbCircle
 10
58.14647698
 20
-27.111925
 30
0.0
 40
1.0
100
AcDbArc
 50
180.0
 51
270.0
  0
ARC
  5
72
100
AcDbEntity
  8
SLD-0
  6
CONTINUOUS
 62
       7
100
AcDbCircle
 10
58.14647698
 20
-22.311925
 30
0.0
 40
1.0
100
AcDbArc
 50
90.0
 51
180.0
  0
CIRCLE
  5
73
100
AcDbEntity
  8
SLD-0
  6
CONTINUOUS
 62
       7
100
AcDbCircle
 10
-89.76745027
 20
-24.711925
 30
0.0
 40
3.75
  0
CIRCLE
  5
74
100
AcDbEntity
  8
SLD-0
  6
CONTINUOUS
 62
       7
100
AcDbCircle
 10
-89.76745027
 20
-114.711925
 30
0.0
 40
3.75
  0
ARC
  5
75
100
AcDbEntity
  8
SLD-0
  6
CONTINUOUS
 62
       7
100
AcDbCircle
 10
-97.26745027
 20
75.288075
 30
0.0
 40
4.75
100
AcDbArc
 50
270.0
 51
450.0
  0
CIRCLE
  5
76
100
AcDbEntity
  8
SLD-0
  6
CONTINUOUS
 62
       7
100
AcDbCircle
 10
-97.26745027
 20
75.288075
 30
0.0
 40
3.0
  0
ARC
  5
77
100
AcDbEntity
  8
SLD-0
  6
CONTINUOUS
 62
       7
100
AcDbCircle
 10
-97.26745027
 20
75.288075
 30
0.0
 40
3.25
100
AcDbArc
 50
270.0
 51
450.0
  0
LINE
  5
78
100
AcDbEntity
  8
SLD-0
  6
CENTERX2
 62
       7
100
AcDbLine
 10
68.40277985
 20
70.288075
 30
0.0
 11
-24.81691988
 21
70.288075
 31
0.0
  0
LINE
  5
79
100
AcDbEntity
  8
SLD-0
  6
CENTERX2
 62
       7
100
AcDbLine
 10
-74.60023953
 20
70.288075
 30
0.0
 11
-104.76583262
 21
70.288075
 31
0.0
  0
LINE
  5
7A
100
AcDbEntity
  8
SLD-0
  6
CENTERX2
 62
       7
100
AcDbLine
 10
-89.76745027
 20
122.34267491
 30
0.0
 11
-89.76745027
 21
18.0628339
 31
0.0
  0
LINE
  5
7B
100
AcDbEntity
  8
0
  6
CONTINUOUS
 62
       7
100
AcDbLine
 10
-99.26745027
 20
42.788075
 30
0.0
 11
-91.26745027
 21
42.788075
 31
0.0
  0
LINE
  5
7C
100
AcDbEntity
  8
0
  6
CONTINUOUS
 62
       7
100
AcDbLine
 10
-100.51745027
 20
97.788075
 30
0.0
 11
-79.01745027
 21
97.788075
 31
0.0
  0
LINE
  5
7D
100
AcDbEntity
  8
0
  6
CONTINUOUS
 62
       7
100
AcDbLine
 10
-99.26745027
 20
110.288075
 30
0.0
 11
-99.26745027
 21
97.788075
 31
0.0
  0
LINE
  5
7E
100
AcDbEntity
  8
0
  6
CONTINUOUS
 62
       7
100
AcDbLine
 10
-88.26745027
 20
110.288075
 30
0.0
 11
-88.26745027
 21
97.788075
 31
0.0
  0
LINE
  5
7F
100
AcDbEntity
  8
0
  6
CONTINUOUS
 62
       7
100
AcDbLine
 10
-101.51745027
 20
30.288075
 30
0.0
 11
-78.01745027
 21
30.288075
 31
0.0
  0
LINE
  5
80
100
AcDbEntity
  8
0
  6
CONTINUOUS
 62
       7
100
AcDbLine
 10
-99.26745027
 20
42.788075
 30
0.0
 11
-99.26745027
 21
30.288075
 31
0.0
  0
LINE
  5
81
100
AcDbEntity
  8
0
  6
CONTINUOUS
 62
       7
100
AcDbLine
 10
-88.26745027
 20
42.788075
 30
0.0
 11
-88.26745027
 21
30.288075
 31
0.0
  0
LINE
  5
82
100
AcDbEntity
  8
0
  6
CONTINUOUS
 62
       7
100
AcDbLine
 10
-80.26745027
 20
42.788075
 30
0.0
 11
-80.26745027
 21
30.288075
 31
0.0
  0
LINE
  5
83
100
AcDbEntity
  8
0
  6
CONTINUOUS
 62
       7
100
AcDbLine
 10
-88.26745027
 20
42.788075
 30
0.0
 11
-80.26745027
 21
42.788075
 31
0.0
  0
LINE
  5
84
100
AcDbEntity
  8
0
  6
CONTINUOUS
 62
       7
100
AcDbLine
 10
-80.26745027
 20
-29.711925
 30
0.0
 11
-80.26745027
 21
-42.211925
 31
0.0
  0
LINE
  5
85
100
AcDbEntity
  8
0
  6
CONTINUOUS
 62
       7
100
AcDbLine
 10
-91.26745027
 20
-29.711925
 30
0.0
 11
-91.26745027
 21
-42.211925
 31
0.0
  0
LINE
  5
86
100
AcDbEntity
  8
0
  6
CONTINUOUS
 62
       7
100
AcDbLine
 10
-88.26745027
 20
-29.711925
 30
0.0
 11
-88.26745027
 21
-42.211925
 31
0.0
  0
LINE
  5
87
100
AcDbEntity
  8
0
  6
CONTINUOUS
 62
       7
100
AcDbLine
 10
-99.26745027
 20
-29.711925
 30
0.0
 11
-99.26745027
 21
-42.211925
 31
0.0
  0
LINE
  5
88
100
AcDbEntity
  8
0
  6
CONTINUOUS
 62
       7
100
AcDbLine
 10
-91.26745027
 20
-97.211925
 30
0.0
 11
-91.26745027
 21
-109.711925
 31
0.0
  0
LINE
  5
89
100
AcDbEntity
  8
0
  6
CONTINUOUS
 62
       7
100
AcDbLine
 10
-88.26745027
 20
-97.211925
 30
0.0
 11
-88.26745027
 21
-109.711925
 31
0.0
  0
LINE
  5
8A
100
AcDbEntity
  8
0
  6
CONTINUOUS
 62
       7
100
AcDbLine
 10
-80.26745027
 20
-97.211925
 30
0.0
 11
-80.26745027
 21
-109.711925
 31
0.0
  0
LINE
  5
8B
100
AcDbEntity
  8
0
  6
CONTINUOUS
 62
       7
100
AcDbLine
 10
-99.26745027
 20
-97.211925
 30
0.0
 11
-91.26745027
 21
-97.211925
 31
0.0
  0
LINE
  5
8C
100
AcDbEntity
  8
0
  6
CONTINUOUS
 62
       7
100
AcDbLine
 10
-101.51745027
 20
-29.711925
 30
0.0
 11
-78.01745027
 21
-29.711925
 31
0.0
  0
LINE
  5
8D
100
AcDbEntity
  8
0
  6
CONTINUOUS
 62
       7
100
AcDbLine
 10
-100.51745027
 20
-42.211925
 30
0.0
 11
-79.01745027
 21
-42.211925
 31
0.0
  0
LINE
  5
8E
100
AcDbEntity
  8
0
  6
CONTINUOUS
 62
       7
100
AcDbLine
 10
-101.51745027
 20
110.288075
 30
0.0
 11
-78.01745027
 21
110.288075
 31
0.0
  0
LINE
  5
8F
100
AcDbEntity
  8
0
  6
CONTINUOUS
 62
       7
100
AcDbLine
 10
-91.26745027
 20
110.288075
 30
0.0
 11
-91.26745027
 21
97.788075
 31
0.0
  0
LINE
  5
90
100
AcDbEntity
  8
0
  6
CONTINUOUS
 62
       7
100
AcDbLine
 10
-80.26745027
 20
110.288075
 30
0.0
 11
-80.26745027
 21
97.788075
 31
0.0
  0
LINE
  5
91
100
AcDbEntity
  8
0
  6
CONTINUOUS
 62
       7
100
AcDbLine
 10
-100.51745027
 20
52.788075
 30
0.0
 11
-79.01745027
 21
52.788075
 31
0.0
  0
LINE
  5
92
100
AcDbEntity
  8
0
  6
CONTINUOUS
 62
       7
100
AcDbLine
 10
-91.26745027
 20
42.788075
 30
0.0
 11
-91.26745027
 21
30.288075
 31
0.0
  0
LINE
  5
93
100
AcDbEntity
  8
0
  6
CONTINUOUS
 62
       7
100
AcDbLine
 10
-100.51745027
 20
-87.211925
 30
0.0
 11
-79.01745027
 21
-87.211925
 31
0.0
  0
LINE
  5
94
100
AcDbEntity
  8
0
  6
CONTINUOUS
 62
       7
100
AcDbLine
 10
-88.26745027
 20
-97.211925
 30
0.0
 11
-80.26745027
 21
-97.211925
 31
0.0
  0
LINE
  5
95
100
AcDbEntity
  8
0
  6
CONTINUOUS
 62
       7
100
AcDbLine
 10
-101.51745027
 20
-109.711925
 30
0.0
 11
-78.01745027
 21
-109.711925
 31
0.0
  0
LINE
  5
96
100
AcDbEntity
  8
0
  6
CONTINUOUS
 62
       7
100
AcDbLine
 10
-99.26745027
 20
-97.211925
 30
0.0
 11
-99.26745027
 21
-109.711925
 31
0.0
  0
ARC
  5
97
100
AcDbEntity
  8
0
  6
CONTINUOUS
 62
       7
100
AcDbCircle
 10
-100.51745027
 20
53.788075
 30
0.0
 40
1.0
100
AcDbArc
 50
196.16900887
 51
270.0
  0
CIRCLE
  5
98
100
AcDbEntity
  8
0
  6
CONTINUOUS
 62
       7
100
AcDbCircle
 10
-84.26745027
 20
38.288075
 30
0.0
 40
3.75
  0
CIRCLE
  5
99
100
AcDbEntity
  8
0
  6
CONTINUOUS
 62
       7
100
AcDbCircle
 10
-95.26745027
 20
102.288075
 30
0.0
 40
3.75
  0
ARC
  5
9A
100
AcDbEntity
  8
0
  6
CONTINUOUS
 62
       7
100
AcDbCircle
 10
-79.01745027
 20
53.788075
 30
0.0
 40
1.0
100
AcDbArc
 50
270.0
 51
323.41059856
  0
CIRCLE
  5
9B
100
AcDbEntity
  8
0
  6
CONTINUOUS
 62
       7
100
AcDbCircle
 10
-84.26745027
 20
-101.711925
 30
0.0
 40
3.75
  0
ARC
  5
9C
100
AcDbEntity
  8
0
  6
CONTINUOUS
 62
       7
100
AcDbCircle
 10
-79.01745027
 20
-86.211925
 30
0.0
 40
1.0
100
AcDbArc
 50
270.0
 51
323.41059856
  0
CIRCLE
  5
9D
100
AcDbEntity
  8
0
  6
CONTINUOUS
 62
       7
100
AcDbCircle
 10
-84.26745027
 20
-37.711925
 30
0.0
 40
3.75
  0
CIRCLE
  5
9E
100
AcDbEntity
  8
0
  6
CONTINUOUS
 62
       7
100
AcDbCircle
 10
-95.26745027
 20
-101.711925
 30
0.0
 40
3.75
  0
CIRCLE
  5
9F
100
AcDbEntity
  8
0
  6
CONTINUOUS
 62
       7
100
AcDbCircle
 10
-95.26745027
 20
38.288075
 30
0.0
 40
3.75
  0
CIRCLE
  5
A0
100
AcDbEntity
  8
0
  6
CONTINUOUS
 62
       7
100
AcDbCircle
 10
-84.26745027
 20
102.288075
 30
0.0
 40
3.75
  0
CIRCLE
  5
A1
100
AcDbEntity
  8
0
  6
CONTINUOUS
 62
       7
100
AcDbCircle
 10
-95.26745027
 20
-37.711925
 30
0.0
 40
3.75
  0
ARC
  5
A2
100
AcDbEntity
  8
0
  6
CONTINUOUS
 62
       7
100
AcDbCircle
 10
-100.51745027
 20
-86.211925
 30
0.0
 40
1.0
100
AcDbArc
 50
196.16900887
 51
270.0
  0
LINE
  5
A3
100
AcDbEntity
  8
0
  6
CONTINUOUS
 62
       7
100
AcDbLine
 10
-99.26745027
 20
31.788075
 30
0.0
 11
-91.26745027
 21
31.788075
 31
0.0
  0
LINE
  5
A4
100
AcDbEntity
  8
0
  6
CONTINUOUS
 62
       7
100
AcDbLine
 10
-88.26745027
 20
31.788075
 30
0.0
 11
-80.26745027
 21
31.788075
 31
0.0
  0
LINE
  5
A5
100
AcDbEntity
  8
0
  6
CONTINUOUS
 62
       7
100
AcDbLine
 10
-99.26745027
 20
108.788075
 30
0.0
 11
-91.26745027
 21
108.788075
 31
0.0
  0
LINE
  5
A6
100
AcDbEntity
  8
0
  6
CONTINUOUS
 62
       7
100
AcDbLine
 10
-88.26745027
 20
108.788075
 30
0.0
 11
-80.26745027
 21
108.788075
 31
0.0
  0
LINE
  5
A7
100
AcDbEntity
  8
0
  6
CONTINUOUS
 62
       7
100
AcDbLine
 10
-99.26745027
 20
33.288075
 30
0.0
 11
-91.26745027
 21
33.288075
 31
0.0
  0
LINE
  5
A8
100
AcDbEntity
  8
0
  6
CONTINUOUS
 62
       7
100
AcDbLine
 10
-88.26745027
 20
-31.211925
 30
0.0
 11
-80.26745027
 21
-31.211925
 31
0.0
  0
LINE
  5
A9
100
AcDbEntity
  8
0
  6
CONTINUOUS
 62
       7
100
AcDbLine
 10
-99.26745027
 20
-31.211925
 30
0.0
 11
-91.26745027
 21
-31.211925
 31
0.0
  0
LINE
  5
AA
100
AcDbEntity
  8
0
  6
CONTINUOUS
 62
       7
100
AcDbLine
 10
-88.26745027
 20
-108.211925
 30
0.0
 11
-80.26745027
 21
-108.211925
 31
0.0
  0
LINE
  5
AB
100
AcDbEntity
  8
0
  6
CONTINUOUS
 62
       7
100
AcDbLine
 10
-88.26745027
 20
-106.711925
 30
0.0
 11
-80.26745027
 21
-106.711925
 31
0.0
  0
LINE
  5
AC
100
AcDbEntity
  8
0
  6
CONTINUOUS
 62
       7
100
AcDbLine
 10
-88.26745027
 20
33.288075
 30
0.0
 11
-80.26745027
 21
33.288075
 31
0.0
  0
LINE
  5
AD
100
AcDbEntity
  8
0
  6
CONTINUOUS
 62
       7
100
AcDbLine
 10
-99.26745027
 20
107.288075
 30
0.0
 11
-91.26745027
 21
107.288075
 31
0.0
  0
LINE
  5
AE
100
AcDbEntity
  8
0
  6
CONTINUOUS
 62
       7
100
AcDbLine
 10
-88.26745027
 20
107.288075
 30
0.0
 11
-80.26745027
 21
107.288075
 31
0.0
  0
LINE
  5
AF
100
AcDbEntity
  8
0
  6
CONTINUOUS
 62
       7
100
AcDbLine
 10
-99.26745027
 20
-32.711925
 30
0.0
 11
-91.26745027
 21
-32.711925
 31
0.0
  0
LINE
  5
B0
100
AcDbEntity
  8
0
  6
CONTINUOUS
 62
       7
100
AcDbLine
 10
-88.26745027
 20
-32.711925
 30
0.0
 11
-80.26745027
 21
-32.711925
 31
0.0
  0
LINE
  5
B1
100
AcDbEntity
  8
0
  6
CONTINUOUS
 62
       7
100
AcDbLine
 10
-99.26745027
 20
-108.211925
 30
0.0
 11
-91.26745027
 21
-108.211925
 31
0.0
  0
LINE
  5
B2
100
AcDbEntity
  8
0
  6
CONTINUOUS
 62
       7
100
AcDbLine
 10
-99.26745027
 20
-106.711925
 30
0.0
 11
-91.26745027
 21
-106.711925
 31
0.0
  0
LINE
  5
B3
100
AcDbEntity
  8
SLD-0_0
  6
CONTINUOUS
 62
       7
100
AcDbLine
 10
69.64647698
 20
-109.711925
 30
0.0
 11
43.7107897
 21
-109.711925
 31
0.0
  0
LINE
  5
B4
100
AcDbEntity
  8
SLD-0_0
  6
CONTINUOUS
 62
       7
100
AcDbLine
 10
60.14647698
 20
-19.711925
 30
0.0
 11
60.14647698
 21
-29.711925
 31
0.0
  0
LINE
  5
B5
100
AcDbEntity
  8
SLD-0_0
  6
CONTINUOUS
 62
       7
100
AcDbLine
 10
-95.26745027
 20
-19.711925
 30
0.0
 11
-84.26745027
 21
-19.711925
 31
0.0
  0
LINE
  5
B6
100
AcDbEntity
  8
SLD-0_0
  6
CONTINUOUS
 62
       7
100
AcDbLine
 10
42.7107897
 20
-87.211925
 30
0.0
 11
-17.85352302
 21
-87.211925
 31
0.0
  0
LINE
  5
B7
100
AcDbEntity
  8
SLD-0_0
  6
CONTINUOUS
 62
       7
100
AcDbLine
 10
-101.51745027
 20
-29.711925
 30
0.0
 11
-101.51745027
 21
-109.711925
 31
0.0
  0
LINE
  5
B8
100
AcDbEntity
  8
SLD-0_0
  6
CONTINUOUS
 62
       7
100
AcDbLine
 10
-18.85352302
 20
-43.211925
 30
0.0
 11
-18.85352302
 21
-86.211925
 31
0.0
  0
LINE
  5
B9
100
AcDbEntity
  8
SLD-0_0
  6
CONTINUOUS
 62
       7
100
AcDbLine
 10
-97.26745027
 20
-109.711925
 30
0.0
 11
-97.26745027
 21
-117.711925
 31
0.0
  0
LINE
  5
BA
100
AcDbEntity
  8
SLD-0_0
  6
CONTINUOUS
 62
       7
100
AcDbLine
 10
-82.26745027
 20
-21.711925
 30
0.0
 11
-82.26745027
 21
-29.711925
 31
0.0
  0
LINE
  5
BB
100
AcDbEntity
  8
SLD-0_0
  6
CONTINUOUS
 62
       7
100
AcDbLine
 10
61.14647698
 20
-19.711925
 30
0.0
 11
61.14647698
 21
-119.711925
 31
0.0
  0
LINE
  5
BC
100
AcDbEntity
  8
SLD-0_0
  6
CONTINUOUS
 62
       7
100
AcDbLine
 10
42.7107897
 20
-30.711925
 30
0.0
 11
42.7107897
 21
-42.211925
 31
0.0
  0
LINE
  5
BD
100
AcDbEntity
  8
SLD-0_0
  6
CONTINUOUS
 62
       7
100
AcDbLine
 10
-82.26745027
 20
-109.711925
 30
0.0
 11
-82.26745027
 21
-117.711925
 31
0.0
  0
LINE
  5
BE
100
AcDbEntity
  8
SLD-0_0
  6
CONTINUOUS
 62
       7
100
AcDbLine
 10
-97.26745027
 20
-21.711925
 30
0.0
 11
-97.26745027
 21
-29.711925
 31
0.0
  0
LINE
  5
BF
100
AcDbEntity
  8
SLD-0_0
  6
CONTINUOUS
 62
       7
100
AcDbLine
 10
60.14647698
 20
-19.711925
 30
0.0
 11
69.64647698
 21
-19.711925
 31
0.0
  0
LINE
  5
C0
100
AcDbEntity
  8
SLD-0_0
  6
CONTINUOUS
 62
       7
100
AcDbLine
 10
60.2107897
 20
-109.711925
 30
0.0
 11
60.2107897
 21
-119.711925
 31
0.0
  0
LINE
  5
C1
100
AcDbEntity
  8
SLD-0_0
  6
CONTINUOUS
 62
       7
100
AcDbLine
 10
-78.01745027
 20
-29.711925
 30
0.0
 11
-78.01745027
 21
-109.711925
 31
0.0
  0
LINE
  5
C2
100
AcDbEntity
  8
SLD-0_0
  6
CONTINUOUS
 62
       7
100
AcDbLine
 10
60.2107897
 20
-119.711925
 30
0.0
 11
69.64647698
 21
-119.711925
 31
0.0
  0
LINE
  5
C3
100
AcDbEntity
  8
SLD-0_0
  6
CONTINUOUS
 62
       7
100
AcDbLine
 10
-95.26745027
 20
-119.711925
 30
0.0
 11
-84.26745027
 21
-119.711925
 31
0.0
  0
LINE
  5
C4
100
AcDbEntity
  8
SLD-0_0
  6
CONTINUOUS
 62
       7
100
AcDbLine
 10
69.64647698
 20
-29.711925
 30
0.0
 11
43.7107897
 21
-29.711925
 31
0.0
  0
LINE
  5
C5
100
AcDbEntity
  8
SLD-0_0
  6
CONTINUOUS
 62
       7
100
AcDbLine
 10
42.7107897
 20
-42.211925
 30
0.0
 11
-17.85352302
 21
-42.211925
 31
0.0
  0
LINE
  5
C6
100
AcDbEntity
  8
SLD-0_0
  6
CONTINUOUS
 62
       7
100
AcDbLine
 10
42.7107897
 20
-87.211925
 30
0.0
 11
42.7107897
 21
-108.711925
 31
0.0
  0
LINE
  5
C7
100
AcDbEntity
  8
SLD-0_0
  6
CONTINUOUS
 62
       7
100
AcDbLine
 10
34.14647698
 20
-42.211925
 30
0.0
 11
34.14647698
 21
-87.211925
 31
0.0
  0
ARC
  5
C8
100
AcDbEntity
  8
SLD-0_0
  6
CONTINUOUS
 62
       7
100
AcDbCircle
 10
-84.26745027
 20
-117.711925
 30
0.0
 40
2.0
100
AcDbArc
 50
270.0
 51
360.0
  0
CIRCLE
  5
C9
100
AcDbEntity
  8
SLD-0_0
  6
CONTINUOUS
 62
       7
100
AcDbCircle
 10
-89.76745027
 20
-114.711925
 30
0.0
 40
2.5
  0
ARC
  5
CA
100
AcDbEntity
  8
SLD-0_0
  6
CONTINUOUS
 62
       7
100
AcDbCircle
 10
-17.85352302
 20
-43.211925
 30
0.0
 40
1.0
100
AcDbArc
 50
90.0
 51
180.0
  0
ARC
  5
CB
100
AcDbEntity
  8
SLD-0_0
  6
CONTINUOUS
 62
       7
100
AcDbCircle
 10
43.7107897
 20
-30.711925
 30
0.0
 40
1.0
100
AcDbArc
 50
90.0
 51
180.0
  0
ARC
  5
CC
100
AcDbEntity
  8
SLD-0_0
  6
CONTINUOUS
 62
       7
100
AcDbCircle
 10
-95.26745027
 20
-21.711925
 30
0.0
 40
2.0
100
AcDbArc
 50
90.0
 51
180.0
  0
ARC
  5
CD
100
AcDbEntity
  8
SLD-0_0
  6
CONTINUOUS
 62
       7
100
AcDbCircle
 10
-17.85352302
 20
-86.211925
 30
0.0
 40
1.0
100
AcDbArc
 50
180.0
 51
270.0
  0
ARC
  5
CE
100
AcDbEntity
  8
SLD-0_0
  6
CONTINUOUS
 62
       7
100
AcDbCircle
 10
43.7107897
 20
-108.711925
 30
0.0
 40
1.0
100
AcDbArc
 50
180.0
 51
270.0
  0
ARC
  5
CF
100
AcDbEntity
  8
SLD-0_0
  6
CONTINUOUS
 62
       7
100
AcDbCircle
 10
-95.26745027
 20
-117.711925
 30
0.0
 40
2.0
100
AcDbArc
 50
180.0
 51
270.0
  0
ARC
  5
D0
100
AcDbEntity
  8
SLD-0_0
  6
CONTINUOUS
 62
       7
100
AcDbCircle
 10
-84.26745027
 20
-21.711925
 30
0.0
 40
2.0
100
AcDbArc
 50
0.0
 51
90.0
  0
CIRCLE
  5
D1
100
AcDbEntity
  8
SLD-0_0
  6
CONTINUOUS
 62
       7
100
AcDbCircle
 10
-89.76745027
 20
-24.711925
 30
0.0
 40
2.5
  0
LINE
  5
D2
100
AcDbEntity
  8
SLD-0_0
  6
CENTERX2
 62
       7
100
AcDbLine
 10
-89.76745027
 20
-17.47786892
 30
0.0
 11
-89.76745027
 21
-121.9371661
 31
0.0
  0
LINE
  5
D3
100
AcDbEntity
  8
SLD-0_0
  6
CENTERX2
 62
       7
100
AcDbLine
 10
68.40277985
 20
-69.711925
 30
0.0
 11
-25.47556616
 21
-69.711925
 31
0.0
  0
LINE
  5
D4
100
AcDbEntity
  8
SLD-0_0
  6
CENTERX2
 62
       7
100
AcDbLine
 10
-74.60023953
 20
-69.711925
 30
0.0
 11
-104.47270779
 21
-69.711925
 31
0.0
  0
LINE
  5
D5
100
AcDbEntity
  8
SLD-0_2
  6
CONTINUOUS
 62
       7
100
AcDbLine
 10
-97.26745027
 20
-69.461925
 30
0.0
 11
-100.01745027
 21
-69.461925
 31
0.0
  0
LINE
  5
D6
100
AcDbEntity
  8
SLD-0_2
  6
CONTINUOUS
 62
       7
100
AcDbLine
 10
-97.26745027
 20
-59.961925
 30
0.0
 11
-100.01745027
 21
-59.961925
 31
0.0
  0
LINE
  5
D7
100
AcDbEntity
  8
SLD-0_2
  6
CONTINUOUS
 62
       7
100
AcDbLine
 10
-79.51745027
 20
-43.711925
 30
0.0
 11
-79.51745027
 21
-85.711925
 31
0.0
  0
LINE
  5
D8
100
AcDbEntity
  8
SLD-0_2
  6
CONTINUOUS
 62
       7
100
AcDbLine
 10
-100.01745027
 20
-43.711925
 30
0.0
 11
-100.01745027
 21
-59.961925
 31
0.0
  0
LINE
  5
D9
100
AcDbEntity
  8
SLD-0_2
  6
CONTINUOUS
 62
       7
100
AcDbLine
 10
-97.26745027
 20
-61.461925
 30
0.0
 11
-101.51745027
 21
-61.461925
 31
0.0
  0
LINE
  5
DA
100
AcDbEntity
  8
SLD-0_2
  6
CONTINUOUS
 62
       7
100
AcDbLine
 10
-97.26745027
 20
-67.961925
 30
0.0
 11
-101.51745027
 21
-67.961925
 31
0.0
  0
LINE
  5
DB
100
AcDbEntity
  8
SLD-0_2
  6
CONTINUOUS
 62
       7
100
AcDbLine
 10
-100.01745027
 20
-43.711925
 30
0.0
 11
-79.51745027
 21
-43.711925
 31
0.0
  0
LINE
  5
DC
100
AcDbEntity
  8
SLD-0_2
  6
CONTINUOUS
 62
       7
100
AcDbLine
 10
-100.01745027
 20
-85.711925
 30
0.0
 11
-79.51745027
 21
-85.711925
 31
0.0
  0
LINE
  5
DD
100
AcDbEntity
  8
SLD-0_2
  6
CONTINUOUS
 62
       7
100
AcDbLine
 10
-100.01745027
 20
-69.461925
 30
0.0
 11
-100.01745027
 21
-85.711925
 31
0.0
  0
LINE
  5
DE
100
AcDbEntity
  8
SLD-0_2
  6
CONTINUOUS
 62
       7
100
AcDbLine
 10
-19.85352302
 20
-80.60221634
 30
0.0
 11
-19.85352302
 21
-83.97599834
 31
0.0
  0
LINE
  5
DF
100
AcDbEntity
  8
SLD-0_2
  6
CONTINUOUS
 62
       7
100
AcDbLine
 10
-19.85352302
 20
56.02400166
 30
0.0
 11
-18.85696812
 21
56.02400166
 31
0.0
  0
LINE
  5
E0
100
AcDbEntity
  8
SLD-0_2
  6
CONTINUOUS
 62
       7
100
AcDbLine
 10
-18.85696812
 20
59.39778366
 30
0.0
 11
-19.85352302
 21
59.39778366
 31
0.0
  0
LINE
  5
E1
100
AcDbEntity
  8
SLD-0_2
  6
CONTINUOUS
 62
       7
100
AcDbLine
 10
-18.85696812
 20
-80.60221634
 30
0.0
 11
-19.85352302
 21
-80.60221634
 31
0.0
  0
LINE
  5
E2
100
AcDbEntity
  8
SLD-0_2
  6
CONTINUOUS
 62
       7
100
AcDbLine
 10
-19.85352302
 20
-83.97599834
 30
0.0
 11
-18.85696812
 21
-83.97599834
 31
0.0
  0
CIRCLE
  5
E3
100
AcDbEntity
  8
SLD-0_2
  6
CONTINUOUS
 62
       7
100
AcDbCircle
 10
-89.7857897
 20
78.91819388
 30
0.0
 40
1.54276637
  0
CIRCLE
  5
E4
100
AcDbEntity
  8
SLD-0_2
  6
CONTINUOUS
 62
       7
100
AcDbCircle
 10
-89.78562525
 20
83.73790866
 30
0.0
 40
1.54252726
  0
CIRCLE
  5
E5
100
AcDbEntity
  8
SLD-0_2
  6
CONTINUOUS
 62
       7
100
AcDbCircle
 10
-88.82159926
 20
57.7111876
 30
0.0
 40
1.68707708
  0
ARC
  5
E6
100
AcDbEntity
  8
SLD-0_2
  6
CONTINUOUS
 62
       7
100
AcDbCircle
 10
-97.26745027
 20
-64.711925
 30
0.0
 40
4.75
100
AcDbArc
 50
270.0
 51
450.0
  0
CIRCLE
  5
E7
100
AcDbEntity
  8
SLD-0_2
  6
CONTINUOUS
 62
       7
100
AcDbCircle
 10
-89.78562525
 20
-56.26209134
 30
0.0
 40
1.54252726
  0
CIRCLE
  5
E8
100
AcDbEntity
  8
SLD-0_2
  6
CONTINUOUS
 62
       7
100
AcDbCircle
 10
-97.26745027
 20
-64.711925
 30
0.0
 40
3.0
  0
CIRCLE
  5
E9
100
AcDbEntity
  8
SLD-0_2
  6
CONTINUOUS
 62
       7
100
AcDbCircle
 10
-89.7857897
 20
-61.08180612
 30
0.0
 40
1.54276637
  0
CIRCLE
  5
EA
100
AcDbEntity
  8
SLD-0_2
  6
CONTINUOUS
 62
       7
100
AcDbCircle
 10
-88.82159926
 20
-82.2888124
 30
0.0
 40
1.68707708
  0
ARC
  5
EB
100
AcDbEntity
  8
SLD-0_2
  6
CONTINUOUS
 62
       7
100
AcDbCircle
 10
-97.26745027
 20
-64.711925
 30
0.0
 40
3.25
100
AcDbArc
 50
270.0
 51
450.0
  0
LINE
  5
EC
100
AcDbEntity
  8
SLD-0_1
  6
CONTINUOUS
 62
       7
100
AcDbLine
 10
59.14647698
 20
-118.461925
 30
0.0
 11
60.14647698
 21
-118.461925
 31
0.0
  0
LINE
  5
ED
100
AcDbEntity
  8
SLD-0_1
  6
CONTINUOUS
 62
       7
100
AcDbLine
 10
59.14647698
 20
-110.961925
 30
0.0
 11
60.14647698
 21
-110.961925
 31
0.0
  0
LINE
  5
EE
100
AcDbEntity
  8
SLD-0_1
  6
CONTINUOUS
 62
       7
100
AcDbLine
 10
57.14647698
 20
-112.311925
 30
0.0
 11
57.14647698
 21
-117.111925
 31
0.0
  0
LINE
  5
EF
100
AcDbEntity
  8
SLD-0_1
  6
CONTINUOUS
 62
       7
100
AcDbLine
 10
58.14647698
 20
-111.311925
 30
0.0
 11
59.14647698
 21
-111.311925
 31
0.0
  0
LINE
  5
F0
100
AcDbEntity
  8
SLD-0_1
  6
CONTINUOUS
 62
       7
100
AcDbLine
 10
58.14647698
 20
-118.111925
 30
0.0
 11
59.14647698
 21
-118.111925
 31
0.0
  0
LINE
  5
F1
100
AcDbEntity
  8
SLD-0_1
  6
CONTINUOUS
 62
       7
100
AcDbLine
 10
59.14647698
 20
-110.961925
 30
0.0
 11
59.14647698
 21
-118.461925
 31
0.0
  0
ARC
  5
F2
100
AcDbEntity
  8
SLD-0_1
  6
CONTINUOUS
 62
       7
100
AcDbCircle
 10
58.14647698
 20
-112.311925
 30
0.0
 40
1.0
100
AcDbArc
 50
90.0
 51
180.0
  0
ARC
  5
F3
100
AcDbEntity
  8
SLD-0_1
  6
CONTINUOUS
 62
       7
100
AcDbCircle
 10
58.14647698
 20
-117.111925
 30
0.0
 40
1.0
100
AcDbArc
 50
180.0
 51
270.0
  0
TEXT
  5
F4
100
AcDbEntity
  8
SLD-0
 62
       7
100
AcDbText
 10
98.51583265
 20
-124.84267491
 30
0.0
 40
5.0
  1
000
 72
       5
 11
113.51583265
 21
-124.84267491
 31
0.0
100
AcDbText
  0
ENDSEC
  0
SECTION
  2
OBJECTS
  0
DICTIONARY
  5
19
100
AcDbDictionary
  3
ACAD_GROUP
350
1A
  3
ACAD_MLINESTYLE
350
1B
  0
DICTIONARY
  5
1A
102
{ACAD_REACTORS
330
19
102
}
100
AcDbDictionary
  0
DICTIONARY
  5
1B
102
{ACAD_REACTORS
330
19
102
}
100
AcDbDictionary
  3
STANDARD
350
1C
  0
MLINESTYLE
  5
1C
102
{ACAD_REACTORS
330
1B
102
}
100
AcDbMlineStyle
  2
STANDARD
 70
       0
  3

 62
       0
 51
90.0
 52
90.0
 71
       2
 49
0.5
 62
     256
  6
BYLAYER
 49
-0.5
 62
     256
  6
BYLAYER
  0
ENDSEC
  0
EOF
