  0
SECTION
  2
HEADER
  9
$ACADVER
  1
AC1014
  9
$ACADMAINTVER
 70
       0
  9
$DWGCODEPAGE
  3
ANSI_932
  9
$INSBASE
 10
0.0
 20
0.0
 30
0.0
  9
$EXTMIN
 10
-109.75258243
 20
-107.78733885
 30
0.0
  9
$EXTMAX
 10
109.75258243
 20
83.68210541
 30
0.0
  9
$LIMMIN
 10
-116.61211883
 20
-113.77075898
  9
$LIMMAX
 10
116.61211883
 20
89.66552555
  9
$ORTHOMODE
 70
       0
  9
$REGENMODE
 70
       1
  9
$FILLMODE
 70
       1
  9
$QTEXTMODE
 70
       0
  9
$MIRRTEXT
 70
       1
  9
$DRAGMODE
 70
       2
  9
$LTSCALE
 40
1.0
  9
$OSMODE
 70
       0
  9
$ATTMODE
 70
       1
  9
$TEXTSIZE
 40
0.2
  9
$TRACEWID
 40
0.05
  9
$TEXTSTYLE
  7
STANDARD
  9
$CLAYER
  8
0
  9
$CELTYPE
  6
CONTINUOUS
  9
$CECOLOR
 62
     256
  9
$CELTSCALE
 40
1.0
  9
$DELOBJ
 70
       1
  9
$DISPSILH
 70
       0
  9
$DIMSCALE
 40
1.0
  9
$DIMASZ
 40
0.18
  9
$DIMEXO
 40
0.0625
  9
$DIMDLI
 40
0.38
  9
$DIMRND
 40
0.0
  9
$DIMDLE
 40
0.0
  9
$DIMEXE
 40
0.18
  9
$DIMTP
 40
0.0
  9
$DIMTM
 40
0.0
  9
$DIMTXT
 40
0.18
  9
$DIMCEN
 40
0.09
  9
$DIMTSZ
 40
0.0
  9
$DIMTOL
 70
       0
  9
$DIMLIM
 70
       0
  9
$DIMTIH
 70
       1
  9
$DIMTOH
 70
       1
  9
$DIMSE1
 70
       0
  9
$DIMSE2
 70
       0
  9
$DIMTAD
 70
       0
  9
$DIMZIN
 70
       0
  9
$DIMBLK
  1

  9
$DIMASO
 70
       1
  9
$DIMSHO
 70
       1
  9
$DIMPOST
  1

  9
$DIMAPOST
  1

  9
$DIMALT
 70
       0
  9
$DIMALTD
 70
       2
  9
$DIMALTF
 40
25.4
  9
$DIMLFAC
 40
1.0
  9
$DIMTOFL
 70
       0
  9
$DIMTVP
 40
0.0
  9
$DIMTIX
 70
       0
  9
$DIMSOXD
 70
       0
  9
$DIMSAH
 70
       0
  9
$DIMBLK1
  1

  9
$DIMBLK2
  1

  9
$DIMSTYLE
  2
STANDARD
  9
$DIMCLRD
 70
       0
  9
$DIMCLRE
 70
       0
  9
$DIMCLRT
 70
       0
  9
$DIMTFAC
 40
1.0
  9
$DIMGAP
 40
0.09
  9
$DIMJUST
 70
       0
  9
$DIMSD1
 70
       0
  9
$DIMSD2
 70
       0
  9
$DIMTOLJ
 70
       1
  9
$DIMTZIN
 70
       0
  9
$DIMALTZ
 70
       0
  9
$DIMALTTZ
 70
       0
  9
$DIMFIT
 70
       3
  9
$DIMUPT
 70
       0
  9
$DIMUNIT
 70
       2
  9
$DIMDEC
 70
       4
  9
$DIMTDEC
 70
       4
  9
$DIMALTU
 70
       2
  9
$DIMALTTD
 70
       2
  9
$DIMTXSTY
  7
STANDARD
  9
$DIMAUNIT
 70
       0
  9
$LUNITS
 70
       2
  9
$LUPREC
 70
       4
  9
$SKETCHINC
 40
0.1
  9
$FILLETRAD
 40
0.0
  9
$AUNITS
 70
       0
  9
$AUPREC
 70
       0
  9
$MENU
  1
acad
  9
$ELEVATION
 40
0.0
  9
$PELEVATION
 40
0.0
  9
$THICKNESS
 40
0.0
  9
$LIMCHECK
 70
       0
  9
$BLIPMODE
 70
       1
  9
$CHAMFERA
 40
0.0
  9
$CHAMFERB
 40
0.0
  9
$CHAMFERC
 40
0.0
  9
$CHAMFERD
 40
0.0
  9
$SKPOLY
 70
       0
  9
$TDCREATE
 40
0.000000000
  9
$TDUPDATE
 40
0.000000000
  9
$TDINDWG
 40
0.0000000000
  9
$TDUSRTIMER
 40
0.0000000000
  9
$USRTIMER
 70
       1
  9
$ANGBASE
 50
0.0
  9
$ANGDIR
 70
       0
  9
$PDMODE
 70
       0
  9
$PDSIZE
 40
1.0
  9
$PLINEWID
 40
0.0
  9
$COORDS
 70
       1
  9
$SPLFRAME
 70
       0
  9
$SPLINETYPE
 70
       6
  9
$SPLINESEGS
 70
       8
  9
$ATTDIA
 70
       0
  9
$ATTREQ
 70
       1
  9
$HANDLING
 70
       1
  9
$HANDSEED
  5
2C1
  9
$SURFTAB1
 70
       6
  9
$SURFTAB2
 70
       6
  9
$SURFTYPE
 70
       6
  9
$SURFU
 70
       6
  9
$SURFV
 70
       6
  9
$UCSNAME
  2

  9
$UCSORG
 10
0.0
 20
0.0
 30
0.0
  9
$UCSXDIR
 10
1.0
 20
0.0
 30
0.0
  9
$UCSYDIR
 10
0.0
 20
1.0
 30
0.0
  9
$PUCSNAME
  2

  9
$PUCSORG
 10
0.0
 20
0.0
 30
0.0
  9
$PUCSXDIR
 10
1.0
 20
0.0
 30
0.0
  9
$PUCSYDIR
 10
0.0
 20
1.0
 30
0.0
  9
$USERI1
 70
       0
  9
$USERI2
 70
       0
  9
$USERI3
 70
       0
  9
$USERI4
 70
       0
  9
$USERI5
 70
       0
  9
$USERR1
 40
0.0
  9
$USERR2
 40
0.0
  9
$USERR3
 40
0.0
  9
$USERR4
 40
0.0
  9
$USERR5
 40
0.0
  9
$WORLDVIEW
 70
       1
  9
$SHADEDGE
 70
       3
  9
$SHADEDIF
 70
      70
  9
$TILEMODE
 70
       1
  9
$MAXACTVP
 70
      16
  9
$PINSBASE
 10
0.0
 20
0.0
 30
0.0
  9
$PLIMCHECK
 70
       0
  9
$PEXTMIN
 10
1.00000000E+20
 20
1.00000000E+20
 30
1.00000000E+20
  9
$PEXTMAX
 10
-1.00000000E+20
 20
-1.00000000E+20
 30
-1.00000000E+20
  9
$PLIMMIN
 10
0.0
 20
0.0
  9
$PLIMMAX
 10
12.0
 20
9.0
  9
$UNITMODE
 70
       0
  9
$VISRETAIN
 70
       0
  9
$PLINEGEN
 70
       1
  9
$PSLTSCALE
 70
       0
  9
$TREEDEPTH
 70
    3020
  9
$PICKSTYLE
 70
       1
  9
$CMLSTYLE
  2
STANDARD
  9
$CMLJUST
 70
       0
  9
$CMLSCALE
 40
1.0
  9
$PROXYGRAPHICS
 70
       0
  9
$MEASUREMENT
 70
       0
  0
ENDSEC
  0
SECTION
  2
CLASSES
  0
CLASS
  1
LWPOLYLINE
  2
AcDbPolyline
  3
"AutoCAD"
 90
        0
280
       0
281
       1
  0
CLASS
  1
IMAGE
  2
AcDbRasterImage
  3
ISM
 90
      127
280
       0
281
       1
  0
CLASS
  1
OLE2FRAME
  2
AcDbOle2Frame
  3
""
 90
        0
280
       0
281
       1
  0
CLASS
  1
HATCH
  2
AcDbHatch
  3
"ACAD_SEDONA"
 90
        0
280
       0
281
       1
  0
CLASS
  1
DICTIONARYVAR
  2
AcDbDictionaryVar
  3
"AutoCAD"
 90
        0
280
       0
281
       0
  0
CLASS
  1
RASTERVARIABLES
  2
AcDbRasterVariables
  3
ISM
 90
        0
280
       0
281
       0
  0
CLASS
  1
IMAGEDEF
  2
AcDbRasterImageDef
  3
ISM
 90
        0
280
       0
281
       0
  0
CLASS
  1
IMAGEDEF_REACTOR
  2
AcDbRasterImageDefReactor
  3
ISM
 90
        1
280
       0
281
       0
  0
CLASS
  1
IDBUFFER
  2
AcDbIdBuffer
  3
"Acad"
 90
        0
280
       0
281
       0
  0
CLASS
  1
SPATIAL_FILTER
  2
AcDbSpatialFilter
  3
"Acad"
 90
        0
280
       0
281
       0
  0
CLASS
  1
XRECORD
  2
AcDbXrecord
  3
"<Built In>"
 90
        0
280
       0
281
       0
  0
CLASS
  1
SORTENTSTABLE
  2
AcDbSortentsTable
  3
"AutoCAD"
 90
        0
280
       0
281
       0
  0
CLASS
  1
LAYER_INDEX
  2
AcDbLayerIndex
  3
"Acad"
 90
        0
280
       0
281
       0
  0
CLASS
  1
SPATIAL_INDEX
  2
AcDbSpatialIndex
  3
"Acad"
 90
        0
280
       0
281
       0
  0
CLASS
  1
OBJECT_PTR
  2
CAseDLPNTableRecord
  3
"ASE-LPNTableRecord"
 90
        1
280
       0
281
       0
  0
CLASS
  1
LAYOUT
  2
AcDbLayout
  3
"AutoCAD 2000"
 90
        1
280
       0
281
       0
  0
CLASS
  1
PLOTSETTINGS
  2
AcDbPlotSettings
  3
"AutoCAD 2000"
 90
        1
280
       0
281
       0
  0
CLASS
  1
ACDBDICTIONARYWDFLT
  2
AcDbDictionaryWithDefault
  3
"AutoCAD 2000"
 90
        1
280
       0
281
       0
  0
CLASS
  1
ACDBPLACEHOLDER
  2
AcDbPlaceHolder
  3
"AutoCAD 2000"
 90
        1
280
       0
281
       0
  0
CLASS
  1
VBA_PROJECT
  2
AcDbVbaProject
  3
"acadvba"
 90
        1
280
       0
281
       0
  0
CLASS
  1
WIPEOUT
  2
AcDbWipeout
  3
WipeOut|AutoCAD Express Tool|expresstools@autodesk.com
 90
      127
280
       0
281
       1
  0
CLASS
  1
WIPEOUTVARIABLES
  2
AcDbWipeoutVariables
  3
WipeOut|AutoCAD Express Tool|expresstools@autodesk.com
 90
        0
280
       0
281
       0
  0
CLASS
  1
RTEXT
  2
RText
  3
RText|AutoCAD Express Tool|expresstools@autodesk.com
 90
        0
280
       0
281
       1
  0
CLASS
  1
ARCALIGNEDTEXT
  2
AcDbArcAlignedText
  3
ATEXT|AutoCAD Express Tool|expresstools@autodesk.com
 90
        0
280
       0
281
       1
  0
ENDSEC
  0
SECTION
  2
TABLES
  0
TABLE
  2
VPORT
  5
7
100
AcDbSymbolTable
 70
       1
  0
VPORT
  5
15
100
AcDbSymbolTableRecord
100
AcDbViewportTableRecord
  2
*ACTIVE
 70
       0
 10
0.0
 20
0.0
 11
1.0
 21
1.0
 12
0.0
 22
-12.05261672
 13
0.0
 23
0.0
 14
1.0
 24
1.0
 15
0.0
 25
0.0
 16
0.0
 26
0.0
 36
1.0
 17
0.0
 27
0.0
 37
0.0
 40
203.43628453
 41
1.14642399
 42
50.0
 43
0.0
 44
0.0
 50
0.0
 51
0.0
 71
       0
 72
     100
 73
       1
 74
       1
 75
       0
 76
       0
 77
       0
 78
       0
  0
ENDTAB
  0
TABLE
  2
LTYPE
  5
4
100
AcDbSymbolTable
 70
      30
  0
LTYPE
  5
11
100
AcDbSymbolTableRecord
100
AcDbLinetypeTableRecord
  2
BYBLOCK
 70
      64
  3

 72
      65
 73
       0
 40
0.0
  0
LTYPE
  5
12
100
AcDbSymbolTableRecord
100
AcDbLinetypeTableRecord
  2
BYLAYER
 70
      64
  3

 72
      65
 73
       0
 40
0.0
  0
LTYPE
  5
13
100
AcDbSymbolTableRecord
100
AcDbLinetypeTableRecord
  2
CONTINUOUS
 70
      64
  3
Solid line
 72
      65
 73
       0
 40
0.0
  0
LTYPE
  5
1D
100
AcDbSymbolTableRecord
100
AcDbLinetypeTableRecord
  2
HIDDENX2
 70
      64
  3
CADPAC LINETYPE
 72
      65
 73
       2
 40
9.41020698
 49
7.05765524
 74
       0
 49
-2.35255175
 74
       0
  0
LTYPE
  5
1E
100
AcDbSymbolTableRecord
100
AcDbLinetypeTableRecord
  2
HIDDEN
 70
      64
  3
CADPAC LINETYPE
 72
      65
 73
       2
 40
7.05765524
 49
4.70510349
 74
       0
 49
-2.35255175
 74
       0
  0
LTYPE
  5
1F
100
AcDbSymbolTableRecord
100
AcDbLinetypeTableRecord
  2
HIDDEN2
 70
      64
  3
CADPAC LINETYPE
 72
      65
 73
       2
 40
5.88137936
 49
3.52882762
 74
       0
 49
-2.35255175
 74
       0
  0
LTYPE
  5
20
100
AcDbSymbolTableRecord
100
AcDbLinetypeTableRecord
  2
DASHED
 70
      64
  3
CADPAC LINETYPE
 72
      65
 73
       2
 40
7.05765524
 49
4.70510349
 74
       0
 49
-2.35255175
 74
       0
  0
LTYPE
  5
21
100
AcDbSymbolTableRecord
100
AcDbLinetypeTableRecord
  2
DASHED2
 70
      64
  3
CADPAC LINETYPE
 72
      65
 73
       2
 40
5.29324143
 49
3.52882762
 74
       0
 49
-1.76441381
 74
       0
  0
LTYPE
  5
22
100
AcDbSymbolTableRecord
100
AcDbLinetypeTableRecord
  2
DASHEDX2
 70
      64
  3
CADPAC LINETYPE
 72
      65
 73
       2
 40
10.58648285
 49
7.05765524
 74
       0
 49
-3.52882762
 74
       0
  0
LTYPE
  5
23
100
AcDbSymbolTableRecord
100
AcDbLinetypeTableRecord
  2
DOTX2
 70
      64
  3
CADPAC LINETYPE
 72
      65
 73
       2
 40
2.94068968
 49
0.0
 74
       0
 49
-2.94068968
 74
       0
  0
LTYPE
  5
24
100
AcDbSymbolTableRecord
100
AcDbLinetypeTableRecord
  2
DOT
 70
      64
  3
CADPAC LINETYPE
 72
      65
 73
       2
 40
2.35255175
 49
0.0
 74
       0
 49
-2.35255175
 74
       0
  0
LTYPE
  5
25
100
AcDbSymbolTableRecord
100
AcDbLinetypeTableRecord
  2
DOT2
 70
      64
  3
CADPAC LINETYPE
 72
      65
 73
       2
 40
1.76441381
 49
0.0
 74
       0
 49
-1.76441381
 74
       0
  0
LTYPE
  5
26
100
AcDbSymbolTableRecord
100
AcDbLinetypeTableRecord
  2
CENTERX2
 70
      64
  3
CADPAC LINETYPE
 72
      65
 73
       4
 40
14.11531047
 49
5.88137936
 74
       0
 49
-2.94068968
 74
       0
 49
2.35255175
 74
       0
 49
-2.94068968
 74
       0
  0
LTYPE
  5
27
100
AcDbSymbolTableRecord
100
AcDbLinetypeTableRecord
  2
CENTER
 70
      64
  3
CADPAC LINETYPE
 72
      65
 73
       4
 40
10.82173803
 49
4.70510349
 74
       0
 49
-2.35255175
 74
       0
 49
1.41153105
 74
       0
 49
-2.35255175
 74
       0
  0
LTYPE
  5
28
100
AcDbSymbolTableRecord
100
AcDbLinetypeTableRecord
  2
CENTER2
 70
      64
  3
CADPAC LINETYPE
 72
      65
 73
       4
 40
7.52816558
 49
3.52882762
 74
       0
 49
-1.76441381
 74
       0
 49
0.47051035
 74
       0
 49
-1.76441381
 74
       0
  0
LTYPE
  5
29
100
AcDbSymbolTableRecord
100
AcDbLinetypeTableRecord
  2
DASHDOTX2
 70
      64
  3
CADPAC LINETYPE
 72
      65
 73
       4
 40
11.76275873
 49
5.88137936
 74
       0
 49
-2.94068968
 74
       0
 49
0.0
 74
       0
 49
-2.94068968
 74
       0
  0
LTYPE
  5
2A
100
AcDbSymbolTableRecord
100
AcDbLinetypeTableRecord
  2
DASHDOT
 70
      64
  3
CADPAC LINETYPE
 72
      65
 73
       4
 40
9.41020698
 49
4.70510349
 74
       0
 49
-2.35255175
 74
       0
 49
0.0
 74
       0
 49
-2.35255175
 74
       0
  0
LTYPE
  5
2B
100
AcDbSymbolTableRecord
100
AcDbLinetypeTableRecord
  2
DASHDOT2
 70
      64
  3
CADPAC LINETYPE
 72
      65
 73
       4
 40
7.05765524
 49
3.52882762
 74
       0
 49
-1.76441381
 74
       0
 49
0.0
 74
       0
 49
-1.76441381
 74
       0
  0
LTYPE
  5
2C
100
AcDbSymbolTableRecord
100
AcDbLinetypeTableRecord
  2
DIVIDEX2
 70
      64
  3
CADPAC LINETYPE
 72
      65
 73
       6
 40
14.70344841
 49
5.88137936
 74
       0
 49
-2.94068968
 74
       0
 49
0.0
 74
       0
 49
-2.94068968
 74
       0
 49
0.0
 74
       0
 49
-2.94068968
 74
       0
  0
LTYPE
  5
2D
100
AcDbSymbolTableRecord
100
AcDbLinetypeTableRecord
  2
DIVIDE
 70
      64
  3
CADPAC LINETYPE
 72
      65
 73
       6
 40
11.76275873
 49
4.70510349
 74
       0
 49
-2.35255175
 74
       0
 49
0.0
 74
       0
 49
-2.35255175
 74
       0
 49
0.0
 74
       0
 49
-2.35255175
 74
       0
  0
LTYPE
  5
2E
100
AcDbSymbolTableRecord
100
AcDbLinetypeTableRecord
  2
DIVIDE2
 70
      64
  3
CADPAC LINETYPE
 72
      65
 73
       6
 40
8.82206904
 49
3.52882762
 74
       0
 49
-1.76441381
 74
       0
 49
0.0
 74
       0
 49
-1.76441381
 74
       0
 49
0.0
 74
       0
 49
-1.76441381
 74
       0
  0
LTYPE
  5
2F
100
AcDbSymbolTableRecord
100
AcDbLinetypeTableRecord
  2
BORDERX2
 70
      64
  3
CADPAC LINETYPE
 72
      65
 73
       6
 40
20.58482777
 49
5.88137936
 74
       0
 49
-2.94068968
 74
       0
 49
5.88137936
 74
       0
 49
-2.94068968
 74
       0
 49
0.0
 74
       0
 49
-2.94068968
 74
       0
  0
LTYPE
  5
30
100
AcDbSymbolTableRecord
100
AcDbLinetypeTableRecord
  2
BORDER
 70
      64
  3
CADPAC LINETYPE
 72
      65
 73
       6
 40
16.46786222
 49
4.70510349
 74
       0
 49
-2.35255175
 74
       0
 49
4.70510349
 74
       0
 49
-2.35255175
 74
       0
 49
0.0
 74
       0
 49
-2.35255175
 74
       0
  0
LTYPE
  5
31
100
AcDbSymbolTableRecord
100
AcDbLinetypeTableRecord
  2
BORDER2
 70
      64
  3
CADPAC LINETYPE
 72
      65
 73
       6
 40
12.35089666
 49
3.52882762
 74
       0
 49
-1.76441381
 74
       0
 49
3.52882762
 74
       0
 49
-1.76441381
 74
       0
 49
0.0
 74
       0
 49
-1.76441381
 74
       0
  0
LTYPE
  5
32
100
AcDbSymbolTableRecord
100
AcDbLinetypeTableRecord
  2
PHANTOMX2
 70
      64
  3
CADPAC LINETYPE
 72
      65
 73
       6
 40
17.64413809
 49
5.88137936
 74
       0
 49
-2.35255175
 74
       0
 49
2.35255175
 74
       0
 49
-2.35255175
 74
       0
 49
2.35255175
 74
       0
 49
-2.35255175
 74
       0
  0
LTYPE
  5
33
100
AcDbSymbolTableRecord
100
AcDbLinetypeTableRecord
  2
PHANTOM
 70
      64
  3
CADPAC LINETYPE
 72
      65
 73
       6
 40
14.58582082
 49
4.70510349
 74
       0
 49
-2.35255175
 74
       0
 49
1.41153105
 74
       0
 49
-2.35255175
 74
       0
 49
1.41153105
 74
       0
 49
-2.35255175
 74
       0
  0
LTYPE
  5
34
100
AcDbSymbolTableRecord
100
AcDbLinetypeTableRecord
  2
PHANTOM2
 70
      64
  3
CADPAC LINETYPE
 72
      65
 73
       6
 40
12.46852425
 49
3.52882762
 74
       0
 49
-2.35255175
 74
       0
 49
0.9410207
 74
       0
 49
-2.35255175
 74
       0
 49
0.9410207
 74
       0
 49
-2.35255175
 74
       0
  0
LTYPE
  5
35
100
AcDbSymbolTableRecord
100
AcDbLinetypeTableRecord
  2
ACAD_ISO06W100
 70
      64
  3
CADPAC LINETYPE
 72
      65
 73
       8
 40
15.87972428
 49
5.88137936
 74
       0
 49
-2.94068968
 74
       0
 49
0.0
 74
       0
 49
-2.35255175
 74
       0
 49
0.0
 74
       0
 49
-2.35255175
 74
       0
 49
0.0
 74
       0
 49
-2.35255175
 74
       0
  0
LTYPE
  5
36
100
AcDbSymbolTableRecord
100
AcDbLinetypeTableRecord
  2
ACAD_ISO13W100
 70
      64
  3
CADPAC LINETYPE
 72
      65
 73
       8
 40
18.82041396
 49
4.70510349
 74
       0
 49
-2.35255175
 74
       0
 49
4.70510349
 74
       0
 49
-2.35255175
 74
       0
 49
0.0
 74
       0
 49
-2.35255175
 74
       0
 49
0.0
 74
       0
 49
-2.35255175
 74
       0
  0
LTYPE
  5
37
100
AcDbSymbolTableRecord
100
AcDbLinetypeTableRecord
  2
ACAD_ISO14W100
 70
      64
  3
CADPAC LINETYPE
 72
      65
 73
       8
 40
14.11531047
 49
4.70510349
 74
       0
 49
-2.35255175
 74
       0
 49
0.0
 74
       0
 49
-2.35255175
 74
       0
 49
0.0
 74
       0
 49
-2.35255175
 74
       0
 49
0.0
 74
       0
 49
-2.35255175
 74
       0
  0
ENDTAB
  0
TABLE
  2
LAYER
  5
2
100
AcDbSymbolTable
 70
       2
  0
LAYER
  5
14
100
AcDbSymbolTableRecord
100
AcDbLayerTableRecord
  2
0
 70
       0
 62
       7
  6
CONTINUOUS
  0
LAYER
  5
38
100
AcDbSymbolTableRecord
100
AcDbLayerTableRecord
  2
SLD-0
 70
       0
 62
       7
  6
CONTINUOUS
  0
ENDTAB
  0
TABLE
  2
STYLE
  5
3
100
AcDbSymbolTable
 70
       1
  0
STYLE
  5
17
100
AcDbSymbolTableRecord
100
AcDbTextStyleTableRecord
  2
STANDARD
 70
       0
 40
0.0
 41
0.8
 50
0.0
 71
       0
 42
5.0
  3
txt.shx
  4
bigfont.shx
  0
ENDTAB
  0
TABLE
  2
VIEW
  5
5
100
AcDbSymbolTable
 70
       1
  0
VIEW
  5
39
100
AcDbSymbolTableRecord
100
AcDbViewTableRecord
  2
QQQQ
 70
       0
 40
203.43628453
 10
0.0
 20
-12.05261672
 41
233.22423766
 11
0.0
 21
0.0
 31
1.0
 12
100.0
 22
100.0
 32
0.0
 42
50.0
 43
0.0
 44
0.0
 50
0.0
 71
       0
  0
ENDTAB
  0
TABLE
  2
UCS
  5
6
100
AcDbSymbolTable
 70
       0
  0
ENDTAB
  0
TABLE
  2
APPID
  5
8
100
AcDbSymbolTable
 70
       1
  0
APPID
  5
16
100
AcDbSymbolTableRecord
100
AcDbRegAppTableRecord
  2
ACAD
 70
       0
  0
ENDTAB
  0
TABLE
  2
DIMSTYLE
  5
9
100
AcDbSymbolTable
 70
       1
  0
DIMSTYLE
105
18
100
AcDbSymbolTableRecord
100
AcDbDimStyleTableRecord
  2
STANDARD
 70
       0
  3

  4

  5

  6

  7

 40
1.0
 41
0.18
 42
0.0625
 43
0.38
 44
0.18
 45
0.0
 46
0.0
 47
0.0
 48
0.0
 71
       0
 72
       0
 73
       1
 74
       1
 75
       0
 76
       0
 77
       0
 78
       0
140
0.18
141
0.09
142
0.0
143
25.4
144
1.0
145
0.0
146
1.0
147
0.09
170
       0
171
       2
172
       0
173
       0
174
       0
175
       0
176
       0
177
       0
178
       0
270
       2
271
       4
272
       4
273
       2
274
       2
275
       0
280
       0
281
       0
282
       0
283
       1
284
       0
285
       0
286
       0
287
       0
288
       0
340
17
  0
ENDTAB
  0
TABLE
  2
BLOCK_RECORD
  5
1
100
AcDbSymbolTable
 70
       0
  0
BLOCK_RECORD
  5
A
100
AcDbSymbolTableRecord
100
AcDbBlockTableRecord
  2
*MODEL_SPACE
  0
BLOCK_RECORD
  5
B
100
AcDbSymbolTableRecord
100
AcDbBlockTableRecord
  2
*PAPER_SPACE
  0
ENDTAB
  0
ENDSEC
  0
SECTION
  2
BLOCKS
  0
BLOCK
  5
D
100
AcDbEntity
  8
0
100
AcDbBlockBegin
  2
*MODEL_SPACE
 70
       0
 10
0.0
 20
0.0
 30
0.0
  3
*MODEL_SPACE
  1

  0
ENDBLK
  5
E
100
AcDbEntity
  8
0
100
AcDbBlockEnd
  0
BLOCK
  5
F
100
AcDbEntity
 67
       1
  8
0
100
AcDbBlockBegin
  2
*PAPER_SPACE
 70
       0
 10
0.0
 20
0.0
 30
0.0
  3
*PAPER_SPACE
  1

  0
ENDBLK
  5
10
100
AcDbEntity
 67
       1
  8
0
100
AcDbBlockEnd
  0
ENDSEC
  0
SECTION
  2
ENTITIES
  0
LINE
  5
3A
100
AcDbEntity
  8
SLD-0
  6
CONTINUOUS
 62
       3
100
AcDbLine
 10
-40.78133079
 20
-48.99999872
 30
0.0
 11
-40.78133079
 21
-50.99999904
 31
0.0
  0
LINE
  5
3B
100
AcDbEntity
  8
SLD-0
  6
CONTINUOUS
 62
       3
100
AcDbLine
 10
-40.78133079
 20
50.99999905
 30
0.0
 11
-40.78133079
 21
59.00000036
 31
0.0
  0
LINE
  5
3C
100
AcDbEntity
  8
SLD-0
  6
CONTINUOUS
 62
       3
100
AcDbLine
 10
-10.53133003
 20
78.00000072
 30
0.0
 11
-10.53133003
 21
-78.00000071
 31
0.0
  0
LINE
  5
3D
100
AcDbEntity
  8
SLD-0
  6
CONTINUOUS
 62
       3
100
AcDbLine
 10
-105.53132926
 20
-78.00000071
 30
0.0
 11
-105.53132926
 21
78.00000072
 31
0.0
  0
LINE
  5
3E
100
AcDbEntity
  8
SLD-0
  6
CONTINUOUS
 62
       3
100
AcDbLine
 10
-103.53132926
 20
80.00000072
 30
0.0
 11
-12.53133003
 21
80.00000072
 31
0.0
  0
LINE
  5
3F
100
AcDbEntity
  8
SLD-0
  6
CONTINUOUS
 62
       3
100
AcDbLine
 10
-103.53132926
 20
-80.00000071
 30
0.0
 11
-12.53133003
 21
-80.00000071
 31
0.0
  0
LINE
  5
40
100
AcDbEntity
  8
SLD-0
  6
CONTINUOUS
 62
       3
100
AcDbLine
 10
-105.53132926
 20
65.00000084
 30
0.0
 11
-10.53133003
 21
65.00000084
 31
0.0
  0
LINE
  5
41
100
AcDbEntity
  8
SLD-0
  6
CONTINUOUS
 62
       3
100
AcDbLine
 10
-10.53133003
 20
-65.00000083
 30
0.0
 11
-105.53132926
 21
-65.00000083
 31
0.0
  0
LINE
  5
42
100
AcDbEntity
  8
SLD-0
  6
CONTINUOUS
 62
       3
100
AcDbLine
 10
104.33132884
 20
80.00000072
 30
0.0
 11
105.53132926
 21
80.00000072
 31
0.0
  0
LINE
  5
43
100
AcDbEntity
  8
SLD-0
  6
CONTINUOUS
 62
       3
100
AcDbLine
 10
80.53132864
 20
65.00000084
 30
0.0
 11
105.53132926
 21
65.00000084
 31
0.0
  0
LINE
  5
44
100
AcDbEntity
  8
SLD-0
  6
CONTINUOUS
 62
       3
100
AcDbLine
 10
80.53132864
 20
-65.00000083
 30
0.0
 11
105.53132926
 21
-65.00000083
 31
0.0
  0
LINE
  5
45
100
AcDbEntity
  8
SLD-0
  6
CONTINUOUS
 62
       3
100
AcDbLine
 10
104.33132929
 20
-80.00000071
 30
0.0
 11
105.53132926
 21
-80.00000071
 31
0.0
  0
ARC
  5
46
100
AcDbEntity
  8
SLD-0
  6
CONTINUOUS
 62
       3
100
AcDbCircle
 10
-12.53133003
 20
-78.00000071
 30
0.0
 40
2.0
100
AcDbArc
 50
270.0
 51
360.0
  0
ARC
  5
47
100
AcDbEntity
  8
SLD-0
  6
CONTINUOUS
 62
       3
100
AcDbCircle
 10
-103.53132926
 20
-78.00000071
 30
0.0
 40
2.0
100
AcDbArc
 50
180.0
 51
270.0
  0
ARC
  5
48
100
AcDbEntity
  8
SLD-0
  6
CONTINUOUS
 62
       3
100
AcDbCircle
 10
-103.53132926
 20
78.00000072
 30
0.0
 40
2.0
100
AcDbArc
 50
90.0
 51
180.0
  0
ARC
  5
49
100
AcDbEntity
  8
SLD-0
  6
CONTINUOUS
 62
       3
100
AcDbCircle
 10
-12.53133003
 20
78.00000072
 30
0.0
 40
2.0
100
AcDbArc
 50
0.0
 51
90.0
  0
LINE
  5
4A
100
AcDbEntity
  8
SLD-0
  6
CONTINUOUS
 62
       3
100
AcDbLine
 10
-40.78133079
 20
59.00000036
 30
0.0
 11
-53.78133013
 21
59.00000036
 31
0.0
  0
LINE
  5
4B
100
AcDbEntity
  8
SLD-0
  6
CONTINUOUS
 62
       3
100
AcDbLine
 10
-53.78133013
 20
59.00000036
 30
0.0
 11
-53.78133013
 21
50.99999905
 31
0.0
  0
LINE
  5
4C
100
AcDbEntity
  8
SLD-0
  6
CONTINUOUS
 62
       3
100
AcDbLine
 10
-53.78133013
 20
-59.00000035
 30
0.0
 11
-40.78133079
 21
-59.00000035
 31
0.0
  0
LINE
  5
4D
100
AcDbEntity
  8
SLD-0
  6
CONTINUOUS
 62
       3
100
AcDbLine
 10
-40.78133079
 20
-59.00000035
 30
0.0
 11
-40.78133079
 21
-50.99999904
 31
0.0
  0
LINE
  5
4E
100
AcDbEntity
  8
SLD-0
  6
CONTINUOUS
 62
       3
100
AcDbLine
 10
-53.78133013
 20
-50.99999904
 30
0.0
 11
-53.78133013
 21
-59.00000035
 31
0.0
  0
LINE
  5
4F
100
AcDbEntity
  8
SLD-0
  6
CONTINUOUS
 62
       3
100
AcDbLine
 10
-54.28133044
 20
59.59999934
 30
0.0
 11
-54.28133044
 21
-59.59999934
 31
0.0
  0
LINE
  5
50
100
AcDbEntity
  8
SLD-0
  6
CONTINUOUS
 62
       3
100
AcDbLine
 10
-54.28133044
 20
-59.59999934
 30
0.0
 11
-40.28132978
 21
-59.59999934
 31
0.0
  0
LINE
  5
51
100
AcDbEntity
  8
SLD-0
  6
CONTINUOUS
 62
       3
100
AcDbLine
 10
-40.28132978
 20
59.59999934
 30
0.0
 11
-54.28133044
 21
59.59999934
 31
0.0
  0
LINE
  5
52
100
AcDbEntity
  8
SLD-0
  6
CONTINUOUS
 62
       3
100
AcDbLine
 10
-40.28132978
 20
-59.59999934
 30
0.0
 11
-40.28132978
 21
59.59999934
 31
0.0
  0
LINE
  5
53
100
AcDbEntity
  8
SLD-0
  6
CONTINUOUS
 62
       3
100
AcDbLine
 10
-40.78133079
 20
-18.99999939
 30
0.0
 11
-53.78133013
 21
-18.99999939
 31
0.0
  0
LINE
  5
54
100
AcDbEntity
  8
SLD-0
  6
CONTINUOUS
 62
       3
100
AcDbLine
 10
-40.78133079
 20
-20.99999971
 30
0.0
 11
-40.78133079
 21
-18.99999939
 31
0.0
  0
LINE
  5
55
100
AcDbEntity
  8
SLD-0
  6
CONTINUOUS
 62
       3
100
AcDbLine
 10
-53.78133013
 20
-20.99999971
 30
0.0
 11
-40.78133079
 21
-20.99999971
 31
0.0
  0
LINE
  5
56
100
AcDbEntity
  8
SLD-0
  6
CONTINUOUS
 62
       3
100
AcDbLine
 10
-53.78133013
 20
-18.99999939
 30
0.0
 11
-53.78133013
 21
-20.99999971
 31
0.0
  0
LINE
  5
57
100
AcDbEntity
  8
SLD-0
  6
CONTINUOUS
 62
       3
100
AcDbLine
 10
-40.78133079
 20
20.99999972
 30
0.0
 11
-53.78133013
 21
20.99999972
 31
0.0
  0
LINE
  5
58
100
AcDbEntity
  8
SLD-0
  6
CONTINUOUS
 62
       3
100
AcDbLine
 10
-40.78133079
 20
18.99999939
 30
0.0
 11
-40.78133079
 21
20.99999972
 31
0.0
  0
LINE
  5
59
100
AcDbEntity
  8
SLD-0
  6
CONTINUOUS
 62
       3
100
AcDbLine
 10
-53.78133013
 20
18.99999939
 30
0.0
 11
-40.78133079
 21
18.99999939
 31
0.0
  0
LINE
  5
5A
100
AcDbEntity
  8
SLD-0
  6
CONTINUOUS
 62
       3
100
AcDbLine
 10
-53.78133013
 20
20.99999972
 30
0.0
 11
-53.78133013
 21
18.99999939
 31
0.0
  0
LINE
  5
5B
100
AcDbEntity
  8
SLD-0
  6
CONTINUOUS
 62
       3
100
AcDbLine
 10
-40.78133079
 20
-28.99999916
 30
0.0
 11
-53.78133013
 21
-28.99999916
 31
0.0
  0
LINE
  5
5C
100
AcDbEntity
  8
SLD-0
  6
CONTINUOUS
 62
       3
100
AcDbLine
 10
-40.78133079
 20
-30.99999949
 30
0.0
 11
-40.78133079
 21
-28.99999916
 31
0.0
  0
LINE
  5
5D
100
AcDbEntity
  8
SLD-0
  6
CONTINUOUS
 62
       3
100
AcDbLine
 10
-53.78133013
 20
-28.99999916
 30
0.0
 11
-53.78133013
 21
-30.99999949
 31
0.0
  0
LINE
  5
5E
100
AcDbEntity
  8
SLD-0
  6
CONTINUOUS
 62
       3
100
AcDbLine
 10
-53.78133013
 20
-30.99999949
 30
0.0
 11
-40.78133079
 21
-30.99999949
 31
0.0
  0
LINE
  5
5F
100
AcDbEntity
  8
SLD-0
  6
CONTINUOUS
 62
       3
100
AcDbLine
 10
-40.78133079
 20
8.99999962
 30
0.0
 11
-40.78133079
 21
10.99999994
 31
0.0
  0
LINE
  5
60
100
AcDbEntity
  8
SLD-0
  6
CONTINUOUS
 62
       3
100
AcDbLine
 10
-53.78133013
 20
10.99999994
 30
0.0
 11
-53.78133013
 21
8.99999962
 31
0.0
  0
LINE
  5
61
100
AcDbEntity
  8
SLD-0
  6
CONTINUOUS
 62
       3
100
AcDbLine
 10
-53.78133013
 20
8.99999962
 30
0.0
 11
-40.78133079
 21
8.99999962
 31
0.0
  0
LINE
  5
62
100
AcDbEntity
  8
SLD-0
  6
CONTINUOUS
 62
       3
100
AcDbLine
 10
-40.78133079
 20
10.99999994
 30
0.0
 11
-53.78133013
 21
10.99999994
 31
0.0
  0
LINE
  5
63
100
AcDbEntity
  8
SLD-0
  6
CONTINUOUS
 62
       3
100
AcDbLine
 10
-40.78133079
 20
-48.99999872
 30
0.0
 11
-53.78133013
 21
-48.99999872
 31
0.0
  0
LINE
  5
64
100
AcDbEntity
  8
SLD-0
  6
CONTINUOUS
 62
       3
100
AcDbLine
 10
-53.78133013
 20
-50.99999904
 30
0.0
 11
-40.78133079
 21
-50.99999904
 31
0.0
  0
LINE
  5
65
100
AcDbEntity
  8
SLD-0
  6
CONTINUOUS
 62
       3
100
AcDbLine
 10
-53.78133013
 20
-48.99999872
 30
0.0
 11
-53.78133013
 21
-50.99999904
 31
0.0
  0
LINE
  5
66
100
AcDbEntity
  8
SLD-0
  6
CONTINUOUS
 62
       3
100
AcDbLine
 10
-40.78133079
 20
30.9999995
 30
0.0
 11
-53.78133013
 21
30.9999995
 31
0.0
  0
LINE
  5
67
100
AcDbEntity
  8
SLD-0
  6
CONTINUOUS
 62
       3
100
AcDbLine
 10
-53.78133013
 20
28.99999917
 30
0.0
 11
-40.78133079
 21
28.99999917
 31
0.0
  0
LINE
  5
68
100
AcDbEntity
  8
SLD-0
  6
CONTINUOUS
 62
       3
100
AcDbLine
 10
-53.78133013
 20
30.9999995
 30
0.0
 11
-53.78133013
 21
28.99999917
 31
0.0
  0
LINE
  5
69
100
AcDbEntity
  8
SLD-0
  6
CONTINUOUS
 62
       3
100
AcDbLine
 10
-40.78133079
 20
28.99999917
 30
0.0
 11
-40.78133079
 21
30.9999995
 31
0.0
  0
LINE
  5
6A
100
AcDbEntity
  8
SLD-0
  6
CONTINUOUS
 62
       3
100
AcDbLine
 10
-40.78133079
 20
-8.99999961
 30
0.0
 11
-53.78133013
 21
-8.99999961
 31
0.0
  0
LINE
  5
6B
100
AcDbEntity
  8
SLD-0
  6
CONTINUOUS
 62
       3
100
AcDbLine
 10
-53.78133013
 20
-10.99999994
 30
0.0
 11
-40.78133079
 21
-10.99999994
 31
0.0
  0
LINE
  5
6C
100
AcDbEntity
  8
SLD-0
  6
CONTINUOUS
 62
       3
100
AcDbLine
 10
-53.78133013
 20
-8.99999961
 30
0.0
 11
-53.78133013
 21
-10.99999994
 31
0.0
  0
LINE
  5
6D
100
AcDbEntity
  8
SLD-0
  6
CONTINUOUS
 62
       3
100
AcDbLine
 10
-40.78133079
 20
-10.99999994
 30
0.0
 11
-40.78133079
 21
-8.99999961
 31
0.0
  0
LINE
  5
6E
100
AcDbEntity
  8
SLD-0
  6
CONTINUOUS
 62
       3
100
AcDbLine
 10
-53.78133013
 20
50.99999905
 30
0.0
 11
-53.78133013
 21
48.99999872
 31
0.0
  0
LINE
  5
6F
100
AcDbEntity
  8
SLD-0
  6
CONTINUOUS
 62
       3
100
AcDbLine
 10
-40.78133079
 20
48.99999872
 30
0.0
 11
-40.78133079
 21
50.99999905
 31
0.0
  0
LINE
  5
70
100
AcDbEntity
  8
SLD-0
  6
CONTINUOUS
 62
       3
100
AcDbLine
 10
-40.78133079
 20
50.99999905
 30
0.0
 11
-53.78133013
 21
50.99999905
 31
0.0
  0
LINE
  5
71
100
AcDbEntity
  8
SLD-0
  6
CONTINUOUS
 62
       3
100
AcDbLine
 10
-53.78133013
 20
48.99999872
 30
0.0
 11
-40.78133079
 21
48.99999872
 31
0.0
  0
LINE
  5
72
100
AcDbEntity
  8
SLD-0
  6
CONTINUOUS
 62
       3
100
AcDbLine
 10
-53.78133013
 20
39.00000081
 30
0.0
 11
-40.78133079
 21
39.00000081
 31
0.0
  0
LINE
  5
73
100
AcDbEntity
  8
SLD-0
  6
CONTINUOUS
 62
       3
100
AcDbLine
 10
-53.78133013
 20
41.00000114
 30
0.0
 11
-53.78133013
 21
39.00000081
 31
0.0
  0
LINE
  5
74
100
AcDbEntity
  8
SLD-0
  6
CONTINUOUS
 62
       3
100
AcDbLine
 10
-40.78133079
 20
41.00000114
 30
0.0
 11
-53.78133013
 21
41.00000114
 31
0.0
  0
LINE
  5
75
100
AcDbEntity
  8
SLD-0
  6
CONTINUOUS
 62
       3
100
AcDbLine
 10
-40.78133079
 20
39.00000081
 30
0.0
 11
-40.78133079
 21
41.00000114
 31
0.0
  0
LINE
  5
76
100
AcDbEntity
  8
SLD-0
  6
CONTINUOUS
 62
       3
100
AcDbLine
 10
-53.78133013
 20
1.00000005
 30
0.0
 11
-53.78133013
 21
-1.00000004
 31
0.0
  0
LINE
  5
77
100
AcDbEntity
  8
SLD-0
  6
CONTINUOUS
 62
       3
100
AcDbLine
 10
-40.78133079
 20
-1.00000004
 30
0.0
 11
-40.78133079
 21
1.00000005
 31
0.0
  0
LINE
  5
78
100
AcDbEntity
  8
SLD-0
  6
CONTINUOUS
 62
       3
100
AcDbLine
 10
-40.78133079
 20
1.00000005
 30
0.0
 11
-53.78133013
 21
1.00000005
 31
0.0
  0
LINE
  5
79
100
AcDbEntity
  8
SLD-0
  6
CONTINUOUS
 62
       3
100
AcDbLine
 10
-53.78133013
 20
-1.00000004
 30
0.0
 11
-40.78133079
 21
-1.00000004
 31
0.0
  0
LINE
  5
7A
100
AcDbEntity
  8
SLD-0
  6
CONTINUOUS
 62
       3
100
AcDbLine
 10
-40.78133079
 20
-39.0000008
 30
0.0
 11
-53.78133013
 21
-39.0000008
 31
0.0
  0
LINE
  5
7B
100
AcDbEntity
  8
SLD-0
  6
CONTINUOUS
 62
       3
100
AcDbLine
 10
-53.78133013
 20
-39.0000008
 30
0.0
 11
-53.78133013
 21
-41.00000113
 31
0.0
  0
LINE
  5
7C
100
AcDbEntity
  8
SLD-0
  6
CONTINUOUS
 62
       3
100
AcDbLine
 10
-40.78133079
 20
-41.00000113
 30
0.0
 11
-40.78133079
 21
-39.0000008
 31
0.0
  0
LINE
  5
7D
100
AcDbEntity
  8
SLD-0
  6
CONTINUOUS
 62
       3
100
AcDbLine
 10
-53.78133013
 20
-41.00000113
 30
0.0
 11
-40.78133079
 21
-41.00000113
 31
0.0
  0
LINE
  5
7E
100
AcDbEntity
  8
SLD-0
  6
CONTINUOUS
 62
       3
100
AcDbLine
 10
-41.78133095
 20
10.99999994
 30
0.0
 11
-41.78133095
 21
18.99999939
 31
0.0
  0
LINE
  5
7F
100
AcDbEntity
  8
SLD-0
  6
CONTINUOUS
 62
       3
100
AcDbLine
 10
-52.78133043
 20
18.99999939
 30
0.0
 11
-52.78133043
 21
10.99999994
 31
0.0
  0
LINE
  5
80
100
AcDbEntity
  8
SLD-0
  6
CONTINUOUS
 62
       3
100
AcDbLine
 10
-41.78133095
 20
20.99999972
 30
0.0
 11
-41.78133095
 21
28.99999917
 31
0.0
  0
LINE
  5
81
100
AcDbEntity
  8
SLD-0
  6
CONTINUOUS
 62
       3
100
AcDbLine
 10
-52.78133043
 20
28.99999917
 30
0.0
 11
-52.78133043
 21
20.99999972
 31
0.0
  0
LINE
  5
82
100
AcDbEntity
  8
SLD-0
  6
CONTINUOUS
 62
       3
100
AcDbLine
 10
-41.78133095
 20
1.00000005
 30
0.0
 11
-41.78133095
 21
8.99999962
 31
0.0
  0
LINE
  5
83
100
AcDbEntity
  8
SLD-0
  6
CONTINUOUS
 62
       3
100
AcDbLine
 10
-40.78133079
 20
8.99999962
 30
0.0
 11
-40.78133079
 21
1.00000005
 31
0.0
  0
LINE
  5
84
100
AcDbEntity
  8
SLD-0
  6
CONTINUOUS
 62
       3
100
AcDbLine
 10
-52.78133043
 20
-30.99999949
 30
0.0
 11
-52.78133043
 21
-39.0000008
 31
0.0
  0
LINE
  5
85
100
AcDbEntity
  8
SLD-0
  6
CONTINUOUS
 62
       3
100
AcDbLine
 10
-53.78133013
 20
-39.0000008
 30
0.0
 11
-53.78133013
 21
-30.99999949
 31
0.0
  0
LINE
  5
86
100
AcDbEntity
  8
SLD-0
  6
CONTINUOUS
 62
       3
100
AcDbLine
 10
-41.78133095
 20
-28.99999916
 30
0.0
 11
-41.78133095
 21
-20.99999971
 31
0.0
  0
LINE
  5
87
100
AcDbEntity
  8
SLD-0
  6
CONTINUOUS
 62
       3
100
AcDbLine
 10
-52.78133043
 20
-20.99999971
 30
0.0
 11
-52.78133043
 21
-28.99999916
 31
0.0
  0
LINE
  5
88
100
AcDbEntity
  8
SLD-0
  6
CONTINUOUS
 62
       3
100
AcDbLine
 10
-53.78133013
 20
10.99999994
 30
0.0
 11
-53.78133013
 21
18.99999939
 31
0.0
  0
LINE
  5
89
100
AcDbEntity
  8
SLD-0
  6
CONTINUOUS
 62
       3
100
AcDbLine
 10
-40.78133079
 20
18.99999939
 30
0.0
 11
-40.78133079
 21
10.99999994
 31
0.0
  0
LINE
  5
8A
100
AcDbEntity
  8
SLD-0
  6
CONTINUOUS
 62
       3
100
AcDbLine
 10
-41.78133095
 20
-48.99999872
 30
0.0
 11
-41.78133095
 21
-41.00000113
 31
0.0
  0
LINE
  5
8B
100
AcDbEntity
  8
SLD-0
  6
CONTINUOUS
 62
       3
100
AcDbLine
 10
-52.78133043
 20
-41.00000113
 30
0.0
 11
-52.78133043
 21
-48.99999872
 31
0.0
  0
LINE
  5
8C
100
AcDbEntity
  8
SLD-0
  6
CONTINUOUS
 62
       3
100
AcDbLine
 10
-41.78133095
 20
-39.0000008
 30
0.0
 11
-41.78133095
 21
-30.99999949
 31
0.0
  0
LINE
  5
8D
100
AcDbEntity
  8
SLD-0
  6
CONTINUOUS
 62
       3
100
AcDbLine
 10
-40.78133079
 20
-30.99999949
 30
0.0
 11
-40.78133079
 21
-39.0000008
 31
0.0
  0
LINE
  5
8E
100
AcDbEntity
  8
SLD-0
  6
CONTINUOUS
 62
       3
100
AcDbLine
 10
-53.78133013
 20
-48.99999872
 30
0.0
 11
-53.78133013
 21
-41.00000113
 31
0.0
  0
LINE
  5
8F
100
AcDbEntity
  8
SLD-0
  6
CONTINUOUS
 62
       3
100
AcDbLine
 10
-40.78133079
 20
-41.00000113
 30
0.0
 11
-40.78133079
 21
-48.99999872
 31
0.0
  0
LINE
  5
90
100
AcDbEntity
  8
SLD-0
  6
CONTINUOUS
 62
       3
100
AcDbLine
 10
-52.78133043
 20
8.99999962
 30
0.0
 11
-52.78133043
 21
1.00000005
 31
0.0
  0
LINE
  5
91
100
AcDbEntity
  8
SLD-0
  6
CONTINUOUS
 62
       3
100
AcDbLine
 10
-53.78133013
 20
1.00000005
 30
0.0
 11
-53.78133013
 21
8.99999962
 31
0.0
  0
LINE
  5
92
100
AcDbEntity
  8
SLD-0
  6
CONTINUOUS
 62
       3
100
AcDbLine
 10
-52.78133043
 20
48.99999872
 30
0.0
 11
-52.78133043
 21
41.00000114
 31
0.0
  0
LINE
  5
93
100
AcDbEntity
  8
SLD-0
  6
CONTINUOUS
 62
       3
100
AcDbLine
 10
-53.78133013
 20
41.00000114
 30
0.0
 11
-53.78133013
 21
48.99999872
 31
0.0
  0
LINE
  5
94
100
AcDbEntity
  8
SLD-0
  6
CONTINUOUS
 62
       3
100
AcDbLine
 10
-53.78133013
 20
-28.99999916
 30
0.0
 11
-53.78133013
 21
-20.99999971
 31
0.0
  0
LINE
  5
95
100
AcDbEntity
  8
SLD-0
  6
CONTINUOUS
 62
       3
100
AcDbLine
 10
-40.78133079
 20
-20.99999971
 30
0.0
 11
-40.78133079
 21
-28.99999916
 31
0.0
  0
LINE
  5
96
100
AcDbEntity
  8
SLD-0
  6
CONTINUOUS
 62
       3
100
AcDbLine
 10
-41.78133095
 20
-8.99999961
 30
0.0
 11
-41.78133095
 21
-1.00000004
 31
0.0
  0
LINE
  5
97
100
AcDbEntity
  8
SLD-0
  6
CONTINUOUS
 62
       3
100
AcDbLine
 10
-52.78133043
 20
-1.00000004
 30
0.0
 11
-52.78133043
 21
-8.99999961
 31
0.0
  0
LINE
  5
98
100
AcDbEntity
  8
SLD-0
  6
CONTINUOUS
 62
       3
100
AcDbLine
 10
-40.78133079
 20
-1.00000004
 30
0.0
 11
-40.78133079
 21
-8.99999961
 31
0.0
  0
LINE
  5
99
100
AcDbEntity
  8
SLD-0
  6
CONTINUOUS
 62
       3
100
AcDbLine
 10
-41.78133095
 20
30.9999995
 30
0.0
 11
-41.78133095
 21
39.00000081
 31
0.0
  0
LINE
  5
9A
100
AcDbEntity
  8
SLD-0
  6
CONTINUOUS
 62
       3
100
AcDbLine
 10
-40.78133079
 20
39.00000081
 30
0.0
 11
-40.78133079
 21
30.9999995
 31
0.0
  0
LINE
  5
9B
100
AcDbEntity
  8
SLD-0
  6
CONTINUOUS
 62
       3
100
AcDbLine
 10
-41.78133095
 20
41.00000114
 30
0.0
 11
-41.78133095
 21
48.99999872
 31
0.0
  0
LINE
  5
9C
100
AcDbEntity
  8
SLD-0
  6
CONTINUOUS
 62
       3
100
AcDbLine
 10
-53.78133013
 20
20.99999972
 30
0.0
 11
-53.78133013
 21
28.99999917
 31
0.0
  0
LINE
  5
9D
100
AcDbEntity
  8
SLD-0
  6
CONTINUOUS
 62
       3
100
AcDbLine
 10
-40.78133079
 20
48.99999872
 30
0.0
 11
-40.78133079
 21
41.00000114
 31
0.0
  0
LINE
  5
9E
100
AcDbEntity
  8
SLD-0
  6
CONTINUOUS
 62
       3
100
AcDbLine
 10
-40.78133079
 20
28.99999917
 30
0.0
 11
-40.78133079
 21
20.99999972
 31
0.0
  0
LINE
  5
9F
100
AcDbEntity
  8
SLD-0
  6
CONTINUOUS
 62
       3
100
AcDbLine
 10
-52.78133043
 20
39.00000081
 30
0.0
 11
-52.78133043
 21
30.9999995
 31
0.0
  0
LINE
  5
A0
100
AcDbEntity
  8
SLD-0
  6
CONTINUOUS
 62
       3
100
AcDbLine
 10
-53.78133013
 20
30.9999995
 30
0.0
 11
-53.78133013
 21
39.00000081
 31
0.0
  0
LINE
  5
A1
100
AcDbEntity
  8
SLD-0
  6
CONTINUOUS
 62
       3
100
AcDbLine
 10
-53.78133013
 20
-8.99999961
 30
0.0
 11
-53.78133013
 21
-1.00000004
 31
0.0
  0
LINE
  5
A2
100
AcDbEntity
  8
SLD-0
  6
CONTINUOUS
 62
       3
100
AcDbLine
 10
-41.78133095
 20
-18.99999939
 30
0.0
 11
-41.78133095
 21
-10.99999994
 31
0.0
  0
LINE
  5
A3
100
AcDbEntity
  8
SLD-0
  6
CONTINUOUS
 62
       3
100
AcDbLine
 10
-52.78133043
 20
-10.99999994
 30
0.0
 11
-52.78133043
 21
-18.99999939
 31
0.0
  0
LINE
  5
A4
100
AcDbEntity
  8
SLD-0
  6
CONTINUOUS
 62
       3
100
AcDbLine
 10
-53.78133013
 20
-18.99999939
 30
0.0
 11
-53.78133013
 21
-10.99999994
 31
0.0
  0
LINE
  5
A5
100
AcDbEntity
  8
SLD-0
  6
CONTINUOUS
 62
       3
100
AcDbLine
 10
-40.78133079
 20
-10.99999994
 30
0.0
 11
-40.78133079
 21
-18.99999939
 31
0.0
  0
LINE
  5
A6
100
AcDbEntity
  8
SLD-0
  6
CONTINUOUS
 62
       3
100
AcDbLine
 10
72.1313308
 20
58.15000087
 30
0.0
 11
70.83132742
 21
58.03626404
 31
0.0
  0
LINE
  5
A7
100
AcDbEntity
  8
SLD-0
  6
CONTINUOUS
 62
       3
100
AcDbLine
 10
70.83132742
 20
51.96373538
 30
0.0
 11
72.1313308
 21
51.84999854
 31
0.0
  0
LINE
  5
A8
100
AcDbEntity
  8
SLD-0
  6
CONTINUOUS
 62
       3
100
AcDbLine
 10
72.1313308
 20
-51.84999853
 30
0.0
 11
70.83132742
 21
-51.96373537
 31
0.0
  0
LINE
  5
A9
100
AcDbEntity
  8
SLD-0
  6
CONTINUOUS
 62
       3
100
AcDbLine
 10
70.83132742
 20
-58.03626403
 30
0.0
 11
72.1313308
 21
-58.15000087
 31
0.0
  0
LINE
  5
AA
100
AcDbEntity
  8
SLD-0
  6
CONTINUOUS
 62
       3
100
AcDbLine
 10
70.86217192
 20
11.49999968
 30
0.0
 11
71.93132651
 21
11.49999968
 31
0.0
  0
LINE
  5
AB
100
AcDbEntity
  8
SLD-0
  6
CONTINUOUS
 62
       3
100
AcDbLine
 10
71.93132651
 20
18.50000055
 30
0.0
 11
70.86217166
 21
18.50000055
 31
0.0
  0
LINE
  5
AC
100
AcDbEntity
  8
SLD-0
  6
CONTINUOUS
 62
       3
100
AcDbLine
 10
70.86217209
 20
-18.50000039
 30
0.0
 11
71.93132668
 21
-18.50000039
 31
0.0
  0
LINE
  5
AD
100
AcDbEntity
  8
SLD-0
  6
CONTINUOUS
 62
       3
100
AcDbLine
 10
71.93132668
 20
-11.49999952
 30
0.0
 11
70.8621715
 21
-11.49999952
 31
0.0
  0
LINE
  5
AE
100
AcDbEntity
  8
SLD-0
  6
CONTINUOUS
 62
       3
100
AcDbLine
 10
70.86217197
 20
1.49999969
 30
0.0
 11
71.93132656
 21
1.49999969
 31
0.0
  0
LINE
  5
AF
100
AcDbEntity
  8
SLD-0
  6
CONTINUOUS
 62
       3
100
AcDbLine
 10
71.93132656
 20
8.50000063
 30
0.0
 11
70.86217175
 21
8.50000063
 31
0.0
  0
LINE
  5
B0
100
AcDbEntity
  8
SLD-0
  6
CONTINUOUS
 62
       3
100
AcDbLine
 10
70.86217143
 20
21.49999985
 30
0.0
 11
71.93132602
 21
21.49999985
 31
0.0
  0
LINE
  5
B1
100
AcDbEntity
  8
SLD-0
  6
CONTINUOUS
 62
       3
100
AcDbLine
 10
71.93132602
 20
28.50000048
 30
0.0
 11
70.86217157
 21
28.50000048
 31
0.0
  0
LINE
  5
B2
100
AcDbEntity
  8
SLD-0
  6
CONTINUOUS
 62
       3
100
AcDbLine
 10
70.86217158
 20
31.4999998
 30
0.0
 11
71.93132617
 21
31.4999998
 31
0.0
  0
LINE
  5
B3
100
AcDbEntity
  8
SLD-0
  6
CONTINUOUS
 62
       3
100
AcDbLine
 10
71.93132617
 20
38.50000044
 30
0.0
 11
70.86217137
 21
38.50000044
 31
0.0
  0
LINE
  5
B4
100
AcDbEntity
  8
SLD-0
  6
CONTINUOUS
 62
       3
100
AcDbLine
 10
70.86217215
 20
-8.50000048
 30
0.0
 11
71.93132674
 21
-8.50000048
 31
0.0
  0
LINE
  5
B5
100
AcDbEntity
  8
SLD-0
  6
CONTINUOUS
 62
       3
100
AcDbLine
 10
71.93132674
 20
-1.49999952
 30
0.0
 11
70.86217151
 21
-1.49999952
 31
0.0
  0
LINE
  5
B6
100
AcDbEntity
  8
SLD-0
  6
CONTINUOUS
 62
       3
100
AcDbLine
 10
70.86217304
 20
41.49999929
 30
0.0
 11
71.93132763
 21
41.49999929
 31
0.0
  0
LINE
  5
B7
100
AcDbEntity
  8
SLD-0
  6
CONTINUOUS
 62
       3
100
AcDbLine
 10
71.93132763
 20
48.50000093
 30
0.0
 11
70.86217226
 21
48.50000093
 31
0.0
  0
LINE
  5
B8
100
AcDbEntity
  8
SLD-0
  6
CONTINUOUS
 62
       3
100
AcDbLine
 10
70.86217195
 20
-28.50000033
 30
0.0
 11
71.93132654
 21
-28.50000033
 31
0.0
  0
LINE
  5
B9
100
AcDbEntity
  8
SLD-0
  6
CONTINUOUS
 62
       3
100
AcDbLine
 10
71.93132654
 20
-21.49999974
 30
0.0
 11
70.86217115
 21
-21.49999974
 31
0.0
  0
LINE
  5
BA
100
AcDbEntity
  8
SLD-0
  6
CONTINUOUS
 62
       3
100
AcDbLine
 10
70.86217179
 20
-38.50000027
 30
0.0
 11
71.93132638
 21
-38.50000027
 31
0.0
  0
LINE
  5
BB
100
AcDbEntity
  8
SLD-0
  6
CONTINUOUS
 62
       3
100
AcDbLine
 10
71.93132638
 20
-31.49999966
 30
0.0
 11
70.86217124
 21
-31.49999966
 31
0.0
  0
LINE
  5
BC
100
AcDbEntity
  8
SLD-0
  6
CONTINUOUS
 62
       3
100
AcDbLine
 10
70.86217293
 20
-48.50000067
 30
0.0
 11
71.93132753
 21
-48.50000067
 31
0.0
  0
LINE
  5
BD
100
AcDbEntity
  8
SLD-0
  6
CONTINUOUS
 62
       3
100
AcDbLine
 10
71.93132753
 20
-41.49999902
 30
0.0
 11
70.86217232
 21
-41.49999902
 31
0.0
  0
LINE
  5
BE
100
AcDbEntity
  8
SLD-0
  6
CONTINUOUS
 62
       3
100
AcDbLine
 10
71.93132741
 20
21.90000005
 30
0.0
 11
72.73132978
 21
21.90000005
 31
0.0
  0
LINE
  5
BF
100
AcDbEntity
  8
SLD-0
  6
CONTINUOUS
 62
       3
100
AcDbLine
 10
72.73132978
 20
28.1000007
 30
0.0
 11
71.93132741
 21
28.1000007
 31
0.0
  0
LINE
  5
C0
100
AcDbEntity
  8
SLD-0
  6
CONTINUOUS
 62
       3
100
AcDbLine
 10
71.93132741
 20
-18.10000091
 30
0.0
 11
72.73132978
 21
-18.10000091
 31
0.0
  0
LINE
  5
C1
100
AcDbEntity
  8
SLD-0
  6
CONTINUOUS
 62
       3
100
AcDbLine
 10
72.73132978
 20
-11.90000027
 30
0.0
 11
71.93132741
 21
-11.90000027
 31
0.0
  0
LINE
  5
C2
100
AcDbEntity
  8
SLD-0
  6
CONTINUOUS
 62
       3
100
AcDbLine
 10
71.93132741
 20
41.90000147
 30
0.0
 11
72.73132978
 21
41.90000147
 31
0.0
  0
LINE
  5
C3
100
AcDbEntity
  8
SLD-0
  6
CONTINUOUS
 62
       3
100
AcDbLine
 10
72.73132978
 20
48.09999839
 30
0.0
 11
71.93132741
 21
48.09999839
 31
0.0
  0
LINE
  5
C4
100
AcDbEntity
  8
SLD-0
  6
CONTINUOUS
 62
       3
100
AcDbLine
 10
71.93132741
 20
11.90000028
 30
0.0
 11
72.73132978
 21
11.90000028
 31
0.0
  0
LINE
  5
C5
100
AcDbEntity
  8
SLD-0
  6
CONTINUOUS
 62
       3
100
AcDbLine
 10
72.73132978
 20
18.10000092
 30
0.0
 11
71.93132741
 21
18.10000092
 31
0.0
  0
LINE
  5
C6
100
AcDbEntity
  8
SLD-0
  6
CONTINUOUS
 62
       3
100
AcDbLine
 10
71.93132741
 20
-38.10000047
 30
0.0
 11
72.73132978
 21
-38.10000047
 31
0.0
  0
LINE
  5
C7
100
AcDbEntity
  8
SLD-0
  6
CONTINUOUS
 62
       3
100
AcDbLine
 10
72.73132978
 20
-31.89999982
 30
0.0
 11
71.93132741
 21
-31.89999982
 31
0.0
  0
LINE
  5
C8
100
AcDbEntity
  8
SLD-0
  6
CONTINUOUS
 62
       3
100
AcDbLine
 10
71.93132741
 20
1.90000004
 30
0.0
 11
72.73132978
 21
1.90000004
 31
0.0
  0
LINE
  5
C9
100
AcDbEntity
  8
SLD-0
  6
CONTINUOUS
 62
       3
100
AcDbLine
 10
72.73132978
 20
8.10000021
 30
0.0
 11
71.93132741
 21
8.10000021
 31
0.0
  0
LINE
  5
CA
100
AcDbEntity
  8
SLD-0
  6
CONTINUOUS
 62
       3
100
AcDbLine
 10
71.93132741
 20
-48.09999838
 30
0.0
 11
72.73132978
 21
-48.09999838
 31
0.0
  0
LINE
  5
CB
100
AcDbEntity
  8
SLD-0
  6
CONTINUOUS
 62
       3
100
AcDbLine
 10
72.73132978
 20
-41.90000146
 30
0.0
 11
71.93132741
 21
-41.90000146
 31
0.0
  0
LINE
  5
CC
100
AcDbEntity
  8
SLD-0
  6
CONTINUOUS
 62
       3
100
AcDbLine
 10
71.93132741
 20
-28.10000069
 30
0.0
 11
72.73132978
 21
-28.10000069
 31
0.0
  0
LINE
  5
CD
100
AcDbEntity
  8
SLD-0
  6
CONTINUOUS
 62
       3
100
AcDbLine
 10
72.73132978
 20
-21.90000005
 30
0.0
 11
71.93132741
 21
-21.90000005
 31
0.0
  0
LINE
  5
CE
100
AcDbEntity
  8
SLD-0
  6
CONTINUOUS
 62
       3
100
AcDbLine
 10
71.93132741
 20
-8.10000021
 30
0.0
 11
72.73132978
 21
-8.10000021
 31
0.0
  0
LINE
  5
CF
100
AcDbEntity
  8
SLD-0
  6
CONTINUOUS
 62
       3
100
AcDbLine
 10
72.73132978
 20
-1.90000003
 30
0.0
 11
71.93132741
 21
-1.90000003
 31
0.0
  0
LINE
  5
D0
100
AcDbEntity
  8
SLD-0
  6
CONTINUOUS
 62
       3
100
AcDbLine
 10
71.93132741
 20
31.89999983
 30
0.0
 11
72.73132978
 21
31.89999983
 31
0.0
  0
LINE
  5
D1
100
AcDbEntity
  8
SLD-0
  6
CONTINUOUS
 62
       3
100
AcDbLine
 10
72.73132978
 20
38.10000047
 30
0.0
 11
71.93132741
 21
38.10000047
 31
0.0
  0
LINE
  5
D2
100
AcDbEntity
  8
SLD-0
  6
CONTINUOUS
 62
       3
100
AcDbLine
 10
65.73133049
 20
-59.99999866
 30
0.0
 11
66.73132879
 21
-59.99999866
 31
0.0
  0
LINE
  5
D3
100
AcDbEntity
  8
SLD-0
  6
CONTINUOUS
 62
       3
100
AcDbLine
 10
65.73133049
 20
-59.99999866
 30
0.0
 11
65.73133049
 21
-56.60000071
 31
0.0
  0
LINE
  5
D4
100
AcDbEntity
  8
SLD-0
  6
CONTINUOUS
 62
       3
100
AcDbLine
 10
66.73132879
 20
-56.60000071
 30
0.0
 11
65.73133049
 21
-56.60000071
 31
0.0
  0
LINE
  5
D5
100
AcDbEntity
  8
SLD-0
  6
CONTINUOUS
 62
       3
100
AcDbLine
 10
66.73132879
 20
-59.99999866
 30
0.0
 11
66.73132879
 21
-56.60000071
 31
0.0
  0
LINE
  5
D6
100
AcDbEntity
  8
SLD-0
  6
CONTINUOUS
 62
       3
100
AcDbLine
 10
66.73132879
 20
-46.59999907
 30
0.0
 11
65.73133049
 21
-46.59999907
 31
0.0
  0
LINE
  5
D7
100
AcDbEntity
  8
SLD-0
  6
CONTINUOUS
 62
       3
100
AcDbLine
 10
66.73132879
 20
-53.39999869
 30
0.0
 11
66.73132879
 21
-46.59999907
 31
0.0
  0
LINE
  5
D8
100
AcDbEntity
  8
SLD-0
  6
CONTINUOUS
 62
       3
100
AcDbLine
 10
66.73132879
 20
-53.39999869
 30
0.0
 11
65.73133049
 21
-53.39999869
 31
0.0
  0
LINE
  5
D9
100
AcDbEntity
  8
SLD-0
  6
CONTINUOUS
 62
       3
100
AcDbLine
 10
65.73133049
 20
-53.39999869
 30
0.0
 11
65.73133049
 21
-50.14999956
 31
0.0
  0
LINE
  5
DA
100
AcDbEntity
  8
SLD-0
  6
CONTINUOUS
 62
       3
100
AcDbLine
 10
66.03132812
 20
-50.14999956
 30
0.0
 11
65.73133049
 21
-50.14999956
 31
0.0
  0
LINE
  5
DB
100
AcDbEntity
  8
SLD-0
  6
CONTINUOUS
 62
       3
100
AcDbLine
 10
66.03132812
 20
-50.14999956
 30
0.0
 11
66.03132812
 21
-49.8499982
 31
0.0
  0
LINE
  5
DC
100
AcDbEntity
  8
SLD-0
  6
CONTINUOUS
 62
       3
100
AcDbLine
 10
66.03132812
 20
-49.8499982
 30
0.0
 11
65.73133049
 21
-49.8499982
 31
0.0
  0
LINE
  5
DD
100
AcDbEntity
  8
SLD-0
  6
CONTINUOUS
 62
       3
100
AcDbLine
 10
65.73133049
 20
-49.8499982
 30
0.0
 11
65.73133049
 21
-46.59999907
 31
0.0
  0
LINE
  5
DE
100
AcDbEntity
  8
SLD-0
  6
CONTINUOUS
 62
       3
100
AcDbLine
 10
66.73132879
 20
-36.60000115
 30
0.0
 11
65.73133049
 21
-36.60000115
 31
0.0
  0
LINE
  5
DF
100
AcDbEntity
  8
SLD-0
  6
CONTINUOUS
 62
       3
100
AcDbLine
 10
65.73133049
 20
-43.40000078
 30
0.0
 11
65.73133049
 21
-40.15000164
 31
0.0
  0
LINE
  5
E0
100
AcDbEntity
  8
SLD-0
  6
CONTINUOUS
 62
       3
100
AcDbLine
 10
66.03132812
 20
-40.15000164
 30
0.0
 11
65.73133049
 21
-40.15000164
 31
0.0
  0
LINE
  5
E1
100
AcDbEntity
  8
SLD-0
  6
CONTINUOUS
 62
       3
100
AcDbLine
 10
66.03132812
 20
-40.15000164
 30
0.0
 11
66.03132812
 21
-39.85000029
 31
0.0
  0
LINE
  5
E2
100
AcDbEntity
  8
SLD-0
  6
CONTINUOUS
 62
       3
100
AcDbLine
 10
66.03132812
 20
-39.85000029
 30
0.0
 11
65.73133049
 21
-39.85000029
 31
0.0
  0
LINE
  5
E3
100
AcDbEntity
  8
SLD-0
  6
CONTINUOUS
 62
       3
100
AcDbLine
 10
65.73133049
 20
-39.85000029
 30
0.0
 11
65.73133049
 21
-36.60000115
 31
0.0
  0
LINE
  5
E4
100
AcDbEntity
  8
SLD-0
  6
CONTINUOUS
 62
       3
100
AcDbLine
 10
66.73132879
 20
-43.40000078
 30
0.0
 11
65.73133049
 21
-43.40000078
 31
0.0
  0
LINE
  5
E5
100
AcDbEntity
  8
SLD-0
  6
CONTINUOUS
 62
       3
100
AcDbLine
 10
66.73132879
 20
-43.40000078
 30
0.0
 11
66.73132879
 21
-36.60000115
 31
0.0
  0
LINE
  5
E6
100
AcDbEntity
  8
SLD-0
  6
CONTINUOUS
 62
       3
100
AcDbLine
 10
66.73132879
 20
-26.59999951
 30
0.0
 11
65.73133049
 21
-26.59999951
 31
0.0
  0
LINE
  5
E7
100
AcDbEntity
  8
SLD-0
  6
CONTINUOUS
 62
       3
100
AcDbLine
 10
66.73132879
 20
-33.39999914
 30
0.0
 11
65.73133049
 21
-33.39999914
 31
0.0
  0
LINE
  5
E8
100
AcDbEntity
  8
SLD-0
  6
CONTINUOUS
 62
       3
100
AcDbLine
 10
65.73133049
 20
-33.39999914
 30
0.0
 11
65.73133049
 21
-30.15
 31
0.0
  0
LINE
  5
E9
100
AcDbEntity
  8
SLD-0
  6
CONTINUOUS
 62
       3
100
AcDbLine
 10
66.03132812
 20
-30.15
 30
0.0
 11
65.73133049
 21
-30.15
 31
0.0
  0
LINE
  5
EA
100
AcDbEntity
  8
SLD-0
  6
CONTINUOUS
 62
       3
100
AcDbLine
 10
66.03132812
 20
-30.15
 30
0.0
 11
66.03132812
 21
-29.85000051
 31
0.0
  0
LINE
  5
EB
100
AcDbEntity
  8
SLD-0
  6
CONTINUOUS
 62
       3
100
AcDbLine
 10
66.03132812
 20
-29.85000051
 30
0.0
 11
65.73133049
 21
-29.85000051
 31
0.0
  0
LINE
  5
EC
100
AcDbEntity
  8
SLD-0
  6
CONTINUOUS
 62
       3
100
AcDbLine
 10
65.73133049
 20
-29.85000051
 30
0.0
 11
65.73133049
 21
-26.59999951
 31
0.0
  0
LINE
  5
ED
100
AcDbEntity
  8
SLD-0
  6
CONTINUOUS
 62
       3
100
AcDbLine
 10
66.73132879
 20
-33.39999914
 30
0.0
 11
66.73132879
 21
-26.59999951
 31
0.0
  0
LINE
  5
EE
100
AcDbEntity
  8
SLD-0
  6
CONTINUOUS
 62
       3
100
AcDbLine
 10
66.73132879
 20
-16.59999974
 30
0.0
 11
65.73133049
 21
-16.59999974
 31
0.0
  0
LINE
  5
EF
100
AcDbEntity
  8
SLD-0
  6
CONTINUOUS
 62
       3
100
AcDbLine
 10
66.73132879
 20
-23.39999936
 30
0.0
 11
65.73133049
 21
-23.39999936
 31
0.0
  0
LINE
  5
F0
100
AcDbEntity
  8
SLD-0
  6
CONTINUOUS
 62
       3
100
AcDbLine
 10
65.73133049
 20
-23.39999936
 30
0.0
 11
65.73133049
 21
-20.15000023
 31
0.0
  0
LINE
  5
F1
100
AcDbEntity
  8
SLD-0
  6
CONTINUOUS
 62
       3
100
AcDbLine
 10
66.03132812
 20
-20.15000023
 30
0.0
 11
65.73133049
 21
-20.15000023
 31
0.0
  0
LINE
  5
F2
100
AcDbEntity
  8
SLD-0
  6
CONTINUOUS
 62
       3
100
AcDbLine
 10
66.03132812
 20
-20.15000023
 30
0.0
 11
66.03132812
 21
-19.85000074
 31
0.0
  0
LINE
  5
F3
100
AcDbEntity
  8
SLD-0
  6
CONTINUOUS
 62
       3
100
AcDbLine
 10
66.03132812
 20
-19.85000074
 30
0.0
 11
65.73133049
 21
-19.85000074
 31
0.0
  0
LINE
  5
F4
100
AcDbEntity
  8
SLD-0
  6
CONTINUOUS
 62
       3
100
AcDbLine
 10
65.73133049
 20
-19.85000074
 30
0.0
 11
65.73133049
 21
-16.59999974
 31
0.0
  0
LINE
  5
F5
100
AcDbEntity
  8
SLD-0
  6
CONTINUOUS
 62
       3
100
AcDbLine
 10
66.73132879
 20
-23.39999936
 30
0.0
 11
66.73132879
 21
-16.59999974
 31
0.0
  0
LINE
  5
F6
100
AcDbEntity
  8
SLD-0
  6
CONTINUOUS
 62
       3
100
AcDbLine
 10
66.73132879
 20
-6.59999996
 30
0.0
 11
65.73133049
 21
-6.59999996
 31
0.0
  0
LINE
  5
F7
100
AcDbEntity
  8
SLD-0
  6
CONTINUOUS
 62
       3
100
AcDbLine
 10
65.73133049
 20
-13.39999959
 30
0.0
 11
65.73133049
 21
-10.15000045
 31
0.0
  0
LINE
  5
F8
100
AcDbEntity
  8
SLD-0
  6
CONTINUOUS
 62
       3
100
AcDbLine
 10
66.03132812
 20
-10.15000045
 30
0.0
 11
65.73133049
 21
-10.15000045
 31
0.0
  0
LINE
  5
F9
100
AcDbEntity
  8
SLD-0
  6
CONTINUOUS
 62
       3
100
AcDbLine
 10
66.03132812
 20
-10.15000045
 30
0.0
 11
66.03132812
 21
-9.85000003
 31
0.0
  0
LINE
  5
FA
100
AcDbEntity
  8
SLD-0
  6
CONTINUOUS
 62
       3
100
AcDbLine
 10
66.03132812
 20
-9.85000003
 30
0.0
 11
65.73133049
 21
-9.85000003
 31
0.0
  0
LINE
  5
FB
100
AcDbEntity
  8
SLD-0
  6
CONTINUOUS
 62
       3
100
AcDbLine
 10
65.73133049
 20
-9.85000003
 30
0.0
 11
65.73133049
 21
-6.59999996
 31
0.0
  0
LINE
  5
FC
100
AcDbEntity
  8
SLD-0
  6
CONTINUOUS
 62
       3
100
AcDbLine
 10
66.73132879
 20
-13.39999959
 30
0.0
 11
65.73133049
 21
-13.39999959
 31
0.0
  0
LINE
  5
FD
100
AcDbEntity
  8
SLD-0
  6
CONTINUOUS
 62
       3
100
AcDbLine
 10
66.73132879
 20
-13.39999959
 30
0.0
 11
66.73132879
 21
-6.59999996
 31
0.0
  0
LINE
  5
FE
100
AcDbEntity
  8
SLD-0
  6
CONTINUOUS
 62
       3
100
AcDbLine
 10
66.73132879
 20
3.40000005
 30
0.0
 11
65.73133049
 21
3.40000005
 31
0.0
  0
LINE
  5
FF
100
AcDbEntity
  8
SLD-0
  6
CONTINUOUS
 62
       3
100
AcDbLine
 10
65.73133049
 20
-3.40000004
 30
0.0
 11
65.73133049
 21
-0.15
 31
0.0
  0
LINE
  5
100
100
AcDbEntity
  8
SLD-0
  6
CONTINUOUS
 62
       3
100
AcDbLine
 10
66.03132812
 20
-0.15
 30
0.0
 11
65.73133049
 21
-0.15
 31
0.0
  0
LINE
  5
101
100
AcDbEntity
  8
SLD-0
  6
CONTINUOUS
 62
       3
100
AcDbLine
 10
66.03132812
 20
-0.15
 30
0.0
 11
66.03132812
 21
0.15000001
 31
0.0
  0
LINE
  5
102
100
AcDbEntity
  8
SLD-0
  6
CONTINUOUS
 62
       3
100
AcDbLine
 10
66.03132812
 20
0.15000001
 30
0.0
 11
65.73133049
 21
0.15000001
 31
0.0
  0
LINE
  5
103
100
AcDbEntity
  8
SLD-0
  6
CONTINUOUS
 62
       3
100
AcDbLine
 10
65.73133049
 20
0.15000001
 30
0.0
 11
65.73133049
 21
3.40000005
 31
0.0
  0
LINE
  5
104
100
AcDbEntity
  8
SLD-0
  6
CONTINUOUS
 62
       3
100
AcDbLine
 10
66.73132879
 20
-3.40000004
 30
0.0
 11
65.73133049
 21
-3.40000004
 31
0.0
  0
LINE
  5
105
100
AcDbEntity
  8
SLD-0
  6
CONTINUOUS
 62
       3
100
AcDbLine
 10
66.73132879
 20
-3.40000004
 30
0.0
 11
66.73132879
 21
3.40000005
 31
0.0
  0
LINE
  5
106
100
AcDbEntity
  8
SLD-0
  6
CONTINUOUS
 62
       3
100
AcDbLine
 10
66.73132879
 20
23.39999937
 30
0.0
 11
65.73133049
 21
23.39999937
 31
0.0
  0
LINE
  5
107
100
AcDbEntity
  8
SLD-0
  6
CONTINUOUS
 62
       3
100
AcDbLine
 10
66.73132879
 20
16.59999974
 30
0.0
 11
65.73133049
 21
16.59999974
 31
0.0
  0
LINE
  5
108
100
AcDbEntity
  8
SLD-0
  6
CONTINUOUS
 62
       3
100
AcDbLine
 10
65.73133049
 20
16.59999974
 30
0.0
 11
65.73133049
 21
19.85000074
 31
0.0
  0
LINE
  5
109
100
AcDbEntity
  8
SLD-0
  6
CONTINUOUS
 62
       3
100
AcDbLine
 10
66.03132812
 20
19.85000074
 30
0.0
 11
65.73133049
 21
19.85000074
 31
0.0
  0
LINE
  5
10A
100
AcDbEntity
  8
SLD-0
  6
CONTINUOUS
 62
       3
100
AcDbLine
 10
66.03132812
 20
19.85000074
 30
0.0
 11
66.03132812
 21
20.15000023
 31
0.0
  0
LINE
  5
10B
100
AcDbEntity
  8
SLD-0
  6
CONTINUOUS
 62
       3
100
AcDbLine
 10
66.03132812
 20
20.15000023
 30
0.0
 11
65.73133049
 21
20.15000023
 31
0.0
  0
LINE
  5
10C
100
AcDbEntity
  8
SLD-0
  6
CONTINUOUS
 62
       3
100
AcDbLine
 10
65.73133049
 20
20.15000023
 30
0.0
 11
65.73133049
 21
23.39999937
 31
0.0
  0
LINE
  5
10D
100
AcDbEntity
  8
SLD-0
  6
CONTINUOUS
 62
       3
100
AcDbLine
 10
66.73132879
 20
16.59999974
 30
0.0
 11
66.73132879
 21
23.39999937
 31
0.0
  0
LINE
  5
10E
100
AcDbEntity
  8
SLD-0
  6
CONTINUOUS
 62
       3
100
AcDbLine
 10
66.73132879
 20
13.39999959
 30
0.0
 11
65.73133049
 21
13.39999959
 31
0.0
  0
LINE
  5
10F
100
AcDbEntity
  8
SLD-0
  6
CONTINUOUS
 62
       3
100
AcDbLine
 10
65.73133049
 20
6.59999997
 30
0.0
 11
65.73133049
 21
9.85000003
 31
0.0
  0
LINE
  5
110
100
AcDbEntity
  8
SLD-0
  6
CONTINUOUS
 62
       3
100
AcDbLine
 10
66.03132812
 20
9.85000003
 30
0.0
 11
65.73133049
 21
9.85000003
 31
0.0
  0
LINE
  5
111
100
AcDbEntity
  8
SLD-0
  6
CONTINUOUS
 62
       3
100
AcDbLine
 10
66.03132812
 20
9.85000003
 30
0.0
 11
66.03132812
 21
10.15000046
 31
0.0
  0
LINE
  5
112
100
AcDbEntity
  8
SLD-0
  6
CONTINUOUS
 62
       3
100
AcDbLine
 10
66.03132812
 20
10.15000046
 30
0.0
 11
65.73133049
 21
10.15000046
 31
0.0
  0
LINE
  5
113
100
AcDbEntity
  8
SLD-0
  6
CONTINUOUS
 62
       3
100
AcDbLine
 10
65.73133049
 20
10.15000046
 30
0.0
 11
65.73133049
 21
13.39999959
 31
0.0
  0
LINE
  5
114
100
AcDbEntity
  8
SLD-0
  6
CONTINUOUS
 62
       3
100
AcDbLine
 10
66.73132879
 20
6.59999997
 30
0.0
 11
65.73133049
 21
6.59999997
 31
0.0
  0
LINE
  5
115
100
AcDbEntity
  8
SLD-0
  6
CONTINUOUS
 62
       3
100
AcDbLine
 10
66.73132879
 20
6.59999997
 30
0.0
 11
66.73132879
 21
13.39999959
 31
0.0
  0
LINE
  5
116
100
AcDbEntity
  8
SLD-0
  6
CONTINUOUS
 62
       3
100
AcDbLine
 10
65.73133049
 20
59.99999866
 30
0.0
 11
66.73132879
 21
59.99999866
 31
0.0
  0
LINE
  5
117
100
AcDbEntity
  8
SLD-0
  6
CONTINUOUS
 62
       3
100
AcDbLine
 10
65.73133049
 20
56.60000071
 30
0.0
 11
65.73133049
 21
59.99999866
 31
0.0
  0
LINE
  5
118
100
AcDbEntity
  8
SLD-0
  6
CONTINUOUS
 62
       3
100
AcDbLine
 10
66.73132879
 20
56.60000071
 30
0.0
 11
65.73133049
 21
56.60000071
 31
0.0
  0
LINE
  5
119
100
AcDbEntity
  8
SLD-0
  6
CONTINUOUS
 62
       3
100
AcDbLine
 10
66.73132879
 20
56.60000071
 30
0.0
 11
66.73132879
 21
59.99999866
 31
0.0
  0
LINE
  5
11A
100
AcDbEntity
  8
SLD-0
  6
CONTINUOUS
 62
       3
100
AcDbLine
 10
66.73132879
 20
53.3999987
 30
0.0
 11
65.73133049
 21
53.3999987
 31
0.0
  0
LINE
  5
11B
100
AcDbEntity
  8
SLD-0
  6
CONTINUOUS
 62
       3
100
AcDbLine
 10
66.73132879
 20
46.59999907
 30
0.0
 11
65.73133049
 21
46.59999907
 31
0.0
  0
LINE
  5
11C
100
AcDbEntity
  8
SLD-0
  6
CONTINUOUS
 62
       3
100
AcDbLine
 10
65.73133049
 20
46.59999907
 30
0.0
 11
65.73133049
 21
49.84999821
 31
0.0
  0
LINE
  5
11D
100
AcDbEntity
  8
SLD-0
  6
CONTINUOUS
 62
       3
100
AcDbLine
 10
66.03132812
 20
49.84999821
 30
0.0
 11
65.73133049
 21
49.84999821
 31
0.0
  0
LINE
  5
11E
100
AcDbEntity
  8
SLD-0
  6
CONTINUOUS
 62
       3
100
AcDbLine
 10
66.03132812
 20
49.84999821
 30
0.0
 11
66.03132812
 21
50.14999956
 31
0.0
  0
LINE
  5
11F
100
AcDbEntity
  8
SLD-0
  6
CONTINUOUS
 62
       3
100
AcDbLine
 10
66.03132812
 20
50.14999956
 30
0.0
 11
65.73133049
 21
50.14999956
 31
0.0
  0
LINE
  5
120
100
AcDbEntity
  8
SLD-0
  6
CONTINUOUS
 62
       3
100
AcDbLine
 10
65.73133049
 20
50.14999956
 30
0.0
 11
65.73133049
 21
53.3999987
 31
0.0
  0
LINE
  5
121
100
AcDbEntity
  8
SLD-0
  6
CONTINUOUS
 62
       3
100
AcDbLine
 10
66.73132879
 20
46.59999907
 30
0.0
 11
66.73132879
 21
53.3999987
 31
0.0
  0
LINE
  5
122
100
AcDbEntity
  8
SLD-0
  6
CONTINUOUS
 62
       3
100
AcDbLine
 10
66.73132879
 20
33.39999914
 30
0.0
 11
65.73133049
 21
33.39999914
 31
0.0
  0
LINE
  5
123
100
AcDbEntity
  8
SLD-0
  6
CONTINUOUS
 62
       3
100
AcDbLine
 10
65.73133049
 20
26.59999952
 30
0.0
 11
65.73133049
 21
29.85000052
 31
0.0
  0
LINE
  5
124
100
AcDbEntity
  8
SLD-0
  6
CONTINUOUS
 62
       3
100
AcDbLine
 10
66.03132812
 20
29.85000052
 30
0.0
 11
65.73133049
 21
29.85000052
 31
0.0
  0
LINE
  5
125
100
AcDbEntity
  8
SLD-0
  6
CONTINUOUS
 62
       3
100
AcDbLine
 10
66.03132812
 20
29.85000052
 30
0.0
 11
66.03132812
 21
30.15000001
 31
0.0
  0
LINE
  5
126
100
AcDbEntity
  8
SLD-0
  6
CONTINUOUS
 62
       3
100
AcDbLine
 10
66.03132812
 20
30.15000001
 30
0.0
 11
65.73133049
 21
30.15000001
 31
0.0
  0
LINE
  5
127
100
AcDbEntity
  8
SLD-0
  6
CONTINUOUS
 62
       3
100
AcDbLine
 10
65.73133049
 20
30.15000001
 30
0.0
 11
65.73133049
 21
33.39999914
 31
0.0
  0
LINE
  5
128
100
AcDbEntity
  8
SLD-0
  6
CONTINUOUS
 62
       3
100
AcDbLine
 10
66.73132879
 20
26.59999952
 30
0.0
 11
65.73133049
 21
26.59999952
 31
0.0
  0
LINE
  5
129
100
AcDbEntity
  8
SLD-0
  6
CONTINUOUS
 62
       3
100
AcDbLine
 10
66.73132879
 20
26.59999952
 30
0.0
 11
66.73132879
 21
33.39999914
 31
0.0
  0
LINE
  5
12A
100
AcDbEntity
  8
SLD-0
  6
CONTINUOUS
 62
       3
100
AcDbLine
 10
66.73132879
 20
43.40000078
 30
0.0
 11
65.73133049
 21
43.40000078
 31
0.0
  0
LINE
  5
12B
100
AcDbEntity
  8
SLD-0
  6
CONTINUOUS
 62
       3
100
AcDbLine
 10
65.73133049
 20
36.60000116
 30
0.0
 11
65.73133049
 21
39.8500003
 31
0.0
  0
LINE
  5
12C
100
AcDbEntity
  8
SLD-0
  6
CONTINUOUS
 62
       3
100
AcDbLine
 10
66.03132812
 20
39.8500003
 30
0.0
 11
65.73133049
 21
39.8500003
 31
0.0
  0
LINE
  5
12D
100
AcDbEntity
  8
SLD-0
  6
CONTINUOUS
 62
       3
100
AcDbLine
 10
66.03132812
 20
39.8500003
 30
0.0
 11
66.03132812
 21
40.15000165
 31
0.0
  0
LINE
  5
12E
100
AcDbEntity
  8
SLD-0
  6
CONTINUOUS
 62
       3
100
AcDbLine
 10
66.03132812
 20
40.15000165
 30
0.0
 11
65.73133049
 21
40.15000165
 31
0.0
  0
LINE
  5
12F
100
AcDbEntity
  8
SLD-0
  6
CONTINUOUS
 62
       3
100
AcDbLine
 10
65.73133049
 20
40.15000165
 30
0.0
 11
65.73133049
 21
43.40000078
 31
0.0
  0
LINE
  5
130
100
AcDbEntity
  8
SLD-0
  6
CONTINUOUS
 62
       3
100
AcDbLine
 10
66.73132879
 20
36.60000116
 30
0.0
 11
65.73133049
 21
36.60000116
 31
0.0
  0
LINE
  5
131
100
AcDbEntity
  8
SLD-0
  6
CONTINUOUS
 62
       3
100
AcDbLine
 10
66.73132879
 20
36.60000116
 30
0.0
 11
66.73132879
 21
43.40000078
 31
0.0
  0
LINE
  5
132
100
AcDbEntity
  8
SLD-0
  6
CONTINUOUS
 62
       3
100
AcDbLine
 10
65.73133049
 20
-53.39999869
 30
0.0
 11
65.73133049
 21
-53.50000038
 31
0.0
  0
LINE
  5
133
100
AcDbEntity
  8
SLD-0
  6
CONTINUOUS
 62
       3
100
AcDbLine
 10
65.73133049
 20
-56.49999901
 30
0.0
 11
65.73133049
 21
-56.60000071
 31
0.0
  0
LINE
  5
134
100
AcDbEntity
  8
SLD-0
  6
CONTINUOUS
 62
       3
100
AcDbLine
 10
66.73132879
 20
-56.60000071
 30
0.0
 11
66.73132879
 21
-56.49999901
 31
0.0
  0
LINE
  5
135
100
AcDbEntity
  8
SLD-0
  6
CONTINUOUS
 62
       3
100
AcDbLine
 10
66.73132879
 20
-53.50000038
 30
0.0
 11
66.73132879
 21
-53.39999869
 31
0.0
  0
LINE
  5
136
100
AcDbEntity
  8
SLD-0
  6
CONTINUOUS
 62
       3
100
AcDbLine
 10
65.73133049
 20
-43.40000078
 30
0.0
 11
65.73133049
 21
-46.59999907
 31
0.0
  0
LINE
  5
137
100
AcDbEntity
  8
SLD-0
  6
CONTINUOUS
 62
       3
100
AcDbLine
 10
66.73132879
 20
-46.59999907
 30
0.0
 11
66.73132879
 21
-43.40000078
 31
0.0
  0
LINE
  5
138
100
AcDbEntity
  8
SLD-0
  6
CONTINUOUS
 62
       3
100
AcDbLine
 10
65.73133049
 20
-33.39999914
 30
0.0
 11
65.73133049
 21
-36.60000115
 31
0.0
  0
LINE
  5
139
100
AcDbEntity
  8
SLD-0
  6
CONTINUOUS
 62
       3
100
AcDbLine
 10
66.73132879
 20
-36.60000115
 30
0.0
 11
66.73132879
 21
-33.39999914
 31
0.0
  0
LINE
  5
13A
100
AcDbEntity
  8
SLD-0
  6
CONTINUOUS
 62
       3
100
AcDbLine
 10
65.73133049
 20
-23.39999936
 30
0.0
 11
65.73133049
 21
-26.59999951
 31
0.0
  0
LINE
  5
13B
100
AcDbEntity
  8
SLD-0
  6
CONTINUOUS
 62
       3
100
AcDbLine
 10
66.73132879
 20
-26.59999951
 30
0.0
 11
66.73132879
 21
-23.39999936
 31
0.0
  0
LINE
  5
13C
100
AcDbEntity
  8
SLD-0
  6
CONTINUOUS
 62
       3
100
AcDbLine
 10
65.73133049
 20
-3.40000004
 30
0.0
 11
65.73133049
 21
-6.59999996
 31
0.0
  0
LINE
  5
13D
100
AcDbEntity
  8
SLD-0
  6
CONTINUOUS
 62
       3
100
AcDbLine
 10
66.73132879
 20
-6.59999996
 30
0.0
 11
66.73132879
 21
-3.40000004
 31
0.0
  0
LINE
  5
13E
100
AcDbEntity
  8
SLD-0
  6
CONTINUOUS
 62
       3
100
AcDbLine
 10
65.73133049
 20
-13.39999959
 30
0.0
 11
65.73133049
 21
-16.59999974
 31
0.0
  0
LINE
  5
13F
100
AcDbEntity
  8
SLD-0
  6
CONTINUOUS
 62
       3
100
AcDbLine
 10
66.73132879
 20
-16.59999974
 30
0.0
 11
66.73132879
 21
-13.39999959
 31
0.0
  0
LINE
  5
140
100
AcDbEntity
  8
SLD-0
  6
CONTINUOUS
 62
       3
100
AcDbLine
 10
65.73133049
 20
6.59999997
 30
0.0
 11
65.73133049
 21
3.40000005
 31
0.0
  0
LINE
  5
141
100
AcDbEntity
  8
SLD-0
  6
CONTINUOUS
 62
       3
100
AcDbLine
 10
66.73132879
 20
3.40000005
 30
0.0
 11
66.73132879
 21
6.59999997
 31
0.0
  0
LINE
  5
142
100
AcDbEntity
  8
SLD-0
  6
CONTINUOUS
 62
       3
100
AcDbLine
 10
65.73133049
 20
26.59999952
 30
0.0
 11
65.73133049
 21
23.39999937
 31
0.0
  0
LINE
  5
143
100
AcDbEntity
  8
SLD-0
  6
CONTINUOUS
 62
       3
100
AcDbLine
 10
66.73132879
 20
23.39999937
 30
0.0
 11
66.73132879
 21
26.59999952
 31
0.0
  0
LINE
  5
144
100
AcDbEntity
  8
SLD-0
  6
CONTINUOUS
 62
       3
100
AcDbLine
 10
65.73133049
 20
16.59999974
 30
0.0
 11
65.73133049
 21
13.39999959
 31
0.0
  0
LINE
  5
145
100
AcDbEntity
  8
SLD-0
  6
CONTINUOUS
 62
       3
100
AcDbLine
 10
66.73132879
 20
13.39999959
 30
0.0
 11
66.73132879
 21
16.59999974
 31
0.0
  0
LINE
  5
146
100
AcDbEntity
  8
SLD-0
  6
CONTINUOUS
 62
       3
100
AcDbLine
 10
65.73133049
 20
36.60000116
 30
0.0
 11
65.73133049
 21
33.39999914
 31
0.0
  0
LINE
  5
147
100
AcDbEntity
  8
SLD-0
  6
CONTINUOUS
 62
       3
100
AcDbLine
 10
66.73132879
 20
33.39999914
 30
0.0
 11
66.73132879
 21
36.60000116
 31
0.0
  0
LINE
  5
148
100
AcDbEntity
  8
SLD-0
  6
CONTINUOUS
 62
       3
100
AcDbLine
 10
65.73133049
 20
46.59999907
 30
0.0
 11
65.73133049
 21
43.40000078
 31
0.0
  0
LINE
  5
149
100
AcDbEntity
  8
SLD-0
  6
CONTINUOUS
 62
       3
100
AcDbLine
 10
66.73132879
 20
43.40000078
 30
0.0
 11
66.73132879
 21
46.59999907
 31
0.0
  0
LINE
  5
14A
100
AcDbEntity
  8
SLD-0
  6
CONTINUOUS
 62
       3
100
AcDbLine
 10
65.73133049
 20
56.60000071
 30
0.0
 11
65.73133049
 21
56.49999902
 31
0.0
  0
LINE
  5
14B
100
AcDbEntity
  8
SLD-0
  6
CONTINUOUS
 62
       3
100
AcDbLine
 10
65.73133049
 20
53.50000039
 30
0.0
 11
65.73133049
 21
53.3999987
 31
0.0
  0
LINE
  5
14C
100
AcDbEntity
  8
SLD-0
  6
CONTINUOUS
 62
       3
100
AcDbLine
 10
66.73132879
 20
53.3999987
 30
0.0
 11
66.73132879
 21
53.50000039
 31
0.0
  0
LINE
  5
14D
100
AcDbEntity
  8
SLD-0
  6
CONTINUOUS
 62
       3
100
AcDbLine
 10
66.73132879
 20
56.49999902
 30
0.0
 11
66.73132879
 21
56.60000071
 31
0.0
  0
LINE
  5
14E
100
AcDbEntity
  8
SLD-0
  6
CONTINUOUS
 62
       3
100
AcDbLine
 10
70.83132742
 20
58.03626404
 30
0.0
 11
70.83132742
 21
57.11764843
 31
0.0
  0
LINE
  5
14F
100
AcDbEntity
  8
SLD-0
  6
CONTINUOUS
 62
       3
100
AcDbLine
 10
70.83132742
 20
52.88235471
 30
0.0
 11
70.83132742
 21
51.96373538
 31
0.0
  0
LINE
  5
150
100
AcDbEntity
  8
SLD-0
  6
CONTINUOUS
 62
       3
100
AcDbLine
 10
70.83132742
 20
-51.96373537
 30
0.0
 11
70.83132742
 21
-52.8823547
 31
0.0
  0
LINE
  5
151
100
AcDbEntity
  8
SLD-0
  6
CONTINUOUS
 62
       3
100
AcDbLine
 10
70.83132742
 20
-57.11764842
 30
0.0
 11
70.83132742
 21
-58.03626403
 31
0.0
  0
LINE
  5
152
100
AcDbEntity
  8
SLD-0
  6
CONTINUOUS
 62
       3
100
AcDbLine
 10
72.1313308
 20
-59.00000035
 30
0.0
 11
73.73132994
 21
-59.00000035
 31
0.0
  0
LINE
  5
153
100
AcDbEntity
  8
SLD-0
  6
CONTINUOUS
 62
       3
100
AcDbLine
 10
72.1313308
 20
-59.00000035
 30
0.0
 11
72.1313308
 21
-57.50000104
 31
0.0
  0
LINE
  5
154
100
AcDbEntity
  8
SLD-0
  6
CONTINUOUS
 62
       3
100
AcDbLine
 10
68.73132912
 20
-56.49999901
 30
0.0
 11
72.1313308
 21
-57.50000104
 31
0.0
  0
LINE
  5
155
100
AcDbEntity
  8
SLD-0
  6
CONTINUOUS
 62
       3
100
AcDbLine
 10
68.73132912
 20
-56.49999901
 30
0.0
 11
63.53133051
 21
-56.49999901
 31
0.0
  0
LINE
  5
156
100
AcDbEntity
  8
SLD-0
  6
CONTINUOUS
 62
       3
100
AcDbLine
 10
63.53133051
 20
-56.49999901
 30
0.0
 11
63.53133051
 21
-53.50000038
 31
0.0
  0
LINE
  5
157
100
AcDbEntity
  8
SLD-0
  6
CONTINUOUS
 62
       3
100
AcDbLine
 10
68.73132912
 20
-53.50000038
 30
0.0
 11
63.53133051
 21
-53.50000038
 31
0.0
  0
LINE
  5
158
100
AcDbEntity
  8
SLD-0
  6
CONTINUOUS
 62
       3
100
AcDbLine
 10
72.1313308
 20
-52.49999836
 30
0.0
 11
68.73132912
 21
-53.50000038
 31
0.0
  0
LINE
  5
159
100
AcDbEntity
  8
SLD-0
  6
CONTINUOUS
 62
       3
100
AcDbLine
 10
72.1313308
 20
-52.49999836
 30
0.0
 11
72.1313308
 21
-50.99999904
 31
0.0
  0
LINE
  5
15A
100
AcDbEntity
  8
SLD-0
  6
CONTINUOUS
 62
       3
100
AcDbLine
 10
73.73132994
 20
-59.00000035
 30
0.0
 11
73.73132994
 21
-50.99999904
 31
0.0
  0
LINE
  5
15B
100
AcDbEntity
  8
SLD-0
  6
CONTINUOUS
 62
       3
100
AcDbLine
 10
72.1313308
 20
50.99999905
 30
0.0
 11
72.1313308
 21
52.49999836
 31
0.0
  0
LINE
  5
15C
100
AcDbEntity
  8
SLD-0
  6
CONTINUOUS
 62
       3
100
AcDbLine
 10
68.73132912
 20
53.50000039
 30
0.0
 11
72.1313308
 21
52.49999836
 31
0.0
  0
LINE
  5
15D
100
AcDbEntity
  8
SLD-0
  6
CONTINUOUS
 62
       3
100
AcDbLine
 10
68.73132912
 20
53.50000039
 30
0.0
 11
63.53133051
 21
53.50000039
 31
0.0
  0
LINE
  5
15E
100
AcDbEntity
  8
SLD-0
  6
CONTINUOUS
 62
       3
100
AcDbLine
 10
63.53133051
 20
53.50000039
 30
0.0
 11
63.53133051
 21
56.49999902
 31
0.0
  0
LINE
  5
15F
100
AcDbEntity
  8
SLD-0
  6
CONTINUOUS
 62
       3
100
AcDbLine
 10
68.73132912
 20
56.49999902
 30
0.0
 11
63.53133051
 21
56.49999902
 31
0.0
  0
LINE
  5
160
100
AcDbEntity
  8
SLD-0
  6
CONTINUOUS
 62
       3
100
AcDbLine
 10
72.1313308
 20
57.50000105
 30
0.0
 11
68.73132912
 21
56.49999902
 31
0.0
  0
LINE
  5
161
100
AcDbEntity
  8
SLD-0
  6
CONTINUOUS
 62
       3
100
AcDbLine
 10
72.1313308
 20
57.50000105
 30
0.0
 11
72.1313308
 21
59.00000036
 31
0.0
  0
LINE
  5
162
100
AcDbEntity
  8
SLD-0
  6
CONTINUOUS
 62
       3
100
AcDbLine
 10
73.73132994
 20
50.99999905
 30
0.0
 11
73.73132994
 21
59.00000036
 31
0.0
  0
LINE
  5
163
100
AcDbEntity
  8
SLD-0
  6
CONTINUOUS
 62
       3
100
AcDbLine
 10
72.1313308
 20
59.00000036
 30
0.0
 11
73.73132994
 21
59.00000036
 31
0.0
  0
LINE
  5
164
100
AcDbEntity
  8
SLD-0
  6
CONTINUOUS
 62
       3
100
AcDbLine
 10
105.53132926
 20
-80.00000071
 30
0.0
 11
105.53132926
 21
80.00000072
 31
0.0
  0
LINE
  5
165
100
AcDbEntity
  8
SLD-0
  6
CONTINUOUS
 62
       3
100
AcDbLine
 10
80.53132864
 20
-65.00000083
 30
0.0
 11
80.53132864
 21
65.00000084
 31
0.0
  0
LINE
  5
166
100
AcDbEntity
  8
SLD-0
  6
CONTINUOUS
 62
       3
100
AcDbLine
 10
104.33132929
 20
-64.94999622
 30
0.0
 11
104.33132929
 21
-80.00000071
 31
0.0
  0
LINE
  5
167
100
AcDbEntity
  8
SLD-0
  6
CONTINUOUS
 62
       3
100
AcDbLine
 10
104.33132884
 20
64.94999993
 30
0.0
 11
104.33132884
 21
80.00000072
 31
0.0
  0
LINE
  5
168
100
AcDbEntity
  8
SLD-0
  6
CONTINUOUS
 62
       3
100
AcDbLine
 10
66.73132879
 20
-41.00000113
 30
0.0
 11
78.53132924
 21
-41.00000113
 31
0.0
  0
LINE
  5
169
100
AcDbEntity
  8
SLD-0
  6
CONTINUOUS
 62
       3
100
AcDbLine
 10
66.73132879
 20
-39.0000008
 30
0.0
 11
78.53132924
 21
-39.0000008
 31
0.0
  0
LINE
  5
16A
100
AcDbEntity
  8
SLD-0
  6
CONTINUOUS
 62
       3
100
AcDbLine
 10
78.53132924
 20
-30.99999949
 30
0.0
 11
78.53132924
 21
-39.0000008
 31
0.0
  0
LINE
  5
16B
100
AcDbEntity
  8
SLD-0
  6
CONTINUOUS
 62
       3
100
AcDbLine
 10
66.73132879
 20
-30.99999949
 30
0.0
 11
78.53132924
 21
-30.99999949
 31
0.0
  0
LINE
  5
16C
100
AcDbEntity
  8
SLD-0
  6
CONTINUOUS
 62
       3
100
AcDbLine
 10
66.73132879
 20
-28.99999916
 30
0.0
 11
78.53132924
 21
-28.99999916
 31
0.0
  0
LINE
  5
16D
100
AcDbEntity
  8
SLD-0
  6
CONTINUOUS
 62
       3
100
AcDbLine
 10
78.53132924
 20
-20.99999971
 30
0.0
 11
78.53132924
 21
-28.99999916
 31
0.0
  0
LINE
  5
16E
100
AcDbEntity
  8
SLD-0
  6
CONTINUOUS
 62
       3
100
AcDbLine
 10
66.73132879
 20
-20.99999971
 30
0.0
 11
78.53132924
 21
-20.99999971
 31
0.0
  0
LINE
  5
16F
100
AcDbEntity
  8
SLD-0
  6
CONTINUOUS
 62
       3
100
AcDbLine
 10
66.73132879
 20
-18.99999939
 30
0.0
 11
78.53132924
 21
-18.99999939
 31
0.0
  0
LINE
  5
170
100
AcDbEntity
  8
SLD-0
  6
CONTINUOUS
 62
       3
100
AcDbLine
 10
78.53132924
 20
-10.99999994
 30
0.0
 11
78.53132924
 21
-18.99999939
 31
0.0
  0
LINE
  5
171
100
AcDbEntity
  8
SLD-0
  6
CONTINUOUS
 62
       3
100
AcDbLine
 10
66.73132879
 20
-10.99999994
 30
0.0
 11
78.53132924
 21
-10.99999994
 31
0.0
  0
LINE
  5
172
100
AcDbEntity
  8
SLD-0
  6
CONTINUOUS
 62
       3
100
AcDbLine
 10
66.73132879
 20
-8.99999961
 30
0.0
 11
78.53132924
 21
-8.99999961
 31
0.0
  0
LINE
  5
173
100
AcDbEntity
  8
SLD-0
  6
CONTINUOUS
 62
       3
100
AcDbLine
 10
78.53132924
 20
-1.00000004
 30
0.0
 11
78.53132924
 21
-8.99999961
 31
0.0
  0
LINE
  5
174
100
AcDbEntity
  8
SLD-0
  6
CONTINUOUS
 62
       3
100
AcDbLine
 10
66.73132879
 20
-1.00000004
 30
0.0
 11
78.53132924
 21
-1.00000004
 31
0.0
  0
LINE
  5
175
100
AcDbEntity
  8
SLD-0
  6
CONTINUOUS
 62
       3
100
AcDbLine
 10
66.73132879
 20
1.00000005
 30
0.0
 11
78.53132924
 21
1.00000005
 31
0.0
  0
LINE
  5
176
100
AcDbEntity
  8
SLD-0
  6
CONTINUOUS
 62
       3
100
AcDbLine
 10
78.53132924
 20
8.99999962
 30
0.0
 11
78.53132924
 21
1.00000005
 31
0.0
  0
LINE
  5
177
100
AcDbEntity
  8
SLD-0
  6
CONTINUOUS
 62
       3
100
AcDbLine
 10
66.73132879
 20
8.99999962
 30
0.0
 11
78.53132924
 21
8.99999962
 31
0.0
  0
LINE
  5
178
100
AcDbEntity
  8
SLD-0
  6
CONTINUOUS
 62
       3
100
AcDbLine
 10
66.73132879
 20
10.99999994
 30
0.0
 11
78.53132924
 21
10.99999994
 31
0.0
  0
LINE
  5
179
100
AcDbEntity
  8
SLD-0
  6
CONTINUOUS
 62
       3
100
AcDbLine
 10
78.53132924
 20
18.99999939
 30
0.0
 11
78.53132924
 21
10.99999994
 31
0.0
  0
LINE
  5
17A
100
AcDbEntity
  8
SLD-0
  6
CONTINUOUS
 62
       3
100
AcDbLine
 10
66.73132879
 20
18.99999939
 30
0.0
 11
78.53132924
 21
18.99999939
 31
0.0
  0
LINE
  5
17B
100
AcDbEntity
  8
SLD-0
  6
CONTINUOUS
 62
       3
100
AcDbLine
 10
66.73132879
 20
20.99999972
 30
0.0
 11
78.53132924
 21
20.99999972
 31
0.0
  0
LINE
  5
17C
100
AcDbEntity
  8
SLD-0
  6
CONTINUOUS
 62
       3
100
AcDbLine
 10
78.53132924
 20
28.99999917
 30
0.0
 11
78.53132924
 21
20.99999972
 31
0.0
  0
LINE
  5
17D
100
AcDbEntity
  8
SLD-0
  6
CONTINUOUS
 62
       3
100
AcDbLine
 10
66.73132879
 20
28.99999917
 30
0.0
 11
78.53132924
 21
28.99999917
 31
0.0
  0
LINE
  5
17E
100
AcDbEntity
  8
SLD-0
  6
CONTINUOUS
 62
       3
100
AcDbLine
 10
66.73132879
 20
30.9999995
 30
0.0
 11
78.53132924
 21
30.9999995
 31
0.0
  0
LINE
  5
17F
100
AcDbEntity
  8
SLD-0
  6
CONTINUOUS
 62
       3
100
AcDbLine
 10
78.53132924
 20
39.00000081
 30
0.0
 11
78.53132924
 21
30.9999995
 31
0.0
  0
LINE
  5
180
100
AcDbEntity
  8
SLD-0
  6
CONTINUOUS
 62
       3
100
AcDbLine
 10
66.73132879
 20
39.00000081
 30
0.0
 11
78.53132924
 21
39.00000081
 31
0.0
  0
LINE
  5
181
100
AcDbEntity
  8
SLD-0
  6
CONTINUOUS
 62
       3
100
AcDbLine
 10
66.73132879
 20
41.00000114
 30
0.0
 11
78.53132924
 21
41.00000114
 31
0.0
  0
LINE
  5
182
100
AcDbEntity
  8
SLD-0
  6
CONTINUOUS
 62
       3
100
AcDbLine
 10
78.53132924
 20
48.99999872
 30
0.0
 11
78.53132924
 21
41.00000114
 31
0.0
  0
LINE
  5
183
100
AcDbEntity
  8
SLD-0
  6
CONTINUOUS
 62
       3
100
AcDbLine
 10
66.73132879
 20
48.99999872
 30
0.0
 11
78.53132924
 21
48.99999872
 31
0.0
  0
LINE
  5
184
100
AcDbEntity
  8
SLD-0
  6
CONTINUOUS
 62
       3
100
AcDbLine
 10
66.73132879
 20
50.99999905
 30
0.0
 11
78.53132924
 21
50.99999905
 31
0.0
  0
LINE
  5
185
100
AcDbEntity
  8
SLD-0
  6
CONTINUOUS
 62
       3
100
AcDbLine
 10
78.53132924
 20
59.00000036
 30
0.0
 11
78.53132924
 21
50.99999905
 31
0.0
  0
LINE
  5
186
100
AcDbEntity
  8
SLD-0
  6
CONTINUOUS
 62
       3
100
AcDbLine
 10
78.53132924
 20
59.00000036
 30
0.0
 11
80.53132957
 21
59.00000036
 31
0.0
  0
LINE
  5
187
100
AcDbEntity
  8
SLD-0
  6
CONTINUOUS
 62
       3
100
AcDbLine
 10
78.53132924
 20
-59.00000035
 30
0.0
 11
80.53132957
 21
-59.00000035
 31
0.0
  0
LINE
  5
188
100
AcDbEntity
  8
SLD-0
  6
CONTINUOUS
 62
       3
100
AcDbLine
 10
78.53132924
 20
-50.99999904
 30
0.0
 11
78.53132924
 21
-59.00000035
 31
0.0
  0
LINE
  5
189
100
AcDbEntity
  8
SLD-0
  6
CONTINUOUS
 62
       3
100
AcDbLine
 10
66.73132879
 20
-50.99999904
 30
0.0
 11
78.53132924
 21
-50.99999904
 31
0.0
  0
LINE
  5
18A
100
AcDbEntity
  8
SLD-0
  6
CONTINUOUS
 62
       3
100
AcDbLine
 10
66.73132879
 20
-48.99999872
 30
0.0
 11
78.53132924
 21
-48.99999872
 31
0.0
  0
LINE
  5
18B
100
AcDbEntity
  8
SLD-0
  6
CONTINUOUS
 62
       3
100
AcDbLine
 10
78.53132924
 20
-41.00000113
 30
0.0
 11
78.53132924
 21
-48.99999872
 31
0.0
  0
LINE
  5
18C
100
AcDbEntity
  8
SLD-0
  6
CONTINUOUS
 62
       3
100
AcDbLine
 10
74.53132858
 20
-8.99999961
 30
0.0
 11
74.53132858
 21
-1.00000004
 31
0.0
  0
LINE
  5
18D
100
AcDbEntity
  8
SLD-0
  6
CONTINUOUS
 62
       3
100
AcDbLine
 10
74.53132858
 20
-48.99999872
 30
0.0
 11
74.53132858
 21
-41.00000113
 31
0.0
  0
LINE
  5
18E
100
AcDbEntity
  8
SLD-0
  6
CONTINUOUS
 62
       3
100
AcDbLine
 10
74.53132858
 20
41.00000114
 30
0.0
 11
74.53132858
 21
48.99999872
 31
0.0
  0
LINE
  5
18F
100
AcDbEntity
  8
SLD-0
  6
CONTINUOUS
 62
       3
100
AcDbLine
 10
74.53132858
 20
20.99999972
 30
0.0
 11
74.53132858
 21
28.99999917
 31
0.0
  0
LINE
  5
190
100
AcDbEntity
  8
SLD-0
  6
CONTINUOUS
 62
       3
100
AcDbLine
 10
74.53132858
 20
-59.00000035
 30
0.0
 11
74.53132858
 21
-50.99999904
 31
0.0
  0
LINE
  5
191
100
AcDbEntity
  8
SLD-0
  6
CONTINUOUS
 62
       3
100
AcDbLine
 10
78.53132924
 20
-59.00000035
 30
0.0
 11
74.53132858
 21
-59.00000035
 31
0.0
  0
LINE
  5
192
100
AcDbEntity
  8
SLD-0
  6
CONTINUOUS
 62
       3
100
AcDbLine
 10
74.53132858
 20
-39.0000008
 30
0.0
 11
74.53132858
 21
-30.99999949
 31
0.0
  0
LINE
  5
193
100
AcDbEntity
  8
SLD-0
  6
CONTINUOUS
 62
       3
100
AcDbLine
 10
74.53132858
 20
-28.99999916
 30
0.0
 11
74.53132858
 21
-20.99999971
 31
0.0
  0
LINE
  5
194
100
AcDbEntity
  8
SLD-0
  6
CONTINUOUS
 62
       3
100
AcDbLine
 10
74.53132858
 20
-18.99999939
 30
0.0
 11
74.53132858
 21
-10.99999994
 31
0.0
  0
LINE
  5
195
100
AcDbEntity
  8
SLD-0
  6
CONTINUOUS
 62
       3
100
AcDbLine
 10
74.53132858
 20
1.00000005
 30
0.0
 11
74.53132858
 21
8.99999962
 31
0.0
  0
LINE
  5
196
100
AcDbEntity
  8
SLD-0
  6
CONTINUOUS
 62
       3
100
AcDbLine
 10
74.53132858
 20
30.9999995
 30
0.0
 11
74.53132858
 21
39.00000081
 31
0.0
  0
LINE
  5
197
100
AcDbEntity
  8
SLD-0
  6
CONTINUOUS
 62
       3
100
AcDbLine
 10
74.53132858
 20
50.99999905
 30
0.0
 11
74.53132858
 21
59.00000036
 31
0.0
  0
LINE
  5
198
100
AcDbEntity
  8
SLD-0
  6
CONTINUOUS
 62
       3
100
AcDbLine
 10
74.53132858
 20
59.00000036
 30
0.0
 11
78.53132924
 21
59.00000036
 31
0.0
  0
LINE
  5
199
100
AcDbEntity
  8
SLD-0
  6
CONTINUOUS
 62
       3
100
AcDbLine
 10
74.53132858
 20
10.99999994
 30
0.0
 11
74.53132858
 21
18.99999939
 31
0.0
  0
LINE
  5
19A
100
AcDbEntity
  8
SLD-0
  6
CONTINUOUS
 62
       3
100
AcDbLine
 10
74.53132858
 20
-31.09999932
 30
0.0
 11
73.73132994
 21
-31.09999932
 31
0.0
  0
LINE
  5
19B
100
AcDbEntity
  8
SLD-0
  6
CONTINUOUS
 62
       3
100
AcDbLine
 10
74.53132858
 20
-38.89999911
 30
0.0
 11
73.73132994
 21
-38.89999911
 31
0.0
  0
LINE
  5
19C
100
AcDbEntity
  8
SLD-0
  6
CONTINUOUS
 62
       3
100
AcDbLine
 10
73.73132994
 20
-38.89999911
 30
0.0
 11
73.73132994
 21
-31.09999932
 31
0.0
  0
LINE
  5
19D
100
AcDbEntity
  8
SLD-0
  6
CONTINUOUS
 62
       3
100
AcDbLine
 10
74.53132858
 20
-21.09999954
 30
0.0
 11
73.73132994
 21
-21.09999954
 31
0.0
  0
LINE
  5
19E
100
AcDbEntity
  8
SLD-0
  6
CONTINUOUS
 62
       3
100
AcDbLine
 10
74.53132858
 20
-28.89999933
 30
0.0
 11
73.73132994
 21
-28.89999933
 31
0.0
  0
LINE
  5
19F
100
AcDbEntity
  8
SLD-0
  6
CONTINUOUS
 62
       3
100
AcDbLine
 10
73.73132994
 20
-28.89999933
 30
0.0
 11
73.73132994
 21
-21.09999954
 31
0.0
  0
LINE
  5
1A0
100
AcDbEntity
  8
SLD-0
  6
CONTINUOUS
 62
       3
100
AcDbLine
 10
74.53132858
 20
-51.10000074
 30
0.0
 11
73.73132994
 21
-51.10000074
 31
0.0
  0
LINE
  5
1A1
100
AcDbEntity
  8
SLD-0
  6
CONTINUOUS
 62
       3
100
AcDbLine
 10
74.53132858
 20
-58.89999866
 30
0.0
 11
73.73132994
 21
-58.89999866
 31
0.0
  0
LINE
  5
1A2
100
AcDbEntity
  8
SLD-0
  6
CONTINUOUS
 62
       3
100
AcDbLine
 10
73.73132994
 20
1.1
 30
0.0
 11
73.73132994
 21
8.89999979
 31
0.0
  0
LINE
  5
1A3
100
AcDbEntity
  8
SLD-0
  6
CONTINUOUS
 62
       3
100
AcDbLine
 10
74.53132858
 20
8.89999979
 30
0.0
 11
73.73132994
 21
8.89999979
 31
0.0
  0
LINE
  5
1A4
100
AcDbEntity
  8
SLD-0
  6
CONTINUOUS
 62
       3
100
AcDbLine
 10
74.53132858
 20
1.1
 30
0.0
 11
73.73132994
 21
1.1
 31
0.0
  0
LINE
  5
1A5
100
AcDbEntity
  8
SLD-0
  6
CONTINUOUS
 62
       3
100
AcDbLine
 10
74.53132858
 20
58.89999867
 30
0.0
 11
73.73132994
 21
58.89999867
 31
0.0
  0
LINE
  5
1A6
100
AcDbEntity
  8
SLD-0
  6
CONTINUOUS
 62
       3
100
AcDbLine
 10
74.53132858
 20
51.10000074
 30
0.0
 11
73.73132994
 21
51.10000074
 31
0.0
  0
LINE
  5
1A7
100
AcDbEntity
  8
SLD-0
  6
CONTINUOUS
 62
       3
100
AcDbLine
 10
74.53132858
 20
28.89999934
 30
0.0
 11
73.73132994
 21
28.89999934
 31
0.0
  0
LINE
  5
1A8
100
AcDbEntity
  8
SLD-0
  6
CONTINUOUS
 62
       3
100
AcDbLine
 10
74.53132858
 20
21.09999955
 30
0.0
 11
73.73132994
 21
21.09999955
 31
0.0
  0
LINE
  5
1A9
100
AcDbEntity
  8
SLD-0
  6
CONTINUOUS
 62
       3
100
AcDbLine
 10
73.73132994
 20
21.09999955
 30
0.0
 11
73.73132994
 21
28.89999934
 31
0.0
  0
LINE
  5
1AA
100
AcDbEntity
  8
SLD-0
  6
CONTINUOUS
 62
       3
100
AcDbLine
 10
74.53132858
 20
-11.09999977
 30
0.0
 11
73.73132994
 21
-11.09999977
 31
0.0
  0
LINE
  5
1AB
100
AcDbEntity
  8
SLD-0
  6
CONTINUOUS
 62
       3
100
AcDbLine
 10
74.53132858
 20
-18.89999956
 30
0.0
 11
73.73132994
 21
-18.89999956
 31
0.0
  0
LINE
  5
1AC
100
AcDbEntity
  8
SLD-0
  6
CONTINUOUS
 62
       3
100
AcDbLine
 10
73.73132994
 20
-18.89999956
 30
0.0
 11
73.73132994
 21
-11.09999977
 31
0.0
  0
LINE
  5
1AD
100
AcDbEntity
  8
SLD-0
  6
CONTINUOUS
 62
       3
100
AcDbLine
 10
74.53132858
 20
18.89999956
 30
0.0
 11
73.73132994
 21
18.89999956
 31
0.0
  0
LINE
  5
1AE
100
AcDbEntity
  8
SLD-0
  6
CONTINUOUS
 62
       3
100
AcDbLine
 10
73.73132994
 20
11.09999977
 30
0.0
 11
73.73132994
 21
18.89999956
 31
0.0
  0
LINE
  5
1AF
100
AcDbEntity
  8
SLD-0
  6
CONTINUOUS
 62
       3
100
AcDbLine
 10
74.53132858
 20
11.09999977
 30
0.0
 11
73.73132994
 21
11.09999977
 31
0.0
  0
LINE
  5
1B0
100
AcDbEntity
  8
SLD-0
  6
CONTINUOUS
 62
       3
100
AcDbLine
 10
74.53132858
 20
38.89999912
 30
0.0
 11
73.73132994
 21
38.89999912
 31
0.0
  0
LINE
  5
1B1
100
AcDbEntity
  8
SLD-0
  6
CONTINUOUS
 62
       3
100
AcDbLine
 10
73.73132994
 20
31.09999933
 30
0.0
 11
73.73132994
 21
38.89999912
 31
0.0
  0
LINE
  5
1B2
100
AcDbEntity
  8
SLD-0
  6
CONTINUOUS
 62
       3
100
AcDbLine
 10
74.53132858
 20
31.09999933
 30
0.0
 11
73.73132994
 21
31.09999933
 31
0.0
  0
LINE
  5
1B3
100
AcDbEntity
  8
SLD-0
  6
CONTINUOUS
 62
       3
100
AcDbLine
 10
73.73132994
 20
41.0999991
 30
0.0
 11
73.73132994
 21
48.90000075
 31
0.0
  0
LINE
  5
1B4
100
AcDbEntity
  8
SLD-0
  6
CONTINUOUS
 62
       3
100
AcDbLine
 10
74.53132858
 20
41.0999991
 30
0.0
 11
73.73132994
 21
41.0999991
 31
0.0
  0
LINE
  5
1B5
100
AcDbEntity
  8
SLD-0
  6
CONTINUOUS
 62
       3
100
AcDbLine
 10
74.53132858
 20
48.90000075
 30
0.0
 11
73.73132994
 21
48.90000075
 31
0.0
  0
LINE
  5
1B6
100
AcDbEntity
  8
SLD-0
  6
CONTINUOUS
 62
       3
100
AcDbLine
 10
73.73132994
 20
-48.90000075
 30
0.0
 11
73.73132994
 21
-41.0999991
 31
0.0
  0
LINE
  5
1B7
100
AcDbEntity
  8
SLD-0
  6
CONTINUOUS
 62
       3
100
AcDbLine
 10
74.53132858
 20
-48.90000075
 30
0.0
 11
73.73132994
 21
-48.90000075
 31
0.0
  0
LINE
  5
1B8
100
AcDbEntity
  8
SLD-0
  6
CONTINUOUS
 62
       3
100
AcDbLine
 10
74.53132858
 20
-41.0999991
 30
0.0
 11
73.73132994
 21
-41.0999991
 31
0.0
  0
LINE
  5
1B9
100
AcDbEntity
  8
SLD-0
  6
CONTINUOUS
 62
       3
100
AcDbLine
 10
74.53132858
 20
-1.09999999
 30
0.0
 11
73.73132994
 21
-1.09999999
 31
0.0
  0
LINE
  5
1BA
100
AcDbEntity
  8
SLD-0
  6
CONTINUOUS
 62
       3
100
AcDbLine
 10
73.73132994
 20
-8.89999978
 30
0.0
 11
73.73132994
 21
-1.09999999
 31
0.0
  0
LINE
  5
1BB
100
AcDbEntity
  8
SLD-0
  6
CONTINUOUS
 62
       3
100
AcDbLine
 10
74.53132858
 20
-8.89999978
 30
0.0
 11
73.73132994
 21
-8.89999978
 31
0.0
  0
LINE
  5
1BC
100
AcDbEntity
  8
SLD-0
  6
CONTINUOUS
 62
       3
100
AcDbLine
 10
72.73132978
 20
-18.79999973
 30
0.0
 11
73.73132994
 21
-18.79999973
 31
0.0
  0
LINE
  5
1BD
100
AcDbEntity
  8
SLD-0
  6
CONTINUOUS
 62
       3
100
AcDbLine
 10
72.73132978
 20
-18.79999973
 30
0.0
 11
72.73132978
 21
-11.1999996
 31
0.0
  0
LINE
  5
1BE
100
AcDbEntity
  8
SLD-0
  6
CONTINUOUS
 62
       3
100
AcDbLine
 10
72.73132978
 20
-11.1999996
 30
0.0
 11
73.73132994
 21
-11.1999996
 31
0.0
  0
LINE
  5
1BF
100
AcDbEntity
  8
SLD-0
  6
CONTINUOUS
 62
       3
100
AcDbLine
 10
72.73132978
 20
-38.80000114
 30
0.0
 11
72.73132978
 21
-31.19999915
 31
0.0
  0
LINE
  5
1C0
100
AcDbEntity
  8
SLD-0
  6
CONTINUOUS
 62
       3
100
AcDbLine
 10
72.73132978
 20
-31.19999915
 30
0.0
 11
73.73132994
 21
-31.19999915
 31
0.0
  0
LINE
  5
1C1
100
AcDbEntity
  8
SLD-0
  6
CONTINUOUS
 62
       3
100
AcDbLine
 10
72.73132978
 20
-38.80000114
 30
0.0
 11
73.73132994
 21
-38.80000114
 31
0.0
  0
LINE
  5
1C2
100
AcDbEntity
  8
SLD-0
  6
CONTINUOUS
 62
       3
100
AcDbLine
 10
72.73132978
 20
11.1999996
 30
0.0
 11
72.73132978
 21
18.79999973
 31
0.0
  0
LINE
  5
1C3
100
AcDbEntity
  8
SLD-0
  6
CONTINUOUS
 62
       3
100
AcDbLine
 10
72.73132978
 20
18.79999973
 30
0.0
 11
73.73132994
 21
18.79999973
 31
0.0
  0
LINE
  5
1C4
100
AcDbEntity
  8
SLD-0
  6
CONTINUOUS
 62
       3
100
AcDbLine
 10
72.73132978
 20
11.1999996
 30
0.0
 11
73.73132994
 21
11.1999996
 31
0.0
  0
LINE
  5
1C5
100
AcDbEntity
  8
SLD-0
  6
CONTINUOUS
 62
       3
100
AcDbLine
 10
72.73132978
 20
31.19999916
 30
0.0
 11
73.73132994
 21
31.19999916
 31
0.0
  0
LINE
  5
1C6
100
AcDbEntity
  8
SLD-0
  6
CONTINUOUS
 62
       3
100
AcDbLine
 10
72.73132978
 20
31.19999916
 30
0.0
 11
72.73132978
 21
38.80000115
 31
0.0
  0
LINE
  5
1C7
100
AcDbEntity
  8
SLD-0
  6
CONTINUOUS
 62
       3
100
AcDbLine
 10
72.73132978
 20
38.80000115
 30
0.0
 11
73.73132994
 21
38.80000115
 31
0.0
  0
LINE
  5
1C8
100
AcDbEntity
  8
SLD-0
  6
CONTINUOUS
 62
       3
100
AcDbLine
 10
72.73132978
 20
-48.79999906
 30
0.0
 11
72.73132978
 21
-41.20000079
 31
0.0
  0
LINE
  5
1C9
100
AcDbEntity
  8
SLD-0
  6
CONTINUOUS
 62
       3
100
AcDbLine
 10
72.73132978
 20
-41.20000079
 30
0.0
 11
73.73132994
 21
-41.20000079
 31
0.0
  0
LINE
  5
1CA
100
AcDbEntity
  8
SLD-0
  6
CONTINUOUS
 62
       3
100
AcDbLine
 10
72.73132978
 20
-48.79999906
 30
0.0
 11
73.73132994
 21
-48.79999906
 31
0.0
  0
LINE
  5
1CB
100
AcDbEntity
  8
SLD-0
  6
CONTINUOUS
 62
       3
100
AcDbLine
 10
72.73132978
 20
-8.79999995
 30
0.0
 11
72.73132978
 21
-1.20000005
 31
0.0
  0
LINE
  5
1CC
100
AcDbEntity
  8
SLD-0
  6
CONTINUOUS
 62
       3
100
AcDbLine
 10
72.73132978
 20
-8.79999995
 30
0.0
 11
73.73132994
 21
-8.79999995
 31
0.0
  0
LINE
  5
1CD
100
AcDbEntity
  8
SLD-0
  6
CONTINUOUS
 62
       3
100
AcDbLine
 10
72.73132978
 20
-1.20000005
 30
0.0
 11
73.73132994
 21
-1.20000005
 31
0.0
  0
LINE
  5
1CE
100
AcDbEntity
  8
SLD-0
  6
CONTINUOUS
 62
       3
100
AcDbLine
 10
72.73132978
 20
-28.7999995
 30
0.0
 11
72.73132978
 21
-21.19999937
 31
0.0
  0
LINE
  5
1CF
100
AcDbEntity
  8
SLD-0
  6
CONTINUOUS
 62
       3
100
AcDbLine
 10
72.73132978
 20
-21.19999937
 30
0.0
 11
73.73132994
 21
-21.19999937
 31
0.0
  0
LINE
  5
1D0
100
AcDbEntity
  8
SLD-0
  6
CONTINUOUS
 62
       3
100
AcDbLine
 10
72.73132978
 20
-28.7999995
 30
0.0
 11
73.73132994
 21
-28.7999995
 31
0.0
  0
LINE
  5
1D1
100
AcDbEntity
  8
SLD-0
  6
CONTINUOUS
 62
       3
100
AcDbLine
 10
72.73132978
 20
41.2000008
 30
0.0
 11
72.73132978
 21
48.79999906
 31
0.0
  0
LINE
  5
1D2
100
AcDbEntity
  8
SLD-0
  6
CONTINUOUS
 62
       3
100
AcDbLine
 10
72.73132978
 20
48.79999906
 30
0.0
 11
73.73132994
 21
48.79999906
 31
0.0
  0
LINE
  5
1D3
100
AcDbEntity
  8
SLD-0
  6
CONTINUOUS
 62
       3
100
AcDbLine
 10
72.73132978
 20
41.2000008
 30
0.0
 11
73.73132994
 21
41.2000008
 31
0.0
  0
LINE
  5
1D4
100
AcDbEntity
  8
SLD-0
  6
CONTINUOUS
 62
       3
100
AcDbLine
 10
72.73132978
 20
1.20000006
 30
0.0
 11
72.73132978
 21
8.79999996
 31
0.0
  0
LINE
  5
1D5
100
AcDbEntity
  8
SLD-0
  6
CONTINUOUS
 62
       3
100
AcDbLine
 10
72.73132978
 20
8.79999996
 30
0.0
 11
73.73132994
 21
8.79999996
 31
0.0
  0
LINE
  5
1D6
100
AcDbEntity
  8
SLD-0
  6
CONTINUOUS
 62
       3
100
AcDbLine
 10
72.73132978
 20
1.20000006
 30
0.0
 11
73.73132994
 21
1.20000006
 31
0.0
  0
LINE
  5
1D7
100
AcDbEntity
  8
SLD-0
  6
CONTINUOUS
 62
       3
100
AcDbLine
 10
72.73132978
 20
21.19999938
 30
0.0
 11
72.73132978
 21
28.79999951
 31
0.0
  0
LINE
  5
1D8
100
AcDbEntity
  8
SLD-0
  6
CONTINUOUS
 62
       3
100
AcDbLine
 10
72.73132978
 20
21.19999938
 30
0.0
 11
73.73132994
 21
21.19999938
 31
0.0
  0
LINE
  5
1D9
100
AcDbEntity
  8
SLD-0
  6
CONTINUOUS
 62
       3
100
AcDbLine
 10
72.73132978
 20
28.79999951
 30
0.0
 11
73.73132994
 21
28.79999951
 31
0.0
  0
LINE
  5
1DA
100
AcDbEntity
  8
SLD-0
  6
CONTINUOUS
 62
       3
100
AcDbLine
 10
71.93132651
 20
11.49999968
 30
0.0
 11
71.93132651
 21
18.50000055
 31
0.0
  0
LINE
  5
1DB
100
AcDbEntity
  8
SLD-0
  6
CONTINUOUS
 62
       3
100
AcDbLine
 10
71.93132668
 20
-18.50000039
 30
0.0
 11
71.93132668
 21
-11.49999952
 31
0.0
  0
LINE
  5
1DC
100
AcDbEntity
  8
SLD-0
  6
CONTINUOUS
 62
       3
100
AcDbLine
 10
71.93132656
 20
1.49999969
 30
0.0
 11
71.93132656
 21
8.50000063
 31
0.0
  0
LINE
  5
1DD
100
AcDbEntity
  8
SLD-0
  6
CONTINUOUS
 62
       3
100
AcDbLine
 10
71.93132602
 20
21.49999985
 30
0.0
 11
71.93132602
 21
28.50000048
 31
0.0
  0
LINE
  5
1DE
100
AcDbEntity
  8
SLD-0
  6
CONTINUOUS
 62
       3
100
AcDbLine
 10
71.93132617
 20
31.4999998
 30
0.0
 11
71.93132617
 21
38.50000044
 31
0.0
  0
LINE
  5
1DF
100
AcDbEntity
  8
SLD-0
  6
CONTINUOUS
 62
       3
100
AcDbLine
 10
71.93132674
 20
-8.50000048
 30
0.0
 11
71.93132674
 21
-1.49999952
 31
0.0
  0
LINE
  5
1E0
100
AcDbEntity
  8
SLD-0
  6
CONTINUOUS
 62
       3
100
AcDbLine
 10
71.93132763
 20
41.49999929
 30
0.0
 11
71.93132763
 21
48.50000093
 31
0.0
  0
LINE
  5
1E1
100
AcDbEntity
  8
SLD-0
  6
CONTINUOUS
 62
       3
100
AcDbLine
 10
71.93132654
 20
-28.50000033
 30
0.0
 11
71.93132654
 21
-21.49999974
 31
0.0
  0
LINE
  5
1E2
100
AcDbEntity
  8
SLD-0
  6
CONTINUOUS
 62
       3
100
AcDbLine
 10
71.93132638
 20
-38.50000027
 30
0.0
 11
71.93132638
 21
-31.49999966
 31
0.0
  0
LINE
  5
1E3
100
AcDbEntity
  8
SLD-0
  6
CONTINUOUS
 62
       3
100
AcDbLine
 10
71.93132753
 20
-48.50000067
 30
0.0
 11
71.93132753
 21
-41.49999902
 31
0.0
  0
LINE
  5
1E4
100
AcDbEntity
  8
SLD-0
  6
CONTINUOUS
 62
       3
100
AcDbLine
 10
69.36263917
 20
-34.49999913
 30
0.0
 11
69.58875218
 21
-34.5
 31
0.0
  0
LINE
  5
1E5
100
AcDbEntity
  8
SLD-0
  6
CONTINUOUS
 62
       3
100
AcDbLine
 10
69.5726231
 20
-33.04999965
 30
0.0
 11
69.58875079
 21
-33.04999965
 31
0.0
  0
LINE
  5
1E6
100
AcDbEntity
  8
SLD-0
  6
CONTINUOUS
 62
       3
100
AcDbLine
 10
69.58875215
 20
-36.94999987
 30
0.0
 11
69.57262352
 21
-36.95000024
 31
0.0
  0
LINE
  5
1E7
100
AcDbEntity
  8
SLD-0
  6
CONTINUOUS
 62
       3
100
AcDbLine
 10
69.58875218
 20
-35.5
 30
0.0
 11
69.36264055
 21
-35.5
 31
0.0
  0
LINE
  5
1E8
100
AcDbEntity
  8
SLD-0
  6
CONTINUOUS
 62
       3
100
AcDbLine
 10
69.36263917
 20
-24.49999936
 30
0.0
 11
69.58875218
 21
-24.5
 31
0.0
  0
LINE
  5
1E9
100
AcDbEntity
  8
SLD-0
  6
CONTINUOUS
 62
       3
100
AcDbLine
 10
69.57262311
 20
-23.04999965
 30
0.0
 11
69.58875081
 21
-23.04999965
 31
0.0
  0
LINE
  5
1EA
100
AcDbEntity
  8
SLD-0
  6
CONTINUOUS
 62
       3
100
AcDbLine
 10
69.5887522
 20
-26.95000008
 30
0.0
 11
69.57262357
 21
-26.95000023
 31
0.0
  0
LINE
  5
1EB
100
AcDbEntity
  8
SLD-0
  6
CONTINUOUS
 62
       3
100
AcDbLine
 10
69.58875218
 20
-25.5
 30
0.0
 11
69.36264055
 21
-25.5
 31
0.0
  0
LINE
  5
1EC
100
AcDbEntity
  8
SLD-0
  6
CONTINUOUS
 62
       3
100
AcDbLine
 10
69.36263917
 20
-4.4999998
 30
0.0
 11
69.58875218
 21
-4.5
 31
0.0
  0
LINE
  5
1ED
100
AcDbEntity
  8
SLD-0
  6
CONTINUOUS
 62
       3
100
AcDbLine
 10
69.57262314
 20
-3.04999966
 30
0.0
 11
69.58875084
 21
-3.04999966
 31
0.0
  0
LINE
  5
1EE
100
AcDbEntity
  8
SLD-0
  6
CONTINUOUS
 62
       3
100
AcDbLine
 10
69.5887522
 20
-6.95000006
 30
0.0
 11
69.57262357
 21
-6.95000023
 31
0.0
  0
LINE
  5
1EF
100
AcDbEntity
  8
SLD-0
  6
CONTINUOUS
 62
       3
100
AcDbLine
 10
69.58875218
 20
-5.5
 30
0.0
 11
69.36264055
 21
-5.5
 31
0.0
  0
LINE
  5
1F0
100
AcDbEntity
  8
SLD-0
  6
CONTINUOUS
 62
       3
100
AcDbLine
 10
69.36263917
 20
-14.49999958
 30
0.0
 11
69.58875218
 21
-14.5
 31
0.0
  0
LINE
  5
1F1
100
AcDbEntity
  8
SLD-0
  6
CONTINUOUS
 62
       3
100
AcDbLine
 10
69.57262312
 20
-13.04999965
 30
0.0
 11
69.58875082
 21
-13.04999965
 31
0.0
  0
LINE
  5
1F2
100
AcDbEntity
  8
SLD-0
  6
CONTINUOUS
 62
       3
100
AcDbLine
 10
69.58875226
 20
-16.95000029
 30
0.0
 11
69.57262362
 21
-16.95000029
 31
0.0
  0
LINE
  5
1F3
100
AcDbEntity
  8
SLD-0
  6
CONTINUOUS
 62
       3
100
AcDbLine
 10
69.58875218
 20
-15.5
 30
0.0
 11
69.36264055
 21
-15.5
 31
0.0
  0
LINE
  5
1F4
100
AcDbEntity
  8
SLD-0
  6
CONTINUOUS
 62
       3
100
AcDbLine
 10
69.36263917
 20
35.50000117
 30
0.0
 11
69.58875218
 21
35.5
 31
0.0
  0
LINE
  5
1F5
100
AcDbEntity
  8
SLD-0
  6
CONTINUOUS
 62
       3
100
AcDbLine
 10
69.57262308
 20
36.95000036
 30
0.0
 11
69.58875078
 21
36.95000036
 31
0.0
  0
LINE
  5
1F6
100
AcDbEntity
  8
SLD-0
  6
CONTINUOUS
 62
       3
100
AcDbLine
 10
69.58875208
 20
33.05000041
 30
0.0
 11
69.57262345
 21
33.04999974
 31
0.0
  0
LINE
  5
1F7
100
AcDbEntity
  8
SLD-0
  6
CONTINUOUS
 62
       3
100
AcDbLine
 10
69.58875218
 20
34.5
 30
0.0
 11
69.36264055
 21
34.5
 31
0.0
  0
LINE
  5
1F8
100
AcDbEntity
  8
SLD-0
  6
CONTINUOUS
 62
       3
100
AcDbLine
 10
69.36263917
 20
15.49999975
 30
0.0
 11
69.58875218
 21
15.5
 31
0.0
  0
LINE
  5
1F9
100
AcDbEntity
  8
SLD-0
  6
CONTINUOUS
 62
       3
100
AcDbLine
 10
69.57262316
 20
16.95000034
 30
0.0
 11
69.58875086
 21
16.95000034
 31
0.0
  0
LINE
  5
1FA
100
AcDbEntity
  8
SLD-0
  6
CONTINUOUS
 62
       3
100
AcDbLine
 10
69.58875219
 20
13.04999995
 30
0.0
 11
69.57262356
 21
13.04999977
 31
0.0
  0
LINE
  5
1FB
100
AcDbEntity
  8
SLD-0
  6
CONTINUOUS
 62
       3
100
AcDbLine
 10
69.58875218
 20
14.5
 30
0.0
 11
69.36264055
 21
14.5
 31
0.0
  0
LINE
  5
1FC
100
AcDbEntity
  8
SLD-0
  6
CONTINUOUS
 62
       3
100
AcDbLine
 10
69.36263917
 20
45.49999908
 30
0.0
 11
69.58875218
 21
45.5
 31
0.0
  0
LINE
  5
1FD
100
AcDbEntity
  8
SLD-0
  6
CONTINUOUS
 62
       3
100
AcDbLine
 10
69.57262321
 20
46.95000033
 30
0.0
 11
69.5887509
 21
46.95000033
 31
0.0
  0
LINE
  5
1FE
100
AcDbEntity
  8
SLD-0
  6
CONTINUOUS
 62
       3
100
AcDbLine
 10
69.58875257
 20
43.04999845
 30
0.0
 11
69.57262394
 21
43.04999987
 31
0.0
  0
LINE
  5
1FF
100
AcDbEntity
  8
SLD-0
  6
CONTINUOUS
 62
       3
100
AcDbLine
 10
69.58875218
 20
44.5
 30
0.0
 11
69.36264055
 21
44.5
 31
0.0
  0
LINE
  5
200
100
AcDbEntity
  8
SLD-0
  6
CONTINUOUS
 62
       3
100
AcDbLine
 10
69.36263917
 20
-44.50000077
 30
0.0
 11
69.58875218
 21
-44.5
 31
0.0
  0
LINE
  5
201
100
AcDbEntity
  8
SLD-0
  6
CONTINUOUS
 62
       3
100
AcDbLine
 10
69.5726232
 20
-43.04999967
 30
0.0
 11
69.58875089
 21
-43.04999967
 31
0.0
  0
LINE
  5
202
100
AcDbEntity
  8
SLD-0
  6
CONTINUOUS
 62
       3
100
AcDbLine
 10
69.58875254
 20
-46.95000141
 30
0.0
 11
69.57262391
 21
-46.95000014
 31
0.0
  0
LINE
  5
203
100
AcDbEntity
  8
SLD-0
  6
CONTINUOUS
 62
       3
100
AcDbLine
 10
69.58875218
 20
-45.5
 30
0.0
 11
69.36264055
 21
-45.5
 31
0.0
  0
LINE
  5
204
100
AcDbEntity
  8
SLD-0
  6
CONTINUOUS
 62
       3
100
AcDbLine
 10
69.36263917
 20
5.5
 30
0.0
 11
69.58875218
 21
5.5
 31
0.0
  0
LINE
  5
205
100
AcDbEntity
  8
SLD-0
  6
CONTINUOUS
 62
       3
100
AcDbLine
 10
69.57262315
 20
6.95000034
 30
0.0
 11
69.58875085
 21
6.95000034
 31
0.0
  0
LINE
  5
206
100
AcDbEntity
  8
SLD-0
  6
CONTINUOUS
 62
       3
100
AcDbLine
 10
69.58875225
 20
3.04999973
 30
0.0
 11
69.57262362
 21
3.04999973
 31
0.0
  0
LINE
  5
207
100
AcDbEntity
  8
SLD-0
  6
CONTINUOUS
 62
       3
100
AcDbLine
 10
69.58875218
 20
4.5
 30
0.0
 11
69.36264055
 21
4.5
 31
0.0
  0
LINE
  5
208
100
AcDbEntity
  8
SLD-0
  6
CONTINUOUS
 62
       3
100
AcDbLine
 10
69.36263917
 20
25.49999953
 30
0.0
 11
69.58875218
 21
25.5
 31
0.0
  0
LINE
  5
209
100
AcDbEntity
  8
SLD-0
  6
CONTINUOUS
 62
       3
100
AcDbLine
 10
69.57262318
 20
26.95000033
 30
0.0
 11
69.58875088
 21
26.95000033
 31
0.0
  0
LINE
  5
20A
100
AcDbEntity
  8
SLD-0
  6
CONTINUOUS
 62
       3
100
AcDbLine
 10
69.58875203
 20
23.05000062
 30
0.0
 11
69.57262339
 21
23.04999973
 31
0.0
  0
LINE
  5
20B
100
AcDbEntity
  8
SLD-0
  6
CONTINUOUS
 62
       3
100
AcDbLine
 10
69.58875218
 20
24.5
 30
0.0
 11
69.36264055
 21
24.5
 31
0.0
  0
CIRCLE
  5
20C
100
AcDbEntity
  8
SLD-0
  6
CONTINUOUS
 62
       3
100
AcDbCircle
 10
-18.03133036
 20
-9.0
 30
0.0
 40
2.0
  0
CIRCLE
  5
20D
100
AcDbEntity
  8
SLD-0
  6
CONTINUOUS
 62
       3
100
AcDbCircle
 10
-18.03133036
 20
1.0
 30
0.0
 40
2.0
  0
CIRCLE
  5
20E
100
AcDbEntity
  8
SLD-0
  6
CONTINUOUS
 62
       3
100
AcDbCircle
 10
-18.03133036
 20
11.0
 30
0.0
 40
2.0
  0
CIRCLE
  5
20F
100
AcDbEntity
  8
SLD-0
  6
CONTINUOUS
 62
       3
100
AcDbCircle
 10
-18.03133036
 20
21.0
 30
0.0
 40
2.0
  0
CIRCLE
  5
210
100
AcDbEntity
  8
SLD-0
  6
CONTINUOUS
 62
       3
100
AcDbCircle
 10
-18.03133036
 20
41.0
 30
0.0
 40
2.0
  0
CIRCLE
  5
211
100
AcDbEntity
  8
SLD-0
  6
CONTINUOUS
 62
       3
100
AcDbCircle
 10
-18.03133036
 20
31.0
 30
0.0
 40
2.0
  0
CIRCLE
  5
212
100
AcDbEntity
  8
SLD-0
  6
CONTINUOUS
 62
       3
100
AcDbCircle
 10
-18.03133036
 20
-29.0
 30
0.0
 40
2.0
  0
CIRCLE
  5
213
100
AcDbEntity
  8
SLD-0
  6
CONTINUOUS
 62
       3
100
AcDbCircle
 10
-18.03133036
 20
-19.0
 30
0.0
 40
2.0
  0
CIRCLE
  5
214
100
AcDbEntity
  8
SLD-0
  6
CONTINUOUS
 62
       3
100
AcDbCircle
 10
-23.03133036
 20
-72.5
 30
0.0
 40
2.25
  0
CIRCLE
  5
215
100
AcDbEntity
  8
SLD-0
  6
CONTINUOUS
 62
       3
100
AcDbCircle
 10
-93.03133036
 20
-72.5
 30
0.0
 40
2.25
  0
CIRCLE
  5
216
100
AcDbEntity
  8
SLD-0
  6
CONTINUOUS
 62
       3
100
AcDbCircle
 10
-93.03133036
 20
72.5
 30
0.0
 40
2.25
  0
CIRCLE
  5
217
100
AcDbEntity
  8
SLD-0
  6
CONTINUOUS
 62
       3
100
AcDbCircle
 10
-23.03133036
 20
72.5
 30
0.0
 40
2.25
  0
ARC
  5
218
100
AcDbEntity
  8
SLD-0
  6
CONTINUOUS
 62
       3
100
AcDbCircle
 10
78.2137489
 20
55.0
 30
0.0
 40
7.98242108
100
AcDbArc
 50
157.64347027
 51
165.36091689
  0
ARC
  5
219
100
AcDbEntity
  8
SLD-0
  6
CONTINUOUS
 62
       3
100
AcDbCircle
 10
78.2137489
 20
55.0
 30
0.0
 40
7.9824213
100
AcDbArc
 50
194.63908311
 51
202.35653358
  0
ARC
  5
21A
100
AcDbEntity
  8
SLD-0
  6
CONTINUOUS
 62
       3
100
AcDbCircle
 10
78.2137489
 20
-55.0
 30
0.0
 40
7.9824213
100
AcDbArc
 50
157.64346635
 51
165.36091689
  0
ARC
  5
21B
100
AcDbEntity
  8
SLD-0
  6
CONTINUOUS
 62
       3
100
AcDbCircle
 10
78.2137489
 20
-55.0
 30
0.0
 40
7.98242108
100
AcDbArc
 50
194.63908311
 51
202.35652967
  0
ARC
  5
21C
100
AcDbEntity
  8
SLD-0
  6
CONTINUOUS
 62
       3
100
AcDbCircle
 10
70.86217189
 20
42.60000008
 30
0.0
 40
1.10000079
100
AcDbArc
 50
200.3544064
 51
270.0000599
  0
ARC
  5
21D
100
AcDbEntity
  8
SLD-0
  6
CONTINUOUS
 62
       3
100
AcDbCircle
 10
70.86217111
 20
47.40000021
 30
0.0
 40
1.10000072
100
AcDbArc
 50
89.9999401
 51
159.6455936
  0
ARC
  5
21E
100
AcDbEntity
  8
SLD-0
  6
CONTINUOUS
 62
       3
100
AcDbCircle
 10
70.86217044
 20
32.59999954
 30
0.0
 40
1.09999975
100
AcDbArc
 50
200.3544064
 51
270.00005938
  0
ARC
  5
21F
100
AcDbEntity
  8
SLD-0
  6
CONTINUOUS
 62
       3
100
AcDbCircle
 10
70.86217022
 20
37.40000054
 30
0.0
 40
1.0999999
100
AcDbArc
 50
89.9999401
 51
159.6455936
  0
ARC
  5
220
100
AcDbEntity
  8
SLD-0
  6
CONTINUOUS
 62
       3
100
AcDbCircle
 10
70.86217094
 20
-17.40000027
 30
0.0
 40
1.10000012
100
AcDbArc
 50
200.3544064
 51
270.0000599
  0
ARC
  5
221
100
AcDbEntity
  8
SLD-0
  6
CONTINUOUS
 62
       3
100
AcDbCircle
 10
70.86217035
 20
-12.59999951
 30
0.0
 40
1.09999999
100
AcDbArc
 50
89.9999401
 51
159.6455936
  0
ARC
  5
222
100
AcDbEntity
  8
SLD-0
  6
CONTINUOUS
 62
       3
100
AcDbCircle
 10
70.86217101
 20
-7.40000024
 30
0.0
 40
1.10000024
100
AcDbArc
 50
200.3544064
 51
270.00005938
  0
ARC
  5
223
100
AcDbEntity
  8
SLD-0
  6
CONTINUOUS
 62
       3
100
AcDbCircle
 10
70.86217037
 20
-2.59999951
 30
0.0
 40
1.09999999
100
AcDbArc
 50
89.99994062
 51
159.6455936
  0
ARC
  5
224
100
AcDbEntity
  8
SLD-0
  6
CONTINUOUS
 62
       3
100
AcDbCircle
 10
70.86217078
 20
12.59999967
 30
0.0
 40
1.09999999
100
AcDbArc
 50
200.3544064
 51
270.00005938
  0
ARC
  5
225
100
AcDbEntity
  8
SLD-0
  6
CONTINUOUS
 62
       3
100
AcDbCircle
 10
70.86217051
 20
17.40000043
 30
0.0
 40
1.10000012
100
AcDbArc
 50
89.9999401
 51
159.6455936
  0
ARC
  5
226
100
AcDbEntity
  8
SLD-0
  6
CONTINUOUS
 62
       3
100
AcDbCircle
 10
70.86217065
 20
-37.40000038
 30
0.0
 40
1.0999999
100
AcDbArc
 50
200.3544064
 51
270.00005938
  0
ARC
  5
227
100
AcDbEntity
  8
SLD-0
  6
CONTINUOUS
 62
       3
100
AcDbCircle
 10
70.8621701
 20
-32.59999941
 30
0.0
 40
1.09999975
100
AcDbArc
 50
89.99994062
 51
159.6455936
  0
ARC
  5
228
100
AcDbEntity
  8
SLD-0
  6
CONTINUOUS
 62
       3
100
AcDbCircle
 10
70.8621708
 20
-27.40000032
 30
0.0
 40
1.10000001
100
AcDbArc
 50
200.3544064
 51
270.0000599
  0
ARC
  5
229
100
AcDbEntity
  8
SLD-0
  6
CONTINUOUS
 62
       3
100
AcDbCircle
 10
70.86217001
 20
-22.59999938
 30
0.0
 40
1.09999964
100
AcDbArc
 50
89.99994062
 51
159.6455936
  0
ARC
  5
22A
100
AcDbEntity
  8
SLD-0
  6
CONTINUOUS
 62
       3
100
AcDbCircle
 10
70.86217028
 20
22.59999949
 30
0.0
 40
1.09999964
100
AcDbArc
 50
200.3544064
 51
270.0000599
  0
ARC
  5
22B
100
AcDbEntity
  8
SLD-0
  6
CONTINUOUS
 62
       3
100
AcDbCircle
 10
70.86217042
 20
27.40000047
 30
0.0
 40
1.10000001
100
AcDbArc
 50
89.9999401
 51
159.6455936
  0
ARC
  5
22C
100
AcDbEntity
  8
SLD-0
  6
CONTINUOUS
 62
       3
100
AcDbCircle
 10
70.86217082
 20
2.59999969
 30
0.0
 40
1.1
100
AcDbArc
 50
200.3544064
 51
270.0000599
  0
ARC
  5
22D
100
AcDbEntity
  8
SLD-0
  6
CONTINUOUS
 62
       3
100
AcDbCircle
 10
70.8621706
 20
7.4000004
 30
0.0
 40
1.10000023
100
AcDbArc
 50
89.9999401
 51
159.6455936
  0
ARC
  5
22E
100
AcDbEntity
  8
SLD-0
  6
CONTINUOUS
 62
       3
100
AcDbCircle
 10
70.86217179
 20
-47.39999995
 30
0.0
 40
1.10000072
100
AcDbArc
 50
200.3544064
 51
270.00005938
  0
ARC
  5
22F
100
AcDbEntity
  8
SLD-0
  6
CONTINUOUS
 62
       3
100
AcDbCircle
 10
70.86217117
 20
-42.59999981
 30
0.0
 40
1.10000079
100
AcDbArc
 50
89.9999401
 51
159.6455936
  0
ARC
  5
230
100
AcDbEntity
  8
SLD-0
  6
CONTINUOUS
 62
       3
100
AcDbCircle
 10
77.33132927
 20
-35.0
 30
0.0
 40
8.00000143
100
AcDbArc
 50
159.64559356
 51
165.89202533
  0
ARC
  5
231
100
AcDbEntity
  8
SLD-0
  6
CONTINUOUS
 62
       3
100
AcDbCircle
 10
77.33132927
 20
-35.0
 30
0.0
 40
8.00000099
100
AcDbArc
 50
194.10797464
 51
200.3544064
  0
ARC
  5
232
100
AcDbEntity
  8
SLD-0
  6
CONTINUOUS
 62
       3
100
AcDbCircle
 10
77.33132927
 20
-25.0
 30
0.0
 40
8.00000142
100
AcDbArc
 50
159.64559358
 51
165.89202531
  0
ARC
  5
233
100
AcDbEntity
  8
SLD-0
  6
CONTINUOUS
 62
       3
100
AcDbCircle
 10
77.33132927
 20
-25.0
 30
0.0
 40
8.00000094
100
AcDbArc
 50
194.10797466
 51
200.35440637
  0
ARC
  5
234
100
AcDbEntity
  8
SLD-0
  6
CONTINUOUS
 62
       3
100
AcDbCircle
 10
77.33132927
 20
-5.0
 30
0.0
 40
8.00000138
100
AcDbArc
 50
159.64559356
 51
165.89202533
  0
ARC
  5
235
100
AcDbEntity
  8
SLD-0
  6
CONTINUOUS
 62
       3
100
AcDbCircle
 10
77.33132927
 20
-5.0
 30
0.0
 40
8.00000095
100
AcDbArc
 50
194.10797466
 51
200.35440636
  0
ARC
  5
236
100
AcDbEntity
  8
SLD-0
  6
CONTINUOUS
 62
       3
100
AcDbCircle
 10
77.33132927
 20
-15.0
 30
0.0
 40
8.00000141
100
AcDbArc
 50
159.64559361
 51
165.89202529
  0
ARC
  5
237
100
AcDbEntity
  8
SLD-0
  6
CONTINUOUS
 62
       3
100
AcDbCircle
 10
77.33132927
 20
-15.0
 30
0.0
 40
8.00000091
100
AcDbArc
 50
194.10797516
 51
200.35440638
  0
ARC
  5
238
100
AcDbEntity
  8
SLD-0
  6
CONTINUOUS
 62
       3
100
AcDbCircle
 10
77.33132927
 20
35.0
 30
0.0
 40
8.00000145
100
AcDbArc
 50
159.6455936
 51
165.8920253
  0
ARC
  5
239
100
AcDbEntity
  8
SLD-0
  6
CONTINUOUS
 62
       3
100
AcDbCircle
 10
77.33132927
 20
35.0
 30
0.0
 40
8.00000107
100
AcDbArc
 50
194.10797466
 51
200.35440641
  0
ARC
  5
23A
100
AcDbEntity
  8
SLD-0
  6
CONTINUOUS
 62
       3
100
AcDbCircle
 10
77.33132927
 20
15.0
 30
0.0
 40
8.00000136
100
AcDbArc
 50
159.64559361
 51
165.89202529
  0
ARC
  5
23B
100
AcDbEntity
  8
SLD-0
  6
CONTINUOUS
 62
       3
100
AcDbCircle
 10
77.33132927
 20
15.0
 30
0.0
 40
8.00000095
100
AcDbArc
 50
194.10797464
 51
200.35440639
  0
ARC
  5
23C
100
AcDbEntity
  8
SLD-0
  6
CONTINUOUS
 62
       3
100
AcDbCircle
 10
77.33132927
 20
45.0
 30
0.0
 40
8.00000132
100
AcDbArc
 50
159.6455936
 51
165.89202528
  0
ARC
  5
23D
100
AcDbEntity
  8
SLD-0
  6
CONTINUOUS
 62
       3
100
AcDbCircle
 10
77.33132927
 20
45.0
 30
0.0
 40
8.00000056
100
AcDbArc
 50
194.10797461
 51
200.3544064
  0
ARC
  5
23E
100
AcDbEntity
  8
SLD-0
  6
CONTINUOUS
 62
       3
100
AcDbCircle
 10
77.33132927
 20
-45.0
 30
0.0
 40
8.00000133
100
AcDbArc
 50
159.64559358
 51
165.89202529
  0
ARC
  5
23F
100
AcDbEntity
  8
SLD-0
  6
CONTINUOUS
 62
       3
100
AcDbCircle
 10
77.33132927
 20
-45.0
 30
0.0
 40
8.00000059
100
AcDbArc
 50
194.10797463
 51
200.35440635
  0
ARC
  5
240
100
AcDbEntity
  8
SLD-0
  6
CONTINUOUS
 62
       3
100
AcDbCircle
 10
77.33132927
 20
5.0
 30
0.0
 40
8.00000138
100
AcDbArc
 50
159.64559359
 51
165.89202531
  0
ARC
  5
241
100
AcDbEntity
  8
SLD-0
  6
CONTINUOUS
 62
       3
100
AcDbCircle
 10
77.33132927
 20
5.0
 30
0.0
 40
8.00000091
100
AcDbArc
 50
194.10797502
 51
200.35440635
  0
ARC
  5
242
100
AcDbEntity
  8
SLD-0
  6
CONTINUOUS
 62
       3
100
AcDbCircle
 10
77.33132927
 20
25.0
 30
0.0
 40
8.00000135
100
AcDbArc
 50
159.64559357
 51
165.89202533
  0
ARC
  5
243
100
AcDbEntity
  8
SLD-0
  6
CONTINUOUS
 62
       3
100
AcDbCircle
 10
77.33132927
 20
25.0
 30
0.0
 40
8.00000112
100
AcDbArc
 50
194.10797462
 51
200.35440635
  0
ARC
  5
244
100
AcDbEntity
  8
SLD-0
  6
CONTINUOUS
 62
       3
100
AcDbCircle
 10
77.33132927
 20
-35.0
 30
0.0
 40
7.75870479
100
AcDbArc
 50
176.30508483
 51
183.69491517
  0
ARC
  5
245
100
AcDbEntity
  8
SLD-0
  6
CONTINUOUS
 62
       3
100
AcDbCircle
 10
77.33132927
 20
-35.0
 30
0.0
 40
7.98436114
100
AcDbArc
 50
165.86381558
 51
176.40964425
  0
ARC
  5
246
100
AcDbEntity
  8
SLD-0
  6
CONTINUOUS
 62
       3
100
AcDbCircle
 10
77.33132927
 20
-35.0
 30
0.0
 40
7.98435971
100
AcDbArc
 50
183.59035014
 51
194.13618347
  0
ARC
  5
247
100
AcDbEntity
  8
SLD-0
  6
CONTINUOUS
 62
       3
100
AcDbCircle
 10
77.33132927
 20
-25.0
 30
0.0
 40
7.75870479
100
AcDbArc
 50
176.30508483
 51
183.69491517
  0
ARC
  5
248
100
AcDbEntity
  8
SLD-0
  6
CONTINUOUS
 62
       3
100
AcDbCircle
 10
77.33132927
 20
-25.0
 30
0.0
 40
7.98436112
100
AcDbArc
 50
165.86381554
 51
176.4096459
  0
ARC
  5
249
100
AcDbEntity
  8
SLD-0
  6
CONTINUOUS
 62
       3
100
AcDbCircle
 10
77.33132927
 20
-25.0
 30
0.0
 40
7.98435971
100
AcDbArc
 50
183.59035014
 51
194.13618501
  0
ARC
  5
24A
100
AcDbEntity
  8
SLD-0
  6
CONTINUOUS
 62
       3
100
AcDbCircle
 10
77.33132927
 20
-5.0
 30
0.0
 40
7.75870479
100
AcDbArc
 50
176.30508483
 51
183.69491517
  0
ARC
  5
24B
100
AcDbEntity
  8
SLD-0
  6
CONTINUOUS
 62
       3
100
AcDbCircle
 10
77.33132927
 20
-5.0
 30
0.0
 40
7.9843611
100
AcDbArc
 50
165.86381556
 51
176.40964905
  0
ARC
  5
24C
100
AcDbEntity
  8
SLD-0
  6
CONTINUOUS
 62
       3
100
AcDbCircle
 10
77.33132927
 20
-5.0
 30
0.0
 40
7.98435971
100
AcDbArc
 50
183.59035014
 51
194.13618488
  0
ARC
  5
24D
100
AcDbEntity
  8
SLD-0
  6
CONTINUOUS
 62
       3
100
AcDbCircle
 10
77.33132927
 20
-15.0
 30
0.0
 40
7.75870479
100
AcDbArc
 50
176.30508483
 51
183.69491517
  0
ARC
  5
24E
100
AcDbEntity
  8
SLD-0
  6
CONTINUOUS
 62
       3
100
AcDbCircle
 10
77.33132927
 20
-15.0
 30
0.0
 40
7.98436112
100
AcDbArc
 50
165.86381553
 51
176.40964747
  0
ARC
  5
24F
100
AcDbEntity
  8
SLD-0
  6
CONTINUOUS
 62
       3
100
AcDbCircle
 10
77.33132927
 20
-15.0
 30
0.0
 40
7.98435971
100
AcDbArc
 50
183.59035014
 51
194.13618658
  0
ARC
  5
250
100
AcDbEntity
  8
SLD-0
  6
CONTINUOUS
 62
       3
100
AcDbCircle
 10
77.33132927
 20
35.0
 30
0.0
 40
7.75870479
100
AcDbArc
 50
176.30508483
 51
183.69491517
  0
ARC
  5
251
100
AcDbEntity
  8
SLD-0
  6
CONTINUOUS
 62
       3
100
AcDbCircle
 10
77.33132927
 20
35.0
 30
0.0
 40
7.98436116
100
AcDbArc
 50
165.86381553
 51
176.4096421
  0
ARC
  5
252
100
AcDbEntity
  8
SLD-0
  6
CONTINUOUS
 62
       3
100
AcDbCircle
 10
77.33132927
 20
35.0
 30
0.0
 40
7.98435971
100
AcDbArc
 50
183.59035014
 51
194.13618139
  0
ARC
  5
253
100
AcDbEntity
  8
SLD-0
  6
CONTINUOUS
 62
       3
100
AcDbCircle
 10
77.33132927
 20
15.0
 30
0.0
 40
7.75870479
100
AcDbArc
 50
176.30508483
 51
183.69491517
  0
ARC
  5
254
100
AcDbEntity
  8
SLD-0
  6
CONTINUOUS
 62
       3
100
AcDbCircle
 10
77.33132927
 20
15.0
 30
0.0
 40
7.98436107
100
AcDbArc
 50
165.86381552
 51
176.40965227
  0
ARC
  5
255
100
AcDbEntity
  8
SLD-0
  6
CONTINUOUS
 62
       3
100
AcDbCircle
 10
77.33132927
 20
15.0
 30
0.0
 40
7.98435971
100
AcDbArc
 50
183.59035014
 51
194.13618479
  0
ARC
  5
256
100
AcDbEntity
  8
SLD-0
  6
CONTINUOUS
 62
       3
100
AcDbCircle
 10
77.33132927
 20
45.0
 30
0.0
 40
7.75870479
100
AcDbArc
 50
176.30508483
 51
183.69491517
  0
ARC
  5
257
100
AcDbEntity
  8
SLD-0
  6
CONTINUOUS
 62
       3
100
AcDbCircle
 10
77.33132927
 20
45.0
 30
0.0
 40
7.98436103
100
AcDbArc
 50
165.86381552
 51
176.40965707
  0
ARC
  5
258
100
AcDbEntity
  8
SLD-0
  6
CONTINUOUS
 62
       3
100
AcDbCircle
 10
77.33132927
 20
45.0
 30
0.0
 40
7.98435971
100
AcDbArc
 50
183.59035014
 51
194.13619589
  0
ARC
  5
259
100
AcDbEntity
  8
SLD-0
  6
CONTINUOUS
 62
       3
100
AcDbCircle
 10
77.33132927
 20
-45.0
 30
0.0
 40
7.75870479
100
AcDbArc
 50
176.30508483
 51
183.69491517
  0
ARC
  5
25A
100
AcDbEntity
  8
SLD-0
  6
CONTINUOUS
 62
       3
100
AcDbCircle
 10
77.33132927
 20
-45.0
 30
0.0
 40
7.98436104
100
AcDbArc
 50
165.86381554
 51
176.40965599
  0
ARC
  5
25B
100
AcDbEntity
  8
SLD-0
  6
CONTINUOUS
 62
       3
100
AcDbCircle
 10
77.33132927
 20
-45.0
 30
0.0
 40
7.98435971
100
AcDbArc
 50
183.59035014
 51
194.13619487
  0
ARC
  5
25C
100
AcDbEntity
  8
SLD-0
  6
CONTINUOUS
 62
       3
100
AcDbCircle
 10
77.33132927
 20
5.0
 30
0.0
 40
7.75870479
100
AcDbArc
 50
176.30508483
 51
183.69491517
  0
ARC
  5
25D
100
AcDbEntity
  8
SLD-0
  6
CONTINUOUS
 62
       3
100
AcDbCircle
 10
77.33132927
 20
5.0
 30
0.0
 40
7.98436108
100
AcDbArc
 50
165.86381554
 51
176.40965048
  0
ARC
  5
25E
100
AcDbEntity
  8
SLD-0
  6
CONTINUOUS
 62
       3
100
AcDbCircle
 10
77.33132927
 20
5.0
 30
0.0
 40
7.98435971
100
AcDbArc
 50
183.59035014
 51
194.13618642
  0
ARC
  5
25F
100
AcDbEntity
  8
SLD-0
  6
CONTINUOUS
 62
       3
100
AcDbCircle
 10
77.33132927
 20
25.0
 30
0.0
 40
7.75870479
100
AcDbArc
 50
176.30508483
 51
183.69491517
  0
ARC
  5
260
100
AcDbEntity
  8
SLD-0
  6
CONTINUOUS
 62
       3
100
AcDbCircle
 10
77.33132927
 20
25.0
 30
0.0
 40
7.98436105
100
AcDbArc
 50
165.86381556
 51
176.40965385
  0
ARC
  5
261
100
AcDbEntity
  8
SLD-0
  6
CONTINUOUS
 62
       3
100
AcDbCircle
 10
77.33132927
 20
25.0
 30
0.0
 40
7.98435971
100
AcDbArc
 50
183.59035014
 51
194.13617985
  0
LINE
  5
262
100
AcDbEntity
  8
0
  6
CONTINUOUS
 62
       3
100
AcDbLine
 10
-62.28133079
 20
-28.99999916
 30
0.0
 11
-75.28133013
 21
-28.99999916
 31
0.0
  0
LINE
  5
263
100
AcDbEntity
  8
0
  6
CONTINUOUS
 62
       3
100
AcDbLine
 10
-62.28133079
 20
-30.99999949
 30
0.0
 11
-62.28133079
 21
-28.99999916
 31
0.0
  0
LINE
  5
264
100
AcDbEntity
  8
0
  6
CONTINUOUS
 62
       3
100
AcDbLine
 10
-75.28133013
 20
1.00000005
 30
0.0
 11
-75.28133013
 21
-1.00000004
 31
0.0
  0
LINE
  5
265
100
AcDbEntity
  8
0
  6
CONTINUOUS
 62
       3
100
AcDbLine
 10
-62.28133079
 20
1.00000005
 30
0.0
 11
-75.28133013
 21
1.00000005
 31
0.0
  0
LINE
  5
266
100
AcDbEntity
  8
0
  6
CONTINUOUS
 62
       3
100
AcDbLine
 10
-63.28133095
 20
1.00000005
 30
0.0
 11
-63.28133095
 21
8.99999962
 31
0.0
  0
LINE
  5
267
100
AcDbEntity
  8
0
  6
CONTINUOUS
 62
       3
100
AcDbLine
 10
-75.28133013
 20
-59.00000035
 30
0.0
 11
-62.28133079
 21
-59.00000035
 31
0.0
  0
LINE
  5
268
100
AcDbEntity
  8
0
  6
CONTINUOUS
 62
       3
100
AcDbLine
 10
-63.28133095
 20
-39.0000008
 30
0.0
 11
-63.28133095
 21
-30.99999949
 31
0.0
  0
LINE
  5
269
100
AcDbEntity
  8
0
  6
CONTINUOUS
 62
       3
100
AcDbLine
 10
-62.28133079
 20
-41.00000113
 30
0.0
 11
-62.28133079
 21
-48.99999872
 31
0.0
  0
LINE
  5
26A
100
AcDbEntity
  8
0
  6
CONTINUOUS
 62
       3
100
AcDbLine
 10
-75.28133013
 20
41.00000114
 30
0.0
 11
-75.28133013
 21
48.99999872
 31
0.0
  0
LINE
  5
26B
100
AcDbEntity
  8
0
  6
CONTINUOUS
 62
       3
100
AcDbLine
 10
-62.28133079
 20
39.00000081
 30
0.0
 11
-62.28133079
 21
30.9999995
 31
0.0
  0
LINE
  5
26C
100
AcDbEntity
  8
0
  6
CONTINUOUS
 62
       3
100
AcDbLine
 10
-75.28133013
 20
-28.99999916
 30
0.0
 11
-75.28133013
 21
-30.99999949
 31
0.0
  0
LINE
  5
26D
100
AcDbEntity
  8
0
  6
CONTINUOUS
 62
       3
100
AcDbLine
 10
-63.28133095
 20
10.99999994
 30
0.0
 11
-63.28133095
 21
18.99999939
 31
0.0
  0
LINE
  5
26E
100
AcDbEntity
  8
0
  6
CONTINUOUS
 62
       3
100
AcDbLine
 10
-75.28133013
 20
-18.99999939
 30
0.0
 11
-75.28133013
 21
-10.99999994
 31
0.0
  0
LINE
  5
26F
100
AcDbEntity
  8
0
  6
CONTINUOUS
 62
       3
100
AcDbLine
 10
-75.28133013
 20
48.99999872
 30
0.0
 11
-62.28133079
 21
48.99999872
 31
0.0
  0
LINE
  5
270
100
AcDbEntity
  8
0
  6
CONTINUOUS
 62
       3
100
AcDbLine
 10
-75.28133013
 20
39.00000081
 30
0.0
 11
-62.28133079
 21
39.00000081
 31
0.0
  0
LINE
  5
271
100
AcDbEntity
  8
0
  6
CONTINUOUS
 62
       3
100
AcDbLine
 10
-75.28133013
 20
-41.00000113
 30
0.0
 11
-62.28133079
 21
-41.00000113
 31
0.0
  0
LINE
  5
272
100
AcDbEntity
  8
0
  6
CONTINUOUS
 62
       3
100
AcDbLine
 10
-74.28133043
 20
28.99999917
 30
0.0
 11
-74.28133043
 21
20.99999972
 31
0.0
  0
LINE
  5
273
100
AcDbEntity
  8
0
  6
CONTINUOUS
 62
       3
100
AcDbLine
 10
-63.28133095
 20
-8.99999961
 30
0.0
 11
-63.28133095
 21
-1.00000004
 31
0.0
  0
LINE
  5
274
100
AcDbEntity
  8
0
  6
CONTINUOUS
 62
       3
100
AcDbLine
 10
-62.28133079
 20
48.99999872
 30
0.0
 11
-62.28133079
 21
41.00000114
 31
0.0
  0
LINE
  5
275
100
AcDbEntity
  8
0
  6
CONTINUOUS
 62
       3
100
AcDbLine
 10
-62.28133079
 20
28.99999917
 30
0.0
 11
-62.28133079
 21
20.99999972
 31
0.0
  0
LINE
  5
276
100
AcDbEntity
  8
0
  6
CONTINUOUS
 62
       3
100
AcDbLine
 10
-62.28133079
 20
59.00000036
 30
0.0
 11
-75.28133013
 21
59.00000036
 31
0.0
  0
LINE
  5
277
100
AcDbEntity
  8
0
  6
CONTINUOUS
 62
       3
100
AcDbLine
 10
-62.28133079
 20
10.99999994
 30
0.0
 11
-75.28133013
 21
10.99999994
 31
0.0
  0
LINE
  5
278
100
AcDbEntity
  8
0
  6
CONTINUOUS
 62
       3
100
AcDbLine
 10
-75.28133013
 20
-48.99999872
 30
0.0
 11
-75.28133013
 21
-50.99999904
 31
0.0
  0
LINE
  5
279
100
AcDbEntity
  8
0
  6
CONTINUOUS
 62
       3
100
AcDbLine
 10
-62.28133079
 20
48.99999872
 30
0.0
 11
-62.28133079
 21
50.99999905
 31
0.0
  0
LINE
  5
27A
100
AcDbEntity
  8
0
  6
CONTINUOUS
 62
       3
100
AcDbLine
 10
-62.28133079
 20
39.00000081
 30
0.0
 11
-62.28133079
 21
41.00000114
 31
0.0
  0
LINE
  5
27B
100
AcDbEntity
  8
0
  6
CONTINUOUS
 62
       3
100
AcDbLine
 10
-62.28133079
 20
-39.0000008
 30
0.0
 11
-75.28133013
 21
-39.0000008
 31
0.0
  0
LINE
  5
27C
100
AcDbEntity
  8
0
  6
CONTINUOUS
 62
       3
100
AcDbLine
 10
-62.28133079
 20
8.99999962
 30
0.0
 11
-62.28133079
 21
1.00000005
 31
0.0
  0
LINE
  5
27D
100
AcDbEntity
  8
0
  6
CONTINUOUS
 62
       3
100
AcDbLine
 10
-62.28133079
 20
-1.00000004
 30
0.0
 11
-62.28133079
 21
-8.99999961
 31
0.0
  0
LINE
  5
27E
100
AcDbEntity
  8
0
  6
CONTINUOUS
 62
       3
100
AcDbLine
 10
-75.78133044
 20
-59.59999934
 30
0.0
 11
-61.78132978
 21
-59.59999934
 31
0.0
  0
LINE
  5
27F
100
AcDbEntity
  8
0
  6
CONTINUOUS
 62
       3
100
AcDbLine
 10
-61.78132978
 20
59.59999934
 30
0.0
 11
-75.78133044
 21
59.59999934
 31
0.0
  0
LINE
  5
280
100
AcDbEntity
  8
0
  6
CONTINUOUS
 62
       3
100
AcDbLine
 10
-75.28133013
 20
-50.99999904
 30
0.0
 11
-62.28133079
 21
-50.99999904
 31
0.0
  0
LINE
  5
281
100
AcDbEntity
  8
0
  6
CONTINUOUS
 62
       3
100
AcDbLine
 10
-62.28133079
 20
-8.99999961
 30
0.0
 11
-75.28133013
 21
-8.99999961
 31
0.0
  0
LINE
  5
282
100
AcDbEntity
  8
0
  6
CONTINUOUS
 62
       3
100
AcDbLine
 10
-75.28133013
 20
-8.99999961
 30
0.0
 11
-75.28133013
 21
-10.99999994
 31
0.0
  0
LINE
  5
283
100
AcDbEntity
  8
0
  6
CONTINUOUS
 62
       3
100
AcDbLine
 10
-75.28133013
 20
-1.00000004
 30
0.0
 11
-62.28133079
 21
-1.00000004
 31
0.0
  0
LINE
  5
284
100
AcDbEntity
  8
0
  6
CONTINUOUS
 62
       3
100
AcDbLine
 10
-75.28133013
 20
-39.0000008
 30
0.0
 11
-75.28133013
 21
-30.99999949
 31
0.0
  0
LINE
  5
285
100
AcDbEntity
  8
0
  6
CONTINUOUS
 62
       3
100
AcDbLine
 10
-75.28133013
 20
10.99999994
 30
0.0
 11
-75.28133013
 21
18.99999939
 31
0.0
  0
LINE
  5
286
100
AcDbEntity
  8
0
  6
CONTINUOUS
 62
       3
100
AcDbLine
 10
-74.28133043
 20
39.00000081
 30
0.0
 11
-74.28133043
 21
30.9999995
 31
0.0
  0
LINE
  5
287
100
AcDbEntity
  8
0
  6
CONTINUOUS
 62
       3
100
AcDbLine
 10
-63.28133095
 20
-18.99999939
 30
0.0
 11
-63.28133095
 21
-10.99999994
 31
0.0
  0
LINE
  5
288
100
AcDbEntity
  8
0
  6
CONTINUOUS
 62
       3
100
AcDbLine
 10
-74.28133043
 20
-10.99999994
 30
0.0
 11
-74.28133043
 21
-18.99999939
 31
0.0
  0
LINE
  5
289
100
AcDbEntity
  8
0
  6
CONTINUOUS
 62
       3
100
AcDbLine
 10
-75.28133013
 20
59.00000036
 30
0.0
 11
-75.28133013
 21
50.99999905
 31
0.0
  0
LINE
  5
28A
100
AcDbEntity
  8
0
  6
CONTINUOUS
 62
       3
100
AcDbLine
 10
-75.28133013
 20
10.99999994
 30
0.0
 11
-75.28133013
 21
8.99999962
 31
0.0
  0
LINE
  5
28B
100
AcDbEntity
  8
0
  6
CONTINUOUS
 62
       3
100
AcDbLine
 10
-62.28133079
 20
41.00000114
 30
0.0
 11
-75.28133013
 21
41.00000114
 31
0.0
  0
LINE
  5
28C
100
AcDbEntity
  8
0
  6
CONTINUOUS
 62
       3
100
AcDbLine
 10
-62.28133079
 20
-1.00000004
 30
0.0
 11
-62.28133079
 21
1.00000005
 31
0.0
  0
LINE
  5
28D
100
AcDbEntity
  8
0
  6
CONTINUOUS
 62
       3
100
AcDbLine
 10
-74.28133043
 20
18.99999939
 30
0.0
 11
-74.28133043
 21
10.99999994
 31
0.0
  0
LINE
  5
28E
100
AcDbEntity
  8
0
  6
CONTINUOUS
 62
       3
100
AcDbLine
 10
-62.28133079
 20
-30.99999949
 30
0.0
 11
-62.28133079
 21
-39.0000008
 31
0.0
  0
LINE
  5
28F
100
AcDbEntity
  8
0
  6
CONTINUOUS
 62
       3
100
AcDbLine
 10
-63.28133095
 20
30.9999995
 30
0.0
 11
-63.28133095
 21
39.00000081
 31
0.0
  0
LINE
  5
290
100
AcDbEntity
  8
0
  6
CONTINUOUS
 62
       3
100
AcDbLine
 10
-75.28133013
 20
-8.99999961
 30
0.0
 11
-75.28133013
 21
-1.00000004
 31
0.0
  0
LINE
  5
291
100
AcDbEntity
  8
0
  6
CONTINUOUS
 62
       3
100
AcDbLine
 10
-75.28133013
 20
-50.99999904
 30
0.0
 11
-75.28133013
 21
-59.00000035
 31
0.0
  0
LINE
  5
292
100
AcDbEntity
  8
0
  6
CONTINUOUS
 62
       3
100
AcDbLine
 10
-75.28133013
 20
-20.99999971
 30
0.0
 11
-62.28133079
 21
-20.99999971
 31
0.0
  0
LINE
  5
293
100
AcDbEntity
  8
0
  6
CONTINUOUS
 62
       3
100
AcDbLine
 10
-75.28133013
 20
8.99999962
 30
0.0
 11
-62.28133079
 21
8.99999962
 31
0.0
  0
LINE
  5
294
100
AcDbEntity
  8
0
  6
CONTINUOUS
 62
       3
100
AcDbLine
 10
-63.28133095
 20
41.00000114
 30
0.0
 11
-63.28133095
 21
48.99999872
 31
0.0
  0
LINE
  5
295
100
AcDbEntity
  8
0
  6
CONTINUOUS
 62
       3
100
AcDbLine
 10
-75.28133013
 20
18.99999939
 30
0.0
 11
-62.28133079
 21
18.99999939
 31
0.0
  0
LINE
  5
296
100
AcDbEntity
  8
0
  6
CONTINUOUS
 62
       3
100
AcDbLine
 10
-75.28133013
 20
-30.99999949
 30
0.0
 11
-62.28133079
 21
-30.99999949
 31
0.0
  0
LINE
  5
297
100
AcDbEntity
  8
0
  6
CONTINUOUS
 62
       3
100
AcDbLine
 10
-75.28133013
 20
41.00000114
 30
0.0
 11
-75.28133013
 21
39.00000081
 31
0.0
  0
LINE
  5
298
100
AcDbEntity
  8
0
  6
CONTINUOUS
 62
       3
100
AcDbLine
 10
-63.28133095
 20
-48.99999872
 30
0.0
 11
-63.28133095
 21
-41.00000113
 31
0.0
  0
LINE
  5
299
100
AcDbEntity
  8
0
  6
CONTINUOUS
 62
       3
100
AcDbLine
 10
-61.78132978
 20
-59.59999934
 30
0.0
 11
-61.78132978
 21
59.59999934
 31
0.0
  0
LINE
  5
29A
100
AcDbEntity
  8
0
  6
CONTINUOUS
 62
       3
100
AcDbLine
 10
-75.28133013
 20
28.99999917
 30
0.0
 11
-62.28133079
 21
28.99999917
 31
0.0
  0
LINE
  5
29B
100
AcDbEntity
  8
0
  6
CONTINUOUS
 62
       3
100
AcDbLine
 10
-75.28133013
 20
1.00000005
 30
0.0
 11
-75.28133013
 21
8.99999962
 31
0.0
  0
LINE
  5
29C
100
AcDbEntity
  8
0
  6
CONTINUOUS
 62
       3
100
AcDbLine
 10
-75.28133013
 20
30.9999995
 30
0.0
 11
-75.28133013
 21
28.99999917
 31
0.0
  0
LINE
  5
29D
100
AcDbEntity
  8
0
  6
CONTINUOUS
 62
       3
100
AcDbLine
 10
-75.28133013
 20
-10.99999994
 30
0.0
 11
-62.28133079
 21
-10.99999994
 31
0.0
  0
LINE
  5
29E
100
AcDbEntity
  8
0
  6
CONTINUOUS
 62
       3
100
AcDbLine
 10
-62.28133079
 20
50.99999905
 30
0.0
 11
-75.28133013
 21
50.99999905
 31
0.0
  0
LINE
  5
29F
100
AcDbEntity
  8
0
  6
CONTINUOUS
 62
       3
100
AcDbLine
 10
-75.28133013
 20
-48.99999872
 30
0.0
 11
-75.28133013
 21
-41.00000113
 31
0.0
  0
LINE
  5
2A0
100
AcDbEntity
  8
0
  6
CONTINUOUS
 62
       3
100
AcDbLine
 10
-74.28133043
 20
8.99999962
 30
0.0
 11
-74.28133043
 21
1.00000005
 31
0.0
  0
LINE
  5
2A1
100
AcDbEntity
  8
0
  6
CONTINUOUS
 62
       3
100
AcDbLine
 10
-62.28133079
 20
-20.99999971
 30
0.0
 11
-62.28133079
 21
-28.99999916
 31
0.0
  0
LINE
  5
2A2
100
AcDbEntity
  8
0
  6
CONTINUOUS
 62
       3
100
AcDbLine
 10
-62.28133079
 20
-10.99999994
 30
0.0
 11
-62.28133079
 21
-18.99999939
 31
0.0
  0
LINE
  5
2A3
100
AcDbEntity
  8
0
  6
CONTINUOUS
 62
       3
100
AcDbLine
 10
-62.28133079
 20
-20.99999971
 30
0.0
 11
-62.28133079
 21
-18.99999939
 31
0.0
  0
LINE
  5
2A4
100
AcDbEntity
  8
0
  6
CONTINUOUS
 62
       3
100
AcDbLine
 10
-75.28133013
 20
-18.99999939
 30
0.0
 11
-75.28133013
 21
-20.99999971
 31
0.0
  0
LINE
  5
2A5
100
AcDbEntity
  8
0
  6
CONTINUOUS
 62
       3
100
AcDbLine
 10
-74.28133043
 20
-20.99999971
 30
0.0
 11
-74.28133043
 21
-28.99999916
 31
0.0
  0
LINE
  5
2A6
100
AcDbEntity
  8
0
  6
CONTINUOUS
 62
       3
100
AcDbLine
 10
-62.28133079
 20
18.99999939
 30
0.0
 11
-62.28133079
 21
20.99999972
 31
0.0
  0
LINE
  5
2A7
100
AcDbEntity
  8
0
  6
CONTINUOUS
 62
       3
100
AcDbLine
 10
-62.28133079
 20
8.99999962
 30
0.0
 11
-62.28133079
 21
10.99999994
 31
0.0
  0
LINE
  5
2A8
100
AcDbEntity
  8
0
  6
CONTINUOUS
 62
       3
100
AcDbLine
 10
-62.28133079
 20
30.9999995
 30
0.0
 11
-75.28133013
 21
30.9999995
 31
0.0
  0
LINE
  5
2A9
100
AcDbEntity
  8
0
  6
CONTINUOUS
 62
       3
100
AcDbLine
 10
-74.28133043
 20
-30.99999949
 30
0.0
 11
-74.28133043
 21
-39.0000008
 31
0.0
  0
LINE
  5
2AA
100
AcDbEntity
  8
0
  6
CONTINUOUS
 62
       3
100
AcDbLine
 10
-75.28133013
 20
30.9999995
 30
0.0
 11
-75.28133013
 21
39.00000081
 31
0.0
  0
LINE
  5
2AB
100
AcDbEntity
  8
0
  6
CONTINUOUS
 62
       3
100
AcDbLine
 10
-75.28133013
 20
20.99999972
 30
0.0
 11
-75.28133013
 21
18.99999939
 31
0.0
  0
LINE
  5
2AC
100
AcDbEntity
  8
0
  6
CONTINUOUS
 62
       3
100
AcDbLine
 10
-62.28133079
 20
-48.99999872
 30
0.0
 11
-75.28133013
 21
-48.99999872
 31
0.0
  0
LINE
  5
2AD
100
AcDbEntity
  8
0
  6
CONTINUOUS
 62
       3
100
AcDbLine
 10
-62.28133079
 20
-10.99999994
 30
0.0
 11
-62.28133079
 21
-8.99999961
 31
0.0
  0
LINE
  5
2AE
100
AcDbEntity
  8
0
  6
CONTINUOUS
 62
       3
100
AcDbLine
 10
-75.28133013
 20
-39.0000008
 30
0.0
 11
-75.28133013
 21
-41.00000113
 31
0.0
  0
LINE
  5
2AF
100
AcDbEntity
  8
0
  6
CONTINUOUS
 62
       3
100
AcDbLine
 10
-74.28133043
 20
-41.00000113
 30
0.0
 11
-74.28133043
 21
-48.99999872
 31
0.0
  0
LINE
  5
2B0
100
AcDbEntity
  8
0
  6
CONTINUOUS
 62
       3
100
AcDbLine
 10
-74.28133043
 20
48.99999872
 30
0.0
 11
-74.28133043
 21
41.00000114
 31
0.0
  0
LINE
  5
2B1
100
AcDbEntity
  8
0
  6
CONTINUOUS
 62
       3
100
AcDbLine
 10
-74.28133043
 20
-1.00000004
 30
0.0
 11
-74.28133043
 21
-8.99999961
 31
0.0
  0
LINE
  5
2B2
100
AcDbEntity
  8
0
  6
CONTINUOUS
 62
       3
100
AcDbLine
 10
-75.78133044
 20
59.59999934
 30
0.0
 11
-75.78133044
 21
-59.59999934
 31
0.0
  0
LINE
  5
2B3
100
AcDbEntity
  8
0
  6
CONTINUOUS
 62
       3
100
AcDbLine
 10
-62.28133079
 20
-18.99999939
 30
0.0
 11
-75.28133013
 21
-18.99999939
 31
0.0
  0
LINE
  5
2B4
100
AcDbEntity
  8
0
  6
CONTINUOUS
 62
       3
100
AcDbLine
 10
-75.28133013
 20
50.99999905
 30
0.0
 11
-75.28133013
 21
48.99999872
 31
0.0
  0
LINE
  5
2B5
100
AcDbEntity
  8
0
  6
CONTINUOUS
 62
       3
100
AcDbLine
 10
-75.28133013
 20
-28.99999916
 30
0.0
 11
-75.28133013
 21
-20.99999971
 31
0.0
  0
LINE
  5
2B6
100
AcDbEntity
  8
0
  6
CONTINUOUS
 62
       3
100
AcDbLine
 10
-62.28133079
 20
-59.00000035
 30
0.0
 11
-62.28133079
 21
-50.99999904
 31
0.0
  0
LINE
  5
2B7
100
AcDbEntity
  8
0
  6
CONTINUOUS
 62
       3
100
AcDbLine
 10
-62.28133079
 20
20.99999972
 30
0.0
 11
-75.28133013
 21
20.99999972
 31
0.0
  0
LINE
  5
2B8
100
AcDbEntity
  8
0
  6
CONTINUOUS
 62
       3
100
AcDbLine
 10
-62.28133079
 20
28.99999917
 30
0.0
 11
-62.28133079
 21
30.9999995
 31
0.0
  0
LINE
  5
2B9
100
AcDbEntity
  8
0
  6
CONTINUOUS
 62
       3
100
AcDbLine
 10
-62.28133079
 20
-41.00000113
 30
0.0
 11
-62.28133079
 21
-39.0000008
 31
0.0
  0
LINE
  5
2BA
100
AcDbEntity
  8
0
  6
CONTINUOUS
 62
       3
100
AcDbLine
 10
-63.28133095
 20
20.99999972
 30
0.0
 11
-63.28133095
 21
28.99999917
 31
0.0
  0
LINE
  5
2BB
100
AcDbEntity
  8
0
  6
CONTINUOUS
 62
       3
100
AcDbLine
 10
-63.28133095
 20
-28.99999916
 30
0.0
 11
-63.28133095
 21
-20.99999971
 31
0.0
  0
LINE
  5
2BC
100
AcDbEntity
  8
0
  6
CONTINUOUS
 62
       3
100
AcDbLine
 10
-62.28133079
 20
18.99999939
 30
0.0
 11
-62.28133079
 21
10.99999994
 31
0.0
  0
LINE
  5
2BD
100
AcDbEntity
  8
0
  6
CONTINUOUS
 62
       3
100
AcDbLine
 10
-75.28133013
 20
20.99999972
 30
0.0
 11
-75.28133013
 21
28.99999917
 31
0.0
  0
LINE
  5
2BE
100
AcDbEntity
  8
0
  6
CONTINUOUS
 62
       3
100
AcDbLine
 10
-62.28133079
 20
-48.99999872
 30
0.0
 11
-62.28133079
 21
-50.99999904
 31
0.0
  0
LINE
  5
2BF
100
AcDbEntity
  8
0
  6
CONTINUOUS
 62
       3
100
AcDbLine
 10
-62.28133079
 20
50.99999905
 30
0.0
 11
-62.28133079
 21
59.00000036
 31
0.0
  0
TEXT
  5
2C0
100
AcDbEntity
  8
0
 62
       7
100
AcDbText
 10
82.07318532
 20
-104.10523415
 30
0.0
 40
5.0
  1
000
 41
0.8
 72
       5
 11
94.07318532
 21
-104.10523415
 31
0.0
100
AcDbText
  0
ENDSEC
  0
SECTION
  2
OBJECTS
  0
DICTIONARY
  5
19
100
AcDbDictionary
  3
ACAD_GROUP
350
1A
  3
ACAD_MLINESTYLE
350
1B
  0
DICTIONARY
  5
1A
102
{ACAD_REACTORS
330
19
102
}
100
AcDbDictionary
  0
DICTIONARY
  5
1B
102
{ACAD_REACTORS
330
19
102
}
100
AcDbDictionary
  3
STANDARD
350
1C
  0
MLINESTYLE
  5
1C
102
{ACAD_REACTORS
330
1B
102
}
100
AcDbMlineStyle
  2
STANDARD
 70
       0
  3

 62
       0
 51
90.0
 52
90.0
 71
       2
 49
0.5
 62
     256
  6
BYLAYER
 49
-0.5
 62
     256
  6
BYLAYER
  0
ENDSEC
  0
EOF
