  0
SECTION
  2
HEADER
  9
$ACADVER
  1
AC1014
  9
$ACADMAINTVER
 70
       0
  9
$DWGCODEPAGE
  3
ANSI_932
  9
$INSBASE
 10
0.0
 20
0.0
 30
0.0
  9
$EXTMIN
 10
123.93450416
 20
-351.44950896
 30
0.0
  9
$EXTMAX
 10
343.43966903
 20
-162.19099481
 30
0.0
  9
$LIMMIN
 10
117.07496776
 20
-357.36383753
  9
$LIMMAX
 10
350.29920543
 20
-156.27666624
  9
$ORTHOMODE
 70
       0
  9
$REGENMODE
 70
       1
  9
$FILLMODE
 70
       1
  9
$QTEXTMODE
 70
       0
  9
$MIRRTEXT
 70
       1
  9
$DRAGMODE
 70
       2
  9
$LTSCALE
 40
1.0
  9
$OSMODE
 70
       0
  9
$ATTMODE
 70
       1
  9
$TEXTSIZE
 40
0.2
  9
$TRACEWID
 40
0.05
  9
$TEXTSTYLE
  7
STANDARD
  9
$CLAYER
  8
0
  9
$CELTYPE
  6
CONTINUOUS
  9
$CECOLOR
 62
     256
  9
$CELTSCALE
 40
1.0
  9
$DELOBJ
 70
       1
  9
$DISPSILH
 70
       0
  9
$DIMSCALE
 40
1.0
  9
$DIMASZ
 40
0.18
  9
$DIMEXO
 40
0.0625
  9
$DIMDLI
 40
0.38
  9
$DIMRND
 40
0.0
  9
$DIMDLE
 40
0.0
  9
$DIMEXE
 40
0.18
  9
$DIMTP
 40
0.0
  9
$DIMTM
 40
0.0
  9
$DIMTXT
 40
0.18
  9
$DIMCEN
 40
0.09
  9
$DIMTSZ
 40
0.0
  9
$DIMTOL
 70
       0
  9
$DIMLIM
 70
       0
  9
$DIMTIH
 70
       1
  9
$DIMTOH
 70
       1
  9
$DIMSE1
 70
       0
  9
$DIMSE2
 70
       0
  9
$DIMTAD
 70
       0
  9
$DIMZIN
 70
       0
  9
$DIMBLK
  1

  9
$DIMASO
 70
       1
  9
$DIMSHO
 70
       1
  9
$DIMPOST
  1

  9
$DIMAPOST
  1

  9
$DIMALT
 70
       0
  9
$DIMALTD
 70
       2
  9
$DIMALTF
 40
25.4
  9
$DIMLFAC
 40
1.0
  9
$DIMTOFL
 70
       0
  9
$DIMTVP
 40
0.0
  9
$DIMTIX
 70
       0
  9
$DIMSOXD
 70
       0
  9
$DIMSAH
 70
       0
  9
$DIMBLK1
  1

  9
$DIMBLK2
  1

  9
$DIMSTYLE
  2
STANDARD
  9
$DIMCLRD
 70
       0
  9
$DIMCLRE
 70
       0
  9
$DIMCLRT
 70
       0
  9
$DIMTFAC
 40
1.0
  9
$DIMGAP
 40
0.09
  9
$DIMJUST
 70
       0
  9
$DIMSD1
 70
       0
  9
$DIMSD2
 70
       0
  9
$DIMTOLJ
 70
       1
  9
$DIMTZIN
 70
       0
  9
$DIMALTZ
 70
       0
  9
$DIMALTTZ
 70
       0
  9
$DIMFIT
 70
       3
  9
$DIMUPT
 70
       0
  9
$DIMUNIT
 70
       2
  9
$DIMDEC
 70
       4
  9
$DIMTDEC
 70
       4
  9
$DIMALTU
 70
       2
  9
$DIMALTTD
 70
       2
  9
$DIMTXSTY
  7
STANDARD
  9
$DIMAUNIT
 70
       0
  9
$LUNITS
 70
       2
  9
$LUPREC
 70
       4
  9
$SKETCHINC
 40
0.1
  9
$FILLETRAD
 40
0.0
  9
$AUNITS
 70
       0
  9
$AUPREC
 70
       0
  9
$MENU
  1
acad
  9
$ELEVATION
 40
0.0
  9
$PELEVATION
 40
0.0
  9
$THICKNESS
 40
0.0
  9
$LIMCHECK
 70
       0
  9
$BLIPMODE
 70
       1
  9
$CHAMFERA
 40
0.0
  9
$CHAMFERB
 40
0.0
  9
$CHAMFERC
 40
0.0
  9
$CHAMFERD
 40
0.0
  9
$SKPOLY
 70
       0
  9
$TDCREATE
 40
0.000000000
  9
$TDUPDATE
 40
0.000000000
  9
$TDINDWG
 40
0.0000000000
  9
$TDUSRTIMER
 40
0.0000000000
  9
$USRTIMER
 70
       1
  9
$ANGBASE
 50
0.0
  9
$ANGDIR
 70
       0
  9
$PDMODE
 70
       0
  9
$PDSIZE
 40
1.0
  9
$PLINEWID
 40
0.0
  9
$COORDS
 70
       1
  9
$SPLFRAME
 70
       0
  9
$SPLINETYPE
 70
       6
  9
$SPLINESEGS
 70
       8
  9
$ATTDIA
 70
       0
  9
$ATTREQ
 70
       1
  9
$HANDLING
 70
       1
  9
$HANDSEED
  5
12C
  9
$SURFTAB1
 70
       6
  9
$SURFTAB2
 70
       6
  9
$SURFTYPE
 70
       6
  9
$SURFU
 70
       6
  9
$SURFV
 70
       6
  9
$UCSNAME
  2

  9
$UCSORG
 10
0.0
 20
0.0
 30
0.0
  9
$UCSXDIR
 10
1.0
 20
0.0
 30
0.0
  9
$UCSYDIR
 10
0.0
 20
1.0
 30
0.0
  9
$PUCSNAME
  2

  9
$PUCSORG
 10
0.0
 20
0.0
 30
0.0
  9
$PUCSXDIR
 10
1.0
 20
0.0
 30
0.0
  9
$PUCSYDIR
 10
0.0
 20
1.0
 30
0.0
  9
$USERI1
 70
       0
  9
$USERI2
 70
       0
  9
$USERI3
 70
       0
  9
$USERI4
 70
       0
  9
$USERI5
 70
       0
  9
$USERR1
 40
0.0
  9
$USERR2
 40
0.0
  9
$USERR3
 40
0.0
  9
$USERR4
 40
0.0
  9
$USERR5
 40
0.0
  9
$WORLDVIEW
 70
       1
  9
$SHADEDGE
 70
       3
  9
$SHADEDIF
 70
      70
  9
$TILEMODE
 70
       1
  9
$MAXACTVP
 70
      16
  9
$PINSBASE
 10
0.0
 20
0.0
 30
0.0
  9
$PLIMCHECK
 70
       0
  9
$PEXTMIN
 10
1.00000000E+20
 20
1.00000000E+20
 30
1.00000000E+20
  9
$PEXTMAX
 10
-1.00000000E+20
 20
-1.00000000E+20
 30
-1.00000000E+20
  9
$PLIMMIN
 10
0.0
 20
0.0
  9
$PLIMMAX
 10
12.0
 20
9.0
  9
$UNITMODE
 70
       0
  9
$VISRETAIN
 70
       0
  9
$PLINEGEN
 70
       1
  9
$PSLTSCALE
 70
       0
  9
$TREEDEPTH
 70
    3020
  9
$PICKSTYLE
 70
       1
  9
$CMLSTYLE
  2
STANDARD
  9
$CMLJUST
 70
       0
  9
$CMLSCALE
 40
1.0
  9
$PROXYGRAPHICS
 70
       0
  9
$MEASUREMENT
 70
       0
  0
ENDSEC
  0
SECTION
  2
CLASSES
  0
CLASS
  1
LWPOLYLINE
  2
AcDbPolyline
  3
"AutoCAD"
 90
        0
280
       0
281
       1
  0
CLASS
  1
IMAGE
  2
AcDbRasterImage
  3
ISM
 90
      127
280
       0
281
       1
  0
CLASS
  1
OLE2FRAME
  2
AcDbOle2Frame
  3
""
 90
        0
280
       0
281
       1
  0
CLASS
  1
HATCH
  2
AcDbHatch
  3
"ACAD_SEDONA"
 90
        0
280
       0
281
       1
  0
CLASS
  1
DICTIONARYVAR
  2
AcDbDictionaryVar
  3
"AutoCAD"
 90
        0
280
       0
281
       0
  0
CLASS
  1
RASTERVARIABLES
  2
AcDbRasterVariables
  3
ISM
 90
        0
280
       0
281
       0
  0
CLASS
  1
IMAGEDEF
  2
AcDbRasterImageDef
  3
ISM
 90
        0
280
       0
281
       0
  0
CLASS
  1
IMAGEDEF_REACTOR
  2
AcDbRasterImageDefReactor
  3
ISM
 90
        1
280
       0
281
       0
  0
CLASS
  1
IDBUFFER
  2
AcDbIdBuffer
  3
"Acad"
 90
        0
280
       0
281
       0
  0
CLASS
  1
SPATIAL_FILTER
  2
AcDbSpatialFilter
  3
"Acad"
 90
        0
280
       0
281
       0
  0
CLASS
  1
XRECORD
  2
AcDbXrecord
  3
"<Built In>"
 90
        0
280
       0
281
       0
  0
CLASS
  1
SORTENTSTABLE
  2
AcDbSortentsTable
  3
"AutoCAD"
 90
        0
280
       0
281
       0
  0
CLASS
  1
LAYER_INDEX
  2
AcDbLayerIndex
  3
"Acad"
 90
        0
280
       0
281
       0
  0
CLASS
  1
SPATIAL_INDEX
  2
AcDbSpatialIndex
  3
"Acad"
 90
        0
280
       0
281
       0
  0
CLASS
  1
OBJECT_PTR
  2
CAseDLPNTableRecord
  3
"ASE-LPNTableRecord"
 90
        1
280
       0
281
       0
  0
CLASS
  1
LAYOUT
  2
AcDbLayout
  3
"AutoCAD 2000"
 90
        1
280
       0
281
       0
  0
CLASS
  1
PLOTSETTINGS
  2
AcDbPlotSettings
  3
"AutoCAD 2000"
 90
        1
280
       0
281
       0
  0
CLASS
  1
ACDBDICTIONARYWDFLT
  2
AcDbDictionaryWithDefault
  3
"AutoCAD 2000"
 90
        1
280
       0
281
       0
  0
CLASS
  1
ACDBPLACEHOLDER
  2
AcDbPlaceHolder
  3
"AutoCAD 2000"
 90
        1
280
       0
281
       0
  0
CLASS
  1
VBA_PROJECT
  2
AcDbVbaProject
  3
"acadvba"
 90
        1
280
       0
281
       0
  0
CLASS
  1
WIPEOUT
  2
AcDbWipeout
  3
WipeOut|AutoCAD Express Tool|expresstools@autodesk.com
 90
      127
280
       0
281
       1
  0
CLASS
  1
WIPEOUTVARIABLES
  2
AcDbWipeoutVariables
  3
WipeOut|AutoCAD Express Tool|expresstools@autodesk.com
 90
        0
280
       0
281
       0
  0
CLASS
  1
RTEXT
  2
RText
  3
RText|AutoCAD Express Tool|expresstools@autodesk.com
 90
        0
280
       0
281
       1
  0
CLASS
  1
ARCALIGNEDTEXT
  2
AcDbArcAlignedText
  3
ATEXT|AutoCAD Express Tool|expresstools@autodesk.com
 90
        0
280
       0
281
       1
  0
ENDSEC
  0
SECTION
  2
TABLES
  0
TABLE
  2
VPORT
  5
7
100
AcDbSymbolTable
 70
       1
  0
VPORT
  5
15
100
AcDbSymbolTableRecord
100
AcDbViewportTableRecord
  2
*ACTIVE
 70
       0
 10
0.0
 20
0.0
 11
1.0
 21
1.0
 12
233.6870866
 22
-256.82025189
 13
0.0
 23
0.0
 14
1.0
 24
1.0
 15
0.0
 25
0.0
 16
0.0
 26
0.0
 36
1.0
 17
0.0
 27
0.0
 37
0.0
 40
201.08717129
 41
1.15981659
 42
50.0
 43
0.0
 44
0.0
 50
0.0
 51
0.0
 71
       0
 72
     100
 73
       1
 74
       1
 75
       0
 76
       0
 77
       0
 78
       0
  0
ENDTAB
  0
TABLE
  2
LTYPE
  5
4
100
AcDbSymbolTable
 70
      30
  0
LTYPE
  5
11
100
AcDbSymbolTableRecord
100
AcDbLinetypeTableRecord
  2
BYBLOCK
 70
      64
  3

 72
      65
 73
       0
 40
0.0
  0
LTYPE
  5
12
100
AcDbSymbolTableRecord
100
AcDbLinetypeTableRecord
  2
BYLAYER
 70
      64
  3

 72
      65
 73
       0
 40
0.0
  0
LTYPE
  5
13
100
AcDbSymbolTableRecord
100
AcDbLinetypeTableRecord
  2
CONTINUOUS
 70
      64
  3
Solid line
 72
      65
 73
       0
 40
0.0
  0
LTYPE
  5
1D
100
AcDbSymbolTableRecord
100
AcDbLinetypeTableRecord
  2
HIDDENX2
 70
      64
  3
CADPAC LINETYPE
 72
      65
 73
       2
 40
40.61797264
 49
30.46347948
 74
       0
 49
-10.15449316
 74
       0
  0
LTYPE
  5
1E
100
AcDbSymbolTableRecord
100
AcDbLinetypeTableRecord
  2
HIDDEN
 70
      64
  3
CADPAC LINETYPE
 72
      65
 73
       2
 40
30.46347948
 49
20.30898632
 74
       0
 49
-10.15449316
 74
       0
  0
LTYPE
  5
1F
100
AcDbSymbolTableRecord
100
AcDbLinetypeTableRecord
  2
HIDDEN2
 70
      64
  3
CADPAC LINETYPE
 72
      65
 73
       2
 40
25.3862329
 49
15.23173974
 74
       0
 49
-10.15449316
 74
       0
  0
LTYPE
  5
20
100
AcDbSymbolTableRecord
100
AcDbLinetypeTableRecord
  2
DASHED
 70
      64
  3
CADPAC LINETYPE
 72
      65
 73
       2
 40
30.46347948
 49
20.30898632
 74
       0
 49
-10.15449316
 74
       0
  0
LTYPE
  5
21
100
AcDbSymbolTableRecord
100
AcDbLinetypeTableRecord
  2
DASHED2
 70
      64
  3
CADPAC LINETYPE
 72
      65
 73
       2
 40
22.84760961
 49
15.23173974
 74
       0
 49
-7.61586987
 74
       0
  0
LTYPE
  5
22
100
AcDbSymbolTableRecord
100
AcDbLinetypeTableRecord
  2
DASHEDX2
 70
      64
  3
CADPAC LINETYPE
 72
      65
 73
       2
 40
45.69521922
 49
30.46347948
 74
       0
 49
-15.23173974
 74
       0
  0
LTYPE
  5
23
100
AcDbSymbolTableRecord
100
AcDbLinetypeTableRecord
  2
DOTX2
 70
      64
  3
CADPAC LINETYPE
 72
      65
 73
       2
 40
12.69311645
 49
0.0
 74
       0
 49
-12.69311645
 74
       0
  0
LTYPE
  5
24
100
AcDbSymbolTableRecord
100
AcDbLinetypeTableRecord
  2
DOT
 70
      64
  3
CADPAC LINETYPE
 72
      65
 73
       2
 40
10.15449316
 49
0.0
 74
       0
 49
-10.15449316
 74
       0
  0
LTYPE
  5
25
100
AcDbSymbolTableRecord
100
AcDbLinetypeTableRecord
  2
DOT2
 70
      64
  3
CADPAC LINETYPE
 72
      65
 73
       2
 40
7.61586987
 49
0.0
 74
       0
 49
-7.61586987
 74
       0
  0
LTYPE
  5
26
100
AcDbSymbolTableRecord
100
AcDbLinetypeTableRecord
  2
CENTERX2
 70
      64
  3
CADPAC LINETYPE
 72
      65
 73
       4
 40
60.92695895
 49
25.3862329
 74
       0
 49
-12.69311645
 74
       0
 49
10.15449316
 74
       0
 49
-12.69311645
 74
       0
  0
LTYPE
  5
27
100
AcDbSymbolTableRecord
100
AcDbLinetypeTableRecord
  2
CENTER
 70
      64
  3
CADPAC LINETYPE
 72
      65
 73
       4
 40
46.71066853
 49
20.30898632
 74
       0
 49
-10.15449316
 74
       0
 49
6.0926959
 74
       0
 49
-10.15449316
 74
       0
  0
LTYPE
  5
28
100
AcDbSymbolTableRecord
100
AcDbLinetypeTableRecord
  2
CENTER2
 70
      64
  3
CADPAC LINETYPE
 72
      65
 73
       4
 40
32.49437811
 49
15.23173974
 74
       0
 49
-7.61586987
 74
       0
 49
2.03089863
 74
       0
 49
-7.61586987
 74
       0
  0
LTYPE
  5
29
100
AcDbSymbolTableRecord
100
AcDbLinetypeTableRecord
  2
DASHDOTX2
 70
      64
  3
CADPAC LINETYPE
 72
      65
 73
       4
 40
50.7724658
 49
25.3862329
 74
       0
 49
-12.69311645
 74
       0
 49
0.0
 74
       0
 49
-12.69311645
 74
       0
  0
LTYPE
  5
2A
100
AcDbSymbolTableRecord
100
AcDbLinetypeTableRecord
  2
DASHDOT
 70
      64
  3
CADPAC LINETYPE
 72
      65
 73
       4
 40
40.61797264
 49
20.30898632
 74
       0
 49
-10.15449316
 74
       0
 49
0.0
 74
       0
 49
-10.15449316
 74
       0
  0
LTYPE
  5
2B
100
AcDbSymbolTableRecord
100
AcDbLinetypeTableRecord
  2
DASHDOT2
 70
      64
  3
CADPAC LINETYPE
 72
      65
 73
       4
 40
30.46347948
 49
15.23173974
 74
       0
 49
-7.61586987
 74
       0
 49
0.0
 74
       0
 49
-7.61586987
 74
       0
  0
LTYPE
  5
2C
100
AcDbSymbolTableRecord
100
AcDbLinetypeTableRecord
  2
DIVIDEX2
 70
      64
  3
CADPAC LINETYPE
 72
      65
 73
       6
 40
63.46558224
 49
25.3862329
 74
       0
 49
-12.69311645
 74
       0
 49
0.0
 74
       0
 49
-12.69311645
 74
       0
 49
0.0
 74
       0
 49
-12.69311645
 74
       0
  0
LTYPE
  5
2D
100
AcDbSymbolTableRecord
100
AcDbLinetypeTableRecord
  2
DIVIDE
 70
      64
  3
CADPAC LINETYPE
 72
      65
 73
       6
 40
50.7724658
 49
20.30898632
 74
       0
 49
-10.15449316
 74
       0
 49
0.0
 74
       0
 49
-10.15449316
 74
       0
 49
0.0
 74
       0
 49
-10.15449316
 74
       0
  0
LTYPE
  5
2E
100
AcDbSymbolTableRecord
100
AcDbLinetypeTableRecord
  2
DIVIDE2
 70
      64
  3
CADPAC LINETYPE
 72
      65
 73
       6
 40
38.07934935
 49
15.23173974
 74
       0
 49
-7.61586987
 74
       0
 49
0.0
 74
       0
 49
-7.61586987
 74
       0
 49
0.0
 74
       0
 49
-7.61586987
 74
       0
  0
LTYPE
  5
2F
100
AcDbSymbolTableRecord
100
AcDbLinetypeTableRecord
  2
BORDERX2
 70
      64
  3
CADPAC LINETYPE
 72
      65
 73
       6
 40
88.85181514
 49
25.3862329
 74
       0
 49
-12.69311645
 74
       0
 49
25.3862329
 74
       0
 49
-12.69311645
 74
       0
 49
0.0
 74
       0
 49
-12.69311645
 74
       0
  0
LTYPE
  5
30
100
AcDbSymbolTableRecord
100
AcDbLinetypeTableRecord
  2
BORDER
 70
      64
  3
CADPAC LINETYPE
 72
      65
 73
       6
 40
71.08145211
 49
20.30898632
 74
       0
 49
-10.15449316
 74
       0
 49
20.30898632
 74
       0
 49
-10.15449316
 74
       0
 49
0.0
 74
       0
 49
-10.15449316
 74
       0
  0
LTYPE
  5
31
100
AcDbSymbolTableRecord
100
AcDbLinetypeTableRecord
  2
BORDER2
 70
      64
  3
CADPAC LINETYPE
 72
      65
 73
       6
 40
53.31108908
 49
15.23173974
 74
       0
 49
-7.61586987
 74
       0
 49
15.23173974
 74
       0
 49
-7.61586987
 74
       0
 49
0.0
 74
       0
 49
-7.61586987
 74
       0
  0
LTYPE
  5
32
100
AcDbSymbolTableRecord
100
AcDbLinetypeTableRecord
  2
PHANTOMX2
 70
      64
  3
CADPAC LINETYPE
 72
      65
 73
       6
 40
76.15869869
 49
25.3862329
 74
       0
 49
-10.15449316
 74
       0
 49
10.15449316
 74
       0
 49
-10.15449316
 74
       0
 49
10.15449316
 74
       0
 49
-10.15449316
 74
       0
  0
LTYPE
  5
33
100
AcDbSymbolTableRecord
100
AcDbLinetypeTableRecord
  2
PHANTOM
 70
      64
  3
CADPAC LINETYPE
 72
      65
 73
       6
 40
62.95785759
 49
20.30898632
 74
       0
 49
-10.15449316
 74
       0
 49
6.0926959
 74
       0
 49
-10.15449316
 74
       0
 49
6.0926959
 74
       0
 49
-10.15449316
 74
       0
  0
LTYPE
  5
34
100
AcDbSymbolTableRecord
100
AcDbLinetypeTableRecord
  2
PHANTOM2
 70
      64
  3
CADPAC LINETYPE
 72
      65
 73
       6
 40
53.81881374
 49
15.23173974
 74
       0
 49
-10.15449316
 74
       0
 49
4.06179726
 74
       0
 49
-10.15449316
 74
       0
 49
4.06179726
 74
       0
 49
-10.15449316
 74
       0
  0
LTYPE
  5
35
100
AcDbSymbolTableRecord
100
AcDbLinetypeTableRecord
  2
ACAD_ISO06W100
 70
      64
  3
CADPAC LINETYPE
 72
      65
 73
       8
 40
68.54282882
 49
25.3862329
 74
       0
 49
-12.69311645
 74
       0
 49
0.0
 74
       0
 49
-10.15449316
 74
       0
 49
0.0
 74
       0
 49
-10.15449316
 74
       0
 49
0.0
 74
       0
 49
-10.15449316
 74
       0
  0
LTYPE
  5
36
100
AcDbSymbolTableRecord
100
AcDbLinetypeTableRecord
  2
ACAD_ISO13W100
 70
      64
  3
CADPAC LINETYPE
 72
      65
 73
       8
 40
81.23594527
 49
20.30898632
 74
       0
 49
-10.15449316
 74
       0
 49
20.30898632
 74
       0
 49
-10.15449316
 74
       0
 49
0.0
 74
       0
 49
-10.15449316
 74
       0
 49
0.0
 74
       0
 49
-10.15449316
 74
       0
  0
LTYPE
  5
37
100
AcDbSymbolTableRecord
100
AcDbLinetypeTableRecord
  2
ACAD_ISO14W100
 70
      64
  3
CADPAC LINETYPE
 72
      65
 73
       8
 40
60.92695895
 49
20.30898632
 74
       0
 49
-10.15449316
 74
       0
 49
0.0
 74
       0
 49
-10.15449316
 74
       0
 49
0.0
 74
       0
 49
-10.15449316
 74
       0
 49
0.0
 74
       0
 49
-10.15449316
 74
       0
  0
ENDTAB
  0
TABLE
  2
LAYER
  5
2
100
AcDbSymbolTable
 70
       3
  0
LAYER
  5
14
100
AcDbSymbolTableRecord
100
AcDbLayerTableRecord
  2
0
 70
       0
 62
       7
  6
CONTINUOUS
  0
LAYER
  5
38
100
AcDbSymbolTableRecord
100
AcDbLayerTableRecord
  2
SLD-0_0
 70
       0
 62
       7
  6
CONTINUOUS
  0
LAYER
  5
39
100
AcDbSymbolTableRecord
100
AcDbLayerTableRecord
  2
SLD-0
 70
       0
 62
       7
  6
CONTINUOUS
  0
ENDTAB
  0
TABLE
  2
STYLE
  5
3
100
AcDbSymbolTable
 70
       1
  0
STYLE
  5
17
100
AcDbSymbolTableRecord
100
AcDbTextStyleTableRecord
  2
STANDARD
 70
       0
 40
0.0
 41
1.0
 50
0.0
 71
       0
 42
5.0
  3
txt.shx
  4
bigfont.shx
  0
ENDTAB
  0
TABLE
  2
VIEW
  5
5
100
AcDbSymbolTable
 70
       1
  0
VIEW
  5
3A
100
AcDbSymbolTableRecord
100
AcDbViewTableRecord
  2
QQQQ
 70
       0
 40
201.08717129
 10
233.6870866
 20
-256.82025189
 41
233.22423766
 11
0.0
 21
0.0
 31
1.0
 12
100.0
 22
100.0
 32
0.0
 42
50.0
 43
0.0
 44
0.0
 50
0.0
 71
       0
  0
ENDTAB
  0
TABLE
  2
UCS
  5
6
100
AcDbSymbolTable
 70
       0
  0
ENDTAB
  0
TABLE
  2
APPID
  5
8
100
AcDbSymbolTable
 70
       1
  0
APPID
  5
16
100
AcDbSymbolTableRecord
100
AcDbRegAppTableRecord
  2
ACAD
 70
       0
  0
ENDTAB
  0
TABLE
  2
DIMSTYLE
  5
9
100
AcDbSymbolTable
 70
       1
  0
DIMSTYLE
105
18
100
AcDbSymbolTableRecord
100
AcDbDimStyleTableRecord
  2
STANDARD
 70
       0
  3

  4

  5

  6

  7

 40
1.0
 41
0.18
 42
0.0625
 43
0.38
 44
0.18
 45
0.0
 46
0.0
 47
0.0
 48
0.0
 71
       0
 72
       0
 73
       1
 74
       1
 75
       0
 76
       0
 77
       0
 78
       0
140
0.18
141
0.09
142
0.0
143
25.4
144
1.0
145
0.0
146
1.0
147
0.09
170
       0
171
       2
172
       0
173
       0
174
       0
175
       0
176
       0
177
       0
178
       0
270
       2
271
       4
272
       4
273
       2
274
       2
275
       0
280
       0
281
       0
282
       0
283
       1
284
       0
285
       0
286
       0
287
       0
288
       0
340
17
  0
ENDTAB
  0
TABLE
  2
BLOCK_RECORD
  5
1
100
AcDbSymbolTable
 70
       0
  0
BLOCK_RECORD
  5
A
100
AcDbSymbolTableRecord
100
AcDbBlockTableRecord
  2
*MODEL_SPACE
  0
BLOCK_RECORD
  5
B
100
AcDbSymbolTableRecord
100
AcDbBlockTableRecord
  2
*PAPER_SPACE
  0
ENDTAB
  0
ENDSEC
  0
SECTION
  2
BLOCKS
  0
BLOCK
  5
D
100
AcDbEntity
  8
0
100
AcDbBlockBegin
  2
*MODEL_SPACE
 70
       0
 10
0.0
 20
0.0
 30
0.0
  3
*MODEL_SPACE
  1

  0
ENDBLK
  5
E
100
AcDbEntity
  8
0
100
AcDbBlockEnd
  0
BLOCK
  5
F
100
AcDbEntity
 67
       1
  8
0
100
AcDbBlockBegin
  2
*PAPER_SPACE
 70
       0
 10
0.0
 20
0.0
 30
0.0
  3
*PAPER_SPACE
  1

  0
ENDBLK
  5
10
100
AcDbEntity
 67
       1
  8
0
100
AcDbBlockEnd
  0
ENDSEC
  0
SECTION
  2
ENTITIES
  0
LINE
  5
3B
100
AcDbEntity
  8
0
  6
CONTINUOUS
 62
       3
100
AcDbLine
 10
190.16219277
 20
-296.83349845
 30
0.0
 11
180.16237248
 21
-296.83349845
 31
0.0
  0
LINE
  5
3C
100
AcDbEntity
  8
0
  6
CONTINUOUS
 62
       3
100
AcDbLine
 10
180.16237248
 20
-254.8308943
 30
0.0
 11
190.16219277
 21
-254.8308943
 31
0.0
  0
LINE
  5
3D
100
AcDbEntity
  8
0
  6
CONTINUOUS
 62
       3
100
AcDbLine
 10
180.16237248
 20
-206.82865635
 30
0.0
 11
180.16237248
 21
-214.82859871
 31
0.0
  0
LINE
  5
3E
100
AcDbEntity
  8
0
  6
CONTINUOUS
 62
       3
100
AcDbLine
 10
180.16237248
 20
-196.82711352
 30
0.0
 11
180.16237248
 21
-204.82748651
 31
0.0
  0
LINE
  5
3F
100
AcDbEntity
  8
0
  6
CONTINUOUS
 62
       3
100
AcDbLine
 10
163.14876843
 20
-214.82859871
 30
0.0
 11
163.14876843
 21
-206.82865635
 31
0.0
  0
LINE
  5
40
100
AcDbEntity
  8
0
  6
CONTINUOUS
 62
       3
100
AcDbLine
 10
190.16219277
 20
-266.83145378
 30
0.0
 11
180.16237248
 21
-266.83145378
 31
0.0
  0
LINE
  5
41
100
AcDbEntity
  8
0
  6
CONTINUOUS
 62
       3
100
AcDbLine
 10
188.1618842
 20
-224.8297109
 30
0.0
 11
188.1618842
 21
-216.82890727
 31
0.0
  0
LINE
  5
42
100
AcDbEntity
  8
0
  6
CONTINUOUS
 62
       3
100
AcDbLine
 10
171.14828015
 20
-274.83268805
 30
0.0
 11
161.14932114
 21
-274.83268805
 31
0.0
  0
LINE
  5
43
100
AcDbEntity
  8
0
  6
CONTINUOUS
 62
       3
100
AcDbLine
 10
161.14932114
 20
-296.83349845
 30
0.0
 11
171.14828015
 21
-296.83349845
 31
0.0
  0
LINE
  5
44
100
AcDbEntity
  8
0
  6
CONTINUOUS
 62
       3
100
AcDbLine
 10
180.16237248
 20
-286.83324753
 30
0.0
 11
180.16237248
 21
-294.83318989
 31
0.0
  0
LINE
  5
45
100
AcDbEntity
  8
0
  6
CONTINUOUS
 62
       3
100
AcDbLine
 10
188.1618842
 20
-234.83039246
 30
0.0
 11
188.1618842
 21
-226.82915819
 31
0.0
  0
LINE
  5
46
100
AcDbEntity
  8
0
  6
CONTINUOUS
 62
       3
100
AcDbLine
 10
190.16219277
 20
-304.83430208
 30
0.0
 11
190.16219277
 21
-186.8268626
 31
0.0
  0
LINE
  5
47
100
AcDbEntity
  8
0
  6
CONTINUOUS
 62
       3
100
AcDbLine
 10
171.14828015
 20
-204.82748651
 30
0.0
 11
161.14932114
 21
-204.82748651
 31
0.0
  0
LINE
  5
48
100
AcDbEntity
  8
0
  6
CONTINUOUS
 62
       3
100
AcDbLine
 10
171.14828015
 20
-206.82865635
 30
0.0
 11
171.14828015
 21
-214.82859871
 31
0.0
  0
LINE
  5
49
100
AcDbEntity
  8
0
  6
CONTINUOUS
 62
       3
100
AcDbLine
 10
163.14876843
 20
-244.83064338
 30
0.0
 11
163.14876843
 21
-236.82940911
 31
0.0
  0
LINE
  5
4A
100
AcDbEntity
  8
0
  6
CONTINUOUS
 62
       3
100
AcDbLine
 10
161.14932114
 20
-246.83095194
 30
0.0
 11
171.14828015
 21
-246.83095194
 31
0.0
  0
LINE
  5
4B
100
AcDbEntity
  8
0
  6
CONTINUOUS
 62
       3
100
AcDbLine
 10
171.14828015
 20
-284.83293897
 30
0.0
 11
161.14932114
 21
-284.83293897
 31
0.0
  0
LINE
  5
4C
100
AcDbEntity
  8
0
  6
CONTINUOUS
 62
       3
100
AcDbLine
 10
188.1618842
 20
-264.83243713
 30
0.0
 11
188.1618842
 21
-256.83120286
 31
0.0
  0
LINE
  5
4D
100
AcDbEntity
  8
0
  6
CONTINUOUS
 62
       3
100
AcDbLine
 10
188.1618842
 20
-254.8308943
 30
0.0
 11
188.1618842
 21
-246.83095194
 31
0.0
  0
LINE
  5
4E
100
AcDbEntity
  8
0
  6
CONTINUOUS
 62
       3
100
AcDbLine
 10
171.14828015
 20
-194.82809687
 30
0.0
 11
161.14932114
 21
-194.82809687
 31
0.0
  0
LINE
  5
4F
100
AcDbEntity
  8
0
  6
CONTINUOUS
 62
       3
100
AcDbLine
 10
161.14932114
 20
-276.83299661
 30
0.0
 11
171.14828015
 21
-276.83299661
 31
0.0
  0
LINE
  5
50
100
AcDbEntity
  8
0
  6
CONTINUOUS
 62
       3
100
AcDbLine
 10
190.16219277
 20
-256.83120286
 30
0.0
 11
180.16237248
 21
-256.83120286
 31
0.0
  0
LINE
  5
51
100
AcDbEntity
  8
0
  6
CONTINUOUS
 62
       3
100
AcDbLine
 10
190.16219277
 20
-196.82711352
 30
0.0
 11
180.16237248
 21
-196.82711352
 31
0.0
  0
LINE
  5
52
100
AcDbEntity
  8
0
  6
CONTINUOUS
 62
       3
100
AcDbLine
 10
163.14876843
 20
-294.83318989
 30
0.0
 11
163.14876843
 21
-286.83324753
 31
0.0
  0
LINE
  5
53
100
AcDbEntity
  8
0
  6
CONTINUOUS
 62
       3
100
AcDbLine
 10
163.14876843
 20
-254.8308943
 30
0.0
 11
163.14876843
 21
-246.83095194
 31
0.0
  0
LINE
  5
54
100
AcDbEntity
  8
0
  6
CONTINUOUS
 62
       3
100
AcDbLine
 10
163.14876843
 20
-274.83268805
 30
0.0
 11
163.14876843
 21
-266.83145378
 31
0.0
  0
LINE
  5
55
100
AcDbEntity
  8
0
  6
CONTINUOUS
 62
       3
100
AcDbLine
 10
171.14828015
 20
-296.83349845
 30
0.0
 11
171.14828015
 21
-304.83430208
 31
0.0
  0
LINE
  5
56
100
AcDbEntity
  8
0
  6
CONTINUOUS
 62
       3
100
AcDbLine
 10
190.16219277
 20
-276.83299661
 30
0.0
 11
180.16237248
 21
-276.83299661
 31
0.0
  0
LINE
  5
57
100
AcDbEntity
  8
0
  6
CONTINUOUS
 62
       3
100
AcDbLine
 10
188.1618842
 20
-274.83268805
 30
0.0
 11
188.1618842
 21
-266.83145378
 31
0.0
  0
LINE
  5
58
100
AcDbEntity
  8
0
  6
CONTINUOUS
 62
       3
100
AcDbLine
 10
180.16237248
 20
-216.82890727
 30
0.0
 11
180.16237248
 21
-224.8297109
 31
0.0
  0
LINE
  5
59
100
AcDbEntity
  8
0
  6
CONTINUOUS
 62
       3
100
AcDbLine
 10
161.14932114
 20
-286.83324753
 30
0.0
 11
171.14828015
 21
-286.83324753
 31
0.0
  0
LINE
  5
5A
100
AcDbEntity
  8
0
  6
CONTINUOUS
 62
       3
100
AcDbLine
 10
171.14828015
 20
-214.82859871
 30
0.0
 11
161.14932114
 21
-214.82859871
 31
0.0
  0
LINE
  5
5B
100
AcDbEntity
  8
0
  6
CONTINUOUS
 62
       3
100
AcDbLine
 10
171.14828015
 20
-246.83095194
 30
0.0
 11
171.14828015
 21
-254.8308943
 31
0.0
  0
LINE
  5
5C
100
AcDbEntity
  8
0
  6
CONTINUOUS
 62
       3
100
AcDbLine
 10
188.1618842
 20
-294.83318989
 30
0.0
 11
188.1618842
 21
-286.83324753
 31
0.0
  0
LINE
  5
5D
100
AcDbEntity
  8
0
  6
CONTINUOUS
 62
       3
100
AcDbLine
 10
180.16237248
 20
-276.83299661
 30
0.0
 11
180.16237248
 21
-284.83293897
 31
0.0
  0
LINE
  5
5E
100
AcDbEntity
  8
0
  6
CONTINUOUS
 62
       3
100
AcDbLine
 10
188.1618842
 20
-244.83064338
 30
0.0
 11
188.1618842
 21
-236.82940911
 31
0.0
  0
LINE
  5
5F
100
AcDbEntity
  8
0
  6
CONTINUOUS
 62
       3
100
AcDbLine
 10
188.1618842
 20
-194.82809687
 30
0.0
 11
188.1618842
 21
-186.8268626
 31
0.0
  0
LINE
  5
60
100
AcDbEntity
  8
0
  6
CONTINUOUS
 62
       3
100
AcDbLine
 10
163.14876843
 20
-204.82748651
 30
0.0
 11
163.14876843
 21
-196.82711352
 31
0.0
  0
LINE
  5
61
100
AcDbEntity
  8
0
  6
CONTINUOUS
 62
       3
100
AcDbLine
 10
171.14828015
 20
-216.82890727
 30
0.0
 11
171.14828015
 21
-224.8297109
 31
0.0
  0
LINE
  5
62
100
AcDbEntity
  8
0
  6
CONTINUOUS
 62
       3
100
AcDbLine
 10
171.14828015
 20
-264.83243713
 30
0.0
 11
161.14932114
 21
-264.83243713
 31
0.0
  0
LINE
  5
63
100
AcDbEntity
  8
0
  6
CONTINUOUS
 62
       3
100
AcDbLine
 10
180.16237248
 20
-266.83145378
 30
0.0
 11
180.16237248
 21
-274.83268805
 31
0.0
  0
LINE
  5
64
100
AcDbEntity
  8
0
  6
CONTINUOUS
 62
       3
100
AcDbLine
 10
180.16237248
 20
-256.83120286
 30
0.0
 11
180.16237248
 21
-264.83243713
 31
0.0
  0
LINE
  5
65
100
AcDbEntity
  8
0
  6
CONTINUOUS
 62
       3
100
AcDbLine
 10
190.16219277
 20
-226.82915819
 30
0.0
 11
180.16237248
 21
-226.82915819
 31
0.0
  0
LINE
  5
66
100
AcDbEntity
  8
0
  6
CONTINUOUS
 62
       3
100
AcDbLine
 10
190.16219277
 20
-216.82890727
 30
0.0
 11
180.16237248
 21
-216.82890727
 31
0.0
  0
LINE
  5
67
100
AcDbEntity
  8
0
  6
CONTINUOUS
 62
       3
100
AcDbLine
 10
180.16237248
 20
-186.8268626
 30
0.0
 11
180.16237248
 21
-194.82809687
 31
0.0
  0
LINE
  5
68
100
AcDbEntity
  8
0
  6
CONTINUOUS
 62
       3
100
AcDbLine
 10
161.14932114
 20
-186.8268626
 30
0.0
 11
161.14932114
 21
-304.83430208
 31
0.0
  0
LINE
  5
69
100
AcDbEntity
  8
0
  6
CONTINUOUS
 62
       3
100
AcDbLine
 10
171.14828015
 20
-236.82940911
 30
0.0
 11
171.14828015
 21
-244.83064338
 31
0.0
  0
LINE
  5
6A
100
AcDbEntity
  8
0
  6
CONTINUOUS
 62
       3
100
AcDbLine
 10
171.14828015
 20
-276.83299661
 30
0.0
 11
171.14828015
 21
-284.83293897
 31
0.0
  0
LINE
  5
6B
100
AcDbEntity
  8
0
  6
CONTINUOUS
 62
       3
100
AcDbLine
 10
190.16219277
 20
-236.82940911
 30
0.0
 11
180.16237248
 21
-236.82940911
 31
0.0
  0
LINE
  5
6C
100
AcDbEntity
  8
0
  6
CONTINUOUS
 62
       3
100
AcDbLine
 10
180.16237248
 20
-214.82859871
 30
0.0
 11
190.16219277
 21
-214.82859871
 31
0.0
  0
LINE
  5
6D
100
AcDbEntity
  8
0
  6
CONTINUOUS
 62
       3
100
AcDbLine
 10
171.14828015
 20
-196.82711352
 30
0.0
 11
171.14828015
 21
-204.82748651
 31
0.0
  0
LINE
  5
6E
100
AcDbEntity
  8
0
  6
CONTINUOUS
 62
       3
100
AcDbLine
 10
161.14932114
 20
-256.83120286
 30
0.0
 11
171.14828015
 21
-256.83120286
 31
0.0
  0
LINE
  5
6F
100
AcDbEntity
  8
0
  6
CONTINUOUS
 62
       3
100
AcDbLine
 10
161.14932114
 20
-266.83145378
 30
0.0
 11
171.14828015
 21
-266.83145378
 31
0.0
  0
LINE
  5
70
100
AcDbEntity
  8
0
  6
CONTINUOUS
 62
       3
100
AcDbLine
 10
188.1618842
 20
-304.83430208
 30
0.0
 11
188.1618842
 21
-296.83349845
 31
0.0
  0
LINE
  5
71
100
AcDbEntity
  8
0
  6
CONTINUOUS
 62
       3
100
AcDbLine
 10
188.1618842
 20
-284.83293897
 30
0.0
 11
188.1618842
 21
-276.83299661
 31
0.0
  0
LINE
  5
72
100
AcDbEntity
  8
0
  6
CONTINUOUS
 62
       3
100
AcDbLine
 10
190.16219277
 20
-246.83095194
 30
0.0
 11
180.16237248
 21
-246.83095194
 31
0.0
  0
LINE
  5
73
100
AcDbEntity
  8
0
  6
CONTINUOUS
 62
       3
100
AcDbLine
 10
180.16237248
 20
-204.82748651
 30
0.0
 11
190.16219277
 21
-204.82748651
 31
0.0
  0
LINE
  5
74
100
AcDbEntity
  8
0
  6
CONTINUOUS
 62
       3
100
AcDbLine
 10
161.14932114
 20
-304.83430208
 30
0.0
 11
190.16219277
 21
-304.83430208
 31
0.0
  0
LINE
  5
75
100
AcDbEntity
  8
0
  6
CONTINUOUS
 62
       3
100
AcDbLine
 10
163.14876843
 20
-284.83293897
 30
0.0
 11
163.14876843
 21
-276.83299661
 31
0.0
  0
LINE
  5
76
100
AcDbEntity
  8
0
  6
CONTINUOUS
 62
       3
100
AcDbLine
 10
180.16237248
 20
-296.83349845
 30
0.0
 11
180.16237248
 21
-304.83430208
 31
0.0
  0
LINE
  5
77
100
AcDbEntity
  8
0
  6
CONTINUOUS
 62
       3
100
AcDbLine
 10
180.16237248
 20
-274.83268805
 30
0.0
 11
190.16219277
 21
-274.83268805
 31
0.0
  0
LINE
  5
78
100
AcDbEntity
  8
0
  6
CONTINUOUS
 62
       3
100
AcDbLine
 10
163.14876843
 20
-224.8297109
 30
0.0
 11
163.14876843
 21
-216.82890727
 31
0.0
  0
LINE
  5
79
100
AcDbEntity
  8
0
  6
CONTINUOUS
 62
       3
100
AcDbLine
 10
161.14932114
 20
-226.82915819
 30
0.0
 11
171.14828015
 21
-226.82915819
 31
0.0
  0
LINE
  5
7A
100
AcDbEntity
  8
0
  6
CONTINUOUS
 62
       3
100
AcDbLine
 10
180.16237248
 20
-294.83318989
 30
0.0
 11
190.16219277
 21
-294.83318989
 31
0.0
  0
LINE
  5
7B
100
AcDbEntity
  8
0
  6
CONTINUOUS
 62
       3
100
AcDbLine
 10
180.16237248
 20
-236.82940911
 30
0.0
 11
180.16237248
 21
-244.83064338
 31
0.0
  0
LINE
  5
7C
100
AcDbEntity
  8
0
  6
CONTINUOUS
 62
       3
100
AcDbLine
 10
180.16237248
 20
-244.83064338
 30
0.0
 11
190.16219277
 21
-244.83064338
 31
0.0
  0
LINE
  5
7D
100
AcDbEntity
  8
0
  6
CONTINUOUS
 62
       3
100
AcDbLine
 10
171.14828015
 20
-286.83324753
 30
0.0
 11
171.14828015
 21
-294.83318989
 31
0.0
  0
LINE
  5
7E
100
AcDbEntity
  8
0
  6
CONTINUOUS
 62
       3
100
AcDbLine
 10
171.14828015
 20
-186.8268626
 30
0.0
 11
171.14828015
 21
-194.82809687
 31
0.0
  0
LINE
  5
7F
100
AcDbEntity
  8
0
  6
CONTINUOUS
 62
       3
100
AcDbLine
 10
161.14932114
 20
-216.82890727
 30
0.0
 11
171.14828015
 21
-216.82890727
 31
0.0
  0
LINE
  5
80
100
AcDbEntity
  8
0
  6
CONTINUOUS
 62
       3
100
AcDbLine
 10
161.14932114
 20
-236.82940911
 30
0.0
 11
171.14828015
 21
-236.82940911
 31
0.0
  0
LINE
  5
81
100
AcDbEntity
  8
0
  6
CONTINUOUS
 62
       3
100
AcDbLine
 10
171.14828015
 20
-244.83064338
 30
0.0
 11
161.14932114
 21
-244.83064338
 31
0.0
  0
LINE
  5
82
100
AcDbEntity
  8
0
  6
CONTINUOUS
 62
       3
100
AcDbLine
 10
171.14828015
 20
-254.8308943
 30
0.0
 11
161.14932114
 21
-254.8308943
 31
0.0
  0
LINE
  5
83
100
AcDbEntity
  8
0
  6
CONTINUOUS
 62
       3
100
AcDbLine
 10
190.16219277
 20
-286.83324753
 30
0.0
 11
180.16237248
 21
-286.83324753
 31
0.0
  0
LINE
  5
84
100
AcDbEntity
  8
0
  6
CONTINUOUS
 62
       3
100
AcDbLine
 10
188.1618842
 20
-204.82748651
 30
0.0
 11
188.1618842
 21
-196.82711352
 31
0.0
  0
LINE
  5
85
100
AcDbEntity
  8
0
  6
CONTINUOUS
 62
       3
100
AcDbLine
 10
161.14932114
 20
-196.82711352
 30
0.0
 11
171.14828015
 21
-196.82711352
 31
0.0
  0
LINE
  5
86
100
AcDbEntity
  8
0
  6
CONTINUOUS
 62
       3
100
AcDbLine
 10
163.14876843
 20
-234.83039246
 30
0.0
 11
163.14876843
 21
-226.82915819
 31
0.0
  0
LINE
  5
87
100
AcDbEntity
  8
0
  6
CONTINUOUS
 62
       3
100
AcDbLine
 10
180.16237248
 20
-264.83243713
 30
0.0
 11
190.16219277
 21
-264.83243713
 31
0.0
  0
LINE
  5
88
100
AcDbEntity
  8
0
  6
CONTINUOUS
 62
       3
100
AcDbLine
 10
190.16219277
 20
-186.8268626
 30
0.0
 11
161.14932114
 21
-186.8268626
 31
0.0
  0
LINE
  5
89
100
AcDbEntity
  8
0
  6
CONTINUOUS
 62
       3
100
AcDbLine
 10
161.14932114
 20
-206.82865635
 30
0.0
 11
171.14828015
 21
-206.82865635
 31
0.0
  0
LINE
  5
8A
100
AcDbEntity
  8
0
  6
CONTINUOUS
 62
       3
100
AcDbLine
 10
171.14828015
 20
-224.8297109
 30
0.0
 11
161.14932114
 21
-224.8297109
 31
0.0
  0
LINE
  5
8B
100
AcDbEntity
  8
0
  6
CONTINUOUS
 62
       3
100
AcDbLine
 10
171.14828015
 20
-266.83145378
 30
0.0
 11
171.14828015
 21
-274.83268805
 31
0.0
  0
LINE
  5
8C
100
AcDbEntity
  8
0
  6
CONTINUOUS
 62
       3
100
AcDbLine
 10
163.14876843
 20
-304.83430208
 30
0.0
 11
163.14876843
 21
-296.83349845
 31
0.0
  0
LINE
  5
8D
100
AcDbEntity
  8
0
  6
CONTINUOUS
 62
       3
100
AcDbLine
 10
180.16237248
 20
-284.83293897
 30
0.0
 11
190.16219277
 21
-284.83293897
 31
0.0
  0
LINE
  5
8E
100
AcDbEntity
  8
0
  6
CONTINUOUS
 62
       3
100
AcDbLine
 10
180.16237248
 20
-246.83095194
 30
0.0
 11
180.16237248
 21
-254.8308943
 31
0.0
  0
LINE
  5
8F
100
AcDbEntity
  8
0
  6
CONTINUOUS
 62
       3
100
AcDbLine
 10
180.16237248
 20
-226.82915819
 30
0.0
 11
180.16237248
 21
-234.83039246
 31
0.0
  0
LINE
  5
90
100
AcDbEntity
  8
0
  6
CONTINUOUS
 62
       3
100
AcDbLine
 10
180.16237248
 20
-234.83039246
 30
0.0
 11
190.16219277
 21
-234.83039246
 31
0.0
  0
LINE
  5
91
100
AcDbEntity
  8
0
  6
CONTINUOUS
 62
       3
100
AcDbLine
 10
180.16237248
 20
-224.8297109
 30
0.0
 11
190.16219277
 21
-224.8297109
 31
0.0
  0
LINE
  5
92
100
AcDbEntity
  8
0
  6
CONTINUOUS
 62
       3
100
AcDbLine
 10
188.1618842
 20
-214.82859871
 30
0.0
 11
188.1618842
 21
-206.82865635
 31
0.0
  0
LINE
  5
93
100
AcDbEntity
  8
0
  6
CONTINUOUS
 62
       3
100
AcDbLine
 10
190.16219277
 20
-206.82865635
 30
0.0
 11
180.16237248
 21
-206.82865635
 31
0.0
  0
LINE
  5
94
100
AcDbEntity
  8
0
  6
CONTINUOUS
 62
       3
100
AcDbLine
 10
171.14828015
 20
-294.83318989
 30
0.0
 11
161.14932114
 21
-294.83318989
 31
0.0
  0
LINE
  5
95
100
AcDbEntity
  8
0
  6
CONTINUOUS
 62
       3
100
AcDbLine
 10
180.16237248
 20
-194.82809687
 30
0.0
 11
190.16219277
 21
-194.82809687
 31
0.0
  0
LINE
  5
96
100
AcDbEntity
  8
0
  6
CONTINUOUS
 62
       3
100
AcDbLine
 10
163.14876843
 20
-194.82809687
 30
0.0
 11
163.14876843
 21
-186.8268626
 31
0.0
  0
LINE
  5
97
100
AcDbEntity
  8
0
  6
CONTINUOUS
 62
       3
100
AcDbLine
 10
171.14828015
 20
-226.82915819
 30
0.0
 11
171.14828015
 21
-234.83039246
 31
0.0
  0
LINE
  5
98
100
AcDbEntity
  8
0
  6
CONTINUOUS
 62
       3
100
AcDbLine
 10
171.14828015
 20
-234.83039246
 30
0.0
 11
161.14932114
 21
-234.83039246
 31
0.0
  0
LINE
  5
99
100
AcDbEntity
  8
0
  6
CONTINUOUS
 62
       3
100
AcDbLine
 10
163.14876843
 20
-264.83243713
 30
0.0
 11
163.14876843
 21
-256.83120286
 31
0.0
  0
LINE
  5
9A
100
AcDbEntity
  8
0
  6
CONTINUOUS
 62
       3
100
AcDbLine
 10
171.14828015
 20
-256.83120286
 30
0.0
 11
171.14828015
 21
-264.83243713
 31
0.0
  0
LINE
  5
9B
100
AcDbEntity
  8
0
  6
CONTINUOUS
 62
       3
100
AcDbLine
 10
305.28178392
 20
-294.83318989
 30
0.0
 11
305.28178392
 21
-286.83324753
 31
0.0
  0
LINE
  5
9C
100
AcDbEntity
  8
0
  6
CONTINUOUS
 62
       3
100
AcDbLine
 10
298.57155399
 20
-188.9797447
 30
0.0
 11
298.45515363
 21
-189.04340585
 31
0.0
  0
LINE
  5
9D
100
AcDbEntity
  8
0
  6
CONTINUOUS
 62
       3
100
AcDbLine
 10
298.14744317
 20
-191.36442872
 30
0.0
 11
298.24252162
 21
-191.45544899
 31
0.0
  0
LINE
  5
9E
100
AcDbEntity
  8
0
  6
CONTINUOUS
 62
       3
100
AcDbLine
 10
306.28086161
 20
-296.83349845
 30
0.0
 11
306.28086161
 21
-304.83430208
 31
0.0
  0
LINE
  5
9F
100
AcDbEntity
  8
0
  6
CONTINUOUS
 62
       3
100
AcDbLine
 10
306.28086161
 20
-236.82940911
 30
0.0
 11
306.28086161
 21
-244.83064338
 31
0.0
  0
LINE
  5
A0
100
AcDbEntity
  8
0
  6
CONTINUOUS
 62
       3
100
AcDbLine
 10
306.28086161
 20
-302.83442415
 30
0.0
 11
300.73167405
 21
-302.83442415
 31
0.0
  0
LINE
  5
A1
100
AcDbEntity
  8
0
  6
CONTINUOUS
 62
       3
100
AcDbLine
 10
298.06062523
 20
-189.38925406
 30
0.0
 11
297.98264442
 21
-189.49562435
 31
0.0
  0
LINE
  5
A2
100
AcDbEntity
  8
0
  6
CONTINUOUS
 62
       3
100
AcDbLine
 10
297.73262908
 20
-190.3977019
 30
0.0
 11
297.74547842
 21
-190.53635488
 31
0.0
  0
LINE
  5
A3
100
AcDbEntity
  8
0
  6
CONTINUOUS
 62
       3
100
AcDbLine
 10
298.14744317
 20
-300.7970775
 30
0.0
 11
298.06062523
 21
-300.89604821
 31
0.0
  0
LINE
  5
A4
100
AcDbEntity
  8
0
  6
CONTINUOUS
 62
       3
100
AcDbLine
 10
297.74547842
 20
-301.62488079
 30
0.0
 11
297.73262908
 21
-301.76346813
 31
0.0
  0
LINE
  5
A5
100
AcDbEntity
  8
0
  6
CONTINUOUS
 62
       3
100
AcDbLine
 10
298.82164036
 20
-303.27772938
 30
0.0
 11
298.95417316
 21
-303.30882415
 31
0.0
  0
LINE
  5
A6
100
AcDbEntity
  8
0
  6
CONTINUOUS
 62
       3
100
AcDbLine
 10
306.28086161
 20
-286.83324753
 30
0.0
 11
306.28086161
 21
-294.83318989
 31
0.0
  0
LINE
  5
A7
100
AcDbEntity
  8
0
  6
CONTINUOUS
 62
       3
100
AcDbLine
 10
306.28086161
 20
-204.82748651
 30
0.0
 11
300.78162794
 21
-204.82748651
 31
0.0
  0
LINE
  5
A8
100
AcDbEntity
  8
0
  6
CONTINUOUS
 62
       3
100
AcDbLine
 10
305.28178392
 20
-284.83293897
 30
0.0
 11
305.28178392
 21
-276.83299661
 31
0.0
  0
LINE
  5
A9
100
AcDbEntity
  8
0
  6
CONTINUOUS
 62
       3
100
AcDbLine
 10
297.98264442
 20
-189.49562435
 30
0.0
 11
297.91407734
 21
-189.60880086
 31
0.0
  0
LINE
  5
AA
100
AcDbEntity
  8
0
  6
CONTINUOUS
 62
       3
100
AcDbLine
 10
297.73262908
 20
-190.25652803
 30
0.0
 11
297.73262908
 21
-190.3977019
 31
0.0
  0
LINE
  5
AB
100
AcDbEntity
  8
0
  6
CONTINUOUS
 62
       3
100
AcDbLine
 10
298.24252162
 20
-191.45544899
 30
0.0
 11
298.34528397
 21
-191.53792043
 31
0.0
  0
LINE
  5
AC
100
AcDbEntity
  8
0
  6
CONTINUOUS
 62
       3
100
AcDbLine
 10
299.21841586
 20
-304.83430208
 30
0.0
 11
300.73167405
 21
-304.83430208
 31
0.0
  0
LINE
  5
AD
100
AcDbEntity
  8
0
  6
CONTINUOUS
 62
       3
100
AcDbLine
 10
300.73167405
 20
-186.8268626
 30
0.0
 11
299.21841586
 21
-186.8268626
 31
0.0
  0
LINE
  5
AE
100
AcDbEntity
  8
0
  6
CONTINUOUS
 62
       3
100
AcDbLine
 10
306.28086161
 20
-264.83243713
 30
0.0
 11
300.78162794
 21
-264.83243713
 31
0.0
  0
LINE
  5
AF
100
AcDbEntity
  8
0
  6
CONTINUOUS
 62
       3
100
AcDbLine
 10
300.78162794
 20
-266.83145378
 30
0.0
 11
306.28086161
 21
-266.83145378
 31
0.0
  0
LINE
  5
B0
100
AcDbEntity
  8
0
  6
CONTINUOUS
 62
       3
100
AcDbLine
 10
297.91407734
 20
-191.04584107
 30
0.0
 11
297.98264442
 21
-191.15904816
 31
0.0
  0
LINE
  5
B1
100
AcDbEntity
  8
0
  6
CONTINUOUS
 62
       3
100
AcDbLine
 10
297.85550059
 20
-302.43318321
 30
0.0
 11
297.91407734
 21
-302.55262509
 31
0.0
  0
LINE
  5
B2
100
AcDbEntity
  8
0
  6
CONTINUOUS
 62
       3
100
AcDbLine
 10
305.28178392
 20
-234.83039246
 30
0.0
 11
305.28178392
 21
-226.82915819
 31
0.0
  0
LINE
  5
B3
100
AcDbEntity
  8
0
  6
CONTINUOUS
 62
       3
100
AcDbLine
 10
305.28178392
 20
-274.83268805
 30
0.0
 11
305.28178392
 21
-266.83145378
 31
0.0
  0
LINE
  5
B4
100
AcDbEntity
  8
0
  6
CONTINUOUS
 62
       3
100
AcDbLine
 10
298.34528397
 20
-189.11676589
 30
0.0
 11
298.24252162
 21
-189.1992463
 31
0.0
  0
LINE
  5
B5
100
AcDbEntity
  8
0
  6
CONTINUOUS
 62
       3
100
AcDbLine
 10
298.06062523
 20
-300.89604821
 30
0.0
 11
297.98264442
 21
-301.00240969
 31
0.0
  0
LINE
  5
B6
100
AcDbEntity
  8
0
  6
CONTINUOUS
 62
       3
100
AcDbLine
 10
306.28086161
 20
-216.82890727
 30
0.0
 11
306.28086161
 21
-224.8297109
 31
0.0
  0
LINE
  5
B7
100
AcDbEntity
  8
0
  6
CONTINUOUS
 62
       3
100
AcDbLine
 10
306.28086161
 20
-226.82915819
 30
0.0
 11
306.28086161
 21
-234.83039246
 31
0.0
  0
LINE
  5
B8
100
AcDbEntity
  8
0
  6
CONTINUOUS
 62
       3
100
AcDbLine
 10
305.28178392
 20
-254.8308943
 30
0.0
 11
305.28178392
 21
-246.83095194
 31
0.0
  0
LINE
  5
B9
100
AcDbEntity
  8
0
  6
CONTINUOUS
 62
       3
100
AcDbLine
 10
306.28086161
 20
-254.8308943
 30
0.0
 11
300.78162794
 21
-254.8308943
 31
0.0
  0
LINE
  5
BA
100
AcDbEntity
  8
0
  6
CONTINUOUS
 62
       3
100
AcDbLine
 10
298.24252162
 20
-189.1992463
 30
0.0
 11
298.14744317
 21
-189.29026854
 31
0.0
  0
LINE
  5
BB
100
AcDbEntity
  8
0
  6
CONTINUOUS
 62
       3
100
AcDbLine
 10
298.45515363
 20
-191.61126646
 30
0.0
 11
298.57155399
 21
-191.67491045
 31
0.0
  0
LINE
  5
BC
100
AcDbEntity
  8
0
  6
CONTINUOUS
 62
       3
100
AcDbLine
 10
297.73262908
 20
-301.904642
 30
0.0
 11
297.74547842
 21
-302.04323725
 31
0.0
  0
LINE
  5
BD
100
AcDbEntity
  8
0
  6
CONTINUOUS
 62
       3
100
AcDbLine
 10
297.74547842
 20
-302.04323725
 30
0.0
 11
297.77062453
 21
-302.17791124
 31
0.0
  0
LINE
  5
BE
100
AcDbEntity
  8
0
  6
CONTINUOUS
 62
       3
100
AcDbLine
 10
300.78162794
 20
-196.82711352
 30
0.0
 11
306.28086161
 21
-196.82711352
 31
0.0
  0
LINE
  5
BF
100
AcDbEntity
  8
0
  6
CONTINUOUS
 62
       3
100
AcDbLine
 10
300.78162794
 20
-226.82915819
 30
0.0
 11
306.28086161
 21
-226.82915819
 31
0.0
  0
LINE
  5
C0
100
AcDbEntity
  8
0
  6
CONTINUOUS
 62
       3
100
AcDbLine
 10
300.73167405
 20
-188.82717117
 30
0.0
 11
306.28086161
 21
-188.82717117
 31
0.0
  0
LINE
  5
C1
100
AcDbEntity
  8
0
  6
CONTINUOUS
 62
       3
100
AcDbLine
 10
314.21841524
 20
-186.8268626
 30
0.0
 11
306.28086161
 21
-186.8268626
 31
0.0
  0
LINE
  5
C2
100
AcDbEntity
  8
0
  6
CONTINUOUS
 62
       3
100
AcDbLine
 10
306.28086161
 20
-194.82809687
 30
0.0
 11
300.78162794
 21
-194.82809687
 31
0.0
  0
LINE
  5
C3
100
AcDbEntity
  8
0
  6
CONTINUOUS
 62
       3
100
AcDbLine
 10
298.82164036
 20
-188.88383325
 30
0.0
 11
298.69390843
 21
-188.92636099
 31
0.0
  0
LINE
  5
C4
100
AcDbEntity
  8
0
  6
CONTINUOUS
 62
       3
100
AcDbLine
 10
297.85550059
 20
-190.9263916
 30
0.0
 11
297.91407734
 21
-191.04584107
 31
0.0
  0
LINE
  5
C5
100
AcDbEntity
  8
0
  6
CONTINUOUS
 62
       3
100
AcDbLine
 10
298.34528397
 20
-191.53792043
 30
0.0
 11
298.45515363
 21
-191.61126646
 31
0.0
  0
LINE
  5
C6
100
AcDbEntity
  8
0
  6
CONTINUOUS
 62
       3
100
AcDbLine
 10
298.82164036
 20
-191.77078591
 30
0.0
 11
298.95417316
 21
-191.80186416
 31
0.0
  0
LINE
  5
C7
100
AcDbEntity
  8
0
  6
CONTINUOUS
 62
       3
100
AcDbLine
 10
299.23133497
 20
-300.3341461
 30
0.0
 11
299.09093023
 21
-300.34063076
 31
0.0
  0
LINE
  5
C8
100
AcDbEntity
  8
0
  6
CONTINUOUS
 62
       3
100
AcDbLine
 10
297.85550059
 20
-301.23499667
 30
0.0
 11
297.80749079
 21
-301.36006798
 31
0.0
  0
LINE
  5
C9
100
AcDbEntity
  8
0
  6
CONTINUOUS
 62
       3
100
AcDbLine
 10
300.78162794
 20
-206.82865635
 30
0.0
 11
306.28086161
 21
-206.82865635
 31
0.0
  0
LINE
  5
CA
100
AcDbEntity
  8
0
  6
CONTINUOUS
 62
       3
100
AcDbLine
 10
300.78162794
 20
-256.83120286
 30
0.0
 11
306.28086161
 21
-256.83120286
 31
0.0
  0
LINE
  5
CB
100
AcDbEntity
  8
0
  6
CONTINUOUS
 62
       3
100
AcDbLine
 10
306.28086161
 20
-266.83145378
 30
0.0
 11
306.28086161
 21
-274.83268805
 31
0.0
  0
LINE
  5
CC
100
AcDbEntity
  8
0
  6
CONTINUOUS
 62
       3
100
AcDbLine
 10
298.95417316
 20
-188.85274
 30
0.0
 11
298.82164036
 21
-188.88383325
 31
0.0
  0
LINE
  5
CD
100
AcDbEntity
  8
0
  6
CONTINUOUS
 62
       3
100
AcDbLine
 10
297.77062453
 20
-189.98338237
 30
0.0
 11
297.74547842
 21
-190.11799843
 31
0.0
  0
LINE
  5
CE
100
AcDbEntity
  8
0
  6
CONTINUOUS
 62
       3
100
AcDbLine
 10
299.09093023
 20
-191.82093396
 30
0.0
 11
299.23133497
 21
-191.8274187
 31
0.0
  0
LINE
  5
CF
100
AcDbEntity
  8
0
  6
CONTINUOUS
 62
       3
100
AcDbLine
 10
297.91407734
 20
-302.55262509
 30
0.0
 11
297.98264442
 21
-302.6658335
 31
0.0
  0
LINE
  5
D0
100
AcDbEntity
  8
0
  6
CONTINUOUS
 62
       3
100
AcDbLine
 10
306.28086161
 20
-214.82859871
 30
0.0
 11
300.78162794
 21
-214.82859871
 31
0.0
  0
LINE
  5
D1
100
AcDbEntity
  8
0
  6
CONTINUOUS
 62
       3
100
AcDbLine
 10
299.09093023
 20
-188.8336598
 30
0.0
 11
298.95417316
 21
-188.85274
 31
0.0
  0
LINE
  5
D2
100
AcDbEntity
  8
0
  6
CONTINUOUS
 62
       3
100
AcDbLine
 10
297.91407734
 20
-189.60880086
 30
0.0
 11
297.85550059
 21
-189.72820506
 31
0.0
  0
LINE
  5
D3
100
AcDbEntity
  8
0
  6
CONTINUOUS
 62
       3
100
AcDbLine
 10
298.69390843
 20
-300.43328386
 30
0.0
 11
298.57155399
 21
-300.48664431
 31
0.0
  0
LINE
  5
D4
100
AcDbEntity
  8
0
  6
CONTINUOUS
 62
       3
100
AcDbLine
 10
297.98264442
 20
-301.00240969
 30
0.0
 11
297.91407734
 21
-301.11558488
 31
0.0
  0
LINE
  5
D5
100
AcDbEntity
  8
0
  6
CONTINUOUS
 62
       3
100
AcDbLine
 10
297.98264442
 20
-302.6658335
 30
0.0
 11
298.06062523
 21
-302.77223038
 31
0.0
  0
LINE
  5
D6
100
AcDbEntity
  8
0
  6
CONTINUOUS
 62
       3
100
AcDbLine
 10
298.06062523
 20
-302.77223038
 30
0.0
 11
298.14744317
 21
-302.87123769
 31
0.0
  0
LINE
  5
D7
100
AcDbEntity
  8
0
  6
CONTINUOUS
 62
       3
100
AcDbLine
 10
299.21841586
 20
-186.8268626
 30
0.0
 11
299.21841586
 21
-304.83430208
 31
0.0
  0
LINE
  5
D8
100
AcDbEntity
  8
0
  6
CONTINUOUS
 62
       3
100
AcDbLine
 10
306.28086161
 20
-294.83318989
 30
0.0
 11
300.78162794
 21
-294.83318989
 31
0.0
  0
LINE
  5
D9
100
AcDbEntity
  8
0
  6
CONTINUOUS
 62
       3
100
AcDbLine
 10
306.28086161
 20
-304.83430208
 30
0.0
 11
314.21841524
 21
-304.83430208
 31
0.0
  0
LINE
  5
DA
100
AcDbEntity
  8
0
  6
CONTINUOUS
 62
       3
100
AcDbLine
 10
306.28086161
 20
-206.82865635
 30
0.0
 11
306.28086161
 21
-214.82859871
 31
0.0
  0
LINE
  5
DB
100
AcDbEntity
  8
0
  6
CONTINUOUS
 62
       3
100
AcDbLine
 10
306.28086161
 20
-244.83064338
 30
0.0
 11
300.78162794
 21
-244.83064338
 31
0.0
  0
LINE
  5
DC
100
AcDbEntity
  8
0
  6
CONTINUOUS
 62
       3
100
AcDbLine
 10
298.45515363
 20
-189.04340585
 30
0.0
 11
298.34528397
 21
-189.11676589
 31
0.0
  0
LINE
  5
DD
100
AcDbEntity
  8
0
  6
CONTINUOUS
 62
       3
100
AcDbLine
 10
298.95417316
 20
-300.35969999
 30
0.0
 11
298.82164036
 21
-300.39077672
 31
0.0
  0
LINE
  5
DE
100
AcDbEntity
  8
0
  6
CONTINUOUS
 62
       3
100
AcDbLine
 10
298.82164036
 20
-300.39077672
 30
0.0
 11
298.69390843
 21
-300.43328386
 31
0.0
  0
LINE
  5
DF
100
AcDbEntity
  8
0
  6
CONTINUOUS
 62
       3
100
AcDbLine
 10
299.09093023
 20
-303.32790492
 30
0.0
 11
299.23133497
 21
-303.33439363
 31
0.0
  0
LINE
  5
E0
100
AcDbEntity
  8
0
  6
CONTINUOUS
 62
       3
100
AcDbLine
 10
305.28178392
 20
-224.8297109
 30
0.0
 11
305.28178392
 21
-216.82890727
 31
0.0
  0
LINE
  5
E1
100
AcDbEntity
  8
0
  6
CONTINUOUS
 62
       3
100
AcDbLine
 10
297.77062453
 20
-190.6710719
 30
0.0
 11
297.80749079
 21
-190.80127634
 31
0.0
  0
LINE
  5
E2
100
AcDbEntity
  8
0
  6
CONTINUOUS
 62
       3
100
AcDbLine
 10
298.69390843
 20
-191.7282758
 30
0.0
 11
298.82164036
 21
-191.77078591
 31
0.0
  0
LINE
  5
E3
100
AcDbEntity
  8
0
  6
CONTINUOUS
 62
       3
100
AcDbLine
 10
299.09093023
 20
-300.34063076
 30
0.0
 11
298.95417316
 21
-300.35969999
 31
0.0
  0
LINE
  5
E4
100
AcDbEntity
  8
0
  6
CONTINUOUS
 62
       3
100
AcDbLine
 10
297.80749079
 20
-301.36006798
 30
0.0
 11
297.77062453
 21
-301.49022171
 31
0.0
  0
LINE
  5
E5
100
AcDbEntity
  8
0
  6
CONTINUOUS
 62
       3
100
AcDbLine
 10
305.28178392
 20
-204.82748651
 30
0.0
 11
305.28178392
 21
-196.82711352
 31
0.0
  0
LINE
  5
E6
100
AcDbEntity
  8
0
  6
CONTINUOUS
 62
       3
100
AcDbLine
 10
305.28178392
 20
-264.83243713
 30
0.0
 11
305.28178392
 21
-256.83120286
 31
0.0
  0
LINE
  5
E7
100
AcDbEntity
  8
0
  6
CONTINUOUS
 62
       3
100
AcDbLine
 10
306.28086161
 20
-256.83120286
 30
0.0
 11
306.28086161
 21
-264.83243713
 31
0.0
  0
LINE
  5
E8
100
AcDbEntity
  8
0
  6
CONTINUOUS
 62
       3
100
AcDbLine
 10
306.28086161
 20
-276.83299661
 30
0.0
 11
306.28086161
 21
-284.83293897
 31
0.0
  0
LINE
  5
E9
100
AcDbEntity
  8
0
  6
CONTINUOUS
 62
       3
100
AcDbLine
 10
306.28086161
 20
-186.8268626
 30
0.0
 11
306.28086161
 21
-194.82809687
 31
0.0
  0
LINE
  5
EA
100
AcDbEntity
  8
0
  6
CONTINUOUS
 62
       3
100
AcDbLine
 10
297.80749079
 20
-189.85325841
 30
0.0
 11
297.77062453
 21
-189.98338237
 31
0.0
  0
LINE
  5
EB
100
AcDbEntity
  8
0
  6
CONTINUOUS
 62
       3
100
AcDbLine
 10
297.74547842
 20
-190.53635488
 30
0.0
 11
297.77062453
 21
-190.6710719
 31
0.0
  0
LINE
  5
EC
100
AcDbEntity
  8
0
  6
CONTINUOUS
 62
       3
100
AcDbLine
 10
298.57155399
 20
-191.67491045
 30
0.0
 11
298.69390843
 21
-191.7282758
 31
0.0
  0
LINE
  5
ED
100
AcDbEntity
  8
0
  6
CONTINUOUS
 62
       3
100
AcDbLine
 10
298.34528397
 20
-300.6236168
 30
0.0
 11
298.24252162
 21
-300.70607467
 31
0.0
  0
LINE
  5
EE
100
AcDbEntity
  8
0
  6
CONTINUOUS
 62
       3
100
AcDbLine
 10
297.77062453
 20
-301.49022171
 30
0.0
 11
297.74547842
 21
-301.62488079
 31
0.0
  0
LINE
  5
EF
100
AcDbEntity
  8
0
  6
CONTINUOUS
 62
       3
100
AcDbLine
 10
298.69390843
 20
-303.23519867
 30
0.0
 11
298.82164036
 21
-303.27772938
 31
0.0
  0
LINE
  5
F0
100
AcDbEntity
  8
0
  6
CONTINUOUS
 62
       3
100
AcDbLine
 10
305.28178392
 20
-214.82859871
 30
0.0
 11
305.28178392
 21
-206.82865635
 31
0.0
  0
LINE
  5
F1
100
AcDbEntity
  8
0
  6
CONTINUOUS
 62
       3
100
AcDbLine
 10
306.28086161
 20
-234.83039246
 30
0.0
 11
300.78162794
 21
-234.83039246
 31
0.0
  0
LINE
  5
F2
100
AcDbEntity
  8
0
  6
CONTINUOUS
 62
       3
100
AcDbLine
 10
305.28178392
 20
-244.83064338
 30
0.0
 11
305.28178392
 21
-236.82940911
 31
0.0
  0
LINE
  5
F3
100
AcDbEntity
  8
0
  6
CONTINUOUS
 62
       3
100
AcDbLine
 10
306.28086161
 20
-274.83268805
 30
0.0
 11
300.78162794
 21
-274.83268805
 31
0.0
  0
LINE
  5
F4
100
AcDbEntity
  8
0
  6
CONTINUOUS
 62
       3
100
AcDbLine
 10
298.14744317
 20
-189.29026854
 30
0.0
 11
298.06062523
 21
-189.38925406
 31
0.0
  0
LINE
  5
F5
100
AcDbEntity
  8
0
  6
CONTINUOUS
 62
       3
100
AcDbLine
 10
297.80749079
 20
-190.80127634
 30
0.0
 11
297.85550059
 21
-190.9263916
 31
0.0
  0
LINE
  5
F6
100
AcDbEntity
  8
0
  6
CONTINUOUS
 62
       3
100
AcDbLine
 10
298.06062523
 20
-191.26543624
 30
0.0
 11
298.14744317
 21
-191.36442872
 31
0.0
  0
LINE
  5
F7
100
AcDbEntity
  8
0
  6
CONTINUOUS
 62
       3
100
AcDbLine
 10
297.73262908
 20
-301.76346813
 30
0.0
 11
297.73262908
 21
-301.904642
 31
0.0
  0
LINE
  5
F8
100
AcDbEntity
  8
0
  6
CONTINUOUS
 62
       3
100
AcDbLine
 10
297.80749079
 20
-302.30808591
 30
0.0
 11
297.85550059
 21
-302.43318321
 31
0.0
  0
LINE
  5
F9
100
AcDbEntity
  8
0
  6
CONTINUOUS
 62
       3
100
AcDbLine
 10
300.78162794
 20
-296.83349845
 30
0.0
 11
306.28086161
 21
-296.83349845
 31
0.0
  0
LINE
  5
FA
100
AcDbEntity
  8
0
  6
CONTINUOUS
 62
       3
100
AcDbLine
 10
306.28086161
 20
-196.82711352
 30
0.0
 11
306.28086161
 21
-204.82748651
 31
0.0
  0
LINE
  5
FB
100
AcDbEntity
  8
0
  6
CONTINUOUS
 62
       3
100
AcDbLine
 10
300.78162794
 20
-236.82940911
 30
0.0
 11
306.28086161
 21
-236.82940911
 31
0.0
  0
LINE
  5
FC
100
AcDbEntity
  8
0
  6
CONTINUOUS
 62
       3
100
AcDbLine
 10
300.78162794
 20
-246.83095194
 30
0.0
 11
306.28086161
 21
-246.83095194
 31
0.0
  0
LINE
  5
FD
100
AcDbEntity
  8
0
  6
CONTINUOUS
 62
       3
100
AcDbLine
 10
297.98264442
 20
-191.15904816
 30
0.0
 11
298.06062523
 21
-191.26543624
 31
0.0
  0
LINE
  5
FE
100
AcDbEntity
  8
0
  6
CONTINUOUS
 62
       3
100
AcDbLine
 10
298.57155399
 20
-300.48664431
 30
0.0
 11
298.45515363
 21
-300.55028099
 31
0.0
  0
LINE
  5
FF
100
AcDbEntity
  8
0
  6
CONTINUOUS
 62
       3
100
AcDbLine
 10
298.24252162
 20
-300.70607467
 30
0.0
 11
298.14744317
 21
-300.7970775
 31
0.0
  0
LINE
  5
100
100
AcDbEntity
  8
0
  6
CONTINUOUS
 62
       3
100
AcDbLine
 10
297.77062453
 20
-302.17791124
 30
0.0
 11
297.80749079
 21
-302.30808591
 31
0.0
  0
LINE
  5
101
100
AcDbEntity
  8
0
  6
CONTINUOUS
 62
       3
100
AcDbLine
 10
298.34528397
 20
-303.04477134
 30
0.0
 11
298.45515363
 21
-303.11814159
 31
0.0
  0
LINE
  5
102
100
AcDbEntity
  8
0
  6
CONTINUOUS
 62
       3
100
AcDbLine
 10
298.95417316
 20
-303.30882415
 30
0.0
 11
299.09093023
 21
-303.32790492
 31
0.0
  0
LINE
  5
103
100
AcDbEntity
  8
0
  6
CONTINUOUS
 62
       3
100
AcDbLine
 10
300.78162794
 20
-286.83324753
 30
0.0
 11
306.28086161
 21
-286.83324753
 31
0.0
  0
LINE
  5
104
100
AcDbEntity
  8
0
  6
CONTINUOUS
 62
       3
100
AcDbLine
 10
300.78162794
 20
-276.83299661
 30
0.0
 11
306.28086161
 21
-276.83299661
 31
0.0
  0
LINE
  5
105
100
AcDbEntity
  8
0
  6
CONTINUOUS
 62
       3
100
AcDbLine
 10
306.28086161
 20
-284.83293897
 30
0.0
 11
300.78162794
 21
-284.83293897
 31
0.0
  0
LINE
  5
106
100
AcDbEntity
  8
0
  6
CONTINUOUS
 62
       3
100
AcDbLine
 10
297.85550059
 20
-189.72820506
 30
0.0
 11
297.80749079
 21
-189.85325841
 31
0.0
  0
LINE
  5
107
100
AcDbEntity
  8
0
  6
CONTINUOUS
 62
       3
100
AcDbLine
 10
297.91407734
 20
-301.11558488
 30
0.0
 11
297.85550059
 21
-301.23499667
 31
0.0
  0
LINE
  5
108
100
AcDbEntity
  8
0
  6
CONTINUOUS
 62
       3
100
AcDbLine
 10
298.24252162
 20
-302.96227736
 30
0.0
 11
298.34528397
 21
-303.04477134
 31
0.0
  0
LINE
  5
109
100
AcDbEntity
  8
0
  6
CONTINUOUS
 62
       3
100
AcDbLine
 10
300.73167405
 20
-304.83430208
 30
0.0
 11
300.73167405
 21
-186.8268626
 31
0.0
  0
LINE
  5
10A
100
AcDbEntity
  8
0
  6
CONTINUOUS
 62
       3
100
AcDbLine
 10
306.28086161
 20
-224.8297109
 30
0.0
 11
300.78162794
 21
-224.8297109
 31
0.0
  0
LINE
  5
10B
100
AcDbEntity
  8
0
  6
CONTINUOUS
 62
       3
100
AcDbLine
 10
306.28086161
 20
-246.83095194
 30
0.0
 11
306.28086161
 21
-254.8308943
 31
0.0
  0
LINE
  5
10C
100
AcDbEntity
  8
0
  6
CONTINUOUS
 62
       3
100
AcDbLine
 10
299.23133497
 20
-188.82717117
 30
0.0
 11
299.09093023
 21
-188.8336598
 31
0.0
  0
LINE
  5
10D
100
AcDbEntity
  8
0
  6
CONTINUOUS
 62
       3
100
AcDbLine
 10
298.69390843
 20
-188.92636099
 30
0.0
 11
298.57155399
 21
-188.9797447
 31
0.0
  0
LINE
  5
10E
100
AcDbEntity
  8
0
  6
CONTINUOUS
 62
       3
100
AcDbLine
 10
297.74547842
 20
-190.11799843
 30
0.0
 11
297.73262908
 21
-190.25652803
 31
0.0
  0
LINE
  5
10F
100
AcDbEntity
  8
0
  6
CONTINUOUS
 62
       3
100
AcDbLine
 10
298.14744317
 20
-302.87123769
 30
0.0
 11
298.24252162
 21
-302.96227736
 31
0.0
  0
LINE
  5
110
100
AcDbEntity
  8
0
  6
CONTINUOUS
 62
       3
100
AcDbLine
 10
298.95417316
 20
-191.80186416
 30
0.0
 11
299.09093023
 21
-191.82093396
 31
0.0
  0
LINE
  5
111
100
AcDbEntity
  8
0
  6
CONTINUOUS
 62
       3
100
AcDbLine
 10
298.45515363
 20
-300.55028099
 30
0.0
 11
298.34528397
 21
-300.6236168
 31
0.0
  0
LINE
  5
112
100
AcDbEntity
  8
0
  6
CONTINUOUS
 62
       3
100
AcDbLine
 10
298.45515363
 20
-303.11814159
 30
0.0
 11
298.57155399
 21
-303.18181005
 31
0.0
  0
LINE
  5
113
100
AcDbEntity
  8
0
  6
CONTINUOUS
 62
       3
100
AcDbLine
 10
298.57155399
 20
-303.18181005
 30
0.0
 11
298.69390843
 21
-303.23519867
 31
0.0
  0
LINE
  5
114
100
AcDbEntity
  8
0
  6
CONTINUOUS
 62
       3
100
AcDbLine
 10
306.28086161
 20
-216.82890727
 30
0.0
 11
300.73167405
 21
-216.82890727
 31
0.0
  0
LINE
  5
115
100
AcDbEntity
  8
SLD-0
  6
CONTINUOUS
 62
       3
100
AcDbLine
 10
223.15575657
 20
-167.83058162
 30
0.0
 11
223.15575657
 21
-323.83058305
 31
0.0
  0
LINE
  5
116
100
AcDbEntity
  8
SLD-0
  6
CONTINUOUS
 62
       3
100
AcDbLine
 10
128.15575734
 20
-323.83058305
 30
0.0
 11
128.15575734
 21
-167.83058162
 31
0.0
  0
LINE
  5
117
100
AcDbEntity
  8
SLD-0
  6
CONTINUOUS
 62
       3
100
AcDbLine
 10
130.15575734
 20
-165.83058162
 30
0.0
 11
221.15575657
 21
-165.83058162
 31
0.0
  0
LINE
  5
118
100
AcDbEntity
  8
SLD-0
  6
CONTINUOUS
 62
       3
100
AcDbLine
 10
130.15575734
 20
-325.83058305
 30
0.0
 11
221.15575657
 21
-325.83058305
 31
0.0
  0
LINE
  5
119
100
AcDbEntity
  8
SLD-0
  6
CONTINUOUS
 62
       3
100
AcDbLine
 10
128.15575734
 20
-180.8305815
 30
0.0
 11
223.15575657
 21
-180.8305815
 31
0.0
  0
LINE
  5
11A
100
AcDbEntity
  8
SLD-0
  6
CONTINUOUS
 62
       3
100
AcDbLine
 10
223.15575657
 20
-310.83058317
 30
0.0
 11
128.15575734
 21
-310.83058317
 31
0.0
  0
LINE
  5
11B
100
AcDbEntity
  8
SLD-0
  6
CONTINUOUS
 62
       3
100
AcDbLine
 10
338.01841544
 20
-165.83058162
 30
0.0
 11
339.21841586
 21
-165.83058162
 31
0.0
  0
LINE
  5
11C
100
AcDbEntity
  8
SLD-0
  6
CONTINUOUS
 62
       3
100
AcDbLine
 10
314.21841524
 20
-180.8305815
 30
0.0
 11
339.21841586
 21
-180.8305815
 31
0.0
  0
LINE
  5
11D
100
AcDbEntity
  8
SLD-0
  6
CONTINUOUS
 62
       3
100
AcDbLine
 10
314.21841524
 20
-310.83058317
 30
0.0
 11
339.21841586
 21
-310.83058317
 31
0.0
  0
LINE
  5
11E
100
AcDbEntity
  8
SLD-0
  6
CONTINUOUS
 62
       3
100
AcDbLine
 10
338.01841589
 20
-325.83058305
 30
0.0
 11
339.21841586
 21
-325.83058305
 31
0.0
  0
LINE
  5
11F
100
AcDbEntity
  8
SLD-0
  6
CONTINUOUS
 62
       3
100
AcDbLine
 10
339.21841586
 20
-325.83058305
 30
0.0
 11
339.21841586
 21
-165.83058162
 31
0.0
  0
LINE
  5
120
100
AcDbEntity
  8
SLD-0
  6
CONTINUOUS
 62
       3
100
AcDbLine
 10
314.21841524
 20
-310.83058317
 30
0.0
 11
314.21841524
 21
-180.8305815
 31
0.0
  0
LINE
  5
121
100
AcDbEntity
  8
SLD-0
  6
CONTINUOUS
 62
       3
100
AcDbLine
 10
338.01841589
 20
-310.78057856
 30
0.0
 11
338.01841589
 21
-325.83058305
 31
0.0
  0
LINE
  5
122
100
AcDbEntity
  8
SLD-0
  6
CONTINUOUS
 62
       3
100
AcDbLine
 10
338.01841544
 20
-180.88058241
 30
0.0
 11
338.01841544
 21
-165.83058162
 31
0.0
  0
ARC
  5
123
100
AcDbEntity
  8
SLD-0
  6
CONTINUOUS
 62
       3
100
AcDbCircle
 10
221.15575657
 20
-323.83058305
 30
0.0
 40
2.0
100
AcDbArc
 50
270.0
 51
360.0
  0
ARC
  5
124
100
AcDbEntity
  8
SLD-0
  6
CONTINUOUS
 62
       3
100
AcDbCircle
 10
130.15575734
 20
-323.83058305
 30
0.0
 40
2.0
100
AcDbArc
 50
180.0
 51
270.0
  0
ARC
  5
125
100
AcDbEntity
  8
SLD-0
  6
CONTINUOUS
 62
       3
100
AcDbCircle
 10
130.15575734
 20
-167.83058162
 30
0.0
 40
2.0
100
AcDbArc
 50
90.0
 51
180.0
  0
ARC
  5
126
100
AcDbEntity
  8
SLD-0
  6
CONTINUOUS
 62
       3
100
AcDbCircle
 10
221.15575657
 20
-167.83058162
 30
0.0
 40
2.0
100
AcDbArc
 50
0.0
 51
90.0
  0
CIRCLE
  5
127
100
AcDbEntity
  8
SLD-0
  6
CONTINUOUS
 62
       3
100
AcDbCircle
 10
210.65575624
 20
-318.33058234
 30
0.0
 40
2.25
  0
CIRCLE
  5
128
100
AcDbEntity
  8
SLD-0
  6
CONTINUOUS
 62
       3
100
AcDbCircle
 10
140.65575624
 20
-318.33058234
 30
0.0
 40
2.25
  0
CIRCLE
  5
129
100
AcDbEntity
  8
SLD-0
  6
CONTINUOUS
 62
       3
100
AcDbCircle
 10
140.65575624
 20
-173.33058234
 30
0.0
 40
2.25
  0
CIRCLE
  5
12A
100
AcDbEntity
  8
SLD-0
  6
CONTINUOUS
 62
       3
100
AcDbCircle
 10
210.65575624
 20
-173.33058234
 30
0.0
 40
2.25
  0
TEXT
  5
12B
100
AcDbEntity
  8
SLD-0_0
 62
       3
100
AcDbText
 10
315.76027192
 20
-347.80992215
 30
0.0
 40
5.0
  1
000
 72
       5
 11
330.76027192
 21
-347.80992215
 31
0.0
100
AcDbText
  0
ENDSEC
  0
SECTION
  2
OBJECTS
  0
DICTIONARY
  5
19
100
AcDbDictionary
  3
ACAD_GROUP
350
1A
  3
ACAD_MLINESTYLE
350
1B
  0
DICTIONARY
  5
1A
102
{ACAD_REACTORS
330
19
102
}
100
AcDbDictionary
  0
DICTIONARY
  5
1B
102
{ACAD_REACTORS
330
19
102
}
100
AcDbDictionary
  3
STANDARD
350
1C
  0
MLINESTYLE
  5
1C
102
{ACAD_REACTORS
330
1B
102
}
100
AcDbMlineStyle
  2
STANDARD
 70
       0
  3

 62
       0
 51
90.0
 52
90.0
 71
       2
 49
0.5
 62
     256
  6
BYLAYER
 49
-0.5
 62
     256
  6
BYLAYER
  0
ENDSEC
  0
EOF
