  0
SECTION
  2
HEADER
  9
$ACADVER
  1
AC1014
  9
$ACADMAINTVER
 70
       0
  9
$DWGCODEPAGE
  3
ANSI_932
  9
$INSBASE
 10
0.0
 20
0.0
 30
0.0
  9
$EXTMIN
 10
-106.10117665
 20
-65.40208291
 30
0.0
  9
$EXTMAX
 10
106.10117665
 20
63.54999957
 30
0.0
  9
$LIMMIN
 10
-112.7325002
 20
-69.43183549
  9
$LIMMAX
 10
112.7325002
 20
67.57975215
  9
$ORTHOMODE
 70
       0
  9
$REGENMODE
 70
       1
  9
$FILLMODE
 70
       1
  9
$QTEXTMODE
 70
       0
  9
$MIRRTEXT
 70
       1
  9
$DRAGMODE
 70
       2
  9
$LTSCALE
 40
1.0
  9
$OSMODE
 70
       0
  9
$ATTMODE
 70
       1
  9
$TEXTSIZE
 40
0.2
  9
$TRACEWID
 40
0.05
  9
$TEXTSTYLE
  7
STANDARD
  9
$CLAYER
  8
0
  9
$CELTYPE
  6
CONTINUOUS
  9
$CECOLOR
 62
     256
  9
$CELTSCALE
 40
1.0
  9
$DELOBJ
 70
       1
  9
$DISPSILH
 70
       0
  9
$DIMSCALE
 40
1.0
  9
$DIMASZ
 40
0.18
  9
$DIMEXO
 40
0.0625
  9
$DIMDLI
 40
0.38
  9
$DIMRND
 40
0.0
  9
$DIMDLE
 40
0.0
  9
$DIMEXE
 40
0.18
  9
$DIMTP
 40
0.0
  9
$DIMTM
 40
0.0
  9
$DIMTXT
 40
0.18
  9
$DIMCEN
 40
0.09
  9
$DIMTSZ
 40
0.0
  9
$DIMTOL
 70
       0
  9
$DIMLIM
 70
       0
  9
$DIMTIH
 70
       1
  9
$DIMTOH
 70
       1
  9
$DIMSE1
 70
       0
  9
$DIMSE2
 70
       0
  9
$DIMTAD
 70
       0
  9
$DIMZIN
 70
       0
  9
$DIMBLK
  1

  9
$DIMASO
 70
       1
  9
$DIMSHO
 70
       1
  9
$DIMPOST
  1

  9
$DIMAPOST
  1

  9
$DIMALT
 70
       0
  9
$DIMALTD
 70
       2
  9
$DIMALTF
 40
25.4
  9
$DIMLFAC
 40
1.0
  9
$DIMTOFL
 70
       0
  9
$DIMTVP
 40
0.0
  9
$DIMTIX
 70
       0
  9
$DIMSOXD
 70
       0
  9
$DIMSAH
 70
       0
  9
$DIMBLK1
  1

  9
$DIMBLK2
  1

  9
$DIMSTYLE
  2
STANDARD
  9
$DIMCLRD
 70
       0
  9
$DIMCLRE
 70
       0
  9
$DIMCLRT
 70
       0
  9
$DIMTFAC
 40
1.0
  9
$DIMGAP
 40
0.09
  9
$DIMJUST
 70
       0
  9
$DIMSD1
 70
       0
  9
$DIMSD2
 70
       0
  9
$DIMTOLJ
 70
       1
  9
$DIMTZIN
 70
       0
  9
$DIMALTZ
 70
       0
  9
$DIMALTTZ
 70
       0
  9
$DIMFIT
 70
       3
  9
$DIMUPT
 70
       0
  9
$DIMUNIT
 70
       2
  9
$DIMDEC
 70
       4
  9
$DIMTDEC
 70
       4
  9
$DIMALTU
 70
       2
  9
$DIMALTTD
 70
       2
  9
$DIMTXSTY
  7
STANDARD
  9
$DIMAUNIT
 70
       0
  9
$LUNITS
 70
       2
  9
$LUPREC
 70
       4
  9
$SKETCHINC
 40
0.1
  9
$FILLETRAD
 40
0.0
  9
$AUNITS
 70
       0
  9
$AUPREC
 70
       0
  9
$MENU
  1
acad
  9
$ELEVATION
 40
0.0
  9
$PELEVATION
 40
0.0
  9
$THICKNESS
 40
0.0
  9
$LIMCHECK
 70
       0
  9
$BLIPMODE
 70
       1
  9
$CHAMFERA
 40
0.0
  9
$CHAMFERB
 40
0.0
  9
$CHAMFERC
 40
0.0
  9
$CHAMFERD
 40
0.0
  9
$SKPOLY
 70
       0
  9
$TDCREATE
 40
0.000000000
  9
$TDUPDATE
 40
0.000000000
  9
$TDINDWG
 40
0.0000000000
  9
$TDUSRTIMER
 40
0.0000000000
  9
$USRTIMER
 70
       1
  9
$ANGBASE
 50
0.0
  9
$ANGDIR
 70
       0
  9
$PDMODE
 70
       0
  9
$PDSIZE
 40
1.0
  9
$PLINEWID
 40
0.0
  9
$COORDS
 70
       1
  9
$SPLFRAME
 70
       0
  9
$SPLINETYPE
 70
       6
  9
$SPLINESEGS
 70
       8
  9
$ATTDIA
 70
       0
  9
$ATTREQ
 70
       1
  9
$HANDLING
 70
       1
  9
$HANDSEED
  5
13F
  9
$SURFTAB1
 70
       6
  9
$SURFTAB2
 70
       6
  9
$SURFTYPE
 70
       6
  9
$SURFU
 70
       6
  9
$SURFV
 70
       6
  9
$UCSNAME
  2

  9
$UCSORG
 10
0.0
 20
0.0
 30
0.0
  9
$UCSXDIR
 10
1.0
 20
0.0
 30
0.0
  9
$UCSYDIR
 10
0.0
 20
1.0
 30
0.0
  9
$PUCSNAME
  2

  9
$PUCSORG
 10
0.0
 20
0.0
 30
0.0
  9
$PUCSXDIR
 10
1.0
 20
0.0
 30
0.0
  9
$PUCSYDIR
 10
0.0
 20
1.0
 30
0.0
  9
$USERI1
 70
       0
  9
$USERI2
 70
       0
  9
$USERI3
 70
       0
  9
$USERI4
 70
       0
  9
$USERI5
 70
       0
  9
$USERR1
 40
0.0
  9
$USERR2
 40
0.0
  9
$USERR3
 40
0.0
  9
$USERR4
 40
0.0
  9
$USERR5
 40
0.0
  9
$WORLDVIEW
 70
       1
  9
$SHADEDGE
 70
       3
  9
$SHADEDIF
 70
      70
  9
$TILEMODE
 70
       1
  9
$MAXACTVP
 70
      16
  9
$PINSBASE
 10
0.0
 20
0.0
 30
0.0
  9
$PLIMCHECK
 70
       0
  9
$PEXTMIN
 10
1.00000000E+20
 20
1.00000000E+20
 30
1.00000000E+20
  9
$PEXTMAX
 10
-1.00000000E+20
 20
-1.00000000E+20
 30
-1.00000000E+20
  9
$PLIMMIN
 10
0.0
 20
0.0
  9
$PLIMMAX
 10
12.0
 20
9.0
  9
$UNITMODE
 70
       0
  9
$VISRETAIN
 70
       0
  9
$PLINEGEN
 70
       1
  9
$PSLTSCALE
 70
       0
  9
$TREEDEPTH
 70
    3020
  9
$PICKSTYLE
 70
       1
  9
$CMLSTYLE
  2
STANDARD
  9
$CMLJUST
 70
       0
  9
$CMLSCALE
 40
1.0
  9
$PROXYGRAPHICS
 70
       0
  9
$MEASUREMENT
 70
       0
  0
ENDSEC
  0
SECTION
  2
CLASSES
  0
CLASS
  1
LWPOLYLINE
  2
AcDbPolyline
  3
"AutoCAD"
 90
        0
280
       0
281
       1
  0
CLASS
  1
IMAGE
  2
AcDbRasterImage
  3
ISM
 90
      127
280
       0
281
       1
  0
CLASS
  1
OLE2FRAME
  2
AcDbOle2Frame
  3
""
 90
        0
280
       0
281
       1
  0
CLASS
  1
HATCH
  2
AcDbHatch
  3
"ACAD_SEDONA"
 90
        0
280
       0
281
       1
  0
CLASS
  1
DICTIONARYVAR
  2
AcDbDictionaryVar
  3
"AutoCAD"
 90
        0
280
       0
281
       0
  0
CLASS
  1
RASTERVARIABLES
  2
AcDbRasterVariables
  3
ISM
 90
        0
280
       0
281
       0
  0
CLASS
  1
IMAGEDEF
  2
AcDbRasterImageDef
  3
ISM
 90
        0
280
       0
281
       0
  0
CLASS
  1
IMAGEDEF_REACTOR
  2
AcDbRasterImageDefReactor
  3
ISM
 90
        1
280
       0
281
       0
  0
CLASS
  1
IDBUFFER
  2
AcDbIdBuffer
  3
"Acad"
 90
        0
280
       0
281
       0
  0
CLASS
  1
SPATIAL_FILTER
  2
AcDbSpatialFilter
  3
"Acad"
 90
        0
280
       0
281
       0
  0
CLASS
  1
XRECORD
  2
AcDbXrecord
  3
"<Built In>"
 90
        0
280
       0
281
       0
  0
CLASS
  1
SORTENTSTABLE
  2
AcDbSortentsTable
  3
"AutoCAD"
 90
        0
280
       0
281
       0
  0
CLASS
  1
LAYER_INDEX
  2
AcDbLayerIndex
  3
"Acad"
 90
        0
280
       0
281
       0
  0
CLASS
  1
SPATIAL_INDEX
  2
AcDbSpatialIndex
  3
"Acad"
 90
        0
280
       0
281
       0
  0
CLASS
  1
OBJECT_PTR
  2
CAseDLPNTableRecord
  3
"ASE-LPNTableRecord"
 90
        1
280
       0
281
       0
  0
CLASS
  1
LAYOUT
  2
AcDbLayout
  3
"AutoCAD 2000"
 90
        1
280
       0
281
       0
  0
CLASS
  1
PLOTSETTINGS
  2
AcDbPlotSettings
  3
"AutoCAD 2000"
 90
        1
280
       0
281
       0
  0
CLASS
  1
ACDBDICTIONARYWDFLT
  2
AcDbDictionaryWithDefault
  3
"AutoCAD 2000"
 90
        1
280
       0
281
       0
  0
CLASS
  1
ACDBPLACEHOLDER
  2
AcDbPlaceHolder
  3
"AutoCAD 2000"
 90
        1
280
       0
281
       0
  0
CLASS
  1
VBA_PROJECT
  2
AcDbVbaProject
  3
"acadvba"
 90
        1
280
       0
281
       0
  0
CLASS
  1
WIPEOUT
  2
AcDbWipeout
  3
WipeOut|AutoCAD Express Tool|expresstools@autodesk.com
 90
      127
280
       0
281
       1
  0
CLASS
  1
WIPEOUTVARIABLES
  2
AcDbWipeoutVariables
  3
WipeOut|AutoCAD Express Tool|expresstools@autodesk.com
 90
        0
280
       0
281
       0
  0
CLASS
  1
RTEXT
  2
RText
  3
RText|AutoCAD Express Tool|expresstools@autodesk.com
 90
        0
280
       0
281
       1
  0
CLASS
  1
ARCALIGNEDTEXT
  2
AcDbArcAlignedText
  3
ATEXT|AutoCAD Express Tool|expresstools@autodesk.com
 90
        0
280
       0
281
       1
  0
ENDSEC
  0
SECTION
  2
TABLES
  0
TABLE
  2
VPORT
  5
7
100
AcDbSymbolTable
 70
       1
  0
VPORT
  5
15
100
AcDbSymbolTableRecord
100
AcDbViewportTableRecord
  2
*ACTIVE
 70
       0
 10
0.0
 20
0.0
 11
1.0
 21
1.0
 12
0.0
 22
-0.92604167
 13
0.0
 23
0.0
 14
1.0
 24
1.0
 15
0.0
 25
0.0
 16
0.0
 26
0.0
 36
1.0
 17
0.0
 27
0.0
 37
0.0
 40
137.01158764
 41
1.64559074
 42
50.0
 43
0.0
 44
0.0
 50
0.0
 51
0.0
 71
       0
 72
     100
 73
       1
 74
       1
 75
       0
 76
       0
 77
       0
 78
       0
  0
ENDTAB
  0
TABLE
  2
LTYPE
  5
4
100
AcDbSymbolTable
 70
      30
  0
LTYPE
  5
11
100
AcDbSymbolTableRecord
100
AcDbLinetypeTableRecord
  2
BYBLOCK
 70
      64
  3

 72
      65
 73
       0
 40
0.0
  0
LTYPE
  5
12
100
AcDbSymbolTableRecord
100
AcDbLinetypeTableRecord
  2
BYLAYER
 70
      64
  3

 72
      65
 73
       0
 40
0.0
  0
LTYPE
  5
13
100
AcDbSymbolTableRecord
100
AcDbLinetypeTableRecord
  2
CONTINUOUS
 70
      64
  3
Solid line
 72
      65
 73
       0
 40
0.0
  0
LTYPE
  5
1D
100
AcDbSymbolTableRecord
100
AcDbLinetypeTableRecord
  2
HIDDENX2
 70
      64
  3
CADPAC LINETYPE
 72
      65
 73
       2
 40
8.48809413
 49
6.3660706
 74
       0
 49
-2.12202353
 74
       0
  0
LTYPE
  5
1E
100
AcDbSymbolTableRecord
100
AcDbLinetypeTableRecord
  2
HIDDEN
 70
      64
  3
CADPAC LINETYPE
 72
      65
 73
       2
 40
6.3660706
 49
4.24404707
 74
       0
 49
-2.12202353
 74
       0
  0
LTYPE
  5
1F
100
AcDbSymbolTableRecord
100
AcDbLinetypeTableRecord
  2
HIDDEN2
 70
      64
  3
CADPAC LINETYPE
 72
      65
 73
       2
 40
5.30505883
 49
3.1830353
 74
       0
 49
-2.12202353
 74
       0
  0
LTYPE
  5
20
100
AcDbSymbolTableRecord
100
AcDbLinetypeTableRecord
  2
DASHED
 70
      64
  3
CADPAC LINETYPE
 72
      65
 73
       2
 40
6.3660706
 49
4.24404707
 74
       0
 49
-2.12202353
 74
       0
  0
LTYPE
  5
21
100
AcDbSymbolTableRecord
100
AcDbLinetypeTableRecord
  2
DASHED2
 70
      64
  3
CADPAC LINETYPE
 72
      65
 73
       2
 40
4.77455295
 49
3.1830353
 74
       0
 49
-1.59151765
 74
       0
  0
LTYPE
  5
22
100
AcDbSymbolTableRecord
100
AcDbLinetypeTableRecord
  2
DASHEDX2
 70
      64
  3
CADPAC LINETYPE
 72
      65
 73
       2
 40
9.5491059
 49
6.3660706
 74
       0
 49
-3.1830353
 74
       0
  0
LTYPE
  5
23
100
AcDbSymbolTableRecord
100
AcDbLinetypeTableRecord
  2
DOTX2
 70
      64
  3
CADPAC LINETYPE
 72
      65
 73
       2
 40
2.65252942
 49
0.0
 74
       0
 49
-2.65252942
 74
       0
  0
LTYPE
  5
24
100
AcDbSymbolTableRecord
100
AcDbLinetypeTableRecord
  2
DOT
 70
      64
  3
CADPAC LINETYPE
 72
      65
 73
       2
 40
2.12202353
 49
0.0
 74
       0
 49
-2.12202353
 74
       0
  0
LTYPE
  5
25
100
AcDbSymbolTableRecord
100
AcDbLinetypeTableRecord
  2
DOT2
 70
      64
  3
CADPAC LINETYPE
 72
      65
 73
       2
 40
1.59151765
 49
0.0
 74
       0
 49
-1.59151765
 74
       0
  0
LTYPE
  5
26
100
AcDbSymbolTableRecord
100
AcDbLinetypeTableRecord
  2
CENTERX2
 70
      64
  3
CADPAC LINETYPE
 72
      65
 73
       4
 40
12.7321412
 49
5.30505883
 74
       0
 49
-2.65252942
 74
       0
 49
2.12202353
 74
       0
 49
-2.65252942
 74
       0
  0
LTYPE
  5
27
100
AcDbSymbolTableRecord
100
AcDbLinetypeTableRecord
  2
CENTER
 70
      64
  3
CADPAC LINETYPE
 72
      65
 73
       4
 40
9.76130825
 49
4.24404707
 74
       0
 49
-2.12202353
 74
       0
 49
1.27321412
 74
       0
 49
-2.12202353
 74
       0
  0
LTYPE
  5
28
100
AcDbSymbolTableRecord
100
AcDbLinetypeTableRecord
  2
CENTER2
 70
      64
  3
CADPAC LINETYPE
 72
      65
 73
       4
 40
6.79047531
 49
3.1830353
 74
       0
 49
-1.59151765
 74
       0
 49
0.42440471
 74
       0
 49
-1.59151765
 74
       0
  0
LTYPE
  5
29
100
AcDbSymbolTableRecord
100
AcDbLinetypeTableRecord
  2
DASHDOTX2
 70
      64
  3
CADPAC LINETYPE
 72
      65
 73
       4
 40
10.61011767
 49
5.30505883
 74
       0
 49
-2.65252942
 74
       0
 49
0.0
 74
       0
 49
-2.65252942
 74
       0
  0
LTYPE
  5
2A
100
AcDbSymbolTableRecord
100
AcDbLinetypeTableRecord
  2
DASHDOT
 70
      64
  3
CADPAC LINETYPE
 72
      65
 73
       4
 40
8.48809413
 49
4.24404707
 74
       0
 49
-2.12202353
 74
       0
 49
0.0
 74
       0
 49
-2.12202353
 74
       0
  0
LTYPE
  5
2B
100
AcDbSymbolTableRecord
100
AcDbLinetypeTableRecord
  2
DASHDOT2
 70
      64
  3
CADPAC LINETYPE
 72
      65
 73
       4
 40
6.3660706
 49
3.1830353
 74
       0
 49
-1.59151765
 74
       0
 49
0.0
 74
       0
 49
-1.59151765
 74
       0
  0
LTYPE
  5
2C
100
AcDbSymbolTableRecord
100
AcDbLinetypeTableRecord
  2
DIVIDEX2
 70
      64
  3
CADPAC LINETYPE
 72
      65
 73
       6
 40
13.26264708
 49
5.30505883
 74
       0
 49
-2.65252942
 74
       0
 49
0.0
 74
       0
 49
-2.65252942
 74
       0
 49
0.0
 74
       0
 49
-2.65252942
 74
       0
  0
LTYPE
  5
2D
100
AcDbSymbolTableRecord
100
AcDbLinetypeTableRecord
  2
DIVIDE
 70
      64
  3
CADPAC LINETYPE
 72
      65
 73
       6
 40
10.61011767
 49
4.24404707
 74
       0
 49
-2.12202353
 74
       0
 49
0.0
 74
       0
 49
-2.12202353
 74
       0
 49
0.0
 74
       0
 49
-2.12202353
 74
       0
  0
LTYPE
  5
2E
100
AcDbSymbolTableRecord
100
AcDbLinetypeTableRecord
  2
DIVIDE2
 70
      64
  3
CADPAC LINETYPE
 72
      65
 73
       6
 40
7.95758825
 49
3.1830353
 74
       0
 49
-1.59151765
 74
       0
 49
0.0
 74
       0
 49
-1.59151765
 74
       0
 49
0.0
 74
       0
 49
-1.59151765
 74
       0
  0
LTYPE
  5
2F
100
AcDbSymbolTableRecord
100
AcDbLinetypeTableRecord
  2
BORDERX2
 70
      64
  3
CADPAC LINETYPE
 72
      65
 73
       6
 40
18.56770591
 49
5.30505883
 74
       0
 49
-2.65252942
 74
       0
 49
5.30505883
 74
       0
 49
-2.65252942
 74
       0
 49
0.0
 74
       0
 49
-2.65252942
 74
       0
  0
LTYPE
  5
30
100
AcDbSymbolTableRecord
100
AcDbLinetypeTableRecord
  2
BORDER
 70
      64
  3
CADPAC LINETYPE
 72
      65
 73
       6
 40
14.85416473
 49
4.24404707
 74
       0
 49
-2.12202353
 74
       0
 49
4.24404707
 74
       0
 49
-2.12202353
 74
       0
 49
0.0
 74
       0
 49
-2.12202353
 74
       0
  0
LTYPE
  5
31
100
AcDbSymbolTableRecord
100
AcDbLinetypeTableRecord
  2
BORDER2
 70
      64
  3
CADPAC LINETYPE
 72
      65
 73
       6
 40
11.14062355
 49
3.1830353
 74
       0
 49
-1.59151765
 74
       0
 49
3.1830353
 74
       0
 49
-1.59151765
 74
       0
 49
0.0
 74
       0
 49
-1.59151765
 74
       0
  0
LTYPE
  5
32
100
AcDbSymbolTableRecord
100
AcDbLinetypeTableRecord
  2
PHANTOMX2
 70
      64
  3
CADPAC LINETYPE
 72
      65
 73
       6
 40
15.9151765
 49
5.30505883
 74
       0
 49
-2.12202353
 74
       0
 49
2.12202353
 74
       0
 49
-2.12202353
 74
       0
 49
2.12202353
 74
       0
 49
-2.12202353
 74
       0
  0
LTYPE
  5
33
100
AcDbSymbolTableRecord
100
AcDbLinetypeTableRecord
  2
PHANTOM
 70
      64
  3
CADPAC LINETYPE
 72
      65
 73
       6
 40
13.15654591
 49
4.24404707
 74
       0
 49
-2.12202353
 74
       0
 49
1.27321412
 74
       0
 49
-2.12202353
 74
       0
 49
1.27321412
 74
       0
 49
-2.12202353
 74
       0
  0
LTYPE
  5
34
100
AcDbSymbolTableRecord
100
AcDbLinetypeTableRecord
  2
PHANTOM2
 70
      64
  3
CADPAC LINETYPE
 72
      65
 73
       6
 40
11.24672473
 49
3.1830353
 74
       0
 49
-2.12202353
 74
       0
 49
0.84880941
 74
       0
 49
-2.12202353
 74
       0
 49
0.84880941
 74
       0
 49
-2.12202353
 74
       0
  0
LTYPE
  5
35
100
AcDbSymbolTableRecord
100
AcDbLinetypeTableRecord
  2
ACAD_ISO06W100
 70
      64
  3
CADPAC LINETYPE
 72
      65
 73
       8
 40
14.32365885
 49
5.30505883
 74
       0
 49
-2.65252942
 74
       0
 49
0.0
 74
       0
 49
-2.12202353
 74
       0
 49
0.0
 74
       0
 49
-2.12202353
 74
       0
 49
0.0
 74
       0
 49
-2.12202353
 74
       0
  0
LTYPE
  5
36
100
AcDbSymbolTableRecord
100
AcDbLinetypeTableRecord
  2
ACAD_ISO13W100
 70
      64
  3
CADPAC LINETYPE
 72
      65
 73
       8
 40
16.97618826
 49
4.24404707
 74
       0
 49
-2.12202353
 74
       0
 49
4.24404707
 74
       0
 49
-2.12202353
 74
       0
 49
0.0
 74
       0
 49
-2.12202353
 74
       0
 49
0.0
 74
       0
 49
-2.12202353
 74
       0
  0
LTYPE
  5
37
100
AcDbSymbolTableRecord
100
AcDbLinetypeTableRecord
  2
ACAD_ISO14W100
 70
      64
  3
CADPAC LINETYPE
 72
      65
 73
       8
 40
12.7321412
 49
4.24404707
 74
       0
 49
-2.12202353
 74
       0
 49
0.0
 74
       0
 49
-2.12202353
 74
       0
 49
0.0
 74
       0
 49
-2.12202353
 74
       0
 49
0.0
 74
       0
 49
-2.12202353
 74
       0
  0
ENDTAB
  0
TABLE
  2
LAYER
  5
2
100
AcDbSymbolTable
 70
       3
  0
LAYER
  5
14
100
AcDbSymbolTableRecord
100
AcDbLayerTableRecord
  2
0
 70
       0
 62
       7
  6
CONTINUOUS
  0
LAYER
  5
38
100
AcDbSymbolTableRecord
100
AcDbLayerTableRecord
  2
SLD-0_0
 70
       0
 62
       7
  6
CONTINUOUS
  0
LAYER
  5
39
100
AcDbSymbolTableRecord
100
AcDbLayerTableRecord
  2
レイヤー_1
 70
       0
 62
       7
  6
CONTINUOUS
  0
ENDTAB
  0
TABLE
  2
STYLE
  5
3
100
AcDbSymbolTable
 70
       1
  0
STYLE
  5
17
100
AcDbSymbolTableRecord
100
AcDbTextStyleTableRecord
  2
STANDARD
 70
       0
 40
0.0
 41
1.0
 50
0.0
 71
       0
 42
3.70416667
  3
txt.shx
  4
bigfont.shx
  0
ENDTAB
  0
TABLE
  2
VIEW
  5
5
100
AcDbSymbolTable
 70
       1
  0
VIEW
  5
3A
100
AcDbSymbolTableRecord
100
AcDbViewTableRecord
  2
QQQQ
 70
       0
 40
137.01158764
 10
0.0
 20
-0.92604167
 41
225.46500039
 11
0.0
 21
0.0
 31
1.0
 12
100.0
 22
100.0
 32
0.0
 42
50.0
 43
0.0
 44
0.0
 50
0.0
 71
       0
  0
ENDTAB
  0
TABLE
  2
UCS
  5
6
100
AcDbSymbolTable
 70
       0
  0
ENDTAB
  0
TABLE
  2
APPID
  5
8
100
AcDbSymbolTable
 70
       1
  0
APPID
  5
16
100
AcDbSymbolTableRecord
100
AcDbRegAppTableRecord
  2
ACAD
 70
       0
  0
ENDTAB
  0
TABLE
  2
DIMSTYLE
  5
9
100
AcDbSymbolTable
 70
       1
  0
DIMSTYLE
105
18
100
AcDbSymbolTableRecord
100
AcDbDimStyleTableRecord
  2
STANDARD
 70
       0
  3

  4

  5

  6

  7

 40
1.0
 41
0.18
 42
0.0625
 43
0.38
 44
0.18
 45
0.0
 46
0.0
 47
0.0
 48
0.0
 71
       0
 72
       0
 73
       1
 74
       1
 75
       0
 76
       0
 77
       0
 78
       0
140
0.18
141
0.09
142
0.0
143
25.4
144
1.0
145
0.0
146
1.0
147
0.09
170
       0
171
       2
172
       0
173
       0
174
       0
175
       0
176
       0
177
       0
178
       0
270
       2
271
       4
272
       4
273
       2
274
       2
275
       0
280
       0
281
       0
282
       0
283
       1
284
       0
285
       0
286
       0
287
       0
288
       0
340
17
  0
ENDTAB
  0
TABLE
  2
BLOCK_RECORD
  5
1
100
AcDbSymbolTable
 70
       0
  0
BLOCK_RECORD
  5
A
100
AcDbSymbolTableRecord
100
AcDbBlockTableRecord
  2
*MODEL_SPACE
  0
BLOCK_RECORD
  5
B
100
AcDbSymbolTableRecord
100
AcDbBlockTableRecord
  2
*PAPER_SPACE
  0
ENDTAB
  0
ENDSEC
  0
SECTION
  2
BLOCKS
  0
BLOCK
  5
D
100
AcDbEntity
  8
0
100
AcDbBlockBegin
  2
*MODEL_SPACE
 70
       0
 10
0.0
 20
0.0
 30
0.0
  3
*MODEL_SPACE
  1

  0
ENDBLK
  5
E
100
AcDbEntity
  8
0
100
AcDbBlockEnd
  0
BLOCK
  5
F
100
AcDbEntity
 67
       1
  8
0
100
AcDbBlockBegin
  2
*PAPER_SPACE
 70
       0
 10
0.0
 20
0.0
 30
0.0
  3
*PAPER_SPACE
  1

  0
ENDBLK
  5
10
100
AcDbEntity
 67
       1
  8
0
100
AcDbBlockEnd
  0
ENDSEC
  0
SECTION
  2
ENTITIES
  0
LINE
  5
3B
100
AcDbEntity
  8
レイヤー_1
  6
CENTERX2
 62
       7
100
AcDbLine
 10
-71.81162249
 20
61.07015183
 30
0.0
 11
-71.81162249
 21
-50.64648109
 31
0.0
  0
LINE
  5
3C
100
AcDbEntity
  8
レイヤー_1
  6
CENTERX2
 62
       7
100
AcDbLine
 10
-102.02036217
 20
5.6483823
 30
0.0
 11
-40.6284181
 21
5.6483823
 31
0.0
  0
LINE
  5
3D
100
AcDbEntity
  8
レイヤー_1
  6
CENTERX2
 62
       7
100
AcDbLine
 10
-1.99743289
 20
5.6483823
 30
0.0
 11
102.02036217
 21
5.6483823
 31
0.0
  0
LINE
  5
3E
100
AcDbEntity
  8
レイヤー_1
  6
CONTINUOUS
 62
       7
100
AcDbLine
 10
-51.14984592
 20
-31.35235001
 30
0.0
 11
-51.14984592
 21
-41.35197398
 31
0.0
  0
LINE
  5
3F
100
AcDbEntity
  8
レイヤー_1
  6
CONTINUOUS
 62
       7
100
AcDbLine
 10
-94.31162249
 20
52.6483823
 30
0.0
 11
-49.31162249
 21
52.6483823
 31
0.0
  0
LINE
  5
40
100
AcDbEntity
  8
レイヤー_1
  6
CONTINUOUS
 62
       7
100
AcDbLine
 10
-94.31162249
 20
52.6483823
 30
0.0
 11
-94.31162249
 21
-41.3516177
 31
0.0
  0
LINE
  5
41
100
AcDbEntity
  8
レイヤー_1
  6
CONTINUOUS
 62
       7
100
AcDbLine
 10
-49.31162249
 20
52.6483823
 30
0.0
 11
-49.31162249
 21
-41.3516177
 31
0.0
  0
LINE
  5
42
100
AcDbEntity
  8
レイヤー_1
  6
CONTINUOUS
 62
       7
100
AcDbLine
 10
-74.36022968
 20
2.14991544
 30
0.0
 11
-76.51407589
 21
2.14991544
 31
0.0
  0
LINE
  5
43
100
AcDbEntity
  8
レイヤー_1
  6
CONTINUOUS
 62
       7
100
AcDbLine
 10
-76.54691646
 20
9.14683295
 30
0.0
 11
-74.36022968
 21
9.14683295
 31
0.0
  0
LINE
  5
44
100
AcDbEntity
  8
レイヤー_1
  6
CONTINUOUS
 62
       7
100
AcDbLine
 10
-74.36022968
 20
9.14683295
 30
0.0
 11
-74.36022968
 21
28.14904284
 31
0.0
  0
LINE
  5
45
100
AcDbEntity
  8
レイヤー_1
  6
CONTINUOUS
 62
       7
100
AcDbLine
 10
-74.36022968
 20
28.14904284
 30
0.0
 11
-88.85384452
 21
28.14904284
 31
0.0
  0
LINE
  5
46
100
AcDbEntity
  8
レイヤー_1
  6
CONTINUOUS
 62
       7
100
AcDbLine
 10
-88.85384452
 20
28.14904284
 30
0.0
 11
-88.85384452
 21
-16.85227823
 31
0.0
  0
LINE
  5
47
100
AcDbEntity
  8
レイヤー_1
  6
CONTINUOUS
 62
       7
100
AcDbLine
 10
-88.85384452
 20
-16.85227823
 30
0.0
 11
-74.36022968
 21
-16.85227823
 31
0.0
  0
LINE
  5
48
100
AcDbEntity
  8
レイヤー_1
  6
CONTINUOUS
 62
       7
100
AcDbLine
 10
-74.36022968
 20
-16.85227823
 30
0.0
 11
-74.36022968
 21
2.14991544
 31
0.0
  0
LINE
  5
49
100
AcDbEntity
  8
レイヤー_1
  6
CONTINUOUS
 62
       7
100
AcDbLine
 10
10.48796841
 20
8.49493045
 30
0.0
 11
9.48796841
 21
8.49493045
 31
0.0
  0
LINE
  5
4A
100
AcDbEntity
  8
レイヤー_1
  6
CONTINUOUS
 62
       7
100
AcDbLine
 10
9.48796841
 20
3.19763048
 30
0.0
 11
10.48796841
 21
3.19763048
 31
0.0
  0
LINE
  5
4B
100
AcDbEntity
  8
レイヤー_1
  6
CONTINUOUS
 62
       7
100
AcDbLine
 10
-58.54988253
 20
-31.35235001
 30
0.0
 11
-51.14984592
 21
-31.35235001
 31
0.0
  0
LINE
  5
4C
100
AcDbEntity
  8
レイヤー_1
  6
CONTINUOUS
 62
       7
100
AcDbLine
 10
-58.54988253
 20
-41.35197398
 30
0.0
 11
-58.54988253
 21
-31.35235001
 31
0.0
  0
LINE
  5
4D
100
AcDbEntity
  8
レイヤー_1
  6
CONTINUOUS
 62
       7
100
AcDbLine
 10
-59.64976428
 20
-31.35235001
 30
0.0
 11
-59.64976428
 21
-41.35197398
 31
0.0
  0
LINE
  5
4E
100
AcDbEntity
  8
レイヤー_1
  6
CONTINUOUS
 62
       7
100
AcDbLine
 10
-67.04980089
 20
-31.35235001
 30
0.0
 11
-59.64976428
 21
-31.35235001
 31
0.0
  0
LINE
  5
4F
100
AcDbEntity
  8
レイヤー_1
  6
CONTINUOUS
 62
       7
100
AcDbLine
 10
-67.04980089
 20
-41.35197398
 30
0.0
 11
-67.04980089
 21
-31.35235001
 31
0.0
  0
LINE
  5
50
100
AcDbEntity
  8
レイヤー_1
  6
CONTINUOUS
 62
       7
100
AcDbLine
 10
-68.14968265
 20
-31.35235001
 30
0.0
 11
-68.14968265
 21
-41.35197398
 31
0.0
  0
LINE
  5
51
100
AcDbEntity
  8
レイヤー_1
  6
CONTINUOUS
 62
       7
100
AcDbLine
 10
-75.54935312
 20
-31.35235001
 30
0.0
 11
-68.14968265
 21
-31.35235001
 31
0.0
  0
LINE
  5
52
100
AcDbEntity
  8
レイヤー_1
  6
CONTINUOUS
 62
       7
100
AcDbLine
 10
-75.54935312
 20
-41.35197398
 30
0.0
 11
-75.54935312
 21
-31.35235001
 31
0.0
  0
LINE
  5
53
100
AcDbEntity
  8
レイヤー_1
  6
CONTINUOUS
 62
       7
100
AcDbLine
 10
-76.64923488
 20
-31.35235001
 30
0.0
 11
-76.64923488
 21
-41.35197398
 31
0.0
  0
LINE
  5
54
100
AcDbEntity
  8
レイヤー_1
  6
CONTINUOUS
 62
       7
100
AcDbLine
 10
-84.05000377
 20
-31.35235001
 30
0.0
 11
-76.64923488
 21
-31.35235001
 31
0.0
  0
LINE
  5
55
100
AcDbEntity
  8
レイヤー_1
  6
CONTINUOUS
 62
       7
100
AcDbLine
 10
-84.05000377
 20
-41.35197398
 30
0.0
 11
-84.05000377
 21
-31.35235001
 31
0.0
  0
LINE
  5
56
100
AcDbEntity
  8
レイヤー_1
  6
CONTINUOUS
 62
       7
100
AcDbLine
 10
-85.14988552
 20
-31.35235001
 30
0.0
 11
-85.14988552
 21
-41.35197398
 31
0.0
  0
LINE
  5
57
100
AcDbEntity
  8
レイヤー_1
  6
CONTINUOUS
 62
       7
100
AcDbLine
 10
-92.54992213
 20
-31.35235001
 30
0.0
 11
-85.14988552
 21
-31.35235001
 31
0.0
  0
LINE
  5
58
100
AcDbEntity
  8
レイヤー_1
  6
CONTINUOUS
 62
       7
100
AcDbLine
 10
-92.54992213
 20
-41.35197398
 30
0.0
 11
-92.54992213
 21
-31.35235001
 31
0.0
  0
LINE
  5
59
100
AcDbEntity
  8
レイヤー_1
  6
CONTINUOUS
 62
       7
100
AcDbLine
 10
-85.95026552
 20
-32.51374311
 30
0.0
 11
-85.95026552
 21
-40.0137357
 31
0.0
  0
LINE
  5
5A
100
AcDbEntity
  8
レイヤー_1
  6
CONTINUOUS
 62
       7
100
AcDbLine
 10
-91.74954215
 20
-32.51374311
 30
0.0
 11
-85.95026552
 21
-32.51374311
 31
0.0
  0
LINE
  5
5B
100
AcDbEntity
  8
レイヤー_1
  6
CONTINUOUS
 62
       7
100
AcDbLine
 10
-91.74954215
 20
-40.0137357
 30
0.0
 11
-91.74954215
 21
-32.51374311
 31
0.0
  0
LINE
  5
5C
100
AcDbEntity
  8
レイヤー_1
  6
CONTINUOUS
 62
       7
100
AcDbLine
 10
-85.95026552
 20
-40.0137357
 30
0.0
 11
-91.74954215
 21
-40.0137357
 31
0.0
  0
LINE
  5
5D
100
AcDbEntity
  8
レイヤー_1
  6
CONTINUOUS
 62
       7
100
AcDbLine
 10
-77.44924873
 20
-32.51374311
 30
0.0
 11
-77.44924873
 21
-40.0137357
 31
0.0
  0
LINE
  5
5E
100
AcDbEntity
  8
レイヤー_1
  6
CONTINUOUS
 62
       7
100
AcDbLine
 10
-83.24998992
 20
-32.51374311
 30
0.0
 11
-77.44924873
 21
-32.51374311
 31
0.0
  0
LINE
  5
5F
100
AcDbEntity
  8
レイヤー_1
  6
CONTINUOUS
 62
       7
100
AcDbLine
 10
-83.24998992
 20
-40.0137357
 30
0.0
 11
-83.24998992
 21
-32.51374311
 31
0.0
  0
LINE
  5
60
100
AcDbEntity
  8
レイヤー_1
  6
CONTINUOUS
 62
       7
100
AcDbLine
 10
-77.44924873
 20
-40.0137357
 30
0.0
 11
-83.24998992
 21
-40.0137357
 31
0.0
  0
LINE
  5
61
100
AcDbEntity
  8
レイヤー_1
  6
CONTINUOUS
 62
       7
100
AcDbLine
 10
-68.9496965
 20
-32.51374311
 30
0.0
 11
-68.9496965
 21
-40.0137357
 31
0.0
  0
LINE
  5
62
100
AcDbEntity
  8
レイヤー_1
  6
CONTINUOUS
 62
       7
100
AcDbLine
 10
-74.75007154
 20
-32.51374311
 30
0.0
 11
-68.9496965
 21
-32.51374311
 31
0.0
  0
LINE
  5
63
100
AcDbEntity
  8
レイヤー_1
  6
CONTINUOUS
 62
       7
100
AcDbLine
 10
-74.75007154
 20
-40.0137357
 30
0.0
 11
-74.75007154
 21
-32.51374311
 31
0.0
  0
LINE
  5
64
100
AcDbEntity
  8
レイヤー_1
  6
CONTINUOUS
 62
       7
100
AcDbLine
 10
-68.9496965
 20
-40.0137357
 30
0.0
 11
-74.75007154
 21
-40.0137357
 31
0.0
  0
LINE
  5
65
100
AcDbEntity
  8
レイヤー_1
  6
CONTINUOUS
 62
       7
100
AcDbLine
 10
-60.44977813
 20
-32.51374311
 30
0.0
 11
-60.44977813
 21
-40.0137357
 31
0.0
  0
LINE
  5
66
100
AcDbEntity
  8
レイヤー_1
  6
CONTINUOUS
 62
       7
100
AcDbLine
 10
-66.24942091
 20
-32.51374311
 30
0.0
 11
-60.44977813
 21
-32.51374311
 31
0.0
  0
LINE
  5
67
100
AcDbEntity
  8
レイヤー_1
  6
CONTINUOUS
 62
       7
100
AcDbLine
 10
-66.24942091
 20
-40.0137357
 30
0.0
 11
-66.24942091
 21
-32.51374311
 31
0.0
  0
LINE
  5
68
100
AcDbEntity
  8
レイヤー_1
  6
CONTINUOUS
 62
       7
100
AcDbLine
 10
-60.44977813
 20
-40.0137357
 30
0.0
 11
-66.24942091
 21
-40.0137357
 31
0.0
  0
LINE
  5
69
100
AcDbEntity
  8
レイヤー_1
  6
CONTINUOUS
 62
       7
100
AcDbLine
 10
-51.9502259
 20
-32.51374311
 30
0.0
 11
-51.9502259
 21
-40.0137357
 31
0.0
  0
LINE
  5
6A
100
AcDbEntity
  8
レイヤー_1
  6
CONTINUOUS
 62
       7
100
AcDbLine
 10
-57.74950253
 20
-32.51374311
 30
0.0
 11
-51.9502259
 21
-32.51374311
 31
0.0
  0
LINE
  5
6B
100
AcDbEntity
  8
レイヤー_1
  6
CONTINUOUS
 62
       7
100
AcDbLine
 10
-57.74950253
 20
-40.0137357
 30
0.0
 11
-57.74950253
 21
-32.51374311
 31
0.0
  0
LINE
  5
6C
100
AcDbEntity
  8
レイヤー_1
  6
CONTINUOUS
 62
       7
100
AcDbLine
 10
-51.9502259
 20
-40.0137357
 30
0.0
 11
-57.74950253
 21
-40.0137357
 31
0.0
  0
LINE
  5
6D
100
AcDbEntity
  8
レイヤー_1
  6
CONTINUOUS
 62
       7
100
AcDbLine
 10
-94.31162249
 20
-41.3516177
 30
0.0
 11
-49.31162249
 21
-41.3516177
 31
0.0
  0
LINE
  5
6E
100
AcDbEntity
  8
レイヤー_1
  6
CONTINUOUS
 62
       7
100
AcDbLine
 10
97.48796841
 20
-12.93042914
 30
0.0
 11
92.70830059
 21
-12.93042914
 31
0.0
  0
LINE
  5
6F
100
AcDbEntity
  8
レイヤー_1
  6
CONTINUOUS
 62
       7
100
AcDbLine
 10
92.70830059
 20
-12.93042914
 30
0.0
 11
92.55631162
 21
-12.93042914
 31
0.0
  0
LINE
  5
70
100
AcDbEntity
  8
レイヤー_1
  6
CONTINUOUS
 62
       7
100
AcDbLine
 10
92.55631162
 20
-12.93042914
 30
0.0
 11
92.51579993
 21
-12.91383284
 31
0.0
  0
LINE
  5
71
100
AcDbEntity
  8
レイヤー_1
  6
CONTINUOUS
 62
       7
100
AcDbLine
 10
92.51579993
 20
-12.91383284
 30
0.0
 11
92.51579993
 21
-12.29395392
 31
0.0
  0
LINE
  5
72
100
AcDbEntity
  8
レイヤー_1
  6
CONTINUOUS
 62
       7
100
AcDbLine
 10
92.51579993
 20
-12.29395392
 30
0.0
 11
92.51579993
 21
-10.86980276
 31
0.0
  0
LINE
  5
73
100
AcDbEntity
  8
レイヤー_1
  6
CONTINUOUS
 62
       7
100
AcDbLine
 10
92.51579993
 20
-10.86980276
 30
0.0
 11
92.51579993
 21
-8.76571129
 31
0.0
  0
LINE
  5
74
100
AcDbEntity
  8
レイヤー_1
  6
CONTINUOUS
 62
       7
100
AcDbLine
 10
92.51579993
 20
-8.76571129
 30
0.0
 11
92.51579993
 21
-6.10601146
 31
0.0
  0
LINE
  5
75
100
AcDbEntity
  8
レイヤー_1
  6
CONTINUOUS
 62
       7
100
AcDbLine
 10
92.51579993
 20
-6.10601146
 30
0.0
 11
92.51579993
 21
-3.01503522
 31
0.0
  0
LINE
  5
76
100
AcDbEntity
  8
レイヤー_1
  6
CONTINUOUS
 62
       7
100
AcDbLine
 10
92.51579993
 20
-3.01503522
 30
0.0
 11
92.51579993
 21
0.38288552
 31
0.0
  0
LINE
  5
77
100
AcDbEntity
  8
レイヤー_1
  6
CONTINUOUS
 62
       7
100
AcDbLine
 10
92.51579993
 20
0.38288552
 30
0.0
 11
92.51579993
 21
3.96341879
 31
0.0
  0
LINE
  5
78
100
AcDbEntity
  8
レイヤー_1
  6
CONTINUOUS
 62
       7
100
AcDbLine
 10
92.51579993
 20
3.96341879
 30
0.0
 11
92.51579993
 21
7.60223265
 31
0.0
  0
LINE
  5
79
100
AcDbEntity
  8
レイヤー_1
  6
CONTINUOUS
 62
       7
100
AcDbLine
 10
92.51579993
 20
7.60223265
 30
0.0
 11
92.51579993
 21
11.17499517
 31
0.0
  0
LINE
  5
7A
100
AcDbEntity
  8
レイヤー_1
  6
CONTINUOUS
 62
       7
100
AcDbLine
 10
92.51579993
 20
11.17499517
 30
0.0
 11
92.51579993
 21
14.55737442
 31
0.0
  0
LINE
  5
7B
100
AcDbEntity
  8
レイヤー_1
  6
CONTINUOUS
 62
       7
100
AcDbLine
 10
92.51579993
 20
14.55737442
 30
0.0
 11
92.51579993
 21
17.62503842
 31
0.0
  0
LINE
  5
7C
100
AcDbEntity
  8
レイヤー_1
  6
CONTINUOUS
 62
       7
100
AcDbLine
 10
92.51579993
 20
17.62503842
 30
0.0
 11
92.51579993
 21
20.25365526
 31
0.0
  0
LINE
  5
7D
100
AcDbEntity
  8
レイヤー_1
  6
CONTINUOUS
 62
       7
100
AcDbLine
 10
92.51579993
 20
20.25365526
 30
0.0
 11
92.51579993
 21
22.31889299
 31
0.0
  0
LINE
  5
7E
100
AcDbEntity
  8
レイヤー_1
  6
CONTINUOUS
 62
       7
100
AcDbLine
 10
92.51579993
 20
22.31889299
 30
0.0
 11
92.51579993
 21
23.69641968
 31
0.0
  0
LINE
  5
7F
100
AcDbEntity
  8
レイヤー_1
  6
CONTINUOUS
 62
       7
100
AcDbLine
 10
92.51579993
 20
23.69641968
 30
0.0
 11
92.51579993
 21
24.26190338
 31
0.0
  0
LINE
  5
80
100
AcDbEntity
  8
レイヤー_1
  6
CONTINUOUS
 62
       7
100
AcDbLine
 10
92.51579993
 20
24.26190338
 30
0.0
 11
92.56291359
 21
24.26929973
 31
0.0
  0
LINE
  5
81
100
AcDbEntity
  8
レイヤー_1
  6
CONTINUOUS
 62
       7
100
AcDbLine
 10
92.56291359
 20
24.26929973
 30
0.0
 11
92.72234631
 21
24.26929973
 31
0.0
  0
LINE
  5
82
100
AcDbEntity
  8
レイヤー_1
  6
CONTINUOUS
 62
       7
100
AcDbLine
 10
92.72234631
 20
24.26929973
 30
0.0
 11
92.97839175
 21
24.26929973
 31
0.0
  0
LINE
  5
83
100
AcDbEntity
  8
レイヤー_1
  6
CONTINUOUS
 62
       7
100
AcDbLine
 10
92.97839175
 20
24.26929973
 30
0.0
 11
93.31433851
 21
24.26929973
 31
0.0
  0
LINE
  5
84
100
AcDbEntity
  8
レイヤー_1
  6
CONTINUOUS
 62
       7
100
AcDbLine
 10
93.31433851
 20
24.26929973
 30
0.0
 11
93.71347523
 21
24.26929973
 31
0.0
  0
LINE
  5
85
100
AcDbEntity
  8
レイヤー_1
  6
CONTINUOUS
 62
       7
100
AcDbLine
 10
93.71347523
 20
24.26929973
 30
0.0
 11
94.15909046
 21
24.26929973
 31
0.0
  0
LINE
  5
86
100
AcDbEntity
  8
レイヤー_1
  6
CONTINUOUS
 62
       7
100
AcDbLine
 10
94.15909046
 20
24.26929973
 30
0.0
 11
94.63447287
 21
24.26929973
 31
0.0
  0
LINE
  5
87
100
AcDbEntity
  8
レイヤー_1
  6
CONTINUOUS
 62
       7
100
AcDbLine
 10
94.63447287
 20
24.26929973
 30
0.0
 11
95.12291105
 21
24.26929973
 31
0.0
  0
LINE
  5
88
100
AcDbEntity
  8
レイヤー_1
  6
CONTINUOUS
 62
       7
100
AcDbLine
 10
95.12291105
 20
24.26929973
 30
0.0
 11
95.6076936
 21
24.26929973
 31
0.0
  0
LINE
  5
89
100
AcDbEntity
  8
レイヤー_1
  6
CONTINUOUS
 62
       7
100
AcDbLine
 10
95.6076936
 20
24.26929973
 30
0.0
 11
96.07210916
 21
24.26929973
 31
0.0
  0
LINE
  5
8A
100
AcDbEntity
  8
レイヤー_1
  6
CONTINUOUS
 62
       7
100
AcDbLine
 10
96.07210916
 20
24.26929973
 30
0.0
 11
96.49944633
 21
24.26929973
 31
0.0
  0
LINE
  5
8B
100
AcDbEntity
  8
レイヤー_1
  6
CONTINUOUS
 62
       7
100
AcDbLine
 10
96.49944633
 20
24.26929973
 30
0.0
 11
96.87299373
 21
24.26929973
 31
0.0
  0
LINE
  5
8C
100
AcDbEntity
  8
レイヤー_1
  6
CONTINUOUS
 62
       7
100
AcDbLine
 10
96.87299373
 20
24.26929973
 30
0.0
 11
97.17603994
 21
24.26929973
 31
0.0
  0
LINE
  5
8D
100
AcDbEntity
  8
レイヤー_1
  6
CONTINUOUS
 62
       7
100
AcDbLine
 10
97.17603994
 20
24.26929973
 30
0.0
 11
97.3918736
 21
24.26929973
 31
0.0
  0
LINE
  5
8E
100
AcDbEntity
  8
レイヤー_1
  6
CONTINUOUS
 62
       7
100
AcDbLine
 10
97.3918736
 20
24.26929973
 30
0.0
 11
97.50378333
 21
24.26929973
 31
0.0
  0
LINE
  5
8F
100
AcDbEntity
  8
レイヤー_1
  6
CONTINUOUS
 62
       7
100
AcDbLine
 10
97.50378333
 20
24.26929973
 30
0.0
 11
97.51579497
 21
24.38137644
 31
0.0
  0
LINE
  5
90
100
AcDbEntity
  8
レイヤー_1
  6
CONTINUOUS
 62
       7
100
AcDbLine
 10
97.51579497
 20
24.38137644
 30
0.0
 11
97.51579497
 21
25.09549317
 31
0.0
  0
LINE
  5
91
100
AcDbEntity
  8
レイヤー_1
  6
CONTINUOUS
 62
       7
100
AcDbLine
 10
-79.8080128
 20
-11.72619776
 30
0.0
 11
-79.81702433
 21
-11.87731618
 31
0.0
  0
LINE
  5
92
100
AcDbEntity
  8
レイヤー_1
  6
CONTINUOUS
 62
       7
100
AcDbLine
 10
-79.81702433
 20
-11.87731618
 30
0.0
 11
-79.84348311
 21
-12.02412388
 31
0.0
  0
LINE
  5
93
100
AcDbEntity
  8
レイヤー_1
  6
CONTINUOUS
 62
       7
100
AcDbLine
 10
-79.84348311
 20
-12.02412388
 30
0.0
 11
-79.88652548
 21
-12.16590413
 31
0.0
  0
LINE
  5
94
100
AcDbEntity
  8
レイヤー_1
  6
CONTINUOUS
 62
       7
100
AcDbLine
 10
-79.88652548
 20
-12.16590413
 30
0.0
 11
-79.94528774
 21
-12.30194017
 31
0.0
  0
LINE
  5
95
100
AcDbEntity
  8
レイヤー_1
  6
CONTINUOUS
 62
       7
100
AcDbLine
 10
-79.94528774
 20
-12.30194017
 30
0.0
 11
-80.01890624
 21
-12.43151524
 31
0.0
  0
LINE
  5
96
100
AcDbEntity
  8
レイヤー_1
  6
CONTINUOUS
 62
       7
100
AcDbLine
 10
-80.01890624
 20
-12.43151524
 30
0.0
 11
-80.10651727
 21
-12.55391264
 31
0.0
  0
LINE
  5
97
100
AcDbEntity
  8
レイヤー_1
  6
CONTINUOUS
 62
       7
100
AcDbLine
 10
-80.10651727
 20
-12.55391264
 30
0.0
 11
-80.20725718
 21
-12.66841557
 31
0.0
  0
LINE
  5
98
100
AcDbEntity
  8
レイヤー_1
  6
CONTINUOUS
 62
       7
100
AcDbLine
 10
-80.20725718
 20
-12.66841557
 30
0.0
 11
-80.32026226
 21
-12.77430732
 31
0.0
  0
LINE
  5
99
100
AcDbEntity
  8
レイヤー_1
  6
CONTINUOUS
 62
       7
100
AcDbLine
 10
-80.32026226
 20
-12.77430732
 30
0.0
 11
-80.44466887
 21
-12.87087113
 31
0.0
  0
LINE
  5
9A
100
AcDbEntity
  8
レイヤー_1
  6
CONTINUOUS
 62
       7
100
AcDbLine
 10
-80.44466887
 20
-12.87087113
 30
0.0
 11
-80.5796133
 21
-12.95739027
 31
0.0
  0
LINE
  5
9B
100
AcDbEntity
  8
レイヤー_1
  6
CONTINUOUS
 62
       7
100
AcDbLine
 10
-80.5796133
 20
-12.95739027
 30
0.0
 11
-80.72423188
 21
-13.03314797
 31
0.0
  0
LINE
  5
9C
100
AcDbEntity
  8
レイヤー_1
  6
CONTINUOUS
 62
       7
100
AcDbLine
 10
-80.72423188
 20
-13.03314797
 30
0.0
 11
-80.87766092
 21
-13.09742749
 31
0.0
  0
LINE
  5
9D
100
AcDbEntity
  8
レイヤー_1
  6
CONTINUOUS
 62
       7
100
AcDbLine
 10
-80.87766092
 20
-13.09742749
 30
0.0
 11
-81.03903677
 21
-13.14951211
 31
0.0
  0
LINE
  5
9E
100
AcDbEntity
  8
レイヤー_1
  6
CONTINUOUS
 62
       7
100
AcDbLine
 10
-81.03903677
 20
-13.14951211
 30
0.0
 11
-81.20749574
 21
-13.18868506
 31
0.0
  0
LINE
  5
9F
100
AcDbEntity
  8
レイヤー_1
  6
CONTINUOUS
 62
       7
100
AcDbLine
 10
-81.20749574
 20
-13.18868506
 30
0.0
 11
-81.38217413
 21
-13.21422957
 31
0.0
  0
LINE
  5
A0
100
AcDbEntity
  8
レイヤー_1
  6
CONTINUOUS
 62
       7
100
AcDbLine
 10
-81.38217413
 20
-13.21422957
 30
0.0
 11
-81.56220828
 21
-13.22542895
 31
0.0
  0
LINE
  5
A1
100
AcDbEntity
  8
レイヤー_1
  6
CONTINUOUS
 62
       7
100
AcDbLine
 10
-81.56220828
 20
-13.22542895
 30
0.0
 11
-81.74432917
 21
-13.2216672
 31
0.0
  0
LINE
  5
A2
100
AcDbEntity
  8
レイヤー_1
  6
CONTINUOUS
 62
       7
100
AcDbLine
 10
-81.74432917
 20
-13.2216672
 30
0.0
 11
-81.9217934
 21
-13.20320566
 31
0.0
  0
LINE
  5
A3
100
AcDbEntity
  8
レイヤー_1
  6
CONTINUOUS
 62
       7
100
AcDbLine
 10
-81.9217934
 20
-13.20320566
 30
0.0
 11
-82.09347003
 21
-13.17075732
 31
0.0
  0
LINE
  5
A4
100
AcDbEntity
  8
レイヤー_1
  6
CONTINUOUS
 62
       7
100
AcDbLine
 10
-82.09347003
 20
-13.17075732
 30
0.0
 11
-82.25849539
 21
-13.12503897
 31
0.0
  0
LINE
  5
A5
100
AcDbEntity
  8
レイヤー_1
  6
CONTINUOUS
 62
       7
100
AcDbLine
 10
-82.25849539
 20
-13.12503897
 30
0.0
 11
-82.4160058
 21
-13.0667673
 31
0.0
  0
LINE
  5
A6
100
AcDbEntity
  8
レイヤー_1
  6
CONTINUOUS
 62
       7
100
AcDbLine
 10
-82.4160058
 20
-13.0667673
 30
0.0
 11
-82.56513757
 21
-12.9966591
 31
0.0
  0
LINE
  5
A7
100
AcDbEntity
  8
レイヤー_1
  6
CONTINUOUS
 62
       7
100
AcDbLine
 10
-82.56513757
 20
-12.9966591
 30
0.0
 11
-82.70502705
 21
-12.91543109
 31
0.0
  0
LINE
  5
A8
100
AcDbEntity
  8
レイヤー_1
  6
CONTINUOUS
 62
       7
100
AcDbLine
 10
-82.70502705
 20
-12.91543109
 30
0.0
 11
-82.83481051
 21
-12.82380002
 31
0.0
  0
LINE
  5
A9
100
AcDbEntity
  8
レイヤー_1
  6
CONTINUOUS
 62
       7
100
AcDbLine
 10
-82.83481051
 20
-12.82380002
 30
0.0
 11
-82.95362433
 21
-12.72248264
 31
0.0
  0
LINE
  5
AA
100
AcDbEntity
  8
レイヤー_1
  6
CONTINUOUS
 62
       7
100
AcDbLine
 10
-82.95362433
 20
-12.72248264
 30
0.0
 11
-83.06060478
 21
-12.61219571
 31
0.0
  0
LINE
  5
AB
100
AcDbEntity
  8
レイヤー_1
  6
CONTINUOUS
 62
       7
100
AcDbLine
 10
-83.06060478
 20
-12.61219571
 30
0.0
 11
-83.15488821
 21
-12.49365596
 31
0.0
  0
LINE
  5
AC
100
AcDbEntity
  8
レイヤー_1
  6
CONTINUOUS
 62
       7
100
AcDbLine
 10
-83.15488821
 20
-12.49365596
 30
0.0
 11
-83.23561093
 21
-12.36758012
 31
0.0
  0
LINE
  5
AD
100
AcDbEntity
  8
レイヤー_1
  6
CONTINUOUS
 62
       7
100
AcDbLine
 10
-83.23561093
 20
-12.36758012
 30
0.0
 11
-83.30190928
 21
-12.23468497
 31
0.0
  0
LINE
  5
AE
100
AcDbEntity
  8
レイヤー_1
  6
CONTINUOUS
 62
       7
100
AcDbLine
 10
-83.30190928
 20
-12.23468497
 30
0.0
 11
-83.35291955
 21
-12.09568724
 31
0.0
  0
LINE
  5
AF
100
AcDbEntity
  8
レイヤー_1
  6
CONTINUOUS
 62
       7
100
AcDbLine
 10
-83.35291955
 20
-12.09568724
 30
0.0
 11
-83.38777809
 21
-11.95130366
 31
0.0
  0
LINE
  5
B0
100
AcDbEntity
  8
レイヤー_1
  6
CONTINUOUS
 62
       7
100
AcDbLine
 10
-83.38777809
 20
-11.95130366
 30
0.0
 11
-83.4056212
 21
-11.80225101
 31
0.0
  0
LINE
  5
B1
100
AcDbEntity
  8
レイヤー_1
  6
CONTINUOUS
 62
       7
100
AcDbLine
 10
-83.4056212
 20
-11.80225101
 30
0.0
 11
-83.4056212
 21
-11.65020698
 31
0.0
  0
LINE
  5
B2
100
AcDbEntity
  8
レイヤー_1
  6
CONTINUOUS
 62
       7
100
AcDbLine
 10
-83.4056212
 20
-11.65020698
 30
0.0
 11
-83.38777809
 21
-11.50125013
 31
0.0
  0
LINE
  5
B3
100
AcDbEntity
  8
レイヤー_1
  6
CONTINUOUS
 62
       7
100
AcDbLine
 10
-83.38777809
 20
-11.50125013
 30
0.0
 11
-83.35291955
 21
-11.35692694
 31
0.0
  0
LINE
  5
B4
100
AcDbEntity
  8
レイヤー_1
  6
CONTINUOUS
 62
       7
100
AcDbLine
 10
-83.35291955
 20
-11.35692694
 30
0.0
 11
-83.30190928
 21
-11.2179582
 31
0.0
  0
LINE
  5
B5
100
AcDbEntity
  8
レイヤー_1
  6
CONTINUOUS
 62
       7
100
AcDbLine
 10
-83.30190928
 20
-11.2179582
 30
0.0
 11
-83.23561093
 21
-11.08506477
 31
0.0
  0
LINE
  5
B6
100
AcDbEntity
  8
レイヤー_1
  6
CONTINUOUS
 62
       7
100
AcDbLine
 10
-83.23561093
 20
-11.08506477
 30
0.0
 11
-83.15488821
 21
-10.95896753
 31
0.0
  0
LINE
  5
B7
100
AcDbEntity
  8
レイヤー_1
  6
CONTINUOUS
 62
       7
100
AcDbLine
 10
-83.15488821
 20
-10.95896753
 30
0.0
 11
-83.06060478
 21
-10.84038727
 31
0.0
  0
LINE
  5
B8
100
AcDbEntity
  8
レイヤー_1
  6
CONTINUOUS
 62
       7
100
AcDbLine
 10
-83.06060478
 20
-10.84038727
 30
0.0
 11
-82.95362433
 21
-10.73004485
 31
0.0
  0
LINE
  5
B9
100
AcDbEntity
  8
レイヤー_1
  6
CONTINUOUS
 62
       7
100
AcDbLine
 10
-82.95362433
 20
-10.73004485
 30
0.0
 11
-82.83481051
 21
-10.62866113
 31
0.0
  0
LINE
  5
BA
100
AcDbEntity
  8
レイヤー_1
  6
CONTINUOUS
 62
       7
100
AcDbLine
 10
-82.83481051
 20
-10.62866113
 30
0.0
 11
-82.70502705
 21
-10.53695692
 31
0.0
  0
LINE
  5
BB
100
AcDbEntity
  8
レイヤー_1
  6
CONTINUOUS
 62
       7
100
AcDbLine
 10
-82.70502705
 20
-10.53695692
 30
0.0
 11
-82.56513757
 21
-10.45565309
 31
0.0
  0
LINE
  5
BC
100
AcDbEntity
  8
レイヤー_1
  6
CONTINUOUS
 62
       7
100
AcDbLine
 10
-82.56513757
 20
-10.45565309
 30
0.0
 11
-82.4160058
 21
-10.38547046
 31
0.0
  0
LINE
  5
BD
100
AcDbEntity
  8
レイヤー_1
  6
CONTINUOUS
 62
       7
100
AcDbLine
 10
-82.4160058
 20
-10.38547046
 30
0.0
 11
-82.25849539
 21
-10.3271299
 31
0.0
  0
LINE
  5
BE
100
AcDbEntity
  8
レイヤー_1
  6
CONTINUOUS
 62
       7
100
AcDbLine
 10
-82.25849539
 20
-10.3271299
 30
0.0
 11
-82.09347003
 21
-10.28135222
 31
0.0
  0
LINE
  5
BF
100
AcDbEntity
  8
レイヤー_1
  6
CONTINUOUS
 62
       7
100
AcDbLine
 10
-82.09347003
 20
-10.28135222
 30
0.0
 11
-81.9217934
 21
-10.24885827
 31
0.0
  0
LINE
  5
C0
100
AcDbEntity
  8
レイヤー_1
  6
CONTINUOUS
 62
       7
100
AcDbLine
 10
-81.9217934
 20
-10.24885827
 30
0.0
 11
-81.74432917
 21
-10.2303689
 31
0.0
  0
LINE
  5
C1
100
AcDbEntity
  8
レイヤー_1
  6
CONTINUOUS
 62
       7
100
AcDbLine
 10
-81.74432917
 20
-10.2303689
 30
0.0
 11
-81.56220828
 21
-10.22660121
 31
0.0
  0
LINE
  5
C2
100
AcDbEntity
  8
レイヤー_1
  6
CONTINUOUS
 62
       7
100
AcDbLine
 10
-81.56220828
 20
-10.22660121
 30
0.0
 11
-81.38217413
 21
-10.23781797
 31
0.0
  0
LINE
  5
C3
100
AcDbEntity
  8
レイヤー_1
  6
CONTINUOUS
 62
       7
100
AcDbLine
 10
-81.38217413
 20
-10.23781797
 30
0.0
 11
-81.20749574
 21
-10.26339972
 31
0.0
  0
LINE
  5
C4
100
AcDbEntity
  8
レイヤー_1
  6
CONTINUOUS
 62
       7
100
AcDbLine
 10
-81.20749574
 20
-10.26339972
 30
0.0
 11
-81.03903677
 21
-10.30262564
 31
0.0
  0
LINE
  5
C5
100
AcDbEntity
  8
レイヤー_1
  6
CONTINUOUS
 62
       7
100
AcDbLine
 10
-81.03903677
 20
-10.30262564
 30
0.0
 11
-80.87766092
 21
-10.35477487
 31
0.0
  0
LINE
  5
C6
100
AcDbEntity
  8
レイヤー_1
  6
CONTINUOUS
 62
       7
100
AcDbLine
 10
-80.87766092
 20
-10.35477487
 30
0.0
 11
-80.72423188
 21
-10.41912659
 31
0.0
  0
LINE
  5
C7
100
AcDbEntity
  8
レイヤー_1
  6
CONTINUOUS
 62
       7
100
AcDbLine
 10
-80.72423188
 20
-10.41912659
 30
0.0
 11
-80.5796133
 21
-10.49495991
 31
0.0
  0
LINE
  5
C8
100
AcDbEntity
  8
レイヤー_1
  6
CONTINUOUS
 62
       7
100
AcDbLine
 10
-80.5796133
 20
-10.49495991
 30
0.0
 11
-80.44466887
 21
-10.58155404
 31
0.0
  0
LINE
  5
C9
100
AcDbEntity
  8
レイヤー_1
  6
CONTINUOUS
 62
       7
100
AcDbLine
 10
-80.44466887
 20
-10.58155404
 30
0.0
 11
-80.32026226
 21
-10.6781881
 31
0.0
  0
LINE
  5
CA
100
AcDbEntity
  8
レイヤー_1
  6
CONTINUOUS
 62
       7
100
AcDbLine
 10
-80.32026226
 20
-10.6781881
 30
0.0
 11
-80.20725718
 21
-10.78414128
 31
0.0
  0
LINE
  5
CB
100
AcDbEntity
  8
レイヤー_1
  6
CONTINUOUS
 62
       7
100
AcDbLine
 10
-80.20725718
 20
-10.78414128
 30
0.0
 11
-80.10651727
 21
-10.89869272
 31
0.0
  0
LINE
  5
CC
100
AcDbEntity
  8
レイヤー_1
  6
CONTINUOUS
 62
       7
100
AcDbLine
 10
-80.10651727
 20
-10.89869272
 30
0.0
 11
-80.01890624
 21
-11.02112157
 31
0.0
  0
LINE
  5
CD
100
AcDbEntity
  8
レイヤー_1
  6
CONTINUOUS
 62
       7
100
AcDbLine
 10
-80.01890624
 20
-11.02112157
 30
0.0
 11
-79.94528774
 21
-11.15070702
 31
0.0
  0
LINE
  5
CE
100
AcDbEntity
  8
レイヤー_1
  6
CONTINUOUS
 62
       7
100
AcDbLine
 10
-79.94528774
 20
-11.15070702
 30
0.0
 11
-79.88652548
 21
-11.2867282
 31
0.0
  0
LINE
  5
CF
100
AcDbEntity
  8
レイヤー_1
  6
CONTINUOUS
 62
       7
100
AcDbLine
 10
-79.88652548
 20
-11.2867282
 30
0.0
 11
-79.84348311
 21
-11.42846428
 31
0.0
  0
LINE
  5
D0
100
AcDbEntity
  8
レイヤー_1
  6
CONTINUOUS
 62
       7
100
AcDbLine
 10
-79.84348311
 20
-11.42846428
 30
0.0
 11
-79.81702433
 21
-11.57519442
 31
0.0
  0
LINE
  5
D1
100
AcDbEntity
  8
レイヤー_1
  6
CONTINUOUS
 62
       7
100
AcDbLine
 10
-79.81702433
 20
-11.57519442
 30
0.0
 11
-79.8080128
 21
-11.72619776
 31
0.0
  0
LINE
  5
D2
100
AcDbEntity
  8
レイヤー_1
  6
CONTINUOUS
 62
       7
100
AcDbLine
 10
-72.86162249
 20
-18.3516177
 30
0.0
 11
-72.86162249
 21
29.6483823
 31
0.0
  0
LINE
  5
D3
100
AcDbEntity
  8
レイヤー_1
  6
CONTINUOUS
 62
       7
100
AcDbLine
 10
-63.34740269
 20
18.67469484
 30
0.0
 11
-72.8468807
 21
18.67469484
 31
0.0
  0
LINE
  5
D4
100
AcDbEntity
  8
レイヤー_1
  6
CONTINUOUS
 62
       7
100
AcDbLine
 10
-72.8468807
 20
28.17417285
 30
0.0
 11
-63.34740269
 21
28.17417285
 31
0.0
  0
LINE
  5
D5
100
AcDbEntity
  8
レイヤー_1
  6
CONTINUOUS
 62
       7
100
AcDbLine
 10
-63.34740269
 20
28.17417285
 30
0.0
 11
-63.34740269
 21
18.67469484
 31
0.0
  0
LINE
  5
D6
100
AcDbEntity
  8
レイヤー_1
  6
CONTINUOUS
 62
       7
100
AcDbLine
 10
-63.34740269
 20
20.67381413
 30
0.0
 11
-72.8468807
 21
20.67381413
 31
0.0
  0
LINE
  5
D7
100
AcDbEntity
  8
レイヤー_1
  6
CONTINUOUS
 62
       7
100
AcDbLine
 10
-72.8468807
 20
25.15279329
 30
0.0
 11
-63.34740269
 21
25.15279329
 31
0.0
  0
LINE
  5
D8
100
AcDbEntity
  8
レイヤー_1
  6
CONTINUOUS
 62
       7
100
AcDbLine
 10
-72.8468807
 20
27.17388094
 30
0.0
 11
-63.34740269
 21
27.17388094
 31
0.0
  0
LINE
  5
D9
100
AcDbEntity
  8
レイヤー_1
  6
CONTINUOUS
 62
       7
100
AcDbLine
 10
-71.04803948
 20
18.71643471
 30
0.0
 11
-71.04803948
 21
19.78373006
 31
0.0
  0
LINE
  5
DA
100
AcDbEntity
  8
レイヤー_1
  6
CONTINUOUS
 62
       7
100
AcDbLine
 10
-71.04803948
 20
19.78373006
 30
0.0
 11
-69.00461735
 21
19.78373006
 31
0.0
  0
LINE
  5
DB
100
AcDbEntity
  8
レイヤー_1
  6
CONTINUOUS
 62
       7
100
AcDbLine
 10
-69.00461735
 20
19.78373006
 30
0.0
 11
-69.00461735
 21
18.71643471
 31
0.0
  0
LINE
  5
DC
100
AcDbEntity
  8
レイヤー_1
  6
CONTINUOUS
 62
       7
100
AcDbLine
 10
-67.25154353
 20
18.71643471
 30
0.0
 11
-67.25154353
 21
19.78373006
 31
0.0
  0
LINE
  5
DD
100
AcDbEntity
  8
レイヤー_1
  6
CONTINUOUS
 62
       7
100
AcDbLine
 10
-67.25154353
 20
19.78373006
 30
0.0
 11
-65.20885369
 21
19.78373006
 31
0.0
  0
LINE
  5
DE
100
AcDbEntity
  8
レイヤー_1
  6
CONTINUOUS
 62
       7
100
AcDbLine
 10
-65.20885369
 20
19.78373006
 30
0.0
 11
-65.20885369
 21
18.71643471
 31
0.0
  0
LINE
  5
DF
100
AcDbEntity
  8
レイヤー_1
  6
CONTINUOUS
 62
       7
100
AcDbLine
 10
56.45183442
 20
18.67432871
 30
0.0
 11
50.31461144
 21
18.67432871
 31
0.0
  0
LINE
  5
E0
100
AcDbEntity
  8
レイヤー_1
  6
CONTINUOUS
 62
       7
100
AcDbLine
 10
50.31461144
 20
18.67432871
 30
0.0
 11
50.27506841
 21
20.67381413
 31
0.0
  0
LINE
  5
E1
100
AcDbEntity
  8
レイヤー_1
  6
CONTINUOUS
 62
       7
100
AcDbLine
 10
50.27506841
 20
20.67381413
 30
0.0
 11
42.48796841
 21
20.67381413
 31
0.0
  0
LINE
  5
E2
100
AcDbEntity
  8
レイヤー_1
  6
CONTINUOUS
 62
       7
100
AcDbLine
 10
42.48796841
 20
24.59460826
 30
0.0
 11
49.76100918
 21
28.17380672
 31
0.0
  0
LINE
  5
E3
100
AcDbEntity
  8
レイヤー_1
  6
CONTINUOUS
 62
       7
100
AcDbLine
 10
49.76100918
 20
28.17380672
 30
0.0
 11
56.45183442
 21
28.17380672
 31
0.0
  0
LINE
  5
E4
100
AcDbEntity
  8
レイヤー_1
  6
CONTINUOUS
 62
       7
100
AcDbLine
 10
93.72112971
 20
-12.96814145
 30
0.0
 11
93.72112971
 21
-11.3677476
 31
0.0
  0
LINE
  5
E5
100
AcDbEntity
  8
レイヤー_1
  6
CONTINUOUS
 62
       7
100
AcDbLine
 10
93.72112971
 20
-11.3677476
 30
0.0
 11
94.11509535
 21
-11.3677476
 31
0.0
  0
LINE
  5
E6
100
AcDbEntity
  8
レイヤー_1
  6
CONTINUOUS
 62
       7
100
AcDbLine
 10
94.11509535
 20
-11.3677476
 30
0.0
 11
95.72098129
 21
-12.96814145
 31
0.0
  0
LINE
  5
E7
100
AcDbEntity
  8
レイヤー_1
  6
CONTINUOUS
 62
       7
100
AcDbLine
 10
93.72112971
 20
24.26966588
 30
0.0
 11
93.72112971
 21
22.66963818
 31
0.0
  0
LINE
  5
E8
100
AcDbEntity
  8
レイヤー_1
  6
CONTINUOUS
 62
       7
100
AcDbLine
 10
93.72112971
 20
22.66963818
 30
0.0
 11
94.11509535
 21
22.66963818
 31
0.0
  0
LINE
  5
E9
100
AcDbEntity
  8
レイヤー_1
  6
CONTINUOUS
 62
       7
100
AcDbLine
 10
94.11509535
 20
22.66963818
 30
0.0
 11
95.72098129
 21
24.26966588
 31
0.0
  0
LINE
  5
EA
100
AcDbEntity
  8
レイヤー_1
  6
CONTINUOUS
 62
       7
100
AcDbLine
 10
-51.9502259
 20
51.3105003
 30
0.0
 11
-57.74950253
 21
51.3105003
 31
0.0
  0
LINE
  5
EB
100
AcDbEntity
  8
レイヤー_1
  6
CONTINUOUS
 62
       7
100
AcDbLine
 10
-57.74950253
 20
51.3105003
 30
0.0
 11
-57.74950253
 21
43.81050771
 31
0.0
  0
LINE
  5
EC
100
AcDbEntity
  8
レイヤー_1
  6
CONTINUOUS
 62
       7
100
AcDbLine
 10
-57.74950253
 20
43.81050771
 30
0.0
 11
-51.9502259
 21
43.81050771
 31
0.0
  0
LINE
  5
ED
100
AcDbEntity
  8
レイヤー_1
  6
CONTINUOUS
 62
       7
100
AcDbLine
 10
-51.9502259
 20
43.81050771
 30
0.0
 11
-51.9502259
 21
51.3105003
 31
0.0
  0
LINE
  5
EE
100
AcDbEntity
  8
レイヤー_1
  6
CONTINUOUS
 62
       7
100
AcDbLine
 10
-60.44977813
 20
51.3105003
 30
0.0
 11
-66.24942091
 21
51.3105003
 31
0.0
  0
LINE
  5
EF
100
AcDbEntity
  8
レイヤー_1
  6
CONTINUOUS
 62
       7
100
AcDbLine
 10
-66.24942091
 20
51.3105003
 30
0.0
 11
-66.24942091
 21
43.81050771
 31
0.0
  0
LINE
  5
F0
100
AcDbEntity
  8
レイヤー_1
  6
CONTINUOUS
 62
       7
100
AcDbLine
 10
-66.24942091
 20
43.81050771
 30
0.0
 11
-60.44977813
 21
43.81050771
 31
0.0
  0
LINE
  5
F1
100
AcDbEntity
  8
レイヤー_1
  6
CONTINUOUS
 62
       7
100
AcDbLine
 10
-60.44977813
 20
43.81050771
 30
0.0
 11
-60.44977813
 21
51.3105003
 31
0.0
  0
LINE
  5
F2
100
AcDbEntity
  8
レイヤー_1
  6
CONTINUOUS
 62
       7
100
AcDbLine
 10
-68.9496965
 20
51.3105003
 30
0.0
 11
-74.75007154
 21
51.3105003
 31
0.0
  0
LINE
  5
F3
100
AcDbEntity
  8
レイヤー_1
  6
CONTINUOUS
 62
       7
100
AcDbLine
 10
-74.75007154
 20
51.3105003
 30
0.0
 11
-74.75007154
 21
43.81050771
 31
0.0
  0
LINE
  5
F4
100
AcDbEntity
  8
レイヤー_1
  6
CONTINUOUS
 62
       7
100
AcDbLine
 10
-74.75007154
 20
43.81050771
 30
0.0
 11
-68.9496965
 21
43.81050771
 31
0.0
  0
LINE
  5
F5
100
AcDbEntity
  8
レイヤー_1
  6
CONTINUOUS
 62
       7
100
AcDbLine
 10
-68.9496965
 20
43.81050771
 30
0.0
 11
-68.9496965
 21
51.3105003
 31
0.0
  0
LINE
  5
F6
100
AcDbEntity
  8
レイヤー_1
  6
CONTINUOUS
 62
       7
100
AcDbLine
 10
-77.44924873
 20
51.3105003
 30
0.0
 11
-83.24998992
 21
51.3105003
 31
0.0
  0
LINE
  5
F7
100
AcDbEntity
  8
レイヤー_1
  6
CONTINUOUS
 62
       7
100
AcDbLine
 10
-83.24998992
 20
51.3105003
 30
0.0
 11
-83.24998992
 21
43.81050771
 31
0.0
  0
LINE
  5
F8
100
AcDbEntity
  8
レイヤー_1
  6
CONTINUOUS
 62
       7
100
AcDbLine
 10
-83.24998992
 20
43.81050771
 30
0.0
 11
-77.44924873
 21
43.81050771
 31
0.0
  0
LINE
  5
F9
100
AcDbEntity
  8
レイヤー_1
  6
CONTINUOUS
 62
       7
100
AcDbLine
 10
-77.44924873
 20
43.81050771
 30
0.0
 11
-77.44924873
 21
51.3105003
 31
0.0
  0
LINE
  5
FA
100
AcDbEntity
  8
レイヤー_1
  6
CONTINUOUS
 62
       7
100
AcDbLine
 10
-85.95026552
 20
51.3105003
 30
0.0
 11
-91.74954215
 21
51.3105003
 31
0.0
  0
LINE
  5
FB
100
AcDbEntity
  8
レイヤー_1
  6
CONTINUOUS
 62
       7
100
AcDbLine
 10
-91.74954215
 20
51.3105003
 30
0.0
 11
-91.74954215
 21
43.81050771
 31
0.0
  0
LINE
  5
FC
100
AcDbEntity
  8
レイヤー_1
  6
CONTINUOUS
 62
       7
100
AcDbLine
 10
-91.74954215
 20
43.81050771
 30
0.0
 11
-85.95026552
 21
43.81050771
 31
0.0
  0
LINE
  5
FD
100
AcDbEntity
  8
レイヤー_1
  6
CONTINUOUS
 62
       7
100
AcDbLine
 10
-85.95026552
 20
43.81050771
 30
0.0
 11
-85.95026552
 21
51.3105003
 31
0.0
  0
LINE
  5
FE
100
AcDbEntity
  8
レイヤー_1
  6
CONTINUOUS
 62
       7
100
AcDbLine
 10
-51.21208956
 20
-22.88721483
 30
0.0
 11
-53.51144287
 21
-24.88743253
 31
0.0
  0
LINE
  5
FF
100
AcDbEntity
  8
レイヤー_1
  6
CONTINUOUS
 62
       7
100
AcDbLine
 10
-53.51144287
 20
-24.88743253
 30
0.0
 11
-92.41152157
 21
-24.88743253
 31
0.0
  0
LINE
  5
100
100
AcDbEntity
  8
レイヤー_1
  6
CONTINUOUS
 62
       7
100
AcDbLine
 10
-92.41152157
 20
-24.88743253
 30
0.0
 11
-92.41152157
 21
36.11280004
 31
0.0
  0
LINE
  5
101
100
AcDbEntity
  8
レイヤー_1
  6
CONTINUOUS
 62
       7
100
AcDbLine
 10
-92.41152157
 20
36.11280004
 30
0.0
 11
-51.21208956
 21
36.11280004
 31
0.0
  0
LINE
  5
102
100
AcDbEntity
  8
レイヤー_1
  6
CONTINUOUS
 62
       7
100
AcDbLine
 10
-51.21208956
 20
36.11280004
 30
0.0
 11
-51.21208956
 21
-22.88721483
 31
0.0
  0
LINE
  5
103
100
AcDbEntity
  8
レイヤー_1
  6
CONTINUOUS
 62
       7
100
AcDbLine
 10
-49.31182781
 20
-26.88691798
 30
0.0
 11
-94.31178332
 21
-26.88691798
 31
0.0
  0
LINE
  5
104
100
AcDbEntity
  8
レイヤー_1
  6
CONTINUOUS
 62
       7
100
AcDbLine
 10
-49.31182781
 20
38.11265159
 30
0.0
 11
-94.31178332
 21
38.11265159
 31
0.0
  0
LINE
  5
105
100
AcDbEntity
  8
レイヤー_1
  6
CONTINUOUS
 62
       7
100
AcDbLine
 10
-92.54992213
 20
52.64873858
 30
0.0
 11
-92.54992213
 21
42.64911461
 31
0.0
  0
LINE
  5
106
100
AcDbEntity
  8
レイヤー_1
  6
CONTINUOUS
 62
       7
100
AcDbLine
 10
-92.54992213
 20
42.64911461
 30
0.0
 11
-85.14988552
 21
42.64911461
 31
0.0
  0
LINE
  5
107
100
AcDbEntity
  8
レイヤー_1
  6
CONTINUOUS
 62
       7
100
AcDbLine
 10
-85.14988552
 20
42.64911461
 30
0.0
 11
-85.14988552
 21
52.64873858
 31
0.0
  0
LINE
  5
108
100
AcDbEntity
  8
レイヤー_1
  6
CONTINUOUS
 62
       7
100
AcDbLine
 10
-84.05000377
 20
52.64873858
 30
0.0
 11
-84.05000377
 21
42.64911461
 31
0.0
  0
LINE
  5
109
100
AcDbEntity
  8
レイヤー_1
  6
CONTINUOUS
 62
       7
100
AcDbLine
 10
-84.05000377
 20
42.64911461
 30
0.0
 11
-76.64923488
 21
42.64911461
 31
0.0
  0
LINE
  5
10A
100
AcDbEntity
  8
レイヤー_1
  6
CONTINUOUS
 62
       7
100
AcDbLine
 10
-76.64923488
 20
42.64911461
 30
0.0
 11
-76.64923488
 21
52.64873858
 31
0.0
  0
LINE
  5
10B
100
AcDbEntity
  8
レイヤー_1
  6
CONTINUOUS
 62
       7
100
AcDbLine
 10
-75.54935312
 20
52.64873858
 30
0.0
 11
-75.54935312
 21
42.64911461
 31
0.0
  0
LINE
  5
10C
100
AcDbEntity
  8
レイヤー_1
  6
CONTINUOUS
 62
       7
100
AcDbLine
 10
-75.54935312
 20
42.64911461
 30
0.0
 11
-68.14968265
 21
42.64911461
 31
0.0
  0
LINE
  5
10D
100
AcDbEntity
  8
レイヤー_1
  6
CONTINUOUS
 62
       7
100
AcDbLine
 10
-68.14968265
 20
42.64911461
 30
0.0
 11
-68.14968265
 21
52.64873858
 31
0.0
  0
LINE
  5
10E
100
AcDbEntity
  8
レイヤー_1
  6
CONTINUOUS
 62
       7
100
AcDbLine
 10
-67.04980089
 20
52.64873858
 30
0.0
 11
-67.04980089
 21
42.64911461
 31
0.0
  0
LINE
  5
10F
100
AcDbEntity
  8
レイヤー_1
  6
CONTINUOUS
 62
       7
100
AcDbLine
 10
-67.04980089
 20
42.64911461
 30
0.0
 11
-59.64976428
 21
42.64911461
 31
0.0
  0
LINE
  5
110
100
AcDbEntity
  8
レイヤー_1
  6
CONTINUOUS
 62
       7
100
AcDbLine
 10
-59.64976428
 20
42.64911461
 30
0.0
 11
-59.64976428
 21
52.64873858
 31
0.0
  0
LINE
  5
111
100
AcDbEntity
  8
レイヤー_1
  6
CONTINUOUS
 62
       7
100
AcDbLine
 10
-58.54988253
 20
52.64873858
 30
0.0
 11
-58.54988253
 21
42.64911461
 31
0.0
  0
LINE
  5
112
100
AcDbEntity
  8
レイヤー_1
  6
CONTINUOUS
 62
       7
100
AcDbLine
 10
-58.54988253
 20
42.64911461
 30
0.0
 11
-51.14984592
 21
42.64911461
 31
0.0
  0
LINE
  5
113
100
AcDbEntity
  8
レイヤー_1
  6
CONTINUOUS
 62
       7
100
AcDbLine
 10
-51.14984592
 20
42.64911461
 30
0.0
 11
-51.14984592
 21
52.64873858
 31
0.0
  0
LINE
  5
114
100
AcDbEntity
  8
レイヤー_1
  6
CONTINUOUS
 62
       7
100
AcDbLine
 10
-81.80374062
 20
-41.35124168
 30
0.0
 11
-81.80374062
 21
-44.3516177
 31
0.0
  0
LINE
  5
115
100
AcDbEntity
  8
レイヤー_1
  6
CONTINUOUS
 62
       7
100
AcDbLine
 10
-61.80302812
 20
-44.3516177
 30
0.0
 11
-61.80302812
 21
-41.35124168
 31
0.0
  0
LINE
  5
116
100
AcDbEntity
  8
レイヤー_1
  6
CONTINUOUS
 62
       7
100
AcDbLine
 10
93.08844141
 20
-41.35124168
 30
0.0
 11
93.08844141
 21
-44.3516177
 31
0.0
  0
LINE
  5
117
100
AcDbEntity
  8
レイヤー_1
  6
CONTINUOUS
 62
       7
100
AcDbLine
 10
97.48796841
 20
-44.3516177
 30
0.0
 11
97.48796841
 21
-12.93042914
 31
0.0
  0
LINE
  5
118
100
AcDbEntity
  8
レイヤー_1
  6
CONTINUOUS
 62
       7
100
AcDbLine
 10
-80.20334676
 20
-41.35124168
 30
0.0
 11
-80.20334676
 21
-41.99418189
 31
0.0
  0
LINE
  5
119
100
AcDbEntity
  8
レイヤー_1
  6
CONTINUOUS
 62
       7
100
AcDbLine
 10
-80.20334676
 20
-41.99418189
 30
0.0
 11
-63.40342197
 21
-41.99418189
 31
0.0
  0
LINE
  5
11A
100
AcDbEntity
  8
レイヤー_1
  6
CONTINUOUS
 62
       7
100
AcDbLine
 10
-63.40342197
 20
-41.99418189
 30
0.0
 11
-63.40342197
 21
-41.35124168
 31
0.0
  0
CIRCLE
  5
11B
100
AcDbEntity
  8
レイヤー_1
  6
CONTINUOUS
 62
       7
100
AcDbCircle
 10
-54.8079822
 20
-36.21369862
 30
0.0
 40
2.80072281
  0
CIRCLE
  5
11C
100
AcDbEntity
  8
レイヤー_1
  6
CONTINUOUS
 62
       7
100
AcDbCircle
 10
-63.30753443
 20
-36.21369862
 30
0.0
 40
2.80072281
  0
CIRCLE
  5
11D
100
AcDbEntity
  8
レイヤー_1
  6
CONTINUOUS
 62
       7
100
AcDbCircle
 10
-71.8074528
 20
-36.21369862
 30
0.0
 40
2.80072281
  0
CIRCLE
  5
11E
100
AcDbEntity
  8
レイヤー_1
  6
CONTINUOUS
 62
       7
100
AcDbCircle
 10
-80.30700503
 20
-36.21369862
 30
0.0
 40
2.80072281
  0
CIRCLE
  5
11F
100
AcDbEntity
  8
レイヤー_1
  6
CONTINUOUS
 62
       7
100
AcDbCircle
 10
-88.80802182
 20
-36.21369862
 30
0.0
 40
2.80072281
  0
LINE
  5
120
100
AcDbEntity
  8
レイヤー_1
  6
CONTINUOUS
 62
       7
100
AcDbLine
 10
-81.80374062
 20
-44.3516177
 30
0.0
 11
-61.80302812
 21
-44.3516177
 31
0.0
  0
LINE
  5
121
100
AcDbEntity
  8
レイヤー_1
  6
CONTINUOUS
 62
       7
100
AcDbLine
 10
93.08844141
 20
-44.3516177
 30
0.0
 11
97.48796841
 21
-44.3516177
 31
0.0
  0
LINE
  5
122
100
AcDbEntity
  8
レイヤー_1
  6
CONTINUOUS
 62
       7
100
AcDbLine
 10
69.68796841
 20
-41.3516177
 30
0.0
 11
97.48796841
 21
-41.3516177
 31
0.0
  0
LINE
  5
123
100
AcDbEntity
  8
レイヤー_1
  6
CONTINUOUS
 62
       7
100
AcDbLine
 10
69.68796841
 20
52.6483823
 30
0.0
 11
97.48796841
 21
52.6483823
 31
0.0
  0
LINE
  5
124
100
AcDbEntity
  8
レイヤー_1
  6
CONTINUOUS
 62
       7
100
AcDbLine
 10
69.68796841
 20
-41.3516177
 30
0.0
 11
69.68796841
 21
-26.8516177
 31
0.0
  0
LINE
  5
125
100
AcDbEntity
  8
レイヤー_1
  6
CONTINUOUS
 62
       7
100
AcDbLine
 10
56.48796841
 20
-26.8516177
 30
0.0
 11
69.68796841
 21
-26.8516177
 31
0.0
  0
LINE
  5
126
100
AcDbEntity
  8
レイヤー_1
  6
CONTINUOUS
 62
       7
100
AcDbLine
 10
56.48796841
 20
38.1483823
 30
0.0
 11
69.68796841
 21
38.1483823
 31
0.0
  0
LINE
  5
127
100
AcDbEntity
  8
レイヤー_1
  6
CONTINUOUS
 62
       7
100
AcDbLine
 10
69.68796841
 20
38.1483823
 30
0.0
 11
69.68796841
 21
52.6483823
 31
0.0
  0
LINE
  5
128
100
AcDbEntity
  8
レイヤー_1
  6
CONTINUOUS
 62
       7
100
AcDbLine
 10
56.48796841
 20
-26.8516177
 30
0.0
 11
56.48796841
 21
38.1483823
 31
0.0
  0
LINE
  5
129
100
AcDbEntity
  8
レイヤー_1
  6
CONTINUOUS
 62
       7
100
AcDbLine
 10
42.48796841
 20
20.67381413
 30
0.0
 11
42.48796841
 21
24.59460826
 31
0.0
  0
LINE
  5
12A
100
AcDbEntity
  8
レイヤー_1
  6
CONTINUOUS
 62
       7
100
AcDbLine
 10
8.48796841
 20
4.19763048
 30
0.0
 11
8.48796841
 21
7.49493045
 31
0.0
  0
LINE
  5
12B
100
AcDbEntity
  8
レイヤー_1
  6
CONTINUOUS
 62
       7
100
AcDbLine
 10
10.48796841
 20
-18.3516177
 30
0.0
 11
10.48796841
 21
29.6483823
 31
0.0
  0
LINE
  5
12C
100
AcDbEntity
  8
レイヤー_1
  6
CONTINUOUS
 62
       7
100
AcDbLine
 10
10.48796841
 20
-18.3516177
 30
0.0
 11
56.48796841
 21
-18.3516177
 31
0.0
  0
LINE
  5
12D
100
AcDbEntity
  8
レイヤー_1
  6
CONTINUOUS
 62
       7
100
AcDbLine
 10
10.48796841
 20
29.6483823
 30
0.0
 11
56.48796841
 21
29.6483823
 31
0.0
  0
LINE
  5
12E
100
AcDbEntity
  8
レイヤー_1
  6
CONTINUOUS
 62
       7
100
AcDbLine
 10
-72.86162249
 20
29.6483823
 30
0.0
 11
-90.36162249
 21
29.6483823
 31
0.0
  0
LINE
  5
12F
100
AcDbEntity
  8
レイヤー_1
  6
CONTINUOUS
 62
       7
100
AcDbLine
 10
-72.86162249
 20
-18.3516177
 30
0.0
 11
-90.36162249
 21
-18.3516177
 31
0.0
  0
LINE
  5
130
100
AcDbEntity
  8
レイヤー_1
  6
CONTINUOUS
 62
       7
100
AcDbLine
 10
97.48796841
 20
24.26929973
 30
0.0
 11
97.48796841
 21
52.6483823
 31
0.0
  0
CIRCLE
  5
131
100
AcDbEntity
  8
レイヤー_1
  6
CONTINUOUS
 62
       7
100
AcDbCircle
 10
-88.80802182
 20
47.51046322
 30
0.0
 40
2.80072281
  0
CIRCLE
  5
132
100
AcDbEntity
  8
レイヤー_1
  6
CONTINUOUS
 62
       7
100
AcDbCircle
 10
-76.60965155
 20
5.6483823
 30
0.0
 40
2.64930145
  0
CIRCLE
  5
133
100
AcDbEntity
  8
レイヤー_1
  6
CONTINUOUS
 62
       7
100
AcDbCircle
 10
-57.28963378
 20
27.07996844
 30
0.0
 40
1.50026167
  0
CIRCLE
  5
134
100
AcDbEntity
  8
レイヤー_1
  6
CONTINUOUS
 62
       7
100
AcDbCircle
 10
-66.17618949
 20
23.14173712
 30
0.0
 40
1.35056778
  0
CIRCLE
  5
135
100
AcDbEntity
  8
レイヤー_1
  6
CONTINUOUS
 62
       7
100
AcDbCircle
 10
-70.04981757
 20
23.14188722
 30
0.0
 40
1.35066196
  0
ARC
  5
136
100
AcDbEntity
  8
レイヤー_1
  6
CONTINUOUS
 62
       7
100
AcDbCircle
 10
-76.60508711
 20
5.6480241
 30
0.0
 40
3.49929239
100
AcDbArc
 50
89.04749709
 51
271.49034321
  0
ARC
  5
137
100
AcDbEntity
  8
レイヤー_1
  6
CONTINUOUS
 62
       7
100
AcDbCircle
 10
9.48796841
 20
7.49493045
 30
0.0
 40
1.0
100
AcDbArc
 50
90.0
 51
180.0
  0
ARC
  5
138
100
AcDbEntity
  8
レイヤー_1
  6
CONTINUOUS
 62
       7
100
AcDbCircle
 10
9.48796841
 20
4.19763048
 30
0.0
 40
1.0
100
AcDbArc
 50
180.0
 51
270.0
  0
LINE
  5
139
100
AcDbEntity
  8
レイヤー_1
  6
CONTINUOUS
 62
       7
100
AcDbLine
 10
-90.36162249
 20
-18.3516177
 30
0.0
 11
-90.36162249
 21
29.6483823
 31
0.0
  0
CIRCLE
  5
13A
100
AcDbEntity
  8
SLD-0_0
  6
CONTINUOUS
 62
       7
100
AcDbCircle
 10
-80.30700503
 20
47.51046322
 30
0.0
 40
2.80072281
  0
CIRCLE
  5
13B
100
AcDbEntity
  8
SLD-0_0
  6
CONTINUOUS
 62
       7
100
AcDbCircle
 10
-71.8074528
 20
47.51046322
 30
0.0
 40
2.80072281
  0
CIRCLE
  5
13C
100
AcDbEntity
  8
SLD-0_0
  6
CONTINUOUS
 62
       7
100
AcDbCircle
 10
-63.30753443
 20
47.51046322
 30
0.0
 40
2.80072281
  0
CIRCLE
  5
13D
100
AcDbEntity
  8
SLD-0_0
  6
CONTINUOUS
 62
       7
100
AcDbCircle
 10
-54.8079822
 20
47.51046322
 30
0.0
 40
2.80072281
  0
TEXT
  5
13E
100
AcDbEntity
  8
レイヤー_1
 62
       7
100
AcDbText
 10
85.15087879
 20
-62.92223517
 30
0.0
 40
3.70416667
  1
000
 72
       5
 11
96.2633788
 21
-62.92223517
 31
0.0
100
AcDbText
  0
ENDSEC
  0
SECTION
  2
OBJECTS
  0
DICTIONARY
  5
19
100
AcDbDictionary
  3
ACAD_GROUP
350
1A
  3
ACAD_MLINESTYLE
350
1B
  0
DICTIONARY
  5
1A
102
{ACAD_REACTORS
330
19
102
}
100
AcDbDictionary
  0
DICTIONARY
  5
1B
102
{ACAD_REACTORS
330
19
102
}
100
AcDbDictionary
  3
STANDARD
350
1C
  0
MLINESTYLE
  5
1C
102
{ACAD_REACTORS
330
1B
102
}
100
AcDbMlineStyle
  2
STANDARD
 70
       0
  3

 62
       0
 51
90.0
 52
90.0
 71
       2
 49
0.5
 62
     256
  6
BYLAYER
 49
-0.5
 62
     256
  6
BYLAYER
  0
ENDSEC
  0
EOF
