  0
SECTION
  2
HEADER
  9
$ACADVER
  1
AC1014
  9
$ACADMAINTVER
 70
       0
  9
$DWGCODEPAGE
  3
ANSI_932
  9
$INSBASE
 10
0.0
 20
0.0
 30
0.0
  9
$EXTMIN
 10
-125.10315843
 20
-76.95356404
 30
0.0
  9
$EXTMAX
 10
125.10315843
 20
52.84098943
 30
0.0
  9
$LIMMIN
 10
-132.92210584
 20
-81.00964383
  9
$LIMMAX
 10
132.92210584
 20
56.89706922
  9
$ORTHOMODE
 70
       0
  9
$REGENMODE
 70
       1
  9
$FILLMODE
 70
       1
  9
$QTEXTMODE
 70
       0
  9
$MIRRTEXT
 70
       1
  9
$DRAGMODE
 70
       2
  9
$LTSCALE
 40
1.0
  9
$OSMODE
 70
       0
  9
$ATTMODE
 70
       1
  9
$TEXTSIZE
 40
0.2
  9
$TRACEWID
 40
0.05
  9
$TEXTSTYLE
  7
STANDARD
  9
$CLAYER
  8
0
  9
$CELTYPE
  6
CONTINUOUS
  9
$CECOLOR
 62
     256
  9
$CELTSCALE
 40
1.0
  9
$DELOBJ
 70
       1
  9
$DISPSILH
 70
       0
  9
$DIMSCALE
 40
1.0
  9
$DIMASZ
 40
0.18
  9
$DIMEXO
 40
0.0625
  9
$DIMDLI
 40
0.38
  9
$DIMRND
 40
0.0
  9
$DIMDLE
 40
0.0
  9
$DIMEXE
 40
0.18
  9
$DIMTP
 40
0.0
  9
$DIMTM
 40
0.0
  9
$DIMTXT
 40
0.18
  9
$DIMCEN
 40
0.09
  9
$DIMTSZ
 40
0.0
  9
$DIMTOL
 70
       0
  9
$DIMLIM
 70
       0
  9
$DIMTIH
 70
       1
  9
$DIMTOH
 70
       1
  9
$DIMSE1
 70
       0
  9
$DIMSE2
 70
       0
  9
$DIMTAD
 70
       0
  9
$DIMZIN
 70
       0
  9
$DIMBLK
  1

  9
$DIMASO
 70
       1
  9
$DIMSHO
 70
       1
  9
$DIMPOST
  1

  9
$DIMAPOST
  1

  9
$DIMALT
 70
       0
  9
$DIMALTD
 70
       2
  9
$DIMALTF
 40
25.4
  9
$DIMLFAC
 40
1.0
  9
$DIMTOFL
 70
       0
  9
$DIMTVP
 40
0.0
  9
$DIMTIX
 70
       0
  9
$DIMSOXD
 70
       0
  9
$DIMSAH
 70
       0
  9
$DIMBLK1
  1

  9
$DIMBLK2
  1

  9
$DIMSTYLE
  2
STANDARD
  9
$DIMCLRD
 70
       0
  9
$DIMCLRE
 70
       0
  9
$DIMCLRT
 70
       0
  9
$DIMTFAC
 40
1.0
  9
$DIMGAP
 40
0.09
  9
$DIMJUST
 70
       0
  9
$DIMSD1
 70
       0
  9
$DIMSD2
 70
       0
  9
$DIMTOLJ
 70
       1
  9
$DIMTZIN
 70
       0
  9
$DIMALTZ
 70
       0
  9
$DIMALTTZ
 70
       0
  9
$DIMFIT
 70
       3
  9
$DIMUPT
 70
       0
  9
$DIMUNIT
 70
       2
  9
$DIMDEC
 70
       4
  9
$DIMTDEC
 70
       4
  9
$DIMALTU
 70
       2
  9
$DIMALTTD
 70
       2
  9
$DIMTXSTY
  7
STANDARD
  9
$DIMAUNIT
 70
       0
  9
$LUNITS
 70
       2
  9
$LUPREC
 70
       4
  9
$SKETCHINC
 40
0.1
  9
$FILLETRAD
 40
0.0
  9
$AUNITS
 70
       0
  9
$AUPREC
 70
       0
  9
$MENU
  1
acad
  9
$ELEVATION
 40
0.0
  9
$PELEVATION
 40
0.0
  9
$THICKNESS
 40
0.0
  9
$LIMCHECK
 70
       0
  9
$BLIPMODE
 70
       1
  9
$CHAMFERA
 40
0.0
  9
$CHAMFERB
 40
0.0
  9
$CHAMFERC
 40
0.0
  9
$CHAMFERD
 40
0.0
  9
$SKPOLY
 70
       0
  9
$TDCREATE
 40
0.000000000
  9
$TDUPDATE
 40
0.000000000
  9
$TDINDWG
 40
0.0000000000
  9
$TDUSRTIMER
 40
0.0000000000
  9
$USRTIMER
 70
       1
  9
$ANGBASE
 50
0.0
  9
$ANGDIR
 70
       0
  9
$PDMODE
 70
       0
  9
$PDSIZE
 40
1.0
  9
$PLINEWID
 40
0.0
  9
$COORDS
 70
       1
  9
$SPLFRAME
 70
       0
  9
$SPLINETYPE
 70
       6
  9
$SPLINESEGS
 70
       8
  9
$ATTDIA
 70
       0
  9
$ATTREQ
 70
       1
  9
$HANDLING
 70
       1
  9
$HANDSEED
  5
13E
  9
$SURFTAB1
 70
       6
  9
$SURFTAB2
 70
       6
  9
$SURFTYPE
 70
       6
  9
$SURFU
 70
       6
  9
$SURFV
 70
       6
  9
$UCSNAME
  2

  9
$UCSORG
 10
0.0
 20
0.0
 30
0.0
  9
$UCSXDIR
 10
1.0
 20
0.0
 30
0.0
  9
$UCSYDIR
 10
0.0
 20
1.0
 30
0.0
  9
$PUCSNAME
  2

  9
$PUCSORG
 10
0.0
 20
0.0
 30
0.0
  9
$PUCSXDIR
 10
1.0
 20
0.0
 30
0.0
  9
$PUCSYDIR
 10
0.0
 20
1.0
 30
0.0
  9
$USERI1
 70
       0
  9
$USERI2
 70
       0
  9
$USERI3
 70
       0
  9
$USERI4
 70
       0
  9
$USERI5
 70
       0
  9
$USERR1
 40
0.0
  9
$USERR2
 40
0.0
  9
$USERR3
 40
0.0
  9
$USERR4
 40
0.0
  9
$USERR5
 40
0.0
  9
$WORLDVIEW
 70
       1
  9
$SHADEDGE
 70
       3
  9
$SHADEDIF
 70
      70
  9
$TILEMODE
 70
       1
  9
$MAXACTVP
 70
      16
  9
$PINSBASE
 10
0.0
 20
0.0
 30
0.0
  9
$PLIMCHECK
 70
       0
  9
$PEXTMIN
 10
1.00000000E+20
 20
1.00000000E+20
 30
1.00000000E+20
  9
$PEXTMAX
 10
-1.00000000E+20
 20
-1.00000000E+20
 30
-1.00000000E+20
  9
$PLIMMIN
 10
0.0
 20
0.0
  9
$PLIMMAX
 10
12.0
 20
9.0
  9
$UNITMODE
 70
       0
  9
$VISRETAIN
 70
       0
  9
$PLINEGEN
 70
       1
  9
$PSLTSCALE
 70
       0
  9
$TREEDEPTH
 70
    3020
  9
$PICKSTYLE
 70
       1
  9
$CMLSTYLE
  2
STANDARD
  9
$CMLJUST
 70
       0
  9
$CMLSCALE
 40
1.0
  9
$PROXYGRAPHICS
 70
       0
  9
$MEASUREMENT
 70
       0
  0
ENDSEC
  0
SECTION
  2
CLASSES
  0
CLASS
  1
LWPOLYLINE
  2
AcDbPolyline
  3
"AutoCAD"
 90
        0
280
       0
281
       1
  0
CLASS
  1
IMAGE
  2
AcDbRasterImage
  3
ISM
 90
      127
280
       0
281
       1
  0
CLASS
  1
OLE2FRAME
  2
AcDbOle2Frame
  3
""
 90
        0
280
       0
281
       1
  0
CLASS
  1
HATCH
  2
AcDbHatch
  3
"ACAD_SEDONA"
 90
        0
280
       0
281
       1
  0
CLASS
  1
DICTIONARYVAR
  2
AcDbDictionaryVar
  3
"AutoCAD"
 90
        0
280
       0
281
       0
  0
CLASS
  1
RASTERVARIABLES
  2
AcDbRasterVariables
  3
ISM
 90
        0
280
       0
281
       0
  0
CLASS
  1
IMAGEDEF
  2
AcDbRasterImageDef
  3
ISM
 90
        0
280
       0
281
       0
  0
CLASS
  1
IMAGEDEF_REACTOR
  2
AcDbRasterImageDefReactor
  3
ISM
 90
        1
280
       0
281
       0
  0
CLASS
  1
IDBUFFER
  2
AcDbIdBuffer
  3
"Acad"
 90
        0
280
       0
281
       0
  0
CLASS
  1
SPATIAL_FILTER
  2
AcDbSpatialFilter
  3
"Acad"
 90
        0
280
       0
281
       0
  0
CLASS
  1
XRECORD
  2
AcDbXrecord
  3
"<Built In>"
 90
        0
280
       0
281
       0
  0
CLASS
  1
SORTENTSTABLE
  2
AcDbSortentsTable
  3
"AutoCAD"
 90
        0
280
       0
281
       0
  0
CLASS
  1
LAYER_INDEX
  2
AcDbLayerIndex
  3
"Acad"
 90
        0
280
       0
281
       0
  0
CLASS
  1
SPATIAL_INDEX
  2
AcDbSpatialIndex
  3
"Acad"
 90
        0
280
       0
281
       0
  0
CLASS
  1
OBJECT_PTR
  2
CAseDLPNTableRecord
  3
"ASE-LPNTableRecord"
 90
        1
280
       0
281
       0
  0
CLASS
  1
LAYOUT
  2
AcDbLayout
  3
"AutoCAD 2000"
 90
        1
280
       0
281
       0
  0
CLASS
  1
PLOTSETTINGS
  2
AcDbPlotSettings
  3
"AutoCAD 2000"
 90
        1
280
       0
281
       0
  0
CLASS
  1
ACDBDICTIONARYWDFLT
  2
AcDbDictionaryWithDefault
  3
"AutoCAD 2000"
 90
        1
280
       0
281
       0
  0
CLASS
  1
ACDBPLACEHOLDER
  2
AcDbPlaceHolder
  3
"AutoCAD 2000"
 90
        1
280
       0
281
       0
  0
CLASS
  1
VBA_PROJECT
  2
AcDbVbaProject
  3
"acadvba"
 90
        1
280
       0
281
       0
  0
CLASS
  1
WIPEOUT
  2
AcDbWipeout
  3
WipeOut|AutoCAD Express Tool|expresstools@autodesk.com
 90
      127
280
       0
281
       1
  0
CLASS
  1
WIPEOUTVARIABLES
  2
AcDbWipeoutVariables
  3
WipeOut|AutoCAD Express Tool|expresstools@autodesk.com
 90
        0
280
       0
281
       0
  0
CLASS
  1
RTEXT
  2
RText
  3
RText|AutoCAD Express Tool|expresstools@autodesk.com
 90
        0
280
       0
281
       1
  0
CLASS
  1
ARCALIGNEDTEXT
  2
AcDbArcAlignedText
  3
ATEXT|AutoCAD Express Tool|expresstools@autodesk.com
 90
        0
280
       0
281
       1
  0
ENDSEC
  0
SECTION
  2
TABLES
  0
TABLE
  2
VPORT
  5
7
100
AcDbSymbolTable
 70
       1
  0
VPORT
  5
15
100
AcDbSymbolTableRecord
100
AcDbViewportTableRecord
  2
*ACTIVE
 70
       0
 10
0.0
 20
0.0
 11
1.0
 21
1.0
 12
0.0
 22
-12.05628731
 13
0.0
 23
0.0
 14
1.0
 24
1.0
 15
0.0
 25
0.0
 16
0.0
 26
0.0
 36
1.0
 17
0.0
 27
0.0
 37
0.0
 40
137.90671306
 41
1.92771045
 42
50.0
 43
0.0
 44
0.0
 50
0.0
 51
0.0
 71
       0
 72
     100
 73
       1
 74
       1
 75
       0
 76
       0
 77
       0
 78
       0
  0
ENDTAB
  0
TABLE
  2
LTYPE
  5
4
100
AcDbSymbolTable
 70
      30
  0
LTYPE
  5
11
100
AcDbSymbolTableRecord
100
AcDbLinetypeTableRecord
  2
BYBLOCK
 70
      64
  3

 72
      65
 73
       0
 40
0.0
  0
LTYPE
  5
12
100
AcDbSymbolTableRecord
100
AcDbLinetypeTableRecord
  2
BYLAYER
 70
      64
  3

 72
      65
 73
       0
 40
0.0
  0
LTYPE
  5
13
100
AcDbSymbolTableRecord
100
AcDbLinetypeTableRecord
  2
CONTINUOUS
 70
      64
  3
Solid line
 72
      65
 73
       0
 40
0.0
  0
LTYPE
  5
1D
100
AcDbSymbolTableRecord
100
AcDbLinetypeTableRecord
  2
HIDDENX2
 70
      64
  3
CADPAC LINETYPE
 72
      65
 73
       2
 40
10.00825267
 49
7.50618951
 74
       0
 49
-2.50206317
 74
       0
  0
LTYPE
  5
1E
100
AcDbSymbolTableRecord
100
AcDbLinetypeTableRecord
  2
HIDDEN
 70
      64
  3
CADPAC LINETYPE
 72
      65
 73
       2
 40
7.50618951
 49
5.00412634
 74
       0
 49
-2.50206317
 74
       0
  0
LTYPE
  5
1F
100
AcDbSymbolTableRecord
100
AcDbLinetypeTableRecord
  2
HIDDEN2
 70
      64
  3
CADPAC LINETYPE
 72
      65
 73
       2
 40
6.25515792
 49
3.75309475
 74
       0
 49
-2.50206317
 74
       0
  0
LTYPE
  5
20
100
AcDbSymbolTableRecord
100
AcDbLinetypeTableRecord
  2
DASHED
 70
      64
  3
CADPAC LINETYPE
 72
      65
 73
       2
 40
7.50618951
 49
5.00412634
 74
       0
 49
-2.50206317
 74
       0
  0
LTYPE
  5
21
100
AcDbSymbolTableRecord
100
AcDbLinetypeTableRecord
  2
DASHED2
 70
      64
  3
CADPAC LINETYPE
 72
      65
 73
       2
 40
5.62964213
 49
3.75309475
 74
       0
 49
-1.87654738
 74
       0
  0
LTYPE
  5
22
100
AcDbSymbolTableRecord
100
AcDbLinetypeTableRecord
  2
DASHEDX2
 70
      64
  3
CADPAC LINETYPE
 72
      65
 73
       2
 40
11.25928426
 49
7.50618951
 74
       0
 49
-3.75309475
 74
       0
  0
LTYPE
  5
23
100
AcDbSymbolTableRecord
100
AcDbLinetypeTableRecord
  2
DOTX2
 70
      64
  3
CADPAC LINETYPE
 72
      65
 73
       2
 40
3.12757896
 49
0.0
 74
       0
 49
-3.12757896
 74
       0
  0
LTYPE
  5
24
100
AcDbSymbolTableRecord
100
AcDbLinetypeTableRecord
  2
DOT
 70
      64
  3
CADPAC LINETYPE
 72
      65
 73
       2
 40
2.50206317
 49
0.0
 74
       0
 49
-2.50206317
 74
       0
  0
LTYPE
  5
25
100
AcDbSymbolTableRecord
100
AcDbLinetypeTableRecord
  2
DOT2
 70
      64
  3
CADPAC LINETYPE
 72
      65
 73
       2
 40
1.87654738
 49
0.0
 74
       0
 49
-1.87654738
 74
       0
  0
LTYPE
  5
26
100
AcDbSymbolTableRecord
100
AcDbLinetypeTableRecord
  2
CENTERX2
 70
      64
  3
CADPAC LINETYPE
 72
      65
 73
       4
 40
15.01237901
 49
6.25515792
 74
       0
 49
-3.12757896
 74
       0
 49
2.50206317
 74
       0
 49
-3.12757896
 74
       0
  0
LTYPE
  5
27
100
AcDbSymbolTableRecord
100
AcDbLinetypeTableRecord
  2
CENTER
 70
      64
  3
CADPAC LINETYPE
 72
      65
 73
       4
 40
11.50949058
 49
5.00412634
 74
       0
 49
-2.50206317
 74
       0
 49
1.5012379
 74
       0
 49
-2.50206317
 74
       0
  0
LTYPE
  5
28
100
AcDbSymbolTableRecord
100
AcDbLinetypeTableRecord
  2
CENTER2
 70
      64
  3
CADPAC LINETYPE
 72
      65
 73
       4
 40
8.00660214
 49
3.75309475
 74
       0
 49
-1.87654738
 74
       0
 49
0.50041263
 74
       0
 49
-1.87654738
 74
       0
  0
LTYPE
  5
29
100
AcDbSymbolTableRecord
100
AcDbLinetypeTableRecord
  2
DASHDOTX2
 70
      64
  3
CADPAC LINETYPE
 72
      65
 73
       4
 40
12.51031584
 49
6.25515792
 74
       0
 49
-3.12757896
 74
       0
 49
0.0
 74
       0
 49
-3.12757896
 74
       0
  0
LTYPE
  5
2A
100
AcDbSymbolTableRecord
100
AcDbLinetypeTableRecord
  2
DASHDOT
 70
      64
  3
CADPAC LINETYPE
 72
      65
 73
       4
 40
10.00825267
 49
5.00412634
 74
       0
 49
-2.50206317
 74
       0
 49
0.0
 74
       0
 49
-2.50206317
 74
       0
  0
LTYPE
  5
2B
100
AcDbSymbolTableRecord
100
AcDbLinetypeTableRecord
  2
DASHDOT2
 70
      64
  3
CADPAC LINETYPE
 72
      65
 73
       4
 40
7.50618951
 49
3.75309475
 74
       0
 49
-1.87654738
 74
       0
 49
0.0
 74
       0
 49
-1.87654738
 74
       0
  0
LTYPE
  5
2C
100
AcDbSymbolTableRecord
100
AcDbLinetypeTableRecord
  2
DIVIDEX2
 70
      64
  3
CADPAC LINETYPE
 72
      65
 73
       6
 40
15.6378948
 49
6.25515792
 74
       0
 49
-3.12757896
 74
       0
 49
0.0
 74
       0
 49
-3.12757896
 74
       0
 49
0.0
 74
       0
 49
-3.12757896
 74
       0
  0
LTYPE
  5
2D
100
AcDbSymbolTableRecord
100
AcDbLinetypeTableRecord
  2
DIVIDE
 70
      64
  3
CADPAC LINETYPE
 72
      65
 73
       6
 40
12.51031584
 49
5.00412634
 74
       0
 49
-2.50206317
 74
       0
 49
0.0
 74
       0
 49
-2.50206317
 74
       0
 49
0.0
 74
       0
 49
-2.50206317
 74
       0
  0
LTYPE
  5
2E
100
AcDbSymbolTableRecord
100
AcDbLinetypeTableRecord
  2
DIVIDE2
 70
      64
  3
CADPAC LINETYPE
 72
      65
 73
       6
 40
9.38273688
 49
3.75309475
 74
       0
 49
-1.87654738
 74
       0
 49
0.0
 74
       0
 49
-1.87654738
 74
       0
 49
0.0
 74
       0
 49
-1.87654738
 74
       0
  0
LTYPE
  5
2F
100
AcDbSymbolTableRecord
100
AcDbLinetypeTableRecord
  2
BORDERX2
 70
      64
  3
CADPAC LINETYPE
 72
      65
 73
       6
 40
21.89305273
 49
6.25515792
 74
       0
 49
-3.12757896
 74
       0
 49
6.25515792
 74
       0
 49
-3.12757896
 74
       0
 49
0.0
 74
       0
 49
-3.12757896
 74
       0
  0
LTYPE
  5
30
100
AcDbSymbolTableRecord
100
AcDbLinetypeTableRecord
  2
BORDER
 70
      64
  3
CADPAC LINETYPE
 72
      65
 73
       6
 40
17.51444218
 49
5.00412634
 74
       0
 49
-2.50206317
 74
       0
 49
5.00412634
 74
       0
 49
-2.50206317
 74
       0
 49
0.0
 74
       0
 49
-2.50206317
 74
       0
  0
LTYPE
  5
31
100
AcDbSymbolTableRecord
100
AcDbLinetypeTableRecord
  2
BORDER2
 70
      64
  3
CADPAC LINETYPE
 72
      65
 73
       6
 40
13.13583164
 49
3.75309475
 74
       0
 49
-1.87654738
 74
       0
 49
3.75309475
 74
       0
 49
-1.87654738
 74
       0
 49
0.0
 74
       0
 49
-1.87654738
 74
       0
  0
LTYPE
  5
32
100
AcDbSymbolTableRecord
100
AcDbLinetypeTableRecord
  2
PHANTOMX2
 70
      64
  3
CADPAC LINETYPE
 72
      65
 73
       6
 40
18.76547377
 49
6.25515792
 74
       0
 49
-2.50206317
 74
       0
 49
2.50206317
 74
       0
 49
-2.50206317
 74
       0
 49
2.50206317
 74
       0
 49
-2.50206317
 74
       0
  0
LTYPE
  5
33
100
AcDbSymbolTableRecord
100
AcDbLinetypeTableRecord
  2
PHANTOM
 70
      64
  3
CADPAC LINETYPE
 72
      65
 73
       6
 40
15.51279165
 49
5.00412634
 74
       0
 49
-2.50206317
 74
       0
 49
1.5012379
 74
       0
 49
-2.50206317
 74
       0
 49
1.5012379
 74
       0
 49
-2.50206317
 74
       0
  0
LTYPE
  5
34
100
AcDbSymbolTableRecord
100
AcDbLinetypeTableRecord
  2
PHANTOM2
 70
      64
  3
CADPAC LINETYPE
 72
      65
 73
       6
 40
13.26093479
 49
3.75309475
 74
       0
 49
-2.50206317
 74
       0
 49
1.00082527
 74
       0
 49
-2.50206317
 74
       0
 49
1.00082527
 74
       0
 49
-2.50206317
 74
       0
  0
LTYPE
  5
35
100
AcDbSymbolTableRecord
100
AcDbLinetypeTableRecord
  2
ACAD_ISO06W100
 70
      64
  3
CADPAC LINETYPE
 72
      65
 73
       8
 40
16.88892639
 49
6.25515792
 74
       0
 49
-3.12757896
 74
       0
 49
0.0
 74
       0
 49
-2.50206317
 74
       0
 49
0.0
 74
       0
 49
-2.50206317
 74
       0
 49
0.0
 74
       0
 49
-2.50206317
 74
       0
  0
LTYPE
  5
36
100
AcDbSymbolTableRecord
100
AcDbLinetypeTableRecord
  2
ACAD_ISO13W100
 70
      64
  3
CADPAC LINETYPE
 72
      65
 73
       8
 40
20.01650535
 49
5.00412634
 74
       0
 49
-2.50206317
 74
       0
 49
5.00412634
 74
       0
 49
-2.50206317
 74
       0
 49
0.0
 74
       0
 49
-2.50206317
 74
       0
 49
0.0
 74
       0
 49
-2.50206317
 74
       0
  0
LTYPE
  5
37
100
AcDbSymbolTableRecord
100
AcDbLinetypeTableRecord
  2
ACAD_ISO14W100
 70
      64
  3
CADPAC LINETYPE
 72
      65
 73
       8
 40
15.01237901
 49
5.00412634
 74
       0
 49
-2.50206317
 74
       0
 49
0.0
 74
       0
 49
-2.50206317
 74
       0
 49
0.0
 74
       0
 49
-2.50206317
 74
       0
 49
0.0
 74
       0
 49
-2.50206317
 74
       0
  0
ENDTAB
  0
TABLE
  2
LAYER
  5
2
100
AcDbSymbolTable
 70
       2
  0
LAYER
  5
14
100
AcDbSymbolTableRecord
100
AcDbLayerTableRecord
  2
0
 70
       0
 62
       7
  6
CONTINUOUS
  0
LAYER
  5
38
100
AcDbSymbolTableRecord
100
AcDbLayerTableRecord
  2
レイヤー_1
 70
       0
 62
       7
  6
CONTINUOUS
  0
ENDTAB
  0
TABLE
  2
STYLE
  5
3
100
AcDbSymbolTable
 70
       1
  0
STYLE
  5
17
100
AcDbSymbolTableRecord
100
AcDbTextStyleTableRecord
  2
STANDARD
 70
       0
 40
0.0
 41
0.8
 50
0.0
 71
       0
 42
8.0
  3
txt.shx
  4
bigfont.shx
  0
ENDTAB
  0
TABLE
  2
VIEW
  5
5
100
AcDbSymbolTable
 70
       1
  0
VIEW
  5
39
100
AcDbSymbolTableRecord
100
AcDbViewTableRecord
  2
QQQQ
 70
       0
 40
137.90671306
 10
0.0
 20
-12.05628731
 41
265.84421167
 11
0.0
 21
0.0
 31
1.0
 12
100.0
 22
100.0
 32
0.0
 42
50.0
 43
0.0
 44
0.0
 50
0.0
 71
       0
  0
ENDTAB
  0
TABLE
  2
UCS
  5
6
100
AcDbSymbolTable
 70
       0
  0
ENDTAB
  0
TABLE
  2
APPID
  5
8
100
AcDbSymbolTable
 70
       1
  0
APPID
  5
16
100
AcDbSymbolTableRecord
100
AcDbRegAppTableRecord
  2
ACAD
 70
       0
  0
ENDTAB
  0
TABLE
  2
DIMSTYLE
  5
9
100
AcDbSymbolTable
 70
       1
  0
DIMSTYLE
105
18
100
AcDbSymbolTableRecord
100
AcDbDimStyleTableRecord
  2
STANDARD
 70
       0
  3

  4

  5

  6

  7

 40
1.0
 41
0.18
 42
0.0625
 43
0.38
 44
0.18
 45
0.0
 46
0.0
 47
0.0
 48
0.0
 71
       0
 72
       0
 73
       1
 74
       1
 75
       0
 76
       0
 77
       0
 78
       0
140
0.18
141
0.09
142
0.0
143
25.4
144
1.0
145
0.0
146
1.0
147
0.09
170
       0
171
       2
172
       0
173
       0
174
       0
175
       0
176
       0
177
       0
178
       0
270
       2
271
       4
272
       4
273
       2
274
       2
275
       0
280
       0
281
       0
282
       0
283
       1
284
       0
285
       0
286
       0
287
       0
288
       0
340
17
  0
ENDTAB
  0
TABLE
  2
BLOCK_RECORD
  5
1
100
AcDbSymbolTable
 70
       0
  0
BLOCK_RECORD
  5
A
100
AcDbSymbolTableRecord
100
AcDbBlockTableRecord
  2
*MODEL_SPACE
  0
BLOCK_RECORD
  5
B
100
AcDbSymbolTableRecord
100
AcDbBlockTableRecord
  2
*PAPER_SPACE
  0
ENDTAB
  0
ENDSEC
  0
SECTION
  2
BLOCKS
  0
BLOCK
  5
D
100
AcDbEntity
  8
0
100
AcDbBlockBegin
  2
*MODEL_SPACE
 70
       0
 10
0.0
 20
0.0
 30
0.0
  3
*MODEL_SPACE
  1

  0
ENDBLK
  5
E
100
AcDbEntity
  8
0
100
AcDbBlockEnd
  0
BLOCK
  5
F
100
AcDbEntity
 67
       1
  8
0
100
AcDbBlockBegin
  2
*PAPER_SPACE
 70
       0
 10
0.0
 20
0.0
 30
0.0
  3
*PAPER_SPACE
  1

  0
ENDBLK
  5
10
100
AcDbEntity
 67
       1
  8
0
100
AcDbBlockEnd
  0
ENDSEC
  0
SECTION
  2
ENTITIES
  0
LINE
  5
3A
100
AcDbEntity
  8
0
  6
CONTINUOUS
 62
       3
100
AcDbLine
 10
-74.2622926
 20
-9.11063233
 30
0.0
 11
-74.35960473
 21
-8.89194403
 31
0.0
  0
LINE
  5
3B
100
AcDbEntity
  8
0
  6
CONTINUOUS
 62
       3
100
AcDbLine
 10
-74.76517106
 20
-8.31046344
 30
0.0
 11
-74.93421574
 21
-8.14549628
 31
0.0
  0
LINE
  5
3C
100
AcDbEntity
  8
0
  6
CONTINUOUS
 62
       3
100
AcDbLine
 10
-75.11817802
 20
-7.99695809
 30
0.0
 11
-75.31585165
 21
-7.86604835
 31
0.0
  0
LINE
  5
3D
100
AcDbEntity
  8
0
  6
CONTINUOUS
 62
       3
100
AcDbLine
 10
-74.30840547
 20
-18.52661749
 30
0.0
 11
-74.2214169
 21
-18.30263877
 31
0.0
  0
LINE
  5
3E
100
AcDbEntity
  8
0
  6
CONTINUOUS
 62
       3
100
AcDbLine
 10
-74.18592916
 20
-16.83874212
 30
0.0
 11
-74.2622926
 21
-16.60954078
 31
0.0
  0
LINE
  5
3F
100
AcDbEntity
  8
0
  6
CONTINUOUS
 62
       3
100
AcDbLine
 10
-75.31585165
 20
-15.36466989
 30
0.0
 11
-75.52603043
 21
-15.252576
 31
0.0
  0
LINE
  5
40
100
AcDbEntity
  8
0
  6
CONTINUOUS
 62
       3
100
AcDbLine
 10
-75.74750814
 20
-15.16051385
 30
0.0
 11
-75.97907855
 21
-15.08968194
 31
0.0
  0
LINE
  5
41
100
AcDbEntity
  8
0
  6
CONTINUOUS
 62
       3
100
AcDbLine
 10
-77.44133673
 20
-15.16051385
 30
0.0
 11
-77.66288677
 21
-15.252576
 31
0.0
  0
LINE
  5
42
100
AcDbEntity
  8
0
  6
CONTINUOUS
 62
       3
100
AcDbLine
 10
-79.00324519
 20
-16.83874212
 30
0.0
 11
-79.0574562
 21
-17.07718859
 31
0.0
  0
LINE
  5
43
100
AcDbEntity
  8
0
  6
CONTINUOUS
 62
       3
100
AcDbLine
 10
-79.0883044
 20
-17.32368166
 30
0.0
 11
-79.09459079
 21
-17.57658838
 31
0.0
  0
LINE
  5
44
100
AcDbEntity
  8
0
  6
CONTINUOUS
 62
       3
100
AcDbLine
 10
-68.61337139
 20
-34.5294902
 30
0.0
 11
-68.61337139
 21
39.4705098
 31
0.0
  0
LINE
  5
45
100
AcDbEntity
  8
0
  6
CONTINUOUS
 62
       3
100
AcDbLine
 10
-75.86210715
 20
-12.40388441
 30
0.0
 11
-75.63543231
 21
-12.32229351
 31
0.0
  0
LINE
  5
46
100
AcDbEntity
  8
0
  6
CONTINUOUS
 62
       3
100
AcDbLine
 10
-75.52603043
 20
-7.75396653
 30
0.0
 11
-75.74750814
 21
-7.66191213
 31
0.0
  0
LINE
  5
47
100
AcDbEntity
  8
0
  6
CONTINUOUS
 62
       3
100
AcDbLine
 10
-78.82955575
 20
-8.89194403
 30
0.0
 11
-78.92687662
 21
-9.11063233
 31
0.0
  0
LINE
  5
48
100
AcDbEntity
  8
0
  6
CONTINUOUS
 62
       3
100
AcDbLine
 10
-77.76949577
 20
-12.22007547
 30
0.0
 11
-77.5534502
 21
-12.32229351
 31
0.0
  0
LINE
  5
49
100
AcDbEntity
  8
0
  6
CONTINUOUS
 62
       3
100
AcDbLine
 10
-75.2153763
 20
-19.59705928
 30
0.0
 11
-75.02440757
 21
-19.45720577
 31
0.0
  0
LINE
  5
4A
100
AcDbEntity
  8
0
  6
CONTINUOUS
 62
       3
100
AcDbLine
 10
-74.09458689
 20
-17.57658838
 30
0.0
 11
-74.10087322
 21
-17.32368166
 31
0.0
  0
LINE
  5
4B
100
AcDbEntity
  8
0
  6
CONTINUOUS
 62
       3
100
AcDbLine
 10
-74.13172063
 20
-17.07718859
 30
0.0
 11
-74.18592916
 21
-16.83874212
 31
0.0
  0
LINE
  5
4C
100
AcDbEntity
  8
0
  6
CONTINUOUS
 62
       3
100
AcDbLine
 10
-76.72087773
 20
-15.01650296
 30
0.0
 11
-76.96912696
 21
-15.04127881
 31
0.0
  0
LINE
  5
4D
100
AcDbEntity
  8
0
  6
CONTINUOUS
 62
       3
100
AcDbLine
 10
-74.84775332
 20
-11.80165325
 30
0.0
 11
-74.68661976
 21
-11.6289214
 31
0.0
  0
LINE
  5
4E
100
AcDbEntity
  8
0
  6
CONTINUOUS
 62
       3
100
AcDbLine
 10
-79.00324519
 20
-9.33975222
 30
0.0
 11
-79.0574562
 21
-9.57810423
 31
0.0
  0
LINE
  5
4F
100
AcDbEntity
  8
0
  6
CONTINUOUS
 62
       3
100
AcDbLine
 10
-78.50249674
 20
-11.6289214
 30
0.0
 11
-78.34133421
 21
-11.80165325
 31
0.0
  0
LINE
  5
50
100
AcDbEntity
  8
0
  6
CONTINUOUS
 62
       3
100
AcDbLine
 10
-76.34271938
 20
-19.99898187
 30
0.0
 11
-76.09827158
 21
-19.96224481
 31
0.0
  0
LINE
  5
51
100
AcDbEntity
  8
0
  6
CONTINUOUS
 62
       3
100
AcDbLine
 10
-78.07085084
 20
-15.49559702
 30
0.0
 11
-78.25485437
 21
-15.64415885
 31
0.0
  0
LINE
  5
52
100
AcDbEntity
  8
0
  6
CONTINUOUS
 62
       3
100
AcDbLine
 10
-68.61337139
 20
39.4705098
 30
0.0
 11
-112.61337139
 21
39.4705098
 31
0.0
  0
LINE
  5
53
100
AcDbEntity
  8
0
  6
CONTINUOUS
 62
       3
100
AcDbLine
 10
-79.0883044
 20
-9.82448888
 30
0.0
 11
-79.09459079
 21
-10.07733584
 31
0.0
  0
LINE
  5
54
100
AcDbEntity
  8
0
  6
CONTINUOUS
 62
       3
100
AcDbLine
 10
-75.41945329
 20
-19.71869037
 30
0.0
 11
-75.2153763
 21
-19.59705928
 31
0.0
  0
LINE
  5
55
100
AcDbEntity
  8
0
  6
CONTINUOUS
 62
       3
100
AcDbLine
 10
-74.68661976
 20
-19.12763329
 30
0.0
 11
-74.54221312
 21
-18.94031519
 31
0.0
  0
LINE
  5
56
100
AcDbEntity
  8
0
  6
CONTINUOUS
 62
       3
100
AcDbLine
 10
-74.76517106
 20
-15.80915689
 30
0.0
 11
-74.93421574
 21
-15.64415885
 31
0.0
  0
LINE
  5
57
100
AcDbEntity
  8
0
  6
CONTINUOUS
 62
       3
100
AcDbLine
 10
-78.42393188
 20
-15.80915689
 30
0.0
 11
-78.57687812
 21
-15.98939261
 31
0.0
  0
LINE
  5
58
100
AcDbEntity
  8
0
  6
CONTINUOUS
 62
       3
100
AcDbLine
 10
-78.64692537
 20
-18.94031519
 30
0.0
 11
-78.50249674
 21
-19.12763329
 31
0.0
  0
LINE
  5
59
100
AcDbEntity
  8
0
  6
CONTINUOUS
 62
       3
100
AcDbLine
 10
-76.09827158
 20
-12.46364869
 30
0.0
 11
-75.86210715
 21
-12.40388441
 31
0.0
  0
LINE
  5
5A
100
AcDbEntity
  8
0
  6
CONTINUOUS
 62
       3
100
AcDbLine
 10
-74.68661976
 20
-11.6289214
 30
0.0
 11
-74.54221312
 21
-11.44155978
 31
0.0
  0
LINE
  5
5B
100
AcDbEntity
  8
0
  6
CONTINUOUS
 62
       3
100
AcDbLine
 10
-74.41573961
 20
-11.24076789
 30
0.0
 11
-74.30840547
 21
-11.02774519
 31
0.0
  0
LINE
  5
5C
100
AcDbEntity
  8
0
  6
CONTINUOUS
 62
       3
100
AcDbLine
 10
-74.09458689
 20
-10.07733584
 30
0.0
 11
-74.10087322
 21
-9.82448888
 31
0.0
  0
LINE
  5
5D
100
AcDbEntity
  8
0
  6
CONTINUOUS
 62
       3
100
AcDbLine
 10
-74.10087322
 20
-9.82448888
 30
0.0
 11
-74.13172063
 21
-9.57810423
 31
0.0
  0
LINE
  5
5E
100
AcDbEntity
  8
0
  6
CONTINUOUS
 62
       3
100
AcDbLine
 10
-75.74750814
 20
-7.66191213
 30
0.0
 11
-75.97907855
 21
-7.5910846
 31
0.0
  0
LINE
  5
5F
100
AcDbEntity
  8
0
  6
CONTINUOUS
 62
       3
100
AcDbLine
 10
-77.20968171
 20
-7.5910846
 30
0.0
 11
-77.44133673
 21
-7.66191213
 31
0.0
  0
LINE
  5
60
100
AcDbEntity
  8
0
  6
CONTINUOUS
 62
       3
100
AcDbLine
 10
-79.07587598
 20
-10.32728701
 30
0.0
 11
-79.03319572
 21
-10.56980527
 31
0.0
  0
LINE
  5
61
100
AcDbEntity
  8
0
  6
CONTINUOUS
 62
       3
100
AcDbLine
 10
-74.41573961
 20
-18.73957645
 30
0.0
 11
-74.30840547
 21
-18.52661749
 31
0.0
  0
LINE
  5
62
100
AcDbEntity
  8
0
  6
CONTINUOUS
 62
       3
100
AcDbLine
 10
-78.71248783
 20
-16.18366751
 30
0.0
 11
-78.82955575
 21
-16.39078307
 31
0.0
  0
LINE
  5
63
100
AcDbEntity
  8
0
  6
CONTINUOUS
 62
       3
100
AcDbLine
 10
-79.03319572
 20
-18.06884072
 30
0.0
 11
-78.96775527
 21
-18.30263877
 31
0.0
  0
LINE
  5
64
100
AcDbEntity
  8
0
  6
CONTINUOUS
 62
       3
100
AcDbLine
 10
-77.5534502
 20
-19.82089862
 30
0.0
 11
-77.32669702
 21
-19.90248358
 31
0.0
  0
LINE
  5
65
100
AcDbEntity
  8
0
  6
CONTINUOUS
 62
       3
100
AcDbLine
 10
-74.13172063
 20
-9.57810423
 30
0.0
 11
-74.18592916
 21
-9.33975222
 31
0.0
  0
LINE
  5
66
100
AcDbEntity
  8
0
  6
CONTINUOUS
 62
       3
100
AcDbLine
 10
-78.96775527
 20
-10.80369116
 30
0.0
 11
-78.88075989
 21
-11.02774519
 31
0.0
  0
LINE
  5
67
100
AcDbEntity
  8
0
  6
CONTINUOUS
 62
       3
100
AcDbLine
 10
-77.5534502
 20
-12.32229351
 30
0.0
 11
-77.32669702
 21
-12.40388441
 31
0.0
  0
LINE
  5
68
100
AcDbEntity
  8
0
  6
CONTINUOUS
 62
       3
100
AcDbLine
 10
-74.2214169
 20
-18.30263877
 30
0.0
 11
-74.15598014
 21
-18.06884072
 31
0.0
  0
LINE
  5
69
100
AcDbEntity
  8
0
  6
CONTINUOUS
 62
       3
100
AcDbLine
 10
-78.92687662
 20
-16.60954078
 30
0.0
 11
-79.00324519
 21
-16.83874212
 31
0.0
  0
LINE
  5
6A
100
AcDbEntity
  8
0
  6
CONTINUOUS
 62
       3
100
AcDbLine
 10
-74.30840547
 20
-11.02774519
 30
0.0
 11
-74.2214169
 21
-10.80369116
 31
0.0
  0
LINE
  5
6B
100
AcDbEntity
  8
0
  6
CONTINUOUS
 62
       3
100
AcDbLine
 10
-78.57687812
 20
-8.49066011
 30
0.0
 11
-78.71248783
 21
-8.68488679
 31
0.0
  0
LINE
  5
6C
100
AcDbEntity
  8
0
  6
CONTINUOUS
 62
       3
100
AcDbLine
 10
-78.92687662
 20
-9.11063233
 30
0.0
 11
-79.00324519
 21
-9.33975222
 31
0.0
  0
LINE
  5
6D
100
AcDbEntity
  8
0
  6
CONTINUOUS
 62
       3
100
AcDbLine
 10
-77.09044147
 20
-12.46364869
 30
0.0
 11
-76.84588883
 21
-12.50038688
 31
0.0
  0
LINE
  5
6E
100
AcDbEntity
  8
0
  6
CONTINUOUS
 62
       3
100
AcDbLine
 10
-74.11330139
 20
-17.82642377
 30
0.0
 11
-74.09458689
 21
-17.57658838
 31
0.0
  0
LINE
  5
6F
100
AcDbEntity
  8
0
  6
CONTINUOUS
 62
       3
100
AcDbLine
 10
-79.0574562
 20
-17.07718859
 30
0.0
 11
-79.0883044
 21
-17.32368166
 31
0.0
  0
LINE
  5
70
100
AcDbEntity
  8
0
  6
CONTINUOUS
 62
       3
100
AcDbLine
 10
-74.2214169
 20
-10.80369116
 30
0.0
 11
-74.15598014
 21
-10.56980527
 31
0.0
  0
LINE
  5
71
100
AcDbEntity
  8
0
  6
CONTINUOUS
 62
       3
100
AcDbLine
 10
-74.35960473
 20
-8.89194403
 30
0.0
 11
-74.47665933
 21
-8.68488679
 31
0.0
  0
LINE
  5
72
100
AcDbEntity
  8
0
  6
CONTINUOUS
 62
       3
100
AcDbLine
 10
-78.07085084
 20
-7.99695809
 30
0.0
 11
-78.25485437
 21
-8.14549628
 31
0.0
  0
LINE
  5
73
100
AcDbEntity
  8
0
  6
CONTINUOUS
 62
       3
100
AcDbLine
 10
-79.09459079
 20
-10.07733584
 30
0.0
 11
-79.07587598
 21
-10.32728701
 31
0.0
  0
LINE
  5
74
100
AcDbEntity
  8
0
  6
CONTINUOUS
 62
       3
100
AcDbLine
 10
-76.59424433
 20
-20.01149432
 30
0.0
 11
-76.34271938
 21
-19.99898187
 31
0.0
  0
LINE
  5
75
100
AcDbEntity
  8
0
  6
CONTINUOUS
 62
       3
100
AcDbLine
 10
-74.10087322
 20
-17.32368166
 30
0.0
 11
-74.13172063
 21
-17.07718859
 31
0.0
  0
LINE
  5
76
100
AcDbEntity
  8
0
  6
CONTINUOUS
 62
       3
100
AcDbLine
 10
-77.66288677
 20
-15.252576
 30
0.0
 11
-77.87312656
 21
-15.36466989
 31
0.0
  0
LINE
  5
77
100
AcDbEntity
  8
0
  6
CONTINUOUS
 62
       3
100
AcDbLine
 10
-78.25485437
 20
-15.64415885
 30
0.0
 11
-78.42393188
 21
-15.80915689
 31
0.0
  0
LINE
  5
78
100
AcDbEntity
  8
0
  6
CONTINUOUS
 62
       3
100
AcDbLine
 10
-78.50249674
 20
-19.12763329
 30
0.0
 11
-78.34133421
 21
-19.30033029
 31
0.0
  0
LINE
  5
79
100
AcDbEntity
  8
0
  6
CONTINUOUS
 62
       3
100
AcDbLine
 10
-112.61337139
 20
-34.5294902
 30
0.0
 11
-112.61337139
 21
39.4705098
 31
0.0
  0
LINE
  5
7A
100
AcDbEntity
  8
0
  6
CONTINUOUS
 62
       3
100
AcDbLine
 10
-115.61337139
 20
-36.5294902
 30
0.0
 11
-115.61337139
 21
41.4705098
 31
0.0
  0
LINE
  5
7B
100
AcDbEntity
  8
0
  6
CONTINUOUS
 62
       3
100
AcDbLine
 10
-74.47665933
 20
-8.68488679
 30
0.0
 11
-74.61225018
 21
-8.49066011
 31
0.0
  0
LINE
  5
7C
100
AcDbEntity
  8
0
  6
CONTINUOUS
 62
       3
100
AcDbLine
 10
-75.97907855
 20
-7.5910846
 30
0.0
 11
-76.21953544
 21
-7.54268344
 31
0.0
  0
LINE
  5
7D
100
AcDbEntity
  8
0
  6
CONTINUOUS
 62
       3
100
AcDbLine
 10
-78.64692537
 20
-11.44155978
 30
0.0
 11
-78.50249674
 21
-11.6289214
 31
0.0
  0
LINE
  5
7E
100
AcDbEntity
  8
0
  6
CONTINUOUS
 62
       3
100
AcDbLine
 10
-76.09827158
 20
-19.96224481
 30
0.0
 11
-75.86210715
 21
-19.90248358
 31
0.0
  0
LINE
  5
7F
100
AcDbEntity
  8
0
  6
CONTINUOUS
 62
       3
100
AcDbLine
 10
-75.02440757
 20
-19.45720577
 30
0.0
 11
-74.84775332
 21
-19.30033029
 31
0.0
  0
LINE
  5
80
100
AcDbEntity
  8
0
  6
CONTINUOUS
 62
       3
100
AcDbLine
 10
-74.54221312
 20
-18.94031519
 30
0.0
 11
-74.41573961
 21
-18.73957645
 31
0.0
  0
LINE
  5
81
100
AcDbEntity
  8
0
  6
CONTINUOUS
 62
       3
100
AcDbLine
 10
-74.93421574
 20
-15.64415885
 30
0.0
 11
-75.11817802
 21
-15.49559702
 31
0.0
  0
LINE
  5
82
100
AcDbEntity
  8
0
  6
CONTINUOUS
 62
       3
100
AcDbLine
 10
-78.82955575
 20
-16.39078307
 30
0.0
 11
-78.92687662
 21
-16.60954078
 31
0.0
  0
LINE
  5
83
100
AcDbEntity
  8
0
  6
CONTINUOUS
 62
       3
100
AcDbLine
 10
-78.16464303
 20
-19.45720577
 30
0.0
 11
-77.97362847
 21
-19.59705928
 31
0.0
  0
LINE
  5
84
100
AcDbEntity
  8
0
  6
CONTINUOUS
 62
       3
100
AcDbLine
 10
-65.61337139
 20
-36.5294902
 30
0.0
 11
-65.61337139
 21
41.4705098
 31
0.0
  0
LINE
  5
85
100
AcDbEntity
  8
0
  6
CONTINUOUS
 62
       3
100
AcDbLine
 10
-76.34271938
 20
-12.50038688
 30
0.0
 11
-76.09827158
 21
-12.46364869
 31
0.0
  0
LINE
  5
86
100
AcDbEntity
  8
0
  6
CONTINUOUS
 62
       3
100
AcDbLine
 10
-76.96912696
 20
-7.54268344
 30
0.0
 11
-77.20968171
 21
-7.5910846
 31
0.0
  0
LINE
  5
87
100
AcDbEntity
  8
0
  6
CONTINUOUS
 62
       3
100
AcDbLine
 10
-78.34133421
 20
-11.80165325
 30
0.0
 11
-78.16464303
 21
-11.95855586
 31
0.0
  0
LINE
  5
88
100
AcDbEntity
  8
0
  6
CONTINUOUS
 62
       3
100
AcDbLine
 10
-78.16464303
 20
-11.95855586
 30
0.0
 11
-77.97362847
 21
-12.09842976
 31
0.0
  0
LINE
  5
89
100
AcDbEntity
  8
0
  6
CONTINUOUS
 62
       3
100
AcDbLine
 10
-75.63543231
 20
-19.82089862
 30
0.0
 11
-75.41945329
 21
-19.71869037
 31
0.0
  0
LINE
  5
8A
100
AcDbEntity
  8
0
  6
CONTINUOUS
 62
       3
100
AcDbLine
 10
-74.15598014
 20
-18.06884072
 30
0.0
 11
-74.11330139
 21
-17.82642377
 31
0.0
  0
LINE
  5
8B
100
AcDbEntity
  8
0
  6
CONTINUOUS
 62
       3
100
AcDbLine
 10
-74.35960473
 20
-16.39078307
 30
0.0
 11
-74.47665933
 21
-16.18366751
 31
0.0
  0
LINE
  5
8C
100
AcDbEntity
  8
0
  6
CONTINUOUS
 62
       3
100
AcDbLine
 10
-76.21953544
 20
-15.04127881
 30
0.0
 11
-76.4676726
 21
-15.01650296
 31
0.0
  0
LINE
  5
8D
100
AcDbEntity
  8
0
  6
CONTINUOUS
 62
       3
100
AcDbLine
 10
-79.07587598
 20
-17.82642377
 30
0.0
 11
-79.03319572
 21
-18.06884072
 31
0.0
  0
LINE
  5
8E
100
AcDbEntity
  8
0
  6
CONTINUOUS
 62
       3
100
AcDbLine
 10
-77.76949577
 20
-19.71869037
 30
0.0
 11
-77.5534502
 21
-19.82089862
 31
0.0
  0
LINE
  5
8F
100
AcDbEntity
  8
0
  6
CONTINUOUS
 62
       3
100
AcDbLine
 10
-74.93421574
 20
-8.14549628
 30
0.0
 11
-75.11817802
 21
-7.99695809
 31
0.0
  0
LINE
  5
90
100
AcDbEntity
  8
0
  6
CONTINUOUS
 62
       3
100
AcDbLine
 10
-77.32669702
 20
-12.40388441
 30
0.0
 11
-77.09044147
 21
-12.46364869
 31
0.0
  0
LINE
  5
91
100
AcDbEntity
  8
0
  6
CONTINUOUS
 62
       3
100
AcDbLine
 10
-76.84588883
 20
-12.50038688
 30
0.0
 11
-76.59424433
 21
-12.51289949
 31
0.0
  0
LINE
  5
92
100
AcDbEntity
  8
0
  6
CONTINUOUS
 62
       3
100
AcDbLine
 10
-74.2622926
 20
-16.60954078
 30
0.0
 11
-74.35960473
 21
-16.39078307
 31
0.0
  0
LINE
  5
93
100
AcDbEntity
  8
0
  6
CONTINUOUS
 62
       3
100
AcDbLine
 10
-77.20968171
 20
-15.08968194
 30
0.0
 11
-77.44133673
 21
-15.16051385
 31
0.0
  0
LINE
  5
94
100
AcDbEntity
  8
0
  6
CONTINUOUS
 62
       3
100
AcDbLine
 10
-77.32669702
 20
-19.90248358
 30
0.0
 11
-77.09044147
 21
-19.96224481
 31
0.0
  0
LINE
  5
95
100
AcDbEntity
  8
0
  6
CONTINUOUS
 62
       3
100
AcDbLine
 10
-66.61337139
 20
-37.5294902
 30
0.0
 11
-114.61337139
 21
-37.5294902
 31
0.0
  0
LINE
  5
96
100
AcDbEntity
  8
0
  6
CONTINUOUS
 62
       3
100
AcDbLine
 10
-75.2153763
 20
-12.09842976
 30
0.0
 11
-75.02440757
 21
-11.95855586
 31
0.0
  0
LINE
  5
97
100
AcDbEntity
  8
0
  6
CONTINUOUS
 62
       3
100
AcDbLine
 10
-74.11330139
 20
-10.32728701
 30
0.0
 11
-74.09458689
 21
-10.07733584
 31
0.0
  0
LINE
  5
98
100
AcDbEntity
  8
0
  6
CONTINUOUS
 62
       3
100
AcDbLine
 10
-74.61225018
 20
-8.49066011
 30
0.0
 11
-74.76517106
 21
-8.31046344
 31
0.0
  0
LINE
  5
99
100
AcDbEntity
  8
0
  6
CONTINUOUS
 62
       3
100
AcDbLine
 10
-76.21953544
 20
-7.54268344
 30
0.0
 11
-76.4676726
 21
-7.5179081
 31
0.0
  0
LINE
  5
9A
100
AcDbEntity
  8
0
  6
CONTINUOUS
 62
       3
100
AcDbLine
 10
-77.44133673
 20
-7.66191213
 30
0.0
 11
-77.66288677
 21
-7.75396653
 31
0.0
  0
LINE
  5
9B
100
AcDbEntity
  8
0
  6
CONTINUOUS
 62
       3
100
AcDbLine
 10
-75.86210715
 20
-19.90248358
 30
0.0
 11
-75.63543231
 21
-19.82089862
 31
0.0
  0
LINE
  5
9C
100
AcDbEntity
  8
0
  6
CONTINUOUS
 62
       3
100
AcDbLine
 10
-78.96775527
 20
-18.30263877
 30
0.0
 11
-78.88075989
 21
-18.52661749
 31
0.0
  0
LINE
  5
9D
100
AcDbEntity
  8
0
  6
CONTINUOUS
 62
       3
100
AcDbLine
 10
-78.88075989
 20
-18.52661749
 30
0.0
 11
-78.77341484
 21
-18.73957645
 31
0.0
  0
LINE
  5
9E
100
AcDbEntity
  8
0
  6
CONTINUOUS
 62
       3
100
AcDbLine
 10
-76.84588883
 20
-19.99898187
 30
0.0
 11
-76.59424433
 21
-20.01149432
 31
0.0
  0
LINE
  5
9F
100
AcDbEntity
  8
0
  6
CONTINUOUS
 62
       3
100
AcDbLine
 10
-76.4676726
 20
-7.5179081
 30
0.0
 11
-76.72087773
 21
-7.5179081
 31
0.0
  0
LINE
  5
A0
100
AcDbEntity
  8
0
  6
CONTINUOUS
 62
       3
100
AcDbLine
 10
-75.11817802
 20
-15.49559702
 30
0.0
 11
-75.31585165
 21
-15.36466989
 31
0.0
  0
LINE
  5
A1
100
AcDbEntity
  8
0
  6
CONTINUOUS
 62
       3
100
AcDbLine
 10
-78.34133421
 20
-19.30033029
 30
0.0
 11
-78.16464303
 21
-19.45720577
 31
0.0
  0
LINE
  5
A2
100
AcDbEntity
  8
0
  6
CONTINUOUS
 62
       3
100
AcDbLine
 10
-77.97362847
 20
-19.59705928
 30
0.0
 11
-77.76949577
 21
-19.71869037
 31
0.0
  0
LINE
  5
A3
100
AcDbEntity
  8
0
  6
CONTINUOUS
 62
       3
100
AcDbLine
 10
-77.87312656
 20
-7.86604835
 30
0.0
 11
-78.07085084
 21
-7.99695809
 31
0.0
  0
LINE
  5
A4
100
AcDbEntity
  8
0
  6
CONTINUOUS
 62
       3
100
AcDbLine
 10
-78.25485437
 20
-8.14549628
 30
0.0
 11
-78.42393188
 21
-8.31046344
 31
0.0
  0
LINE
  5
A5
100
AcDbEntity
  8
0
  6
CONTINUOUS
 62
       3
100
AcDbLine
 10
-77.97362847
 20
-12.09842976
 30
0.0
 11
-77.76949577
 21
-12.22007547
 31
0.0
  0
LINE
  5
A6
100
AcDbEntity
  8
0
  6
CONTINUOUS
 62
       3
100
AcDbLine
 10
-75.52603043
 20
-15.252576
 30
0.0
 11
-75.74750814
 21
-15.16051385
 31
0.0
  0
LINE
  5
A7
100
AcDbEntity
  8
0
  6
CONTINUOUS
 62
       3
100
AcDbLine
 10
-77.09044147
 20
-19.96224481
 30
0.0
 11
-76.84588883
 21
-19.99898187
 31
0.0
  0
LINE
  5
A8
100
AcDbEntity
  8
0
  6
CONTINUOUS
 62
       3
100
AcDbLine
 10
-68.61337139
 20
-34.5294902
 30
0.0
 11
-112.61337139
 21
-34.5294902
 31
0.0
  0
LINE
  5
A9
100
AcDbEntity
  8
0
  6
CONTINUOUS
 62
       3
100
AcDbLine
 10
-75.31585165
 20
-7.86604835
 30
0.0
 11
-75.52603043
 21
-7.75396653
 31
0.0
  0
LINE
  5
AA
100
AcDbEntity
  8
0
  6
CONTINUOUS
 62
       3
100
AcDbLine
 10
-77.66288677
 20
-7.75396653
 30
0.0
 11
-77.87312656
 21
-7.86604835
 31
0.0
  0
LINE
  5
AB
100
AcDbEntity
  8
0
  6
CONTINUOUS
 62
       3
100
AcDbLine
 10
-78.71248783
 20
-8.68488679
 30
0.0
 11
-78.82955575
 21
-8.89194403
 31
0.0
  0
LINE
  5
AC
100
AcDbEntity
  8
0
  6
CONTINUOUS
 62
       3
100
AcDbLine
 10
-75.97907855
 20
-15.08968194
 30
0.0
 11
-76.21953544
 21
-15.04127881
 31
0.0
  0
LINE
  5
AD
100
AcDbEntity
  8
0
  6
CONTINUOUS
 62
       3
100
AcDbLine
 10
-66.61337139
 20
42.4705098
 30
0.0
 11
-114.61337139
 21
42.4705098
 31
0.0
  0
LINE
  5
AE
100
AcDbEntity
  8
0
  6
CONTINUOUS
 62
       3
100
AcDbLine
 10
-76.59424433
 20
-12.51289949
 30
0.0
 11
-76.34271938
 21
-12.50038688
 31
0.0
  0
LINE
  5
AF
100
AcDbEntity
  8
0
  6
CONTINUOUS
 62
       3
100
AcDbLine
 10
-75.63543231
 20
-12.32229351
 30
0.0
 11
-75.41945329
 21
-12.22007547
 31
0.0
  0
LINE
  5
B0
100
AcDbEntity
  8
0
  6
CONTINUOUS
 62
       3
100
AcDbLine
 10
-75.41945329
 20
-12.22007547
 30
0.0
 11
-75.2153763
 21
-12.09842976
 31
0.0
  0
LINE
  5
B1
100
AcDbEntity
  8
0
  6
CONTINUOUS
 62
       3
100
AcDbLine
 10
-75.02440757
 20
-11.95855586
 30
0.0
 11
-74.84775332
 21
-11.80165325
 31
0.0
  0
LINE
  5
B2
100
AcDbEntity
  8
0
  6
CONTINUOUS
 62
       3
100
AcDbLine
 10
-74.54221312
 20
-11.44155978
 30
0.0
 11
-74.41573961
 21
-11.24076789
 31
0.0
  0
LINE
  5
B3
100
AcDbEntity
  8
0
  6
CONTINUOUS
 62
       3
100
AcDbLine
 10
-74.18592916
 20
-9.33975222
 30
0.0
 11
-74.2622926
 21
-9.11063233
 31
0.0
  0
LINE
  5
B4
100
AcDbEntity
  8
0
  6
CONTINUOUS
 62
       3
100
AcDbLine
 10
-79.0574562
 20
-9.57810423
 30
0.0
 11
-79.0883044
 21
-9.82448888
 31
0.0
  0
LINE
  5
B5
100
AcDbEntity
  8
0
  6
CONTINUOUS
 62
       3
100
AcDbLine
 10
-78.77341484
 20
-11.24076789
 30
0.0
 11
-78.64692537
 21
-11.44155978
 31
0.0
  0
LINE
  5
B6
100
AcDbEntity
  8
0
  6
CONTINUOUS
 62
       3
100
AcDbLine
 10
-76.4676726
 20
-15.01650296
 30
0.0
 11
-76.72087773
 21
-15.01650296
 31
0.0
  0
LINE
  5
B7
100
AcDbEntity
  8
0
  6
CONTINUOUS
 62
       3
100
AcDbLine
 10
-77.87312656
 20
-15.36466989
 30
0.0
 11
-78.07085084
 21
-15.49559702
 31
0.0
  0
LINE
  5
B8
100
AcDbEntity
  8
0
  6
CONTINUOUS
 62
       3
100
AcDbLine
 10
-78.77341484
 20
-18.73957645
 30
0.0
 11
-78.64692537
 21
-18.94031519
 31
0.0
  0
LINE
  5
B9
100
AcDbEntity
  8
0
  6
CONTINUOUS
 62
       3
100
AcDbLine
 10
-74.15598014
 20
-10.56980527
 30
0.0
 11
-74.11330139
 21
-10.32728701
 31
0.0
  0
LINE
  5
BA
100
AcDbEntity
  8
0
  6
CONTINUOUS
 62
       3
100
AcDbLine
 10
-76.72087773
 20
-7.5179081
 30
0.0
 11
-76.96912696
 21
-7.54268344
 31
0.0
  0
LINE
  5
BB
100
AcDbEntity
  8
0
  6
CONTINUOUS
 62
       3
100
AcDbLine
 10
-78.42393188
 20
-8.31046344
 30
0.0
 11
-78.57687812
 21
-8.49066011
 31
0.0
  0
LINE
  5
BC
100
AcDbEntity
  8
0
  6
CONTINUOUS
 62
       3
100
AcDbLine
 10
-79.03319572
 20
-10.56980527
 30
0.0
 11
-78.96775527
 21
-10.80369116
 31
0.0
  0
LINE
  5
BD
100
AcDbEntity
  8
0
  6
CONTINUOUS
 62
       3
100
AcDbLine
 10
-78.88075989
 20
-11.02774519
 30
0.0
 11
-78.77341484
 21
-11.24076789
 31
0.0
  0
LINE
  5
BE
100
AcDbEntity
  8
0
  6
CONTINUOUS
 62
       3
100
AcDbLine
 10
-74.84775332
 20
-19.30033029
 30
0.0
 11
-74.68661976
 21
-19.12763329
 31
0.0
  0
LINE
  5
BF
100
AcDbEntity
  8
0
  6
CONTINUOUS
 62
       3
100
AcDbLine
 10
-74.47665933
 20
-16.18366751
 30
0.0
 11
-74.61225018
 21
-15.98939261
 31
0.0
  0
LINE
  5
C0
100
AcDbEntity
  8
0
  6
CONTINUOUS
 62
       3
100
AcDbLine
 10
-74.61225018
 20
-15.98939261
 30
0.0
 11
-74.76517106
 21
-15.80915689
 31
0.0
  0
LINE
  5
C1
100
AcDbEntity
  8
0
  6
CONTINUOUS
 62
       3
100
AcDbLine
 10
-76.96912696
 20
-15.04127881
 30
0.0
 11
-77.20968171
 21
-15.08968194
 31
0.0
  0
LINE
  5
C2
100
AcDbEntity
  8
0
  6
CONTINUOUS
 62
       3
100
AcDbLine
 10
-78.57687812
 20
-15.98939261
 30
0.0
 11
-78.71248783
 21
-16.18366751
 31
0.0
  0
LINE
  5
C3
100
AcDbEntity
  8
0
  6
CONTINUOUS
 62
       3
100
AcDbLine
 10
-79.09459079
 20
-17.57658838
 30
0.0
 11
-79.07587598
 21
-17.82642377
 31
0.0
  0
LINE
  5
C4
100
AcDbEntity
  8
0
  6
CONTINUOUS
 62
       3
100
AcDbLine
 10
3.45273713
 20
42.45911113
 30
0.0
 11
3.45273713
 21
-37.51809154
 31
0.0
  0
LINE
  5
C5
100
AcDbEntity
  8
0
  6
CONTINUOUS
 62
       3
100
AcDbLine
 10
101.44165854
 20
-39.59496735
 30
0.0
 11
101.44165854
 21
44.51273255
 31
0.0
  0
LINE
  5
C6
100
AcDbEntity
  8
0
  6
CONTINUOUS
 62
       3
100
AcDbLine
 10
-1.55834146
 20
-36.5294902
 30
0.0
 11
-1.55834146
 21
41.4705098
 31
0.0
  0
LINE
  5
C7
100
AcDbEntity
  8
0
  6
CONTINUOUS
 62
       3
100
AcDbLine
 10
101.44165854
 20
42.4705098
 30
0.0
 11
-0.55834146
 21
42.4705098
 31
0.0
  0
LINE
  5
C8
100
AcDbEntity
  8
0
  6
CONTINUOUS
 62
       3
100
AcDbLine
 10
101.44165854
 20
-37.5294902
 30
0.0
 11
-0.55834146
 21
-37.5294902
 31
0.0
  0
ARC
  5
C9
100
AcDbEntity
  8
0
  6
CONTINUOUS
 62
       3
100
AcDbCircle
 10
-0.55834146
 20
-36.5294902
 30
0.0
 40
1.0
100
AcDbArc
 50
180.0
 51
270.0
  0
ARC
  5
CA
100
AcDbEntity
  8
0
  6
CONTINUOUS
 62
       3
100
AcDbCircle
 10
-0.55834146
 20
41.4705098
 30
0.0
 40
1.0
100
AcDbArc
 50
90.0
 51
180.0
  0
ARC
  5
CB
100
AcDbEntity
  8
0
  6
CONTINUOUS
 62
       3
100
AcDbCircle
 10
-114.61337139
 20
41.4705098
 30
0.0
 40
1.0
100
AcDbArc
 50
90.0
 51
180.0
  0
ARC
  5
CC
100
AcDbEntity
  8
0
  6
CONTINUOUS
 62
       3
100
AcDbCircle
 10
-114.61337139
 20
-36.5294902
 30
0.0
 40
1.0
100
AcDbArc
 50
180.0
 51
270.0
  0
ARC
  5
CD
100
AcDbEntity
  8
0
  6
CONTINUOUS
 62
       3
100
AcDbCircle
 10
-66.61337139
 20
-36.5294902
 30
0.0
 40
1.0
100
AcDbArc
 50
270.0
 51
360.0
  0
ARC
  5
CE
100
AcDbEntity
  8
0
  6
CONTINUOUS
 62
       3
100
AcDbCircle
 10
-66.61337139
 20
41.4705098
 30
0.0
 40
1.0
100
AcDbArc
 50
0.0
 51
90.0
  0
LINE
  5
CF
100
AcDbEntity
  8
レイヤー_1
  6
CONTINUOUS
 62
       3
100
AcDbLine
 10
92.57934485
 20
-39.59496735
 30
0.0
 11
101.44165854
 21
-39.59496735
 31
0.0
  0
LINE
  5
D0
100
AcDbEntity
  8
レイヤー_1
  6
CONTINUOUS
 62
       3
100
AcDbLine
 10
92.57947539
 20
44.51273255
 30
0.0
 11
101.44165854
 21
44.51273255
 31
0.0
  0
LINE
  5
D1
100
AcDbEntity
  8
レイヤー_1
  6
CONTINUOUS
 62
       3
100
AcDbLine
 10
92.4275662
 20
42.49132278
 30
0.0
 11
92.3267684
 21
42.49656073
 31
0.0
  0
LINE
  5
D2
100
AcDbEntity
  8
レイヤー_1
  6
CONTINUOUS
 62
       3
100
AcDbLine
 10
92.3267684
 20
42.49656073
 30
0.0
 11
92.22885457
 21
42.51191489
 31
0.0
  0
LINE
  5
D3
100
AcDbEntity
  8
レイヤー_1
  6
CONTINUOUS
 62
       3
100
AcDbLine
 10
92.22885457
 20
42.51191489
 30
0.0
 11
92.13430163
 21
42.53684576
 31
0.0
  0
LINE
  5
D4
100
AcDbEntity
  8
レイヤー_1
  6
CONTINUOUS
 62
       3
100
AcDbLine
 10
92.13430163
 20
42.53684576
 30
0.0
 11
92.04358648
 21
42.57081379
 31
0.0
  0
LINE
  5
D5
100
AcDbEntity
  8
レイヤー_1
  6
CONTINUOUS
 62
       3
100
AcDbLine
 10
92.04358648
 20
42.57081379
 30
0.0
 11
91.957186
 21
42.61327947
 31
0.0
  0
LINE
  5
D6
100
AcDbEntity
  8
レイヤー_1
  6
CONTINUOUS
 62
       3
100
AcDbLine
 10
91.957186
 20
42.61327947
 30
0.0
 11
91.87557711
 21
42.66370327
 31
0.0
  0
LINE
  5
D7
100
AcDbEntity
  8
レイヤー_1
  6
CONTINUOUS
 62
       3
100
AcDbLine
 10
91.87557711
 20
42.66370327
 30
0.0
 11
91.79923671
 21
42.72154568
 31
0.0
  0
LINE
  5
D8
100
AcDbEntity
  8
レイヤー_1
  6
CONTINUOUS
 62
       3
100
AcDbLine
 10
91.79923671
 20
42.72154568
 30
0.0
 11
91.72864169
 21
42.78626716
 31
0.0
  0
LINE
  5
D9
100
AcDbEntity
  8
レイヤー_1
  6
CONTINUOUS
 62
       3
100
AcDbLine
 10
91.72864169
 20
42.78626716
 30
0.0
 11
91.66426895
 21
42.85732819
 31
0.0
  0
LINE
  5
DA
100
AcDbEntity
  8
レイヤー_1
  6
CONTINUOUS
 62
       3
100
AcDbLine
 10
91.66426895
 20
42.85732819
 30
0.0
 11
91.6065954
 21
42.93418925
 31
0.0
  0
LINE
  5
DB
100
AcDbEntity
  8
レイヤー_1
  6
CONTINUOUS
 62
       3
100
AcDbLine
 10
91.6065954
 20
42.93418925
 30
0.0
 11
91.55609793
 21
43.01631082
 31
0.0
  0
LINE
  5
DC
100
AcDbEntity
  8
レイヤー_1
  6
CONTINUOUS
 62
       3
100
AcDbLine
 10
91.55609793
 20
43.01631082
 30
0.0
 11
91.51325345
 21
43.10315337
 31
0.0
  0
LINE
  5
DD
100
AcDbEntity
  8
レイヤー_1
  6
CONTINUOUS
 62
       3
100
AcDbLine
 10
91.51325345
 20
43.10315337
 30
0.0
 11
91.47853886
 21
43.19417738
 31
0.0
  0
LINE
  5
DE
100
AcDbEntity
  8
レイヤー_1
  6
CONTINUOUS
 62
       3
100
AcDbLine
 10
91.47853886
 20
43.19417738
 30
0.0
 11
91.45243105
 21
43.28884332
 31
0.0
  0
LINE
  5
DF
100
AcDbEntity
  8
レイヤー_1
  6
CONTINUOUS
 62
       3
100
AcDbLine
 10
91.45243105
 20
43.28884332
 30
0.0
 11
91.43540693
 21
43.38661167
 31
0.0
  0
LINE
  5
E0
100
AcDbEntity
  8
レイヤー_1
  6
CONTINUOUS
 62
       3
100
AcDbLine
 10
91.43540693
 20
43.38661167
 30
0.0
 11
91.42794339
 21
43.48694291
 31
0.0
  0
LINE
  5
E1
100
AcDbEntity
  8
レイヤー_1
  6
CONTINUOUS
 62
       3
100
AcDbLine
 10
91.42762724
 20
43.49046157
 30
0.0
 11
91.42888689
 21
43.54119236
 31
0.0
  0
LINE
  5
E2
100
AcDbEntity
  8
レイヤー_1
  6
CONTINUOUS
 62
       3
100
AcDbLine
 10
91.42888689
 20
43.54119236
 30
0.0
 11
91.43878528
 21
43.64108268
 31
0.0
  0
LINE
  5
E3
100
AcDbEntity
  8
レイヤー_1
  6
CONTINUOUS
 62
       3
100
AcDbLine
 10
91.43878528
 20
43.64108268
 30
0.0
 11
91.45812503
 21
43.73826544
 31
0.0
  0
LINE
  5
E4
100
AcDbEntity
  8
レイヤー_1
  6
CONTINUOUS
 62
       3
100
AcDbLine
 10
91.45812503
 20
43.73826544
 30
0.0
 11
91.48642925
 21
43.83220113
 31
0.0
  0
LINE
  5
E5
100
AcDbEntity
  8
レイヤー_1
  6
CONTINUOUS
 62
       3
100
AcDbLine
 10
91.48642925
 20
43.83220113
 30
0.0
 11
91.52322103
 21
43.92235022
 31
0.0
  0
LINE
  5
E6
100
AcDbEntity
  8
レイヤー_1
  6
CONTINUOUS
 62
       3
100
AcDbLine
 10
91.52322103
 20
43.92235022
 30
0.0
 11
91.56802346
 21
44.00817318
 31
0.0
  0
LINE
  5
E7
100
AcDbEntity
  8
レイヤー_1
  6
CONTINUOUS
 62
       3
100
AcDbLine
 10
91.56802346
 20
44.00817318
 30
0.0
 11
91.62035966
 21
44.0891305
 31
0.0
  0
LINE
  5
E8
100
AcDbEntity
  8
レイヤー_1
  6
CONTINUOUS
 62
       3
100
AcDbLine
 10
91.62035966
 20
44.0891305
 30
0.0
 11
91.67975272
 21
44.16468265
 31
0.0
  0
LINE
  5
E9
100
AcDbEntity
  8
レイヤー_1
  6
CONTINUOUS
 62
       3
100
AcDbLine
 10
91.67975272
 20
44.16468265
 30
0.0
 11
91.74572573
 21
44.2342901
 31
0.0
  0
LINE
  5
EA
100
AcDbEntity
  8
レイヤー_1
  6
CONTINUOUS
 62
       3
100
AcDbLine
 10
91.74572573
 20
44.2342901
 30
0.0
 11
91.81780181
 21
44.29741333
 31
0.0
  0
LINE
  5
EB
100
AcDbEntity
  8
レイヤー_1
  6
CONTINUOUS
 62
       3
100
AcDbLine
 10
91.81780181
 20
44.29741333
 30
0.0
 11
91.89550405
 21
44.35351282
 31
0.0
  0
LINE
  5
EC
100
AcDbEntity
  8
レイヤー_1
  6
CONTINUOUS
 62
       3
100
AcDbLine
 10
91.89550405
 20
44.35351282
 30
0.0
 11
91.97835554
 21
44.40204904
 31
0.0
  0
LINE
  5
ED
100
AcDbEntity
  8
レイヤー_1
  6
CONTINUOUS
 62
       3
100
AcDbLine
 10
91.97835554
 20
44.40204904
 30
0.0
 11
92.06587939
 21
44.44248248
 31
0.0
  0
LINE
  5
EE
100
AcDbEntity
  8
レイヤー_1
  6
CONTINUOUS
 62
       3
100
AcDbLine
 10
92.06587939
 20
44.44248248
 30
0.0
 11
92.15759871
 21
44.4742736
 31
0.0
  0
LINE
  5
EF
100
AcDbEntity
  8
レイヤー_1
  6
CONTINUOUS
 62
       3
100
AcDbLine
 10
92.15759871
 20
44.4742736
 30
0.0
 11
92.25303658
 21
44.49688288
 31
0.0
  0
LINE
  5
F0
100
AcDbEntity
  8
レイヤー_1
  6
CONTINUOUS
 62
       3
100
AcDbLine
 10
92.25303658
 20
44.49688288
 30
0.0
 11
92.3517161
 21
44.50977081
 31
0.0
  0
LINE
  5
F1
100
AcDbEntity
  8
レイヤー_1
  6
CONTINUOUS
 62
       3
100
AcDbLine
 10
92.3517161
 20
44.50977081
 30
0.0
 11
92.43390533
 21
44.51273255
 31
0.0
  0
LINE
  5
F2
100
AcDbEntity
  8
レイヤー_1
  6
CONTINUOUS
 62
       3
100
AcDbLine
 10
92.43390533
 20
44.51273255
 30
0.0
 11
92.57947539
 21
44.51273255
 31
0.0
  0
LINE
  5
F3
100
AcDbEntity
  8
レイヤー_1
  6
CONTINUOUS
 62
       3
100
AcDbLine
 10
92.4275662
 20
-37.5726963
 30
0.0
 11
92.3267684
 21
-37.57794374
 31
0.0
  0
LINE
  5
F4
100
AcDbEntity
  8
レイヤー_1
  6
CONTINUOUS
 62
       3
100
AcDbLine
 10
92.3267684
 20
-37.57794374
 30
0.0
 11
92.22885457
 21
-37.59332515
 31
0.0
  0
LINE
  5
F5
100
AcDbEntity
  8
レイヤー_1
  6
CONTINUOUS
 62
       3
100
AcDbLine
 10
92.22885457
 20
-37.59332515
 30
0.0
 11
92.13430163
 21
-37.61829922
 31
0.0
  0
LINE
  5
F6
100
AcDbEntity
  8
レイヤー_1
  6
CONTINUOUS
 62
       3
100
AcDbLine
 10
92.13430163
 20
-37.61829922
 30
0.0
 11
92.04358648
 21
-37.6523246
 31
0.0
  0
LINE
  5
F7
100
AcDbEntity
  8
レイヤー_1
  6
CONTINUOUS
 62
       3
100
AcDbLine
 10
92.04358648
 20
-37.6523246
 30
0.0
 11
91.957186
 21
-37.69485998
 31
0.0
  0
LINE
  5
F8
100
AcDbEntity
  8
レイヤー_1
  6
CONTINUOUS
 62
       3
100
AcDbLine
 10
91.957186
 20
-37.69485998
 30
0.0
 11
91.87557711
 21
-37.74536402
 31
0.0
  0
LINE
  5
F9
100
AcDbEntity
  8
レイヤー_1
  6
CONTINUOUS
 62
       3
100
AcDbLine
 10
91.87557711
 20
-37.74536402
 30
0.0
 11
91.79923671
 21
-37.80329539
 31
0.0
  0
LINE
  5
FA
100
AcDbEntity
  8
レイヤー_1
  6
CONTINUOUS
 62
       3
100
AcDbLine
 10
91.79923671
 20
-37.80329539
 30
0.0
 11
91.72864169
 21
-37.86811277
 31
0.0
  0
LINE
  5
FB
100
AcDbEntity
  8
レイヤー_1
  6
CONTINUOUS
 62
       3
100
AcDbLine
 10
91.72864169
 20
-37.86811277
 30
0.0
 11
91.66426895
 21
-37.93927481
 31
0.0
  0
LINE
  5
FC
100
AcDbEntity
  8
レイヤー_1
  6
CONTINUOUS
 62
       3
100
AcDbLine
 10
91.66426895
 20
-37.93927481
 30
0.0
 11
91.6065954
 21
-38.01624019
 31
0.0
  0
LINE
  5
FD
100
AcDbEntity
  8
レイヤー_1
  6
CONTINUOUS
 62
       3
100
AcDbLine
 10
91.6065954
 20
-38.01624019
 30
0.0
 11
91.55609793
 21
-38.09846759
 31
0.0
  0
LINE
  5
FE
100
AcDbEntity
  8
レイヤー_1
  6
CONTINUOUS
 62
       3
100
AcDbLine
 10
91.55609793
 20
-38.09846759
 30
0.0
 11
91.51325345
 21
-38.18541566
 31
0.0
  0
LINE
  5
FF
100
AcDbEntity
  8
レイヤー_1
  6
CONTINUOUS
 62
       3
100
AcDbLine
 10
91.51325345
 20
-38.18541566
 30
0.0
 11
91.47853886
 21
-38.27654309
 31
0.0
  0
LINE
  5
100
100
AcDbEntity
  8
レイヤー_1
  6
CONTINUOUS
 62
       3
100
AcDbLine
 10
91.47853886
 20
-38.27654309
 30
0.0
 11
91.45243105
 21
-38.37130854
 31
0.0
  0
LINE
  5
101
100
AcDbEntity
  8
レイヤー_1
  6
CONTINUOUS
 62
       3
100
AcDbLine
 10
91.45243105
 20
-38.37130854
 30
0.0
 11
91.43540693
 21
-38.46917068
 31
0.0
  0
LINE
  5
102
100
AcDbEntity
  8
レイヤー_1
  6
CONTINUOUS
 62
       3
100
AcDbLine
 10
91.43540693
 20
-38.46917068
 30
0.0
 11
91.42794339
 21
-38.56958817
 31
0.0
  0
LINE
  5
103
100
AcDbEntity
  8
レイヤー_1
  6
CONTINUOUS
 62
       3
100
AcDbLine
 10
91.42762724
 20
-38.57269756
 30
0.0
 11
91.42888689
 21
-38.62335247
 31
0.0
  0
LINE
  5
104
100
AcDbEntity
  8
レイヤー_1
  6
CONTINUOUS
 62
       3
100
AcDbLine
 10
91.42888689
 20
-38.62335247
 30
0.0
 11
91.43878528
 21
-38.72312097
 31
0.0
  0
LINE
  5
105
100
AcDbEntity
  8
レイヤー_1
  6
CONTINUOUS
 62
       3
100
AcDbLine
 10
91.43878528
 20
-38.72312097
 30
0.0
 11
91.45812503
 21
-38.82021563
 31
0.0
  0
LINE
  5
106
100
AcDbEntity
  8
レイヤー_1
  6
CONTINUOUS
 62
       3
100
AcDbLine
 10
91.45812503
 20
-38.82021563
 30
0.0
 11
91.48642925
 21
-38.91409333
 31
0.0
  0
LINE
  5
107
100
AcDbEntity
  8
レイヤー_1
  6
CONTINUOUS
 62
       3
100
AcDbLine
 10
91.48642925
 20
-38.91409333
 30
0.0
 11
91.52322103
 21
-39.00421092
 31
0.0
  0
LINE
  5
108
100
AcDbEntity
  8
レイヤー_1
  6
CONTINUOUS
 62
       3
100
AcDbLine
 10
91.52322103
 20
-39.00421092
 30
0.0
 11
91.56802346
 21
-39.09002526
 31
0.0
  0
LINE
  5
109
100
AcDbEntity
  8
レイヤー_1
  6
CONTINUOUS
 62
       3
100
AcDbLine
 10
91.56802346
 20
-39.09002526
 30
0.0
 11
91.62035966
 21
-39.17099323
 31
0.0
  0
LINE
  5
10A
100
AcDbEntity
  8
レイヤー_1
  6
CONTINUOUS
 62
       3
100
AcDbLine
 10
91.62035966
 20
-39.17099323
 30
0.0
 11
91.67975272
 21
-39.24657168
 31
0.0
  0
LINE
  5
10B
100
AcDbEntity
  8
レイヤー_1
  6
CONTINUOUS
 62
       3
100
AcDbLine
 10
91.67975272
 20
-39.24657168
 30
0.0
 11
91.74572573
 21
-39.31621748
 31
0.0
  0
LINE
  5
10C
100
AcDbEntity
  8
レイヤー_1
  6
CONTINUOUS
 62
       3
100
AcDbLine
 10
91.74572573
 20
-39.31621748
 30
0.0
 11
91.81780181
 21
-39.37938749
 31
0.0
  0
LINE
  5
10D
100
AcDbEntity
  8
レイヤー_1
  6
CONTINUOUS
 62
       3
100
AcDbLine
 10
91.81780181
 20
-39.37938749
 30
0.0
 11
91.89550405
 21
-39.43553858
 31
0.0
  0
LINE
  5
10E
100
AcDbEntity
  8
レイヤー_1
  6
CONTINUOUS
 62
       3
100
AcDbLine
 10
91.89550405
 20
-39.43553858
 30
0.0
 11
91.97835554
 21
-39.4841276
 31
0.0
  0
LINE
  5
10F
100
AcDbEntity
  8
レイヤー_1
  6
CONTINUOUS
 62
       3
100
AcDbLine
 10
91.97835554
 20
-39.4841276
 30
0.0
 11
92.06587939
 21
-39.52461143
 31
0.0
  0
LINE
  5
110
100
AcDbEntity
  8
レイヤー_1
  6
CONTINUOUS
 62
       3
100
AcDbLine
 10
92.06587939
 20
-39.52461143
 30
0.0
 11
92.15759871
 21
-39.55644692
 31
0.0
  0
LINE
  5
111
100
AcDbEntity
  8
レイヤー_1
  6
CONTINUOUS
 62
       3
100
AcDbLine
 10
92.15759871
 20
-39.55644692
 30
0.0
 11
92.25303658
 21
-39.57909094
 31
0.0
  0
LINE
  5
112
100
AcDbEntity
  8
レイヤー_1
  6
CONTINUOUS
 62
       3
100
AcDbLine
 10
92.25303658
 20
-39.57909094
 30
0.0
 11
92.3517161
 21
-39.59200036
 31
0.0
  0
LINE
  5
113
100
AcDbEntity
  8
レイヤー_1
  6
CONTINUOUS
 62
       3
100
AcDbLine
 10
92.3517161
 20
-39.59200036
 30
0.0
 11
92.43389988
 21
-39.59496735
 31
0.0
  0
LINE
  5
114
100
AcDbEntity
  8
レイヤー_1
  6
CONTINUOUS
 62
       3
100
AcDbLine
 10
92.43389988
 20
-39.59496735
 30
0.0
 11
92.57934485
 21
-39.59496735
 31
0.0
  0
LINE
  5
115
100
AcDbEntity
  8
レイヤー_1
  6
CONTINUOUS
 62
       3
100
AcDbLine
 10
-68.48509245
 20
-23.28846915
 30
0.0
 11
-112.74165033
 21
-23.28846915
 31
0.0
  0
LINE
  5
116
100
AcDbEntity
  8
レイヤー_1
  6
CONTINUOUS
 62
       3
100
AcDbLine
 10
-68.48509245
 20
28.68682517
 30
0.0
 11
-112.74165033
 21
28.68682517
 31
0.0
  0
LINE
  5
117
100
AcDbEntity
  8
レイヤー_1
  6
CONTINUOUS
 62
       3
100
AcDbLine
 10
101.46405166
 20
-1.12186352
 30
0.0
 11
109.46442465
 21
-1.12186352
 31
0.0
  0
LINE
  5
118
100
AcDbEntity
  8
レイヤー_1
  6
CONTINUOUS
 62
       3
100
AcDbLine
 10
109.46442465
 20
-1.12186352
 30
0.0
 11
109.46442465
 21
5.87813987
 31
0.0
  0
LINE
  5
119
100
AcDbEntity
  8
レイヤー_1
  6
CONTINUOUS
 62
       3
100
AcDbLine
 10
109.46442465
 20
5.87813987
 30
0.0
 11
101.46405166
 21
5.87813987
 31
0.0
  0
LINE
  5
11A
100
AcDbEntity
  8
レイヤー_1
  6
CONTINUOUS
 62
       3
100
AcDbLine
 10
106.89696724
 20
-2.09467236
 30
0.0
 11
108.69702963
 21
-2.09467236
 31
0.0
  0
LINE
  5
11B
100
AcDbEntity
  8
レイヤー_1
  6
CONTINUOUS
 62
       3
100
AcDbLine
 10
108.69702963
 20
-2.09467236
 30
0.0
 11
108.69702963
 21
-1.09473339
 31
0.0
  0
LINE
  5
11C
100
AcDbEntity
  8
レイヤー_1
  6
CONTINUOUS
 62
       3
100
AcDbLine
 10
108.69702963
 20
-1.09473339
 30
0.0
 11
106.89696724
 21
-1.09473339
 31
0.0
  0
LINE
  5
11D
100
AcDbEntity
  8
レイヤー_1
  6
CONTINUOUS
 62
       3
100
AcDbLine
 10
106.89696724
 20
-1.09473339
 30
0.0
 11
106.89696724
 21
-2.09467236
 31
0.0
  0
LINE
  5
11E
100
AcDbEntity
  8
レイヤー_1
  6
CONTINUOUS
 62
       3
100
AcDbLine
 10
101.43993599
 20
9.41840612
 30
0.0
 11
106.94003093
 21
9.41840612
 31
0.0
  0
LINE
  5
11F
100
AcDbEntity
  8
レイヤー_1
  6
CONTINUOUS
 62
       3
100
AcDbLine
 10
106.94003093
 20
9.41840612
 30
0.0
 11
106.94003093
 21
11.41828405
 31
0.0
  0
LINE
  5
120
100
AcDbEntity
  8
レイヤー_1
  6
CONTINUOUS
 62
       3
100
AcDbLine
 10
106.94003093
 20
11.41828405
 30
0.0
 11
101.43993599
 21
11.41828405
 31
0.0
  0
LINE
  5
121
100
AcDbEntity
  8
レイヤー_1
  6
CONTINUOUS
 62
       3
100
AcDbLine
 10
101.43993599
 20
5.65420866
 30
0.0
 11
106.94003093
 21
5.65420866
 31
0.0
  0
LINE
  5
122
100
AcDbEntity
  8
レイヤー_1
  6
CONTINUOUS
 62
       3
100
AcDbLine
 10
106.94003093
 20
5.65420866
 30
0.0
 11
106.94003093
 21
7.65451723
 31
0.0
  0
LINE
  5
123
100
AcDbEntity
  8
レイヤー_1
  6
CONTINUOUS
 62
       3
100
AcDbLine
 10
106.94003093
 20
7.65451723
 30
0.0
 11
101.43993599
 21
7.65451723
 31
0.0
  0
LINE
  5
124
100
AcDbEntity
  8
レイヤー_1
  6
CONTINUOUS
 62
       3
100
AcDbLine
 10
101.43993599
 20
-2.84613381
 30
0.0
 11
106.94003093
 21
-2.84613381
 31
0.0
  0
LINE
  5
125
100
AcDbEntity
  8
レイヤー_1
  6
CONTINUOUS
 62
       3
100
AcDbLine
 10
106.94003093
 20
-2.84613381
 30
0.0
 11
106.94003093
 21
-0.84582524
 31
0.0
  0
LINE
  5
126
100
AcDbEntity
  8
レイヤー_1
  6
CONTINUOUS
 62
       3
100
AcDbLine
 10
106.94003093
 20
-0.84582524
 30
0.0
 11
101.43993599
 21
-0.84582524
 31
0.0
  0
LINE
  5
127
100
AcDbEntity
  8
レイヤー_1
  6
CONTINUOUS
 62
       3
100
AcDbLine
 10
101.43993599
 20
-6.59353642
 30
0.0
 11
106.94003093
 21
-6.59353642
 31
0.0
  0
LINE
  5
128
100
AcDbEntity
  8
レイヤー_1
  6
CONTINUOUS
 62
       3
100
AcDbLine
 10
106.94003093
 20
-6.59353642
 30
0.0
 11
106.94003093
 21
-4.59322786
 31
0.0
  0
LINE
  5
129
100
AcDbEntity
  8
レイヤー_1
  6
CONTINUOUS
 62
       3
100
AcDbLine
 10
106.94003093
 20
-4.59322786
 30
0.0
 11
101.43993599
 21
-4.59322786
 31
0.0
  0
LINE
  5
12A
100
AcDbEntity
  8
レイヤー_1
  6
CONTINUOUS
 62
       3
100
AcDbLine
 10
-88.45415779
 20
-39.49333703
 30
0.0
 11
-85.45347963
 21
-39.49333703
 31
0.0
  0
LINE
  5
12B
100
AcDbEntity
  8
レイヤー_1
  6
CONTINUOUS
 62
       3
100
AcDbLine
 10
-85.45347963
 20
-39.49333703
 30
0.0
 11
-85.45347963
 21
-37.49345911
 31
0.0
  0
LINE
  5
12C
100
AcDbEntity
  8
レイヤー_1
  6
CONTINUOUS
 62
       3
100
AcDbLine
 10
-85.45347963
 20
-37.49345911
 30
0.0
 11
-88.45415779
 21
-37.49345911
 31
0.0
  0
LINE
  5
12D
100
AcDbEntity
  8
レイヤー_1
  6
CONTINUOUS
 62
       3
100
AcDbLine
 10
-88.45415779
 20
-37.49345911
 30
0.0
 11
-88.45415779
 21
-39.49333703
 31
0.0
  0
LINE
  5
12E
100
AcDbEntity
  8
レイヤー_1
  6
CONTINUOUS
 62
       3
100
AcDbLine
 10
-95.45416118
 20
-39.49333703
 30
0.0
 11
-92.45434429
 21
-39.49333703
 31
0.0
  0
LINE
  5
12F
100
AcDbEntity
  8
レイヤー_1
  6
CONTINUOUS
 62
       3
100
AcDbLine
 10
-92.45434429
 20
-39.49333703
 30
0.0
 11
-92.45434429
 21
-37.49345911
 31
0.0
  0
LINE
  5
130
100
AcDbEntity
  8
レイヤー_1
  6
CONTINUOUS
 62
       3
100
AcDbLine
 10
-92.45434429
 20
-37.49345911
 30
0.0
 11
-95.45416118
 21
-37.49345911
 31
0.0
  0
LINE
  5
131
100
AcDbEntity
  8
レイヤー_1
  6
CONTINUOUS
 62
       3
100
AcDbLine
 10
-95.45416118
 20
-37.49345911
 30
0.0
 11
-95.45416118
 21
-39.49333703
 31
0.0
  0
LINE
  5
132
100
AcDbEntity
  8
レイヤー_1
  6
CONTINUOUS
 62
       3
100
AcDbLine
 10
-88.44769824
 20
42.4857245
 30
0.0
 11
-85.44745071
 21
42.4857245
 31
0.0
  0
LINE
  5
133
100
AcDbEntity
  8
レイヤー_1
  6
CONTINUOUS
 62
       3
100
AcDbLine
 10
-85.44745071
 20
42.4857245
 30
0.0
 11
-85.44745071
 21
44.48603306
 31
0.0
  0
LINE
  5
134
100
AcDbEntity
  8
レイヤー_1
  6
CONTINUOUS
 62
       3
100
AcDbLine
 10
-85.44745071
 20
44.48603306
 30
0.0
 11
-88.44769824
 21
44.48603306
 31
0.0
  0
LINE
  5
135
100
AcDbEntity
  8
レイヤー_1
  6
CONTINUOUS
 62
       3
100
AcDbLine
 10
-88.44769824
 20
44.48603306
 30
0.0
 11
-88.44769824
 21
42.4857245
 31
0.0
  0
LINE
  5
136
100
AcDbEntity
  8
レイヤー_1
  6
CONTINUOUS
 62
       3
100
AcDbLine
 10
-95.44770163
 20
42.4857245
 30
0.0
 11
-92.4474541
 21
42.4857245
 31
0.0
  0
LINE
  5
137
100
AcDbEntity
  8
レイヤー_1
  6
CONTINUOUS
 62
       3
100
AcDbLine
 10
-92.4474541
 20
42.4857245
 30
0.0
 11
-92.4474541
 21
44.48603306
 31
0.0
  0
LINE
  5
138
100
AcDbEntity
  8
レイヤー_1
  6
CONTINUOUS
 62
       3
100
AcDbLine
 10
-92.4474541
 20
44.48603306
 30
0.0
 11
-95.44770163
 21
44.48603306
 31
0.0
  0
LINE
  5
139
100
AcDbEntity
  8
レイヤー_1
  6
CONTINUOUS
 62
       3
100
AcDbLine
 10
-95.44770163
 20
44.48603306
 30
0.0
 11
-95.44770163
 21
42.4857245
 31
0.0
  0
LINE
  5
13A
100
AcDbEntity
  8
レイヤー_1
  6
CENTERX2
 62
       3
100
AcDbLine
 10
-90.61337139
 20
50.34494032
 30
0.0
 11
-90.61337139
 21
-50.34494032
 31
0.0
  0
LINE
  5
13B
100
AcDbEntity
  8
レイヤー_1
  6
CENTERX2
 62
       3
100
AcDbLine
 10
-59.61939093
 20
2.4705098
 30
0.0
 11
-120.29149849
 21
2.4705098
 31
0.0
  0
LINE
  5
13C
100
AcDbEntity
  8
レイヤー_1
  6
CENTERX2
 62
       3
100
AcDbLine
 10
-12.32611521
 20
2.4705098
 30
0.0
 11
120.29149849
 21
2.4705098
 31
0.0
  0
TEXT
  5
13D
100
AcDbEntity
  8
0
 62
       7
100
AcDbText
 10
73.25044661
 20
-74.45751493
 30
0.0
 40
8.0
  1
000
 41
0.8
 72
       5
 11
92.45044661
 21
-74.45751493
 31
0.0
100
AcDbText
  0
ENDSEC
  0
SECTION
  2
OBJECTS
  0
DICTIONARY
  5
19
100
AcDbDictionary
  3
ACAD_GROUP
350
1A
  3
ACAD_MLINESTYLE
350
1B
  0
DICTIONARY
  5
1A
102
{ACAD_REACTORS
330
19
102
}
100
AcDbDictionary
  0
DICTIONARY
  5
1B
102
{ACAD_REACTORS
330
19
102
}
100
AcDbDictionary
  3
STANDARD
350
1C
  0
MLINESTYLE
  5
1C
102
{ACAD_REACTORS
330
1B
102
}
100
AcDbMlineStyle
  2
STANDARD
 70
       0
  3

 62
       0
 51
90.0
 52
90.0
 71
       2
 49
0.5
 62
     256
  6
BYLAYER
 49
-0.5
 62
     256
  6
BYLAYER
  0
ENDSEC
  0
EOF
