  0
SECTION
  2
HEADER
  9
$ACADVER
  1
AC1014
  9
$ACADMAINTVER
 70
       0
  9
$DWGCODEPAGE
  3
ANSI_932
  9
$INSBASE
 10
0.0
 20
0.0
 30
0.0
  9
$EXTMIN
 10
-128.86547069
 20
-51.09006655
 30
0.0
  9
$EXTMAX
 10
128.86547069
 20
48.59006655
 30
0.0
  9
$LIMMIN
 10
-136.91956261
 20
-54.20507071
  9
$LIMMAX
 10
136.91956261
 20
51.70507071
  9
$ORTHOMODE
 70
       0
  9
$REGENMODE
 70
       1
  9
$FILLMODE
 70
       1
  9
$QTEXTMODE
 70
       0
  9
$MIRRTEXT
 70
       1
  9
$DRAGMODE
 70
       2
  9
$LTSCALE
 40
1.0
  9
$OSMODE
 70
       0
  9
$ATTMODE
 70
       1
  9
$TEXTSIZE
 40
0.2
  9
$TRACEWID
 40
0.05
  9
$TEXTSTYLE
  7
STANDARD
  9
$CLAYER
  8
0
  9
$CELTYPE
  6
CONTINUOUS
  9
$CECOLOR
 62
     256
  9
$CELTSCALE
 40
1.0
  9
$DELOBJ
 70
       1
  9
$DISPSILH
 70
       0
  9
$DIMSCALE
 40
1.0
  9
$DIMASZ
 40
0.18
  9
$DIMEXO
 40
0.0625
  9
$DIMDLI
 40
0.38
  9
$DIMRND
 40
0.0
  9
$DIMDLE
 40
0.0
  9
$DIMEXE
 40
0.18
  9
$DIMTP
 40
0.0
  9
$DIMTM
 40
0.0
  9
$DIMTXT
 40
0.18
  9
$DIMCEN
 40
0.09
  9
$DIMTSZ
 40
0.0
  9
$DIMTOL
 70
       0
  9
$DIMLIM
 70
       0
  9
$DIMTIH
 70
       1
  9
$DIMTOH
 70
       1
  9
$DIMSE1
 70
       0
  9
$DIMSE2
 70
       0
  9
$DIMTAD
 70
       0
  9
$DIMZIN
 70
       0
  9
$DIMBLK
  1

  9
$DIMASO
 70
       1
  9
$DIMSHO
 70
       1
  9
$DIMPOST
  1

  9
$DIMAPOST
  1

  9
$DIMALT
 70
       0
  9
$DIMALTD
 70
       2
  9
$DIMALTF
 40
25.4
  9
$DIMLFAC
 40
1.0
  9
$DIMTOFL
 70
       0
  9
$DIMTVP
 40
0.0
  9
$DIMTIX
 70
       0
  9
$DIMSOXD
 70
       0
  9
$DIMSAH
 70
       0
  9
$DIMBLK1
  1

  9
$DIMBLK2
  1

  9
$DIMSTYLE
  2
STANDARD
  9
$DIMCLRD
 70
       0
  9
$DIMCLRE
 70
       0
  9
$DIMCLRT
 70
       0
  9
$DIMTFAC
 40
1.0
  9
$DIMGAP
 40
0.09
  9
$DIMJUST
 70
       0
  9
$DIMSD1
 70
       0
  9
$DIMSD2
 70
       0
  9
$DIMTOLJ
 70
       1
  9
$DIMTZIN
 70
       0
  9
$DIMALTZ
 70
       0
  9
$DIMALTTZ
 70
       0
  9
$DIMFIT
 70
       3
  9
$DIMUPT
 70
       0
  9
$DIMUNIT
 70
       2
  9
$DIMDEC
 70
       4
  9
$DIMTDEC
 70
       4
  9
$DIMALTU
 70
       2
  9
$DIMALTTD
 70
       2
  9
$DIMTXSTY
  7
STANDARD
  9
$DIMAUNIT
 70
       0
  9
$LUNITS
 70
       2
  9
$LUPREC
 70
       4
  9
$SKETCHINC
 40
0.1
  9
$FILLETRAD
 40
0.0
  9
$AUNITS
 70
       0
  9
$AUPREC
 70
       0
  9
$MENU
  1
acad
  9
$ELEVATION
 40
0.0
  9
$PELEVATION
 40
0.0
  9
$THICKNESS
 40
0.0
  9
$LIMCHECK
 70
       0
  9
$BLIPMODE
 70
       1
  9
$CHAMFERA
 40
0.0
  9
$CHAMFERB
 40
0.0
  9
$CHAMFERC
 40
0.0
  9
$CHAMFERD
 40
0.0
  9
$SKPOLY
 70
       0
  9
$TDCREATE
 40
0.000000000
  9
$TDUPDATE
 40
0.000000000
  9
$TDINDWG
 40
0.0000000000
  9
$TDUSRTIMER
 40
0.0000000000
  9
$USRTIMER
 70
       1
  9
$ANGBASE
 50
0.0
  9
$ANGDIR
 70
       0
  9
$PDMODE
 70
       0
  9
$PDSIZE
 40
1.0
  9
$PLINEWID
 40
0.0
  9
$COORDS
 70
       1
  9
$SPLFRAME
 70
       0
  9
$SPLINETYPE
 70
       6
  9
$SPLINESEGS
 70
       8
  9
$ATTDIA
 70
       0
  9
$ATTREQ
 70
       1
  9
$HANDLING
 70
       1
  9
$HANDSEED
  5
3FA
  9
$SURFTAB1
 70
       6
  9
$SURFTAB2
 70
       6
  9
$SURFTYPE
 70
       6
  9
$SURFU
 70
       6
  9
$SURFV
 70
       6
  9
$UCSNAME
  2

  9
$UCSORG
 10
0.0
 20
0.0
 30
0.0
  9
$UCSXDIR
 10
1.0
 20
0.0
 30
0.0
  9
$UCSYDIR
 10
0.0
 20
1.0
 30
0.0
  9
$PUCSNAME
  2

  9
$PUCSORG
 10
0.0
 20
0.0
 30
0.0
  9
$PUCSXDIR
 10
1.0
 20
0.0
 30
0.0
  9
$PUCSYDIR
 10
0.0
 20
1.0
 30
0.0
  9
$USERI1
 70
       0
  9
$USERI2
 70
       0
  9
$USERI3
 70
       0
  9
$USERI4
 70
       0
  9
$USERI5
 70
       0
  9
$USERR1
 40
0.0
  9
$USERR2
 40
0.0
  9
$USERR3
 40
0.0
  9
$USERR4
 40
0.0
  9
$USERR5
 40
0.0
  9
$WORLDVIEW
 70
       1
  9
$SHADEDGE
 70
       3
  9
$SHADEDIF
 70
      70
  9
$TILEMODE
 70
       1
  9
$MAXACTVP
 70
      16
  9
$PINSBASE
 10
0.0
 20
0.0
 30
0.0
  9
$PLIMCHECK
 70
       0
  9
$PEXTMIN
 10
1.00000000E+20
 20
1.00000000E+20
 30
1.00000000E+20
  9
$PEXTMAX
 10
-1.00000000E+20
 20
-1.00000000E+20
 30
-1.00000000E+20
  9
$PLIMMIN
 10
0.0
 20
0.0
  9
$PLIMMAX
 10
12.0
 20
9.0
  9
$UNITMODE
 70
       0
  9
$VISRETAIN
 70
       0
  9
$PLINEGEN
 70
       1
  9
$PSLTSCALE
 70
       0
  9
$TREEDEPTH
 70
    3020
  9
$PICKSTYLE
 70
       1
  9
$CMLSTYLE
  2
STANDARD
  9
$CMLJUST
 70
       0
  9
$CMLSCALE
 40
1.0
  9
$PROXYGRAPHICS
 70
       0
  9
$MEASUREMENT
 70
       0
  0
ENDSEC
  0
SECTION
  2
CLASSES
  0
CLASS
  1
LWPOLYLINE
  2
AcDbPolyline
  3
"AutoCAD"
 90
        0
280
       0
281
       1
  0
CLASS
  1
IMAGE
  2
AcDbRasterImage
  3
ISM
 90
      127
280
       0
281
       1
  0
CLASS
  1
OLE2FRAME
  2
AcDbOle2Frame
  3
""
 90
        0
280
       0
281
       1
  0
CLASS
  1
HATCH
  2
AcDbHatch
  3
"ACAD_SEDONA"
 90
        0
280
       0
281
       1
  0
CLASS
  1
DICTIONARYVAR
  2
AcDbDictionaryVar
  3
"AutoCAD"
 90
        0
280
       0
281
       0
  0
CLASS
  1
RASTERVARIABLES
  2
AcDbRasterVariables
  3
ISM
 90
        0
280
       0
281
       0
  0
CLASS
  1
IMAGEDEF
  2
AcDbRasterImageDef
  3
ISM
 90
        0
280
       0
281
       0
  0
CLASS
  1
IMAGEDEF_REACTOR
  2
AcDbRasterImageDefReactor
  3
ISM
 90
        1
280
       0
281
       0
  0
CLASS
  1
IDBUFFER
  2
AcDbIdBuffer
  3
"Acad"
 90
        0
280
       0
281
       0
  0
CLASS
  1
SPATIAL_FILTER
  2
AcDbSpatialFilter
  3
"Acad"
 90
        0
280
       0
281
       0
  0
CLASS
  1
XRECORD
  2
AcDbXrecord
  3
"<Built In>"
 90
        0
280
       0
281
       0
  0
CLASS
  1
SORTENTSTABLE
  2
AcDbSortentsTable
  3
"AutoCAD"
 90
        0
280
       0
281
       0
  0
CLASS
  1
LAYER_INDEX
  2
AcDbLayerIndex
  3
"Acad"
 90
        0
280
       0
281
       0
  0
CLASS
  1
SPATIAL_INDEX
  2
AcDbSpatialIndex
  3
"Acad"
 90
        0
280
       0
281
       0
  0
CLASS
  1
OBJECT_PTR
  2
CAseDLPNTableRecord
  3
"ASE-LPNTableRecord"
 90
        1
280
       0
281
       0
  0
CLASS
  1
LAYOUT
  2
AcDbLayout
  3
"AutoCAD 2000"
 90
        1
280
       0
281
       0
  0
CLASS
  1
PLOTSETTINGS
  2
AcDbPlotSettings
  3
"AutoCAD 2000"
 90
        1
280
       0
281
       0
  0
CLASS
  1
ACDBDICTIONARYWDFLT
  2
AcDbDictionaryWithDefault
  3
"AutoCAD 2000"
 90
        1
280
       0
281
       0
  0
CLASS
  1
ACDBPLACEHOLDER
  2
AcDbPlaceHolder
  3
"AutoCAD 2000"
 90
        1
280
       0
281
       0
  0
CLASS
  1
VBA_PROJECT
  2
AcDbVbaProject
  3
"acadvba"
 90
        1
280
       0
281
       0
  0
CLASS
  1
WIPEOUT
  2
AcDbWipeout
  3
WipeOut|AutoCAD Express Tool|expresstools@autodesk.com
 90
      127
280
       0
281
       1
  0
CLASS
  1
WIPEOUTVARIABLES
  2
AcDbWipeoutVariables
  3
WipeOut|AutoCAD Express Tool|expresstools@autodesk.com
 90
        0
280
       0
281
       0
  0
CLASS
  1
RTEXT
  2
RText
  3
RText|AutoCAD Express Tool|expresstools@autodesk.com
 90
        0
280
       0
281
       1
  0
CLASS
  1
ARCALIGNEDTEXT
  2
AcDbArcAlignedText
  3
ATEXT|AutoCAD Express Tool|expresstools@autodesk.com
 90
        0
280
       0
281
       1
  0
ENDSEC
  0
SECTION
  2
TABLES
  0
TABLE
  2
VPORT
  5
7
100
AcDbSymbolTable
 70
       1
  0
VPORT
  5
15
100
AcDbSymbolTableRecord
100
AcDbViewportTableRecord
  2
*ACTIVE
 70
       0
 10
0.0
 20
0.0
 11
1.0
 21
1.0
 12
0.0
 22
-1.25
 13
0.0
 23
0.0
 14
1.0
 24
1.0
 15
0.0
 25
0.0
 16
0.0
 26
0.0
 36
1.0
 17
0.0
 27
0.0
 37
0.0
 40
105.91014141
 41
2.58557983
 42
50.0
 43
0.0
 44
0.0
 50
0.0
 51
0.0
 71
       0
 72
     100
 73
       1
 74
       1
 75
       0
 76
       0
 77
       0
 78
       0
  0
ENDTAB
  0
TABLE
  2
LTYPE
  5
4
100
AcDbSymbolTable
 70
      30
  0
LTYPE
  5
11
100
AcDbSymbolTableRecord
100
AcDbLinetypeTableRecord
  2
BYBLOCK
 70
      64
  3

 72
      65
 73
       0
 40
0.0
  0
LTYPE
  5
12
100
AcDbSymbolTableRecord
100
AcDbLinetypeTableRecord
  2
BYLAYER
 70
      64
  3

 72
      65
 73
       0
 40
0.0
  0
LTYPE
  5
13
100
AcDbSymbolTableRecord
100
AcDbLinetypeTableRecord
  2
CONTINUOUS
 70
      64
  3
Solid line
 72
      65
 73
       0
 40
0.0
  0
LTYPE
  5
1D
100
AcDbSymbolTableRecord
100
AcDbLinetypeTableRecord
  2
HIDDENX2
 70
      64
  3
CADPAC LINETYPE
 72
      65
 73
       2
 40
10.30923766
 49
7.73192824
 74
       0
 49
-2.57730941
 74
       0
  0
LTYPE
  5
1E
100
AcDbSymbolTableRecord
100
AcDbLinetypeTableRecord
  2
HIDDEN
 70
      64
  3
CADPAC LINETYPE
 72
      65
 73
       2
 40
7.73192824
 49
5.15461883
 74
       0
 49
-2.57730941
 74
       0
  0
LTYPE
  5
1F
100
AcDbSymbolTableRecord
100
AcDbLinetypeTableRecord
  2
HIDDEN2
 70
      64
  3
CADPAC LINETYPE
 72
      65
 73
       2
 40
6.44327353
 49
3.86596412
 74
       0
 49
-2.57730941
 74
       0
  0
LTYPE
  5
20
100
AcDbSymbolTableRecord
100
AcDbLinetypeTableRecord
  2
DASHED
 70
      64
  3
CADPAC LINETYPE
 72
      65
 73
       2
 40
7.73192824
 49
5.15461883
 74
       0
 49
-2.57730941
 74
       0
  0
LTYPE
  5
21
100
AcDbSymbolTableRecord
100
AcDbLinetypeTableRecord
  2
DASHED2
 70
      64
  3
CADPAC LINETYPE
 72
      65
 73
       2
 40
5.79894618
 49
3.86596412
 74
       0
 49
-1.93298206
 74
       0
  0
LTYPE
  5
22
100
AcDbSymbolTableRecord
100
AcDbLinetypeTableRecord
  2
DASHEDX2
 70
      64
  3
CADPAC LINETYPE
 72
      65
 73
       2
 40
11.59789236
 49
7.73192824
 74
       0
 49
-3.86596412
 74
       0
  0
LTYPE
  5
23
100
AcDbSymbolTableRecord
100
AcDbLinetypeTableRecord
  2
DOTX2
 70
      64
  3
CADPAC LINETYPE
 72
      65
 73
       2
 40
3.22163677
 49
0.0
 74
       0
 49
-3.22163677
 74
       0
  0
LTYPE
  5
24
100
AcDbSymbolTableRecord
100
AcDbLinetypeTableRecord
  2
DOT
 70
      64
  3
CADPAC LINETYPE
 72
      65
 73
       2
 40
2.57730941
 49
0.0
 74
       0
 49
-2.57730941
 74
       0
  0
LTYPE
  5
25
100
AcDbSymbolTableRecord
100
AcDbLinetypeTableRecord
  2
DOT2
 70
      64
  3
CADPAC LINETYPE
 72
      65
 73
       2
 40
1.93298206
 49
0.0
 74
       0
 49
-1.93298206
 74
       0
  0
LTYPE
  5
26
100
AcDbSymbolTableRecord
100
AcDbLinetypeTableRecord
  2
CENTERX2
 70
      64
  3
CADPAC LINETYPE
 72
      65
 73
       4
 40
15.46385648
 49
6.44327353
 74
       0
 49
-3.22163677
 74
       0
 49
2.57730941
 74
       0
 49
-3.22163677
 74
       0
  0
LTYPE
  5
27
100
AcDbSymbolTableRecord
100
AcDbLinetypeTableRecord
  2
CENTER
 70
      64
  3
CADPAC LINETYPE
 72
      65
 73
       4
 40
11.8556233
 49
5.15461883
 74
       0
 49
-2.57730941
 74
       0
 49
1.54638565
 74
       0
 49
-2.57730941
 74
       0
  0
LTYPE
  5
28
100
AcDbSymbolTableRecord
100
AcDbLinetypeTableRecord
  2
CENTER2
 70
      64
  3
CADPAC LINETYPE
 72
      65
 73
       4
 40
8.24739012
 49
3.86596412
 74
       0
 49
-1.93298206
 74
       0
 49
0.51546188
 74
       0
 49
-1.93298206
 74
       0
  0
LTYPE
  5
29
100
AcDbSymbolTableRecord
100
AcDbLinetypeTableRecord
  2
DASHDOTX2
 70
      64
  3
CADPAC LINETYPE
 72
      65
 73
       4
 40
12.88654707
 49
6.44327353
 74
       0
 49
-3.22163677
 74
       0
 49
0.0
 74
       0
 49
-3.22163677
 74
       0
  0
LTYPE
  5
2A
100
AcDbSymbolTableRecord
100
AcDbLinetypeTableRecord
  2
DASHDOT
 70
      64
  3
CADPAC LINETYPE
 72
      65
 73
       4
 40
10.30923766
 49
5.15461883
 74
       0
 49
-2.57730941
 74
       0
 49
0.0
 74
       0
 49
-2.57730941
 74
       0
  0
LTYPE
  5
2B
100
AcDbSymbolTableRecord
100
AcDbLinetypeTableRecord
  2
DASHDOT2
 70
      64
  3
CADPAC LINETYPE
 72
      65
 73
       4
 40
7.73192824
 49
3.86596412
 74
       0
 49
-1.93298206
 74
       0
 49
0.0
 74
       0
 49
-1.93298206
 74
       0
  0
LTYPE
  5
2C
100
AcDbSymbolTableRecord
100
AcDbLinetypeTableRecord
  2
DIVIDEX2
 70
      64
  3
CADPAC LINETYPE
 72
      65
 73
       6
 40
16.10818384
 49
6.44327353
 74
       0
 49
-3.22163677
 74
       0
 49
0.0
 74
       0
 49
-3.22163677
 74
       0
 49
0.0
 74
       0
 49
-3.22163677
 74
       0
  0
LTYPE
  5
2D
100
AcDbSymbolTableRecord
100
AcDbLinetypeTableRecord
  2
DIVIDE
 70
      64
  3
CADPAC LINETYPE
 72
      65
 73
       6
 40
12.88654707
 49
5.15461883
 74
       0
 49
-2.57730941
 74
       0
 49
0.0
 74
       0
 49
-2.57730941
 74
       0
 49
0.0
 74
       0
 49
-2.57730941
 74
       0
  0
LTYPE
  5
2E
100
AcDbSymbolTableRecord
100
AcDbLinetypeTableRecord
  2
DIVIDE2
 70
      64
  3
CADPAC LINETYPE
 72
      65
 73
       6
 40
9.6649103
 49
3.86596412
 74
       0
 49
-1.93298206
 74
       0
 49
0.0
 74
       0
 49
-1.93298206
 74
       0
 49
0.0
 74
       0
 49
-1.93298206
 74
       0
  0
LTYPE
  5
2F
100
AcDbSymbolTableRecord
100
AcDbLinetypeTableRecord
  2
BORDERX2
 70
      64
  3
CADPAC LINETYPE
 72
      65
 73
       6
 40
22.55145737
 49
6.44327353
 74
       0
 49
-3.22163677
 74
       0
 49
6.44327353
 74
       0
 49
-3.22163677
 74
       0
 49
0.0
 74
       0
 49
-3.22163677
 74
       0
  0
LTYPE
  5
30
100
AcDbSymbolTableRecord
100
AcDbLinetypeTableRecord
  2
BORDER
 70
      64
  3
CADPAC LINETYPE
 72
      65
 73
       6
 40
18.0411659
 49
5.15461883
 74
       0
 49
-2.57730941
 74
       0
 49
5.15461883
 74
       0
 49
-2.57730941
 74
       0
 49
0.0
 74
       0
 49
-2.57730941
 74
       0
  0
LTYPE
  5
31
100
AcDbSymbolTableRecord
100
AcDbLinetypeTableRecord
  2
BORDER2
 70
      64
  3
CADPAC LINETYPE
 72
      65
 73
       6
 40
13.53087442
 49
3.86596412
 74
       0
 49
-1.93298206
 74
       0
 49
3.86596412
 74
       0
 49
-1.93298206
 74
       0
 49
0.0
 74
       0
 49
-1.93298206
 74
       0
  0
LTYPE
  5
32
100
AcDbSymbolTableRecord
100
AcDbLinetypeTableRecord
  2
PHANTOMX2
 70
      64
  3
CADPAC LINETYPE
 72
      65
 73
       6
 40
19.3298206
 49
6.44327353
 74
       0
 49
-2.57730941
 74
       0
 49
2.57730941
 74
       0
 49
-2.57730941
 74
       0
 49
2.57730941
 74
       0
 49
-2.57730941
 74
       0
  0
LTYPE
  5
33
100
AcDbSymbolTableRecord
100
AcDbLinetypeTableRecord
  2
PHANTOM
 70
      64
  3
CADPAC LINETYPE
 72
      65
 73
       6
 40
15.97931837
 49
5.15461883
 74
       0
 49
-2.57730941
 74
       0
 49
1.54638565
 74
       0
 49
-2.57730941
 74
       0
 49
1.54638565
 74
       0
 49
-2.57730941
 74
       0
  0
LTYPE
  5
34
100
AcDbSymbolTableRecord
100
AcDbLinetypeTableRecord
  2
PHANTOM2
 70
      64
  3
CADPAC LINETYPE
 72
      65
 73
       6
 40
13.65973989
 49
3.86596412
 74
       0
 49
-2.57730941
 74
       0
 49
1.03092377
 74
       0
 49
-2.57730941
 74
       0
 49
1.03092377
 74
       0
 49
-2.57730941
 74
       0
  0
LTYPE
  5
35
100
AcDbSymbolTableRecord
100
AcDbLinetypeTableRecord
  2
ACAD_ISO06W100
 70
      64
  3
CADPAC LINETYPE
 72
      65
 73
       8
 40
17.39683854
 49
6.44327353
 74
       0
 49
-3.22163677
 74
       0
 49
0.0
 74
       0
 49
-2.57730941
 74
       0
 49
0.0
 74
       0
 49
-2.57730941
 74
       0
 49
0.0
 74
       0
 49
-2.57730941
 74
       0
  0
LTYPE
  5
36
100
AcDbSymbolTableRecord
100
AcDbLinetypeTableRecord
  2
ACAD_ISO13W100
 70
      64
  3
CADPAC LINETYPE
 72
      65
 73
       8
 40
20.61847531
 49
5.15461883
 74
       0
 49
-2.57730941
 74
       0
 49
5.15461883
 74
       0
 49
-2.57730941
 74
       0
 49
0.0
 74
       0
 49
-2.57730941
 74
       0
 49
0.0
 74
       0
 49
-2.57730941
 74
       0
  0
LTYPE
  5
37
100
AcDbSymbolTableRecord
100
AcDbLinetypeTableRecord
  2
ACAD_ISO14W100
 70
      64
  3
CADPAC LINETYPE
 72
      65
 73
       8
 40
15.46385648
 49
5.15461883
 74
       0
 49
-2.57730941
 74
       0
 49
0.0
 74
       0
 49
-2.57730941
 74
       0
 49
0.0
 74
       0
 49
-2.57730941
 74
       0
 49
0.0
 74
       0
 49
-2.57730941
 74
       0
  0
ENDTAB
  0
TABLE
  2
LAYER
  5
2
100
AcDbSymbolTable
 70
       3
  0
LAYER
  5
14
100
AcDbSymbolTableRecord
100
AcDbLayerTableRecord
  2
0
 70
       0
 62
       7
  6
CONTINUOUS
  0
LAYER
  5
38
100
AcDbSymbolTableRecord
100
AcDbLayerTableRecord
  2
SLD-0
 70
       0
 62
       7
  6
CONTINUOUS
  0
LAYER
  5
39
100
AcDbSymbolTableRecord
100
AcDbLayerTableRecord
  2
レイヤー_1
 70
       0
 62
       7
  6
CONTINUOUS
  0
ENDTAB
  0
TABLE
  2
STYLE
  5
3
100
AcDbSymbolTable
 70
       1
  0
STYLE
  5
17
100
AcDbSymbolTableRecord
100
AcDbTextStyleTableRecord
  2
STANDARD
 70
       0
 40
0.0
 41
1.0
 50
0.0
 71
       0
 42
5.0
  3
txt.shx
  4
bigfont.shx
  0
ENDTAB
  0
TABLE
  2
VIEW
  5
5
100
AcDbSymbolTable
 70
       1
  0
VIEW
  5
3A
100
AcDbSymbolTableRecord
100
AcDbViewTableRecord
  2
QQQQ
 70
       0
 40
105.91014141
 10
0.0
 20
-1.25
 41
273.83912522
 11
0.0
 21
0.0
 31
1.0
 12
100.0
 22
100.0
 32
0.0
 42
50.0
 43
0.0
 44
0.0
 50
0.0
 71
       0
  0
ENDTAB
  0
TABLE
  2
UCS
  5
6
100
AcDbSymbolTable
 70
       0
  0
ENDTAB
  0
TABLE
  2
APPID
  5
8
100
AcDbSymbolTable
 70
       1
  0
APPID
  5
16
100
AcDbSymbolTableRecord
100
AcDbRegAppTableRecord
  2
ACAD
 70
       0
  0
ENDTAB
  0
TABLE
  2
DIMSTYLE
  5
9
100
AcDbSymbolTable
 70
       1
  0
DIMSTYLE
105
18
100
AcDbSymbolTableRecord
100
AcDbDimStyleTableRecord
  2
STANDARD
 70
       0
  3

  4

  5

  6

  7

 40
1.0
 41
0.18
 42
0.0625
 43
0.38
 44
0.18
 45
0.0
 46
0.0
 47
0.0
 48
0.0
 71
       0
 72
       0
 73
       1
 74
       1
 75
       0
 76
       0
 77
       0
 78
       0
140
0.18
141
0.09
142
0.0
143
25.4
144
1.0
145
0.0
146
1.0
147
0.09
170
       0
171
       2
172
       0
173
       0
174
       0
175
       0
176
       0
177
       0
178
       0
270
       2
271
       4
272
       4
273
       2
274
       2
275
       0
280
       0
281
       0
282
       0
283
       1
284
       0
285
       0
286
       0
287
       0
288
       0
340
17
  0
ENDTAB
  0
TABLE
  2
BLOCK_RECORD
  5
1
100
AcDbSymbolTable
 70
       0
  0
BLOCK_RECORD
  5
A
100
AcDbSymbolTableRecord
100
AcDbBlockTableRecord
  2
*MODEL_SPACE
  0
BLOCK_RECORD
  5
B
100
AcDbSymbolTableRecord
100
AcDbBlockTableRecord
  2
*PAPER_SPACE
  0
ENDTAB
  0
ENDSEC
  0
SECTION
  2
BLOCKS
  0
BLOCK
  5
D
100
AcDbEntity
  8
0
100
AcDbBlockBegin
  2
*MODEL_SPACE
 70
       0
 10
0.0
 20
0.0
 30
0.0
  3
*MODEL_SPACE
  1

  0
ENDBLK
  5
E
100
AcDbEntity
  8
0
100
AcDbBlockEnd
  0
BLOCK
  5
F
100
AcDbEntity
 67
       1
  8
0
100
AcDbBlockBegin
  2
*PAPER_SPACE
 70
       0
 10
0.0
 20
0.0
 30
0.0
  3
*PAPER_SPACE
  1

  0
ENDBLK
  5
10
100
AcDbEntity
 67
       1
  8
0
100
AcDbBlockEnd
  0
ENDSEC
  0
SECTION
  2
ENTITIES
  0
LINE
  5
3B
100
AcDbEntity
  8
レイヤー_1
  6
CONTINUOUS
 62
       3
100
AcDbLine
 10
-98.90812445
 20
17.6639897
 30
0.0
 11
-110.90601398
 21
17.6639897
 31
0.0
  0
LINE
  5
3C
100
AcDbEntity
  8
レイヤー_1
  6
CONTINUOUS
 62
       3
100
AcDbLine
 10
-110.90601398
 20
9.66585603
 30
0.0
 11
-98.90812445
 21
9.66585603
 31
0.0
  0
LINE
  5
3D
100
AcDbEntity
  8
レイヤー_1
  6
CONTINUOUS
 62
       3
100
AcDbLine
 10
-4.58485516
 20
-11.31133038
 30
0.0
 11
-4.58485516
 21
38.67734962
 31
0.0
  0
LINE
  5
3E
100
AcDbEntity
  8
レイヤー_1
  6
CONTINUOUS
 62
       3
100
AcDbLine
 10
-6.09089357
 20
-11.31133038
 30
0.0
 11
-1.58555503
 21
-11.31133038
 31
0.0
  0
LINE
  5
3F
100
AcDbEntity
  8
レイヤー_1
  6
CONTINUOUS
 62
       3
100
AcDbLine
 10
-1.58555503
 20
-11.31133038
 30
0.0
 11
-1.58555503
 21
38.67734962
 31
0.0
  0
LINE
  5
40
100
AcDbEntity
  8
レイヤー_1
  6
CONTINUOUS
 62
       3
100
AcDbLine
 10
-1.58555503
 20
38.67734962
 30
0.0
 11
-6.09089357
 21
38.67734962
 31
0.0
  0
LINE
  5
41
100
AcDbEntity
  8
レイヤー_1
  6
CONTINUOUS
 62
       3
100
AcDbLine
 10
13.90910643
 20
46.67314091
 30
0.0
 11
13.90910643
 21
-21.31933277
 31
0.0
  0
LINE
  5
42
100
AcDbEntity
  8
レイヤー_1
  6
CONTINUOUS
 62
       3
100
AcDbLine
 10
13.90910643
 20
-21.31933277
 30
0.0
 11
15.91663275
 21
-23.32685909
 31
0.0
  0
LINE
  5
43
100
AcDbEntity
  8
レイヤー_1
  6
CONTINUOUS
 62
       3
100
AcDbLine
 10
-100.65719943
 20
9.66585603
 30
0.0
 11
-100.65719943
 21
17.6639897
 31
0.0
  0
LINE
  5
44
100
AcDbEntity
  8
レイヤー_1
  6
CONTINUOUS
 62
       3
100
AcDbLine
 10
-109.15624999
 20
17.6639897
 30
0.0
 11
-109.15624999
 21
9.66585603
 31
0.0
  0
LINE
  5
45
100
AcDbEntity
  8
レイヤー_1
  6
CONTINUOUS
 62
       3
100
AcDbLine
 10
-98.90812445
 20
27.6616568
 30
0.0
 11
-110.90601398
 21
27.6616568
 31
0.0
  0
LINE
  5
46
100
AcDbEntity
  8
レイヤー_1
  6
CONTINUOUS
 62
       3
100
AcDbLine
 10
-110.90601398
 20
19.66352312
 30
0.0
 11
-98.90812445
 21
19.66352312
 31
0.0
  0
LINE
  5
47
100
AcDbEntity
  8
レイヤー_1
  6
CONTINUOUS
 62
       3
100
AcDbLine
 10
-100.65719943
 20
19.66352312
 30
0.0
 11
-100.65719943
 21
27.6616568
 31
0.0
  0
LINE
  5
48
100
AcDbEntity
  8
レイヤー_1
  6
CONTINUOUS
 62
       3
100
AcDbLine
 10
-109.15624999
 20
27.6616568
 30
0.0
 11
-109.15624999
 21
19.66352312
 31
0.0
  0
LINE
  5
49
100
AcDbEntity
  8
レイヤー_1
  6
CONTINUOUS
 62
       3
100
AcDbLine
 10
-110.90601398
 20
29.66119022
 30
0.0
 11
-98.90812445
 21
29.66119022
 31
0.0
  0
LINE
  5
4A
100
AcDbEntity
  8
レイヤー_1
  6
CONTINUOUS
 62
       3
100
AcDbLine
 10
-100.65719943
 20
29.66119022
 30
0.0
 11
-100.65719943
 21
37.6593239
 31
0.0
  0
LINE
  5
4B
100
AcDbEntity
  8
レイヤー_1
  6
CONTINUOUS
 62
       3
100
AcDbLine
 10
-109.15624999
 20
37.6593239
 30
0.0
 11
-109.15624999
 21
29.66119022
 31
0.0
  0
LINE
  5
4C
100
AcDbEntity
  8
レイヤー_1
  6
CONTINUOUS
 62
       3
100
AcDbLine
 10
-98.90812445
 20
7.66632261
 30
0.0
 11
-110.90601398
 21
7.66632261
 31
0.0
  0
LINE
  5
4D
100
AcDbEntity
  8
レイヤー_1
  6
CONTINUOUS
 62
       3
100
AcDbLine
 10
-110.90601398
 20
-0.33181107
 30
0.0
 11
-98.90812445
 21
-0.33181107
 31
0.0
  0
LINE
  5
4E
100
AcDbEntity
  8
レイヤー_1
  6
CONTINUOUS
 62
       3
100
AcDbLine
 10
-100.65719943
 20
-0.33181107
 30
0.0
 11
-100.65719943
 21
7.66632261
 31
0.0
  0
LINE
  5
4F
100
AcDbEntity
  8
レイヤー_1
  6
CONTINUOUS
 62
       3
100
AcDbLine
 10
-109.15624999
 20
7.66632261
 30
0.0
 11
-109.15624999
 21
-0.33181107
 31
0.0
  0
LINE
  5
50
100
AcDbEntity
  8
レイヤー_1
  6
CONTINUOUS
 62
       3
100
AcDbLine
 10
-98.90812445
 20
-2.331689
 30
0.0
 11
-110.90601398
 21
-2.331689
 31
0.0
  0
LINE
  5
51
100
AcDbEntity
  8
レイヤー_1
  6
CONTINUOUS
 62
       3
100
AcDbLine
 10
-100.65719943
 20
-10.32982268
 30
0.0
 11
-100.65719943
 21
-2.331689
 31
0.0
  0
LINE
  5
52
100
AcDbEntity
  8
レイヤー_1
  6
CONTINUOUS
 62
       3
100
AcDbLine
 10
-109.15624999
 20
-2.331689
 30
0.0
 11
-109.15624999
 21
-10.32982268
 31
0.0
  0
LINE
  5
53
100
AcDbEntity
  8
レイヤー_1
  6
CONTINUOUS
 62
       3
100
AcDbLine
 10
-51.9121989
 20
17.6639897
 30
0.0
 11
-63.91112196
 21
17.6639897
 31
0.0
  0
LINE
  5
54
100
AcDbEntity
  8
レイヤー_1
  6
CONTINUOUS
 62
       3
100
AcDbLine
 10
-63.91112196
 20
9.66585603
 30
0.0
 11
-51.9121989
 21
9.66585603
 31
0.0
  0
LINE
  5
55
100
AcDbEntity
  8
レイヤー_1
  6
CONTINUOUS
 62
       3
100
AcDbLine
 10
-53.66196289
 20
9.66585603
 30
0.0
 11
-53.66196289
 21
17.6639897
 31
0.0
  0
LINE
  5
56
100
AcDbEntity
  8
レイヤー_1
  6
CONTINUOUS
 62
       3
100
AcDbLine
 10
-62.16135796
 20
17.6639897
 30
0.0
 11
-62.16135796
 21
9.66585603
 31
0.0
  0
LINE
  5
57
100
AcDbEntity
  8
レイヤー_1
  6
CONTINUOUS
 62
       3
100
AcDbLine
 10
-51.9121989
 20
27.6616568
 30
0.0
 11
-63.91112196
 21
27.6616568
 31
0.0
  0
LINE
  5
58
100
AcDbEntity
  8
レイヤー_1
  6
CONTINUOUS
 62
       3
100
AcDbLine
 10
-63.91112196
 20
19.66352312
 30
0.0
 11
-51.9121989
 21
19.66352312
 31
0.0
  0
LINE
  5
59
100
AcDbEntity
  8
レイヤー_1
  6
CONTINUOUS
 62
       3
100
AcDbLine
 10
-53.66196289
 20
19.66352312
 30
0.0
 11
-53.66196289
 21
27.6616568
 31
0.0
  0
LINE
  5
5A
100
AcDbEntity
  8
レイヤー_1
  6
CONTINUOUS
 62
       3
100
AcDbLine
 10
-62.16135796
 20
27.6616568
 30
0.0
 11
-62.16135796
 21
19.66352312
 31
0.0
  0
LINE
  5
5B
100
AcDbEntity
  8
レイヤー_1
  6
CONTINUOUS
 62
       3
100
AcDbLine
 10
-63.91112196
 20
29.66119022
 30
0.0
 11
-51.9121989
 21
29.66119022
 31
0.0
  0
LINE
  5
5C
100
AcDbEntity
  8
レイヤー_1
  6
CONTINUOUS
 62
       3
100
AcDbLine
 10
-53.66196289
 20
29.66119022
 30
0.0
 11
-53.66196289
 21
37.6593239
 31
0.0
  0
LINE
  5
5D
100
AcDbEntity
  8
レイヤー_1
  6
CONTINUOUS
 62
       3
100
AcDbLine
 10
-62.16135796
 20
37.6593239
 30
0.0
 11
-62.16135796
 21
29.66119022
 31
0.0
  0
LINE
  5
5E
100
AcDbEntity
  8
レイヤー_1
  6
CONTINUOUS
 62
       3
100
AcDbLine
 10
-51.9121989
 20
7.66632261
 30
0.0
 11
-63.91112196
 21
7.66632261
 31
0.0
  0
LINE
  5
5F
100
AcDbEntity
  8
レイヤー_1
  6
CONTINUOUS
 62
       3
100
AcDbLine
 10
-63.91112196
 20
38.65909061
 30
0.0
 11
-51.9121989
 21
38.65909061
 31
0.0
  0
LINE
  5
60
100
AcDbEntity
  8
レイヤー_1
  6
CONTINUOUS
 62
       3
100
AcDbLine
 10
-51.9121989
 20
38.65909061
 30
0.0
 11
-51.9121989
 21
-1.33157778
 31
0.0
  0
LINE
  5
61
100
AcDbEntity
  8
レイヤー_1
  6
CONTINUOUS
 62
       3
100
AcDbLine
 10
-51.9121989
 20
-1.33157778
 30
0.0
 11
-63.91112196
 21
-1.33157778
 31
0.0
  0
LINE
  5
62
100
AcDbEntity
  8
レイヤー_1
  6
CONTINUOUS
 62
       3
100
AcDbLine
 10
-63.91112196
 20
-1.33157778
 30
0.0
 11
-63.91112196
 21
38.65909061
 31
0.0
  0
LINE
  5
63
100
AcDbEntity
  8
レイヤー_1
  6
CONTINUOUS
 62
       3
100
AcDbLine
 10
-110.90601398
 20
-11.32958939
 30
0.0
 11
-98.90812445
 21
-11.32958939
 31
0.0
  0
LINE
  5
64
100
AcDbEntity
  8
レイヤー_1
  6
CONTINUOUS
 62
       3
100
AcDbLine
 10
-98.90812445
 20
-11.32958939
 30
0.0
 11
-98.90812445
 21
38.65909061
 31
0.0
  0
LINE
  5
65
100
AcDbEntity
  8
レイヤー_1
  6
CONTINUOUS
 62
       3
100
AcDbLine
 10
-98.90812445
 20
38.65909061
 30
0.0
 11
-110.90601398
 21
38.65909061
 31
0.0
  0
LINE
  5
66
100
AcDbEntity
  8
レイヤー_1
  6
CONTINUOUS
 62
       3
100
AcDbLine
 10
-110.90601398
 20
38.65909061
 30
0.0
 11
-110.90601398
 21
-11.32958939
 31
0.0
  0
LINE
  5
67
100
AcDbEntity
  8
レイヤー_1
  6
CONTINUOUS
 62
       3
100
AcDbLine
 10
-53.66196289
 20
-0.33181107
 30
0.0
 11
-53.66196289
 21
7.66632261
 31
0.0
  0
LINE
  5
68
100
AcDbEntity
  8
レイヤー_1
  6
CONTINUOUS
 62
       3
100
AcDbLine
 10
-62.16135796
 20
7.66632261
 30
0.0
 11
-62.16135796
 21
-0.33181107
 31
0.0
  0
LINE
  5
69
100
AcDbEntity
  8
レイヤー_1
  6
CONTINUOUS
 62
       3
100
AcDbLine
 10
6.91005044
 20
-2.3278994
 30
0.0
 11
6.91005044
 21
-10.33120072
 31
0.0
  0
LINE
  5
6A
100
AcDbEntity
  8
レイヤー_1
  6
CONTINUOUS
 62
       3
100
AcDbLine
 10
6.91005044
 20
37.662769
 30
0.0
 11
6.91005044
 21
29.6605012
 31
0.0
  0
LINE
  5
6B
100
AcDbEntity
  8
レイヤー_1
  6
CONTINUOUS
 62
       3
100
AcDbLine
 10
5.42108017
 20
26.40867557
 30
0.0
 11
3.91075031
 21
26.40867557
 31
0.0
  0
LINE
  5
6C
100
AcDbEntity
  8
レイヤー_1
  6
CONTINUOUS
 62
       3
100
AcDbLine
 10
3.91075031
 20
26.40867557
 30
0.0
 11
3.91075031
 21
20.72047842
 31
0.0
  0
LINE
  5
6D
100
AcDbEntity
  8
レイヤー_1
  6
CONTINUOUS
 62
       3
100
AcDbLine
 10
3.91075031
 20
20.72047842
 30
0.0
 11
5.42108017
 21
20.72047842
 31
0.0
  0
LINE
  5
6E
100
AcDbEntity
  8
レイヤー_1
  6
CONTINUOUS
 62
       3
100
AcDbLine
 10
5.41074488
 20
27.6651019
 30
0.0
 11
5.41074488
 21
19.6628341
 31
0.0
  0
LINE
  5
6F
100
AcDbEntity
  8
レイヤー_1
  6
CONTINUOUS
 62
       3
100
AcDbLine
 10
6.91005044
 20
27.6651019
 30
0.0
 11
6.91005044
 21
19.6628341
 31
0.0
  0
LINE
  5
70
100
AcDbEntity
  8
レイヤー_1
  6
CONTINUOUS
 62
       3
100
AcDbLine
 10
5.42108017
 20
16.41066397
 30
0.0
 11
3.91075031
 21
16.41066397
 31
0.0
  0
LINE
  5
71
100
AcDbEntity
  8
レイヤー_1
  6
CONTINUOUS
 62
       3
100
AcDbLine
 10
3.91075031
 20
16.41066397
 30
0.0
 11
3.91075031
 21
10.72281132
 31
0.0
  0
LINE
  5
72
100
AcDbEntity
  8
レイヤー_1
  6
CONTINUOUS
 62
       3
100
AcDbLine
 10
3.91075031
 20
10.72281132
 30
0.0
 11
5.42108017
 21
10.72281132
 31
0.0
  0
LINE
  5
73
100
AcDbEntity
  8
レイヤー_1
  6
CONTINUOUS
 62
       3
100
AcDbLine
 10
5.41074488
 20
17.6674348
 30
0.0
 11
5.41074488
 21
9.66516701
 31
0.0
  0
LINE
  5
74
100
AcDbEntity
  8
レイヤー_1
  6
CONTINUOUS
 62
       3
100
AcDbLine
 10
6.91005044
 20
17.6674348
 30
0.0
 11
6.91005044
 21
9.66516701
 31
0.0
  0
LINE
  5
75
100
AcDbEntity
  8
レイヤー_1
  6
CONTINUOUS
 62
       3
100
AcDbLine
 10
6.91005044
 20
7.6697677
 30
0.0
 11
6.91005044
 21
-0.3328446
 31
0.0
  0
LINE
  5
76
100
AcDbEntity
  8
レイヤー_1
  6
CONTINUOUS
 62
       3
100
AcDbLine
 10
6.89144692
 20
-3.58467023
 30
0.0
 11
5.38111706
 21
-3.58467023
 31
0.0
  0
LINE
  5
77
100
AcDbEntity
  8
レイヤー_1
  6
CONTINUOUS
 62
       3
100
AcDbLine
 10
5.38111706
 20
-3.58467023
 30
0.0
 11
5.38111706
 21
-9.27286739
 31
0.0
  0
LINE
  5
78
100
AcDbEntity
  8
レイヤー_1
  6
CONTINUOUS
 62
       3
100
AcDbLine
 10
5.38111706
 20
-9.27286739
 30
0.0
 11
6.89144692
 21
-9.27286739
 31
0.0
  0
LINE
  5
79
100
AcDbEntity
  8
レイヤー_1
  6
CONTINUOUS
 62
       3
100
AcDbLine
 10
6.89144692
 20
6.41299687
 30
0.0
 11
5.38111706
 21
6.41299687
 31
0.0
  0
LINE
  5
7A
100
AcDbEntity
  8
レイヤー_1
  6
CONTINUOUS
 62
       3
100
AcDbLine
 10
5.38111706
 20
6.41299687
 30
0.0
 11
5.38111706
 21
0.72479971
 31
0.0
  0
LINE
  5
7B
100
AcDbEntity
  8
レイヤー_1
  6
CONTINUOUS
 62
       3
100
AcDbLine
 10
5.38111706
 20
0.72479971
 30
0.0
 11
6.89144692
 21
0.72479971
 31
0.0
  0
LINE
  5
7C
100
AcDbEntity
  8
レイヤー_1
  6
CONTINUOUS
 62
       3
100
AcDbLine
 10
6.89144692
 20
36.40634267
 30
0.0
 11
5.38111706
 21
36.40634267
 31
0.0
  0
LINE
  5
7D
100
AcDbEntity
  8
レイヤー_1
  6
CONTINUOUS
 62
       3
100
AcDbLine
 10
5.38111706
 20
36.40634267
 30
0.0
 11
5.38111706
 21
30.71814552
 31
0.0
  0
LINE
  5
7E
100
AcDbEntity
  8
レイヤー_1
  6
CONTINUOUS
 62
       3
100
AcDbLine
 10
5.38111706
 20
30.71814552
 30
0.0
 11
6.89144692
 21
30.71814552
 31
0.0
  0
LINE
  5
7F
100
AcDbEntity
  8
レイヤー_1
  6
CONTINUOUS
 62
       3
100
AcDbLine
 10
-51.9121989
 20
-0.33181107
 30
0.0
 11
-63.91112196
 21
-0.33181107
 31
0.0
  0
LINE
  5
80
100
AcDbEntity
  8
レイヤー_1
  6
CONTINUOUS
 62
       3
100
AcDbLine
 10
-63.91112196
 20
37.6593239
 30
0.0
 11
-51.9121989
 21
37.6593239
 31
0.0
  0
LINE
  5
81
100
AcDbEntity
  8
レイヤー_1
  6
CONTINUOUS
 62
       3
100
AcDbLine
 10
-98.90812445
 20
37.6593239
 30
0.0
 11
-110.90601398
 21
37.6593239
 31
0.0
  0
LINE
  5
82
100
AcDbEntity
  8
レイヤー_1
  6
CONTINUOUS
 62
       3
100
AcDbLine
 10
-110.90601398
 20
-10.32982268
 30
0.0
 11
-98.90812445
 21
-10.32982268
 31
0.0
  0
LINE
  5
83
100
AcDbEntity
  8
レイヤー_1
  6
CONTINUOUS
 62
       3
100
AcDbLine
 10
13.90910643
 20
38.67114844
 30
0.0
 11
-4.58485516
 21
38.67114844
 31
0.0
  0
LINE
  5
84
100
AcDbEntity
  8
レイヤー_1
  6
CONTINUOUS
 62
       3
100
AcDbLine
 10
-4.58485516
 20
37.6700037
 30
0.0
 11
9.90935057
 21
37.6700037
 31
0.0
  0
LINE
  5
85
100
AcDbEntity
  8
レイヤー_1
  6
CONTINUOUS
 62
       3
100
AcDbLine
 10
9.90935057
 20
37.6700037
 30
0.0
 11
9.91003959
 21
29.67255904
 31
0.0
  0
LINE
  5
86
100
AcDbEntity
  8
レイヤー_1
  6
CONTINUOUS
 62
       3
100
AcDbLine
 10
9.91003959
 20
29.67255904
 30
0.0
 11
-4.58830025
 21
29.67255904
 31
0.0
  0
LINE
  5
87
100
AcDbEntity
  8
レイヤー_1
  6
CONTINUOUS
 62
       3
100
AcDbLine
 10
-4.58830025
 20
27.6651019
 30
0.0
 11
9.91003959
 21
27.6651019
 31
0.0
  0
LINE
  5
88
100
AcDbEntity
  8
レイヤー_1
  6
CONTINUOUS
 62
       3
100
AcDbLine
 10
9.91003959
 20
27.6651019
 30
0.0
 11
9.91003959
 21
19.67385841
 31
0.0
  0
LINE
  5
89
100
AcDbEntity
  8
レイヤー_1
  6
CONTINUOUS
 62
       3
100
AcDbLine
 10
9.91003959
 20
19.67385841
 30
0.0
 11
-4.58830025
 21
19.67385841
 31
0.0
  0
LINE
  5
8A
100
AcDbEntity
  8
レイヤー_1
  6
CONTINUOUS
 62
       3
100
AcDbLine
 10
-4.58830025
 20
17.6674348
 30
0.0
 11
9.91003959
 21
17.6674348
 31
0.0
  0
LINE
  5
8B
100
AcDbEntity
  8
レイヤー_1
  6
CONTINUOUS
 62
       3
100
AcDbLine
 10
9.91003959
 20
17.6674348
 30
0.0
 11
9.91003959
 21
9.67619131
 31
0.0
  0
LINE
  5
8C
100
AcDbEntity
  8
レイヤー_1
  6
CONTINUOUS
 62
       3
100
AcDbLine
 10
9.91003959
 20
9.67619131
 30
0.0
 11
-4.58830025
 21
9.67619131
 31
0.0
  0
LINE
  5
8D
100
AcDbEntity
  8
レイヤー_1
  6
CONTINUOUS
 62
       3
100
AcDbLine
 10
-4.58830025
 20
7.6697677
 30
0.0
 11
9.91003959
 21
7.6697677
 31
0.0
  0
LINE
  5
8E
100
AcDbEntity
  8
レイヤー_1
  6
CONTINUOUS
 62
       3
100
AcDbLine
 10
9.91003959
 20
7.6697677
 30
0.0
 11
9.91003959
 21
-0.3328446
 31
0.0
  0
LINE
  5
8F
100
AcDbEntity
  8
レイヤー_1
  6
CONTINUOUS
 62
       3
100
AcDbLine
 10
9.91003959
 20
-0.3328446
 30
0.0
 11
-4.56762968
 21
-0.3328446
 31
0.0
  0
LINE
  5
90
100
AcDbEntity
  8
レイヤー_1
  6
CONTINUOUS
 62
       3
100
AcDbLine
 10
-4.56762968
 20
-0.3328446
 30
0.0
 11
-4.56762968
 21
-1.32055348
 31
0.0
  0
LINE
  5
91
100
AcDbEntity
  8
レイヤー_1
  6
CONTINUOUS
 62
       3
100
AcDbLine
 10
13.90910643
 20
-1.32055348
 30
0.0
 11
-4.58830025
 21
-1.32055348
 31
0.0
  0
LINE
  5
92
100
AcDbEntity
  8
レイヤー_1
  6
CONTINUOUS
 62
       3
100
AcDbLine
 10
-4.58830025
 20
-2.3278994
 30
0.0
 11
9.91003959
 21
-2.3278994
 31
0.0
  0
LINE
  5
93
100
AcDbEntity
  8
レイヤー_1
  6
CONTINUOUS
 62
       3
100
AcDbLine
 10
9.91003959
 20
-2.3278994
 30
0.0
 11
9.90935057
 21
-10.28159134
 31
0.0
  0
LINE
  5
94
100
AcDbEntity
  8
レイヤー_1
  6
CONTINUOUS
 62
       3
100
AcDbLine
 10
9.90935057
 20
-10.28159134
 30
0.0
 11
-4.56762968
 21
-10.28159134
 31
0.0
  0
LINE
  5
95
100
AcDbEntity
  8
レイヤー_1
  6
CONTINUOUS
 62
       3
100
AcDbLine
 10
-4.56762968
 20
-10.28159134
 30
0.0
 11
-4.56762968
 21
-11.29479393
 31
0.0
  0
LINE
  5
96
100
AcDbEntity
  8
レイヤー_1
  6
CONTINUOUS
 62
       3
100
AcDbLine
 10
-4.56762968
 20
-11.29479393
 30
0.0
 11
13.86432019
 21
-11.29479393
 31
0.0
  0
LINE
  5
97
100
AcDbEntity
  8
レイヤー_1
  6
CONTINUOUS
 62
       3
100
AcDbLine
 10
-103.46667479
 20
11.1909998
 30
0.0
 11
-103.22526623
 21
11.34681594
 31
0.0
  0
LINE
  5
98
100
AcDbEntity
  8
レイヤー_1
  6
CONTINUOUS
 62
       3
100
AcDbLine
 10
-103.22526623
 20
11.34681594
 30
0.0
 11
-103.00471857
 21
11.52248546
 31
0.0
  0
LINE
  5
99
100
AcDbEntity
  8
レイヤー_1
  6
CONTINUOUS
 62
       3
100
AcDbLine
 10
-103.00471857
 20
11.52248546
 30
0.0
 11
-102.8055323
 21
11.71613931
 31
0.0
  0
LINE
  5
9A
100
AcDbEntity
  8
レイヤー_1
  6
CONTINUOUS
 62
       3
100
AcDbLine
 10
-102.8055323
 20
11.71613931
 30
0.0
 11
-102.62820794
 21
11.92590841
 31
0.0
  0
LINE
  5
9B
100
AcDbEntity
  8
レイヤー_1
  6
CONTINUOUS
 62
       3
100
AcDbLine
 10
-102.62820794
 20
11.92590841
 30
0.0
 11
-102.47324599
 21
12.1499237
 31
0.0
  0
LINE
  5
9C
100
AcDbEntity
  8
レイヤー_1
  6
CONTINUOUS
 62
       3
100
AcDbLine
 10
-102.47324599
 20
12.1499237
 30
0.0
 11
-102.34114696
 21
12.38631612
 31
0.0
  0
LINE
  5
9D
100
AcDbEntity
  8
レイヤー_1
  6
CONTINUOUS
 62
       3
100
AcDbLine
 10
-102.34114696
 20
12.38631612
 30
0.0
 11
-102.23241134
 21
12.63321661
 31
0.0
  0
LINE
  5
9E
100
AcDbEntity
  8
レイヤー_1
  6
CONTINUOUS
 62
       3
100
AcDbLine
 10
-102.23241134
 20
12.63321661
 30
0.0
 11
-102.14753965
 21
12.8887561
 31
0.0
  0
LINE
  5
9F
100
AcDbEntity
  8
レイヤー_1
  6
CONTINUOUS
 62
       3
100
AcDbLine
 10
-102.14753965
 20
12.8887561
 30
0.0
 11
-102.08703239
 21
13.15106553
 31
0.0
  0
LINE
  5
A0
100
AcDbEntity
  8
レイヤー_1
  6
CONTINUOUS
 62
       3
100
AcDbLine
 10
-102.08703239
 20
13.15106553
 30
0.0
 11
-102.05139005
 21
13.41827582
 31
0.0
  0
LINE
  5
A1
100
AcDbEntity
  8
レイヤー_1
  6
CONTINUOUS
 62
       3
100
AcDbLine
 10
-102.05139005
 20
13.41827582
 30
0.0
 11
-102.04111316
 21
13.68851793
 31
0.0
  0
LINE
  5
A2
100
AcDbEntity
  8
レイヤー_1
  6
CONTINUOUS
 62
       3
100
AcDbLine
 10
-102.04111316
 20
13.68851793
 30
0.0
 11
-102.0567022
 21
13.95992279
 31
0.0
  0
LINE
  5
A3
100
AcDbEntity
  8
レイヤー_1
  6
CONTINUOUS
 62
       3
100
AcDbLine
 10
-102.0567022
 20
13.95992279
 30
0.0
 11
-102.09865769
 21
14.23062132
 31
0.0
  0
LINE
  5
A4
100
AcDbEntity
  8
レイヤー_1
  6
CONTINUOUS
 62
       3
100
AcDbLine
 10
-102.09865769
 20
14.23062132
 30
0.0
 11
-102.16748014
 21
14.49874448
 31
0.0
  0
LINE
  5
A5
100
AcDbEntity
  8
レイヤー_1
  6
CONTINUOUS
 62
       3
100
AcDbLine
 10
-102.16748014
 20
14.49874448
 30
0.0
 11
-102.26367003
 21
14.76242319
 31
0.0
  0
LINE
  5
A6
100
AcDbEntity
  8
レイヤー_1
  6
CONTINUOUS
 62
       3
100
AcDbLine
 10
-102.26367003
 20
14.76242319
 30
0.0
 11
-102.38772789
 21
15.01978838
 31
0.0
  0
LINE
  5
A7
100
AcDbEntity
  8
レイヤー_1
  6
CONTINUOUS
 62
       3
100
AcDbLine
 10
-102.38772789
 20
15.01978838
 30
0.0
 11
-102.53812885
 21
15.26591675
 31
0.0
  0
LINE
  5
A8
100
AcDbEntity
  8
レイヤー_1
  6
CONTINUOUS
 62
       3
100
AcDbLine
 10
-102.53812885
 20
15.26591675
 30
0.0
 11
-102.70906565
 21
15.49172656
 31
0.0
  0
LINE
  5
A9
100
AcDbEntity
  8
レイヤー_1
  6
CONTINUOUS
 62
       3
100
AcDbLine
 10
-102.70906565
 20
15.49172656
 30
0.0
 11
-102.89844959
 21
15.6963001
 31
0.0
  0
LINE
  5
AA
100
AcDbEntity
  8
レイヤー_1
  6
CONTINUOUS
 62
       3
100
AcDbLine
 10
-102.89844959
 20
15.6963001
 30
0.0
 11
-103.10441352
 21
15.87913685
 31
0.0
  0
LINE
  5
AB
100
AcDbEntity
  8
レイヤー_1
  6
CONTINUOUS
 62
       3
100
AcDbLine
 10
-103.10441352
 20
15.87913685
 30
0.0
 11
-103.3250903
 21
16.03973633
 31
0.0
  0
LINE
  5
AC
100
AcDbEntity
  8
レイヤー_1
  6
CONTINUOUS
 62
       3
100
AcDbLine
 10
-103.3250903
 20
16.03973633
 30
0.0
 11
-103.55861281
 21
16.17759801
 31
0.0
  0
LINE
  5
AD
100
AcDbEntity
  8
レイヤー_1
  6
CONTINUOUS
 62
       3
100
AcDbLine
 10
-103.55861281
 20
16.17759801
 30
0.0
 11
-103.8031139
 21
16.29222141
 31
0.0
  0
LINE
  5
AE
100
AcDbEntity
  8
レイヤー_1
  6
CONTINUOUS
 62
       3
100
AcDbLine
 10
-103.8031139
 20
16.29222141
 30
0.0
 11
-104.05672643
 21
16.383106
 31
0.0
  0
LINE
  5
AF
100
AcDbEntity
  8
レイヤー_1
  6
CONTINUOUS
 62
       3
100
AcDbLine
 10
-104.05672643
 20
16.383106
 30
0.0
 11
-104.31758327
 21
16.4497513
 31
0.0
  0
LINE
  5
B0
100
AcDbEntity
  8
レイヤー_1
  6
CONTINUOUS
 62
       3
100
AcDbLine
 10
-104.31758327
 20
16.4497513
 30
0.0
 11
-104.58381729
 21
16.49165678
 31
0.0
  0
LINE
  5
B1
100
AcDbEntity
  8
レイヤー_1
  6
CONTINUOUS
 62
       3
100
AcDbLine
 10
-104.58381729
 20
16.49165678
 30
0.0
 11
-104.85356133
 21
16.50832196
 31
0.0
  0
LINE
  5
B2
100
AcDbEntity
  8
レイヤー_1
  6
CONTINUOUS
 62
       3
100
AcDbLine
 10
-104.85356133
 20
16.50832196
 30
0.0
 11
-105.12494828
 21
16.49924632
 31
0.0
  0
LINE
  5
B3
100
AcDbEntity
  8
レイヤー_1
  6
CONTINUOUS
 62
       3
100
AcDbLine
 10
-105.12494828
 20
16.49924632
 30
0.0
 11
-105.39611098
 21
16.46392937
 31
0.0
  0
LINE
  5
B4
100
AcDbEntity
  8
レイヤー_1
  6
CONTINUOUS
 62
       3
100
AcDbLine
 10
-105.39611098
 20
16.46392937
 30
0.0
 11
-105.66518231
 21
16.40187058
 31
0.0
  0
LINE
  5
B5
100
AcDbEntity
  8
レイヤー_1
  6
CONTINUOUS
 62
       3
100
AcDbLine
 10
-105.66518231
 20
16.40187058
 30
0.0
 11
-105.93029513
 21
16.31256947
 31
0.0
  0
LINE
  5
B6
100
AcDbEntity
  8
レイヤー_1
  6
CONTINUOUS
 62
       3
100
AcDbLine
 10
-105.93029513
 20
16.31256947
 30
0.0
 11
-106.1895823
 21
16.19552553
 31
0.0
  0
LINE
  5
B7
100
AcDbEntity
  8
レイヤー_1
  6
CONTINUOUS
 62
       3
100
AcDbLine
 10
-106.1895823
 20
16.19552553
 30
0.0
 11
-106.43964589
 21
16.05110317
 31
0.0
  0
LINE
  5
B8
100
AcDbEntity
  8
レイヤー_1
  6
CONTINUOUS
 62
       3
100
AcDbLine
 10
-106.43964589
 20
16.05110317
 30
0.0
 11
-106.67051847
 21
15.88507041
 31
0.0
  0
LINE
  5
B9
100
AcDbEntity
  8
レイヤー_1
  6
CONTINUOUS
 62
       3
100
AcDbLine
 10
-106.67051847
 20
15.88507041
 30
0.0
 11
-106.88030121
 21
15.70012518
 31
0.0
  0
LINE
  5
BA
100
AcDbEntity
  8
レイヤー_1
  6
CONTINUOUS
 62
       3
100
AcDbLine
 10
-106.88030121
 20
15.70012518
 30
0.0
 11
-107.06849216
 21
15.49813558
 31
0.0
  0
LINE
  5
BB
100
AcDbEntity
  8
レイヤー_1
  6
CONTINUOUS
 62
       3
100
AcDbLine
 10
-107.06849216
 20
15.49813558
 30
0.0
 11
-107.23458939
 21
15.28096971
 31
0.0
  0
LINE
  5
BC
100
AcDbEntity
  8
レイヤー_1
  6
CONTINUOUS
 62
       3
100
AcDbLine
 10
-107.23458939
 20
15.28096971
 30
0.0
 11
-107.37809093
 21
15.05049567
 31
0.0
  0
LINE
  5
BD
100
AcDbEntity
  8
レイヤー_1
  6
CONTINUOUS
 62
       3
100
AcDbLine
 10
-107.37809093
 20
15.05049567
 30
0.0
 11
-107.49849485
 21
14.80858157
 31
0.0
  0
LINE
  5
BE
100
AcDbEntity
  8
レイヤー_1
  6
CONTINUOUS
 62
       3
100
AcDbLine
 10
-107.49849485
 20
14.80858157
 30
0.0
 11
-107.59529918
 21
14.5570955
 31
0.0
  0
LINE
  5
BF
100
AcDbEntity
  8
レイヤー_1
  6
CONTINUOUS
 62
       3
100
AcDbLine
 10
-107.59529918
 20
14.5570955
 30
0.0
 11
-107.66800198
 21
14.29790556
 31
0.0
  0
LINE
  5
C0
100
AcDbEntity
  8
レイヤー_1
  6
CONTINUOUS
 62
       3
100
AcDbLine
 10
-107.66800198
 20
14.29790556
 30
0.0
 11
-107.7161013
 21
14.03287985
 31
0.0
  0
LINE
  5
C1
100
AcDbEntity
  8
レイヤー_1
  6
CONTINUOUS
 62
       3
100
AcDbLine
 10
-107.7161013
 20
14.03287985
 30
0.0
 11
-107.73909519
 21
13.76388648
 31
0.0
  0
LINE
  5
C2
100
AcDbEntity
  8
レイヤー_1
  6
CONTINUOUS
 62
       3
100
AcDbLine
 10
-107.73909519
 20
13.76388648
 30
0.0
 11
-107.7364817
 21
13.49279354
 31
0.0
  0
LINE
  5
C3
100
AcDbEntity
  8
レイヤー_1
  6
CONTINUOUS
 62
       3
100
AcDbLine
 10
-107.7364817
 20
13.49279354
 30
0.0
 11
-107.70775889
 21
13.22146914
 31
0.0
  0
LINE
  5
C4
100
AcDbEntity
  8
レイヤー_1
  6
CONTINUOUS
 62
       3
100
AcDbLine
 10
-107.70775889
 20
13.22146914
 30
0.0
 11
-107.65242479
 21
12.95178137
 31
0.0
  0
LINE
  5
C5
100
AcDbEntity
  8
レイヤー_1
  6
CONTINUOUS
 62
       3
100
AcDbLine
 10
-107.65242479
 20
12.95178137
 30
0.0
 11
-107.56997747
 21
12.68559834
 31
0.0
  0
LINE
  5
C6
100
AcDbEntity
  8
レイヤー_1
  6
CONTINUOUS
 62
       3
100
AcDbLine
 10
-107.56997747
 20
12.68559834
 30
0.0
 11
-107.45991496
 21
12.42478814
 31
0.0
  0
LINE
  5
C7
100
AcDbEntity
  8
レイヤー_1
  6
CONTINUOUS
 62
       3
100
AcDbLine
 10
-107.45991496
 20
12.42478814
 30
0.0
 11
-107.32196828
 21
12.17156538
 31
0.0
  0
LINE
  5
C8
100
AcDbEntity
  8
レイヤー_1
  6
CONTINUOUS
 62
       3
100
AcDbLine
 10
-107.32196828
 20
12.17156538
 30
0.0
 11
-107.16106034
 21
11.93538316
 31
0.0
  0
LINE
  5
C9
100
AcDbEntity
  8
レイヤー_1
  6
CONTINUOUS
 62
       3
100
AcDbLine
 10
-107.16106034
 20
11.93538316
 30
0.0
 11
-106.9807458
 21
11.72018034
 31
0.0
  0
LINE
  5
CA
100
AcDbEntity
  8
レイヤー_1
  6
CONTINUOUS
 62
       3
100
AcDbLine
 10
-106.9807458
 20
11.72018034
 30
0.0
 11
-106.78289615
 21
11.52645839
 31
0.0
  0
LINE
  5
CB
100
AcDbEntity
  8
レイヤー_1
  6
CONTINUOUS
 62
       3
100
AcDbLine
 10
-106.78289615
 20
11.52645839
 30
0.0
 11
-106.56938285
 21
11.35471877
 31
0.0
  0
LINE
  5
CC
100
AcDbEntity
  8
レイヤー_1
  6
CONTINUOUS
 62
       3
100
AcDbLine
 10
-106.56938285
 20
11.35471877
 30
0.0
 11
-106.34207737
 21
11.20546296
 31
0.0
  0
LINE
  5
CD
100
AcDbEntity
  8
レイヤー_1
  6
CONTINUOUS
 62
       3
100
AcDbLine
 10
-106.34207737
 20
11.20546296
 30
0.0
 11
-106.1028512
 21
11.07919241
 31
0.0
  0
LINE
  5
CE
100
AcDbEntity
  8
レイヤー_1
  6
CONTINUOUS
 62
       3
100
AcDbLine
 10
-106.1028512
 20
11.07919241
 30
0.0
 11
-105.85357579
 21
10.97640861
 31
0.0
  0
LINE
  5
CF
100
AcDbEntity
  8
レイヤー_1
  6
CONTINUOUS
 62
       3
100
AcDbLine
 10
-105.85357579
 20
10.97640861
 30
0.0
 11
-105.59612263
 21
10.89761301
 31
0.0
  0
LINE
  5
D0
100
AcDbEntity
  8
レイヤー_1
  6
CONTINUOUS
 62
       3
100
AcDbLine
 10
-105.59612263
 20
10.89761301
 30
0.0
 11
-105.33236318
 21
10.84330708
 31
0.0
  0
LINE
  5
D1
100
AcDbEntity
  8
レイヤー_1
  6
CONTINUOUS
 62
       3
100
AcDbLine
 10
-105.33236318
 20
10.84330708
 30
0.0
 11
-105.06416893
 21
10.8139923
 31
0.0
  0
LINE
  5
D2
100
AcDbEntity
  8
レイヤー_1
  6
CONTINUOUS
 62
       3
100
AcDbLine
 10
-105.06416893
 20
10.8139923
 30
0.0
 11
-104.79341133
 21
10.81017013
 31
0.0
  0
LINE
  5
D3
100
AcDbEntity
  8
レイヤー_1
  6
CONTINUOUS
 62
       3
100
AcDbLine
 10
-104.79341133
 20
10.81017013
 30
0.0
 11
-104.52196187
 21
10.83234204
 31
0.0
  0
LINE
  5
D4
100
AcDbEntity
  8
レイヤー_1
  6
CONTINUOUS
 62
       3
100
AcDbLine
 10
-104.52196187
 20
10.83234204
 30
0.0
 11
-104.25169201
 21
10.88100949
 31
0.0
  0
LINE
  5
D5
100
AcDbEntity
  8
レイヤー_1
  6
CONTINUOUS
 62
       3
100
AcDbLine
 10
-104.25169201
 20
10.88100949
 30
0.0
 11
-103.98447323
 21
10.95667395
 31
0.0
  0
LINE
  5
D6
100
AcDbEntity
  8
レイヤー_1
  6
CONTINUOUS
 62
       3
100
AcDbLine
 10
-103.98447323
 20
10.95667395
 30
0.0
 11
-103.722177
 21
11.0598369
 31
0.0
  0
LINE
  5
D7
100
AcDbEntity
  8
レイヤー_1
  6
CONTINUOUS
 62
       3
100
AcDbLine
 10
-103.722177
 20
11.0598369
 30
0.0
 11
-103.46667479
 21
11.1909998
 31
0.0
  0
LINE
  5
D8
100
AcDbEntity
  8
レイヤー_1
  6
CONTINUOUS
 62
       3
100
AcDbLine
 10
-103.46667479
 20
21.1890114
 30
0.0
 11
-103.22526623
 21
21.34476778
 31
0.0
  0
LINE
  5
D9
100
AcDbEntity
  8
レイヤー_1
  6
CONTINUOUS
 62
       3
100
AcDbLine
 10
-103.22526623
 20
21.34476778
 30
0.0
 11
-103.00471857
 21
21.52038488
 31
0.0
  0
LINE
  5
DA
100
AcDbEntity
  8
レイヤー_1
  6
CONTINUOUS
 62
       3
100
AcDbLine
 10
-103.00471857
 20
21.52038488
 30
0.0
 11
-102.8055323
 21
21.71399317
 31
0.0
  0
LINE
  5
DB
100
AcDbEntity
  8
レイヤー_1
  6
CONTINUOUS
 62
       3
100
AcDbLine
 10
-102.8055323
 20
21.71399317
 30
0.0
 11
-102.62820794
 21
21.92372309
 31
0.0
  0
LINE
  5
DC
100
AcDbEntity
  8
レイヤー_1
  6
CONTINUOUS
 62
       3
100
AcDbLine
 10
-102.62820794
 20
21.92372309
 30
0.0
 11
-102.47324599
 21
22.14770511
 31
0.0
  0
LINE
  5
DD
100
AcDbEntity
  8
レイヤー_1
  6
CONTINUOUS
 62
       3
100
AcDbLine
 10
-102.47324599
 20
22.14770511
 30
0.0
 11
-102.34114696
 21
22.38406968
 31
0.0
  0
LINE
  5
DE
100
AcDbEntity
  8
レイヤー_1
  6
CONTINUOUS
 62
       3
100
AcDbLine
 10
-102.34114696
 20
22.38406968
 30
0.0
 11
-102.23241134
 21
22.63094725
 31
0.0
  0
LINE
  5
DF
100
AcDbEntity
  8
レイヤー_1
  6
CONTINUOUS
 62
       3
100
AcDbLine
 10
-102.23241134
 20
22.63094725
 30
0.0
 11
-102.14753965
 21
22.88646828
 31
0.0
  0
LINE
  5
E0
100
AcDbEntity
  8
レイヤー_1
  6
CONTINUOUS
 62
       3
100
AcDbLine
 10
-102.14753965
 20
22.88646828
 30
0.0
 11
-102.08703239
 21
23.14876322
 31
0.0
  0
LINE
  5
E1
100
AcDbEntity
  8
レイヤー_1
  6
CONTINUOUS
 62
       3
100
AcDbLine
 10
-102.08703239
 20
23.14876322
 30
0.0
 11
-102.05139005
 21
23.41596252
 31
0.0
  0
LINE
  5
E2
100
AcDbEntity
  8
レイヤー_1
  6
CONTINUOUS
 62
       3
100
AcDbLine
 10
-102.05139005
 20
23.41596252
 30
0.0
 11
-102.04111316
 21
23.68619665
 31
0.0
  0
LINE
  5
E3
100
AcDbEntity
  8
レイヤー_1
  6
CONTINUOUS
 62
       3
100
AcDbLine
 10
-102.04111316
 20
23.68619665
 30
0.0
 11
-102.0567022
 21
23.95759605
 31
0.0
  0
LINE
  5
E4
100
AcDbEntity
  8
レイヤー_1
  6
CONTINUOUS
 62
       3
100
AcDbLine
 10
-102.0567022
 20
23.95759605
 30
0.0
 11
-102.09865769
 21
24.22829118
 31
0.0
  0
LINE
  5
E5
100
AcDbEntity
  8
レイヤー_1
  6
CONTINUOUS
 62
       3
100
AcDbLine
 10
-102.09865769
 20
24.22829118
 30
0.0
 11
-102.16748014
 21
24.49641249
 31
0.0
  0
LINE
  5
E6
100
AcDbEntity
  8
レイヤー_1
  6
CONTINUOUS
 62
       3
100
AcDbLine
 10
-102.16748014
 20
24.49641249
 30
0.0
 11
-102.26367003
 21
24.76009044
 31
0.0
  0
LINE
  5
E7
100
AcDbEntity
  8
レイヤー_1
  6
CONTINUOUS
 62
       3
100
AcDbLine
 10
-102.26367003
 20
24.76009044
 30
0.0
 11
-102.38772789
 21
25.01745548
 31
0.0
  0
LINE
  5
E8
100
AcDbEntity
  8
レイヤー_1
  6
CONTINUOUS
 62
       3
100
AcDbLine
 10
-102.38772789
 20
25.01745548
 30
0.0
 11
-102.53812885
 21
25.26358384
 31
0.0
  0
LINE
  5
E9
100
AcDbEntity
  8
レイヤー_1
  6
CONTINUOUS
 62
       3
100
AcDbLine
 10
-102.53812885
 20
25.26358384
 30
0.0
 11
-102.70906565
 21
25.48939366
 31
0.0
  0
LINE
  5
EA
100
AcDbEntity
  8
レイヤー_1
  6
CONTINUOUS
 62
       3
100
AcDbLine
 10
-102.70906565
 20
25.48939366
 30
0.0
 11
-102.89844959
 21
25.69396719
 31
0.0
  0
LINE
  5
EB
100
AcDbEntity
  8
レイヤー_1
  6
CONTINUOUS
 62
       3
100
AcDbLine
 10
-102.89844959
 20
25.69396719
 30
0.0
 11
-103.10441352
 21
25.87680395
 31
0.0
  0
LINE
  5
EC
100
AcDbEntity
  8
レイヤー_1
  6
CONTINUOUS
 62
       3
100
AcDbLine
 10
-103.10441352
 20
25.87680395
 30
0.0
 11
-103.3250903
 21
26.03740343
 31
0.0
  0
LINE
  5
ED
100
AcDbEntity
  8
レイヤー_1
  6
CONTINUOUS
 62
       3
100
AcDbLine
 10
-103.3250903
 20
26.03740343
 30
0.0
 11
-103.55861281
 21
26.17526511
 31
0.0
  0
LINE
  5
EE
100
AcDbEntity
  8
レイヤー_1
  6
CONTINUOUS
 62
       3
100
AcDbLine
 10
-103.55861281
 20
26.17526511
 30
0.0
 11
-103.8031139
 21
26.2898885
 31
0.0
  0
LINE
  5
EF
100
AcDbEntity
  8
レイヤー_1
  6
CONTINUOUS
 62
       3
100
AcDbLine
 10
-103.8031139
 20
26.2898885
 30
0.0
 11
-104.05672643
 21
26.3807731
 31
0.0
  0
LINE
  5
F0
100
AcDbEntity
  8
レイヤー_1
  6
CONTINUOUS
 62
       3
100
AcDbLine
 10
-104.05672643
 20
26.3807731
 30
0.0
 11
-104.31758327
 21
26.44741839
 31
0.0
  0
LINE
  5
F1
100
AcDbEntity
  8
レイヤー_1
  6
CONTINUOUS
 62
       3
100
AcDbLine
 10
-104.31758327
 20
26.44741839
 30
0.0
 11
-104.58381729
 21
26.48932388
 31
0.0
  0
LINE
  5
F2
100
AcDbEntity
  8
レイヤー_1
  6
CONTINUOUS
 62
       3
100
AcDbLine
 10
-104.58381729
 20
26.48932388
 30
0.0
 11
-104.85356133
 21
26.50598906
 31
0.0
  0
LINE
  5
F3
100
AcDbEntity
  8
レイヤー_1
  6
CONTINUOUS
 62
       3
100
AcDbLine
 10
-104.85356133
 20
26.50598906
 30
0.0
 11
-105.12494828
 21
26.49691342
 31
0.0
  0
LINE
  5
F4
100
AcDbEntity
  8
レイヤー_1
  6
CONTINUOUS
 62
       3
100
AcDbLine
 10
-105.12494828
 20
26.49691342
 30
0.0
 11
-105.39611098
 21
26.46159646
 31
0.0
  0
LINE
  5
F5
100
AcDbEntity
  8
レイヤー_1
  6
CONTINUOUS
 62
       3
100
AcDbLine
 10
-105.39611098
 20
26.46159646
 30
0.0
 11
-105.66518231
 21
26.39953768
 31
0.0
  0
LINE
  5
F6
100
AcDbEntity
  8
レイヤー_1
  6
CONTINUOUS
 62
       3
100
AcDbLine
 10
-105.66518231
 20
26.39953768
 30
0.0
 11
-105.93029513
 21
26.31023657
 31
0.0
  0
LINE
  5
F7
100
AcDbEntity
  8
レイヤー_1
  6
CONTINUOUS
 62
       3
100
AcDbLine
 10
-105.93029513
 20
26.31023657
 30
0.0
 11
-106.1895823
 21
26.19319263
 31
0.0
  0
LINE
  5
F8
100
AcDbEntity
  8
レイヤー_1
  6
CONTINUOUS
 62
       3
100
AcDbLine
 10
-106.1895823
 20
26.19319263
 30
0.0
 11
-106.43964589
 21
26.04877026
 31
0.0
  0
LINE
  5
F9
100
AcDbEntity
  8
レイヤー_1
  6
CONTINUOUS
 62
       3
100
AcDbLine
 10
-106.43964589
 20
26.04877026
 30
0.0
 11
-106.67051847
 21
25.8827375
 31
0.0
  0
LINE
  5
FA
100
AcDbEntity
  8
レイヤー_1
  6
CONTINUOUS
 62
       3
100
AcDbLine
 10
-106.67051847
 20
25.8827375
 30
0.0
 11
-106.88030121
 21
25.69779227
 31
0.0
  0
LINE
  5
FB
100
AcDbEntity
  8
レイヤー_1
  6
CONTINUOUS
 62
       3
100
AcDbLine
 10
-106.88030121
 20
25.69779227
 30
0.0
 11
-107.06849216
 21
25.49580267
 31
0.0
  0
LINE
  5
FC
100
AcDbEntity
  8
レイヤー_1
  6
CONTINUOUS
 62
       3
100
AcDbLine
 10
-107.06849216
 20
25.49580267
 30
0.0
 11
-107.23458939
 21
25.27863681
 31
0.0
  0
LINE
  5
FD
100
AcDbEntity
  8
レイヤー_1
  6
CONTINUOUS
 62
       3
100
AcDbLine
 10
-107.23458939
 20
25.27863681
 30
0.0
 11
-107.37809093
 21
25.04816277
 31
0.0
  0
LINE
  5
FE
100
AcDbEntity
  8
レイヤー_1
  6
CONTINUOUS
 62
       3
100
AcDbLine
 10
-107.37809093
 20
25.04816277
 30
0.0
 11
-107.49849485
 21
24.80624867
 31
0.0
  0
LINE
  5
FF
100
AcDbEntity
  8
レイヤー_1
  6
CONTINUOUS
 62
       3
100
AcDbLine
 10
-107.49849485
 20
24.80624867
 30
0.0
 11
-107.59529918
 21
24.55476259
 31
0.0
  0
LINE
  5
100
100
AcDbEntity
  8
レイヤー_1
  6
CONTINUOUS
 62
       3
100
AcDbLine
 10
-107.59529918
 20
24.55476259
 30
0.0
 11
-107.66800198
 21
24.29557265
 31
0.0
  0
LINE
  5
101
100
AcDbEntity
  8
レイヤー_1
  6
CONTINUOUS
 62
       3
100
AcDbLine
 10
-107.66800198
 20
24.29557265
 30
0.0
 11
-107.7161013
 21
24.03054695
 31
0.0
  0
LINE
  5
102
100
AcDbEntity
  8
レイヤー_1
  6
CONTINUOUS
 62
       3
100
AcDbLine
 10
-107.7161013
 20
24.03054695
 30
0.0
 11
-107.73909519
 21
23.76155358
 31
0.0
  0
LINE
  5
103
100
AcDbEntity
  8
レイヤー_1
  6
CONTINUOUS
 62
       3
100
AcDbLine
 10
-107.73909519
 20
23.76155358
 30
0.0
 11
-107.7364817
 21
23.49046064
 31
0.0
  0
LINE
  5
104
100
AcDbEntity
  8
レイヤー_1
  6
CONTINUOUS
 62
       3
100
AcDbLine
 10
-107.7364817
 20
23.49046064
 30
0.0
 11
-107.70775889
 21
23.21913624
 31
0.0
  0
LINE
  5
105
100
AcDbEntity
  8
レイヤー_1
  6
CONTINUOUS
 62
       3
100
AcDbLine
 10
-107.70775889
 20
23.21913624
 30
0.0
 11
-107.65242479
 21
22.94944847
 31
0.0
  0
LINE
  5
106
100
AcDbEntity
  8
レイヤー_1
  6
CONTINUOUS
 62
       3
100
AcDbLine
 10
-107.65242479
 20
22.94944847
 30
0.0
 11
-107.56997747
 21
22.68326544
 31
0.0
  0
LINE
  5
107
100
AcDbEntity
  8
レイヤー_1
  6
CONTINUOUS
 62
       3
100
AcDbLine
 10
-107.56997747
 20
22.68326544
 30
0.0
 11
-107.45991496
 21
22.42245524
 31
0.0
  0
LINE
  5
108
100
AcDbEntity
  8
レイヤー_1
  6
CONTINUOUS
 62
       3
100
AcDbLine
 10
-107.45991496
 20
22.42245524
 30
0.0
 11
-107.32196828
 21
22.16923296
 31
0.0
  0
LINE
  5
109
100
AcDbEntity
  8
レイヤー_1
  6
CONTINUOUS
 62
       3
100
AcDbLine
 10
-107.32196828
 20
22.16923296
 30
0.0
 11
-107.16106034
 21
21.93306171
 31
0.0
  0
LINE
  5
10A
100
AcDbEntity
  8
レイヤー_1
  6
CONTINUOUS
 62
       3
100
AcDbLine
 10
-107.16106034
 20
21.93306171
 30
0.0
 11
-106.9807458
 21
21.7178825
 31
0.0
  0
LINE
  5
10B
100
AcDbEntity
  8
レイヤー_1
  6
CONTINUOUS
 62
       3
100
AcDbLine
 10
-106.9807458
 20
21.7178825
 30
0.0
 11
-106.78289615
 21
21.52419439
 31
0.0
  0
LINE
  5
10C
100
AcDbEntity
  8
レイヤー_1
  6
CONTINUOUS
 62
       3
100
AcDbLine
 10
-106.78289615
 20
21.52419439
 30
0.0
 11
-106.56938285
 21
21.35249645
 31
0.0
  0
LINE
  5
10D
100
AcDbEntity
  8
レイヤー_1
  6
CONTINUOUS
 62
       3
100
AcDbLine
 10
-106.56938285
 20
21.35249645
 30
0.0
 11
-106.34207737
 21
21.20328772
 31
0.0
  0
LINE
  5
10E
100
AcDbEntity
  8
レイヤー_1
  6
CONTINUOUS
 62
       3
100
AcDbLine
 10
-106.34207737
 20
21.20328772
 30
0.0
 11
-106.1028512
 21
21.07706728
 31
0.0
  0
LINE
  5
10F
100
AcDbEntity
  8
レイヤー_1
  6
CONTINUOUS
 62
       3
100
AcDbLine
 10
-106.1028512
 20
21.07706728
 30
0.0
 11
-105.85357579
 21
20.97433418
 31
0.0
  0
LINE
  5
110
100
AcDbEntity
  8
レイヤー_1
  6
CONTINUOUS
 62
       3
100
AcDbLine
 10
-105.85357579
 20
20.97433418
 30
0.0
 11
-105.59612263
 21
20.89558748
 31
0.0
  0
LINE
  5
111
100
AcDbEntity
  8
レイヤー_1
  6
CONTINUOUS
 62
       3
100
AcDbLine
 10
-105.59612263
 20
20.89558748
 30
0.0
 11
-105.33236318
 21
20.84132624
 31
0.0
  0
LINE
  5
112
100
AcDbEntity
  8
レイヤー_1
  6
CONTINUOUS
 62
       3
100
AcDbLine
 10
-105.33236318
 20
20.84132624
 30
0.0
 11
-105.06416893
 21
20.81204952
 31
0.0
  0
LINE
  5
113
100
AcDbEntity
  8
レイヤー_1
  6
CONTINUOUS
 62
       3
100
AcDbLine
 10
-105.06416893
 20
20.81204952
 30
0.0
 11
-104.79341133
 21
20.80825638
 31
0.0
  0
LINE
  5
114
100
AcDbEntity
  8
レイヤー_1
  6
CONTINUOUS
 62
       3
100
AcDbLine
 10
-104.79341133
 20
20.80825638
 30
0.0
 11
-104.52196187
 21
20.83044587
 31
0.0
  0
LINE
  5
115
100
AcDbEntity
  8
レイヤー_1
  6
CONTINUOUS
 62
       3
100
AcDbLine
 10
-104.52196187
 20
20.83044587
 30
0.0
 11
-104.25169201
 21
20.87911706
 31
0.0
  0
LINE
  5
116
100
AcDbEntity
  8
レイヤー_1
  6
CONTINUOUS
 62
       3
100
AcDbLine
 10
-104.25169201
 20
20.87911706
 30
0.0
 11
-103.98447323
 21
20.95476901
 31
0.0
  0
LINE
  5
117
100
AcDbEntity
  8
レイヤー_1
  6
CONTINUOUS
 62
       3
100
AcDbLine
 10
-103.98447323
 20
20.95476901
 30
0.0
 11
-103.722177
 21
21.05790077
 31
0.0
  0
LINE
  5
118
100
AcDbEntity
  8
レイヤー_1
  6
CONTINUOUS
 62
       3
100
AcDbLine
 10
-103.722177
 20
21.05790077
 30
0.0
 11
-103.46667479
 21
21.1890114
 31
0.0
  0
LINE
  5
119
100
AcDbEntity
  8
レイヤー_1
  6
CONTINUOUS
 62
       3
100
AcDbLine
 10
-103.46667479
 20
1.1933327
 30
0.0
 11
-103.22526623
 21
1.34914517
 31
0.0
  0
LINE
  5
11A
100
AcDbEntity
  8
レイヤー_1
  6
CONTINUOUS
 62
       3
100
AcDbLine
 10
-103.22526623
 20
1.34914517
 30
0.0
 11
-103.00471857
 21
1.52480463
 31
0.0
  0
LINE
  5
11B
100
AcDbEntity
  8
レイヤー_1
  6
CONTINUOUS
 62
       3
100
AcDbLine
 10
-103.00471857
 20
1.52480463
 30
0.0
 11
-102.8055323
 21
1.71844348
 31
0.0
  0
LINE
  5
11C
100
AcDbEntity
  8
レイヤー_1
  6
CONTINUOUS
 62
       3
100
AcDbLine
 10
-102.8055323
 20
1.71844348
 30
0.0
 11
-102.62820794
 21
1.9281941
 31
0.0
  0
LINE
  5
11D
100
AcDbEntity
  8
レイヤー_1
  6
CONTINUOUS
 62
       3
100
AcDbLine
 10
-102.62820794
 20
1.9281941
 30
0.0
 11
-102.47324599
 21
2.15218886
 31
0.0
  0
LINE
  5
11E
100
AcDbEntity
  8
レイヤー_1
  6
CONTINUOUS
 62
       3
100
AcDbLine
 10
-102.47324599
 20
2.15218886
 30
0.0
 11
-102.34114696
 21
2.38856015
 31
0.0
  0
LINE
  5
11F
100
AcDbEntity
  8
レイヤー_1
  6
CONTINUOUS
 62
       3
100
AcDbLine
 10
-102.34114696
 20
2.38856015
 30
0.0
 11
-102.23241134
 21
2.63544034
 31
0.0
  0
LINE
  5
120
100
AcDbEntity
  8
レイヤー_1
  6
CONTINUOUS
 62
       3
100
AcDbLine
 10
-102.23241134
 20
2.63544034
 30
0.0
 11
-102.14753965
 21
2.89096183
 31
0.0
  0
LINE
  5
121
100
AcDbEntity
  8
レイヤー_1
  6
CONTINUOUS
 62
       3
100
AcDbLine
 10
-102.14753965
 20
2.89096183
 30
0.0
 11
-102.08703239
 21
3.15325698
 31
0.0
  0
LINE
  5
122
100
AcDbEntity
  8
レイヤー_1
  6
CONTINUOUS
 62
       3
100
AcDbLine
 10
-102.08703239
 20
3.15325698
 30
0.0
 11
-102.05139005
 21
3.42045819
 31
0.0
  0
LINE
  5
123
100
AcDbEntity
  8
レイヤー_1
  6
CONTINUOUS
 62
       3
100
AcDbLine
 10
-102.05139005
 20
3.42045819
 30
0.0
 11
-102.04111316
 21
3.69069783
 31
0.0
  0
LINE
  5
124
100
AcDbEntity
  8
レイヤー_1
  6
CONTINUOUS
 62
       3
100
AcDbLine
 10
-102.04111316
 20
3.69069783
 30
0.0
 11
-102.0567022
 21
3.96210828
 31
0.0
  0
LINE
  5
125
100
AcDbEntity
  8
レイヤー_1
  6
CONTINUOUS
 62
       3
100
AcDbLine
 10
-102.0567022
 20
3.96210828
 30
0.0
 11
-102.09865769
 21
4.23282193
 31
0.0
  0
LINE
  5
126
100
AcDbEntity
  8
レイヤー_1
  6
CONTINUOUS
 62
       3
100
AcDbLine
 10
-102.09865769
 20
4.23282193
 30
0.0
 11
-102.16748014
 21
4.50097116
 31
0.0
  0
LINE
  5
127
100
AcDbEntity
  8
レイヤー_1
  6
CONTINUOUS
 62
       3
100
AcDbLine
 10
-102.16748014
 20
4.50097116
 30
0.0
 11
-102.26367003
 21
4.76468835
 31
0.0
  0
LINE
  5
128
100
AcDbEntity
  8
レイヤー_1
  6
CONTINUOUS
 62
       3
100
AcDbLine
 10
-102.26367003
 20
4.76468835
 30
0.0
 11
-102.38772789
 21
5.02210587
 31
0.0
  0
LINE
  5
129
100
AcDbEntity
  8
レイヤー_1
  6
CONTINUOUS
 62
       3
100
AcDbLine
 10
-102.38772789
 20
5.02210587
 30
0.0
 11
-102.53812885
 21
5.26824755
 31
0.0
  0
LINE
  5
12A
100
AcDbEntity
  8
レイヤー_1
  6
CONTINUOUS
 62
       3
100
AcDbLine
 10
-102.53812885
 20
5.26824755
 30
0.0
 11
-102.70906565
 21
5.49404876
 31
0.0
  0
LINE
  5
12B
100
AcDbEntity
  8
レイヤー_1
  6
CONTINUOUS
 62
       3
100
AcDbLine
 10
-102.70906565
 20
5.49404876
 30
0.0
 11
-102.89844959
 21
5.69860841
 31
0.0
  0
LINE
  5
12C
100
AcDbEntity
  8
レイヤー_1
  6
CONTINUOUS
 62
       3
100
AcDbLine
 10
-102.89844959
 20
5.69860841
 30
0.0
 11
-103.10441352
 21
5.88142742
 31
0.0
  0
LINE
  5
12D
100
AcDbEntity
  8
レイヤー_1
  6
CONTINUOUS
 62
       3
100
AcDbLine
 10
-103.10441352
 20
5.88142742
 30
0.0
 11
-103.3250903
 21
6.04200673
 31
0.0
  0
LINE
  5
12E
100
AcDbEntity
  8
レイヤー_1
  6
CONTINUOUS
 62
       3
100
AcDbLine
 10
-103.3250903
 20
6.04200673
 30
0.0
 11
-103.55861281
 21
6.1798473
 31
0.0
  0
LINE
  5
12F
100
AcDbEntity
  8
レイヤー_1
  6
CONTINUOUS
 62
       3
100
AcDbLine
 10
-103.55861281
 20
6.1798473
 30
0.0
 11
-103.8031139
 21
6.29445005
 31
0.0
  0
LINE
  5
130
100
AcDbEntity
  8
レイヤー_1
  6
CONTINUOUS
 62
       3
100
AcDbLine
 10
-103.8031139
 20
6.29445005
 30
0.0
 11
-104.05672643
 21
6.38531594
 31
0.0
  0
LINE
  5
131
100
AcDbEntity
  8
レイヤー_1
  6
CONTINUOUS
 62
       3
100
AcDbLine
 10
-104.05672643
 20
6.38531594
 30
0.0
 11
-104.31758327
 21
6.45194589
 31
0.0
  0
LINE
  5
132
100
AcDbEntity
  8
レイヤー_1
  6
CONTINUOUS
 62
       3
100
AcDbLine
 10
-104.31758327
 20
6.45194589
 30
0.0
 11
-104.58381729
 21
6.49384086
 31
0.0
  0
LINE
  5
133
100
AcDbEntity
  8
レイヤー_1
  6
CONTINUOUS
 62
       3
100
AcDbLine
 10
-104.58381729
 20
6.49384086
 30
0.0
 11
-104.85356133
 21
6.51050177
 31
0.0
  0
LINE
  5
134
100
AcDbEntity
  8
レイヤー_1
  6
CONTINUOUS
 62
       3
100
AcDbLine
 10
-104.85356133
 20
6.51050177
 30
0.0
 11
-105.12494828
 21
6.50142958
 31
0.0
  0
LINE
  5
135
100
AcDbEntity
  8
レイヤー_1
  6
CONTINUOUS
 62
       3
100
AcDbLine
 10
-105.12494828
 20
6.50142958
 30
0.0
 11
-105.39611098
 21
6.46612523
 31
0.0
  0
LINE
  5
136
100
AcDbEntity
  8
レイヤー_1
  6
CONTINUOUS
 62
       3
100
AcDbLine
 10
-105.39611098
 20
6.46612523
 30
0.0
 11
-105.66518231
 21
6.40408964
 31
0.0
  0
LINE
  5
137
100
AcDbEntity
  8
レイヤー_1
  6
CONTINUOUS
 62
       3
100
AcDbLine
 10
-105.66518231
 20
6.40408964
 30
0.0
 11
-105.93029513
 21
6.31482377
 31
0.0
  0
LINE
  5
138
100
AcDbEntity
  8
レイヤー_1
  6
CONTINUOUS
 62
       3
100
AcDbLine
 10
-105.93029513
 20
6.31482377
 30
0.0
 11
-106.1895823
 21
6.19782856
 31
0.0
  0
LINE
  5
139
100
AcDbEntity
  8
レイヤー_1
  6
CONTINUOUS
 62
       3
100
AcDbLine
 10
-106.1895823
 20
6.19782856
 30
0.0
 11
-106.43964589
 21
6.05340619
 31
0.0
  0
LINE
  5
13A
100
AcDbEntity
  8
レイヤー_1
  6
CONTINUOUS
 62
       3
100
AcDbLine
 10
-106.43964589
 20
6.05340619
 30
0.0
 11
-106.67051847
 21
5.8873247
 31
0.0
  0
LINE
  5
13B
100
AcDbEntity
  8
レイヤー_1
  6
CONTINUOUS
 62
       3
100
AcDbLine
 10
-106.67051847
 20
5.8873247
 30
0.0
 11
-106.88030121
 21
5.70234423
 31
0.0
  0
LINE
  5
13C
100
AcDbEntity
  8
レイヤー_1
  6
CONTINUOUS
 62
       3
100
AcDbLine
 10
-106.88030121
 20
5.70234423
 30
0.0
 11
-107.06849216
 21
5.50033144
 31
0.0
  0
LINE
  5
13D
100
AcDbEntity
  8
レイヤー_1
  6
CONTINUOUS
 62
       3
100
AcDbLine
 10
-107.06849216
 20
5.50033144
 30
0.0
 11
-107.23458939
 21
5.28315297
 31
0.0
  0
LINE
  5
13E
100
AcDbEntity
  8
レイヤー_1
  6
CONTINUOUS
 62
       3
100
AcDbLine
 10
-107.23458939
 20
5.28315297
 30
0.0
 11
-107.37809093
 21
5.05267548
 31
0.0
  0
LINE
  5
13F
100
AcDbEntity
  8
レイヤー_1
  6
CONTINUOUS
 62
       3
100
AcDbLine
 10
-107.37809093
 20
5.05267548
 30
0.0
 11
-107.49849485
 21
4.81076564
 31
0.0
  0
LINE
  5
140
100
AcDbEntity
  8
レイヤー_1
  6
CONTINUOUS
 62
       3
100
AcDbLine
 10
-107.49849485
 20
4.81076564
 30
0.0
 11
-107.59529918
 21
4.55929009
 31
0.0
  0
LINE
  5
141
100
AcDbEntity
  8
レイヤー_1
  6
CONTINUOUS
 62
       3
100
AcDbLine
 10
-107.59529918
 20
4.55929009
 30
0.0
 11
-107.66800198
 21
4.30011549
 31
0.0
  0
LINE
  5
142
100
AcDbEntity
  8
レイヤー_1
  6
CONTINUOUS
 62
       3
100
AcDbLine
 10
-107.66800198
 20
4.30011549
 30
0.0
 11
-107.7161013
 21
4.0351085
 31
0.0
  0
LINE
  5
143
100
AcDbEntity
  8
レイヤー_1
  6
CONTINUOUS
 62
       3
100
AcDbLine
 10
-107.7161013
 20
4.0351085
 30
0.0
 11
-107.73909519
 21
3.76613577
 31
0.0
  0
LINE
  5
144
100
AcDbEntity
  8
レイヤー_1
  6
CONTINUOUS
 62
       3
100
AcDbLine
 10
-107.73909519
 20
3.76613577
 30
0.0
 11
-107.7364817
 21
3.49506395
 31
0.0
  0
LINE
  5
145
100
AcDbEntity
  8
レイヤー_1
  6
CONTINUOUS
 62
       3
100
AcDbLine
 10
-107.7364817
 20
3.49506395
 30
0.0
 11
-107.70775889
 21
3.2237597
 31
0.0
  0
LINE
  5
146
100
AcDbEntity
  8
レイヤー_1
  6
CONTINUOUS
 62
       3
100
AcDbLine
 10
-107.70775889
 20
3.2237597
 30
0.0
 11
-107.65242479
 21
2.95408968
 31
0.0
  0
LINE
  5
147
100
AcDbEntity
  8
レイヤー_1
  6
CONTINUOUS
 62
       3
100
AcDbLine
 10
-107.65242479
 20
2.95408968
 30
0.0
 11
-107.56997747
 21
2.68792055
 31
0.0
  0
LINE
  5
148
100
AcDbEntity
  8
レイヤー_1
  6
CONTINUOUS
 62
       3
100
AcDbLine
 10
-107.56997747
 20
2.68792055
 30
0.0
 11
-107.45991496
 21
2.42711895
 31
0.0
  0
LINE
  5
149
100
AcDbEntity
  8
レイヤー_1
  6
CONTINUOUS
 62
       3
100
AcDbLine
 10
-107.45991496
 20
2.42711895
 30
0.0
 11
-107.32196828
 21
2.17388287
 31
0.0
  0
LINE
  5
14A
100
AcDbEntity
  8
レイヤー_1
  6
CONTINUOUS
 62
       3
100
AcDbLine
 10
-107.32196828
 20
2.17388287
 30
0.0
 11
-107.16106034
 21
1.93764832
 31
0.0
  0
LINE
  5
14B
100
AcDbEntity
  8
レイヤー_1
  6
CONTINUOUS
 62
       3
100
AcDbLine
 10
-107.16106034
 20
1.93764832
 30
0.0
 11
-106.9807458
 21
1.72240703
 31
0.0
  0
LINE
  5
14C
100
AcDbEntity
  8
レイヤー_1
  6
CONTINUOUS
 62
       3
100
AcDbLine
 10
-106.9807458
 20
1.72240703
 30
0.0
 11
-106.78289615
 21
1.528659
 31
0.0
  0
LINE
  5
14D
100
AcDbEntity
  8
レイヤー_1
  6
CONTINUOUS
 62
       3
100
AcDbLine
 10
-106.78289615
 20
1.528659
 30
0.0
 11
-106.56938285
 21
1.35690427
 31
0.0
  0
LINE
  5
14E
100
AcDbEntity
  8
レイヤー_1
  6
CONTINUOUS
 62
       3
100
AcDbLine
 10
-106.56938285
 20
1.35690427
 30
0.0
 11
-106.34207737
 21
1.20764285
 31
0.0
  0
LINE
  5
14F
100
AcDbEntity
  8
レイヤー_1
  6
CONTINUOUS
 62
       3
100
AcDbLine
 10
-106.34207737
 20
1.20764285
 30
0.0
 11
-106.1028512
 21
1.08137478
 31
0.0
  0
LINE
  5
150
100
AcDbEntity
  8
レイヤー_1
  6
CONTINUOUS
 62
       3
100
AcDbLine
 10
-106.1028512
 20
1.08137478
 30
0.0
 11
-105.85357579
 21
0.97860007
 31
0.0
  0
LINE
  5
151
100
AcDbEntity
  8
レイヤー_1
  6
CONTINUOUS
 62
       3
100
AcDbLine
 10
-105.85357579
 20
0.97860007
 30
0.0
 11
-105.59612263
 21
0.89981874
 31
0.0
  0
LINE
  5
152
100
AcDbEntity
  8
レイヤー_1
  6
CONTINUOUS
 62
       3
100
AcDbLine
 10
-105.59612263
 20
0.89981874
 30
0.0
 11
-105.33236318
 21
0.84553082
 31
0.0
  0
LINE
  5
153
100
AcDbEntity
  8
レイヤー_1
  6
CONTINUOUS
 62
       3
100
AcDbLine
 10
-105.33236318
 20
0.84553082
 30
0.0
 11
-105.06416893
 21
0.81623633
 31
0.0
  0
LINE
  5
154
100
AcDbEntity
  8
レイヤー_1
  6
CONTINUOUS
 62
       3
100
AcDbLine
 10
-105.06416893
 20
0.81623633
 30
0.0
 11
-104.79341133
 21
0.81243529
 31
0.0
  0
LINE
  5
155
100
AcDbEntity
  8
レイヤー_1
  6
CONTINUOUS
 62
       3
100
AcDbLine
 10
-104.79341133
 20
0.81243529
 30
0.0
 11
-104.52196187
 21
0.83462773
 31
0.0
  0
LINE
  5
156
100
AcDbEntity
  8
レイヤー_1
  6
CONTINUOUS
 62
       3
100
AcDbLine
 10
-104.52196187
 20
0.83462773
 30
0.0
 11
-104.25169201
 21
0.88331367
 31
0.0
  0
LINE
  5
157
100
AcDbEntity
  8
レイヤー_1
  6
CONTINUOUS
 62
       3
100
AcDbLine
 10
-104.25169201
 20
0.88331367
 30
0.0
 11
-103.98447323
 21
0.95899313
 31
0.0
  0
LINE
  5
158
100
AcDbEntity
  8
レイヤー_1
  6
CONTINUOUS
 62
       3
100
AcDbLine
 10
-103.98447323
 20
0.95899313
 30
0.0
 11
-103.722177
 21
1.06216613
 31
0.0
  0
LINE
  5
159
100
AcDbEntity
  8
レイヤー_1
  6
CONTINUOUS
 62
       3
100
AcDbLine
 10
-103.722177
 20
1.06216613
 30
0.0
 11
-103.46667479
 21
1.1933327
 31
0.0
  0
LINE
  5
15A
100
AcDbEntity
  8
レイヤー_1
  6
CONTINUOUS
 62
       3
100
AcDbLine
 10
-103.90557996
 20
-8.06191632
 30
0.0
 11
-103.7366411
 21
-7.9528341
 31
0.0
  0
LINE
  5
15B
100
AcDbEntity
  8
レイヤー_1
  6
CONTINUOUS
 62
       3
100
AcDbLine
 10
-103.7366411
 20
-7.9528341
 30
0.0
 11
-103.58228647
 21
-7.82985746
 31
0.0
  0
LINE
  5
15C
100
AcDbEntity
  8
レイヤー_1
  6
CONTINUOUS
 62
       3
100
AcDbLine
 10
-103.58228647
 20
-7.82985746
 30
0.0
 11
-103.44286919
 21
-7.69429378
 31
0.0
  0
LINE
  5
15D
100
AcDbEntity
  8
レイヤー_1
  6
CONTINUOUS
 62
       3
100
AcDbLine
 10
-103.44286919
 20
-7.69429378
 30
0.0
 11
-103.31874233
 21
-7.54745045
 31
0.0
  0
LINE
  5
15E
100
AcDbEntity
  8
レイヤー_1
  6
CONTINUOUS
 62
       3
100
AcDbLine
 10
-103.31874233
 20
-7.54745045
 30
0.0
 11
-103.21025902
 21
-7.39063484
 31
0.0
  0
LINE
  5
15F
100
AcDbEntity
  8
レイヤー_1
  6
CONTINUOUS
 62
       3
100
AcDbLine
 10
-103.21025902
 20
-7.39063484
 30
0.0
 11
-103.11777234
 21
-7.22515434
 31
0.0
  0
LINE
  5
160
100
AcDbEntity
  8
レイヤー_1
  6
CONTINUOUS
 62
       3
100
AcDbLine
 10
-103.11777234
 20
-7.22515434
 30
0.0
 11
-103.04163539
 21
-7.05231633
 31
0.0
  0
LINE
  5
161
100
AcDbEntity
  8
レイヤー_1
  6
CONTINUOUS
 62
       3
100
AcDbLine
 10
-103.04163539
 20
-7.05231633
 30
0.0
 11
-102.98220127
 21
-6.87342818
 31
0.0
  0
LINE
  5
162
100
AcDbEntity
  8
レイヤー_1
  6
CONTINUOUS
 62
       3
100
AcDbLine
 10
-102.98220127
 20
-6.87342818
 30
0.0
 11
-102.93982308
 21
-6.68979729
 31
0.0
  0
LINE
  5
163
100
AcDbEntity
  8
レイヤー_1
  6
CONTINUOUS
 62
       3
100
AcDbLine
 10
-102.93982308
 20
-6.68979729
 30
0.0
 11
-102.91485392
 21
-6.50273102
 31
0.0
  0
LINE
  5
164
100
AcDbEntity
  8
レイヤー_1
  6
CONTINUOUS
 62
       3
100
AcDbLine
 10
-102.91485392
 20
-6.50273102
 30
0.0
 11
-102.90764689
 21
-6.31353678
 31
0.0
  0
LINE
  5
165
100
AcDbEntity
  8
レイヤー_1
  6
CONTINUOUS
 62
       3
100
AcDbLine
 10
-102.90764689
 20
-6.31353678
 30
0.0
 11
-102.91855509
 21
-6.12352192
 31
0.0
  0
LINE
  5
166
100
AcDbEntity
  8
レイヤー_1
  6
CONTINUOUS
 62
       3
100
AcDbLine
 10
-102.91855509
 20
-6.12352192
 30
0.0
 11
-102.94793161
 21
-5.93399384
 31
0.0
  0
LINE
  5
167
100
AcDbEntity
  8
レイヤー_1
  6
CONTINUOUS
 62
       3
100
AcDbLine
 10
-102.94793161
 20
-5.93399384
 30
0.0
 11
-102.99612956
 21
-5.74625992
 31
0.0
  0
LINE
  5
168
100
AcDbEntity
  8
レイヤー_1
  6
CONTINUOUS
 62
       3
100
AcDbLine
 10
-102.99612956
 20
-5.74625992
 30
0.0
 11
-103.06350203
 21
-5.56162753
 31
0.0
  0
LINE
  5
169
100
AcDbEntity
  8
レイヤー_1
  6
CONTINUOUS
 62
       3
100
AcDbLine
 10
-103.06350203
 20
-5.56162753
 30
0.0
 11
-103.15040212
 21
-5.38140407
 31
0.0
  0
LINE
  5
16A
100
AcDbEntity
  8
レイヤー_1
  6
CONTINUOUS
 62
       3
100
AcDbLine
 10
-103.15040212
 20
-5.38140407
 30
0.0
 11
-103.25567771
 21
-5.20913898
 31
0.0
  0
LINE
  5
16B
100
AcDbEntity
  8
レイヤー_1
  6
CONTINUOUS
 62
       3
100
AcDbLine
 10
-103.25567771
 20
-5.20913898
 30
0.0
 11
-103.37530331
 21
-5.05113098
 31
0.0
  0
LINE
  5
16C
100
AcDbEntity
  8
レイヤー_1
  6
CONTINUOUS
 62
       3
100
AcDbLine
 10
-103.37530331
 20
-5.05113098
 30
0.0
 11
-103.5078428
 21
-4.90798794
 31
0.0
  0
LINE
  5
16D
100
AcDbEntity
  8
レイヤー_1
  6
CONTINUOUS
 62
       3
100
AcDbLine
 10
-103.5078428
 20
-4.90798794
 30
0.0
 11
-103.65198879
 21
-4.78005862
 31
0.0
  0
LINE
  5
16E
100
AcDbEntity
  8
レイヤー_1
  6
CONTINUOUS
 62
       3
100
AcDbLine
 10
-103.65198879
 20
-4.78005862
 30
0.0
 11
-103.80643389
 21
-4.66769179
 31
0.0
  0
LINE
  5
16F
100
AcDbEntity
  8
レイヤー_1
  6
CONTINUOUS
 62
       3
100
AcDbLine
 10
-103.80643389
 20
-4.66769179
 30
0.0
 11
-103.96987074
 21
-4.5712362
 31
0.0
  0
LINE
  5
170
100
AcDbEntity
  8
レイヤー_1
  6
CONTINUOUS
 62
       3
100
AcDbLine
 10
-103.96987074
 20
-4.5712362
 30
0.0
 11
-104.14099194
 21
-4.49104063
 31
0.0
  0
LINE
  5
171
100
AcDbEntity
  8
レイヤー_1
  6
CONTINUOUS
 62
       3
100
AcDbLine
 10
-104.14099194
 20
-4.49104063
 30
0.0
 11
-104.31849012
 21
-4.42745384
 31
0.0
  0
LINE
  5
172
100
AcDbEntity
  8
レイヤー_1
  6
CONTINUOUS
 62
       3
100
AcDbLine
 10
-104.31849012
 20
-4.42745384
 30
0.0
 11
-104.50105789
 21
-4.38082458
 31
0.0
  0
LINE
  5
173
100
AcDbEntity
  8
レイヤー_1
  6
CONTINUOUS
 62
       3
100
AcDbLine
 10
-104.50105789
 20
-4.38082458
 30
0.0
 11
-104.68738788
 21
-4.35150163
 31
0.0
  0
LINE
  5
174
100
AcDbEntity
  8
レイヤー_1
  6
CONTINUOUS
 62
       3
100
AcDbLine
 10
-104.68738788
 20
-4.35150163
 30
0.0
 11
-104.8761727
 21
-4.33983375
 31
0.0
  0
LINE
  5
175
100
AcDbEntity
  8
レイヤー_1
  6
CONTINUOUS
 62
       3
100
AcDbLine
 10
-104.8761727
 20
-4.33983375
 30
0.0
 11
-105.06610497
 21
-4.34616969
 31
0.0
  0
LINE
  5
176
100
AcDbEntity
  8
レイヤー_1
  6
CONTINUOUS
 62
       3
100
AcDbLine
 10
-105.06610497
 20
-4.34616969
 30
0.0
 11
-105.25587731
 21
-4.37085823
 31
0.0
  0
LINE
  5
177
100
AcDbEntity
  8
レイヤー_1
  6
CONTINUOUS
 62
       3
100
AcDbLine
 10
-105.25587731
 20
-4.37085823
 30
0.0
 11
-105.44418234
 21
-4.41424812
 31
0.0
  0
LINE
  5
178
100
AcDbEntity
  8
レイヤー_1
  6
CONTINUOUS
 62
       3
100
AcDbLine
 10
-105.44418234
 20
-4.41424812
 30
0.0
 11
-105.62971268
 21
-4.47668814
 31
0.0
  0
LINE
  5
179
100
AcDbEntity
  8
レイヤー_1
  6
CONTINUOUS
 62
       3
100
AcDbLine
 10
-105.62971268
 20
-4.47668814
 30
0.0
 11
-105.81116094
 21
-4.55852704
 31
0.0
  0
LINE
  5
17A
100
AcDbEntity
  8
レイヤー_1
  6
CONTINUOUS
 62
       3
100
AcDbLine
 10
-105.81116094
 20
-4.55852704
 30
0.0
 11
-105.98621518
 21
-4.65958349
 31
0.0
  0
LINE
  5
17B
100
AcDbEntity
  8
レイヤー_1
  6
CONTINUOUS
 62
       3
100
AcDbLine
 10
-105.98621518
 20
-4.65958349
 30
0.0
 11
-106.14789901
 21
-4.77583238
 31
0.0
  0
LINE
  5
17C
100
AcDbEntity
  8
レイヤー_1
  6
CONTINUOUS
 62
       3
100
AcDbLine
 10
-106.14789901
 20
-4.77583238
 30
0.0
 11
-106.2948164
 21
-4.90531489
 31
0.0
  0
LINE
  5
17D
100
AcDbEntity
  8
レイヤー_1
  6
CONTINUOUS
 62
       3
100
AcDbLine
 10
-106.2948164
 20
-4.90531489
 30
0.0
 11
-106.42661569
 21
-5.04672412
 31
0.0
  0
LINE
  5
17E
100
AcDbEntity
  8
レイヤー_1
  6
CONTINUOUS
 62
       3
100
AcDbLine
 10
-106.42661569
 20
-5.04672412
 30
0.0
 11
-106.54294522
 21
-5.19875318
 31
0.0
  0
LINE
  5
17F
100
AcDbEntity
  8
レイヤー_1
  6
CONTINUOUS
 62
       3
100
AcDbLine
 10
-106.54294522
 20
-5.19875318
 30
0.0
 11
-106.64345334
 21
-5.36009516
 31
0.0
  0
LINE
  5
180
100
AcDbEntity
  8
レイヤー_1
  6
CONTINUOUS
 62
       3
100
AcDbLine
 10
-106.64345334
 20
-5.36009516
 30
0.0
 11
-106.7277884
 21
-5.52944317
 31
0.0
  0
LINE
  5
181
100
AcDbEntity
  8
レイヤー_1
  6
CONTINUOUS
 62
       3
100
AcDbLine
 10
-106.7277884
 20
-5.52944317
 30
0.0
 11
-106.79559874
 21
-5.7054903
 31
0.0
  0
LINE
  5
182
100
AcDbEntity
  8
レイヤー_1
  6
CONTINUOUS
 62
       3
100
AcDbLine
 10
-106.79559874
 20
-5.7054903
 30
0.0
 11
-106.84653272
 21
-5.88692965
 31
0.0
  0
LINE
  5
183
100
AcDbEntity
  8
レイヤー_1
  6
CONTINUOUS
 62
       3
100
AcDbLine
 10
-106.84653272
 20
-5.88692965
 30
0.0
 11
-106.88023866
 21
-6.07245433
 31
0.0
  0
LINE
  5
184
100
AcDbEntity
  8
レイヤー_1
  6
CONTINUOUS
 62
       3
100
AcDbLine
 10
-106.88023866
 20
-6.07245433
 30
0.0
 11
-106.89636494
 21
-6.26075744
 31
0.0
  0
LINE
  5
185
100
AcDbEntity
  8
レイヤー_1
  6
CONTINUOUS
 62
       3
100
AcDbLine
 10
-106.89636494
 20
-6.26075744
 30
0.0
 11
-106.89455987
 21
-6.45053208
 31
0.0
  0
LINE
  5
186
100
AcDbEntity
  8
レイヤー_1
  6
CONTINUOUS
 62
       3
100
AcDbLine
 10
-106.89455987
 20
-6.45053208
 30
0.0
 11
-106.87447183
 21
-6.64047134
 31
0.0
  0
LINE
  5
187
100
AcDbEntity
  8
レイヤー_1
  6
CONTINUOUS
 62
       3
100
AcDbLine
 10
-106.87447183
 20
-6.64047134
 30
0.0
 11
-106.83574914
 21
-6.82926832
 31
0.0
  0
LINE
  5
188
100
AcDbEntity
  8
レイヤー_1
  6
CONTINUOUS
 62
       3
100
AcDbLine
 10
-106.83574914
 20
-6.82926832
 30
0.0
 11
-106.77804017
 21
-7.01561614
 31
0.0
  0
LINE
  5
189
100
AcDbEntity
  8
レイヤー_1
  6
CONTINUOUS
 62
       3
100
AcDbLine
 10
-106.77804017
 20
-7.01561614
 30
0.0
 11
-106.70099324
 21
-7.19820788
 31
0.0
  0
LINE
  5
18A
100
AcDbEntity
  8
レイヤー_1
  6
CONTINUOUS
 62
       3
100
AcDbLine
 10
-106.70099324
 20
-7.19820788
 30
0.0
 11
-106.60439387
 21
-7.37548254
 31
0.0
  0
LINE
  5
18B
100
AcDbEntity
  8
レイヤー_1
  6
CONTINUOUS
 62
       3
100
AcDbLine
 10
-106.60439387
 20
-7.37548254
 30
0.0
 11
-106.49165774
 21
-7.54079208
 31
0.0
  0
LINE
  5
18C
100
AcDbEntity
  8
レイヤー_1
  6
CONTINUOUS
 62
       3
100
AcDbLine
 10
-106.49165774
 20
-7.54079208
 30
0.0
 11
-106.36536187
 21
-7.69141044
 31
0.0
  0
LINE
  5
18D
100
AcDbEntity
  8
レイヤー_1
  6
CONTINUOUS
 62
       3
100
AcDbLine
 10
-106.36536187
 20
-7.69141044
 30
0.0
 11
-106.22681364
 21
-7.82698837
 31
0.0
  0
LINE
  5
18E
100
AcDbEntity
  8
レイヤー_1
  6
CONTINUOUS
 62
       3
100
AcDbLine
 10
-106.22681364
 20
-7.82698837
 30
0.0
 11
-106.07732042
 21
-7.94717663
 31
0.0
  0
LINE
  5
18F
100
AcDbEntity
  8
レイヤー_1
  6
CONTINUOUS
 62
       3
100
AcDbLine
 10
-106.07732042
 20
-7.94717663
 30
0.0
 11
-105.9181896
 21
-8.05162598
 31
0.0
  0
LINE
  5
190
100
AcDbEntity
  8
レイヤー_1
  6
CONTINUOUS
 62
       3
100
AcDbLine
 10
-105.9181896
 20
-8.05162598
 30
0.0
 11
-105.75072857
 21
-8.13998717
 31
0.0
  0
LINE
  5
191
100
AcDbEntity
  8
レイヤー_1
  6
CONTINUOUS
 62
       3
100
AcDbLine
 10
-105.75072857
 20
-8.13998717
 30
0.0
 11
-105.57624469
 21
-8.21191096
 31
0.0
  0
LINE
  5
192
100
AcDbEntity
  8
レイヤー_1
  6
CONTINUOUS
 62
       3
100
AcDbLine
 10
-105.57624469
 20
-8.21191096
 30
0.0
 11
-105.39604536
 21
-8.26704809
 31
0.0
  0
LINE
  5
193
100
AcDbEntity
  8
レイヤー_1
  6
CONTINUOUS
 62
       3
100
AcDbLine
 10
-105.39604536
 20
-8.26704809
 30
0.0
 11
-105.21143794
 21
-8.30504933
 31
0.0
  0
LINE
  5
194
100
AcDbEntity
  8
レイヤー_1
  6
CONTINUOUS
 62
       3
100
AcDbLine
 10
-105.21143794
 20
-8.30504933
 30
0.0
 11
-105.02372984
 21
-8.32556542
 31
0.0
  0
LINE
  5
195
100
AcDbEntity
  8
レイヤー_1
  6
CONTINUOUS
 62
       3
100
AcDbLine
 10
-105.02372984
 20
-8.32556542
 30
0.0
 11
-104.83422842
 21
-8.32824714
 31
0.0
  0
LINE
  5
196
100
AcDbEntity
  8
レイヤー_1
  6
CONTINUOUS
 62
       3
100
AcDbLine
 10
-104.83422842
 20
-8.32824714
 30
0.0
 11
-104.64424107
 21
-8.31274522
 31
0.0
  0
LINE
  5
197
100
AcDbEntity
  8
レイヤー_1
  6
CONTINUOUS
 62
       3
100
AcDbLine
 10
-104.64424107
 20
-8.31274522
 30
0.0
 11
-104.45507516
 21
-8.27871042
 31
0.0
  0
LINE
  5
198
100
AcDbEntity
  8
レイヤー_1
  6
CONTINUOUS
 62
       3
100
AcDbLine
 10
-104.45507516
 20
-8.27871042
 30
0.0
 11
-104.26803809
 21
-8.2257935
 31
0.0
  0
LINE
  5
199
100
AcDbEntity
  8
レイヤー_1
  6
CONTINUOUS
 62
       3
100
AcDbLine
 10
-104.26803809
 20
-8.2257935
 30
0.0
 11
-104.08443723
 21
-8.15364522
 31
0.0
  0
LINE
  5
19A
100
AcDbEntity
  8
レイヤー_1
  6
CONTINUOUS
 62
       3
100
AcDbLine
 10
-104.08443723
 20
-8.15364522
 30
0.0
 11
-103.90557996
 21
-8.06191632
 31
0.0
  0
LINE
  5
19B
100
AcDbEntity
  8
レイヤー_1
  6
CONTINUOUS
 62
       3
100
AcDbLine
 10
-103.90557996
 20
31.92875207
 30
0.0
 11
-103.7366411
 21
32.03789406
 31
0.0
  0
LINE
  5
19C
100
AcDbEntity
  8
レイヤー_1
  6
CONTINUOUS
 62
       3
100
AcDbLine
 10
-103.7366411
 20
32.03789406
 30
0.0
 11
-103.58228647
 21
32.16092312
 31
0.0
  0
LINE
  5
19D
100
AcDbEntity
  8
レイヤー_1
  6
CONTINUOUS
 62
       3
100
AcDbLine
 10
-103.58228647
 20
32.16092312
 30
0.0
 11
-103.44286919
 21
32.29653236
 31
0.0
  0
LINE
  5
19E
100
AcDbEntity
  8
レイヤー_1
  6
CONTINUOUS
 62
       3
100
AcDbLine
 10
-103.44286919
 20
32.29653236
 30
0.0
 11
-103.31874233
 21
32.44341487
 31
0.0
  0
LINE
  5
19F
100
AcDbEntity
  8
レイヤー_1
  6
CONTINUOUS
 62
       3
100
AcDbLine
 10
-103.31874233
 20
32.44341487
 30
0.0
 11
-103.21025902
 21
32.60026375
 31
0.0
  0
LINE
  5
1A0
100
AcDbEntity
  8
レイヤー_1
  6
CONTINUOUS
 62
       3
100
AcDbLine
 10
-103.21025902
 20
32.60026375
 30
0.0
 11
-103.11777234
 21
32.7657721
 31
0.0
  0
LINE
  5
1A1
100
AcDbEntity
  8
レイヤー_1
  6
CONTINUOUS
 62
       3
100
AcDbLine
 10
-103.11777234
 20
32.7657721
 30
0.0
 11
-103.04163539
 21
32.93863303
 31
0.0
  0
LINE
  5
1A2
100
AcDbEntity
  8
レイヤー_1
  6
CONTINUOUS
 62
       3
100
AcDbLine
 10
-103.04163539
 20
32.93863303
 30
0.0
 11
-102.98220127
 21
33.11753964
 31
0.0
  0
LINE
  5
1A3
100
AcDbEntity
  8
レイヤー_1
  6
CONTINUOUS
 62
       3
100
AcDbLine
 10
-102.98220127
 20
33.11753964
 30
0.0
 11
-102.93982308
 21
33.30118502
 31
0.0
  0
LINE
  5
1A4
100
AcDbEntity
  8
レイヤー_1
  6
CONTINUOUS
 62
       3
100
AcDbLine
 10
-102.93982308
 20
33.30118502
 30
0.0
 11
-102.91485392
 21
33.48826228
 31
0.0
  0
LINE
  5
1A5
100
AcDbEntity
  8
レイヤー_1
  6
CONTINUOUS
 62
       3
100
AcDbLine
 10
-102.91485392
 20
33.48826228
 30
0.0
 11
-102.90764689
 21
33.67746451
 31
0.0
  0
LINE
  5
1A6
100
AcDbEntity
  8
レイヤー_1
  6
CONTINUOUS
 62
       3
100
AcDbLine
 10
-102.90764689
 20
33.67746451
 30
0.0
 11
-102.91855509
 21
33.86748482
 31
0.0
  0
LINE
  5
1A7
100
AcDbEntity
  8
レイヤー_1
  6
CONTINUOUS
 62
       3
100
AcDbLine
 10
-102.91855509
 20
33.86748482
 30
0.0
 11
-102.94793161
 21
34.05701631
 31
0.0
  0
LINE
  5
1A8
100
AcDbEntity
  8
レイヤー_1
  6
CONTINUOUS
 62
       3
100
AcDbLine
 10
-102.94793161
 20
34.05701631
 30
0.0
 11
-102.99612956
 21
34.24475207
 31
0.0
  0
LINE
  5
1A9
100
AcDbEntity
  8
レイヤー_1
  6
CONTINUOUS
 62
       3
100
AcDbLine
 10
-102.99612956
 20
34.24475207
 30
0.0
 11
-103.06350203
 21
34.42938521
 31
0.0
  0
LINE
  5
1AA
100
AcDbEntity
  8
レイヤー_1
  6
CONTINUOUS
 62
       3
100
AcDbLine
 10
-103.06350203
 20
34.42938521
 30
0.0
 11
-103.15040212
 21
34.60960883
 31
0.0
  0
LINE
  5
1AB
100
AcDbEntity
  8
レイヤー_1
  6
CONTINUOUS
 62
       3
100
AcDbLine
 10
-103.15040212
 20
34.60960883
 30
0.0
 11
-103.25567771
 21
34.78183049
 31
0.0
  0
LINE
  5
1AC
100
AcDbEntity
  8
レイヤー_1
  6
CONTINUOUS
 62
       3
100
AcDbLine
 10
-103.25567771
 20
34.78183049
 30
0.0
 11
-103.37530331
 21
34.93979287
 31
0.0
  0
LINE
  5
1AD
100
AcDbEntity
  8
レイヤー_1
  6
CONTINUOUS
 62
       3
100
AcDbLine
 10
-103.37530331
 20
34.93979287
 30
0.0
 11
-103.5078428
 21
35.08290258
 31
0.0
  0
LINE
  5
1AE
100
AcDbEntity
  8
レイヤー_1
  6
CONTINUOUS
 62
       3
100
AcDbLine
 10
-103.5078428
 20
35.08290258
 30
0.0
 11
-103.65198879
 21
35.21080892
 31
0.0
  0
LINE
  5
1AF
100
AcDbEntity
  8
レイヤー_1
  6
CONTINUOUS
 62
       3
100
AcDbLine
 10
-103.65198879
 20
35.21080892
 30
0.0
 11
-103.80643389
 21
35.32316121
 31
0.0
  0
LINE
  5
1B0
100
AcDbEntity
  8
レイヤー_1
  6
CONTINUOUS
 62
       3
100
AcDbLine
 10
-103.80643389
 20
35.32316121
 30
0.0
 11
-103.96987074
 21
35.41960875
 31
0.0
  0
LINE
  5
1B1
100
AcDbEntity
  8
レイヤー_1
  6
CONTINUOUS
 62
       3
100
AcDbLine
 10
-103.96987074
 20
35.41960875
 30
0.0
 11
-104.14099194
 21
35.49980085
 31
0.0
  0
LINE
  5
1B2
100
AcDbEntity
  8
レイヤー_1
  6
CONTINUOUS
 62
       3
100
AcDbLine
 10
-104.14099194
 20
35.49980085
 30
0.0
 11
-104.31849012
 21
35.56338683
 31
0.0
  0
LINE
  5
1B3
100
AcDbEntity
  8
レイヤー_1
  6
CONTINUOUS
 62
       3
100
AcDbLine
 10
-104.31849012
 20
35.56338683
 30
0.0
 11
-104.50105789
 21
35.61001599
 31
0.0
  0
LINE
  5
1B4
100
AcDbEntity
  8
レイヤー_1
  6
CONTINUOUS
 62
       3
100
AcDbLine
 10
-104.50105789
 20
35.61001599
 30
0.0
 11
-104.68738788
 21
35.63933764
 31
0.0
  0
LINE
  5
1B5
100
AcDbEntity
  8
レイヤー_1
  6
CONTINUOUS
 62
       3
100
AcDbLine
 10
-104.68738788
 20
35.63933764
 30
0.0
 11
-104.8761727
 21
35.65100109
 31
0.0
  0
LINE
  5
1B6
100
AcDbEntity
  8
レイヤー_1
  6
CONTINUOUS
 62
       3
100
AcDbLine
 10
-104.8761727
 20
35.65100109
 30
0.0
 11
-105.06610497
 21
35.64465566
 31
0.0
  0
LINE
  5
1B7
100
AcDbEntity
  8
レイヤー_1
  6
CONTINUOUS
 62
       3
100
AcDbLine
 10
-105.06610497
 20
35.64465566
 30
0.0
 11
-105.25587731
 21
35.61995065
 31
0.0
  0
LINE
  5
1B8
100
AcDbEntity
  8
レイヤー_1
  6
CONTINUOUS
 62
       3
100
AcDbLine
 10
-105.25587731
 20
35.61995065
 30
0.0
 11
-105.44418234
 21
35.57653537
 31
0.0
  0
LINE
  5
1B9
100
AcDbEntity
  8
レイヤー_1
  6
CONTINUOUS
 62
       3
100
AcDbLine
 10
-105.44418234
 20
35.57653537
 30
0.0
 11
-105.62971268
 21
35.51405913
 31
0.0
  0
LINE
  5
1BA
100
AcDbEntity
  8
レイヤー_1
  6
CONTINUOUS
 62
       3
100
AcDbLine
 10
-105.62971268
 20
35.51405913
 30
0.0
 11
-105.81116094
 21
35.43217124
 31
0.0
  0
LINE
  5
1BB
100
AcDbEntity
  8
レイヤー_1
  6
CONTINUOUS
 62
       3
100
AcDbLine
 10
-105.81116094
 20
35.43217124
 30
0.0
 11
-105.98621518
 21
35.33111574
 31
0.0
  0
LINE
  5
1BC
100
AcDbEntity
  8
レイヤー_1
  6
CONTINUOUS
 62
       3
100
AcDbLine
 10
-105.98621518
 20
35.33111574
 30
0.0
 11
-106.14789901
 21
35.21492288
 31
0.0
  0
LINE
  5
1BD
100
AcDbEntity
  8
レイヤー_1
  6
CONTINUOUS
 62
       3
100
AcDbLine
 10
-106.14789901
 20
35.21492288
 30
0.0
 11
-106.2948164
 21
35.0854893
 31
0.0
  0
LINE
  5
1BE
100
AcDbEntity
  8
レイヤー_1
  6
CONTINUOUS
 62
       3
100
AcDbLine
 10
-106.2948164
 20
35.0854893
 30
0.0
 11
-106.42661569
 21
34.94412237
 31
0.0
  0
LINE
  5
1BF
100
AcDbEntity
  8
レイヤー_1
  6
CONTINUOUS
 62
       3
100
AcDbLine
 10
-106.42661569
 20
34.94412237
 30
0.0
 11
-106.54294522
 21
34.79212948
 31
0.0
  0
LINE
  5
1C0
100
AcDbEntity
  8
レイヤー_1
  6
CONTINUOUS
 62
       3
100
AcDbLine
 10
-106.54294522
 20
34.79212948
 30
0.0
 11
-106.64345334
 21
34.630818
 31
0.0
  0
LINE
  5
1C1
100
AcDbEntity
  8
レイヤー_1
  6
CONTINUOUS
 62
       3
100
AcDbLine
 10
-106.64345334
 20
34.630818
 30
0.0
 11
-106.7277884
 21
34.46149532
 31
0.0
  0
LINE
  5
1C2
100
AcDbEntity
  8
レイヤー_1
  6
CONTINUOUS
 62
       3
100
AcDbLine
 10
-106.7277884
 20
34.46149532
 30
0.0
 11
-106.79559874
 21
34.28546882
 31
0.0
  0
LINE
  5
1C3
100
AcDbEntity
  8
レイヤー_1
  6
CONTINUOUS
 62
       3
100
AcDbLine
 10
-106.79559874
 20
34.28546882
 30
0.0
 11
-106.84653272
 21
34.10404588
 31
0.0
  0
LINE
  5
1C4
100
AcDbEntity
  8
レイヤー_1
  6
CONTINUOUS
 62
       3
100
AcDbLine
 10
-106.84653272
 20
34.10404588
 30
0.0
 11
-106.88023866
 21
33.91853388
 31
0.0
  0
LINE
  5
1C5
100
AcDbEntity
  8
レイヤー_1
  6
CONTINUOUS
 62
       3
100
AcDbLine
 10
-106.88023866
 20
33.91853388
 30
0.0
 11
-106.89636494
 21
33.7302402
 31
0.0
  0
LINE
  5
1C6
100
AcDbEntity
  8
レイヤー_1
  6
CONTINUOUS
 62
       3
100
AcDbLine
 10
-106.89636494
 20
33.7302402
 30
0.0
 11
-106.89455987
 21
33.54047222
 31
0.0
  0
LINE
  5
1C7
100
AcDbEntity
  8
レイヤー_1
  6
CONTINUOUS
 62
       3
100
AcDbLine
 10
-106.89455987
 20
33.54047222
 30
0.0
 11
-106.87447183
 21
33.35053733
 31
0.0
  0
LINE
  5
1C8
100
AcDbEntity
  8
レイヤー_1
  6
CONTINUOUS
 62
       3
100
AcDbLine
 10
-106.87447183
 20
33.35053733
 30
0.0
 11
-106.83574914
 21
33.16174291
 31
0.0
  0
LINE
  5
1C9
100
AcDbEntity
  8
レイヤー_1
  6
CONTINUOUS
 62
       3
100
AcDbLine
 10
-106.83574914
 20
33.16174291
 30
0.0
 11
-106.77804017
 21
32.97539633
 31
0.0
  0
LINE
  5
1CA
100
AcDbEntity
  8
レイヤー_1
  6
CONTINUOUS
 62
       3
100
AcDbLine
 10
-106.77804017
 20
32.97539633
 30
0.0
 11
-106.70099324
 21
32.79280498
 31
0.0
  0
LINE
  5
1CB
100
AcDbEntity
  8
レイヤー_1
  6
CONTINUOUS
 62
       3
100
AcDbLine
 10
-106.70099324
 20
32.79280498
 30
0.0
 11
-106.60439387
 21
32.61553036
 31
0.0
  0
LINE
  5
1CC
100
AcDbEntity
  8
レイヤー_1
  6
CONTINUOUS
 62
       3
100
AcDbLine
 10
-106.60439387
 20
32.61553036
 30
0.0
 11
-106.49165774
 21
32.45022067
 31
0.0
  0
LINE
  5
1CD
100
AcDbEntity
  8
レイヤー_1
  6
CONTINUOUS
 62
       3
100
AcDbLine
 10
-106.49165774
 20
32.45022067
 30
0.0
 11
-106.36536187
 21
32.29960155
 31
0.0
  0
LINE
  5
1CE
100
AcDbEntity
  8
レイヤー_1
  6
CONTINUOUS
 62
       3
100
AcDbLine
 10
-106.36536187
 20
32.29960155
 30
0.0
 11
-106.22681364
 21
32.16402178
 31
0.0
  0
LINE
  5
1CF
100
AcDbEntity
  8
レイヤー_1
  6
CONTINUOUS
 62
       3
100
AcDbLine
 10
-106.22681364
 20
32.16402178
 30
0.0
 11
-106.07732042
 21
32.0438301
 31
0.0
  0
LINE
  5
1D0
100
AcDbEntity
  8
レイヤー_1
  6
CONTINUOUS
 62
       3
100
AcDbLine
 10
-106.07732042
 20
32.0438301
 30
0.0
 11
-105.9181896
 21
31.9393753
 31
0.0
  0
LINE
  5
1D1
100
AcDbEntity
  8
レイヤー_1
  6
CONTINUOUS
 62
       3
100
AcDbLine
 10
-105.9181896
 20
31.9393753
 30
0.0
 11
-105.75072857
 21
31.85100613
 31
0.0
  0
LINE
  5
1D2
100
AcDbEntity
  8
レイヤー_1
  6
CONTINUOUS
 62
       3
100
AcDbLine
 10
-105.75072857
 20
31.85100613
 30
0.0
 11
-105.57624469
 21
31.77907135
 31
0.0
  0
LINE
  5
1D3
100
AcDbEntity
  8
レイヤー_1
  6
CONTINUOUS
 62
       3
100
AcDbLine
 10
-105.57624469
 20
31.77907135
 30
0.0
 11
-105.39604536
 21
31.72391973
 31
0.0
  0
LINE
  5
1D4
100
AcDbEntity
  8
レイヤー_1
  6
CONTINUOUS
 62
       3
100
AcDbLine
 10
-105.39604536
 20
31.72391973
 30
0.0
 11
-105.21143794
 21
31.68590003
 31
0.0
  0
LINE
  5
1D5
100
AcDbEntity
  8
レイヤー_1
  6
CONTINUOUS
 62
       3
100
AcDbLine
 10
-105.21143794
 20
31.68590003
 30
0.0
 11
-105.02372984
 21
31.66536102
 31
0.0
  0
LINE
  5
1D6
100
AcDbEntity
  8
レイヤー_1
  6
CONTINUOUS
 62
       3
100
AcDbLine
 10
-105.02372984
 20
31.66536102
 30
0.0
 11
-104.83422842
 21
31.66265145
 31
0.0
  0
LINE
  5
1D7
100
AcDbEntity
  8
レイヤー_1
  6
CONTINUOUS
 62
       3
100
AcDbLine
 10
-104.83422842
 20
31.66265145
 30
0.0
 11
-104.64424107
 21
31.6781201
 31
0.0
  0
LINE
  5
1D8
100
AcDbEntity
  8
レイヤー_1
  6
CONTINUOUS
 62
       3
100
AcDbLine
 10
-104.64424107
 20
31.6781201
 30
0.0
 11
-104.45507516
 21
31.71211572
 31
0.0
  0
LINE
  5
1D9
100
AcDbEntity
  8
レイヤー_1
  6
CONTINUOUS
 62
       3
100
AcDbLine
 10
-104.45507516
 20
31.71211572
 30
0.0
 11
-104.26803809
 21
31.76498708
 31
0.0
  0
LINE
  5
1DA
100
AcDbEntity
  8
レイヤー_1
  6
CONTINUOUS
 62
       3
100
AcDbLine
 10
-104.26803809
 20
31.76498708
 30
0.0
 11
-104.08443723
 21
31.83708294
 31
0.0
  0
LINE
  5
1DB
100
AcDbEntity
  8
レイヤー_1
  6
CONTINUOUS
 62
       3
100
AcDbLine
 10
-104.08443723
 20
31.83708294
 30
0.0
 11
-103.90557996
 21
31.92875207
 31
0.0
  0
LINE
  5
1DC
100
AcDbEntity
  8
レイヤー_1
  6
CONTINUOUS
 62
       3
100
AcDbLine
 10
-56.47074924
 20
11.1909998
 30
0.0
 11
-56.22940795
 21
11.34681594
 31
0.0
  0
LINE
  5
1DD
100
AcDbEntity
  8
レイヤー_1
  6
CONTINUOUS
 62
       3
100
AcDbLine
 10
-56.22940795
 20
11.34681594
 30
0.0
 11
-56.00893395
 21
11.52248546
 31
0.0
  0
LINE
  5
1DE
100
AcDbEntity
  8
レイヤー_1
  6
CONTINUOUS
 62
       3
100
AcDbLine
 10
-56.00893395
 20
11.52248546
 30
0.0
 11
-55.80982628
 21
11.71613931
 31
0.0
  0
LINE
  5
1DF
100
AcDbEntity
  8
レイヤー_1
  6
CONTINUOUS
 62
       3
100
AcDbLine
 10
-55.80982628
 20
11.71613931
 30
0.0
 11
-55.63258401
 21
11.92590841
 31
0.0
  0
LINE
  5
1E0
100
AcDbEntity
  8
レイヤー_1
  6
CONTINUOUS
 62
       3
100
AcDbLine
 10
-55.63258401
 20
11.92590841
 30
0.0
 11
-55.47770619
 21
12.1499237
 31
0.0
  0
LINE
  5
1E1
100
AcDbEntity
  8
レイヤー_1
  6
CONTINUOUS
 62
       3
100
AcDbLine
 10
-55.47770619
 20
12.1499237
 30
0.0
 11
-55.34569189
 21
12.38631612
 31
0.0
  0
LINE
  5
1E2
100
AcDbEntity
  8
レイヤー_1
  6
CONTINUOUS
 62
       3
100
AcDbLine
 10
-55.34569189
 20
12.38631612
 30
0.0
 11
-55.23704017
 21
12.63321661
 31
0.0
  0
LINE
  5
1E3
100
AcDbEntity
  8
レイヤー_1
  6
CONTINUOUS
 62
       3
100
AcDbLine
 10
-55.23704017
 20
12.63321661
 30
0.0
 11
-55.15225009
 21
12.8887561
 31
0.0
  0
LINE
  5
1E4
100
AcDbEntity
  8
レイヤー_1
  6
CONTINUOUS
 62
       3
100
AcDbLine
 10
-55.15225009
 20
12.8887561
 30
0.0
 11
-55.09182069
 21
13.15106553
 31
0.0
  0
LINE
  5
1E5
100
AcDbEntity
  8
レイヤー_1
  6
CONTINUOUS
 62
       3
100
AcDbLine
 10
-55.09182069
 20
13.15106553
 30
0.0
 11
-55.05625105
 21
13.41827582
 31
0.0
  0
LINE
  5
1E6
100
AcDbEntity
  8
レイヤー_1
  6
CONTINUOUS
 62
       3
100
AcDbLine
 10
-55.05625105
 20
13.41827582
 30
0.0
 11
-55.04604023
 21
13.68851793
 31
0.0
  0
LINE
  5
1E7
100
AcDbEntity
  8
レイヤー_1
  6
CONTINUOUS
 62
       3
100
AcDbLine
 10
-55.04604023
 20
13.68851793
 30
0.0
 11
-55.06168728
 21
13.95992279
 31
0.0
  0
LINE
  5
1E8
100
AcDbEntity
  8
レイヤー_1
  6
CONTINUOUS
 62
       3
100
AcDbLine
 10
-55.06168728
 20
13.95992279
 30
0.0
 11
-55.10369126
 21
14.23062132
 31
0.0
  0
LINE
  5
1E9
100
AcDbEntity
  8
レイヤー_1
  6
CONTINUOUS
 62
       3
100
AcDbLine
 10
-55.10369126
 20
14.23062132
 30
0.0
 11
-55.17255123
 21
14.49874448
 31
0.0
  0
LINE
  5
1EA
100
AcDbEntity
  8
レイヤー_1
  6
CONTINUOUS
 62
       3
100
AcDbLine
 10
-55.17255123
 20
14.49874448
 30
0.0
 11
-55.26876625
 21
14.76242319
 31
0.0
  0
LINE
  5
1EB
100
AcDbEntity
  8
レイヤー_1
  6
CONTINUOUS
 62
       3
100
AcDbLine
 10
-55.26876625
 20
14.76242319
 30
0.0
 11
-55.39283538
 21
15.01978838
 31
0.0
  0
LINE
  5
1EC
100
AcDbEntity
  8
レイヤー_1
  6
CONTINUOUS
 62
       3
100
AcDbLine
 10
-55.39283538
 20
15.01978838
 30
0.0
 11
-55.54314572
 21
15.26591675
 31
0.0
  0
LINE
  5
1ED
100
AcDbEntity
  8
レイヤー_1
  6
CONTINUOUS
 62
       3
100
AcDbLine
 10
-55.54314572
 20
15.26591675
 30
0.0
 11
-55.7139737
 21
15.49172656
 31
0.0
  0
LINE
  5
1EE
100
AcDbEntity
  8
レイヤー_1
  6
CONTINUOUS
 62
       3
100
AcDbLine
 10
-55.7139737
 20
15.49172656
 30
0.0
 11
-55.90326194
 21
15.6963001
 31
0.0
  0
LINE
  5
1EF
100
AcDbEntity
  8
レイヤー_1
  6
CONTINUOUS
 62
       3
100
AcDbLine
 10
-55.90326194
 20
15.6963001
 30
0.0
 11
-56.10914186
 21
15.87913685
 31
0.0
  0
LINE
  5
1F0
100
AcDbEntity
  8
レイヤー_1
  6
CONTINUOUS
 62
       3
100
AcDbLine
 10
-56.10914186
 20
15.87913685
 30
0.0
 11
-56.32974487
 21
16.03973633
 31
0.0
  0
LINE
  5
1F1
100
AcDbEntity
  8
レイヤー_1
  6
CONTINUOUS
 62
       3
100
AcDbLine
 10
-56.32974487
 20
16.03973633
 30
0.0
 11
-56.56320238
 21
16.17759801
 31
0.0
  0
LINE
  5
1F2
100
AcDbEntity
  8
レイヤー_1
  6
CONTINUOUS
 62
       3
100
AcDbLine
 10
-56.56320238
 20
16.17759801
 30
0.0
 11
-56.80764583
 21
16.29222141
 31
0.0
  0
LINE
  5
1F3
100
AcDbEntity
  8
レイヤー_1
  6
CONTINUOUS
 62
       3
100
AcDbLine
 10
-56.80764583
 20
16.29222141
 30
0.0
 11
-57.06120663
 21
16.383106
 31
0.0
  0
LINE
  5
1F4
100
AcDbEntity
  8
レイヤー_1
  6
CONTINUOUS
 62
       3
100
AcDbLine
 10
-57.06120663
 20
16.383106
 30
0.0
 11
-57.32201618
 21
16.4497513
 31
0.0
  0
LINE
  5
1F5
100
AcDbEntity
  8
レイヤー_1
  6
CONTINUOUS
 62
       3
100
AcDbLine
 10
-57.32201618
 20
16.4497513
 30
0.0
 11
-57.58820593
 21
16.49165678
 31
0.0
  0
LINE
  5
1F6
100
AcDbEntity
  8
レイヤー_1
  6
CONTINUOUS
 62
       3
100
AcDbLine
 10
-57.58820593
 20
16.49165678
 30
0.0
 11
-57.85790727
 21
16.50832196
 31
0.0
  0
LINE
  5
1F7
100
AcDbEntity
  8
レイヤー_1
  6
CONTINUOUS
 62
       3
100
AcDbLine
 10
-57.85790727
 20
16.50832196
 30
0.0
 11
-58.12925162
 21
16.49924632
 31
0.0
  0
LINE
  5
1F8
100
AcDbEntity
  8
レイヤー_1
  6
CONTINUOUS
 62
       3
100
AcDbLine
 10
-58.12925162
 20
16.49924632
 30
0.0
 11
-58.40037042
 21
16.46392937
 31
0.0
  0
LINE
  5
1F9
100
AcDbEntity
  8
レイヤー_1
  6
CONTINUOUS
 62
       3
100
AcDbLine
 10
-58.40037042
 20
16.46392937
 30
0.0
 11
-58.66939507
 21
16.40187058
 31
0.0
  0
LINE
  5
1FA
100
AcDbEntity
  8
レイヤー_1
  6
CONTINUOUS
 62
       3
100
AcDbLine
 10
-58.66939507
 20
16.40187058
 30
0.0
 11
-58.93445699
 21
16.31256947
 31
0.0
  0
LINE
  5
1FB
100
AcDbEntity
  8
レイヤー_1
  6
CONTINUOUS
 62
       3
100
AcDbLine
 10
-58.93445699
 20
16.31256947
 30
0.0
 11
-59.1936876
 21
16.19552553
 31
0.0
  0
LINE
  5
1FC
100
AcDbEntity
  8
レイヤー_1
  6
CONTINUOUS
 62
       3
100
AcDbLine
 10
-59.1936876
 20
16.19552553
 30
0.0
 11
-59.44381282
 21
16.05110317
 31
0.0
  0
LINE
  5
1FD
100
AcDbEntity
  8
レイヤー_1
  6
CONTINUOUS
 62
       3
100
AcDbLine
 10
-59.44381282
 20
16.05110317
 30
0.0
 11
-59.67485297
 21
15.88507041
 31
0.0
  0
LINE
  5
1FE
100
AcDbEntity
  8
レイヤー_1
  6
CONTINUOUS
 62
       3
100
AcDbLine
 10
-59.67485297
 20
15.88507041
 30
0.0
 11
-59.88478053
 21
15.70012518
 31
0.0
  0
LINE
  5
1FF
100
AcDbEntity
  8
レイヤー_1
  6
CONTINUOUS
 62
       3
100
AcDbLine
 10
-59.88478053
 20
15.70012518
 30
0.0
 11
-60.07309403
 21
15.49813558
 31
0.0
  0
LINE
  5
200
100
AcDbEntity
  8
レイヤー_1
  6
CONTINUOUS
 62
       3
100
AcDbLine
 10
-60.07309403
 20
15.49813558
 30
0.0
 11
-60.239292
 21
15.28096971
 31
0.0
  0
LINE
  5
201
100
AcDbEntity
  8
レイヤー_1
  6
CONTINUOUS
 62
       3
100
AcDbLine
 10
-60.239292
 20
15.28096971
 30
0.0
 11
-60.38287298
 21
15.05049567
 31
0.0
  0
LINE
  5
202
100
AcDbEntity
  8
レイヤー_1
  6
CONTINUOUS
 62
       3
100
AcDbLine
 10
-60.38287298
 20
15.05049567
 30
0.0
 11
-60.50333548
 21
14.80858157
 31
0.0
  0
LINE
  5
203
100
AcDbEntity
  8
レイヤー_1
  6
CONTINUOUS
 62
       3
100
AcDbLine
 10
-60.50333548
 20
14.80858157
 30
0.0
 11
-60.60017805
 21
14.5570955
 31
0.0
  0
LINE
  5
204
100
AcDbEntity
  8
レイヤー_1
  6
CONTINUOUS
 62
       3
100
AcDbLine
 10
-60.60017805
 20
14.5570955
 30
0.0
 11
-60.67289923
 21
14.29790556
 31
0.0
  0
LINE
  5
205
100
AcDbEntity
  8
レイヤー_1
  6
CONTINUOUS
 62
       3
100
AcDbLine
 10
-60.67289923
 20
14.29790556
 30
0.0
 11
-60.72099753
 21
14.03287985
 31
0.0
  0
LINE
  5
206
100
AcDbEntity
  8
レイヤー_1
  6
CONTINUOUS
 62
       3
100
AcDbLine
 10
-60.72099753
 20
14.03287985
 30
0.0
 11
-60.74397149
 21
13.76388648
 31
0.0
  0
LINE
  5
207
100
AcDbEntity
  8
レイヤー_1
  6
CONTINUOUS
 62
       3
100
AcDbLine
 10
-60.74397149
 20
13.76388648
 30
0.0
 11
-60.74131965
 21
13.49279354
 31
0.0
  0
LINE
  5
208
100
AcDbEntity
  8
レイヤー_1
  6
CONTINUOUS
 62
       3
100
AcDbLine
 10
-60.74131965
 20
13.49279354
 30
0.0
 11
-60.71254054
 21
13.22146914
 31
0.0
  0
LINE
  5
209
100
AcDbEntity
  8
レイヤー_1
  6
CONTINUOUS
 62
       3
100
AcDbLine
 10
-60.71254054
 20
13.22146914
 30
0.0
 11
-60.65713269
 21
12.95178137
 31
0.0
  0
LINE
  5
20A
100
AcDbEntity
  8
レイヤー_1
  6
CONTINUOUS
 62
       3
100
AcDbLine
 10
-60.65713269
 20
12.95178137
 30
0.0
 11
-60.57459463
 21
12.68559834
 31
0.0
  0
LINE
  5
20B
100
AcDbEntity
  8
レイヤー_1
  6
CONTINUOUS
 62
       3
100
AcDbLine
 10
-60.57459463
 20
12.68559834
 30
0.0
 11
-60.46442489
 21
12.42478814
 31
0.0
  0
LINE
  5
20C
100
AcDbEntity
  8
レイヤー_1
  6
CONTINUOUS
 62
       3
100
AcDbLine
 10
-60.46442489
 20
12.42478814
 30
0.0
 11
-60.32638772
 21
12.17156538
 31
0.0
  0
LINE
  5
20D
100
AcDbEntity
  8
レイヤー_1
  6
CONTINUOUS
 62
       3
100
AcDbLine
 10
-60.32638772
 20
12.17156538
 30
0.0
 11
-60.16549043
 21
11.93538316
 31
0.0
  0
LINE
  5
20E
100
AcDbEntity
  8
レイヤー_1
  6
CONTINUOUS
 62
       3
100
AcDbLine
 10
-60.16549043
 20
11.93538316
 30
0.0
 11
-59.98519799
 21
11.72018034
 31
0.0
  0
LINE
  5
20F
100
AcDbEntity
  8
レイヤー_1
  6
CONTINUOUS
 62
       3
100
AcDbLine
 10
-59.98519799
 20
11.72018034
 30
0.0
 11
-59.78737849
 21
11.52645839
 31
0.0
  0
LINE
  5
210
100
AcDbEntity
  8
レイヤー_1
  6
CONTINUOUS
 62
       3
100
AcDbLine
 10
-59.78737849
 20
11.52645839
 30
0.0
 11
-59.57390005
 21
11.35471877
 31
0.0
  0
LINE
  5
211
100
AcDbEntity
  8
レイヤー_1
  6
CONTINUOUS
 62
       3
100
AcDbLine
 10
-59.57390005
 20
11.35471877
 30
0.0
 11
-59.34663076
 21
11.20546296
 31
0.0
  0
LINE
  5
212
100
AcDbEntity
  8
レイヤー_1
  6
CONTINUOUS
 62
       3
100
AcDbLine
 10
-59.34663076
 20
11.20546296
 30
0.0
 11
-59.10743872
 21
11.07919241
 31
0.0
  0
LINE
  5
213
100
AcDbEntity
  8
レイヤー_1
  6
CONTINUOUS
 62
       3
100
AcDbLine
 10
-59.10743872
 20
11.07919241
 30
0.0
 11
-58.85819204
 21
10.97640861
 31
0.0
  0
LINE
  5
214
100
AcDbEntity
  8
レイヤー_1
  6
CONTINUOUS
 62
       3
100
AcDbLine
 10
-58.85819204
 20
10.97640861
 30
0.0
 11
-58.6007588
 21
10.89761301
 31
0.0
  0
LINE
  5
215
100
AcDbEntity
  8
レイヤー_1
  6
CONTINUOUS
 62
       3
100
AcDbLine
 10
-58.6007588
 20
10.89761301
 30
0.0
 11
-58.33700712
 21
10.84330708
 31
0.0
  0
LINE
  5
216
100
AcDbEntity
  8
レイヤー_1
  6
CONTINUOUS
 62
       3
100
AcDbLine
 10
-58.33700712
 20
10.84330708
 30
0.0
 11
-58.06880509
 21
10.8139923
 31
0.0
  0
LINE
  5
217
100
AcDbEntity
  8
レイヤー_1
  6
CONTINUOUS
 62
       3
100
AcDbLine
 10
-58.06880509
 20
10.8139923
 30
0.0
 11
-57.79802081
 21
10.81017013
 31
0.0
  0
LINE
  5
218
100
AcDbEntity
  8
レイヤー_1
  6
CONTINUOUS
 62
       3
100
AcDbLine
 10
-57.79802081
 20
10.81017013
 30
0.0
 11
-57.52652239
 21
10.83234204
 31
0.0
  0
LINE
  5
219
100
AcDbEntity
  8
レイヤー_1
  6
CONTINUOUS
 62
       3
100
AcDbLine
 10
-57.52652239
 20
10.83234204
 30
0.0
 11
-57.25617792
 21
10.88100949
 31
0.0
  0
LINE
  5
21A
100
AcDbEntity
  8
レイヤー_1
  6
CONTINUOUS
 62
       3
100
AcDbLine
 10
-57.25617792
 20
10.88100949
 30
0.0
 11
-56.9888555
 21
10.95667395
 31
0.0
  0
LINE
  5
21B
100
AcDbEntity
  8
レイヤー_1
  6
CONTINUOUS
 62
       3
100
AcDbLine
 10
-56.9888555
 20
10.95667395
 30
0.0
 11
-56.72642324
 21
11.0598369
 31
0.0
  0
LINE
  5
21C
100
AcDbEntity
  8
レイヤー_1
  6
CONTINUOUS
 62
       3
100
AcDbLine
 10
-56.72642324
 20
11.0598369
 30
0.0
 11
-56.47074924
 21
11.1909998
 31
0.0
  0
LINE
  5
21D
100
AcDbEntity
  8
レイヤー_1
  6
CONTINUOUS
 62
       3
100
AcDbLine
 10
-56.90965441
 20
1.93575078
 30
0.0
 11
-56.74072664
 21
2.044833
 31
0.0
  0
LINE
  5
21E
100
AcDbEntity
  8
レイヤー_1
  6
CONTINUOUS
 62
       3
100
AcDbLine
 10
-56.74072664
 20
2.044833
 30
0.0
 11
-56.58640275
 21
2.16780964
 31
0.0
  0
LINE
  5
21F
100
AcDbEntity
  8
レイヤー_1
  6
CONTINUOUS
 62
       3
100
AcDbLine
 10
-56.58640275
 20
2.16780964
 30
0.0
 11
-56.44703197
 21
2.30337332
 31
0.0
  0
LINE
  5
220
100
AcDbEntity
  8
レイヤー_1
  6
CONTINUOUS
 62
       3
100
AcDbLine
 10
-56.44703197
 20
2.30337332
 30
0.0
 11
-56.32296355
 21
2.45021665
 31
0.0
  0
LINE
  5
221
100
AcDbEntity
  8
レイヤー_1
  6
CONTINUOUS
 62
       3
100
AcDbLine
 10
-56.32296355
 20
2.45021665
 30
0.0
 11
-56.21454673
 21
2.60703226
 31
0.0
  0
LINE
  5
222
100
AcDbEntity
  8
レイヤー_1
  6
CONTINUOUS
 62
       3
100
AcDbLine
 10
-56.21454673
 20
2.60703226
 30
0.0
 11
-56.12213076
 21
2.77251276
 31
0.0
  0
LINE
  5
223
100
AcDbEntity
  8
レイヤー_1
  6
CONTINUOUS
 62
       3
100
AcDbLine
 10
-56.12213076
 20
2.77251276
 30
0.0
 11
-56.04606488
 21
2.94535077
 31
0.0
  0
LINE
  5
224
100
AcDbEntity
  8
レイヤー_1
  6
CONTINUOUS
 62
       3
100
AcDbLine
 10
-56.04606488
 20
2.94535077
 30
0.0
 11
-55.98669834
 21
3.12423892
 31
0.0
  0
LINE
  5
225
100
AcDbEntity
  8
レイヤー_1
  6
CONTINUOUS
 62
       3
100
AcDbLine
 10
-55.98669834
 20
3.12423892
 30
0.0
 11
-55.94438039
 21
3.30786981
 31
0.0
  0
LINE
  5
226
100
AcDbEntity
  8
レイヤー_1
  6
CONTINUOUS
 62
       3
100
AcDbLine
 10
-55.94438039
 20
3.30786981
 30
0.0
 11
-55.91946026
 21
3.49493607
 31
0.0
  0
LINE
  5
227
100
AcDbEntity
  8
レイヤー_1
  6
CONTINUOUS
 62
       3
100
AcDbLine
 10
-55.91946026
 20
3.49493607
 30
0.0
 11
-55.91228721
 21
3.68413032
 31
0.0
  0
LINE
  5
228
100
AcDbEntity
  8
レイヤー_1
  6
CONTINUOUS
 62
       3
100
AcDbLine
 10
-55.91228721
 20
3.68413032
 30
0.0
 11
-55.92321048
 21
3.87414518
 31
0.0
  0
LINE
  5
229
100
AcDbEntity
  8
レイヤー_1
  6
CONTINUOUS
 62
       3
100
AcDbLine
 10
-55.92321048
 20
3.87414518
 30
0.0
 11
-55.95257932
 21
4.06367326
 31
0.0
  0
LINE
  5
22A
100
AcDbEntity
  8
レイヤー_1
  6
CONTINUOUS
 62
       3
100
AcDbLine
 10
-55.95257932
 20
4.06367326
 30
0.0
 11
-56.00074297
 21
4.25140718
 31
0.0
  0
LINE
  5
22B
100
AcDbEntity
  8
レイヤー_1
  6
CONTINUOUS
 62
       3
100
AcDbLine
 10
-56.00074297
 20
4.25140718
 30
0.0
 11
-56.06805067
 21
4.43603957
 31
0.0
  0
LINE
  5
22C
100
AcDbEntity
  8
レイヤー_1
  6
CONTINUOUS
 62
       3
100
AcDbLine
 10
-56.06805067
 20
4.43603957
 30
0.0
 11
-56.15485167
 21
4.61626303
 31
0.0
  0
LINE
  5
22D
100
AcDbEntity
  8
レイヤー_1
  6
CONTINUOUS
 62
       3
100
AcDbLine
 10
-56.15485167
 20
4.61626303
 30
0.0
 11
-56.26009674
 21
4.78852812
 31
0.0
  0
LINE
  5
22E
100
AcDbEntity
  8
レイヤー_1
  6
CONTINUOUS
 62
       3
100
AcDbLine
 10
-56.26009674
 20
4.78852812
 30
0.0
 11
-56.37972313
 21
4.94653612
 31
0.0
  0
LINE
  5
22F
100
AcDbEntity
  8
レイヤー_1
  6
CONTINUOUS
 62
       3
100
AcDbLine
 10
-56.37972313
 20
4.94653612
 30
0.0
 11
-56.5122651
 21
5.08967916
 31
0.0
  0
LINE
  5
230
100
AcDbEntity
  8
レイヤー_1
  6
CONTINUOUS
 62
       3
100
AcDbLine
 10
-56.5122651
 20
5.08967916
 30
0.0
 11
-56.65641621
 21
5.21760848
 31
0.0
  0
LINE
  5
231
100
AcDbEntity
  8
レイヤー_1
  6
CONTINUOUS
 62
       3
100
AcDbLine
 10
-56.65641621
 20
5.21760848
 30
0.0
 11
-56.81087006
 21
5.32997531
 31
0.0
  0
LINE
  5
232
100
AcDbEntity
  8
レイヤー_1
  6
CONTINUOUS
 62
       3
100
AcDbLine
 10
-56.81087006
 20
5.32997531
 30
0.0
 11
-56.97432022
 21
5.4264309
 31
0.0
  0
LINE
  5
233
100
AcDbEntity
  8
レイヤー_1
  6
CONTINUOUS
 62
       3
100
AcDbLine
 10
-56.97432022
 20
5.4264309
 30
0.0
 11
-57.14546028
 21
5.50662647
 31
0.0
  0
LINE
  5
234
100
AcDbEntity
  8
レイヤー_1
  6
CONTINUOUS
 62
       3
100
AcDbLine
 10
-57.14546028
 20
5.50662647
 30
0.0
 11
-57.32298382
 21
5.57021326
 31
0.0
  0
LINE
  5
235
100
AcDbEntity
  8
レイヤー_1
  6
CONTINUOUS
 62
       3
100
AcDbLine
 10
-57.32298382
 20
5.57021326
 30
0.0
 11
-57.50558442
 21
5.61684252
 31
0.0
  0
LINE
  5
236
100
AcDbEntity
  8
レイヤー_1
  6
CONTINUOUS
 62
       3
100
AcDbLine
 10
-57.50558442
 20
5.61684252
 30
0.0
 11
-57.69195566
 21
5.64616547
 31
0.0
  0
LINE
  5
237
100
AcDbEntity
  8
レイヤー_1
  6
CONTINUOUS
 62
       3
100
AcDbLine
 10
-57.69195566
 20
5.64616547
 30
0.0
 11
-57.88079114
 21
5.65783335
 31
0.0
  0
LINE
  5
238
100
AcDbEntity
  8
レイヤー_1
  6
CONTINUOUS
 62
       3
100
AcDbLine
 10
-57.88079114
 20
5.65783335
 30
0.0
 11
-58.07078441
 21
5.65149741
 31
0.0
  0
LINE
  5
239
100
AcDbEntity
  8
レイヤー_1
  6
CONTINUOUS
 62
       3
100
AcDbLine
 10
-58.07078441
 20
5.65149741
 30
0.0
 11
-58.26062908
 21
5.62680887
 31
0.0
  0
LINE
  5
23A
100
AcDbEntity
  8
レイヤー_1
  6
CONTINUOUS
 62
       3
100
AcDbLine
 10
-58.26062908
 20
5.62680887
 30
0.0
 11
-58.44901872
 21
5.58341897
 31
0.0
  0
LINE
  5
23B
100
AcDbEntity
  8
レイヤー_1
  6
CONTINUOUS
 62
       3
100
AcDbLine
 10
-58.44901872
 20
5.58341897
 30
0.0
 11
-58.63464692
 21
5.52097896
 31
0.0
  0
LINE
  5
23C
100
AcDbEntity
  8
レイヤー_1
  6
CONTINUOUS
 62
       3
100
AcDbLine
 10
-58.63464692
 20
5.52097896
 30
0.0
 11
-58.81620725
 21
5.43914006
 31
0.0
  0
LINE
  5
23D
100
AcDbEntity
  8
レイヤー_1
  6
CONTINUOUS
 62
       3
100
AcDbLine
 10
-58.81620725
 20
5.43914006
 30
0.0
 11
-58.99132124
 21
5.33808361
 31
0.0
  0
LINE
  5
23E
100
AcDbEntity
  8
レイヤー_1
  6
CONTINUOUS
 62
       3
100
AcDbLine
 10
-58.99132124
 20
5.33808361
 30
0.0
 11
-59.15299046
 21
5.22183472
 31
0.0
  0
LINE
  5
23F
100
AcDbEntity
  8
レイヤー_1
  6
CONTINUOUS
 62
       3
100
AcDbLine
 10
-59.15299046
 20
5.22183472
 30
0.0
 11
-59.29988047
 21
5.09235221
 31
0.0
  0
LINE
  5
240
100
AcDbEntity
  8
レイヤー_1
  6
CONTINUOUS
 62
       3
100
AcDbLine
 10
-59.29988047
 20
5.09235221
 30
0.0
 11
-59.43164154
 21
4.95094298
 31
0.0
  0
LINE
  5
241
100
AcDbEntity
  8
レイヤー_1
  6
CONTINUOUS
 62
       3
100
AcDbLine
 10
-59.43164154
 20
4.95094298
 30
0.0
 11
-59.54792394
 21
4.79891392
 31
0.0
  0
LINE
  5
242
100
AcDbEntity
  8
レイヤー_1
  6
CONTINUOUS
 62
       3
100
AcDbLine
 10
-59.54792394
 20
4.79891392
 30
0.0
 11
-59.64837795
 21
4.63757194
 31
0.0
  0
LINE
  5
243
100
AcDbEntity
  8
レイヤー_1
  6
CONTINUOUS
 62
       3
100
AcDbLine
 10
-59.64837795
 20
4.63757194
 30
0.0
 11
-59.73265384
 21
4.46822393
 31
0.0
  0
LINE
  5
244
100
AcDbEntity
  8
レイヤー_1
  6
CONTINUOUS
 62
       3
100
AcDbLine
 10
-59.73265384
 20
4.46822393
 30
0.0
 11
-59.80040188
 21
4.2921768
 31
0.0
  0
LINE
  5
245
100
AcDbEntity
  8
レイヤー_1
  6
CONTINUOUS
 62
       3
100
AcDbLine
 10
-59.80040188
 20
4.2921768
 30
0.0
 11
-59.85127235
 21
4.11073744
 31
0.0
  0
LINE
  5
246
100
AcDbEntity
  8
レイヤー_1
  6
CONTINUOUS
 62
       3
100
AcDbLine
 10
-59.85127235
 20
4.11073744
 30
0.0
 11
-59.88491551
 21
3.92521276
 31
0.0
  0
LINE
  5
247
100
AcDbEntity
  8
レイヤー_1
  6
CONTINUOUS
 62
       3
100
AcDbLine
 10
-59.88491551
 20
3.92521276
 30
0.0
 11
-59.90098165
 21
3.73690966
 31
0.0
  0
LINE
  5
248
100
AcDbEntity
  8
レイヤー_1
  6
CONTINUOUS
 62
       3
100
AcDbLine
 10
-59.90098165
 20
3.73690966
 30
0.0
 11
-59.89912103
 21
3.54713502
 31
0.0
  0
LINE
  5
249
100
AcDbEntity
  8
レイヤー_1
  6
CONTINUOUS
 62
       3
100
AcDbLine
 10
-59.89912103
 20
3.54713502
 30
0.0
 11
-59.87898393
 21
3.35719576
 31
0.0
  0
LINE
  5
24A
100
AcDbEntity
  8
レイヤー_1
  6
CONTINUOUS
 62
       3
100
AcDbLine
 10
-59.87898393
 20
3.35719576
 30
0.0
 11
-59.84022062
 21
3.16839877
 31
0.0
  0
LINE
  5
24B
100
AcDbEntity
  8
レイヤー_1
  6
CONTINUOUS
 62
       3
100
AcDbLine
 10
-59.84022062
 20
3.16839877
 30
0.0
 11
-59.78248137
 21
2.98205096
 31
0.0
  0
LINE
  5
24C
100
AcDbEntity
  8
レイヤー_1
  6
CONTINUOUS
 62
       3
100
AcDbLine
 10
-59.78248137
 20
2.98205096
 30
0.0
 11
-59.70541647
 21
2.79945921
 31
0.0
  0
LINE
  5
24D
100
AcDbEntity
  8
レイヤー_1
  6
CONTINUOUS
 62
       3
100
AcDbLine
 10
-59.70541647
 20
2.79945921
 30
0.0
 11
-59.60884413
 21
2.62218456
 31
0.0
  0
LINE
  5
24E
100
AcDbEntity
  8
レイヤー_1
  6
CONTINUOUS
 62
       3
100
AcDbLine
 10
-59.60884413
 20
2.62218456
 30
0.0
 11
-59.49622332
 21
2.45687502
 31
0.0
  0
LINE
  5
24F
100
AcDbEntity
  8
レイヤー_1
  6
CONTINUOUS
 62
       3
100
AcDbLine
 10
-59.49622332
 20
2.45687502
 30
0.0
 11
-59.37002649
 21
2.30625666
 31
0.0
  0
LINE
  5
250
100
AcDbEntity
  8
レイヤー_1
  6
CONTINUOUS
 62
       3
100
AcDbLine
 10
-59.37002649
 20
2.30625666
 30
0.0
 11
-59.23156057
 21
2.17067873
 31
0.0
  0
LINE
  5
251
100
AcDbEntity
  8
レイヤー_1
  6
CONTINUOUS
 62
       3
100
AcDbLine
 10
-59.23156057
 20
2.17067873
 30
0.0
 11
-59.08213244
 21
2.05049046
 31
0.0
  0
LINE
  5
252
100
AcDbEntity
  8
レイヤー_1
  6
CONTINUOUS
 62
       3
100
AcDbLine
 10
-59.08213244
 20
2.05049046
 30
0.0
 11
-58.92304901
 21
1.94604111
 31
0.0
  0
LINE
  5
253
100
AcDbEntity
  8
レイヤー_1
  6
CONTINUOUS
 62
       3
100
AcDbLine
 10
-58.92304901
 20
1.94604111
 30
0.0
 11
-58.75561717
 21
1.85767993
 31
0.0
  0
LINE
  5
254
100
AcDbEntity
  8
レイヤー_1
  6
CONTINUOUS
 62
       3
100
AcDbLine
 10
-58.75561717
 20
1.85767993
 30
0.0
 11
-58.58114382
 21
1.78575614
 31
0.0
  0
LINE
  5
255
100
AcDbEntity
  8
レイヤー_1
  6
CONTINUOUS
 62
       3
100
AcDbLine
 10
-58.58114382
 20
1.78575614
 30
0.0
 11
-58.40093587
 21
1.73061901
 31
0.0
  0
LINE
  5
256
100
AcDbEntity
  8
レイヤー_1
  6
CONTINUOUS
 62
       3
100
AcDbLine
 10
-58.40093587
 20
1.73061901
 30
0.0
 11
-58.21630022
 21
1.69261777
 31
0.0
  0
LINE
  5
257
100
AcDbEntity
  8
レイヤー_1
  6
CONTINUOUS
 62
       3
100
AcDbLine
 10
-58.21630022
 20
1.69261777
 30
0.0
 11
-58.02854375
 21
1.67210167
 31
0.0
  0
LINE
  5
258
100
AcDbEntity
  8
レイヤー_1
  6
CONTINUOUS
 62
       3
100
AcDbLine
 10
-58.02854375
 20
1.67210167
 30
0.0
 11
-57.83897338
 21
1.66941996
 31
0.0
  0
LINE
  5
259
100
AcDbEntity
  8
レイヤー_1
  6
CONTINUOUS
 62
       3
100
AcDbLine
 10
-57.83897338
 20
1.66941996
 30
0.0
 11
-57.648896
 21
1.68492188
 31
0.0
  0
LINE
  5
25A
100
AcDbEntity
  8
レイヤー_1
  6
CONTINUOUS
 62
       3
100
AcDbLine
 10
-57.648896
 20
1.68492188
 30
0.0
 11
-57.45961852
 21
1.71895668
 31
0.0
  0
LINE
  5
25B
100
AcDbEntity
  8
レイヤー_1
  6
CONTINUOUS
 62
       3
100
AcDbLine
 10
-57.45961852
 20
1.71895668
 30
0.0
 11
-57.27244782
 21
1.7718736
 31
0.0
  0
LINE
  5
25C
100
AcDbEntity
  8
レイヤー_1
  6
CONTINUOUS
 62
       3
100
AcDbLine
 10
-57.27244782
 20
1.7718736
 30
0.0
 11
-57.08869082
 21
1.84402188
 31
0.0
  0
LINE
  5
25D
100
AcDbEntity
  8
レイヤー_1
  6
CONTINUOUS
 62
       3
100
AcDbLine
 10
-57.08869082
 20
1.84402188
 30
0.0
 11
-56.90965441
 21
1.93575078
 31
0.0
  0
LINE
  5
25E
100
AcDbEntity
  8
レイヤー_1
  6
CONTINUOUS
 62
       3
100
AcDbLine
 10
-56.90965441
 20
31.92875207
 30
0.0
 11
-56.74072664
 21
32.03789406
 31
0.0
  0
LINE
  5
25F
100
AcDbEntity
  8
レイヤー_1
  6
CONTINUOUS
 62
       3
100
AcDbLine
 10
-56.74072664
 20
32.03789406
 30
0.0
 11
-56.58640275
 21
32.16092312
 31
0.0
  0
LINE
  5
260
100
AcDbEntity
  8
レイヤー_1
  6
CONTINUOUS
 62
       3
100
AcDbLine
 10
-56.58640275
 20
32.16092312
 30
0.0
 11
-56.44703197
 21
32.29653236
 31
0.0
  0
LINE
  5
261
100
AcDbEntity
  8
レイヤー_1
  6
CONTINUOUS
 62
       3
100
AcDbLine
 10
-56.44703197
 20
32.29653236
 30
0.0
 11
-56.32296355
 21
32.44341487
 31
0.0
  0
LINE
  5
262
100
AcDbEntity
  8
レイヤー_1
  6
CONTINUOUS
 62
       3
100
AcDbLine
 10
-56.32296355
 20
32.44341487
 30
0.0
 11
-56.21454673
 21
32.60026375
 31
0.0
  0
LINE
  5
263
100
AcDbEntity
  8
レイヤー_1
  6
CONTINUOUS
 62
       3
100
AcDbLine
 10
-56.21454673
 20
32.60026375
 30
0.0
 11
-56.12213076
 21
32.7657721
 31
0.0
  0
LINE
  5
264
100
AcDbEntity
  8
レイヤー_1
  6
CONTINUOUS
 62
       3
100
AcDbLine
 10
-56.12213076
 20
32.7657721
 30
0.0
 11
-56.04606488
 21
32.93863303
 31
0.0
  0
LINE
  5
265
100
AcDbEntity
  8
レイヤー_1
  6
CONTINUOUS
 62
       3
100
AcDbLine
 10
-56.04606488
 20
32.93863303
 30
0.0
 11
-55.98669834
 21
33.11753964
 31
0.0
  0
LINE
  5
266
100
AcDbEntity
  8
レイヤー_1
  6
CONTINUOUS
 62
       3
100
AcDbLine
 10
-55.98669834
 20
33.11753964
 30
0.0
 11
-55.94438039
 21
33.30118502
 31
0.0
  0
LINE
  5
267
100
AcDbEntity
  8
レイヤー_1
  6
CONTINUOUS
 62
       3
100
AcDbLine
 10
-55.94438039
 20
33.30118502
 30
0.0
 11
-55.91946026
 21
33.48826228
 31
0.0
  0
LINE
  5
268
100
AcDbEntity
  8
レイヤー_1
  6
CONTINUOUS
 62
       3
100
AcDbLine
 10
-55.91946026
 20
33.48826228
 30
0.0
 11
-55.91228721
 21
33.67746451
 31
0.0
  0
LINE
  5
269
100
AcDbEntity
  8
レイヤー_1
  6
CONTINUOUS
 62
       3
100
AcDbLine
 10
-55.91228721
 20
33.67746451
 30
0.0
 11
-55.92321048
 21
33.86748482
 31
0.0
  0
LINE
  5
26A
100
AcDbEntity
  8
レイヤー_1
  6
CONTINUOUS
 62
       3
100
AcDbLine
 10
-55.92321048
 20
33.86748482
 30
0.0
 11
-55.95257932
 21
34.05701631
 31
0.0
  0
LINE
  5
26B
100
AcDbEntity
  8
レイヤー_1
  6
CONTINUOUS
 62
       3
100
AcDbLine
 10
-55.95257932
 20
34.05701631
 30
0.0
 11
-56.00074297
 21
34.24475207
 31
0.0
  0
LINE
  5
26C
100
AcDbEntity
  8
レイヤー_1
  6
CONTINUOUS
 62
       3
100
AcDbLine
 10
-56.00074297
 20
34.24475207
 30
0.0
 11
-56.06805067
 21
34.42938521
 31
0.0
  0
LINE
  5
26D
100
AcDbEntity
  8
レイヤー_1
  6
CONTINUOUS
 62
       3
100
AcDbLine
 10
-56.06805067
 20
34.42938521
 30
0.0
 11
-56.15485167
 21
34.60960883
 31
0.0
  0
LINE
  5
26E
100
AcDbEntity
  8
レイヤー_1
  6
CONTINUOUS
 62
       3
100
AcDbLine
 10
-56.15485167
 20
34.60960883
 30
0.0
 11
-56.26009674
 21
34.78183049
 31
0.0
  0
LINE
  5
26F
100
AcDbEntity
  8
レイヤー_1
  6
CONTINUOUS
 62
       3
100
AcDbLine
 10
-56.26009674
 20
34.78183049
 30
0.0
 11
-56.37972313
 21
34.93979287
 31
0.0
  0
LINE
  5
270
100
AcDbEntity
  8
レイヤー_1
  6
CONTINUOUS
 62
       3
100
AcDbLine
 10
-56.37972313
 20
34.93979287
 30
0.0
 11
-56.5122651
 21
35.08290258
 31
0.0
  0
LINE
  5
271
100
AcDbEntity
  8
レイヤー_1
  6
CONTINUOUS
 62
       3
100
AcDbLine
 10
-56.5122651
 20
35.08290258
 30
0.0
 11
-56.65641621
 21
35.21080892
 31
0.0
  0
LINE
  5
272
100
AcDbEntity
  8
レイヤー_1
  6
CONTINUOUS
 62
       3
100
AcDbLine
 10
-56.65641621
 20
35.21080892
 30
0.0
 11
-56.81087006
 21
35.32316121
 31
0.0
  0
LINE
  5
273
100
AcDbEntity
  8
レイヤー_1
  6
CONTINUOUS
 62
       3
100
AcDbLine
 10
-56.81087006
 20
35.32316121
 30
0.0
 11
-56.97432022
 21
35.41960875
 31
0.0
  0
LINE
  5
274
100
AcDbEntity
  8
レイヤー_1
  6
CONTINUOUS
 62
       3
100
AcDbLine
 10
-56.97432022
 20
35.41960875
 30
0.0
 11
-57.14546028
 21
35.49980085
 31
0.0
  0
LINE
  5
275
100
AcDbEntity
  8
レイヤー_1
  6
CONTINUOUS
 62
       3
100
AcDbLine
 10
-57.14546028
 20
35.49980085
 30
0.0
 11
-57.32298382
 21
35.56338683
 31
0.0
  0
LINE
  5
276
100
AcDbEntity
  8
レイヤー_1
  6
CONTINUOUS
 62
       3
100
AcDbLine
 10
-57.32298382
 20
35.56338683
 30
0.0
 11
-57.50558442
 21
35.61001599
 31
0.0
  0
LINE
  5
277
100
AcDbEntity
  8
レイヤー_1
  6
CONTINUOUS
 62
       3
100
AcDbLine
 10
-57.50558442
 20
35.61001599
 30
0.0
 11
-57.69195566
 21
35.63933764
 31
0.0
  0
LINE
  5
278
100
AcDbEntity
  8
レイヤー_1
  6
CONTINUOUS
 62
       3
100
AcDbLine
 10
-57.69195566
 20
35.63933764
 30
0.0
 11
-57.88079114
 21
35.65100109
 31
0.0
  0
LINE
  5
279
100
AcDbEntity
  8
レイヤー_1
  6
CONTINUOUS
 62
       3
100
AcDbLine
 10
-57.88079114
 20
35.65100109
 30
0.0
 11
-58.07078441
 21
35.64465566
 31
0.0
  0
LINE
  5
27A
100
AcDbEntity
  8
レイヤー_1
  6
CONTINUOUS
 62
       3
100
AcDbLine
 10
-58.07078441
 20
35.64465566
 30
0.0
 11
-58.26062908
 21
35.61995065
 31
0.0
  0
LINE
  5
27B
100
AcDbEntity
  8
レイヤー_1
  6
CONTINUOUS
 62
       3
100
AcDbLine
 10
-58.26062908
 20
35.61995065
 30
0.0
 11
-58.44901872
 21
35.57653537
 31
0.0
  0
LINE
  5
27C
100
AcDbEntity
  8
レイヤー_1
  6
CONTINUOUS
 62
       3
100
AcDbLine
 10
-58.44901872
 20
35.57653537
 30
0.0
 11
-58.63464692
 21
35.51405913
 31
0.0
  0
LINE
  5
27D
100
AcDbEntity
  8
レイヤー_1
  6
CONTINUOUS
 62
       3
100
AcDbLine
 10
-58.63464692
 20
35.51405913
 30
0.0
 11
-58.81620725
 21
35.43217124
 31
0.0
  0
LINE
  5
27E
100
AcDbEntity
  8
レイヤー_1
  6
CONTINUOUS
 62
       3
100
AcDbLine
 10
-58.81620725
 20
35.43217124
 30
0.0
 11
-58.99132124
 21
35.33111574
 31
0.0
  0
LINE
  5
27F
100
AcDbEntity
  8
レイヤー_1
  6
CONTINUOUS
 62
       3
100
AcDbLine
 10
-58.99132124
 20
35.33111574
 30
0.0
 11
-59.15299046
 21
35.21492288
 31
0.0
  0
LINE
  5
280
100
AcDbEntity
  8
レイヤー_1
  6
CONTINUOUS
 62
       3
100
AcDbLine
 10
-59.15299046
 20
35.21492288
 30
0.0
 11
-59.29988047
 21
35.0854893
 31
0.0
  0
LINE
  5
281
100
AcDbEntity
  8
レイヤー_1
  6
CONTINUOUS
 62
       3
100
AcDbLine
 10
-59.29988047
 20
35.0854893
 30
0.0
 11
-59.43164154
 21
34.94412237
 31
0.0
  0
LINE
  5
282
100
AcDbEntity
  8
レイヤー_1
  6
CONTINUOUS
 62
       3
100
AcDbLine
 10
-59.43164154
 20
34.94412237
 30
0.0
 11
-59.54792394
 21
34.79212948
 31
0.0
  0
LINE
  5
283
100
AcDbEntity
  8
レイヤー_1
  6
CONTINUOUS
 62
       3
100
AcDbLine
 10
-59.54792394
 20
34.79212948
 30
0.0
 11
-59.64837795
 21
34.630818
 31
0.0
  0
LINE
  5
284
100
AcDbEntity
  8
レイヤー_1
  6
CONTINUOUS
 62
       3
100
AcDbLine
 10
-59.64837795
 20
34.630818
 30
0.0
 11
-59.73265384
 21
34.46149532
 31
0.0
  0
LINE
  5
285
100
AcDbEntity
  8
レイヤー_1
  6
CONTINUOUS
 62
       3
100
AcDbLine
 10
-59.73265384
 20
34.46149532
 30
0.0
 11
-59.80040188
 21
34.28546882
 31
0.0
  0
LINE
  5
286
100
AcDbEntity
  8
レイヤー_1
  6
CONTINUOUS
 62
       3
100
AcDbLine
 10
-59.80040188
 20
34.28546882
 30
0.0
 11
-59.85127235
 21
34.10404588
 31
0.0
  0
LINE
  5
287
100
AcDbEntity
  8
レイヤー_1
  6
CONTINUOUS
 62
       3
100
AcDbLine
 10
-59.85127235
 20
34.10404588
 30
0.0
 11
-59.88491551
 21
33.91853388
 31
0.0
  0
LINE
  5
288
100
AcDbEntity
  8
レイヤー_1
  6
CONTINUOUS
 62
       3
100
AcDbLine
 10
-59.88491551
 20
33.91853388
 30
0.0
 11
-59.90098165
 21
33.7302402
 31
0.0
  0
LINE
  5
289
100
AcDbEntity
  8
レイヤー_1
  6
CONTINUOUS
 62
       3
100
AcDbLine
 10
-59.90098165
 20
33.7302402
 30
0.0
 11
-59.89912103
 21
33.54047222
 31
0.0
  0
LINE
  5
28A
100
AcDbEntity
  8
レイヤー_1
  6
CONTINUOUS
 62
       3
100
AcDbLine
 10
-59.89912103
 20
33.54047222
 30
0.0
 11
-59.87898393
 21
33.35053733
 31
0.0
  0
LINE
  5
28B
100
AcDbEntity
  8
レイヤー_1
  6
CONTINUOUS
 62
       3
100
AcDbLine
 10
-59.87898393
 20
33.35053733
 30
0.0
 11
-59.84022062
 21
33.16174291
 31
0.0
  0
LINE
  5
28C
100
AcDbEntity
  8
レイヤー_1
  6
CONTINUOUS
 62
       3
100
AcDbLine
 10
-59.84022062
 20
33.16174291
 30
0.0
 11
-59.78248137
 21
32.97539633
 31
0.0
  0
LINE
  5
28D
100
AcDbEntity
  8
レイヤー_1
  6
CONTINUOUS
 62
       3
100
AcDbLine
 10
-59.78248137
 20
32.97539633
 30
0.0
 11
-59.70541647
 21
32.79280498
 31
0.0
  0
LINE
  5
28E
100
AcDbEntity
  8
レイヤー_1
  6
CONTINUOUS
 62
       3
100
AcDbLine
 10
-59.70541647
 20
32.79280498
 30
0.0
 11
-59.60884413
 21
32.61553036
 31
0.0
  0
LINE
  5
28F
100
AcDbEntity
  8
レイヤー_1
  6
CONTINUOUS
 62
       3
100
AcDbLine
 10
-59.60884413
 20
32.61553036
 30
0.0
 11
-59.49622332
 21
32.45022067
 31
0.0
  0
LINE
  5
290
100
AcDbEntity
  8
レイヤー_1
  6
CONTINUOUS
 62
       3
100
AcDbLine
 10
-59.49622332
 20
32.45022067
 30
0.0
 11
-59.37002649
 21
32.29960155
 31
0.0
  0
LINE
  5
291
100
AcDbEntity
  8
レイヤー_1
  6
CONTINUOUS
 62
       3
100
AcDbLine
 10
-59.37002649
 20
32.29960155
 30
0.0
 11
-59.23156057
 21
32.16402178
 31
0.0
  0
LINE
  5
292
100
AcDbEntity
  8
レイヤー_1
  6
CONTINUOUS
 62
       3
100
AcDbLine
 10
-59.23156057
 20
32.16402178
 30
0.0
 11
-59.08213244
 21
32.0438301
 31
0.0
  0
LINE
  5
293
100
AcDbEntity
  8
レイヤー_1
  6
CONTINUOUS
 62
       3
100
AcDbLine
 10
-59.08213244
 20
32.0438301
 30
0.0
 11
-58.92304901
 21
31.9393753
 31
0.0
  0
LINE
  5
294
100
AcDbEntity
  8
レイヤー_1
  6
CONTINUOUS
 62
       3
100
AcDbLine
 10
-58.92304901
 20
31.9393753
 30
0.0
 11
-58.75561717
 21
31.85100613
 31
0.0
  0
LINE
  5
295
100
AcDbEntity
  8
レイヤー_1
  6
CONTINUOUS
 62
       3
100
AcDbLine
 10
-58.75561717
 20
31.85100613
 30
0.0
 11
-58.58114382
 21
31.77907135
 31
0.0
  0
LINE
  5
296
100
AcDbEntity
  8
レイヤー_1
  6
CONTINUOUS
 62
       3
100
AcDbLine
 10
-58.58114382
 20
31.77907135
 30
0.0
 11
-58.40093587
 21
31.72391973
 31
0.0
  0
LINE
  5
297
100
AcDbEntity
  8
レイヤー_1
  6
CONTINUOUS
 62
       3
100
AcDbLine
 10
-58.40093587
 20
31.72391973
 30
0.0
 11
-58.21630022
 21
31.68590003
 31
0.0
  0
LINE
  5
298
100
AcDbEntity
  8
レイヤー_1
  6
CONTINUOUS
 62
       3
100
AcDbLine
 10
-58.21630022
 20
31.68590003
 30
0.0
 11
-58.02854375
 21
31.66536102
 31
0.0
  0
LINE
  5
299
100
AcDbEntity
  8
レイヤー_1
  6
CONTINUOUS
 62
       3
100
AcDbLine
 10
-58.02854375
 20
31.66536102
 30
0.0
 11
-57.83897338
 21
31.66265145
 31
0.0
  0
LINE
  5
29A
100
AcDbEntity
  8
レイヤー_1
  6
CONTINUOUS
 62
       3
100
AcDbLine
 10
-57.83897338
 20
31.66265145
 30
0.0
 11
-57.648896
 21
31.6781201
 31
0.0
  0
LINE
  5
29B
100
AcDbEntity
  8
レイヤー_1
  6
CONTINUOUS
 62
       3
100
AcDbLine
 10
-57.648896
 20
31.6781201
 30
0.0
 11
-57.45961852
 21
31.71211572
 31
0.0
  0
LINE
  5
29C
100
AcDbEntity
  8
レイヤー_1
  6
CONTINUOUS
 62
       3
100
AcDbLine
 10
-57.45961852
 20
31.71211572
 30
0.0
 11
-57.27244782
 21
31.76498708
 31
0.0
  0
LINE
  5
29D
100
AcDbEntity
  8
レイヤー_1
  6
CONTINUOUS
 62
       3
100
AcDbLine
 10
-57.27244782
 20
31.76498708
 30
0.0
 11
-57.08869082
 21
31.83708294
 31
0.0
  0
LINE
  5
29E
100
AcDbEntity
  8
レイヤー_1
  6
CONTINUOUS
 62
       3
100
AcDbLine
 10
-57.08869082
 20
31.83708294
 30
0.0
 11
-56.90965441
 21
31.92875207
 31
0.0
  0
LINE
  5
29F
100
AcDbEntity
  8
レイヤー_1
  6
CONTINUOUS
 62
       3
100
AcDbLine
 10
3.92177461
 20
26.41832184
 30
0.0
 11
3.65979951
 21
26.40600756
 31
0.0
  0
LINE
  5
2A0
100
AcDbEntity
  8
レイヤー_1
  6
CONTINUOUS
 62
       3
100
AcDbLine
 10
3.65979951
 20
26.40600756
 30
0.0
 11
3.41341978
 21
26.36979497
 31
0.0
  0
LINE
  5
2A1
100
AcDbEntity
  8
レイヤー_1
  6
CONTINUOUS
 62
       3
100
AcDbLine
 10
3.41341978
 20
26.36979497
 30
0.0
 11
3.18261228
 21
26.31077942
 31
0.0
  0
LINE
  5
2A2
100
AcDbEntity
  8
レイヤー_1
  6
CONTINUOUS
 62
       3
100
AcDbLine
 10
3.18261228
 20
26.31077942
 30
0.0
 11
2.96735388
 21
26.23005627
 31
0.0
  0
LINE
  5
2A3
100
AcDbEntity
  8
レイヤー_1
  6
CONTINUOUS
 62
       3
100
AcDbLine
 10
2.96735388
 20
26.23005627
 30
0.0
 11
2.76762142
 21
26.12872089
 31
0.0
  0
LINE
  5
2A4
100
AcDbEntity
  8
レイヤー_1
  6
CONTINUOUS
 62
       3
100
AcDbLine
 10
2.76762142
 20
26.12872089
 30
0.0
 11
2.58339178
 21
26.00786863
 31
0.0
  0
LINE
  5
2A5
100
AcDbEntity
  8
レイヤー_1
  6
CONTINUOUS
 62
       3
100
AcDbLine
 10
2.58339178
 20
26.00786863
 30
0.0
 11
2.4146418
 21
25.86859485
 31
0.0
  0
LINE
  5
2A6
100
AcDbEntity
  8
レイヤー_1
  6
CONTINUOUS
 62
       3
100
AcDbLine
 10
2.4146418
 20
25.86859485
 30
0.0
 11
2.26134835
 21
25.71199491
 31
0.0
  0
LINE
  5
2A7
100
AcDbEntity
  8
レイヤー_1
  6
CONTINUOUS
 62
       3
100
AcDbLine
 10
2.26134835
 20
25.71199491
 30
0.0
 11
2.12348829
 21
25.53916417
 31
0.0
  0
LINE
  5
2A8
100
AcDbEntity
  8
レイヤー_1
  6
CONTINUOUS
 62
       3
100
AcDbLine
 10
2.12348829
 20
25.53916417
 30
0.0
 11
2.00103846
 21
25.35119799
 31
0.0
  0
LINE
  5
2A9
100
AcDbEntity
  8
レイヤー_1
  6
CONTINUOUS
 62
       3
100
AcDbLine
 10
2.00103846
 20
25.35119799
 30
0.0
 11
1.89397574
 21
25.14919173
 31
0.0
  0
LINE
  5
2AA
100
AcDbEntity
  8
レイヤー_1
  6
CONTINUOUS
 62
       3
100
AcDbLine
 10
1.89397574
 20
25.14919173
 30
0.0
 11
1.80227698
 21
24.93424076
 31
0.0
  0
LINE
  5
2AB
100
AcDbEntity
  8
レイヤー_1
  6
CONTINUOUS
 62
       3
100
AcDbLine
 10
1.80227698
 20
24.93424076
 30
0.0
 11
1.72591904
 21
24.70744042
 31
0.0
  0
LINE
  5
2AC
100
AcDbEntity
  8
レイヤー_1
  6
CONTINUOUS
 62
       3
100
AcDbLine
 10
1.72591904
 20
24.70744042
 30
0.0
 11
1.66487878
 21
24.46988608
 31
0.0
  0
LINE
  5
2AD
100
AcDbEntity
  8
レイヤー_1
  6
CONTINUOUS
 62
       3
100
AcDbLine
 10
1.66487878
 20
24.46988608
 30
0.0
 11
1.61913306
 21
24.2226731
 31
0.0
  0
LINE
  5
2AE
100
AcDbEntity
  8
レイヤー_1
  6
CONTINUOUS
 62
       3
100
AcDbLine
 10
1.61913306
 20
24.2226731
 30
0.0
 11
1.58865873
 21
23.96689683
 31
0.0
  0
LINE
  5
2AF
100
AcDbEntity
  8
レイヤー_1
  6
CONTINUOUS
 62
       3
100
AcDbLine
 10
1.58865873
 20
23.96689683
 30
0.0
 11
1.57343265
 21
23.70365265
 31
0.0
  0
LINE
  5
2B0
100
AcDbEntity
  8
レイヤー_1
  6
CONTINUOUS
 62
       3
100
AcDbLine
 10
1.57343265
 20
23.70365265
 30
0.0
 11
1.57343265
 21
23.43543391
 31
0.0
  0
LINE
  5
2B1
100
AcDbEntity
  8
レイヤー_1
  6
CONTINUOUS
 62
       3
100
AcDbLine
 10
1.57343265
 20
23.43543391
 30
0.0
 11
1.58865873
 21
23.17207835
 31
0.0
  0
LINE
  5
2B2
100
AcDbEntity
  8
レイヤー_1
  6
CONTINUOUS
 62
       3
100
AcDbLine
 10
1.58865873
 20
23.17207835
 30
0.0
 11
1.61913306
 21
22.91619747
 31
0.0
  0
LINE
  5
2B3
100
AcDbEntity
  8
レイヤー_1
  6
CONTINUOUS
 62
       3
100
AcDbLine
 10
1.61913306
 20
22.91619747
 30
0.0
 11
1.66487878
 21
22.66888662
 31
0.0
  0
LINE
  5
2B4
100
AcDbEntity
  8
レイヤー_1
  6
CONTINUOUS
 62
       3
100
AcDbLine
 10
1.66487878
 20
22.66888662
 30
0.0
 11
1.72591904
 21
22.43124116
 31
0.0
  0
LINE
  5
2B5
100
AcDbEntity
  8
レイヤー_1
  6
CONTINUOUS
 62
       3
100
AcDbLine
 10
1.72591904
 20
22.43124116
 30
0.0
 11
1.80227698
 21
22.20435645
 31
0.0
  0
LINE
  5
2B6
100
AcDbEntity
  8
レイヤー_1
  6
CONTINUOUS
 62
       3
100
AcDbLine
 10
1.80227698
 20
22.20435645
 30
0.0
 11
1.89397574
 21
21.98932786
 31
0.0
  0
LINE
  5
2B7
100
AcDbEntity
  8
レイヤー_1
  6
CONTINUOUS
 62
       3
100
AcDbLine
 10
1.89397574
 20
21.98932786
 30
0.0
 11
2.00103846
 21
21.78725073
 31
0.0
  0
LINE
  5
2B8
100
AcDbEntity
  8
レイヤー_1
  6
CONTINUOUS
 62
       3
100
AcDbLine
 10
2.00103846
 20
21.78725073
 30
0.0
 11
2.12348829
 21
21.59922043
 31
0.0
  0
LINE
  5
2B9
100
AcDbEntity
  8
レイヤー_1
  6
CONTINUOUS
 62
       3
100
AcDbLine
 10
2.12348829
 20
21.59922043
 30
0.0
 11
2.26134835
 21
21.42633232
 31
0.0
  0
LINE
  5
2BA
100
AcDbEntity
  8
レイヤー_1
  6
CONTINUOUS
 62
       3
100
AcDbLine
 10
2.26134835
 20
21.42633232
 30
0.0
 11
2.4146418
 21
21.26968176
 31
0.0
  0
LINE
  5
2BB
100
AcDbEntity
  8
レイヤー_1
  6
CONTINUOUS
 62
       3
100
AcDbLine
 10
2.4146418
 20
21.26968176
 30
0.0
 11
2.58339178
 21
21.13036411
 31
0.0
  0
LINE
  5
2BC
100
AcDbEntity
  8
レイヤー_1
  6
CONTINUOUS
 62
       3
100
AcDbLine
 10
2.58339178
 20
21.13036411
 30
0.0
 11
2.76762142
 21
21.00947472
 31
0.0
  0
LINE
  5
2BD
100
AcDbEntity
  8
レイヤー_1
  6
CONTINUOUS
 62
       3
100
AcDbLine
 10
2.76762142
 20
21.00947472
 30
0.0
 11
2.96735388
 21
20.90810897
 31
0.0
  0
LINE
  5
2BE
100
AcDbEntity
  8
レイヤー_1
  6
CONTINUOUS
 62
       3
100
AcDbLine
 10
2.96735388
 20
20.90810897
 30
0.0
 11
3.18261228
 21
20.82736219
 31
0.0
  0
LINE
  5
2BF
100
AcDbEntity
  8
レイヤー_1
  6
CONTINUOUS
 62
       3
100
AcDbLine
 10
3.18261228
 20
20.82736219
 30
0.0
 11
3.41341978
 21
20.76832977
 31
0.0
  0
LINE
  5
2C0
100
AcDbEntity
  8
レイヤー_1
  6
CONTINUOUS
 62
       3
100
AcDbLine
 10
3.41341978
 20
20.76832977
 30
0.0
 11
3.65979951
 21
20.73210705
 31
0.0
  0
LINE
  5
2C1
100
AcDbEntity
  8
レイヤー_1
  6
CONTINUOUS
 62
       3
100
AcDbLine
 10
3.65979951
 20
20.73210705
 30
0.0
 11
3.92177461
 21
20.7197894
 31
0.0
  0
LINE
  5
2C2
100
AcDbEntity
  8
レイヤー_1
  6
CONTINUOUS
 62
       3
100
AcDbLine
 10
3.92177461
 20
16.42065474
 30
0.0
 11
3.65979951
 21
16.4083404
 31
0.0
  0
LINE
  5
2C3
100
AcDbEntity
  8
レイヤー_1
  6
CONTINUOUS
 62
       3
100
AcDbLine
 10
3.65979951
 20
16.4083404
 30
0.0
 11
3.41341978
 21
16.37212736
 31
0.0
  0
LINE
  5
2C4
100
AcDbEntity
  8
レイヤー_1
  6
CONTINUOUS
 62
       3
100
AcDbLine
 10
3.41341978
 20
16.37212736
 30
0.0
 11
3.18261228
 21
16.31311059
 31
0.0
  0
LINE
  5
2C5
100
AcDbEntity
  8
レイヤー_1
  6
CONTINUOUS
 62
       3
100
AcDbLine
 10
3.18261228
 20
16.31311059
 30
0.0
 11
2.96735388
 21
16.23238506
 31
0.0
  0
LINE
  5
2C6
100
AcDbEntity
  8
レイヤー_1
  6
CONTINUOUS
 62
       3
100
AcDbLine
 10
2.96735388
 20
16.23238506
 30
0.0
 11
2.76762142
 21
16.13104575
 31
0.0
  0
LINE
  5
2C7
100
AcDbEntity
  8
レイヤー_1
  6
CONTINUOUS
 62
       3
100
AcDbLine
 10
2.76762142
 20
16.13104575
 30
0.0
 11
2.58339178
 21
16.01018764
 31
0.0
  0
LINE
  5
2C8
100
AcDbEntity
  8
レイヤー_1
  6
CONTINUOUS
 62
       3
100
AcDbLine
 10
2.58339178
 20
16.01018764
 30
0.0
 11
2.4146418
 21
15.8709057
 31
0.0
  0
LINE
  5
2C9
100
AcDbEntity
  8
レイヤー_1
  6
CONTINUOUS
 62
       3
100
AcDbLine
 10
2.4146418
 20
15.8709057
 30
0.0
 11
2.26134835
 21
15.7142949
 31
0.0
  0
LINE
  5
2CA
100
AcDbEntity
  8
レイヤー_1
  6
CONTINUOUS
 62
       3
100
AcDbLine
 10
2.26134835
 20
15.7142949
 30
0.0
 11
2.12348829
 21
15.54145021
 31
0.0
  0
LINE
  5
2CB
100
AcDbEntity
  8
レイヤー_1
  6
CONTINUOUS
 62
       3
100
AcDbLine
 10
2.12348829
 20
15.54145021
 30
0.0
 11
2.00103846
 21
15.35346661
 31
0.0
  0
LINE
  5
2CC
100
AcDbEntity
  8
レイヤー_1
  6
CONTINUOUS
 62
       3
100
AcDbLine
 10
2.00103846
 20
15.35346661
 30
0.0
 11
1.89397574
 21
15.15143908
 31
0.0
  0
LINE
  5
2CD
100
AcDbEntity
  8
レイヤー_1
  6
CONTINUOUS
 62
       3
100
AcDbLine
 10
1.89397574
 20
15.15143908
 30
0.0
 11
1.80227698
 21
14.93646258
 31
0.0
  0
LINE
  5
2CE
100
AcDbEntity
  8
レイヤー_1
  6
CONTINUOUS
 62
       3
100
AcDbLine
 10
1.80227698
 20
14.93646258
 30
0.0
 11
1.72591904
 21
14.70963209
 31
0.0
  0
LINE
  5
2CF
100
AcDbEntity
  8
レイヤー_1
  6
CONTINUOUS
 62
       3
100
AcDbLine
 10
1.72591904
 20
14.70963209
 30
0.0
 11
1.66487878
 21
14.47204259
 31
0.0
  0
LINE
  5
2D0
100
AcDbEntity
  8
レイヤー_1
  6
CONTINUOUS
 62
       3
100
AcDbLine
 10
1.66487878
 20
14.47204259
 30
0.0
 11
1.61913306
 21
14.22478905
 31
0.0
  0
LINE
  5
2D1
100
AcDbEntity
  8
レイヤー_1
  6
CONTINUOUS
 62
       3
100
AcDbLine
 10
1.61913306
 20
14.22478905
 30
0.0
 11
1.58865873
 21
13.96896644
 31
0.0
  0
LINE
  5
2D2
100
AcDbEntity
  8
レイヤー_1
  6
CONTINUOUS
 62
       3
100
AcDbLine
 10
1.58865873
 20
13.96896644
 30
0.0
 11
1.57343265
 21
13.70566973
 31
0.0
  0
LINE
  5
2D3
100
AcDbEntity
  8
レイヤー_1
  6
CONTINUOUS
 62
       3
100
AcDbLine
 10
1.57343265
 20
13.70566973
 30
0.0
 11
1.57343265
 21
13.43745099
 31
0.0
  0
LINE
  5
2D4
100
AcDbEntity
  8
レイヤー_1
  6
CONTINUOUS
 62
       3
100
AcDbLine
 10
1.57343265
 20
13.43745099
 30
0.0
 11
1.58865873
 21
13.17414796
 31
0.0
  0
LINE
  5
2D5
100
AcDbEntity
  8
レイヤー_1
  6
CONTINUOUS
 62
       3
100
AcDbLine
 10
1.58865873
 20
13.17414796
 30
0.0
 11
1.61913306
 21
12.91831342
 31
0.0
  0
LINE
  5
2D6
100
AcDbEntity
  8
レイヤー_1
  6
CONTINUOUS
 62
       3
100
AcDbLine
 10
1.61913306
 20
12.91831342
 30
0.0
 11
1.66487878
 21
12.67104313
 31
0.0
  0
LINE
  5
2D7
100
AcDbEntity
  8
レイヤー_1
  6
CONTINUOUS
 62
       3
100
AcDbLine
 10
1.66487878
 20
12.67104313
 30
0.0
 11
1.72591904
 21
12.43343284
 31
0.0
  0
LINE
  5
2D8
100
AcDbEntity
  8
レイヤー_1
  6
CONTINUOUS
 62
       3
100
AcDbLine
 10
1.72591904
 20
12.43343284
 30
0.0
 11
1.80227698
 21
12.20657828
 31
0.0
  0
LINE
  5
2D9
100
AcDbEntity
  8
レイヤー_1
  6
CONTINUOUS
 62
       3
100
AcDbLine
 10
1.80227698
 20
12.20657828
 30
0.0
 11
1.89397574
 21
11.9915752
 31
0.0
  0
LINE
  5
2DA
100
AcDbEntity
  8
レイヤー_1
  6
CONTINUOUS
 62
       3
100
AcDbLine
 10
1.89397574
 20
11.9915752
 30
0.0
 11
2.00103846
 21
11.78951935
 31
0.0
  0
LINE
  5
2DB
100
AcDbEntity
  8
レイヤー_1
  6
CONTINUOUS
 62
       3
100
AcDbLine
 10
2.00103846
 20
11.78951935
 30
0.0
 11
2.12348829
 21
11.60150647
 31
0.0
  0
LINE
  5
2DC
100
AcDbEntity
  8
レイヤー_1
  6
CONTINUOUS
 62
       3
100
AcDbLine
 10
2.12348829
 20
11.60150647
 30
0.0
 11
2.26134835
 21
11.42863231
 31
0.0
  0
LINE
  5
2DD
100
AcDbEntity
  8
レイヤー_1
  6
CONTINUOUS
 62
       3
100
AcDbLine
 10
2.26134835
 20
11.42863231
 30
0.0
 11
2.4146418
 21
11.27199261
 31
0.0
  0
LINE
  5
2DE
100
AcDbEntity
  8
レイヤー_1
  6
CONTINUOUS
 62
       3
100
AcDbLine
 10
2.4146418
 20
11.27199261
 30
0.0
 11
2.58339178
 21
11.13268313
 31
0.0
  0
LINE
  5
2DF
100
AcDbEntity
  8
レイヤー_1
  6
CONTINUOUS
 62
       3
100
AcDbLine
 10
2.58339178
 20
11.13268313
 30
0.0
 11
2.76762142
 21
11.01179959
 31
0.0
  0
LINE
  5
2E0
100
AcDbEntity
  8
レイヤー_1
  6
CONTINUOUS
 62
       3
100
AcDbLine
 10
2.76762142
 20
11.01179959
 30
0.0
 11
2.96735388
 21
10.91043775
 31
0.0
  0
LINE
  5
2E1
100
AcDbEntity
  8
レイヤー_1
  6
CONTINUOUS
 62
       3
100
AcDbLine
 10
2.96735388
 20
10.91043775
 30
0.0
 11
3.18261228
 21
10.82969336
 31
0.0
  0
LINE
  5
2E2
100
AcDbEntity
  8
レイヤー_1
  6
CONTINUOUS
 62
       3
100
AcDbLine
 10
3.18261228
 20
10.82969336
 30
0.0
 11
3.41341978
 21
10.77066216
 31
0.0
  0
LINE
  5
2E3
100
AcDbEntity
  8
レイヤー_1
  6
CONTINUOUS
 62
       3
100
AcDbLine
 10
3.41341978
 20
10.77066216
 30
0.0
 11
3.65979951
 21
10.73443989
 31
0.0
  0
LINE
  5
2E4
100
AcDbEntity
  8
レイヤー_1
  6
CONTINUOUS
 62
       3
100
AcDbLine
 10
3.65979951
 20
10.73443989
 30
0.0
 11
3.92177461
 21
10.7221223
 31
0.0
  0
LINE
  5
2E5
100
AcDbEntity
  8
レイヤー_1
  6
CONTINUOUS
 62
       3
100
AcDbLine
 10
5.39214137
 20
-3.57467945
 30
0.0
 11
5.13027776
 21
-3.58699392
 31
0.0
  0
LINE
  5
2E6
100
AcDbEntity
  8
レイヤー_1
  6
CONTINUOUS
 62
       3
100
AcDbLine
 10
5.13027776
 20
-3.58699392
 30
0.0
 11
4.8839968
 21
-3.62320787
 31
0.0
  0
LINE
  5
2E7
100
AcDbEntity
  8
レイヤー_1
  6
CONTINUOUS
 62
       3
100
AcDbLine
 10
4.8839968
 20
-3.62320787
 30
0.0
 11
4.65327611
 21
-3.68222708
 31
0.0
  0
LINE
  5
2E8
100
AcDbEntity
  8
レイヤー_1
  6
CONTINUOUS
 62
       3
100
AcDbLine
 10
4.65327611
 20
-3.68222708
 30
0.0
 11
4.43809334
 21
-3.76295736
 31
0.0
  0
LINE
  5
2E9
100
AcDbEntity
  8
レイヤー_1
  6
CONTINUOUS
 62
       3
100
AcDbLine
 10
4.43809334
 20
-3.76295736
 30
0.0
 11
4.2384261
 21
-3.86430451
 31
0.0
  0
LINE
  5
2EA
100
AcDbEntity
  8
レイヤー_1
  6
CONTINUOUS
 62
       3
100
AcDbLine
 10
4.2384261
 20
-3.86430451
 30
0.0
 11
4.05425202
 21
-3.98517432
 31
0.0
  0
LINE
  5
2EB
100
AcDbEntity
  8
レイヤー_1
  6
CONTINUOUS
 62
       3
100
AcDbLine
 10
4.05425202
 20
-3.98517432
 30
0.0
 11
3.88554875
 21
-4.12447259
 31
0.0
  0
LINE
  5
2EC
100
AcDbEntity
  8
レイヤー_1
  6
CONTINUOUS
 62
       3
100
AcDbLine
 10
3.88554875
 20
-4.12447259
 30
0.0
 11
3.7322939
 21
-4.28110512
 31
0.0
  0
LINE
  5
2ED
100
AcDbEntity
  8
レイヤー_1
  6
CONTINUOUS
 62
       3
100
AcDbLine
 10
3.7322939
 20
-4.28110512
 30
0.0
 11
3.5944651
 21
-4.45397771
 31
0.0
  0
LINE
  5
2EE
100
AcDbEntity
  8
レイヤー_1
  6
CONTINUOUS
 62
       3
100
AcDbLine
 10
3.5944651
 20
-4.45397771
 30
0.0
 11
3.47204
 21
-4.64199615
 31
0.0
  0
LINE
  5
2EF
100
AcDbEntity
  8
レイヤー_1
  6
CONTINUOUS
 62
       3
100
AcDbLine
 10
3.47204
 20
-4.64199615
 30
0.0
 11
3.36499621
 21
-4.84406624
 31
0.0
  0
LINE
  5
2F0
100
AcDbEntity
  8
レイヤー_1
  6
CONTINUOUS
 62
       3
100
AcDbLine
 10
3.36499621
 20
-4.84406624
 30
0.0
 11
3.27331137
 21
-5.05909377
 31
0.0
  0
LINE
  5
2F1
100
AcDbEntity
  8
レイヤー_1
  6
CONTINUOUS
 62
       3
100
AcDbLine
 10
3.27331137
 20
-5.05909377
 30
0.0
 11
3.1969631
 21
-5.28598456
 31
0.0
  0
LINE
  5
2F2
100
AcDbEntity
  8
レイヤー_1
  6
CONTINUOUS
 62
       3
100
AcDbLine
 10
3.1969631
 20
-5.28598456
 30
0.0
 11
3.13592904
 21
-5.52364438
 31
0.0
  0
LINE
  5
2F3
100
AcDbEntity
  8
レイヤー_1
  6
CONTINUOUS
 62
       3
100
AcDbLine
 10
3.13592904
 20
-5.52364438
 30
0.0
 11
3.09018682
 21
-5.77097905
 31
0.0
  0
LINE
  5
2F4
100
AcDbEntity
  8
レイヤー_1
  6
CONTINUOUS
 62
       3
100
AcDbLine
 10
3.09018682
 20
-5.77097905
 30
0.0
 11
3.05971406
 21
-6.02689435
 31
0.0
  0
LINE
  5
2F5
100
AcDbEntity
  8
レイヤー_1
  6
CONTINUOUS
 62
       3
100
AcDbLine
 10
3.05971406
 20
-6.02689435
 30
0.0
 11
3.04448841
 21
-6.29029609
 31
0.0
  0
LINE
  5
2F6
100
AcDbEntity
  8
レイヤー_1
  6
CONTINUOUS
 62
       3
100
AcDbLine
 10
3.04448841
 20
-6.29029609
 30
0.0
 11
3.04448841
 21
-6.5585714
 31
0.0
  0
LINE
  5
2F7
100
AcDbEntity
  8
レイヤー_1
  6
CONTINUOUS
 62
       3
100
AcDbLine
 10
3.04448841
 20
-6.5585714
 30
0.0
 11
3.05971406
 21
-6.8218681
 31
0.0
  0
LINE
  5
2F8
100
AcDbEntity
  8
レイヤー_1
  6
CONTINUOUS
 62
       3
100
AcDbLine
 10
3.05971406
 20
-6.8218681
 30
0.0
 11
3.09018682
 21
-7.07769071
 31
0.0
  0
LINE
  5
2F9
100
AcDbEntity
  8
レイヤー_1
  6
CONTINUOUS
 62
       3
100
AcDbLine
 10
3.09018682
 20
-7.07769071
 30
0.0
 11
3.13592904
 21
-7.32494425
 31
0.0
  0
LINE
  5
2FA
100
AcDbEntity
  8
レイヤー_1
  6
CONTINUOUS
 62
       3
100
AcDbLine
 10
3.13592904
 20
-7.32494425
 30
0.0
 11
3.1969631
 21
-7.56253375
 31
0.0
  0
LINE
  5
2FB
100
AcDbEntity
  8
レイヤー_1
  6
CONTINUOUS
 62
       3
100
AcDbLine
 10
3.1969631
 20
-7.56253375
 30
0.0
 11
3.27331137
 21
-7.78936424
 31
0.0
  0
LINE
  5
2FC
100
AcDbEntity
  8
レイヤー_1
  6
CONTINUOUS
 62
       3
100
AcDbLine
 10
3.27331137
 20
-7.78936424
 30
0.0
 11
3.36499621
 21
-8.00434074
 31
0.0
  0
LINE
  5
2FD
100
AcDbEntity
  8
レイヤー_1
  6
CONTINUOUS
 62
       3
100
AcDbLine
 10
3.36499621
 20
-8.00434074
 30
0.0
 11
3.47204
 21
-8.20636827
 31
0.0
  0
LINE
  5
2FE
100
AcDbEntity
  8
レイヤー_1
  6
CONTINUOUS
 62
       3
100
AcDbLine
 10
3.47204
 20
-8.20636827
 30
0.0
 11
3.5944651
 21
-8.39435187
 31
0.0
  0
LINE
  5
2FF
100
AcDbEntity
  8
レイヤー_1
  6
CONTINUOUS
 62
       3
100
AcDbLine
 10
3.5944651
 20
-8.39435187
 30
0.0
 11
3.7322939
 21
-8.56719656
 31
0.0
  0
LINE
  5
300
100
AcDbEntity
  8
レイヤー_1
  6
CONTINUOUS
 62
       3
100
AcDbLine
 10
3.7322939
 20
-8.56719656
 30
0.0
 11
3.88554875
 21
-8.72380736
 31
0.0
  0
LINE
  5
301
100
AcDbEntity
  8
レイヤー_1
  6
CONTINUOUS
 62
       3
100
AcDbLine
 10
3.88554875
 20
-8.72380736
 30
0.0
 11
4.05425202
 21
-8.8630893
 31
0.0
  0
LINE
  5
302
100
AcDbEntity
  8
レイヤー_1
  6
CONTINUOUS
 62
       3
100
AcDbLine
 10
4.05425202
 20
-8.8630893
 30
0.0
 11
4.2384261
 21
-8.98394742
 31
0.0
  0
LINE
  5
303
100
AcDbEntity
  8
レイヤー_1
  6
CONTINUOUS
 62
       3
100
AcDbLine
 10
4.2384261
 20
-8.98394742
 30
0.0
 11
4.43809334
 21
-9.08528672
 31
0.0
  0
LINE
  5
304
100
AcDbEntity
  8
レイヤー_1
  6
CONTINUOUS
 62
       3
100
AcDbLine
 10
4.43809334
 20
-9.08528672
 30
0.0
 11
4.65327611
 21
-9.16601225
 31
0.0
  0
LINE
  5
305
100
AcDbEntity
  8
レイヤー_1
  6
CONTINUOUS
 62
       3
100
AcDbLine
 10
4.65327611
 20
-9.16601225
 30
0.0
 11
4.8839968
 21
-9.22502902
 31
0.0
  0
LINE
  5
306
100
AcDbEntity
  8
レイヤー_1
  6
CONTINUOUS
 62
       3
100
AcDbLine
 10
4.8839968
 20
-9.22502902
 30
0.0
 11
5.13027776
 21
-9.26124206
 31
0.0
  0
LINE
  5
307
100
AcDbEntity
  8
レイヤー_1
  6
CONTINUOUS
 62
       3
100
AcDbLine
 10
5.13027776
 20
-9.26124206
 30
0.0
 11
5.39214137
 21
-9.2735564
 31
0.0
  0
LINE
  5
308
100
AcDbEntity
  8
レイヤー_1
  6
CONTINUOUS
 62
       3
100
AcDbLine
 10
5.39214137
 20
6.42298765
 30
0.0
 11
5.13027776
 21
6.41067317
 31
0.0
  0
LINE
  5
309
100
AcDbEntity
  8
レイヤー_1
  6
CONTINUOUS
 62
       3
100
AcDbLine
 10
5.13027776
 20
6.41067317
 30
0.0
 11
4.8839968
 21
6.37445923
 31
0.0
  0
LINE
  5
30A
100
AcDbEntity
  8
レイヤー_1
  6
CONTINUOUS
 62
       3
100
AcDbLine
 10
4.8839968
 20
6.37445923
 30
0.0
 11
4.65327611
 21
6.31544002
 31
0.0
  0
LINE
  5
30B
100
AcDbEntity
  8
レイヤー_1
  6
CONTINUOUS
 62
       3
100
AcDbLine
 10
4.65327611
 20
6.31544002
 30
0.0
 11
4.43809334
 21
6.23470973
 31
0.0
  0
LINE
  5
30C
100
AcDbEntity
  8
レイヤー_1
  6
CONTINUOUS
 62
       3
100
AcDbLine
 10
4.43809334
 20
6.23470973
 30
0.0
 11
4.2384261
 21
6.13336259
 31
0.0
  0
LINE
  5
30D
100
AcDbEntity
  8
レイヤー_1
  6
CONTINUOUS
 62
       3
100
AcDbLine
 10
4.2384261
 20
6.13336259
 30
0.0
 11
4.05425202
 21
6.01249277
 31
0.0
  0
LINE
  5
30E
100
AcDbEntity
  8
レイヤー_1
  6
CONTINUOUS
 62
       3
100
AcDbLine
 10
4.05425202
 20
6.01249277
 30
0.0
 11
3.88554875
 21
5.8731945
 31
0.0
  0
LINE
  5
30F
100
AcDbEntity
  8
レイヤー_1
  6
CONTINUOUS
 62
       3
100
AcDbLine
 10
3.88554875
 20
5.8731945
 30
0.0
 11
3.7322939
 21
5.71656197
 31
0.0
  0
LINE
  5
310
100
AcDbEntity
  8
レイヤー_1
  6
CONTINUOUS
 62
       3
100
AcDbLine
 10
3.7322939
 20
5.71656197
 30
0.0
 11
3.5944651
 21
5.54368939
 31
0.0
  0
LINE
  5
311
100
AcDbEntity
  8
レイヤー_1
  6
CONTINUOUS
 62
       3
100
AcDbLine
 10
3.5944651
 20
5.54368939
 30
0.0
 11
3.47204
 21
5.35567095
 31
0.0
  0
LINE
  5
312
100
AcDbEntity
  8
レイヤー_1
  6
CONTINUOUS
 62
       3
100
AcDbLine
 10
3.47204
 20
5.35567095
 30
0.0
 11
3.36499621
 21
5.15360086
 31
0.0
  0
LINE
  5
313
100
AcDbEntity
  8
レイヤー_1
  6
CONTINUOUS
 62
       3
100
AcDbLine
 10
3.36499621
 20
5.15360086
 30
0.0
 11
3.27331137
 21
4.93857332
 31
0.0
  0
LINE
  5
314
100
AcDbEntity
  8
レイヤー_1
  6
CONTINUOUS
 62
       3
100
AcDbLine
 10
3.27331137
 20
4.93857332
 30
0.0
 11
3.1969631
 21
4.71168254
 31
0.0
  0
LINE
  5
315
100
AcDbEntity
  8
レイヤー_1
  6
CONTINUOUS
 62
       3
100
AcDbLine
 10
3.1969631
 20
4.71168254
 30
0.0
 11
3.13592904
 21
4.47402272
 31
0.0
  0
LINE
  5
316
100
AcDbEntity
  8
レイヤー_1
  6
CONTINUOUS
 62
       3
100
AcDbLine
 10
3.13592904
 20
4.47402272
 30
0.0
 11
3.09018682
 21
4.22668805
 31
0.0
  0
LINE
  5
317
100
AcDbEntity
  8
レイヤー_1
  6
CONTINUOUS
 62
       3
100
AcDbLine
 10
3.09018682
 20
4.22668805
 30
0.0
 11
3.05971406
 21
3.97077274
 31
0.0
  0
LINE
  5
318
100
AcDbEntity
  8
レイヤー_1
  6
CONTINUOUS
 62
       3
100
AcDbLine
 10
3.05971406
 20
3.97077274
 30
0.0
 11
3.04448841
 21
3.70737101
 31
0.0
  0
LINE
  5
319
100
AcDbEntity
  8
レイヤー_1
  6
CONTINUOUS
 62
       3
100
AcDbLine
 10
3.04448841
 20
3.70737101
 30
0.0
 11
3.04448841
 21
3.4390957
 31
0.0
  0
LINE
  5
31A
100
AcDbEntity
  8
レイヤー_1
  6
CONTINUOUS
 62
       3
100
AcDbLine
 10
3.04448841
 20
3.4390957
 30
0.0
 11
3.05971406
 21
3.175799
 31
0.0
  0
LINE
  5
31B
100
AcDbEntity
  8
レイヤー_1
  6
CONTINUOUS
 62
       3
100
AcDbLine
 10
3.05971406
 20
3.175799
 30
0.0
 11
3.09018682
 21
2.91997639
 31
0.0
  0
LINE
  5
31C
100
AcDbEntity
  8
レイヤー_1
  6
CONTINUOUS
 62
       3
100
AcDbLine
 10
3.09018682
 20
2.91997639
 30
0.0
 11
3.13592904
 21
2.67272285
 31
0.0
  0
LINE
  5
31D
100
AcDbEntity
  8
レイヤー_1
  6
CONTINUOUS
 62
       3
100
AcDbLine
 10
3.13592904
 20
2.67272285
 30
0.0
 11
3.1969631
 21
2.43513334
 31
0.0
  0
LINE
  5
31E
100
AcDbEntity
  8
レイヤー_1
  6
CONTINUOUS
 62
       3
100
AcDbLine
 10
3.1969631
 20
2.43513334
 30
0.0
 11
3.27331137
 21
2.20830286
 31
0.0
  0
LINE
  5
31F
100
AcDbEntity
  8
レイヤー_1
  6
CONTINUOUS
 62
       3
100
AcDbLine
 10
3.27331137
 20
2.20830286
 30
0.0
 11
3.36499621
 21
1.99332636
 31
0.0
  0
LINE
  5
320
100
AcDbEntity
  8
レイヤー_1
  6
CONTINUOUS
 62
       3
100
AcDbLine
 10
3.36499621
 20
1.99332636
 30
0.0
 11
3.47204
 21
1.79129883
 31
0.0
  0
LINE
  5
321
100
AcDbEntity
  8
レイヤー_1
  6
CONTINUOUS
 62
       3
100
AcDbLine
 10
3.47204
 20
1.79129883
 30
0.0
 11
3.5944651
 21
1.60331523
 31
0.0
  0
LINE
  5
322
100
AcDbEntity
  8
レイヤー_1
  6
CONTINUOUS
 62
       3
100
AcDbLine
 10
3.5944651
 20
1.60331523
 30
0.0
 11
3.7322939
 21
1.43047054
 31
0.0
  0
LINE
  5
323
100
AcDbEntity
  8
レイヤー_1
  6
CONTINUOUS
 62
       3
100
AcDbLine
 10
3.7322939
 20
1.43047054
 30
0.0
 11
3.88554875
 21
1.27385974
 31
0.0
  0
LINE
  5
324
100
AcDbEntity
  8
レイヤー_1
  6
CONTINUOUS
 62
       3
100
AcDbLine
 10
3.88554875
 20
1.27385974
 30
0.0
 11
4.05425202
 21
1.13457779
 31
0.0
  0
LINE
  5
325
100
AcDbEntity
  8
レイヤー_1
  6
CONTINUOUS
 62
       3
100
AcDbLine
 10
4.05425202
 20
1.13457779
 30
0.0
 11
4.2384261
 21
1.01371968
 31
0.0
  0
LINE
  5
326
100
AcDbEntity
  8
レイヤー_1
  6
CONTINUOUS
 62
       3
100
AcDbLine
 10
4.2384261
 20
1.01371968
 30
0.0
 11
4.43809334
 21
0.91238038
 31
0.0
  0
LINE
  5
327
100
AcDbEntity
  8
レイヤー_1
  6
CONTINUOUS
 62
       3
100
AcDbLine
 10
4.43809334
 20
0.91238038
 30
0.0
 11
4.65327611
 21
0.83165485
 31
0.0
  0
LINE
  5
328
100
AcDbEntity
  8
レイヤー_1
  6
CONTINUOUS
 62
       3
100
AcDbLine
 10
4.65327611
 20
0.83165485
 30
0.0
 11
4.8839968
 21
0.77263808
 31
0.0
  0
LINE
  5
329
100
AcDbEntity
  8
レイヤー_1
  6
CONTINUOUS
 62
       3
100
AcDbLine
 10
4.8839968
 20
0.77263808
 30
0.0
 11
5.13027776
 21
0.73642504
 31
0.0
  0
LINE
  5
32A
100
AcDbEntity
  8
レイヤー_1
  6
CONTINUOUS
 62
       3
100
AcDbLine
 10
5.13027776
 20
0.73642504
 30
0.0
 11
5.39214137
 21
0.72411069
 31
0.0
  0
LINE
  5
32B
100
AcDbEntity
  8
レイヤー_1
  6
CONTINUOUS
 62
       3
100
AcDbLine
 10
5.39214137
 20
36.41633345
 30
0.0
 11
5.13027776
 21
36.40401911
 31
0.0
  0
LINE
  5
32C
100
AcDbEntity
  8
レイヤー_1
  6
CONTINUOUS
 62
       3
100
AcDbLine
 10
5.13027776
 20
36.40401911
 30
0.0
 11
4.8839968
 21
36.36780606
 31
0.0
  0
LINE
  5
32D
100
AcDbEntity
  8
レイヤー_1
  6
CONTINUOUS
 62
       3
100
AcDbLine
 10
4.8839968
 20
36.36780606
 30
0.0
 11
4.65327611
 21
36.30878929
 31
0.0
  0
LINE
  5
32E
100
AcDbEntity
  8
レイヤー_1
  6
CONTINUOUS
 62
       3
100
AcDbLine
 10
4.65327611
 20
36.30878929
 30
0.0
 11
4.43809334
 21
36.22806377
 31
0.0
  0
LINE
  5
32F
100
AcDbEntity
  8
レイヤー_1
  6
CONTINUOUS
 62
       3
100
AcDbLine
 10
4.43809334
 20
36.22806377
 30
0.0
 11
4.2384261
 21
36.12672446
 31
0.0
  0
LINE
  5
330
100
AcDbEntity
  8
レイヤー_1
  6
CONTINUOUS
 62
       3
100
AcDbLine
 10
4.2384261
 20
36.12672446
 30
0.0
 11
4.05425202
 21
36.00586635
 31
0.0
  0
LINE
  5
331
100
AcDbEntity
  8
レイヤー_1
  6
CONTINUOUS
 62
       3
100
AcDbLine
 10
4.05425202
 20
36.00586635
 30
0.0
 11
3.88554875
 21
35.8665844
 31
0.0
  0
LINE
  5
332
100
AcDbEntity
  8
レイヤー_1
  6
CONTINUOUS
 62
       3
100
AcDbLine
 10
3.88554875
 20
35.8665844
 30
0.0
 11
3.7322939
 21
35.7099736
 31
0.0
  0
LINE
  5
333
100
AcDbEntity
  8
レイヤー_1
  6
CONTINUOUS
 62
       3
100
AcDbLine
 10
3.7322939
 20
35.7099736
 30
0.0
 11
3.5944651
 21
35.53712891
 31
0.0
  0
LINE
  5
334
100
AcDbEntity
  8
レイヤー_1
  6
CONTINUOUS
 62
       3
100
AcDbLine
 10
3.5944651
 20
35.53712891
 30
0.0
 11
3.47204
 21
35.34914532
 31
0.0
  0
LINE
  5
335
100
AcDbEntity
  8
レイヤー_1
  6
CONTINUOUS
 62
       3
100
AcDbLine
 10
3.47204
 20
35.34914532
 30
0.0
 11
3.36499621
 21
35.14711778
 31
0.0
  0
LINE
  5
336
100
AcDbEntity
  8
レイヤー_1
  6
CONTINUOUS
 62
       3
100
AcDbLine
 10
3.36499621
 20
35.14711778
 30
0.0
 11
3.27331137
 21
34.93214129
 31
0.0
  0
LINE
  5
337
100
AcDbEntity
  8
レイヤー_1
  6
CONTINUOUS
 62
       3
100
AcDbLine
 10
3.27331137
 20
34.93214129
 30
0.0
 11
3.1969631
 21
34.7053108
 31
0.0
  0
LINE
  5
338
100
AcDbEntity
  8
レイヤー_1
  6
CONTINUOUS
 62
       3
100
AcDbLine
 10
3.1969631
 20
34.7053108
 30
0.0
 11
3.13592904
 21
34.4677213
 31
0.0
  0
LINE
  5
339
100
AcDbEntity
  8
レイヤー_1
  6
CONTINUOUS
 62
       3
100
AcDbLine
 10
3.13592904
 20
34.4677213
 30
0.0
 11
3.09018682
 21
34.22046775
 31
0.0
  0
LINE
  5
33A
100
AcDbEntity
  8
レイヤー_1
  6
CONTINUOUS
 62
       3
100
AcDbLine
 10
3.09018682
 20
34.22046775
 30
0.0
 11
3.05971406
 21
33.96464514
 31
0.0
  0
LINE
  5
33B
100
AcDbEntity
  8
レイヤー_1
  6
CONTINUOUS
 62
       3
100
AcDbLine
 10
3.05971406
 20
33.96464514
 30
0.0
 11
3.04448841
 21
33.70134844
 31
0.0
  0
LINE
  5
33C
100
AcDbEntity
  8
レイヤー_1
  6
CONTINUOUS
 62
       3
100
AcDbLine
 10
3.04448841
 20
33.70134844
 30
0.0
 11
3.04448841
 21
33.43304527
 31
0.0
  0
LINE
  5
33D
100
AcDbEntity
  8
レイヤー_1
  6
CONTINUOUS
 62
       3
100
AcDbLine
 10
3.04448841
 20
33.43304527
 30
0.0
 11
3.05971406
 21
33.16959735
 31
0.0
  0
LINE
  5
33E
100
AcDbEntity
  8
レイヤー_1
  6
CONTINUOUS
 62
       3
100
AcDbLine
 10
3.05971406
 20
33.16959735
 30
0.0
 11
3.09018682
 21
32.91364762
 31
0.0
  0
LINE
  5
33F
100
AcDbEntity
  8
レイヤー_1
  6
CONTINUOUS
 62
       3
100
AcDbLine
 10
3.09018682
 20
32.91364762
 30
0.0
 11
3.13592904
 21
32.66628914
 31
0.0
  0
LINE
  5
340
100
AcDbEntity
  8
レイヤー_1
  6
CONTINUOUS
 62
       3
100
AcDbLine
 10
3.13592904
 20
32.66628914
 30
0.0
 11
3.1969631
 21
32.42861494
 31
0.0
  0
LINE
  5
341
100
AcDbEntity
  8
レイヤー_1
  6
CONTINUOUS
 62
       3
100
AcDbLine
 10
3.1969631
 20
32.42861494
 30
0.0
 11
3.27331137
 21
32.20171809
 31
0.0
  0
LINE
  5
342
100
AcDbEntity
  8
レイヤー_1
  6
CONTINUOUS
 62
       3
100
AcDbLine
 10
3.27331137
 20
32.20171809
 30
0.0
 11
3.36499621
 21
31.98669161
 31
0.0
  0
LINE
  5
343
100
AcDbEntity
  8
レイヤー_1
  6
CONTINUOUS
 62
       3
100
AcDbLine
 10
3.36499621
 20
31.98669161
 30
0.0
 11
3.47204
 21
31.78462856
 31
0.0
  0
LINE
  5
344
100
AcDbEntity
  8
レイヤー_1
  6
CONTINUOUS
 62
       3
100
AcDbLine
 10
3.47204
 20
31.78462856
 30
0.0
 11
3.5944651
 21
31.59662198
 31
0.0
  0
LINE
  5
345
100
AcDbEntity
  8
レイヤー_1
  6
CONTINUOUS
 62
       3
100
AcDbLine
 10
3.5944651
 20
31.59662198
 30
0.0
 11
3.7322939
 21
31.42376492
 31
0.0
  0
LINE
  5
346
100
AcDbEntity
  8
レイヤー_1
  6
CONTINUOUS
 62
       3
100
AcDbLine
 10
3.7322939
 20
31.42376492
 30
0.0
 11
3.88554875
 21
31.26715042
 31
0.0
  0
LINE
  5
347
100
AcDbEntity
  8
レイヤー_1
  6
CONTINUOUS
 62
       3
100
AcDbLine
 10
3.88554875
 20
31.26715042
 30
0.0
 11
4.05425202
 21
31.12787153
 31
0.0
  0
LINE
  5
348
100
AcDbEntity
  8
レイヤー_1
  6
CONTINUOUS
 62
       3
100
AcDbLine
 10
4.05425202
 20
31.12787153
 30
0.0
 11
4.2384261
 21
31.00702129
 31
0.0
  0
LINE
  5
349
100
AcDbEntity
  8
レイヤー_1
  6
CONTINUOUS
 62
       3
100
AcDbLine
 10
4.2384261
 20
31.00702129
 30
0.0
 11
4.43809334
 21
30.90569275
 31
0.0
  0
LINE
  5
34A
100
AcDbEntity
  8
レイヤー_1
  6
CONTINUOUS
 62
       3
100
AcDbLine
 10
4.43809334
 20
30.90569275
 30
0.0
 11
4.65327611
 21
30.82497896
 31
0.0
  0
LINE
  5
34B
100
AcDbEntity
  8
レイヤー_1
  6
CONTINUOUS
 62
       3
100
AcDbLine
 10
4.65327611
 20
30.82497896
 30
0.0
 11
4.8839968
 21
30.76597296
 31
0.0
  0
LINE
  5
34C
100
AcDbEntity
  8
レイヤー_1
  6
CONTINUOUS
 62
       3
100
AcDbLine
 10
4.8839968
 20
30.76597296
 30
0.0
 11
5.13027776
 21
30.72976779
 31
0.0
  0
LINE
  5
34D
100
AcDbEntity
  8
レイヤー_1
  6
CONTINUOUS
 62
       3
100
AcDbLine
 10
5.13027776
 20
30.72976779
 30
0.0
 11
5.39214137
 21
30.7174565
 31
0.0
  0
LINE
  5
34E
100
AcDbEntity
  8
レイヤー_1
  6
CONTINUOUS
 62
       3
100
AcDbLine
 10
-56.47074924
 20
21.1890114
 30
0.0
 11
-56.22940795
 21
21.34476778
 31
0.0
  0
LINE
  5
34F
100
AcDbEntity
  8
レイヤー_1
  6
CONTINUOUS
 62
       3
100
AcDbLine
 10
-56.22940795
 20
21.34476778
 30
0.0
 11
-56.00893395
 21
21.52038488
 31
0.0
  0
LINE
  5
350
100
AcDbEntity
  8
レイヤー_1
  6
CONTINUOUS
 62
       3
100
AcDbLine
 10
-56.00893395
 20
21.52038488
 30
0.0
 11
-55.80982628
 21
21.71399317
 31
0.0
  0
LINE
  5
351
100
AcDbEntity
  8
レイヤー_1
  6
CONTINUOUS
 62
       3
100
AcDbLine
 10
-55.80982628
 20
21.71399317
 30
0.0
 11
-55.63258401
 21
21.92372309
 31
0.0
  0
LINE
  5
352
100
AcDbEntity
  8
レイヤー_1
  6
CONTINUOUS
 62
       3
100
AcDbLine
 10
-55.63258401
 20
21.92372309
 30
0.0
 11
-55.47770619
 21
22.14770511
 31
0.0
  0
LINE
  5
353
100
AcDbEntity
  8
レイヤー_1
  6
CONTINUOUS
 62
       3
100
AcDbLine
 10
-55.47770619
 20
22.14770511
 30
0.0
 11
-55.34569189
 21
22.38406968
 31
0.0
  0
LINE
  5
354
100
AcDbEntity
  8
レイヤー_1
  6
CONTINUOUS
 62
       3
100
AcDbLine
 10
-55.34569189
 20
22.38406968
 30
0.0
 11
-55.23704017
 21
22.63094725
 31
0.0
  0
LINE
  5
355
100
AcDbEntity
  8
レイヤー_1
  6
CONTINUOUS
 62
       3
100
AcDbLine
 10
-55.23704017
 20
22.63094725
 30
0.0
 11
-55.15225009
 21
22.88646828
 31
0.0
  0
LINE
  5
356
100
AcDbEntity
  8
レイヤー_1
  6
CONTINUOUS
 62
       3
100
AcDbLine
 10
-55.15225009
 20
22.88646828
 30
0.0
 11
-55.09182069
 21
23.14876322
 31
0.0
  0
LINE
  5
357
100
AcDbEntity
  8
レイヤー_1
  6
CONTINUOUS
 62
       3
100
AcDbLine
 10
-55.09182069
 20
23.14876322
 30
0.0
 11
-55.05625105
 21
23.41596252
 31
0.0
  0
LINE
  5
358
100
AcDbEntity
  8
レイヤー_1
  6
CONTINUOUS
 62
       3
100
AcDbLine
 10
-55.05625105
 20
23.41596252
 30
0.0
 11
-55.04604023
 21
23.68619665
 31
0.0
  0
LINE
  5
359
100
AcDbEntity
  8
レイヤー_1
  6
CONTINUOUS
 62
       3
100
AcDbLine
 10
-55.04604023
 20
23.68619665
 30
0.0
 11
-55.06168728
 21
23.95759605
 31
0.0
  0
LINE
  5
35A
100
AcDbEntity
  8
レイヤー_1
  6
CONTINUOUS
 62
       3
100
AcDbLine
 10
-55.06168728
 20
23.95759605
 30
0.0
 11
-55.10369126
 21
24.22829118
 31
0.0
  0
LINE
  5
35B
100
AcDbEntity
  8
レイヤー_1
  6
CONTINUOUS
 62
       3
100
AcDbLine
 10
-55.10369126
 20
24.22829118
 30
0.0
 11
-55.17255123
 21
24.49641249
 31
0.0
  0
LINE
  5
35C
100
AcDbEntity
  8
レイヤー_1
  6
CONTINUOUS
 62
       3
100
AcDbLine
 10
-55.17255123
 20
24.49641249
 30
0.0
 11
-55.26876625
 21
24.76009044
 31
0.0
  0
LINE
  5
35D
100
AcDbEntity
  8
レイヤー_1
  6
CONTINUOUS
 62
       3
100
AcDbLine
 10
-55.26876625
 20
24.76009044
 30
0.0
 11
-55.39283538
 21
25.01745548
 31
0.0
  0
LINE
  5
35E
100
AcDbEntity
  8
レイヤー_1
  6
CONTINUOUS
 62
       3
100
AcDbLine
 10
-55.39283538
 20
25.01745548
 30
0.0
 11
-55.54314572
 21
25.26358384
 31
0.0
  0
LINE
  5
35F
100
AcDbEntity
  8
レイヤー_1
  6
CONTINUOUS
 62
       3
100
AcDbLine
 10
-55.54314572
 20
25.26358384
 30
0.0
 11
-55.7139737
 21
25.48939366
 31
0.0
  0
LINE
  5
360
100
AcDbEntity
  8
レイヤー_1
  6
CONTINUOUS
 62
       3
100
AcDbLine
 10
-55.7139737
 20
25.48939366
 30
0.0
 11
-55.90326194
 21
25.69396719
 31
0.0
  0
LINE
  5
361
100
AcDbEntity
  8
レイヤー_1
  6
CONTINUOUS
 62
       3
100
AcDbLine
 10
-55.90326194
 20
25.69396719
 30
0.0
 11
-56.10914186
 21
25.87680395
 31
0.0
  0
LINE
  5
362
100
AcDbEntity
  8
レイヤー_1
  6
CONTINUOUS
 62
       3
100
AcDbLine
 10
-56.10914186
 20
25.87680395
 30
0.0
 11
-56.32974487
 21
26.03740343
 31
0.0
  0
LINE
  5
363
100
AcDbEntity
  8
レイヤー_1
  6
CONTINUOUS
 62
       3
100
AcDbLine
 10
-56.32974487
 20
26.03740343
 30
0.0
 11
-56.56320238
 21
26.17526511
 31
0.0
  0
LINE
  5
364
100
AcDbEntity
  8
レイヤー_1
  6
CONTINUOUS
 62
       3
100
AcDbLine
 10
-56.56320238
 20
26.17526511
 30
0.0
 11
-56.80764583
 21
26.2898885
 31
0.0
  0
LINE
  5
365
100
AcDbEntity
  8
レイヤー_1
  6
CONTINUOUS
 62
       3
100
AcDbLine
 10
-56.80764583
 20
26.2898885
 30
0.0
 11
-57.06120663
 21
26.3807731
 31
0.0
  0
LINE
  5
366
100
AcDbEntity
  8
レイヤー_1
  6
CONTINUOUS
 62
       3
100
AcDbLine
 10
-57.06120663
 20
26.3807731
 30
0.0
 11
-57.32201618
 21
26.44741839
 31
0.0
  0
LINE
  5
367
100
AcDbEntity
  8
レイヤー_1
  6
CONTINUOUS
 62
       3
100
AcDbLine
 10
-57.32201618
 20
26.44741839
 30
0.0
 11
-57.58820593
 21
26.48932388
 31
0.0
  0
LINE
  5
368
100
AcDbEntity
  8
レイヤー_1
  6
CONTINUOUS
 62
       3
100
AcDbLine
 10
-57.58820593
 20
26.48932388
 30
0.0
 11
-57.85790727
 21
26.50598906
 31
0.0
  0
LINE
  5
369
100
AcDbEntity
  8
レイヤー_1
  6
CONTINUOUS
 62
       3
100
AcDbLine
 10
-57.85790727
 20
26.50598906
 30
0.0
 11
-58.12925162
 21
26.49691342
 31
0.0
  0
LINE
  5
36A
100
AcDbEntity
  8
レイヤー_1
  6
CONTINUOUS
 62
       3
100
AcDbLine
 10
-58.12925162
 20
26.49691342
 30
0.0
 11
-58.40037042
 21
26.46159646
 31
0.0
  0
LINE
  5
36B
100
AcDbEntity
  8
レイヤー_1
  6
CONTINUOUS
 62
       3
100
AcDbLine
 10
-58.40037042
 20
26.46159646
 30
0.0
 11
-58.66939507
 21
26.39953768
 31
0.0
  0
LINE
  5
36C
100
AcDbEntity
  8
レイヤー_1
  6
CONTINUOUS
 62
       3
100
AcDbLine
 10
-58.66939507
 20
26.39953768
 30
0.0
 11
-58.93445699
 21
26.31023657
 31
0.0
  0
LINE
  5
36D
100
AcDbEntity
  8
レイヤー_1
  6
CONTINUOUS
 62
       3
100
AcDbLine
 10
-58.93445699
 20
26.31023657
 30
0.0
 11
-59.1936876
 21
26.19319263
 31
0.0
  0
LINE
  5
36E
100
AcDbEntity
  8
レイヤー_1
  6
CONTINUOUS
 62
       3
100
AcDbLine
 10
-59.1936876
 20
26.19319263
 30
0.0
 11
-59.44381282
 21
26.04877026
 31
0.0
  0
LINE
  5
36F
100
AcDbEntity
  8
レイヤー_1
  6
CONTINUOUS
 62
       3
100
AcDbLine
 10
-59.44381282
 20
26.04877026
 30
0.0
 11
-59.67485297
 21
25.8827375
 31
0.0
  0
LINE
  5
370
100
AcDbEntity
  8
レイヤー_1
  6
CONTINUOUS
 62
       3
100
AcDbLine
 10
-59.67485297
 20
25.8827375
 30
0.0
 11
-59.88478053
 21
25.69779227
 31
0.0
  0
LINE
  5
371
100
AcDbEntity
  8
レイヤー_1
  6
CONTINUOUS
 62
       3
100
AcDbLine
 10
-59.88478053
 20
25.69779227
 30
0.0
 11
-60.07309403
 21
25.49580267
 31
0.0
  0
LINE
  5
372
100
AcDbEntity
  8
レイヤー_1
  6
CONTINUOUS
 62
       3
100
AcDbLine
 10
-60.07309403
 20
25.49580267
 30
0.0
 11
-60.239292
 21
25.27863681
 31
0.0
  0
LINE
  5
373
100
AcDbEntity
  8
レイヤー_1
  6
CONTINUOUS
 62
       3
100
AcDbLine
 10
-60.239292
 20
25.27863681
 30
0.0
 11
-60.38287298
 21
25.04816277
 31
0.0
  0
LINE
  5
374
100
AcDbEntity
  8
レイヤー_1
  6
CONTINUOUS
 62
       3
100
AcDbLine
 10
-60.38287298
 20
25.04816277
 30
0.0
 11
-60.50333548
 21
24.80624867
 31
0.0
  0
LINE
  5
375
100
AcDbEntity
  8
レイヤー_1
  6
CONTINUOUS
 62
       3
100
AcDbLine
 10
-60.50333548
 20
24.80624867
 30
0.0
 11
-60.60017805
 21
24.55476259
 31
0.0
  0
LINE
  5
376
100
AcDbEntity
  8
レイヤー_1
  6
CONTINUOUS
 62
       3
100
AcDbLine
 10
-60.60017805
 20
24.55476259
 30
0.0
 11
-60.67289923
 21
24.29557265
 31
0.0
  0
LINE
  5
377
100
AcDbEntity
  8
レイヤー_1
  6
CONTINUOUS
 62
       3
100
AcDbLine
 10
-60.67289923
 20
24.29557265
 30
0.0
 11
-60.72099753
 21
24.03054695
 31
0.0
  0
LINE
  5
378
100
AcDbEntity
  8
レイヤー_1
  6
CONTINUOUS
 62
       3
100
AcDbLine
 10
-60.72099753
 20
24.03054695
 30
0.0
 11
-60.74397149
 21
23.76155358
 31
0.0
  0
LINE
  5
379
100
AcDbEntity
  8
レイヤー_1
  6
CONTINUOUS
 62
       3
100
AcDbLine
 10
-60.74397149
 20
23.76155358
 30
0.0
 11
-60.74131965
 21
23.49046064
 31
0.0
  0
LINE
  5
37A
100
AcDbEntity
  8
レイヤー_1
  6
CONTINUOUS
 62
       3
100
AcDbLine
 10
-60.74131965
 20
23.49046064
 30
0.0
 11
-60.71254054
 21
23.21913624
 31
0.0
  0
LINE
  5
37B
100
AcDbEntity
  8
レイヤー_1
  6
CONTINUOUS
 62
       3
100
AcDbLine
 10
-60.71254054
 20
23.21913624
 30
0.0
 11
-60.65713269
 21
22.94944847
 31
0.0
  0
LINE
  5
37C
100
AcDbEntity
  8
レイヤー_1
  6
CONTINUOUS
 62
       3
100
AcDbLine
 10
-60.65713269
 20
22.94944847
 30
0.0
 11
-60.57459463
 21
22.68326544
 31
0.0
  0
LINE
  5
37D
100
AcDbEntity
  8
レイヤー_1
  6
CONTINUOUS
 62
       3
100
AcDbLine
 10
-60.57459463
 20
22.68326544
 30
0.0
 11
-60.46442489
 21
22.42245524
 31
0.0
  0
LINE
  5
37E
100
AcDbEntity
  8
レイヤー_1
  6
CONTINUOUS
 62
       3
100
AcDbLine
 10
-60.46442489
 20
22.42245524
 30
0.0
 11
-60.32638772
 21
22.16923248
 31
0.0
  0
LINE
  5
37F
100
AcDbEntity
  8
レイヤー_1
  6
CONTINUOUS
 62
       3
100
AcDbLine
 10
-60.32638772
 20
22.16923248
 30
0.0
 11
-60.16549043
 21
21.93305042
 31
0.0
  0
LINE
  5
380
100
AcDbEntity
  8
レイヤー_1
  6
CONTINUOUS
 62
       3
100
AcDbLine
 10
-60.16549043
 20
21.93305042
 30
0.0
 11
-59.98519799
 21
21.71784836
 31
0.0
  0
LINE
  5
381
100
AcDbEntity
  8
レイヤー_1
  6
CONTINUOUS
 62
       3
100
AcDbLine
 10
-59.98519799
 20
21.71784836
 30
0.0
 11
-59.78737849
 21
21.52412825
 31
0.0
  0
LINE
  5
382
100
AcDbEntity
  8
レイヤー_1
  6
CONTINUOUS
 62
       3
100
AcDbLine
 10
-59.78737849
 20
21.52412825
 30
0.0
 11
-59.57390005
 21
21.35239203
 31
0.0
  0
LINE
  5
383
100
AcDbEntity
  8
レイヤー_1
  6
CONTINUOUS
 62
       3
100
AcDbLine
 10
-59.57390005
 20
21.35239203
 30
0.0
 11
-59.34663076
 21
21.20314167
 31
0.0
  0
LINE
  5
384
100
AcDbEntity
  8
レイヤー_1
  6
CONTINUOUS
 62
       3
100
AcDbLine
 10
-59.34663076
 20
21.20314167
 30
0.0
 11
-59.10743872
 21
21.07687911
 31
0.0
  0
LINE
  5
385
100
AcDbEntity
  8
レイヤー_1
  6
CONTINUOUS
 62
       3
100
AcDbLine
 10
-59.10743872
 20
21.07687911
 30
0.0
 11
-58.85819204
 21
20.9741063
 31
0.0
  0
LINE
  5
386
100
AcDbEntity
  8
レイヤー_1
  6
CONTINUOUS
 62
       3
100
AcDbLine
 10
-58.85819204
 20
20.9741063
 30
0.0
 11
-58.6007588
 21
20.89532519
 31
0.0
  0
LINE
  5
387
100
AcDbEntity
  8
レイヤー_1
  6
CONTINUOUS
 62
       3
100
AcDbLine
 10
-58.6007588
 20
20.89532519
 30
0.0
 11
-58.33700712
 21
20.84103773
 31
0.0
  0
LINE
  5
388
100
AcDbEntity
  8
レイヤー_1
  6
CONTINUOUS
 62
       3
100
AcDbLine
 10
-58.33700712
 20
20.84103773
 30
0.0
 11
-58.06880509
 21
20.81174586
 31
0.0
  0
LINE
  5
389
100
AcDbEntity
  8
レイヤー_1
  6
CONTINUOUS
 62
       3
100
AcDbLine
 10
-58.06880509
 20
20.81174586
 30
0.0
 11
-57.79802081
 21
20.80795154
 31
0.0
  0
LINE
  5
38A
100
AcDbEntity
  8
レイヤー_1
  6
CONTINUOUS
 62
       3
100
AcDbLine
 10
-57.79802081
 20
20.80795154
 30
0.0
 11
-57.52652239
 21
20.83015672
 31
0.0
  0
LINE
  5
38B
100
AcDbEntity
  8
レイヤー_1
  6
CONTINUOUS
 62
       3
100
AcDbLine
 10
-57.52652239
 20
20.83015672
 30
0.0
 11
-57.25617792
 21
20.87886335
 31
0.0
  0
LINE
  5
38C
100
AcDbEntity
  8
レイヤー_1
  6
CONTINUOUS
 62
       3
100
AcDbLine
 10
-57.25617792
 20
20.87886335
 30
0.0
 11
-56.9888555
 21
20.95457337
 31
0.0
  0
LINE
  5
38D
100
AcDbEntity
  8
レイヤー_1
  6
CONTINUOUS
 62
       3
100
AcDbLine
 10
-56.9888555
 20
20.95457337
 30
0.0
 11
-56.72642324
 21
21.05778874
 31
0.0
  0
LINE
  5
38E
100
AcDbEntity
  8
レイヤー_1
  6
CONTINUOUS
 62
       3
100
AcDbLine
 10
-56.72642324
 20
21.05778874
 30
0.0
 11
-56.47074924
 21
21.1890114
 31
0.0
  0
LINE
  5
38F
100
AcDbEntity
  8
レイヤー_1
  6
CONTINUOUS
 62
       3
100
AcDbLine
 10
-66.95486382
 20
-5.27517858
 30
0.0
 11
-66.96912575
 21
-4.98831892
 31
0.0
  0
LINE
  5
390
100
AcDbEntity
  8
レイヤー_1
  6
CONTINUOUS
 62
       3
100
AcDbLine
 10
-66.96912575
 20
-4.98831892
 30
0.0
 11
-67.01100141
 21
-4.70959017
 31
0.0
  0
LINE
  5
391
100
AcDbEntity
  8
レイヤー_1
  6
CONTINUOUS
 62
       3
100
AcDbLine
 10
-67.01100141
 20
-4.70959017
 30
0.0
 11
-67.07912562
 21
-4.44035993
 31
0.0
  0
LINE
  5
392
100
AcDbEntity
  8
レイヤー_1
  6
CONTINUOUS
 62
       3
100
AcDbLine
 10
-67.07912562
 20
-4.44035993
 30
0.0
 11
-67.17213318
 21
-4.18199578
 31
0.0
  0
LINE
  5
393
100
AcDbEntity
  8
レイヤー_1
  6
CONTINUOUS
 62
       3
100
AcDbLine
 10
-67.17213318
 20
-4.18199578
 30
0.0
 11
-67.28865892
 21
-3.93586533
 31
0.0
  0
LINE
  5
394
100
AcDbEntity
  8
レイヤー_1
  6
CONTINUOUS
 62
       3
100
AcDbLine
 10
-67.28865892
 20
-3.93586533
 30
0.0
 11
-67.42733764
 21
-3.70333618
 31
0.0
  0
LINE
  5
395
100
AcDbEntity
  8
レイヤー_1
  6
CONTINUOUS
 62
       3
100
AcDbLine
 10
-67.42733764
 20
-3.70333618
 30
0.0
 11
-67.58680415
 21
-3.48577592
 31
0.0
  0
LINE
  5
396
100
AcDbEntity
  8
レイヤー_1
  6
CONTINUOUS
 62
       3
100
AcDbLine
 10
-67.58680415
 20
-3.48577592
 30
0.0
 11
-67.76569328
 21
-3.28455214
 31
0.0
  0
LINE
  5
397
100
AcDbEntity
  8
レイヤー_1
  6
CONTINUOUS
 62
       3
100
AcDbLine
 10
-67.76569328
 20
-3.28455214
 30
0.0
 11
-67.96263982
 21
-3.10103244
 31
0.0
  0
LINE
  5
398
100
AcDbEntity
  8
レイヤー_1
  6
CONTINUOUS
 62
       3
100
AcDbLine
 10
-67.96263982
 20
-3.10103244
 30
0.0
 11
-68.1762786
 21
-2.93658442
 31
0.0
  0
LINE
  5
399
100
AcDbEntity
  8
レイヤー_1
  6
CONTINUOUS
 62
       3
100
AcDbLine
 10
-68.1762786
 20
-2.93658442
 30
0.0
 11
-68.40524442
 21
-2.79257567
 31
0.0
  0
LINE
  5
39A
100
AcDbEntity
  8
レイヤー_1
  6
CONTINUOUS
 62
       3
100
AcDbLine
 10
-68.40524442
 20
-2.79257567
 30
0.0
 11
-68.64817211
 21
-2.67037379
 31
0.0
  0
LINE
  5
39B
100
AcDbEntity
  8
レイヤー_1
  6
CONTINUOUS
 62
       3
100
AcDbLine
 10
-68.64817211
 20
-2.67037379
 30
0.0
 11
-68.90369646
 21
-2.57134638
 31
0.0
  0
LINE
  5
39C
100
AcDbEntity
  8
レイヤー_1
  6
CONTINUOUS
 62
       3
100
AcDbLine
 10
-68.90369646
 20
-2.57134638
 30
0.0
 11
-69.1704523
 21
-2.49686103
 31
0.0
  0
LINE
  5
39D
100
AcDbEntity
  8
レイヤー_1
  6
CONTINUOUS
 62
       3
100
AcDbLine
 10
-69.1704523
 20
-2.49686103
 30
0.0
 11
-69.44707444
 21
-2.44828533
 31
0.0
  0
LINE
  5
39E
100
AcDbEntity
  8
レイヤー_1
  6
CONTINUOUS
 62
       3
100
AcDbLine
 10
-69.44707444
 20
-2.44828533
 30
0.0
 11
-69.73219768
 21
-2.42698689
 31
0.0
  0
LINE
  5
39F
100
AcDbEntity
  8
レイヤー_1
  6
CONTINUOUS
 62
       3
100
AcDbLine
 10
-69.73219768
 20
-2.42698689
 30
0.0
 11
-70.02050254
 21
-2.43414098
 31
0.0
  0
LINE
  5
3A0
100
AcDbEntity
  8
レイヤー_1
  6
CONTINUOUS
 62
       3
100
AcDbLine
 10
-70.02050254
 20
-2.43414098
 30
0.0
 11
-70.30140122
 21
-2.469249
 31
0.0
  0
LINE
  5
3A1
100
AcDbEntity
  8
レイヤー_1
  6
CONTINUOUS
 62
       3
100
AcDbLine
 10
-70.30140122
 20
-2.469249
 30
0.0
 11
-70.57314944
 21
-2.53095047
 31
0.0
  0
LINE
  5
3A2
100
AcDbEntity
  8
レイヤー_1
  6
CONTINUOUS
 62
       3
100
AcDbLine
 10
-70.57314944
 20
-2.53095047
 30
0.0
 11
-70.83437864
 21
-2.6178778
 31
0.0
  0
LINE
  5
3A3
100
AcDbEntity
  8
レイヤー_1
  6
CONTINUOUS
 62
       3
100
AcDbLine
 10
-70.83437864
 20
-2.6178778
 30
0.0
 11
-71.08372025
 21
-2.7286634
 31
0.0
  0
LINE
  5
3A4
100
AcDbEntity
  8
レイヤー_1
  6
CONTINUOUS
 62
       3
100
AcDbLine
 10
-71.08372025
 20
-2.7286634
 30
0.0
 11
-71.31980571
 21
-2.86193966
 31
0.0
  0
LINE
  5
3A5
100
AcDbEntity
  8
レイヤー_1
  6
CONTINUOUS
 62
       3
100
AcDbLine
 10
-71.31980571
 20
-2.86193966
 30
0.0
 11
-71.54126648
 21
-3.01633899
 31
0.0
  0
LINE
  5
3A6
100
AcDbEntity
  8
レイヤー_1
  6
CONTINUOUS
 62
       3
100
AcDbLine
 10
-71.54126648
 20
-3.01633899
 30
0.0
 11
-71.74673398
 21
-3.1904938
 31
0.0
  0
LINE
  5
3A7
100
AcDbEntity
  8
レイヤー_1
  6
CONTINUOUS
 62
       3
100
AcDbLine
 10
-71.74673398
 20
-3.1904938
 30
0.0
 11
-71.93483967
 21
-3.38303649
 31
0.0
  0
LINE
  5
3A8
100
AcDbEntity
  8
レイヤー_1
  6
CONTINUOUS
 62
       3
100
AcDbLine
 10
-71.93483967
 20
-3.38303649
 30
0.0
 11
-72.10421496
 21
-3.59259946
 31
0.0
  0
LINE
  5
3A9
100
AcDbEntity
  8
レイヤー_1
  6
CONTINUOUS
 62
       3
100
AcDbLine
 10
-72.10421496
 20
-3.59259946
 30
0.0
 11
-72.25349133
 21
-3.81781512
 31
0.0
  0
LINE
  5
3AA
100
AcDbEntity
  8
レイヤー_1
  6
CONTINUOUS
 62
       3
100
AcDbLine
 10
-72.25349133
 20
-3.81781512
 30
0.0
 11
-72.3813002
 21
-4.05731587
 31
0.0
  0
LINE
  5
3AB
100
AcDbEntity
  8
レイヤー_1
  6
CONTINUOUS
 62
       3
100
AcDbLine
 10
-72.3813002
 20
-4.05731587
 30
0.0
 11
-72.486273
 21
-4.30973412
 31
0.0
  0
LINE
  5
3AC
100
AcDbEntity
  8
レイヤー_1
  6
CONTINUOUS
 62
       3
100
AcDbLine
 10
-72.486273
 20
-4.30973412
 30
0.0
 11
-72.56704119
 21
-4.57370226
 31
0.0
  0
LINE
  5
3AD
100
AcDbEntity
  8
レイヤー_1
  6
CONTINUOUS
 62
       3
100
AcDbLine
 10
-72.56704119
 20
-4.57370226
 30
0.0
 11
-72.6222362
 21
-4.84785271
 31
0.0
  0
LINE
  5
3AE
100
AcDbEntity
  8
レイヤー_1
  6
CONTINUOUS
 62
       3
100
AcDbLine
 10
-72.6222362
 20
-4.84785271
 30
0.0
 11
-72.65048947
 21
-5.13081786
 31
0.0
  0
LINE
  5
3AF
100
AcDbEntity
  8
レイヤー_1
  6
CONTINUOUS
 62
       3
100
AcDbLine
 10
-72.65048947
 20
-5.13081786
 30
0.0
 11
-72.65048947
 21
-5.41954122
 31
0.0
  0
LINE
  5
3B0
100
AcDbEntity
  8
レイヤー_1
  6
CONTINUOUS
 62
       3
100
AcDbLine
 10
-72.65048947
 20
-5.41954122
 30
0.0
 11
-72.6222362
 21
-5.70252099
 31
0.0
  0
LINE
  5
3B1
100
AcDbEntity
  8
レイヤー_1
  6
CONTINUOUS
 62
       3
100
AcDbLine
 10
-72.6222362
 20
-5.70252099
 30
0.0
 11
-72.56704119
 21
-5.97669881
 31
0.0
  0
LINE
  5
3B2
100
AcDbEntity
  8
レイヤー_1
  6
CONTINUOUS
 62
       3
100
AcDbLine
 10
-72.56704119
 20
-5.97669881
 30
0.0
 11
-72.486273
 21
-6.24070518
 31
0.0
  0
LINE
  5
3B3
100
AcDbEntity
  8
レイヤー_1
  6
CONTINUOUS
 62
       3
100
AcDbLine
 10
-72.486273
 20
-6.24070518
 30
0.0
 11
-72.3813002
 21
-6.49317055
 31
0.0
  0
LINE
  5
3B4
100
AcDbEntity
  8
レイヤー_1
  6
CONTINUOUS
 62
       3
100
AcDbLine
 10
-72.3813002
 20
-6.49317055
 30
0.0
 11
-72.25349133
 21
-6.73272541
 31
0.0
  0
LINE
  5
3B5
100
AcDbEntity
  8
レイヤー_1
  6
CONTINUOUS
 62
       3
100
AcDbLine
 10
-72.25349133
 20
-6.73272541
 30
0.0
 11
-72.10421496
 21
-6.95800024
 31
0.0
  0
LINE
  5
3B6
100
AcDbEntity
  8
レイヤー_1
  6
CONTINUOUS
 62
       3
100
AcDbLine
 10
-72.10421496
 20
-6.95800024
 30
0.0
 11
-71.93483967
 21
-7.16762552
 31
0.0
  0
LINE
  5
3B7
100
AcDbEntity
  8
レイヤー_1
  6
CONTINUOUS
 62
       3
100
AcDbLine
 10
-71.93483967
 20
-7.16762552
 30
0.0
 11
-71.74673398
 21
-7.36023171
 31
0.0
  0
LINE
  5
3B8
100
AcDbEntity
  8
レイヤー_1
  6
CONTINUOUS
 62
       3
100
AcDbLine
 10
-71.74673398
 20
-7.36023171
 30
0.0
 11
-71.54126648
 21
-7.5344493
 31
0.0
  0
LINE
  5
3B9
100
AcDbEntity
  8
レイヤー_1
  6
CONTINUOUS
 62
       3
100
AcDbLine
 10
-71.54126648
 20
-7.5344493
 30
0.0
 11
-71.31980571
 21
-7.68890877
 31
0.0
  0
LINE
  5
3BA
100
AcDbEntity
  8
レイヤー_1
  6
CONTINUOUS
 62
       3
100
AcDbLine
 10
-71.31980571
 20
-7.68890877
 30
0.0
 11
-71.08372025
 21
-7.82224059
 31
0.0
  0
LINE
  5
3BB
100
AcDbEntity
  8
レイヤー_1
  6
CONTINUOUS
 62
       3
100
AcDbLine
 10
-71.08372025
 20
-7.82224059
 30
0.0
 11
-70.83437864
 21
-7.93307524
 31
0.0
  0
LINE
  5
3BC
100
AcDbEntity
  8
レイヤー_1
  6
CONTINUOUS
 62
       3
100
AcDbLine
 10
-70.83437864
 20
-7.93307524
 30
0.0
 11
-70.57314944
 21
-8.0200432
 31
0.0
  0
LINE
  5
3BD
100
AcDbEntity
  8
レイヤー_1
  6
CONTINUOUS
 62
       3
100
AcDbLine
 10
-70.57314944
 20
-8.0200432
 30
0.0
 11
-70.30140122
 21
-8.08177494
 31
0.0
  0
LINE
  5
3BE
100
AcDbEntity
  8
レイヤー_1
  6
CONTINUOUS
 62
       3
100
AcDbLine
 10
-70.30140122
 20
-8.08177494
 30
0.0
 11
-70.02050254
 21
-8.11690094
 31
0.0
  0
LINE
  5
3BF
100
AcDbEntity
  8
レイヤー_1
  6
CONTINUOUS
 62
       3
100
AcDbLine
 10
-70.02050254
 20
-8.11690094
 30
0.0
 11
-69.73219768
 21
-8.12405881
 31
0.0
  0
LINE
  5
3C0
100
AcDbEntity
  8
レイヤー_1
  6
CONTINUOUS
 62
       3
100
AcDbLine
 10
-69.73219768
 20
-8.12405881
 30
0.0
 11
-69.44707444
 21
-8.10274925
 31
0.0
  0
LINE
  5
3C1
100
AcDbEntity
  8
レイヤー_1
  6
CONTINUOUS
 62
       3
100
AcDbLine
 10
-69.44707444
 20
-8.10274925
 30
0.0
 11
-69.1704523
 21
-8.05414919
 31
0.0
  0
LINE
  5
3C2
100
AcDbEntity
  8
レイヤー_1
  6
CONTINUOUS
 62
       3
100
AcDbLine
 10
-69.1704523
 20
-8.05414919
 30
0.0
 11
-68.90369646
 21
-7.97962815
 31
0.0
  0
LINE
  5
3C3
100
AcDbEntity
  8
レイヤー_1
  6
CONTINUOUS
 62
       3
100
AcDbLine
 10
-68.90369646
 20
-7.97962815
 30
0.0
 11
-68.64817211
 21
-7.88055566
 31
0.0
  0
LINE
  5
3C4
100
AcDbEntity
  8
レイヤー_1
  6
CONTINUOUS
 62
       3
100
AcDbLine
 10
-68.64817211
 20
-7.88055566
 30
0.0
 11
-68.40524442
 21
-7.75830123
 31
0.0
  0
LINE
  5
3C5
100
AcDbEntity
  8
レイヤー_1
  6
CONTINUOUS
 62
       3
100
AcDbLine
 10
-68.40524442
 20
-7.75830123
 30
0.0
 11
-68.1762786
 21
-7.6142344
 31
0.0
  0
LINE
  5
3C6
100
AcDbEntity
  8
レイヤー_1
  6
CONTINUOUS
 62
       3
100
AcDbLine
 10
-68.1762786
 20
-7.6142344
 30
0.0
 11
-67.96263982
 21
-7.44972468
 31
0.0
  0
LINE
  5
3C7
100
AcDbEntity
  8
レイヤー_1
  6
CONTINUOUS
 62
       3
100
AcDbLine
 10
-67.96263982
 20
-7.44972468
 30
0.0
 11
-67.76569328
 21
-7.26614159
 31
0.0
  0
LINE
  5
3C8
100
AcDbEntity
  8
レイヤー_1
  6
CONTINUOUS
 62
       3
100
AcDbLine
 10
-67.76569328
 20
-7.26614159
 30
0.0
 11
-67.58680415
 21
-7.06485467
 31
0.0
  0
LINE
  5
3C9
100
AcDbEntity
  8
レイヤー_1
  6
CONTINUOUS
 62
       3
100
AcDbLine
 10
-67.58680415
 20
-7.06485467
 30
0.0
 11
-67.42733764
 21
-6.84723343
 31
0.0
  0
LINE
  5
3CA
100
AcDbEntity
  8
レイヤー_1
  6
CONTINUOUS
 62
       3
100
AcDbLine
 10
-67.42733764
 20
-6.84723343
 30
0.0
 11
-67.28865892
 21
-6.61464739
 31
0.0
  0
LINE
  5
3CB
100
AcDbEntity
  8
レイヤー_1
  6
CONTINUOUS
 62
       3
100
AcDbLine
 10
-67.28865892
 20
-6.61464739
 30
0.0
 11
-67.17213318
 21
-6.36846608
 31
0.0
  0
LINE
  5
3CC
100
AcDbEntity
  8
レイヤー_1
  6
CONTINUOUS
 62
       3
100
AcDbLine
 10
-67.17213318
 20
-6.36846608
 30
0.0
 11
-67.07912562
 21
-6.11005902
 31
0.0
  0
LINE
  5
3CD
100
AcDbEntity
  8
レイヤー_1
  6
CONTINUOUS
 62
       3
100
AcDbLine
 10
-67.07912562
 20
-6.11005902
 30
0.0
 11
-67.01100141
 21
-5.84079574
 31
0.0
  0
LINE
  5
3CE
100
AcDbEntity
  8
レイヤー_1
  6
CONTINUOUS
 62
       3
100
AcDbLine
 10
-67.01100141
 20
-5.84079574
 30
0.0
 11
-66.96912575
 21
-5.56204575
 31
0.0
  0
LINE
  5
3CF
100
AcDbEntity
  8
レイヤー_1
  6
CONTINUOUS
 62
       3
100
AcDbLine
 10
-66.96912575
 20
-5.56204575
 30
0.0
 11
-66.95486382
 21
-5.27517858
 31
0.0
  0
LINE
  5
3D0
100
AcDbEntity
  8
SLD-0
  6
CONTINUOUS
 62
       3
100
AcDbLine
 10
-6.09089357
 20
38.67734962
 30
0.0
 11
-6.09089357
 21
-11.31133038
 31
0.0
  0
LINE
  5
3D1
100
AcDbEntity
  8
SLD-0
  6
CONTINUOUS
 62
       3
100
AcDbLine
 10
123.90910643
 20
46.67314091
 30
0.0
 11
13.90910643
 21
46.67314091
 31
0.0
  0
LINE
  5
3D2
100
AcDbEntity
  8
SLD-0
  6
CONTINUOUS
 62
       3
100
AcDbLine
 10
123.90910643
 20
46.66514801
 30
0.0
 11
123.90910643
 21
-23.31886619
 31
0.0
  0
LINE
  5
3D3
100
AcDbEntity
  8
SLD-0
  6
CONTINUOUS
 62
       3
100
AcDbLine
 10
123.90910643
 20
-23.32685909
 30
0.0
 11
15.91663275
 21
-23.32685909
 31
0.0
  0
LINE
  5
3D4
100
AcDbEntity
  8
SLD-0
  6
CONTINUOUS
 62
       3
100
AcDbLine
 10
121.90910643
 20
46.66514801
 30
0.0
 11
121.90910643
 21
-21.31933277
 31
0.0
  0
LINE
  5
3D5
100
AcDbEntity
  8
SLD-0
  6
CONTINUOUS
 62
       3
100
AcDbLine
 10
-40.40910644
 20
46.67314091
 30
0.0
 11
-122.40910644
 21
46.67314091
 31
0.0
  0
LINE
  5
3D6
100
AcDbEntity
  8
SLD-0
  6
CONTINUOUS
 62
       3
100
AcDbLine
 10
-40.40910644
 20
-23.32685909
 30
0.0
 11
-122.40910644
 21
-23.32685909
 31
0.0
  0
LINE
  5
3D7
100
AcDbEntity
  8
SLD-0
  6
CONTINUOUS
 62
       3
100
AcDbLine
 10
-113.90910644
 20
46.67314091
 30
0.0
 11
-113.90910644
 21
-23.32685909
 31
0.0
  0
LINE
  5
3D8
100
AcDbEntity
  8
SLD-0
  6
CONTINUOUS
 62
       3
100
AcDbLine
 10
-123.90910644
 20
45.17314091
 30
0.0
 11
-123.90910644
 21
40.17314091
 31
0.0
  0
LINE
  5
3D9
100
AcDbEntity
  8
SLD-0
  6
CONTINUOUS
 62
       3
100
AcDbLine
 10
-48.90910644
 20
46.67314091
 30
0.0
 11
-48.90910644
 21
-23.32685909
 31
0.0
  0
LINE
  5
3DA
100
AcDbEntity
  8
SLD-0
  6
CONTINUOUS
 62
       3
100
AcDbLine
 10
-111.90910644
 20
46.67314091
 30
0.0
 11
-111.90910644
 21
-23.32685909
 31
0.0
  0
LINE
  5
3DB
100
AcDbEntity
  8
SLD-0
  6
CONTINUOUS
 62
       3
100
AcDbLine
 10
-50.90910644
 20
46.67314091
 30
0.0
 11
-50.90910644
 21
-23.32685909
 31
0.0
  0
LINE
  5
3DC
100
AcDbEntity
  8
SLD-0
  6
CONTINUOUS
 62
       3
100
AcDbLine
 10
-119.90910644
 20
34.67314091
 30
0.0
 11
-122.40910644
 21
34.67314091
 31
0.0
  0
LINE
  5
3DD
100
AcDbEntity
  8
SLD-0
  6
CONTINUOUS
 62
       3
100
AcDbLine
 10
-119.90910644
 20
38.67314091
 30
0.0
 11
-122.40910644
 21
38.67314091
 31
0.0
  0
LINE
  5
3DE
100
AcDbEntity
  8
SLD-0
  6
CONTINUOUS
 62
       3
100
AcDbLine
 10
-122.40910644
 20
38.67314091
 30
0.0
 11
-123.90910644
 21
40.17314091
 31
0.0
  0
LINE
  5
3DF
100
AcDbEntity
  8
SLD-0
  6
CONTINUOUS
 62
       3
100
AcDbLine
 10
-122.40910644
 20
46.67314091
 30
0.0
 11
-123.90910644
 21
45.17314091
 31
0.0
  0
LINE
  5
3E0
100
AcDbEntity
  8
SLD-0
  6
CONTINUOUS
 62
       3
100
AcDbLine
 10
-122.40910644
 20
34.67314091
 30
0.0
 11
-123.90910644
 21
33.17314091
 31
0.0
  0
LINE
  5
3E1
100
AcDbEntity
  8
SLD-0
  6
CONTINUOUS
 62
       3
100
AcDbLine
 10
-123.90910644
 20
33.17314091
 30
0.0
 11
-123.90910644
 21
-9.82685909
 31
0.0
  0
ARC
  5
3E2
100
AcDbEntity
  8
SLD-0
  6
CONTINUOUS
 62
       3
100
AcDbCircle
 10
-119.90910644
 20
36.67314091
 30
0.0
 40
2.0
100
AcDbArc
 50
270.0
 51
450.0
  0
LINE
  5
3E3
100
AcDbEntity
  8
SLD-0
  6
CONTINUOUS
 62
       3
100
AcDbLine
 10
-122.40910644
 20
-11.32685909
 30
0.0
 11
-123.90910644
 21
-9.82685909
 31
0.0
  0
LINE
  5
3E4
100
AcDbEntity
  8
SLD-0
  6
CONTINUOUS
 62
       3
100
AcDbLine
 10
-122.40910644
 20
-23.32685909
 30
0.0
 11
-123.90910644
 21
-21.82685909
 31
0.0
  0
LINE
  5
3E5
100
AcDbEntity
  8
SLD-0
  6
CONTINUOUS
 62
       3
100
AcDbLine
 10
-122.40910644
 20
-15.32685909
 30
0.0
 11
-123.90910644
 21
-16.82685909
 31
0.0
  0
LINE
  5
3E6
100
AcDbEntity
  8
SLD-0
  6
CONTINUOUS
 62
       3
100
AcDbLine
 10
-119.90910644
 20
-15.32685909
 30
0.0
 11
-122.40910644
 21
-15.32685909
 31
0.0
  0
LINE
  5
3E7
100
AcDbEntity
  8
SLD-0
  6
CONTINUOUS
 62
       3
100
AcDbLine
 10
-119.90910644
 20
-11.32685909
 30
0.0
 11
-122.40910644
 21
-11.32685909
 31
0.0
  0
LINE
  5
3E8
100
AcDbEntity
  8
SLD-0
  6
CONTINUOUS
 62
       3
100
AcDbLine
 10
-123.90910644
 20
-21.82685909
 30
0.0
 11
-123.90910644
 21
-16.82685909
 31
0.0
  0
LINE
  5
3E9
100
AcDbEntity
  8
SLD-0
  6
CONTINUOUS
 62
       3
100
AcDbLine
 10
-38.90910644
 20
33.17314091
 30
0.0
 11
-38.90910644
 21
-9.82685909
 31
0.0
  0
LINE
  5
3EA
100
AcDbEntity
  8
SLD-0
  6
CONTINUOUS
 62
       3
100
AcDbLine
 10
-38.90910644
 20
-21.82685909
 30
0.0
 11
-38.90910644
 21
-16.82685909
 31
0.0
  0
LINE
  5
3EB
100
AcDbEntity
  8
SLD-0
  6
CONTINUOUS
 62
       3
100
AcDbLine
 10
-42.90910644
 20
-11.32685909
 30
0.0
 11
-40.40910644
 21
-11.32685909
 31
0.0
  0
LINE
  5
3EC
100
AcDbEntity
  8
SLD-0
  6
CONTINUOUS
 62
       3
100
AcDbLine
 10
-42.90910644
 20
-15.32685909
 30
0.0
 11
-40.40910644
 21
-15.32685909
 31
0.0
  0
LINE
  5
3ED
100
AcDbEntity
  8
SLD-0
  6
CONTINUOUS
 62
       3
100
AcDbLine
 10
-40.40910644
 20
-15.32685909
 30
0.0
 11
-38.90910644
 21
-16.82685909
 31
0.0
  0
LINE
  5
3EE
100
AcDbEntity
  8
SLD-0
  6
CONTINUOUS
 62
       3
100
AcDbLine
 10
-40.40910644
 20
-23.32685909
 30
0.0
 11
-38.90910644
 21
-21.82685909
 31
0.0
  0
LINE
  5
3EF
100
AcDbEntity
  8
SLD-0
  6
CONTINUOUS
 62
       3
100
AcDbLine
 10
-40.40910644
 20
34.67314091
 30
0.0
 11
-38.90910644
 21
33.17314091
 31
0.0
  0
LINE
  5
3F0
100
AcDbEntity
  8
SLD-0
  6
CONTINUOUS
 62
       3
100
AcDbLine
 10
-40.40910644
 20
46.67314091
 30
0.0
 11
-38.90910644
 21
45.17314091
 31
0.0
  0
LINE
  5
3F1
100
AcDbEntity
  8
SLD-0
  6
CONTINUOUS
 62
       3
100
AcDbLine
 10
-40.40910644
 20
38.67314091
 30
0.0
 11
-38.90910644
 21
40.17314091
 31
0.0
  0
LINE
  5
3F2
100
AcDbEntity
  8
SLD-0
  6
CONTINUOUS
 62
       3
100
AcDbLine
 10
-40.40910644
 20
-11.32685909
 30
0.0
 11
-38.90910644
 21
-9.82685909
 31
0.0
  0
LINE
  5
3F3
100
AcDbEntity
  8
SLD-0
  6
CONTINUOUS
 62
       3
100
AcDbLine
 10
-42.90910644
 20
38.67314091
 30
0.0
 11
-40.40910644
 21
38.67314091
 31
0.0
  0
LINE
  5
3F4
100
AcDbEntity
  8
SLD-0
  6
CONTINUOUS
 62
       3
100
AcDbLine
 10
-42.90910644
 20
34.67314091
 30
0.0
 11
-40.40910644
 21
34.67314091
 31
0.0
  0
LINE
  5
3F5
100
AcDbEntity
  8
SLD-0
  6
CONTINUOUS
 62
       3
100
AcDbLine
 10
-38.90910644
 20
45.17314091
 30
0.0
 11
-38.90910644
 21
40.17314091
 31
0.0
  0
ARC
  5
3F6
100
AcDbEntity
  8
SLD-0
  6
CONTINUOUS
 62
       3
100
AcDbCircle
 10
-119.90910644
 20
-13.32685909
 30
0.0
 40
2.0
100
AcDbArc
 50
270.0
 51
450.0
  0
ARC
  5
3F7
100
AcDbEntity
  8
SLD-0
  6
CONTINUOUS
 62
       3
100
AcDbCircle
 10
-42.90910644
 20
-13.32685909
 30
0.0
 40
2.0
100
AcDbArc
 50
90.0
 51
270.0
  0
ARC
  5
3F8
100
AcDbEntity
  8
SLD-0
  6
CONTINUOUS
 62
       3
100
AcDbCircle
 10
-42.90910644
 20
36.67314091
 30
0.0
 40
2.0
100
AcDbArc
 50
90.0
 51
270.0
  0
TEXT
  5
3F9
100
AcDbEntity
  8
SLD-0
 62
       3
100
AcDbText
 10
97.36797772
 20
-49.17314091
 30
0.0
 40
5.0
  1
000
 72
       5
 11
112.36797772
 21
-49.17314091
 31
0.0
100
AcDbText
  0
ENDSEC
  0
SECTION
  2
OBJECTS
  0
DICTIONARY
  5
19
100
AcDbDictionary
  3
ACAD_GROUP
350
1A
  3
ACAD_MLINESTYLE
350
1B
  0
DICTIONARY
  5
1A
102
{ACAD_REACTORS
330
19
102
}
100
AcDbDictionary
  0
DICTIONARY
  5
1B
102
{ACAD_REACTORS
330
19
102
}
100
AcDbDictionary
  3
STANDARD
350
1C
  0
MLINESTYLE
  5
1C
102
{ACAD_REACTORS
330
1B
102
}
100
AcDbMlineStyle
  2
STANDARD
 70
       0
  3

 62
       0
 51
90.0
 52
90.0
 71
       2
 49
0.5
 62
     256
  6
BYLAYER
 49
-0.5
 62
     256
  6
BYLAYER
  0
ENDSEC
  0
EOF
