  0
SECTION
  2
HEADER
  9
$ACADVER
  1
AC1014
  9
$ACADMAINTVER
 70
       0
  9
$DWGCODEPAGE
  3
ANSI_932
  9
$INSBASE
 10
0.0
 20
0.0
 30
0.0
  9
$EXTMIN
 10
-144.54437716
 20
-88.75728453
 30
0.0
  9
$EXTMAX
 10
144.54437716
 20
42.5246538
 30
0.0
  9
$LIMMIN
 10
-153.57840073
 20
-92.8598451
  9
$LIMMAX
 10
153.57840073
 20
46.62721437
  9
$ORTHOMODE
 70
       0
  9
$REGENMODE
 70
       1
  9
$FILLMODE
 70
       1
  9
$QTEXTMODE
 70
       0
  9
$MIRRTEXT
 70
       1
  9
$DRAGMODE
 70
       2
  9
$LTSCALE
 40
1.0
  9
$OSMODE
 70
       0
  9
$ATTMODE
 70
       1
  9
$TEXTSIZE
 40
0.2
  9
$TRACEWID
 40
0.05
  9
$TEXTSTYLE
  7
STANDARD
  9
$CLAYER
  8
0
  9
$CELTYPE
  6
CONTINUOUS
  9
$CECOLOR
 62
     256
  9
$CELTSCALE
 40
1.0
  9
$DELOBJ
 70
       1
  9
$DISPSILH
 70
       0
  9
$DIMSCALE
 40
1.0
  9
$DIMASZ
 40
0.18
  9
$DIMEXO
 40
0.0625
  9
$DIMDLI
 40
0.38
  9
$DIMRND
 40
0.0
  9
$DIMDLE
 40
0.0
  9
$DIMEXE
 40
0.18
  9
$DIMTP
 40
0.0
  9
$DIMTM
 40
0.0
  9
$DIMTXT
 40
0.18
  9
$DIMCEN
 40
0.09
  9
$DIMTSZ
 40
0.0
  9
$DIMTOL
 70
       0
  9
$DIMLIM
 70
       0
  9
$DIMTIH
 70
       1
  9
$DIMTOH
 70
       1
  9
$DIMSE1
 70
       0
  9
$DIMSE2
 70
       0
  9
$DIMTAD
 70
       0
  9
$DIMZIN
 70
       0
  9
$DIMBLK
  1

  9
$DIMASO
 70
       1
  9
$DIMSHO
 70
       1
  9
$DIMPOST
  1

  9
$DIMAPOST
  1

  9
$DIMALT
 70
       0
  9
$DIMALTD
 70
       2
  9
$DIMALTF
 40
25.4
  9
$DIMLFAC
 40
1.0
  9
$DIMTOFL
 70
       0
  9
$DIMTVP
 40
0.0
  9
$DIMTIX
 70
       0
  9
$DIMSOXD
 70
       0
  9
$DIMSAH
 70
       0
  9
$DIMBLK1
  1

  9
$DIMBLK2
  1

  9
$DIMSTYLE
  2
STANDARD
  9
$DIMCLRD
 70
       0
  9
$DIMCLRE
 70
       0
  9
$DIMCLRT
 70
       0
  9
$DIMTFAC
 40
1.0
  9
$DIMGAP
 40
0.09
  9
$DIMJUST
 70
       0
  9
$DIMSD1
 70
       0
  9
$DIMSD2
 70
       0
  9
$DIMTOLJ
 70
       1
  9
$DIMTZIN
 70
       0
  9
$DIMALTZ
 70
       0
  9
$DIMALTTZ
 70
       0
  9
$DIMFIT
 70
       3
  9
$DIMUPT
 70
       0
  9
$DIMUNIT
 70
       2
  9
$DIMDEC
 70
       4
  9
$DIMTDEC
 70
       4
  9
$DIMALTU
 70
       2
  9
$DIMALTTD
 70
       2
  9
$DIMTXSTY
  7
STANDARD
  9
$DIMAUNIT
 70
       0
  9
$LUNITS
 70
       2
  9
$LUPREC
 70
       4
  9
$SKETCHINC
 40
0.1
  9
$FILLETRAD
 40
0.0
  9
$AUNITS
 70
       0
  9
$AUPREC
 70
       0
  9
$MENU
  1
acad
  9
$ELEVATION
 40
0.0
  9
$PELEVATION
 40
0.0
  9
$THICKNESS
 40
0.0
  9
$LIMCHECK
 70
       0
  9
$BLIPMODE
 70
       1
  9
$CHAMFERA
 40
0.0
  9
$CHAMFERB
 40
0.0
  9
$CHAMFERC
 40
0.0
  9
$CHAMFERD
 40
0.0
  9
$SKPOLY
 70
       0
  9
$TDCREATE
 40
0.000000000
  9
$TDUPDATE
 40
0.000000000
  9
$TDINDWG
 40
0.0000000000
  9
$TDUSRTIMER
 40
0.0000000000
  9
$USRTIMER
 70
       1
  9
$ANGBASE
 50
0.0
  9
$ANGDIR
 70
       0
  9
$PDMODE
 70
       0
  9
$PDSIZE
 40
1.0
  9
$PLINEWID
 40
0.0
  9
$COORDS
 70
       1
  9
$SPLFRAME
 70
       0
  9
$SPLINETYPE
 70
       6
  9
$SPLINESEGS
 70
       8
  9
$ATTDIA
 70
       0
  9
$ATTREQ
 70
       1
  9
$HANDLING
 70
       1
  9
$HANDSEED
  5
622
  9
$SURFTAB1
 70
       6
  9
$SURFTAB2
 70
       6
  9
$SURFTYPE
 70
       6
  9
$SURFU
 70
       6
  9
$SURFV
 70
       6
  9
$UCSNAME
  2

  9
$UCSORG
 10
0.0
 20
0.0
 30
0.0
  9
$UCSXDIR
 10
1.0
 20
0.0
 30
0.0
  9
$UCSYDIR
 10
0.0
 20
1.0
 30
0.0
  9
$PUCSNAME
  2

  9
$PUCSORG
 10
0.0
 20
0.0
 30
0.0
  9
$PUCSXDIR
 10
1.0
 20
0.0
 30
0.0
  9
$PUCSYDIR
 10
0.0
 20
1.0
 30
0.0
  9
$USERI1
 70
       0
  9
$USERI2
 70
       0
  9
$USERI3
 70
       0
  9
$USERI4
 70
       0
  9
$USERI5
 70
       0
  9
$USERR1
 40
0.0
  9
$USERR2
 40
0.0
  9
$USERR3
 40
0.0
  9
$USERR4
 40
0.0
  9
$USERR5
 40
0.0
  9
$WORLDVIEW
 70
       1
  9
$SHADEDGE
 70
       3
  9
$SHADEDIF
 70
      70
  9
$TILEMODE
 70
       1
  9
$MAXACTVP
 70
      16
  9
$PINSBASE
 10
0.0
 20
0.0
 30
0.0
  9
$PLIMCHECK
 70
       0
  9
$PEXTMIN
 10
1.00000000E+20
 20
1.00000000E+20
 30
1.00000000E+20
  9
$PEXTMAX
 10
-1.00000000E+20
 20
-1.00000000E+20
 30
-1.00000000E+20
  9
$PLIMMIN
 10
0.0
 20
0.0
  9
$PLIMMAX
 10
12.0
 20
9.0
  9
$UNITMODE
 70
       0
  9
$VISRETAIN
 70
       0
  9
$PLINEGEN
 70
       1
  9
$PSLTSCALE
 70
       0
  9
$TREEDEPTH
 70
    3020
  9
$PICKSTYLE
 70
       1
  9
$CMLSTYLE
  2
STANDARD
  9
$CMLJUST
 70
       0
  9
$CMLSCALE
 40
1.0
  9
$PROXYGRAPHICS
 70
       0
  9
$MEASUREMENT
 70
       0
  0
ENDSEC
  0
SECTION
  2
CLASSES
  0
CLASS
  1
LWPOLYLINE
  2
AcDbPolyline
  3
"AutoCAD"
 90
        0
280
       0
281
       1
  0
CLASS
  1
IMAGE
  2
AcDbRasterImage
  3
ISM
 90
      127
280
       0
281
       1
  0
CLASS
  1
OLE2FRAME
  2
AcDbOle2Frame
  3
""
 90
        0
280
       0
281
       1
  0
CLASS
  1
HATCH
  2
AcDbHatch
  3
"ACAD_SEDONA"
 90
        0
280
       0
281
       1
  0
CLASS
  1
DICTIONARYVAR
  2
AcDbDictionaryVar
  3
"AutoCAD"
 90
        0
280
       0
281
       0
  0
CLASS
  1
RASTERVARIABLES
  2
AcDbRasterVariables
  3
ISM
 90
        0
280
       0
281
       0
  0
CLASS
  1
IMAGEDEF
  2
AcDbRasterImageDef
  3
ISM
 90
        0
280
       0
281
       0
  0
CLASS
  1
IMAGEDEF_REACTOR
  2
AcDbRasterImageDefReactor
  3
ISM
 90
        1
280
       0
281
       0
  0
CLASS
  1
IDBUFFER
  2
AcDbIdBuffer
  3
"Acad"
 90
        0
280
       0
281
       0
  0
CLASS
  1
SPATIAL_FILTER
  2
AcDbSpatialFilter
  3
"Acad"
 90
        0
280
       0
281
       0
  0
CLASS
  1
XRECORD
  2
AcDbXrecord
  3
"<Built In>"
 90
        0
280
       0
281
       0
  0
CLASS
  1
SORTENTSTABLE
  2
AcDbSortentsTable
  3
"AutoCAD"
 90
        0
280
       0
281
       0
  0
CLASS
  1
LAYER_INDEX
  2
AcDbLayerIndex
  3
"Acad"
 90
        0
280
       0
281
       0
  0
CLASS
  1
SPATIAL_INDEX
  2
AcDbSpatialIndex
  3
"Acad"
 90
        0
280
       0
281
       0
  0
CLASS
  1
OBJECT_PTR
  2
CAseDLPNTableRecord
  3
"ASE-LPNTableRecord"
 90
        1
280
       0
281
       0
  0
CLASS
  1
LAYOUT
  2
AcDbLayout
  3
"AutoCAD 2000"
 90
        1
280
       0
281
       0
  0
CLASS
  1
PLOTSETTINGS
  2
AcDbPlotSettings
  3
"AutoCAD 2000"
 90
        1
280
       0
281
       0
  0
CLASS
  1
ACDBDICTIONARYWDFLT
  2
AcDbDictionaryWithDefault
  3
"AutoCAD 2000"
 90
        1
280
       0
281
       0
  0
CLASS
  1
ACDBPLACEHOLDER
  2
AcDbPlaceHolder
  3
"AutoCAD 2000"
 90
        1
280
       0
281
       0
  0
CLASS
  1
VBA_PROJECT
  2
AcDbVbaProject
  3
"acadvba"
 90
        1
280
       0
281
       0
  0
CLASS
  1
WIPEOUT
  2
AcDbWipeout
  3
WipeOut|AutoCAD Express Tool|expresstools@autodesk.com
 90
      127
280
       0
281
       1
  0
CLASS
  1
WIPEOUTVARIABLES
  2
AcDbWipeoutVariables
  3
WipeOut|AutoCAD Express Tool|expresstools@autodesk.com
 90
        0
280
       0
281
       0
  0
CLASS
  1
RTEXT
  2
RText
  3
RText|AutoCAD Express Tool|expresstools@autodesk.com
 90
        0
280
       0
281
       1
  0
CLASS
  1
ARCALIGNEDTEXT
  2
AcDbArcAlignedText
  3
ATEXT|AutoCAD Express Tool|expresstools@autodesk.com
 90
        0
280
       0
281
       1
  0
ENDSEC
  0
SECTION
  2
TABLES
  0
TABLE
  2
VPORT
  5
7
100
AcDbSymbolTable
 70
       1
  0
VPORT
  5
15
100
AcDbSymbolTableRecord
100
AcDbViewportTableRecord
  2
*ACTIVE
 70
       0
 10
0.0
 20
0.0
 11
1.0
 21
1.0
 12
0.0
 22
-23.11631537
 13
0.0
 23
0.0
 14
1.0
 24
1.0
 15
0.0
 25
0.0
 16
0.0
 26
0.0
 36
1.0
 17
0.0
 27
0.0
 37
0.0
 40
139.48705948
 41
2.20204514
 42
50.0
 43
0.0
 44
0.0
 50
0.0
 51
0.0
 71
       0
 72
     100
 73
       1
 74
       1
 75
       0
 76
       0
 77
       0
 78
       0
  0
ENDTAB
  0
TABLE
  2
LTYPE
  5
4
100
AcDbSymbolTable
 70
      30
  0
LTYPE
  5
11
100
AcDbSymbolTableRecord
100
AcDbLinetypeTableRecord
  2
BYBLOCK
 70
      64
  3

 72
      65
 73
       0
 40
0.0
  0
LTYPE
  5
12
100
AcDbSymbolTableRecord
100
AcDbLinetypeTableRecord
  2
BYLAYER
 70
      64
  3

 72
      65
 73
       0
 40
0.0
  0
LTYPE
  5
13
100
AcDbSymbolTableRecord
100
AcDbLinetypeTableRecord
  2
CONTINUOUS
 70
      64
  3
Solid line
 72
      65
 73
       0
 40
0.0
  0
LTYPE
  5
1D
100
AcDbSymbolTableRecord
100
AcDbLinetypeTableRecord
  2
HIDDENX2
 70
      64
  3
CADPAC LINETYPE
 72
      65
 73
       2
 40
11.56355017
 49
8.67266263
 74
       0
 49
-2.89088754
 74
       0
  0
LTYPE
  5
1E
100
AcDbSymbolTableRecord
100
AcDbLinetypeTableRecord
  2
HIDDEN
 70
      64
  3
CADPAC LINETYPE
 72
      65
 73
       2
 40
8.67266263
 49
5.78177509
 74
       0
 49
-2.89088754
 74
       0
  0
LTYPE
  5
1F
100
AcDbSymbolTableRecord
100
AcDbLinetypeTableRecord
  2
HIDDEN2
 70
      64
  3
CADPAC LINETYPE
 72
      65
 73
       2
 40
7.22721886
 49
4.33633131
 74
       0
 49
-2.89088754
 74
       0
  0
LTYPE
  5
20
100
AcDbSymbolTableRecord
100
AcDbLinetypeTableRecord
  2
DASHED
 70
      64
  3
CADPAC LINETYPE
 72
      65
 73
       2
 40
8.67266263
 49
5.78177509
 74
       0
 49
-2.89088754
 74
       0
  0
LTYPE
  5
21
100
AcDbSymbolTableRecord
100
AcDbLinetypeTableRecord
  2
DASHED2
 70
      64
  3
CADPAC LINETYPE
 72
      65
 73
       2
 40
6.50449697
 49
4.33633131
 74
       0
 49
-2.16816566
 74
       0
  0
LTYPE
  5
22
100
AcDbSymbolTableRecord
100
AcDbLinetypeTableRecord
  2
DASHEDX2
 70
      64
  3
CADPAC LINETYPE
 72
      65
 73
       2
 40
13.00899394
 49
8.67266263
 74
       0
 49
-4.33633131
 74
       0
  0
LTYPE
  5
23
100
AcDbSymbolTableRecord
100
AcDbLinetypeTableRecord
  2
DOTX2
 70
      64
  3
CADPAC LINETYPE
 72
      65
 73
       2
 40
3.61360943
 49
0.0
 74
       0
 49
-3.61360943
 74
       0
  0
LTYPE
  5
24
100
AcDbSymbolTableRecord
100
AcDbLinetypeTableRecord
  2
DOT
 70
      64
  3
CADPAC LINETYPE
 72
      65
 73
       2
 40
2.89088754
 49
0.0
 74
       0
 49
-2.89088754
 74
       0
  0
LTYPE
  5
25
100
AcDbSymbolTableRecord
100
AcDbLinetypeTableRecord
  2
DOT2
 70
      64
  3
CADPAC LINETYPE
 72
      65
 73
       2
 40
2.16816566
 49
0.0
 74
       0
 49
-2.16816566
 74
       0
  0
LTYPE
  5
26
100
AcDbSymbolTableRecord
100
AcDbLinetypeTableRecord
  2
CENTERX2
 70
      64
  3
CADPAC LINETYPE
 72
      65
 73
       4
 40
17.34532526
 49
7.22721886
 74
       0
 49
-3.61360943
 74
       0
 49
2.89088754
 74
       0
 49
-3.61360943
 74
       0
  0
LTYPE
  5
27
100
AcDbSymbolTableRecord
100
AcDbLinetypeTableRecord
  2
CENTER
 70
      64
  3
CADPAC LINETYPE
 72
      65
 73
       4
 40
13.2980827
 49
5.78177509
 74
       0
 49
-2.89088754
 74
       0
 49
1.73453253
 74
       0
 49
-2.89088754
 74
       0
  0
LTYPE
  5
28
100
AcDbSymbolTableRecord
100
AcDbLinetypeTableRecord
  2
CENTER2
 70
      64
  3
CADPAC LINETYPE
 72
      65
 73
       4
 40
9.25084014
 49
4.33633131
 74
       0
 49
-2.16816566
 74
       0
 49
0.57817751
 74
       0
 49
-2.16816566
 74
       0
  0
LTYPE
  5
29
100
AcDbSymbolTableRecord
100
AcDbLinetypeTableRecord
  2
DASHDOTX2
 70
      64
  3
CADPAC LINETYPE
 72
      65
 73
       4
 40
14.45443772
 49
7.22721886
 74
       0
 49
-3.61360943
 74
       0
 49
0.0
 74
       0
 49
-3.61360943
 74
       0
  0
LTYPE
  5
2A
100
AcDbSymbolTableRecord
100
AcDbLinetypeTableRecord
  2
DASHDOT
 70
      64
  3
CADPAC LINETYPE
 72
      65
 73
       4
 40
11.56355017
 49
5.78177509
 74
       0
 49
-2.89088754
 74
       0
 49
0.0
 74
       0
 49
-2.89088754
 74
       0
  0
LTYPE
  5
2B
100
AcDbSymbolTableRecord
100
AcDbLinetypeTableRecord
  2
DASHDOT2
 70
      64
  3
CADPAC LINETYPE
 72
      65
 73
       4
 40
8.67266263
 49
4.33633131
 74
       0
 49
-2.16816566
 74
       0
 49
0.0
 74
       0
 49
-2.16816566
 74
       0
  0
LTYPE
  5
2C
100
AcDbSymbolTableRecord
100
AcDbLinetypeTableRecord
  2
DIVIDEX2
 70
      64
  3
CADPAC LINETYPE
 72
      65
 73
       6
 40
18.06804715
 49
7.22721886
 74
       0
 49
-3.61360943
 74
       0
 49
0.0
 74
       0
 49
-3.61360943
 74
       0
 49
0.0
 74
       0
 49
-3.61360943
 74
       0
  0
LTYPE
  5
2D
100
AcDbSymbolTableRecord
100
AcDbLinetypeTableRecord
  2
DIVIDE
 70
      64
  3
CADPAC LINETYPE
 72
      65
 73
       6
 40
14.45443772
 49
5.78177509
 74
       0
 49
-2.89088754
 74
       0
 49
0.0
 74
       0
 49
-2.89088754
 74
       0
 49
0.0
 74
       0
 49
-2.89088754
 74
       0
  0
LTYPE
  5
2E
100
AcDbSymbolTableRecord
100
AcDbLinetypeTableRecord
  2
DIVIDE2
 70
      64
  3
CADPAC LINETYPE
 72
      65
 73
       6
 40
10.84082829
 49
4.33633131
 74
       0
 49
-2.16816566
 74
       0
 49
0.0
 74
       0
 49
-2.16816566
 74
       0
 49
0.0
 74
       0
 49
-2.16816566
 74
       0
  0
LTYPE
  5
2F
100
AcDbSymbolTableRecord
100
AcDbLinetypeTableRecord
  2
BORDERX2
 70
      64
  3
CADPAC LINETYPE
 72
      65
 73
       6
 40
25.295266
 49
7.22721886
 74
       0
 49
-3.61360943
 74
       0
 49
7.22721886
 74
       0
 49
-3.61360943
 74
       0
 49
0.0
 74
       0
 49
-3.61360943
 74
       0
  0
LTYPE
  5
30
100
AcDbSymbolTableRecord
100
AcDbLinetypeTableRecord
  2
BORDER
 70
      64
  3
CADPAC LINETYPE
 72
      65
 73
       6
 40
20.2362128
 49
5.78177509
 74
       0
 49
-2.89088754
 74
       0
 49
5.78177509
 74
       0
 49
-2.89088754
 74
       0
 49
0.0
 74
       0
 49
-2.89088754
 74
       0
  0
LTYPE
  5
31
100
AcDbSymbolTableRecord
100
AcDbLinetypeTableRecord
  2
BORDER2
 70
      64
  3
CADPAC LINETYPE
 72
      65
 73
       6
 40
15.1771596
 49
4.33633131
 74
       0
 49
-2.16816566
 74
       0
 49
4.33633131
 74
       0
 49
-2.16816566
 74
       0
 49
0.0
 74
       0
 49
-2.16816566
 74
       0
  0
LTYPE
  5
32
100
AcDbSymbolTableRecord
100
AcDbLinetypeTableRecord
  2
PHANTOMX2
 70
      64
  3
CADPAC LINETYPE
 72
      65
 73
       6
 40
21.68165657
 49
7.22721886
 74
       0
 49
-2.89088754
 74
       0
 49
2.89088754
 74
       0
 49
-2.89088754
 74
       0
 49
2.89088754
 74
       0
 49
-2.89088754
 74
       0
  0
LTYPE
  5
33
100
AcDbSymbolTableRecord
100
AcDbLinetypeTableRecord
  2
PHANTOM
 70
      64
  3
CADPAC LINETYPE
 72
      65
 73
       6
 40
17.92350277
 49
5.78177509
 74
       0
 49
-2.89088754
 74
       0
 49
1.73453253
 74
       0
 49
-2.89088754
 74
       0
 49
1.73453253
 74
       0
 49
-2.89088754
 74
       0
  0
LTYPE
  5
34
100
AcDbSymbolTableRecord
100
AcDbLinetypeTableRecord
  2
PHANTOM2
 70
      64
  3
CADPAC LINETYPE
 72
      65
 73
       6
 40
15.32170398
 49
4.33633131
 74
       0
 49
-2.89088754
 74
       0
 49
1.15635502
 74
       0
 49
-2.89088754
 74
       0
 49
1.15635502
 74
       0
 49
-2.89088754
 74
       0
  0
LTYPE
  5
35
100
AcDbSymbolTableRecord
100
AcDbLinetypeTableRecord
  2
ACAD_ISO06W100
 70
      64
  3
CADPAC LINETYPE
 72
      65
 73
       8
 40
19.51349092
 49
7.22721886
 74
       0
 49
-3.61360943
 74
       0
 49
0.0
 74
       0
 49
-2.89088754
 74
       0
 49
0.0
 74
       0
 49
-2.89088754
 74
       0
 49
0.0
 74
       0
 49
-2.89088754
 74
       0
  0
LTYPE
  5
36
100
AcDbSymbolTableRecord
100
AcDbLinetypeTableRecord
  2
ACAD_ISO13W100
 70
      64
  3
CADPAC LINETYPE
 72
      65
 73
       8
 40
23.12710035
 49
5.78177509
 74
       0
 49
-2.89088754
 74
       0
 49
5.78177509
 74
       0
 49
-2.89088754
 74
       0
 49
0.0
 74
       0
 49
-2.89088754
 74
       0
 49
0.0
 74
       0
 49
-2.89088754
 74
       0
  0
LTYPE
  5
37
100
AcDbSymbolTableRecord
100
AcDbLinetypeTableRecord
  2
ACAD_ISO14W100
 70
      64
  3
CADPAC LINETYPE
 72
      65
 73
       8
 40
17.34532526
 49
5.78177509
 74
       0
 49
-2.89088754
 74
       0
 49
0.0
 74
       0
 49
-2.89088754
 74
       0
 49
0.0
 74
       0
 49
-2.89088754
 74
       0
 49
0.0
 74
       0
 49
-2.89088754
 74
       0
  0
ENDTAB
  0
TABLE
  2
LAYER
  5
2
100
AcDbSymbolTable
 70
       3
  0
LAYER
  5
14
100
AcDbSymbolTableRecord
100
AcDbLayerTableRecord
  2
0
 70
       0
 62
       7
  6
CONTINUOUS
  0
LAYER
  5
38
100
AcDbSymbolTableRecord
100
AcDbLayerTableRecord
  2
SLD-0_0
 70
       0
 62
       7
  6
CONTINUOUS
  0
LAYER
  5
39
100
AcDbSymbolTableRecord
100
AcDbLayerTableRecord
  2
SLD-0
 70
       0
 62
       7
  6
CONTINUOUS
  0
ENDTAB
  0
TABLE
  2
STYLE
  5
3
100
AcDbSymbolTable
 70
       1
  0
STYLE
  5
17
100
AcDbSymbolTableRecord
100
AcDbTextStyleTableRecord
  2
STANDARD
 70
       0
 40
0.0
 41
0.8
 50
0.0
 71
       0
 42
5.0
  3
txt.shx
  4
bigfont.shx
  0
ENDTAB
  0
TABLE
  2
VIEW
  5
5
100
AcDbSymbolTable
 70
       1
  0
VIEW
  5
3A
100
AcDbSymbolTableRecord
100
AcDbViewTableRecord
  2
QQQQ
 70
       0
 40
139.48705948
 10
0.0
 20
-23.11631537
 41
307.15680147
 11
0.0
 21
0.0
 31
1.0
 12
100.0
 22
100.0
 32
0.0
 42
50.0
 43
0.0
 44
0.0
 50
0.0
 71
       0
  0
ENDTAB
  0
TABLE
  2
UCS
  5
6
100
AcDbSymbolTable
 70
       0
  0
ENDTAB
  0
TABLE
  2
APPID
  5
8
100
AcDbSymbolTable
 70
       1
  0
APPID
  5
16
100
AcDbSymbolTableRecord
100
AcDbRegAppTableRecord
  2
ACAD
 70
       0
  0
ENDTAB
  0
TABLE
  2
DIMSTYLE
  5
9
100
AcDbSymbolTable
 70
       1
  0
DIMSTYLE
105
18
100
AcDbSymbolTableRecord
100
AcDbDimStyleTableRecord
  2
STANDARD
 70
       0
  3

  4

  5

  6

  7

 40
1.0
 41
0.18
 42
0.0625
 43
0.38
 44
0.18
 45
0.0
 46
0.0
 47
0.0
 48
0.0
 71
       0
 72
       0
 73
       1
 74
       1
 75
       0
 76
       0
 77
       0
 78
       0
140
0.18
141
0.09
142
0.0
143
25.4
144
1.0
145
0.0
146
1.0
147
0.09
170
       0
171
       2
172
       0
173
       0
174
       0
175
       0
176
       0
177
       0
178
       0
270
       2
271
       4
272
       4
273
       2
274
       2
275
       0
280
       0
281
       0
282
       0
283
       1
284
       0
285
       0
286
       0
287
       0
288
       0
340
17
  0
ENDTAB
  0
TABLE
  2
BLOCK_RECORD
  5
1
100
AcDbSymbolTable
 70
       0
  0
BLOCK_RECORD
  5
A
100
AcDbSymbolTableRecord
100
AcDbBlockTableRecord
  2
*MODEL_SPACE
  0
BLOCK_RECORD
  5
B
100
AcDbSymbolTableRecord
100
AcDbBlockTableRecord
  2
*PAPER_SPACE
  0
ENDTAB
  0
ENDSEC
  0
SECTION
  2
BLOCKS
  0
BLOCK
  5
D
100
AcDbEntity
  8
0
100
AcDbBlockBegin
  2
*MODEL_SPACE
 70
       0
 10
0.0
 20
0.0
 30
0.0
  3
*MODEL_SPACE
  1

  0
ENDBLK
  5
E
100
AcDbEntity
  8
0
100
AcDbBlockEnd
  0
BLOCK
  5
F
100
AcDbEntity
 67
       1
  8
0
100
AcDbBlockBegin
  2
*PAPER_SPACE
 70
       0
 10
0.0
 20
0.0
 30
0.0
  3
*PAPER_SPACE
  1

  0
ENDBLK
  5
10
100
AcDbEntity
 67
       1
  8
0
100
AcDbBlockEnd
  0
ENDSEC
  0
SECTION
  2
ENTITIES
  0
LINE
  5
3B
100
AcDbEntity
  8
SLD-0
  6
CONTINUOUS
 62
       3
100
AcDbLine
 10
-108.33497928
 20
20.99999955
 30
0.0
 11
-108.33497928
 21
22.99999987
 31
0.0
  0
LINE
  5
3C
100
AcDbEntity
  8
SLD-0
  6
CONTINUOUS
 62
       3
100
AcDbLine
 10
-125.4349791
 20
22.99999987
 30
0.0
 11
-125.4349791
 21
20.99999955
 31
0.0
  0
LINE
  5
3D
100
AcDbEntity
  8
SLD-0
  6
CONTINUOUS
 62
       3
100
AcDbLine
 10
-125.4349791
 20
9.99999961
 30
0.0
 11
-125.4349791
 21
7.99999928
 31
0.0
  0
LINE
  5
3E
100
AcDbEntity
  8
SLD-0
  6
CONTINUOUS
 62
       3
100
AcDbLine
 10
-108.33497928
 20
7.99999928
 30
0.0
 11
-108.33497928
 21
9.99999961
 31
0.0
  0
LINE
  5
3F
100
AcDbEntity
  8
SLD-0
  6
CONTINUOUS
 62
       3
100
AcDbLine
 10
-108.33497928
 20
-5.00000099
 30
0.0
 11
-108.33497928
 21
-3.00000066
 31
0.0
  0
LINE
  5
40
100
AcDbEntity
  8
SLD-0
  6
CONTINUOUS
 62
       3
100
AcDbLine
 10
-125.4349791
 20
-3.00000066
 30
0.0
 11
-125.4349791
 21
-5.00000099
 31
0.0
  0
LINE
  5
41
100
AcDbEntity
  8
SLD-0
  6
CONTINUOUS
 62
       3
100
AcDbLine
 10
-125.4349791
 20
-16.00000093
 30
0.0
 11
-125.4349791
 21
-18.00000126
 31
0.0
  0
LINE
  5
42
100
AcDbEntity
  8
SLD-0
  6
CONTINUOUS
 62
       3
100
AcDbLine
 10
-108.33497928
 20
-18.00000126
 30
0.0
 11
-108.33497928
 21
-16.00000093
 31
0.0
  0
LINE
  5
43
100
AcDbEntity
  8
SLD-0
  6
CONTINUOUS
 62
       3
100
AcDbLine
 10
-64.53498011
 20
20.99999955
 30
0.0
 11
-64.53498011
 21
22.99999987
 31
0.0
  0
LINE
  5
44
100
AcDbEntity
  8
SLD-0
  6
CONTINUOUS
 62
       3
100
AcDbLine
 10
-81.63497993
 20
22.99999987
 30
0.0
 11
-81.63497993
 21
20.99999955
 31
0.0
  0
LINE
  5
45
100
AcDbEntity
  8
SLD-0
  6
CONTINUOUS
 62
       3
100
AcDbLine
 10
-81.63497993
 20
9.99999961
 30
0.0
 11
-81.63497993
 21
7.99999928
 31
0.0
  0
LINE
  5
46
100
AcDbEntity
  8
SLD-0
  6
CONTINUOUS
 62
       3
100
AcDbLine
 10
-64.53498011
 20
7.99999928
 30
0.0
 11
-64.53498011
 21
9.99999961
 31
0.0
  0
LINE
  5
47
100
AcDbEntity
  8
SLD-0
  6
CONTINUOUS
 62
       3
100
AcDbLine
 10
-81.63497993
 20
-3.00000066
 30
0.0
 11
-81.63497993
 21
-5.00000099
 31
0.0
  0
LINE
  5
48
100
AcDbEntity
  8
SLD-0
  6
CONTINUOUS
 62
       3
100
AcDbLine
 10
-64.53498011
 20
-5.00000099
 30
0.0
 11
-64.53498011
 21
-3.00000066
 31
0.0
  0
LINE
  5
49
100
AcDbEntity
  8
SLD-0
  6
CONTINUOUS
 62
       3
100
AcDbLine
 10
-128.88497976
 20
34.74999761
 30
0.0
 11
-129.3849796
 21
34.74999886
 31
0.0
  0
LINE
  5
4A
100
AcDbEntity
  8
SLD-0
  6
CONTINUOUS
 62
       3
100
AcDbLine
 10
-129.3849796
 20
29.24999886
 30
0.0
 11
-128.88497976
 21
29.25000136
 31
0.0
  0
LINE
  5
4B
100
AcDbEntity
  8
SLD-0
  6
CONTINUOUS
 62
       3
100
AcDbLine
 10
-126.58497808
 20
30.50000017
 30
0.0
 11
-126.38497842
 21
30.50000017
 31
0.0
  0
LINE
  5
4C
100
AcDbEntity
  8
SLD-0
  6
CONTINUOUS
 62
       3
100
AcDbLine
 10
-126.38497842
 20
33.4999988
 30
0.0
 11
-126.58497808
 21
33.4999988
 31
0.0
  0
LINE
  5
4D
100
AcDbEntity
  8
SLD-0
  6
CONTINUOUS
 62
       3
100
AcDbLine
 10
-61.28497911
 20
29.25000136
 30
0.0
 11
-60.7849796
 21
29.24999886
 31
0.0
  0
LINE
  5
4E
100
AcDbEntity
  8
SLD-0
  6
CONTINUOUS
 62
       3
100
AcDbLine
 10
-60.7849796
 20
34.74999886
 30
0.0
 11
-61.28497911
 21
34.74999761
 31
0.0
  0
LINE
  5
4F
100
AcDbEntity
  8
SLD-0
  6
CONTINUOUS
 62
       3
100
AcDbLine
 10
-63.38498113
 20
33.4999988
 30
0.0
 11
-63.58498079
 21
33.4999988
 31
0.0
  0
LINE
  5
50
100
AcDbEntity
  8
SLD-0
  6
CONTINUOUS
 62
       3
100
AcDbLine
 10
-63.58498079
 20
30.50000017
 30
0.0
 11
-63.38498113
 21
30.50000017
 31
0.0
  0
LINE
  5
51
100
AcDbEntity
  8
SLD-0
  6
CONTINUOUS
 62
       3
100
AcDbLine
 10
-61.28497911
 20
-37.75000124
 30
0.0
 11
-60.7849796
 21
-37.75000124
 31
0.0
  0
LINE
  5
52
100
AcDbEntity
  8
SLD-0
  6
CONTINUOUS
 62
       3
100
AcDbLine
 10
-60.7849796
 20
-32.25000114
 30
0.0
 11
-61.28497911
 21
-32.25000127
 31
0.0
  0
LINE
  5
53
100
AcDbEntity
  8
SLD-0
  6
CONTINUOUS
 62
       3
100
AcDbLine
 10
-128.88497976
 20
-32.25000117
 30
0.0
 11
-129.3849796
 21
-32.25000104
 31
0.0
  0
LINE
  5
54
100
AcDbEntity
  8
SLD-0
  6
CONTINUOUS
 62
       3
100
AcDbLine
 10
-129.3849796
 20
-37.75000114
 30
0.0
 11
-128.88497976
 21
-37.75000114
 31
0.0
  0
LINE
  5
55
100
AcDbEntity
  8
SLD-0
  6
CONTINUOUS
 62
       3
100
AcDbLine
 10
-128.88497976
 20
-37.50000119
 30
0.0
 11
-128.08498112
 21
-37.50000119
 31
0.0
  0
LINE
  5
56
100
AcDbEntity
  8
SLD-0
  6
CONTINUOUS
 62
       3
100
AcDbLine
 10
-128.08498112
 20
-32.50000131
 30
0.0
 11
-128.88497976
 21
-32.50000131
 31
0.0
  0
LINE
  5
57
100
AcDbEntity
  8
SLD-0
  6
CONTINUOUS
 62
       3
100
AcDbLine
 10
-61.28497911
 20
34.50000083
 30
0.0
 11
-62.08497775
 21
34.50000083
 31
0.0
  0
LINE
  5
58
100
AcDbEntity
  8
SLD-0
  6
CONTINUOUS
 62
       3
100
AcDbLine
 10
-62.08497775
 20
29.49999815
 30
0.0
 11
-61.28497911
 21
29.49999815
 31
0.0
  0
LINE
  5
59
100
AcDbEntity
  8
SLD-0
  6
CONTINUOUS
 62
       3
100
AcDbLine
 10
-61.28497911
 20
-32.50000131
 30
0.0
 11
-62.08497775
 21
-32.50000131
 31
0.0
  0
LINE
  5
5A
100
AcDbEntity
  8
SLD-0
  6
CONTINUOUS
 62
       3
100
AcDbLine
 10
-62.08497775
 20
-37.50000119
 30
0.0
 11
-61.28497911
 21
-37.50000119
 31
0.0
  0
LINE
  5
5B
100
AcDbEntity
  8
SLD-0
  6
CONTINUOUS
 62
       3
100
AcDbLine
 10
-128.88497976
 20
29.49999815
 30
0.0
 11
-128.08498112
 21
29.49999815
 31
0.0
  0
LINE
  5
5C
100
AcDbEntity
  8
SLD-0
  6
CONTINUOUS
 62
       3
100
AcDbLine
 10
-128.08498112
 20
34.50000083
 30
0.0
 11
-128.88497976
 21
34.50000083
 31
0.0
  0
LINE
  5
5D
100
AcDbEntity
  8
SLD-0
  6
CONTINUOUS
 62
       3
100
AcDbLine
 10
-128.08498112
 20
29.09999883
 30
0.0
 11
-127.78497977
 21
29.09999883
 31
0.0
  0
LINE
  5
5E
100
AcDbEntity
  8
SLD-0
  6
CONTINUOUS
 62
       3
100
AcDbLine
 10
-127.78497977
 20
34.90000015
 30
0.0
 11
-128.08498112
 21
34.90000015
 31
0.0
  0
LINE
  5
5F
100
AcDbEntity
  8
SLD-0
  6
CONTINUOUS
 62
       3
100
AcDbLine
 10
-128.08498112
 20
-37.90000121
 30
0.0
 11
-127.78497977
 21
-37.90000121
 31
0.0
  0
LINE
  5
60
100
AcDbEntity
  8
SLD-0
  6
CONTINUOUS
 62
       3
100
AcDbLine
 10
-127.78497977
 20
-32.10000152
 30
0.0
 11
-128.08498112
 21
-32.10000152
 31
0.0
  0
LINE
  5
61
100
AcDbEntity
  8
SLD-0
  6
CONTINUOUS
 62
       3
100
AcDbLine
 10
-62.08497775
 20
-32.10000152
 30
0.0
 11
-62.18497944
 21
-32.10000152
 31
0.0
  0
LINE
  5
62
100
AcDbEntity
  8
SLD-0
  6
CONTINUOUS
 62
       3
100
AcDbLine
 10
-62.18497944
 20
-37.90000121
 30
0.0
 11
-62.08497775
 21
-37.90000121
 31
0.0
  0
LINE
  5
63
100
AcDbEntity
  8
SLD-0
  6
CONTINUOUS
 62
       3
100
AcDbLine
 10
-62.08497775
 20
34.90000015
 30
0.0
 11
-62.18497944
 21
34.90000015
 31
0.0
  0
LINE
  5
64
100
AcDbEntity
  8
SLD-0
  6
CONTINUOUS
 62
       3
100
AcDbLine
 10
-62.18497944
 20
29.09999883
 30
0.0
 11
-62.08497775
 21
29.09999883
 31
0.0
  0
LINE
  5
65
100
AcDbEntity
  8
SLD-0
  6
CONTINUOUS
 62
       3
100
AcDbLine
 10
-108.33497928
 20
20.99999955
 30
0.0
 11
-109.58497995
 21
20.99999955
 31
0.0
  0
LINE
  5
66
100
AcDbEntity
  8
SLD-0
  6
CONTINUOUS
 62
       3
100
AcDbLine
 10
-109.58497995
 20
22.99999987
 30
0.0
 11
-108.33497928
 21
22.99999987
 31
0.0
  0
LINE
  5
67
100
AcDbEntity
  8
SLD-0
  6
CONTINUOUS
 62
       3
100
AcDbLine
 10
-125.4349791
 20
20.99999955
 30
0.0
 11
-124.18498029
 21
20.99999955
 31
0.0
  0
LINE
  5
68
100
AcDbEntity
  8
SLD-0
  6
CONTINUOUS
 62
       3
100
AcDbLine
 10
-124.18498029
 20
22.99999987
 30
0.0
 11
-125.4349791
 21
22.99999987
 31
0.0
  0
LINE
  5
69
100
AcDbEntity
  8
SLD-0
  6
CONTINUOUS
 62
       3
100
AcDbLine
 10
-124.18498029
 20
20.99999955
 30
0.0
 11
-109.58497995
 21
20.99999955
 31
0.0
  0
LINE
  5
6A
100
AcDbEntity
  8
SLD-0
  6
CONTINUOUS
 62
       3
100
AcDbLine
 10
-109.58497995
 20
22.99999987
 30
0.0
 11
-124.18498029
 21
22.99999987
 31
0.0
  0
LINE
  5
6B
100
AcDbEntity
  8
SLD-0
  6
CONTINUOUS
 62
       3
100
AcDbLine
 10
-124.18498029
 20
9.99999961
 30
0.0
 11
-125.4349791
 21
9.99999961
 31
0.0
  0
LINE
  5
6C
100
AcDbEntity
  8
SLD-0
  6
CONTINUOUS
 62
       3
100
AcDbLine
 10
-125.4349791
 20
7.99999928
 30
0.0
 11
-124.18498029
 21
7.99999928
 31
0.0
  0
LINE
  5
6D
100
AcDbEntity
  8
SLD-0
  6
CONTINUOUS
 62
       3
100
AcDbLine
 10
-108.33497928
 20
7.99999928
 30
0.0
 11
-109.58497995
 21
7.99999928
 31
0.0
  0
LINE
  5
6E
100
AcDbEntity
  8
SLD-0
  6
CONTINUOUS
 62
       3
100
AcDbLine
 10
-109.58497995
 20
9.99999961
 30
0.0
 11
-108.33497928
 21
9.99999961
 31
0.0
  0
LINE
  5
6F
100
AcDbEntity
  8
SLD-0
  6
CONTINUOUS
 62
       3
100
AcDbLine
 10
-124.18498029
 20
7.99999928
 30
0.0
 11
-109.58497995
 21
7.99999928
 31
0.0
  0
LINE
  5
70
100
AcDbEntity
  8
SLD-0
  6
CONTINUOUS
 62
       3
100
AcDbLine
 10
-109.58497995
 20
9.99999961
 30
0.0
 11
-124.18498029
 21
9.99999961
 31
0.0
  0
LINE
  5
71
100
AcDbEntity
  8
SLD-0
  6
CONTINUOUS
 62
       3
100
AcDbLine
 10
-108.33497928
 20
-5.00000099
 30
0.0
 11
-109.58497995
 21
-5.00000099
 31
0.0
  0
LINE
  5
72
100
AcDbEntity
  8
SLD-0
  6
CONTINUOUS
 62
       3
100
AcDbLine
 10
-109.58497995
 20
-3.00000066
 30
0.0
 11
-108.33497928
 21
-3.00000066
 31
0.0
  0
LINE
  5
73
100
AcDbEntity
  8
SLD-0
  6
CONTINUOUS
 62
       3
100
AcDbLine
 10
-124.18498029
 20
-5.00000099
 30
0.0
 11
-109.58497995
 21
-5.00000099
 31
0.0
  0
LINE
  5
74
100
AcDbEntity
  8
SLD-0
  6
CONTINUOUS
 62
       3
100
AcDbLine
 10
-109.58497995
 20
-3.00000066
 30
0.0
 11
-124.18498029
 21
-3.00000066
 31
0.0
  0
LINE
  5
75
100
AcDbEntity
  8
SLD-0
  6
CONTINUOUS
 62
       3
100
AcDbLine
 10
-125.4349791
 20
-5.00000099
 30
0.0
 11
-124.18498029
 21
-5.00000099
 31
0.0
  0
LINE
  5
76
100
AcDbEntity
  8
SLD-0
  6
CONTINUOUS
 62
       3
100
AcDbLine
 10
-124.18498029
 20
-3.00000066
 30
0.0
 11
-125.4349791
 21
-3.00000066
 31
0.0
  0
LINE
  5
77
100
AcDbEntity
  8
SLD-0
  6
CONTINUOUS
 62
       3
100
AcDbLine
 10
-124.18498029
 20
-16.00000093
 30
0.0
 11
-125.4349791
 21
-16.00000093
 31
0.0
  0
LINE
  5
78
100
AcDbEntity
  8
SLD-0
  6
CONTINUOUS
 62
       3
100
AcDbLine
 10
-125.4349791
 20
-18.00000126
 30
0.0
 11
-124.18498029
 21
-18.00000126
 31
0.0
  0
LINE
  5
79
100
AcDbEntity
  8
SLD-0
  6
CONTINUOUS
 62
       3
100
AcDbLine
 10
-124.18498029
 20
-18.00000126
 30
0.0
 11
-109.58497995
 21
-18.00000126
 31
0.0
  0
LINE
  5
7A
100
AcDbEntity
  8
SLD-0
  6
CONTINUOUS
 62
       3
100
AcDbLine
 10
-109.58497995
 20
-16.00000093
 30
0.0
 11
-124.18498029
 21
-16.00000093
 31
0.0
  0
LINE
  5
7B
100
AcDbEntity
  8
SLD-0
  6
CONTINUOUS
 62
       3
100
AcDbLine
 10
-108.33497928
 20
-18.00000126
 30
0.0
 11
-109.58497995
 21
-18.00000126
 31
0.0
  0
LINE
  5
7C
100
AcDbEntity
  8
SLD-0
  6
CONTINUOUS
 62
       3
100
AcDbLine
 10
-109.58497995
 20
-16.00000093
 30
0.0
 11
-108.33497928
 21
-16.00000093
 31
0.0
  0
LINE
  5
7D
100
AcDbEntity
  8
SLD-0
  6
CONTINUOUS
 62
       3
100
AcDbLine
 10
-107.88498004
 20
20.99999955
 30
0.0
 11
-107.88498004
 21
22.99999987
 31
0.0
  0
LINE
  5
7E
100
AcDbEntity
  8
SLD-0
  6
CONTINUOUS
 62
       3
100
AcDbLine
 10
-107.88498004
 20
20.99999955
 30
0.0
 11
-108.33497928
 21
20.99999955
 31
0.0
  0
LINE
  5
7F
100
AcDbEntity
  8
SLD-0
  6
CONTINUOUS
 62
       3
100
AcDbLine
 10
-108.33497928
 20
22.99999987
 30
0.0
 11
-107.88498004
 21
22.99999987
 31
0.0
  0
LINE
  5
80
100
AcDbEntity
  8
SLD-0
  6
CONTINUOUS
 62
       3
100
AcDbLine
 10
-125.88497927
 20
20.99999955
 30
0.0
 11
-125.88497927
 21
22.99999987
 31
0.0
  0
LINE
  5
81
100
AcDbEntity
  8
SLD-0
  6
CONTINUOUS
 62
       3
100
AcDbLine
 10
-125.88497927
 20
20.99999955
 30
0.0
 11
-125.4349791
 21
20.99999955
 31
0.0
  0
LINE
  5
82
100
AcDbEntity
  8
SLD-0
  6
CONTINUOUS
 62
       3
100
AcDbLine
 10
-125.4349791
 20
22.99999987
 30
0.0
 11
-125.88497927
 21
22.99999987
 31
0.0
  0
LINE
  5
83
100
AcDbEntity
  8
SLD-0
  6
CONTINUOUS
 62
       3
100
AcDbLine
 10
-107.88498004
 20
7.99999928
 30
0.0
 11
-107.88498004
 21
9.99999961
 31
0.0
  0
LINE
  5
84
100
AcDbEntity
  8
SLD-0
  6
CONTINUOUS
 62
       3
100
AcDbLine
 10
-107.88498004
 20
7.99999928
 30
0.0
 11
-108.33497928
 21
7.99999928
 31
0.0
  0
LINE
  5
85
100
AcDbEntity
  8
SLD-0
  6
CONTINUOUS
 62
       3
100
AcDbLine
 10
-108.33497928
 20
9.99999961
 30
0.0
 11
-107.88498004
 21
9.99999961
 31
0.0
  0
LINE
  5
86
100
AcDbEntity
  8
SLD-0
  6
CONTINUOUS
 62
       3
100
AcDbLine
 10
-125.88497927
 20
7.99999928
 30
0.0
 11
-125.88497927
 21
9.99999961
 31
0.0
  0
LINE
  5
87
100
AcDbEntity
  8
SLD-0
  6
CONTINUOUS
 62
       3
100
AcDbLine
 10
-125.88497927
 20
7.99999928
 30
0.0
 11
-125.4349791
 21
7.99999928
 31
0.0
  0
LINE
  5
88
100
AcDbEntity
  8
SLD-0
  6
CONTINUOUS
 62
       3
100
AcDbLine
 10
-125.4349791
 20
9.99999961
 30
0.0
 11
-125.88497927
 21
9.99999961
 31
0.0
  0
LINE
  5
89
100
AcDbEntity
  8
SLD-0
  6
CONTINUOUS
 62
       3
100
AcDbLine
 10
-107.88498004
 20
-5.00000099
 30
0.0
 11
-107.88498004
 21
-3.00000066
 31
0.0
  0
LINE
  5
8A
100
AcDbEntity
  8
SLD-0
  6
CONTINUOUS
 62
       3
100
AcDbLine
 10
-107.88498004
 20
-5.00000099
 30
0.0
 11
-108.33497928
 21
-5.00000099
 31
0.0
  0
LINE
  5
8B
100
AcDbEntity
  8
SLD-0
  6
CONTINUOUS
 62
       3
100
AcDbLine
 10
-108.33497928
 20
-3.00000066
 30
0.0
 11
-107.88498004
 21
-3.00000066
 31
0.0
  0
LINE
  5
8C
100
AcDbEntity
  8
SLD-0
  6
CONTINUOUS
 62
       3
100
AcDbLine
 10
-125.88497927
 20
-5.00000099
 30
0.0
 11
-125.88497927
 21
-3.00000066
 31
0.0
  0
LINE
  5
8D
100
AcDbEntity
  8
SLD-0
  6
CONTINUOUS
 62
       3
100
AcDbLine
 10
-125.88497927
 20
-5.00000099
 30
0.0
 11
-125.4349791
 21
-5.00000099
 31
0.0
  0
LINE
  5
8E
100
AcDbEntity
  8
SLD-0
  6
CONTINUOUS
 62
       3
100
AcDbLine
 10
-125.4349791
 20
-3.00000066
 30
0.0
 11
-125.88497927
 21
-3.00000066
 31
0.0
  0
LINE
  5
8F
100
AcDbEntity
  8
SLD-0
  6
CONTINUOUS
 62
       3
100
AcDbLine
 10
-107.88498004
 20
-18.00000126
 30
0.0
 11
-107.88498004
 21
-16.00000093
 31
0.0
  0
LINE
  5
90
100
AcDbEntity
  8
SLD-0
  6
CONTINUOUS
 62
       3
100
AcDbLine
 10
-107.88498004
 20
-18.00000126
 30
0.0
 11
-108.33497928
 21
-18.00000126
 31
0.0
  0
LINE
  5
91
100
AcDbEntity
  8
SLD-0
  6
CONTINUOUS
 62
       3
100
AcDbLine
 10
-108.33497928
 20
-16.00000093
 30
0.0
 11
-107.88498004
 21
-16.00000093
 31
0.0
  0
LINE
  5
92
100
AcDbEntity
  8
SLD-0
  6
CONTINUOUS
 62
       3
100
AcDbLine
 10
-125.88497927
 20
-18.00000126
 30
0.0
 11
-125.88497927
 21
-16.00000093
 31
0.0
  0
LINE
  5
93
100
AcDbEntity
  8
SLD-0
  6
CONTINUOUS
 62
       3
100
AcDbLine
 10
-125.88497927
 20
-18.00000126
 30
0.0
 11
-125.4349791
 21
-18.00000126
 31
0.0
  0
LINE
  5
94
100
AcDbEntity
  8
SLD-0
  6
CONTINUOUS
 62
       3
100
AcDbLine
 10
-125.4349791
 20
-16.00000093
 30
0.0
 11
-125.88497927
 21
-16.00000093
 31
0.0
  0
LINE
  5
95
100
AcDbEntity
  8
SLD-0
  6
CONTINUOUS
 62
       3
100
AcDbLine
 10
-122.2849798
 20
11.0999996
 30
0.0
 11
-111.48497952
 21
11.0999996
 31
0.0
  0
LINE
  5
96
100
AcDbEntity
  8
SLD-0
  6
CONTINUOUS
 62
       3
100
AcDbLine
 10
-122.2849798
 20
19.89999955
 30
0.0
 11
-122.2849798
 21
11.0999996
 31
0.0
  0
LINE
  5
97
100
AcDbEntity
  8
SLD-0
  6
CONTINUOUS
 62
       3
100
AcDbLine
 10
-111.48497952
 20
11.0999996
 30
0.0
 11
-111.48497952
 21
19.89999955
 31
0.0
  0
LINE
  5
98
100
AcDbEntity
  8
SLD-0
  6
CONTINUOUS
 62
       3
100
AcDbLine
 10
-111.48497952
 20
19.89999955
 30
0.0
 11
-122.2849798
 21
19.89999955
 31
0.0
  0
LINE
  5
99
100
AcDbEntity
  8
SLD-0
  6
CONTINUOUS
 62
       3
100
AcDbLine
 10
-122.2849798
 20
-1.90000067
 30
0.0
 11
-111.48497952
 21
-1.90000067
 31
0.0
  0
LINE
  5
9A
100
AcDbEntity
  8
SLD-0
  6
CONTINUOUS
 62
       3
100
AcDbLine
 10
-111.48497952
 20
6.89999928
 30
0.0
 11
-122.2849798
 21
6.89999928
 31
0.0
  0
LINE
  5
9B
100
AcDbEntity
  8
SLD-0
  6
CONTINUOUS
 62
       3
100
AcDbLine
 10
-111.48497952
 20
-1.90000067
 30
0.0
 11
-111.48497952
 21
6.89999928
 31
0.0
  0
LINE
  5
9C
100
AcDbEntity
  8
SLD-0
  6
CONTINUOUS
 62
       3
100
AcDbLine
 10
-122.2849798
 20
6.89999928
 30
0.0
 11
-122.2849798
 21
-1.90000067
 31
0.0
  0
LINE
  5
9D
100
AcDbEntity
  8
SLD-0
  6
CONTINUOUS
 62
       3
100
AcDbLine
 10
-122.2849798
 20
-14.90000094
 30
0.0
 11
-111.48497952
 21
-14.90000094
 31
0.0
  0
LINE
  5
9E
100
AcDbEntity
  8
SLD-0
  6
CONTINUOUS
 62
       3
100
AcDbLine
 10
-122.2849798
 20
-6.10000098
 30
0.0
 11
-122.2849798
 21
-14.90000094
 31
0.0
  0
LINE
  5
9F
100
AcDbEntity
  8
SLD-0
  6
CONTINUOUS
 62
       3
100
AcDbLine
 10
-111.48497952
 20
-6.10000098
 30
0.0
 11
-122.2849798
 21
-6.10000098
 31
0.0
  0
LINE
  5
A0
100
AcDbEntity
  8
SLD-0
  6
CONTINUOUS
 62
       3
100
AcDbLine
 10
-111.48497952
 20
-14.90000094
 30
0.0
 11
-111.48497952
 21
-6.10000098
 31
0.0
  0
LINE
  5
A1
100
AcDbEntity
  8
SLD-0
  6
CONTINUOUS
 62
       3
100
AcDbLine
 10
-111.38497969
 20
32.99999779
 30
0.0
 11
-122.38497963
 21
32.99999779
 31
0.0
  0
LINE
  5
A2
100
AcDbEntity
  8
SLD-0
  6
CONTINUOUS
 62
       3
100
AcDbLine
 10
-111.38497969
 20
24.0000019
 30
0.0
 11
-111.38497969
 21
32.99999779
 31
0.0
  0
LINE
  5
A3
100
AcDbEntity
  8
SLD-0
  6
CONTINUOUS
 62
       3
100
AcDbLine
 10
-122.38497963
 20
24.0000019
 30
0.0
 11
-111.38497969
 21
24.0000019
 31
0.0
  0
LINE
  5
A4
100
AcDbEntity
  8
SLD-0
  6
CONTINUOUS
 62
       3
100
AcDbLine
 10
-122.38497963
 20
32.99999779
 30
0.0
 11
-122.38497963
 21
24.0000019
 31
0.0
  0
LINE
  5
A5
100
AcDbEntity
  8
SLD-0
  6
CONTINUOUS
 62
       3
100
AcDbLine
 10
-122.38497963
 20
10.99999791
 30
0.0
 11
-111.38497969
 21
10.99999791
 31
0.0
  0
LINE
  5
A6
100
AcDbEntity
  8
SLD-0
  6
CONTINUOUS
 62
       3
100
AcDbLine
 10
-122.38497963
 20
19.99999752
 30
0.0
 11
-122.38497963
 21
10.99999791
 31
0.0
  0
LINE
  5
A7
100
AcDbEntity
  8
SLD-0
  6
CONTINUOUS
 62
       3
100
AcDbLine
 10
-111.38497969
 20
19.99999752
 30
0.0
 11
-122.38497963
 21
19.99999752
 31
0.0
  0
LINE
  5
A8
100
AcDbEntity
  8
SLD-0
  6
CONTINUOUS
 62
       3
100
AcDbLine
 10
-111.38497969
 20
10.99999791
 30
0.0
 11
-111.38497969
 21
19.99999752
 31
0.0
  0
LINE
  5
A9
100
AcDbEntity
  8
SLD-0
  6
CONTINUOUS
 62
       3
100
AcDbLine
 10
-122.38497963
 20
-2.00000236
 30
0.0
 11
-111.38497969
 21
-2.00000236
 31
0.0
  0
LINE
  5
AA
100
AcDbEntity
  8
SLD-0
  6
CONTINUOUS
 62
       3
100
AcDbLine
 10
-122.38497963
 20
6.99999725
 30
0.0
 11
-122.38497963
 21
-2.00000236
 31
0.0
  0
LINE
  5
AB
100
AcDbEntity
  8
SLD-0
  6
CONTINUOUS
 62
       3
100
AcDbLine
 10
-111.38497969
 20
6.99999725
 30
0.0
 11
-122.38497963
 21
6.99999725
 31
0.0
  0
LINE
  5
AC
100
AcDbEntity
  8
SLD-0
  6
CONTINUOUS
 62
       3
100
AcDbLine
 10
-111.38497969
 20
-2.00000236
 30
0.0
 11
-111.38497969
 21
6.99999725
 31
0.0
  0
LINE
  5
AD
100
AcDbEntity
  8
SLD-0
  6
CONTINUOUS
 62
       3
100
AcDbLine
 10
-111.38497969
 20
-5.99999929
 30
0.0
 11
-122.38497963
 21
-5.99999929
 31
0.0
  0
LINE
  5
AE
100
AcDbEntity
  8
SLD-0
  6
CONTINUOUS
 62
       3
100
AcDbLine
 10
-111.38497969
 20
-15.00000077
 30
0.0
 11
-111.38497969
 21
-5.99999929
 31
0.0
  0
LINE
  5
AF
100
AcDbEntity
  8
SLD-0
  6
CONTINUOUS
 62
       3
100
AcDbLine
 10
-122.38497963
 20
-15.00000077
 30
0.0
 11
-111.38497969
 21
-15.00000077
 31
0.0
  0
LINE
  5
B0
100
AcDbEntity
  8
SLD-0
  6
CONTINUOUS
 62
       3
100
AcDbLine
 10
-122.38497963
 20
-5.99999929
 30
0.0
 11
-122.38497963
 21
-15.00000077
 31
0.0
  0
LINE
  5
B1
100
AcDbEntity
  8
SLD-0
  6
CONTINUOUS
 62
       3
100
AcDbLine
 10
-111.38497969
 20
-19.00000142
 30
0.0
 11
-122.38497963
 21
-19.00000142
 31
0.0
  0
LINE
  5
B2
100
AcDbEntity
  8
SLD-0
  6
CONTINUOUS
 62
       3
100
AcDbLine
 10
-111.38497969
 20
-28.00000103
 30
0.0
 11
-111.38497969
 21
-19.00000142
 31
0.0
  0
LINE
  5
B3
100
AcDbEntity
  8
SLD-0
  6
CONTINUOUS
 62
       3
100
AcDbLine
 10
-122.38497963
 20
-28.00000103
 30
0.0
 11
-111.38497969
 21
-28.00000103
 31
0.0
  0
LINE
  5
B4
100
AcDbEntity
  8
SLD-0
  6
CONTINUOUS
 62
       3
100
AcDbLine
 10
-122.38497963
 20
-19.00000142
 30
0.0
 11
-122.38497963
 21
-28.00000103
 31
0.0
  0
LINE
  5
B5
100
AcDbEntity
  8
SLD-0
  6
CONTINUOUS
 62
       3
100
AcDbLine
 10
-109.88497944
 20
33.39999711
 30
0.0
 11
-123.88497894
 21
33.39999711
 31
0.0
  0
LINE
  5
B6
100
AcDbEntity
  8
SLD-0
  6
CONTINUOUS
 62
       3
100
AcDbLine
 10
-109.88497944
 20
33.39999711
 30
0.0
 11
-109.88497944
 21
22.99999987
 31
0.0
  0
LINE
  5
B7
100
AcDbEntity
  8
SLD-0
  6
CONTINUOUS
 62
       3
100
AcDbLine
 10
-123.88497894
 20
22.99999987
 30
0.0
 11
-123.88497894
 21
33.39999711
 31
0.0
  0
LINE
  5
B8
100
AcDbEntity
  8
SLD-0
  6
CONTINUOUS
 62
       3
100
AcDbLine
 10
-123.88497894
 20
9.99999961
 30
0.0
 11
-123.88497894
 21
20.99999955
 31
0.0
  0
LINE
  5
B9
100
AcDbEntity
  8
SLD-0
  6
CONTINUOUS
 62
       3
100
AcDbLine
 10
-109.88497944
 20
20.99999955
 30
0.0
 11
-109.88497944
 21
9.99999961
 31
0.0
  0
LINE
  5
BA
100
AcDbEntity
  8
SLD-0
  6
CONTINUOUS
 62
       3
100
AcDbLine
 10
-109.88497944
 20
7.99999928
 30
0.0
 11
-109.88497944
 21
-3.00000066
 31
0.0
  0
LINE
  5
BB
100
AcDbEntity
  8
SLD-0
  6
CONTINUOUS
 62
       3
100
AcDbLine
 10
-123.88497894
 20
-3.00000066
 30
0.0
 11
-123.88497894
 21
7.99999928
 31
0.0
  0
LINE
  5
BC
100
AcDbEntity
  8
SLD-0
  6
CONTINUOUS
 62
       3
100
AcDbLine
 10
-109.88497944
 20
-5.00000099
 30
0.0
 11
-109.88497944
 21
-16.00000093
 31
0.0
  0
LINE
  5
BD
100
AcDbEntity
  8
SLD-0
  6
CONTINUOUS
 62
       3
100
AcDbLine
 10
-123.88497894
 20
-16.00000093
 30
0.0
 11
-123.88497894
 21
-5.00000099
 31
0.0
  0
LINE
  5
BE
100
AcDbEntity
  8
SLD-0
  6
CONTINUOUS
 62
       3
100
AcDbLine
 10
-123.88497894
 20
-28.40000129
 30
0.0
 11
-109.88497944
 21
-28.40000129
 31
0.0
  0
LINE
  5
BF
100
AcDbEntity
  8
SLD-0
  6
CONTINUOUS
 62
       3
100
AcDbLine
 10
-109.88497944
 20
-18.00000126
 30
0.0
 11
-109.88497944
 21
-28.40000129
 31
0.0
  0
LINE
  5
C0
100
AcDbEntity
  8
SLD-0
  6
CONTINUOUS
 62
       3
100
AcDbLine
 10
-123.88497894
 20
-28.40000129
 30
0.0
 11
-123.88497894
 21
-18.00000126
 31
0.0
  0
LINE
  5
C1
100
AcDbEntity
  8
SLD-0
  6
CONTINUOUS
 62
       3
100
AcDbLine
 10
-125.38498012
 20
33.39999711
 30
0.0
 11
-125.38498012
 21
22.99999987
 31
0.0
  0
LINE
  5
C2
100
AcDbEntity
  8
SLD-0
  6
CONTINUOUS
 62
       3
100
AcDbLine
 10
-123.88497894
 20
33.39999711
 30
0.0
 11
-125.38498012
 21
33.39999711
 31
0.0
  0
LINE
  5
C3
100
AcDbEntity
  8
SLD-0
  6
CONTINUOUS
 62
       3
100
AcDbLine
 10
-108.38497919
 20
22.99999987
 30
0.0
 11
-108.38497919
 21
33.39999711
 31
0.0
  0
LINE
  5
C4
100
AcDbEntity
  8
SLD-0
  6
CONTINUOUS
 62
       3
100
AcDbLine
 10
-108.38497919
 20
33.39999711
 30
0.0
 11
-109.88497944
 21
33.39999711
 31
0.0
  0
LINE
  5
C5
100
AcDbEntity
  8
SLD-0
  6
CONTINUOUS
 62
       3
100
AcDbLine
 10
-125.38498012
 20
20.99999955
 30
0.0
 11
-125.38498012
 21
9.99999961
 31
0.0
  0
LINE
  5
C6
100
AcDbEntity
  8
SLD-0
  6
CONTINUOUS
 62
       3
100
AcDbLine
 10
-108.38497919
 20
9.99999961
 30
0.0
 11
-108.38497919
 21
20.99999955
 31
0.0
  0
LINE
  5
C7
100
AcDbEntity
  8
SLD-0
  6
CONTINUOUS
 62
       3
100
AcDbLine
 10
-108.38497919
 20
-3.00000066
 30
0.0
 11
-108.38497919
 21
7.99999928
 31
0.0
  0
LINE
  5
C8
100
AcDbEntity
  8
SLD-0
  6
CONTINUOUS
 62
       3
100
AcDbLine
 10
-125.38498012
 20
7.99999928
 30
0.0
 11
-125.38498012
 21
-3.00000066
 31
0.0
  0
LINE
  5
C9
100
AcDbEntity
  8
SLD-0
  6
CONTINUOUS
 62
       3
100
AcDbLine
 10
-108.38497919
 20
-16.00000093
 30
0.0
 11
-108.38497919
 21
-5.00000099
 31
0.0
  0
LINE
  5
CA
100
AcDbEntity
  8
SLD-0
  6
CONTINUOUS
 62
       3
100
AcDbLine
 10
-125.38498012
 20
-5.00000099
 30
0.0
 11
-125.38498012
 21
-16.00000093
 31
0.0
  0
LINE
  5
CB
100
AcDbEntity
  8
SLD-0
  6
CONTINUOUS
 62
       3
100
AcDbLine
 10
-108.38497919
 20
-28.40000129
 30
0.0
 11
-108.38497919
 21
-18.00000126
 31
0.0
  0
LINE
  5
CC
100
AcDbEntity
  8
SLD-0
  6
CONTINUOUS
 62
       3
100
AcDbLine
 10
-109.88497944
 20
-28.40000129
 30
0.0
 11
-108.38497919
 21
-28.40000129
 31
0.0
  0
LINE
  5
CD
100
AcDbEntity
  8
SLD-0
  6
CONTINUOUS
 62
       3
100
AcDbLine
 10
-125.38498012
 20
-18.00000126
 30
0.0
 11
-125.38498012
 21
-28.40000129
 31
0.0
  0
LINE
  5
CE
100
AcDbEntity
  8
SLD-0
  6
CONTINUOUS
 62
       3
100
AcDbLine
 10
-125.38498012
 20
-28.40000129
 30
0.0
 11
-123.88497894
 21
-28.40000129
 31
0.0
  0
LINE
  5
CF
100
AcDbEntity
  8
SLD-0
  6
CONTINUOUS
 62
       3
100
AcDbLine
 10
-64.53498011
 20
20.99999955
 30
0.0
 11
-65.78497892
 21
20.99999955
 31
0.0
  0
LINE
  5
D0
100
AcDbEntity
  8
SLD-0
  6
CONTINUOUS
 62
       3
100
AcDbLine
 10
-65.78497892
 20
22.99999987
 30
0.0
 11
-64.53498011
 21
22.99999987
 31
0.0
  0
LINE
  5
D1
100
AcDbEntity
  8
SLD-0
  6
CONTINUOUS
 62
       3
100
AcDbLine
 10
-80.38497926
 20
20.99999955
 30
0.0
 11
-65.78497892
 21
20.99999955
 31
0.0
  0
LINE
  5
D2
100
AcDbEntity
  8
SLD-0
  6
CONTINUOUS
 62
       3
100
AcDbLine
 10
-65.78497892
 20
22.99999987
 30
0.0
 11
-80.38497926
 21
22.99999987
 31
0.0
  0
LINE
  5
D3
100
AcDbEntity
  8
SLD-0
  6
CONTINUOUS
 62
       3
100
AcDbLine
 10
-81.63497993
 20
20.99999955
 30
0.0
 11
-80.38497926
 21
20.99999955
 31
0.0
  0
LINE
  5
D4
100
AcDbEntity
  8
SLD-0
  6
CONTINUOUS
 62
       3
100
AcDbLine
 10
-80.38497926
 20
22.99999987
 30
0.0
 11
-81.63497993
 21
22.99999987
 31
0.0
  0
LINE
  5
D5
100
AcDbEntity
  8
SLD-0
  6
CONTINUOUS
 62
       3
100
AcDbLine
 10
-80.38497926
 20
7.99999928
 30
0.0
 11
-65.78497892
 21
7.99999928
 31
0.0
  0
LINE
  5
D6
100
AcDbEntity
  8
SLD-0
  6
CONTINUOUS
 62
       3
100
AcDbLine
 10
-65.78497892
 20
9.99999961
 30
0.0
 11
-80.38497926
 21
9.99999961
 31
0.0
  0
LINE
  5
D7
100
AcDbEntity
  8
SLD-0
  6
CONTINUOUS
 62
       3
100
AcDbLine
 10
-80.38497926
 20
9.99999961
 30
0.0
 11
-81.63497993
 21
9.99999961
 31
0.0
  0
LINE
  5
D8
100
AcDbEntity
  8
SLD-0
  6
CONTINUOUS
 62
       3
100
AcDbLine
 10
-81.63497993
 20
7.99999928
 30
0.0
 11
-80.38497926
 21
7.99999928
 31
0.0
  0
LINE
  5
D9
100
AcDbEntity
  8
SLD-0
  6
CONTINUOUS
 62
       3
100
AcDbLine
 10
-64.53498011
 20
7.99999928
 30
0.0
 11
-65.78497892
 21
7.99999928
 31
0.0
  0
LINE
  5
DA
100
AcDbEntity
  8
SLD-0
  6
CONTINUOUS
 62
       3
100
AcDbLine
 10
-65.78497892
 20
9.99999961
 30
0.0
 11
-64.53498011
 21
9.99999961
 31
0.0
  0
LINE
  5
DB
100
AcDbEntity
  8
SLD-0
  6
CONTINUOUS
 62
       3
100
AcDbLine
 10
-81.63497993
 20
-5.00000099
 30
0.0
 11
-80.38497926
 21
-5.00000099
 31
0.0
  0
LINE
  5
DC
100
AcDbEntity
  8
SLD-0
  6
CONTINUOUS
 62
       3
100
AcDbLine
 10
-80.38497926
 20
-3.00000066
 30
0.0
 11
-81.63497993
 21
-3.00000066
 31
0.0
  0
LINE
  5
DD
100
AcDbEntity
  8
SLD-0
  6
CONTINUOUS
 62
       3
100
AcDbLine
 10
-80.38497926
 20
-5.00000099
 30
0.0
 11
-65.78497892
 21
-5.00000099
 31
0.0
  0
LINE
  5
DE
100
AcDbEntity
  8
SLD-0
  6
CONTINUOUS
 62
       3
100
AcDbLine
 10
-65.78497892
 20
-3.00000066
 30
0.0
 11
-80.38497926
 21
-3.00000066
 31
0.0
  0
LINE
  5
DF
100
AcDbEntity
  8
SLD-0
  6
CONTINUOUS
 62
       3
100
AcDbLine
 10
-64.53498011
 20
-5.00000099
 30
0.0
 11
-65.78497892
 21
-5.00000099
 31
0.0
  0
LINE
  5
E0
100
AcDbEntity
  8
SLD-0
  6
CONTINUOUS
 62
       3
100
AcDbLine
 10
-65.78497892
 20
-3.00000066
 30
0.0
 11
-64.53498011
 21
-3.00000066
 31
0.0
  0
LINE
  5
E1
100
AcDbEntity
  8
SLD-0
  6
CONTINUOUS
 62
       3
100
AcDbLine
 10
-82.08497917
 20
20.99999955
 30
0.0
 11
-82.08497917
 21
22.99999987
 31
0.0
  0
LINE
  5
E2
100
AcDbEntity
  8
SLD-0
  6
CONTINUOUS
 62
       3
100
AcDbLine
 10
-82.08497917
 20
20.99999955
 30
0.0
 11
-81.63497993
 21
20.99999955
 31
0.0
  0
LINE
  5
E3
100
AcDbEntity
  8
SLD-0
  6
CONTINUOUS
 62
       3
100
AcDbLine
 10
-81.63497993
 20
22.99999987
 30
0.0
 11
-82.08497917
 21
22.99999987
 31
0.0
  0
LINE
  5
E4
100
AcDbEntity
  8
SLD-0
  6
CONTINUOUS
 62
       3
100
AcDbLine
 10
-64.08497994
 20
20.99999955
 30
0.0
 11
-64.08497994
 21
22.99999987
 31
0.0
  0
LINE
  5
E5
100
AcDbEntity
  8
SLD-0
  6
CONTINUOUS
 62
       3
100
AcDbLine
 10
-64.08497994
 20
20.99999955
 30
0.0
 11
-64.53498011
 21
20.99999955
 31
0.0
  0
LINE
  5
E6
100
AcDbEntity
  8
SLD-0
  6
CONTINUOUS
 62
       3
100
AcDbLine
 10
-64.53498011
 20
22.99999987
 30
0.0
 11
-64.08497994
 21
22.99999987
 31
0.0
  0
LINE
  5
E7
100
AcDbEntity
  8
SLD-0
  6
CONTINUOUS
 62
       3
100
AcDbLine
 10
-82.08497917
 20
7.99999928
 30
0.0
 11
-82.08497917
 21
9.99999961
 31
0.0
  0
LINE
  5
E8
100
AcDbEntity
  8
SLD-0
  6
CONTINUOUS
 62
       3
100
AcDbLine
 10
-82.08497917
 20
7.99999928
 30
0.0
 11
-81.63497993
 21
7.99999928
 31
0.0
  0
LINE
  5
E9
100
AcDbEntity
  8
SLD-0
  6
CONTINUOUS
 62
       3
100
AcDbLine
 10
-81.63497993
 20
9.99999961
 30
0.0
 11
-82.08497917
 21
9.99999961
 31
0.0
  0
LINE
  5
EA
100
AcDbEntity
  8
SLD-0
  6
CONTINUOUS
 62
       3
100
AcDbLine
 10
-64.08497994
 20
7.99999928
 30
0.0
 11
-64.08497994
 21
9.99999961
 31
0.0
  0
LINE
  5
EB
100
AcDbEntity
  8
SLD-0
  6
CONTINUOUS
 62
       3
100
AcDbLine
 10
-64.08497994
 20
7.99999928
 30
0.0
 11
-64.53498011
 21
7.99999928
 31
0.0
  0
LINE
  5
EC
100
AcDbEntity
  8
SLD-0
  6
CONTINUOUS
 62
       3
100
AcDbLine
 10
-64.53498011
 20
9.99999961
 30
0.0
 11
-64.08497994
 21
9.99999961
 31
0.0
  0
LINE
  5
ED
100
AcDbEntity
  8
SLD-0
  6
CONTINUOUS
 62
       3
100
AcDbLine
 10
-82.08497917
 20
-5.00000099
 30
0.0
 11
-82.08497917
 21
-3.00000066
 31
0.0
  0
LINE
  5
EE
100
AcDbEntity
  8
SLD-0
  6
CONTINUOUS
 62
       3
100
AcDbLine
 10
-82.08497917
 20
-5.00000099
 30
0.0
 11
-81.63497993
 21
-5.00000099
 31
0.0
  0
LINE
  5
EF
100
AcDbEntity
  8
SLD-0
  6
CONTINUOUS
 62
       3
100
AcDbLine
 10
-81.63497993
 20
-3.00000066
 30
0.0
 11
-82.08497917
 21
-3.00000066
 31
0.0
  0
LINE
  5
F0
100
AcDbEntity
  8
SLD-0
  6
CONTINUOUS
 62
       3
100
AcDbLine
 10
-64.08497994
 20
-5.00000099
 30
0.0
 11
-64.08497994
 21
-3.00000066
 31
0.0
  0
LINE
  5
F1
100
AcDbEntity
  8
SLD-0
  6
CONTINUOUS
 62
       3
100
AcDbLine
 10
-64.08497994
 20
-5.00000099
 30
0.0
 11
-64.53498011
 21
-5.00000099
 31
0.0
  0
LINE
  5
F2
100
AcDbEntity
  8
SLD-0
  6
CONTINUOUS
 62
       3
100
AcDbLine
 10
-64.53498011
 20
-3.00000066
 30
0.0
 11
-64.08497994
 21
-3.00000066
 31
0.0
  0
LINE
  5
F3
100
AcDbEntity
  8
SLD-0
  6
CONTINUOUS
 62
       3
100
AcDbLine
 10
-78.48497969
 20
11.0999996
 30
0.0
 11
-67.68497941
 21
11.0999996
 31
0.0
  0
LINE
  5
F4
100
AcDbEntity
  8
SLD-0
  6
CONTINUOUS
 62
       3
100
AcDbLine
 10
-78.48497969
 20
19.89999955
 30
0.0
 11
-78.48497969
 21
11.0999996
 31
0.0
  0
LINE
  5
F5
100
AcDbEntity
  8
SLD-0
  6
CONTINUOUS
 62
       3
100
AcDbLine
 10
-67.68497941
 20
19.89999955
 30
0.0
 11
-78.48497969
 21
19.89999955
 31
0.0
  0
LINE
  5
F6
100
AcDbEntity
  8
SLD-0
  6
CONTINUOUS
 62
       3
100
AcDbLine
 10
-67.68497941
 20
11.0999996
 30
0.0
 11
-67.68497941
 21
19.89999955
 31
0.0
  0
LINE
  5
F7
100
AcDbEntity
  8
SLD-0
  6
CONTINUOUS
 62
       3
100
AcDbLine
 10
-78.48497969
 20
-1.90000067
 30
0.0
 11
-67.68497941
 21
-1.90000067
 31
0.0
  0
LINE
  5
F8
100
AcDbEntity
  8
SLD-0
  6
CONTINUOUS
 62
       3
100
AcDbLine
 10
-67.68497941
 20
-1.90000067
 30
0.0
 11
-67.68497941
 21
6.89999928
 31
0.0
  0
LINE
  5
F9
100
AcDbEntity
  8
SLD-0
  6
CONTINUOUS
 62
       3
100
AcDbLine
 10
-78.48497969
 20
6.89999928
 30
0.0
 11
-78.48497969
 21
-1.90000067
 31
0.0
  0
LINE
  5
FA
100
AcDbEntity
  8
SLD-0
  6
CONTINUOUS
 62
       3
100
AcDbLine
 10
-67.68497941
 20
6.89999928
 30
0.0
 11
-78.48497969
 21
6.89999928
 31
0.0
  0
LINE
  5
FB
100
AcDbEntity
  8
SLD-0
  6
CONTINUOUS
 62
       3
100
AcDbLine
 10
-78.58497952
 20
24.0000019
 30
0.0
 11
-67.58497958
 21
24.0000019
 31
0.0
  0
LINE
  5
FC
100
AcDbEntity
  8
SLD-0
  6
CONTINUOUS
 62
       3
100
AcDbLine
 10
-78.58497952
 20
32.99999779
 30
0.0
 11
-78.58497952
 21
24.0000019
 31
0.0
  0
LINE
  5
FD
100
AcDbEntity
  8
SLD-0
  6
CONTINUOUS
 62
       3
100
AcDbLine
 10
-67.58497958
 20
32.99999779
 30
0.0
 11
-78.58497952
 21
32.99999779
 31
0.0
  0
LINE
  5
FE
100
AcDbEntity
  8
SLD-0
  6
CONTINUOUS
 62
       3
100
AcDbLine
 10
-67.58497958
 20
24.0000019
 30
0.0
 11
-67.58497958
 21
32.99999779
 31
0.0
  0
LINE
  5
FF
100
AcDbEntity
  8
SLD-0
  6
CONTINUOUS
 62
       3
100
AcDbLine
 10
-67.58497958
 20
19.99999752
 30
0.0
 11
-78.58497952
 21
19.99999752
 31
0.0
  0
LINE
  5
100
100
AcDbEntity
  8
SLD-0
  6
CONTINUOUS
 62
       3
100
AcDbLine
 10
-78.58497952
 20
10.99999791
 30
0.0
 11
-67.58497958
 21
10.99999791
 31
0.0
  0
LINE
  5
101
100
AcDbEntity
  8
SLD-0
  6
CONTINUOUS
 62
       3
100
AcDbLine
 10
-78.58497952
 20
19.99999752
 30
0.0
 11
-78.58497952
 21
10.99999791
 31
0.0
  0
LINE
  5
102
100
AcDbEntity
  8
SLD-0
  6
CONTINUOUS
 62
       3
100
AcDbLine
 10
-67.58497958
 20
10.99999791
 30
0.0
 11
-67.58497958
 21
19.99999752
 31
0.0
  0
LINE
  5
103
100
AcDbEntity
  8
SLD-0
  6
CONTINUOUS
 62
       3
100
AcDbLine
 10
-67.58497958
 20
6.99999725
 30
0.0
 11
-78.58497952
 21
6.99999725
 31
0.0
  0
LINE
  5
104
100
AcDbEntity
  8
SLD-0
  6
CONTINUOUS
 62
       3
100
AcDbLine
 10
-67.58497958
 20
-2.00000236
 30
0.0
 11
-67.58497958
 21
6.99999725
 31
0.0
  0
LINE
  5
105
100
AcDbEntity
  8
SLD-0
  6
CONTINUOUS
 62
       3
100
AcDbLine
 10
-78.58497952
 20
-2.00000236
 30
0.0
 11
-67.58497958
 21
-2.00000236
 31
0.0
  0
LINE
  5
106
100
AcDbEntity
  8
SLD-0
  6
CONTINUOUS
 62
       3
100
AcDbLine
 10
-78.58497952
 20
6.99999725
 30
0.0
 11
-78.58497952
 21
-2.00000236
 31
0.0
  0
LINE
  5
107
100
AcDbEntity
  8
SLD-0
  6
CONTINUOUS
 62
       3
100
AcDbLine
 10
-78.58497952
 20
-15.00000077
 30
0.0
 11
-67.58497958
 21
-15.00000077
 31
0.0
  0
LINE
  5
108
100
AcDbEntity
  8
SLD-0
  6
CONTINUOUS
 62
       3
100
AcDbLine
 10
-78.58497952
 20
-5.99999929
 30
0.0
 11
-78.58497952
 21
-15.00000077
 31
0.0
  0
LINE
  5
109
100
AcDbEntity
  8
SLD-0
  6
CONTINUOUS
 62
       3
100
AcDbLine
 10
-67.58497958
 20
-5.99999929
 30
0.0
 11
-78.58497952
 21
-5.99999929
 31
0.0
  0
LINE
  5
10A
100
AcDbEntity
  8
SLD-0
  6
CONTINUOUS
 62
       3
100
AcDbLine
 10
-67.58497958
 20
-15.00000077
 30
0.0
 11
-67.58497958
 21
-5.99999929
 31
0.0
  0
LINE
  5
10B
100
AcDbEntity
  8
SLD-0
  6
CONTINUOUS
 62
       3
100
AcDbLine
 10
-80.08497977
 20
22.99999987
 30
0.0
 11
-80.08497977
 21
33.39999711
 31
0.0
  0
LINE
  5
10C
100
AcDbEntity
  8
SLD-0
  6
CONTINUOUS
 62
       3
100
AcDbLine
 10
-66.08498027
 20
33.39999711
 30
0.0
 11
-66.08498027
 21
22.99999987
 31
0.0
  0
LINE
  5
10D
100
AcDbEntity
  8
SLD-0
  6
CONTINUOUS
 62
       3
100
AcDbLine
 10
-66.08498027
 20
33.39999711
 30
0.0
 11
-80.08497977
 21
33.39999711
 31
0.0
  0
LINE
  5
10E
100
AcDbEntity
  8
SLD-0
  6
CONTINUOUS
 62
       3
100
AcDbLine
 10
-80.08497977
 20
9.99999961
 30
0.0
 11
-80.08497977
 21
20.99999955
 31
0.0
  0
LINE
  5
10F
100
AcDbEntity
  8
SLD-0
  6
CONTINUOUS
 62
       3
100
AcDbLine
 10
-66.08498027
 20
20.99999955
 30
0.0
 11
-66.08498027
 21
9.99999961
 31
0.0
  0
LINE
  5
110
100
AcDbEntity
  8
SLD-0
  6
CONTINUOUS
 62
       3
100
AcDbLine
 10
-80.08497977
 20
-3.00000066
 30
0.0
 11
-80.08497977
 21
7.99999928
 31
0.0
  0
LINE
  5
111
100
AcDbEntity
  8
SLD-0
  6
CONTINUOUS
 62
       3
100
AcDbLine
 10
-66.08498027
 20
7.99999928
 30
0.0
 11
-66.08498027
 21
-3.00000066
 31
0.0
  0
LINE
  5
112
100
AcDbEntity
  8
SLD-0
  6
CONTINUOUS
 62
       3
100
AcDbLine
 10
-80.08497977
 20
-15.40000195
 30
0.0
 11
-66.08498027
 21
-15.40000195
 31
0.0
  0
LINE
  5
113
100
AcDbEntity
  8
SLD-0
  6
CONTINUOUS
 62
       3
100
AcDbLine
 10
-66.08498027
 20
-5.00000099
 30
0.0
 11
-66.08498027
 21
-15.40000195
 31
0.0
  0
LINE
  5
114
100
AcDbEntity
  8
SLD-0
  6
CONTINUOUS
 62
       3
100
AcDbLine
 10
-80.08497977
 20
-15.40000195
 30
0.0
 11
-80.08497977
 21
-5.00000099
 31
0.0
  0
LINE
  5
115
100
AcDbEntity
  8
SLD-0
  6
CONTINUOUS
 62
       3
100
AcDbLine
 10
-81.58498002
 20
33.39999711
 30
0.0
 11
-81.58498002
 21
22.99999987
 31
0.0
  0
LINE
  5
116
100
AcDbEntity
  8
SLD-0
  6
CONTINUOUS
 62
       3
100
AcDbLine
 10
-80.08497977
 20
33.39999711
 30
0.0
 11
-81.58498002
 21
33.39999711
 31
0.0
  0
LINE
  5
117
100
AcDbEntity
  8
SLD-0
  6
CONTINUOUS
 62
       3
100
AcDbLine
 10
-64.58497909
 20
22.99999987
 30
0.0
 11
-64.58497909
 21
33.39999711
 31
0.0
  0
LINE
  5
118
100
AcDbEntity
  8
SLD-0
  6
CONTINUOUS
 62
       3
100
AcDbLine
 10
-64.58497909
 20
33.39999711
 30
0.0
 11
-66.08498027
 21
33.39999711
 31
0.0
  0
LINE
  5
119
100
AcDbEntity
  8
SLD-0
  6
CONTINUOUS
 62
       3
100
AcDbLine
 10
-64.58497909
 20
9.99999961
 30
0.0
 11
-64.58497909
 21
20.99999955
 31
0.0
  0
LINE
  5
11A
100
AcDbEntity
  8
SLD-0
  6
CONTINUOUS
 62
       3
100
AcDbLine
 10
-81.58498002
 20
20.99999955
 30
0.0
 11
-81.58498002
 21
9.99999961
 31
0.0
  0
LINE
  5
11B
100
AcDbEntity
  8
SLD-0
  6
CONTINUOUS
 62
       3
100
AcDbLine
 10
-64.58497909
 20
-3.00000066
 30
0.0
 11
-64.58497909
 21
7.99999928
 31
0.0
  0
LINE
  5
11C
100
AcDbEntity
  8
SLD-0
  6
CONTINUOUS
 62
       3
100
AcDbLine
 10
-81.58498002
 20
7.99999928
 30
0.0
 11
-81.58498002
 21
-3.00000066
 31
0.0
  0
LINE
  5
11D
100
AcDbEntity
  8
SLD-0
  6
CONTINUOUS
 62
       3
100
AcDbLine
 10
-81.58498002
 20
-5.00000099
 30
0.0
 11
-81.58498002
 21
-15.40000195
 31
0.0
  0
LINE
  5
11E
100
AcDbEntity
  8
SLD-0
  6
CONTINUOUS
 62
       3
100
AcDbLine
 10
-81.58498002
 20
-15.40000195
 30
0.0
 11
-80.08497977
 21
-15.40000195
 31
0.0
  0
LINE
  5
11F
100
AcDbEntity
  8
SLD-0
  6
CONTINUOUS
 62
       3
100
AcDbLine
 10
-64.58497909
 20
-15.40000195
 30
0.0
 11
-64.58497909
 21
-5.00000099
 31
0.0
  0
LINE
  5
120
100
AcDbEntity
  8
SLD-0
  6
CONTINUOUS
 62
       3
100
AcDbLine
 10
-66.08498027
 20
-15.40000195
 30
0.0
 11
-64.58497909
 21
-15.40000195
 31
0.0
  0
LINE
  5
121
100
AcDbEntity
  8
SLD-0
  6
CONTINUOUS
 62
       3
100
AcDbLine
 10
-74.98498005
 20
-17.90000143
 30
0.0
 11
-74.98498005
 21
-33.80000096
 31
0.0
  0
LINE
  5
122
100
AcDbEntity
  8
SLD-0
  6
CONTINUOUS
 62
       3
100
AcDbLine
 10
-80.48498002
 20
-17.90000143
 30
0.0
 11
-80.48498002
 21
-33.80000096
 31
0.0
  0
LINE
  5
123
100
AcDbEntity
  8
SLD-0
  6
CONTINUOUS
 62
       3
100
AcDbLine
 10
-80.48498002
 20
-33.80000096
 30
0.0
 11
-74.98498005
 21
-33.80000096
 31
0.0
  0
LINE
  5
124
100
AcDbEntity
  8
SLD-0
  6
CONTINUOUS
 62
       3
100
AcDbLine
 10
-74.98498005
 20
-33.80000096
 30
0.0
 11
-72.38497888
 21
-33.80000096
 31
0.0
  0
LINE
  5
125
100
AcDbEntity
  8
SLD-0
  6
CONTINUOUS
 62
       3
100
AcDbLine
 10
-82.9849795
 20
-33.30000134
 30
0.0
 11
-82.9849795
 21
-18.5600018
 31
0.0
  0
LINE
  5
126
100
AcDbEntity
  8
SLD-0
  6
CONTINUOUS
 62
       3
100
AcDbLine
 10
-82.9849795
 20
-18.5600018
 30
0.0
 11
-80.48498002
 21
-18.5600018
 31
0.0
  0
LINE
  5
127
100
AcDbEntity
  8
SLD-0
  6
CONTINUOUS
 62
       3
100
AcDbLine
 10
-80.98497917
 20
-33.30000134
 30
0.0
 11
-80.98497917
 21
-29.52000143
 31
0.0
  0
LINE
  5
128
100
AcDbEntity
  8
SLD-0
  6
CONTINUOUS
 62
       3
100
AcDbLine
 10
-82.18497993
 20
-29.52000143
 30
0.0
 11
-82.18497993
 21
-33.30000134
 31
0.0
  0
LINE
  5
129
100
AcDbEntity
  8
SLD-0
  6
CONTINUOUS
 62
       3
100
AcDbLine
 10
-82.18497993
 20
-28.72000093
 30
0.0
 11
-80.98497917
 21
-28.72000093
 31
0.0
  0
LINE
  5
12A
100
AcDbEntity
  8
SLD-0
  6
CONTINUOUS
 62
       3
100
AcDbLine
 10
-80.98497917
 20
-28.72000093
 30
0.0
 11
-80.98497917
 21
-24.44000093
 31
0.0
  0
LINE
  5
12B
100
AcDbEntity
  8
SLD-0
  6
CONTINUOUS
 62
       3
100
AcDbLine
 10
-80.98497917
 20
-24.44000093
 30
0.0
 11
-82.18497993
 21
-24.44000093
 31
0.0
  0
LINE
  5
12C
100
AcDbEntity
  8
SLD-0
  6
CONTINUOUS
 62
       3
100
AcDbLine
 10
-82.18497993
 20
-19.36000044
 30
0.0
 11
-82.18497993
 21
-23.64000136
 31
0.0
  0
LINE
  5
12D
100
AcDbEntity
  8
SLD-0
  6
CONTINUOUS
 62
       3
100
AcDbLine
 10
-82.18497993
 20
-23.64000136
 30
0.0
 11
-80.98497917
 21
-23.64000136
 31
0.0
  0
LINE
  5
12E
100
AcDbEntity
  8
SLD-0
  6
CONTINUOUS
 62
       3
100
AcDbLine
 10
-80.98497917
 20
-19.36000044
 30
0.0
 11
-82.18497993
 21
-19.36000044
 31
0.0
  0
LINE
  5
12F
100
AcDbEntity
  8
SLD-0
  6
CONTINUOUS
 62
       3
100
AcDbLine
 10
-80.98497917
 20
-23.64000136
 30
0.0
 11
-80.98497917
 21
-19.36000044
 31
0.0
  0
LINE
  5
130
100
AcDbEntity
  8
SLD-0
  6
CONTINUOUS
 62
       3
100
AcDbLine
 10
-80.98497917
 20
-33.30000134
 30
0.0
 11
-80.48498002
 21
-33.30000134
 31
0.0
  0
LINE
  5
131
100
AcDbEntity
  8
SLD-0
  6
CONTINUOUS
 62
       3
100
AcDbLine
 10
-82.9849795
 20
-33.30000134
 30
0.0
 11
-82.18497993
 21
-33.30000134
 31
0.0
  0
LINE
  5
132
100
AcDbEntity
  8
SLD-0
  6
CONTINUOUS
 62
       3
100
AcDbLine
 10
-80.98497917
 20
-29.52000143
 30
0.0
 11
-82.18497993
 21
-29.52000143
 31
0.0
  0
LINE
  5
133
100
AcDbEntity
  8
SLD-0
  6
CONTINUOUS
 62
       3
100
AcDbLine
 10
-82.18497993
 20
-24.44000093
 30
0.0
 11
-82.18497993
 21
-28.72000093
 31
0.0
  0
LINE
  5
134
100
AcDbEntity
  8
SLD-0
  6
CONTINUOUS
 62
       3
100
AcDbLine
 10
-82.18497993
 20
-33.30000134
 30
0.0
 11
-80.98497917
 21
-33.30000134
 31
0.0
  0
LINE
  5
135
100
AcDbEntity
  8
SLD-0
  6
CONTINUOUS
 62
       3
100
AcDbLine
 10
-130.68390009
 20
29.99999916
 30
0.0
 11
-130.64647955
 21
29.99999916
 31
0.0
  0
LINE
  5
136
100
AcDbEntity
  8
SLD-0
  6
CONTINUOUS
 62
       3
100
AcDbLine
 10
-130.88498009
 20
30.85435724
 30
0.0
 11
-130.88498009
 21
31.5000022
 31
0.0
  0
LINE
  5
137
100
AcDbEntity
  8
SLD-0
  6
CONTINUOUS
 62
       3
100
AcDbLine
 10
-130.88498009
 20
32.49999678
 30
0.0
 11
-130.88498009
 21
33.14564174
 31
0.0
  0
LINE
  5
138
100
AcDbEntity
  8
SLD-0
  6
CONTINUOUS
 62
       3
100
AcDbLine
 10
-128.88497976
 20
31.99999576
 30
0.0
 11
-128.88497976
 21
34.74999761
 31
0.0
  0
LINE
  5
139
100
AcDbEntity
  8
SLD-0
  6
CONTINUOUS
 62
       3
100
AcDbLine
 10
-128.88497976
 20
29.25000136
 30
0.0
 11
-128.88497976
 21
31.99999576
 31
0.0
  0
LINE
  5
13A
100
AcDbEntity
  8
SLD-0
  6
CONTINUOUS
 62
       3
100
AcDbLine
 10
-59.28497878
 20
33.14564174
 30
0.0
 11
-59.28497878
 21
32.49999678
 31
0.0
  0
LINE
  5
13B
100
AcDbEntity
  8
SLD-0
  6
CONTINUOUS
 62
       3
100
AcDbLine
 10
-59.28497878
 20
31.5000022
 30
0.0
 11
-59.28497878
 21
30.85435724
 31
0.0
  0
LINE
  5
13C
100
AcDbEntity
  8
SLD-0
  6
CONTINUOUS
 62
       3
100
AcDbLine
 10
-59.48605878
 20
33.99999982
 30
0.0
 11
-59.52347932
 21
33.99999982
 31
0.0
  0
LINE
  5
13D
100
AcDbEntity
  8
SLD-0
  6
CONTINUOUS
 62
       3
100
AcDbLine
 10
-61.28497911
 20
34.74999761
 30
0.0
 11
-61.28497911
 21
29.25000136
 31
0.0
  0
LINE
  5
13E
100
AcDbEntity
  8
SLD-0
  6
CONTINUOUS
 62
       3
100
AcDbLine
 10
-59.28497878
 20
-33.85435714
 30
0.0
 11
-59.28497878
 21
-34.50000117
 31
0.0
  0
LINE
  5
13F
100
AcDbEntity
  8
SLD-0
  6
CONTINUOUS
 62
       3
100
AcDbLine
 10
-59.28497878
 20
-35.50000133
 30
0.0
 11
-59.28497878
 21
-36.14564513
 31
0.0
  0
LINE
  5
140
100
AcDbEntity
  8
SLD-0
  6
CONTINUOUS
 62
       3
100
AcDbLine
 10
-59.48605878
 20
-33.00000092
 30
0.0
 11
-59.52347932
 21
-33.00000092
 31
0.0
  0
LINE
  5
141
100
AcDbEntity
  8
SLD-0
  6
CONTINUOUS
 62
       3
100
AcDbLine
 10
-61.28497911
 20
-32.25000127
 30
0.0
 11
-61.28497911
 21
-37.75000124
 31
0.0
  0
LINE
  5
142
100
AcDbEntity
  8
SLD-0
  6
CONTINUOUS
 62
       3
100
AcDbLine
 10
-130.68390009
 20
-37.00000111
 30
0.0
 11
-130.64647955
 21
-37.00000111
 31
0.0
  0
LINE
  5
143
100
AcDbEntity
  8
SLD-0
  6
CONTINUOUS
 62
       3
100
AcDbLine
 10
-130.88498009
 20
-36.14564513
 30
0.0
 11
-130.88498009
 21
-35.50000133
 31
0.0
  0
LINE
  5
144
100
AcDbEntity
  8
SLD-0
  6
CONTINUOUS
 62
       3
100
AcDbLine
 10
-130.88498009
 20
-34.50000117
 30
0.0
 11
-130.88498009
 21
-33.85435714
 31
0.0
  0
LINE
  5
145
100
AcDbEntity
  8
SLD-0
  6
CONTINUOUS
 62
       3
100
AcDbLine
 10
-128.88497976
 20
-35.00000115
 30
0.0
 11
-128.88497976
 21
-32.25000117
 31
0.0
  0
LINE
  5
146
100
AcDbEntity
  8
SLD-0
  6
CONTINUOUS
 62
       3
100
AcDbLine
 10
-128.88497976
 20
-37.75000114
 30
0.0
 11
-128.88497976
 21
-35.00000115
 31
0.0
  0
LINE
  5
147
100
AcDbEntity
  8
SLD-0
  6
CONTINUOUS
 62
       3
100
AcDbLine
 10
-128.08498112
 20
34.90000015
 30
0.0
 11
-128.08498112
 21
29.09999883
 31
0.0
  0
LINE
  5
148
100
AcDbEntity
  8
SLD-0
  6
CONTINUOUS
 62
       3
100
AcDbLine
 10
-128.08498112
 20
-32.10000152
 30
0.0
 11
-128.08498112
 21
-37.90000121
 31
0.0
  0
LINE
  5
149
100
AcDbEntity
  8
SLD-0
  6
CONTINUOUS
 62
       3
100
AcDbLine
 10
-62.08497775
 20
-35.00000125
 30
0.0
 11
-62.08497775
 21
-32.10000152
 31
0.0
  0
LINE
  5
14A
100
AcDbEntity
  8
SLD-0
  6
CONTINUOUS
 62
       3
100
AcDbLine
 10
-62.08497775
 20
-37.90000121
 30
0.0
 11
-62.08497775
 21
-35.00000125
 31
0.0
  0
LINE
  5
14B
100
AcDbEntity
  8
SLD-0
  6
CONTINUOUS
 62
       3
100
AcDbLine
 10
-62.08497775
 20
31.99999576
 30
0.0
 11
-62.08497775
 21
34.90000015
 31
0.0
  0
LINE
  5
14C
100
AcDbEntity
  8
SLD-0
  6
CONTINUOUS
 62
       3
100
AcDbLine
 10
-62.08497775
 20
29.09999883
 30
0.0
 11
-62.08497775
 21
31.99999576
 31
0.0
  0
LINE
  5
14D
100
AcDbEntity
  8
SLD-0
  6
CONTINUOUS
 62
       3
100
AcDbLine
 10
-127.7849782
 20
-40.00000114
 30
0.0
 11
-127.7849782
 21
-38.00000104
 31
0.0
  0
LINE
  5
14E
100
AcDbEntity
  8
SLD-0
  6
CONTINUOUS
 62
       3
100
AcDbLine
 10
-52.98497592
 20
-40.00000114
 30
0.0
 11
-136.98497804
 21
-40.00000114
 31
0.0
  0
LINE
  5
14F
100
AcDbEntity
  8
SLD-0
  6
CONTINUOUS
 62
       3
100
AcDbLine
 10
-62.18497576
 20
-38.00000104
 30
0.0
 11
-62.18497576
 21
-40.00000114
 31
0.0
  0
LINE
  5
150
100
AcDbEntity
  8
SLD-0
  6
CONTINUOUS
 62
       3
100
AcDbLine
 10
-126.38497842
 20
38.79999729
 30
0.0
 11
-63.5849796
 21
38.80000043
 31
0.0
  0
LINE
  5
151
100
AcDbEntity
  8
SLD-0
  6
CONTINUOUS
 62
       3
100
AcDbLine
 10
-62.18497576
 20
38.79999573
 30
0.0
 11
-62.18497576
 21
-38.00000104
 31
0.0
  0
LINE
  5
152
100
AcDbEntity
  8
SLD-0
  6
CONTINUOUS
 62
       3
100
AcDbLine
 10
-63.38497815
 20
38.59999886
 30
0.0
 11
-63.38497972
 21
-40.00000114
 31
0.0
  0
LINE
  5
153
100
AcDbEntity
  8
SLD-0
  6
CONTINUOUS
 62
       3
100
AcDbLine
 10
-126.58497545
 20
40.00000008
 30
0.0
 11
-63.38497851
 21
40.00000008
 31
0.0
  0
LINE
  5
154
100
AcDbEntity
  8
SLD-0
  6
CONTINUOUS
 62
       3
100
AcDbLine
 10
-127.7849782
 20
-38.00000104
 30
0.0
 11
-127.7849782
 21
38.79999573
 31
0.0
  0
LINE
  5
155
100
AcDbEntity
  8
SLD-0
  6
CONTINUOUS
 62
       3
100
AcDbLine
 10
-126.58497647
 20
-40.00000114
 30
0.0
 11
-126.58497804
 21
38.59999886
 31
0.0
  0
LINE
  5
156
100
AcDbEntity
  8
SLD-0
  6
CONTINUOUS
 62
       3
100
AcDbLine
 10
-61.9849761
 20
-40.00000114
 30
0.0
 11
-62.18497576
 21
-40.00000114
 31
0.0
  0
LINE
  5
157
100
AcDbEntity
  8
SLD-0
  6
CONTINUOUS
 62
       3
100
AcDbLine
 10
-138.98497804
 20
36.39999574
 30
0.0
 11
-138.98497804
 21
-38.00000114
 31
0.0
  0
LINE
  5
158
100
AcDbEntity
  8
SLD-0
  6
CONTINUOUS
 62
       3
100
AcDbLine
 10
-133.4849794
 20
25.09999817
 30
0.0
 11
-132.48498109
 21
25.09999817
 31
0.0
  0
LINE
  5
159
100
AcDbEntity
  8
SLD-0
  6
CONTINUOUS
 62
       3
100
AcDbLine
 10
-132.48498109
 20
-29.10000103
 30
0.0
 11
-133.4849794
 21
-29.10000103
 31
0.0
  0
LINE
  5
15A
100
AcDbEntity
  8
SLD-0
  6
CONTINUOUS
 62
       3
100
AcDbLine
 10
-133.4849796
 20
-24.90000114
 30
0.0
 11
-132.48498109
 21
-24.90000071
 31
0.0
  0
LINE
  5
15B
100
AcDbEntity
  8
SLD-0
  6
CONTINUOUS
 62
       3
100
AcDbLine
 10
-132.4849796
 20
20.89999886
 30
0.0
 11
-133.4849796
 21
20.89999886
 31
0.0
  0
LINE
  5
15C
100
AcDbEntity
  8
SLD-0
  6
CONTINUOUS
 62
       3
100
AcDbLine
 10
-127.7849782
 20
38.39999969
 30
0.0
 11
-136.98497816
 21
38.39999874
 31
0.0
  0
LINE
  5
15D
100
AcDbEntity
  8
SLD-0
  6
CONTINUOUS
 62
       3
100
AcDbLine
 10
-50.98497604
 20
36.39999874
 30
0.0
 11
-50.98497604
 21
-38.00000116
 31
0.0
  0
LINE
  5
15E
100
AcDbEntity
  8
SLD-0
  6
CONTINUOUS
 62
       3
100
AcDbLine
 10
-56.48497981
 20
-29.10000103
 30
0.0
 11
-57.48497811
 21
-29.10000103
 31
0.0
  0
LINE
  5
15F
100
AcDbEntity
  8
SLD-0
  6
CONTINUOUS
 62
       3
100
AcDbLine
 10
-57.4849796
 20
-24.90000114
 30
0.0
 11
-56.48497981
 21
-24.90000071
 31
0.0
  0
LINE
  5
160
100
AcDbEntity
  8
SLD-0
  6
CONTINUOUS
 62
       3
100
AcDbLine
 10
-56.4849796
 20
20.89999886
 30
0.0
 11
-57.48497811
 21
20.89999785
 31
0.0
  0
LINE
  5
161
100
AcDbEntity
  8
SLD-0
  6
CONTINUOUS
 62
       3
100
AcDbLine
 10
-57.4849796
 20
25.09999886
 30
0.0
 11
-56.4849796
 21
25.09999886
 31
0.0
  0
LINE
  5
162
100
AcDbEntity
  8
SLD-0
  6
CONTINUOUS
 62
       3
100
AcDbLine
 10
-62.18497576
 20
38.39999969
 30
0.0
 11
-52.98497604
 21
38.39999874
 31
0.0
  0
LINE
  5
163
100
AcDbEntity
  8
SLD-0
  6
CONTINUOUS
 62
       3
100
AcDbLine
 10
-83.78498
 20
-33.80000096
 30
0.0
 11
-80.48498002
 21
-33.80000096
 31
0.0
  0
LINE
  5
164
100
AcDbEntity
  8
SLD-0
  6
CONTINUOUS
 62
       3
100
AcDbLine
 10
-72.38497888
 20
-34.50000117
 30
0.0
 11
-72.38497888
 21
-17.90000143
 31
0.0
  0
LINE
  5
165
100
AcDbEntity
  8
SLD-0
  6
CONTINUOUS
 62
       3
100
AcDbLine
 10
-72.38497888
 20
-17.90000143
 30
0.0
 11
-83.78498
 21
-17.90000143
 31
0.0
  0
LINE
  5
166
100
AcDbEntity
  8
SLD-0
  6
CONTINUOUS
 62
       3
100
AcDbLine
 10
-83.78498
 20
-17.90000143
 30
0.0
 11
-83.78498
 21
-34.50000117
 31
0.0
  0
LINE
  5
167
100
AcDbEntity
  8
SLD-0
  6
CONTINUOUS
 62
       3
100
AcDbLine
 10
-83.78498
 20
-34.50000117
 30
0.0
 11
-72.38497888
 21
-34.50000117
 31
0.0
  0
LINE
  5
168
100
AcDbEntity
  8
SLD-0
  6
CONTINUOUS
 62
       3
100
AcDbLine
 10
138.98497804
 20
40.00000114
 30
0.0
 11
138.98497804
 21
-40.00000114
 31
0.0
  0
LINE
  5
169
100
AcDbEntity
  8
SLD-0
  6
CONTINUOUS
 62
       3
100
AcDbLine
 10
137.98497974
 20
-40.00000114
 30
0.0
 11
137.98497974
 21
40.00000114
 31
0.0
  0
LINE
  5
16A
100
AcDbEntity
  8
SLD-0
  6
CONTINUOUS
 62
       3
100
AcDbLine
 10
21.98497869
 20
40.00000114
 30
0.0
 11
21.98497869
 21
-38.00000114
 31
0.0
  0
LINE
  5
16B
100
AcDbEntity
  8
SLD-0
  6
CONTINUOUS
 62
       3
100
AcDbLine
 10
23.98497869
 20
-40.00000114
 30
0.0
 11
138.98497804
 21
-40.00000114
 31
0.0
  0
LINE
  5
16C
100
AcDbEntity
  8
SLD-0
  6
CONTINUOUS
 62
       3
100
AcDbLine
 10
21.98497869
 20
40.00000114
 30
0.0
 11
138.98497804
 21
40.00000114
 31
0.0
  0
LINE
  5
16D
100
AcDbEntity
  8
SLD-0
  6
CONTINUOUS
 62
       3
100
AcDbLine
 10
-130.64647955
 20
29.99999916
 30
0.0
 11
-130.66049139
 21
30.02654868
 31
0.0
  0
LINE
  5
16E
100
AcDbEntity
  8
SLD-0
  6
CONTINUOUS
 62
       3
100
AcDbLine
 10
-130.66049139
 20
30.02654868
 30
0.0
 11
-130.67445009
 21
30.05311933
 31
0.0
  0
LINE
  5
16F
100
AcDbEntity
  8
SLD-0
  6
CONTINUOUS
 62
       3
100
AcDbLine
 10
-130.67445009
 20
30.05311933
 30
0.0
 11
-130.68830252
 21
30.07973224
 31
0.0
  0
LINE
  5
170
100
AcDbEntity
  8
SLD-0
  6
CONTINUOUS
 62
       3
100
AcDbLine
 10
-130.68830252
 20
30.07973224
 30
0.0
 11
-130.70199554
 21
30.10640855
 31
0.0
  0
LINE
  5
171
100
AcDbEntity
  8
SLD-0
  6
CONTINUOUS
 62
       3
100
AcDbLine
 10
-130.70199554
 20
30.10640855
 30
0.0
 11
-130.715476
 21
30.1331694
 31
0.0
  0
LINE
  5
172
100
AcDbEntity
  8
SLD-0
  6
CONTINUOUS
 62
       3
100
AcDbLine
 10
-130.715476
 20
30.1331694
 30
0.0
 11
-130.72869079
 21
30.1600359
 31
0.0
  0
LINE
  5
173
100
AcDbEntity
  8
SLD-0
  6
CONTINUOUS
 62
       3
100
AcDbLine
 10
-130.72869079
 20
30.1600359
 30
0.0
 11
-130.74158675
 21
30.1870292
 31
0.0
  0
LINE
  5
174
100
AcDbEntity
  8
SLD-0
  6
CONTINUOUS
 62
       3
100
AcDbLine
 10
-130.74158675
 20
30.1870292
 30
0.0
 11
-130.75411075
 21
30.21417043
 31
0.0
  0
LINE
  5
175
100
AcDbEntity
  8
SLD-0
  6
CONTINUOUS
 62
       3
100
AcDbLine
 10
-130.75411075
 20
30.21417043
 30
0.0
 11
-130.76620966
 21
30.24148072
 31
0.0
  0
LINE
  5
176
100
AcDbEntity
  8
SLD-0
  6
CONTINUOUS
 62
       3
100
AcDbLine
 10
-130.76620966
 20
30.24148072
 30
0.0
 11
-130.77783033
 21
30.26898121
 31
0.0
  0
LINE
  5
177
100
AcDbEntity
  8
SLD-0
  6
CONTINUOUS
 62
       3
100
AcDbLine
 10
-130.77783033
 20
30.26898121
 30
0.0
 11
-130.78891963
 21
30.29669302
 31
0.0
  0
LINE
  5
178
100
AcDbEntity
  8
SLD-0
  6
CONTINUOUS
 62
       3
100
AcDbLine
 10
-130.78891963
 20
30.29669302
 30
0.0
 11
-130.79942442
 21
30.32463728
 31
0.0
  0
LINE
  5
179
100
AcDbEntity
  8
SLD-0
  6
CONTINUOUS
 62
       3
100
AcDbLine
 10
-130.79942442
 20
30.32463728
 30
0.0
 11
-130.80929286
 21
30.35283426
 31
0.0
  0
LINE
  5
17A
100
AcDbEntity
  8
SLD-0
  6
CONTINUOUS
 62
       3
100
AcDbLine
 10
-130.80929286
 20
30.35283426
 30
0.0
 11
-130.81850252
 21
30.38128406
 31
0.0
  0
LINE
  5
17B
100
AcDbEntity
  8
SLD-0
  6
CONTINUOUS
 62
       3
100
AcDbLine
 10
-130.81850252
 20
30.38128406
 30
0.0
 11
-130.82706039
 21
30.40996666
 31
0.0
  0
LINE
  5
17C
100
AcDbEntity
  8
SLD-0
  6
CONTINUOUS
 62
       3
100
AcDbLine
 10
-130.82706039
 20
30.40996666
 30
0.0
 11
-130.83497474
 21
30.43886117
 31
0.0
  0
LINE
  5
17D
100
AcDbEntity
  8
SLD-0
  6
CONTINUOUS
 62
       3
100
AcDbLine
 10
-130.83497474
 20
30.43886117
 30
0.0
 11
-130.84225382
 21
30.46794671
 31
0.0
  0
LINE
  5
17E
100
AcDbEntity
  8
SLD-0
  6
CONTINUOUS
 62
       3
100
AcDbLine
 10
-130.84225382
 20
30.46794671
 30
0.0
 11
-130.8489059
 21
30.49720239
 31
0.0
  0
LINE
  5
17F
100
AcDbEntity
  8
SLD-0
  6
CONTINUOUS
 62
       3
100
AcDbLine
 10
-130.8489059
 20
30.49720239
 30
0.0
 11
-130.85493924
 21
30.52660731
 31
0.0
  0
LINE
  5
180
100
AcDbEntity
  8
SLD-0
  6
CONTINUOUS
 62
       3
100
AcDbLine
 10
-130.85493924
 20
30.52660731
 30
0.0
 11
-130.86036209
 21
30.5561406
 31
0.0
  0
LINE
  5
181
100
AcDbEntity
  8
SLD-0
  6
CONTINUOUS
 62
       3
100
AcDbLine
 10
-130.86036209
 20
30.5561406
 30
0.0
 11
-130.86518273
 21
30.58578136
 31
0.0
  0
LINE
  5
182
100
AcDbEntity
  8
SLD-0
  6
CONTINUOUS
 62
       3
100
AcDbLine
 10
-130.86518273
 20
30.58578136
 30
0.0
 11
-130.86940941
 21
30.6155087
 31
0.0
  0
LINE
  5
183
100
AcDbEntity
  8
SLD-0
  6
CONTINUOUS
 62
       3
100
AcDbLine
 10
-130.86940941
 20
30.6155087
 30
0.0
 11
-130.87305039
 21
30.64530174
 31
0.0
  0
LINE
  5
184
100
AcDbEntity
  8
SLD-0
  6
CONTINUOUS
 62
       3
100
AcDbLine
 10
-130.87305039
 20
30.64530174
 30
0.0
 11
-130.87611394
 21
30.6751396
 31
0.0
  0
LINE
  5
185
100
AcDbEntity
  8
SLD-0
  6
CONTINUOUS
 62
       3
100
AcDbLine
 10
-130.87611394
 20
30.6751396
 30
0.0
 11
-130.87860831
 21
30.70500137
 31
0.0
  0
LINE
  5
186
100
AcDbEntity
  8
SLD-0
  6
CONTINUOUS
 62
       3
100
AcDbLine
 10
-130.87860831
 20
30.70500137
 30
0.0
 11
-130.88055817
 21
30.73486937
 31
0.0
  0
LINE
  5
187
100
AcDbEntity
  8
SLD-0
  6
CONTINUOUS
 62
       3
100
AcDbLine
 10
-130.88055817
 20
30.73486937
 30
0.0
 11
-130.8820577
 21
30.76473949
 31
0.0
  0
LINE
  5
188
100
AcDbEntity
  8
SLD-0
  6
CONTINUOUS
 62
       3
100
AcDbLine
 10
-130.8820577
 20
30.76473949
 30
0.0
 11
-130.88321947
 21
30.79461119
 31
0.0
  0
LINE
  5
189
100
AcDbEntity
  8
SLD-0
  6
CONTINUOUS
 62
       3
100
AcDbLine
 10
-130.88321947
 20
30.79461119
 30
0.0
 11
-130.88415607
 21
30.82448395
 31
0.0
  0
LINE
  5
18A
100
AcDbEntity
  8
SLD-0
  6
CONTINUOUS
 62
       3
100
AcDbLine
 10
-130.88415607
 20
30.82448395
 30
0.0
 11
-130.88498009
 21
30.85435724
 31
0.0
  0
LINE
  5
18B
100
AcDbEntity
  8
SLD-0
  6
CONTINUOUS
 62
       3
100
AcDbLine
 10
-130.88324323
 20
31.5000022
 30
0.0
 11
-130.88208673
 21
31.5000022
 31
0.0
  0
LINE
  5
18C
100
AcDbEntity
  8
SLD-0
  6
CONTINUOUS
 62
       3
100
AcDbLine
 10
-130.87862147
 20
31.5000022
 30
0.0
 11
-130.87610215
 21
31.5000022
 31
0.0
  0
LINE
  5
18D
100
AcDbEntity
  8
SLD-0
  6
CONTINUOUS
 62
       3
100
AcDbLine
 10
-130.87610215
 20
31.5000022
 30
0.0
 11
-130.87300778
 21
31.5000022
 31
0.0
  0
LINE
  5
18E
100
AcDbEntity
  8
SLD-0
  6
CONTINUOUS
 62
       3
100
AcDbLine
 10
-130.87300778
 20
31.5000022
 30
0.0
 11
-130.86933793
 21
31.5000022
 31
0.0
  0
LINE
  5
18F
100
AcDbEntity
  8
SLD-0
  6
CONTINUOUS
 62
       3
100
AcDbLine
 10
-130.86933793
 20
31.5000022
 30
0.0
 11
-130.86509219
 21
31.5000022
 31
0.0
  0
LINE
  5
190
100
AcDbEntity
  8
SLD-0
  6
CONTINUOUS
 62
       3
100
AcDbLine
 10
-130.86509219
 20
31.5000022
 30
0.0
 11
-130.86027013
 21
31.5000022
 31
0.0
  0
LINE
  5
191
100
AcDbEntity
  8
SLD-0
  6
CONTINUOUS
 62
       3
100
AcDbLine
 10
-130.86027013
 20
31.5000022
 30
0.0
 11
-130.85487133
 21
31.5000022
 31
0.0
  0
LINE
  5
192
100
AcDbEntity
  8
SLD-0
  6
CONTINUOUS
 62
       3
100
AcDbLine
 10
-130.85487133
 20
31.5000022
 30
0.0
 11
-130.84889535
 21
31.5000022
 31
0.0
  0
LINE
  5
193
100
AcDbEntity
  8
SLD-0
  6
CONTINUOUS
 62
       3
100
AcDbLine
 10
-130.84889535
 20
31.5000022
 30
0.0
 11
-130.84234177
 21
31.5000022
 31
0.0
  0
LINE
  5
194
100
AcDbEntity
  8
SLD-0
  6
CONTINUOUS
 62
       3
100
AcDbLine
 10
-130.84234177
 20
31.5000022
 30
0.0
 11
-130.83521018
 21
31.5000022
 31
0.0
  0
LINE
  5
195
100
AcDbEntity
  8
SLD-0
  6
CONTINUOUS
 62
       3
100
AcDbLine
 10
-130.83521018
 20
31.5000022
 30
0.0
 11
-130.82750014
 21
31.5000022
 31
0.0
  0
LINE
  5
196
100
AcDbEntity
  8
SLD-0
  6
CONTINUOUS
 62
       3
100
AcDbLine
 10
-130.82750014
 20
31.5000022
 30
0.0
 11
-130.81921123
 21
31.5000022
 31
0.0
  0
LINE
  5
197
100
AcDbEntity
  8
SLD-0
  6
CONTINUOUS
 62
       3
100
AcDbLine
 10
-130.81921123
 20
31.5000022
 30
0.0
 11
-130.81034302
 21
31.5000022
 31
0.0
  0
LINE
  5
198
100
AcDbEntity
  8
SLD-0
  6
CONTINUOUS
 62
       3
100
AcDbLine
 10
-130.81034302
 20
31.5000022
 30
0.0
 11
-130.8008951
 21
31.5000022
 31
0.0
  0
LINE
  5
199
100
AcDbEntity
  8
SLD-0
  6
CONTINUOUS
 62
       3
100
AcDbLine
 10
-130.8008951
 20
31.5000022
 30
0.0
 11
-130.79086703
 21
31.5000022
 31
0.0
  0
LINE
  5
19A
100
AcDbEntity
  8
SLD-0
  6
CONTINUOUS
 62
       3
100
AcDbLine
 10
-130.79086703
 20
31.5000022
 30
0.0
 11
-130.78025839
 21
31.5000022
 31
0.0
  0
LINE
  5
19B
100
AcDbEntity
  8
SLD-0
  6
CONTINUOUS
 62
       3
100
AcDbLine
 10
-130.78025839
 20
31.5000022
 30
0.0
 11
-130.76906876
 21
31.5000022
 31
0.0
  0
LINE
  5
19C
100
AcDbEntity
  8
SLD-0
  6
CONTINUOUS
 62
       3
100
AcDbLine
 10
-130.76906876
 20
31.5000022
 30
0.0
 11
-130.75729771
 21
31.5000022
 31
0.0
  0
LINE
  5
19D
100
AcDbEntity
  8
SLD-0
  6
CONTINUOUS
 62
       3
100
AcDbLine
 10
-130.75729771
 20
31.5000022
 30
0.0
 11
-130.74494481
 21
31.5000022
 31
0.0
  0
LINE
  5
19E
100
AcDbEntity
  8
SLD-0
  6
CONTINUOUS
 62
       3
100
AcDbLine
 10
-130.74494481
 20
31.5000022
 30
0.0
 11
-130.73201395
 21
31.5000022
 31
0.0
  0
LINE
  5
19F
100
AcDbEntity
  8
SLD-0
  6
CONTINUOUS
 62
       3
100
AcDbLine
 10
-130.73201395
 20
31.5000022
 30
0.0
 11
-130.71855929
 21
31.5000022
 31
0.0
  0
LINE
  5
1A0
100
AcDbEntity
  8
SLD-0
  6
CONTINUOUS
 62
       3
100
AcDbLine
 10
-130.71855929
 20
31.5000022
 30
0.0
 11
-130.70466768
 21
31.5000022
 31
0.0
  0
LINE
  5
1A1
100
AcDbEntity
  8
SLD-0
  6
CONTINUOUS
 62
       3
100
AcDbLine
 10
-130.70466768
 20
31.5000022
 30
0.0
 11
-130.69042652
 21
31.5000022
 31
0.0
  0
LINE
  5
1A2
100
AcDbEntity
  8
SLD-0
  6
CONTINUOUS
 62
       3
100
AcDbLine
 10
-130.69042652
 20
31.5000022
 30
0.0
 11
-130.67592318
 21
31.5000022
 31
0.0
  0
LINE
  5
1A3
100
AcDbEntity
  8
SLD-0
  6
CONTINUOUS
 62
       3
100
AcDbLine
 10
-130.67592318
 20
31.5000022
 30
0.0
 11
-130.66124506
 21
31.5000022
 31
0.0
  0
LINE
  5
1A4
100
AcDbEntity
  8
SLD-0
  6
CONTINUOUS
 62
       3
100
AcDbLine
 10
-130.66124506
 20
31.5000022
 30
0.0
 11
-130.64647955
 21
31.5000022
 31
0.0
  0
LINE
  5
1A5
100
AcDbEntity
  8
SLD-0
  6
CONTINUOUS
 62
       3
100
AcDbLine
 10
-130.64647955
 20
31.5000022
 30
0.0
 11
-130.65102594
 21
31.53312817
 31
0.0
  0
LINE
  5
1A6
100
AcDbEntity
  8
SLD-0
  6
CONTINUOUS
 62
       3
100
AcDbLine
 10
-130.65102594
 20
31.53312817
 30
0.0
 11
-130.65549474
 21
31.56626486
 31
0.0
  0
LINE
  5
1A7
100
AcDbEntity
  8
SLD-0
  6
CONTINUOUS
 62
       3
100
AcDbLine
 10
-130.65549474
 20
31.56626486
 30
0.0
 11
-130.65980837
 21
31.59942297
 31
0.0
  0
LINE
  5
1A8
100
AcDbEntity
  8
SLD-0
  6
CONTINUOUS
 62
       3
100
AcDbLine
 10
-130.65980837
 20
31.59942297
 30
0.0
 11
-130.66388923
 21
31.63261321
 31
0.0
  0
LINE
  5
1A9
100
AcDbEntity
  8
SLD-0
  6
CONTINUOUS
 62
       3
100
AcDbLine
 10
-130.66388923
 20
31.63261321
 30
0.0
 11
-130.6676598
 21
31.66584628
 31
0.0
  0
LINE
  5
1AA
100
AcDbEntity
  8
SLD-0
  6
CONTINUOUS
 62
       3
100
AcDbLine
 10
-130.6676598
 20
31.66584628
 30
0.0
 11
-130.67106177
 21
31.69912829
 31
0.0
  0
LINE
  5
1AB
100
AcDbEntity
  8
SLD-0
  6
CONTINUOUS
 62
       3
100
AcDbLine
 10
-130.67106177
 20
31.69912829
 30
0.0
 11
-130.67408356
 21
31.73245419
 31
0.0
  0
LINE
  5
1AC
100
AcDbEntity
  8
SLD-0
  6
CONTINUOUS
 62
       3
100
AcDbLine
 10
-130.67408356
 20
31.73245419
 30
0.0
 11
-130.67672059
 21
31.76581723
 31
0.0
  0
LINE
  5
1AD
100
AcDbEntity
  8
SLD-0
  6
CONTINUOUS
 62
       3
100
AcDbLine
 10
-130.67672059
 20
31.76581723
 30
0.0
 11
-130.67896828
 21
31.79921071
 31
0.0
  0
LINE
  5
1AE
100
AcDbEntity
  8
SLD-0
  6
CONTINUOUS
 62
       3
100
AcDbLine
 10
-130.67896828
 20
31.79921071
 30
0.0
 11
-130.68082203
 21
31.83262789
 31
0.0
  0
LINE
  5
1AF
100
AcDbEntity
  8
SLD-0
  6
CONTINUOUS
 62
       3
100
AcDbLine
 10
-130.68082203
 20
31.83262789
 30
0.0
 11
-130.68227726
 21
31.86606205
 31
0.0
  0
LINE
  5
1B0
100
AcDbEntity
  8
SLD-0
  6
CONTINUOUS
 62
       3
100
AcDbLine
 10
-130.68227726
 20
31.86606205
 30
0.0
 11
-130.68332938
 21
31.89950647
 31
0.0
  0
LINE
  5
1B1
100
AcDbEntity
  8
SLD-0
  6
CONTINUOUS
 62
       3
100
AcDbLine
 10
-130.68332938
 20
31.89950647
 30
0.0
 11
-130.68397381
 21
31.93295441
 31
0.0
  0
LINE
  5
1B2
100
AcDbEntity
  8
SLD-0
  6
CONTINUOUS
 62
       3
100
AcDbLine
 10
-130.68397381
 20
31.93295441
 30
0.0
 11
-130.68420595
 21
31.96639916
 31
0.0
  0
LINE
  5
1B3
100
AcDbEntity
  8
SLD-0
  6
CONTINUOUS
 62
       3
100
AcDbLine
 10
-130.68420595
 20
31.96639916
 30
0.0
 11
-130.68402122
 21
31.99983398
 31
0.0
  0
LINE
  5
1B4
100
AcDbEntity
  8
SLD-0
  6
CONTINUOUS
 62
       3
100
AcDbLine
 10
-130.68402122
 20
31.99983398
 30
0.0
 11
-130.6834204
 21
32.03325344
 31
0.0
  0
LINE
  5
1B5
100
AcDbEntity
  8
SLD-0
  6
CONTINUOUS
 62
       3
100
AcDbLine
 10
-130.6834204
 20
32.03325344
 30
0.0
 11
-130.68242607
 21
32.06665732
 31
0.0
  0
LINE
  5
1B6
100
AcDbEntity
  8
SLD-0
  6
CONTINUOUS
 62
       3
100
AcDbLine
 10
-130.68242607
 20
32.06665732
 30
0.0
 11
-130.68106635
 21
32.10004675
 31
0.0
  0
LINE
  5
1B7
100
AcDbEntity
  8
SLD-0
  6
CONTINUOUS
 62
       3
100
AcDbLine
 10
-130.68106635
 20
32.10004675
 30
0.0
 11
-130.67936932
 21
32.13342283
 31
0.0
  0
LINE
  5
1B8
100
AcDbEntity
  8
SLD-0
  6
CONTINUOUS
 62
       3
100
AcDbLine
 10
-130.67936932
 20
32.13342283
 30
0.0
 11
-130.67736312
 21
32.16678666
 31
0.0
  0
LINE
  5
1B9
100
AcDbEntity
  8
SLD-0
  6
CONTINUOUS
 62
       3
100
AcDbLine
 10
-130.67736312
 20
32.16678666
 30
0.0
 11
-130.67507583
 21
32.20013938
 31
0.0
  0
LINE
  5
1BA
100
AcDbEntity
  8
SLD-0
  6
CONTINUOUS
 62
       3
100
AcDbLine
 10
-130.67507583
 20
32.20013938
 30
0.0
 11
-130.67253558
 21
32.23348208
 31
0.0
  0
LINE
  5
1BB
100
AcDbEntity
  8
SLD-0
  6
CONTINUOUS
 62
       3
100
AcDbLine
 10
-130.67253558
 20
32.23348208
 30
0.0
 11
-130.66977046
 21
32.26681589
 31
0.0
  0
LINE
  5
1BC
100
AcDbEntity
  8
SLD-0
  6
CONTINUOUS
 62
       3
100
AcDbLine
 10
-130.66977046
 20
32.26681589
 30
0.0
 11
-130.66680859
 21
32.3001419
 31
0.0
  0
LINE
  5
1BD
100
AcDbEntity
  8
SLD-0
  6
CONTINUOUS
 62
       3
100
AcDbLine
 10
-130.66680859
 20
32.3001419
 30
0.0
 11
-130.66367807
 21
32.33346125
 31
0.0
  0
LINE
  5
1BE
100
AcDbEntity
  8
SLD-0
  6
CONTINUOUS
 62
       3
100
AcDbLine
 10
-130.66367807
 20
32.33346125
 30
0.0
 11
-130.66040701
 21
32.36677503
 31
0.0
  0
LINE
  5
1BF
100
AcDbEntity
  8
SLD-0
  6
CONTINUOUS
 62
       3
100
AcDbLine
 10
-130.66040701
 20
32.36677503
 30
0.0
 11
-130.65702353
 21
32.40008436
 31
0.0
  0
LINE
  5
1C0
100
AcDbEntity
  8
SLD-0
  6
CONTINUOUS
 62
       3
100
AcDbLine
 10
-130.65702353
 20
32.40008436
 30
0.0
 11
-130.65355571
 21
32.43339035
 31
0.0
  0
LINE
  5
1C1
100
AcDbEntity
  8
SLD-0
  6
CONTINUOUS
 62
       3
100
AcDbLine
 10
-130.65355571
 20
32.43339035
 30
0.0
 11
-130.65003169
 21
32.46669412
 31
0.0
  0
LINE
  5
1C2
100
AcDbEntity
  8
SLD-0
  6
CONTINUOUS
 62
       3
100
AcDbLine
 10
-130.65003169
 20
32.46669412
 30
0.0
 11
-130.64647955
 21
32.49999678
 31
0.0
  0
LINE
  5
1C3
100
AcDbEntity
  8
SLD-0
  6
CONTINUOUS
 62
       3
100
AcDbLine
 10
-130.64647955
 20
32.49999678
 30
0.0
 11
-130.66049139
 21
32.49999678
 31
0.0
  0
LINE
  5
1C4
100
AcDbEntity
  8
SLD-0
  6
CONTINUOUS
 62
       3
100
AcDbLine
 10
-130.66049139
 20
32.49999678
 30
0.0
 11
-130.67445009
 21
32.49999678
 31
0.0
  0
LINE
  5
1C5
100
AcDbEntity
  8
SLD-0
  6
CONTINUOUS
 62
       3
100
AcDbLine
 10
-130.67445009
 20
32.49999678
 30
0.0
 11
-130.68830252
 21
32.49999678
 31
0.0
  0
LINE
  5
1C6
100
AcDbEntity
  8
SLD-0
  6
CONTINUOUS
 62
       3
100
AcDbLine
 10
-130.68830252
 20
32.49999678
 30
0.0
 11
-130.70199554
 21
32.49999678
 31
0.0
  0
LINE
  5
1C7
100
AcDbEntity
  8
SLD-0
  6
CONTINUOUS
 62
       3
100
AcDbLine
 10
-130.70199554
 20
32.49999678
 30
0.0
 11
-130.715476
 21
32.49999678
 31
0.0
  0
LINE
  5
1C8
100
AcDbEntity
  8
SLD-0
  6
CONTINUOUS
 62
       3
100
AcDbLine
 10
-130.715476
 20
32.49999678
 30
0.0
 11
-130.72869079
 21
32.49999678
 31
0.0
  0
LINE
  5
1C9
100
AcDbEntity
  8
SLD-0
  6
CONTINUOUS
 62
       3
100
AcDbLine
 10
-130.72869079
 20
32.49999678
 30
0.0
 11
-130.74158675
 21
32.49999678
 31
0.0
  0
LINE
  5
1CA
100
AcDbEntity
  8
SLD-0
  6
CONTINUOUS
 62
       3
100
AcDbLine
 10
-130.74158675
 20
32.49999678
 30
0.0
 11
-130.75411075
 21
32.49999678
 31
0.0
  0
LINE
  5
1CB
100
AcDbEntity
  8
SLD-0
  6
CONTINUOUS
 62
       3
100
AcDbLine
 10
-130.75411075
 20
32.49999678
 30
0.0
 11
-130.76620966
 21
32.49999678
 31
0.0
  0
LINE
  5
1CC
100
AcDbEntity
  8
SLD-0
  6
CONTINUOUS
 62
       3
100
AcDbLine
 10
-130.76620966
 20
32.49999678
 30
0.0
 11
-130.77783033
 21
32.49999678
 31
0.0
  0
LINE
  5
1CD
100
AcDbEntity
  8
SLD-0
  6
CONTINUOUS
 62
       3
100
AcDbLine
 10
-130.77783033
 20
32.49999678
 30
0.0
 11
-130.78891963
 21
32.49999678
 31
0.0
  0
LINE
  5
1CE
100
AcDbEntity
  8
SLD-0
  6
CONTINUOUS
 62
       3
100
AcDbLine
 10
-130.78891963
 20
32.49999678
 30
0.0
 11
-130.79942442
 21
32.49999678
 31
0.0
  0
LINE
  5
1CF
100
AcDbEntity
  8
SLD-0
  6
CONTINUOUS
 62
       3
100
AcDbLine
 10
-130.79942442
 20
32.49999678
 30
0.0
 11
-130.80929286
 21
32.49999678
 31
0.0
  0
LINE
  5
1D0
100
AcDbEntity
  8
SLD-0
  6
CONTINUOUS
 62
       3
100
AcDbLine
 10
-130.80929286
 20
32.49999678
 30
0.0
 11
-130.81850252
 21
32.49999678
 31
0.0
  0
LINE
  5
1D1
100
AcDbEntity
  8
SLD-0
  6
CONTINUOUS
 62
       3
100
AcDbLine
 10
-130.81850252
 20
32.49999678
 30
0.0
 11
-130.82706039
 21
32.49999678
 31
0.0
  0
LINE
  5
1D2
100
AcDbEntity
  8
SLD-0
  6
CONTINUOUS
 62
       3
100
AcDbLine
 10
-130.82706039
 20
32.49999678
 30
0.0
 11
-130.83497474
 21
32.49999678
 31
0.0
  0
LINE
  5
1D3
100
AcDbEntity
  8
SLD-0
  6
CONTINUOUS
 62
       3
100
AcDbLine
 10
-130.83497474
 20
32.49999678
 30
0.0
 11
-130.84225382
 21
32.49999678
 31
0.0
  0
LINE
  5
1D4
100
AcDbEntity
  8
SLD-0
  6
CONTINUOUS
 62
       3
100
AcDbLine
 10
-130.84225382
 20
32.49999678
 30
0.0
 11
-130.8489059
 21
32.49999678
 31
0.0
  0
LINE
  5
1D5
100
AcDbEntity
  8
SLD-0
  6
CONTINUOUS
 62
       3
100
AcDbLine
 10
-130.8489059
 20
32.49999678
 30
0.0
 11
-130.85493924
 21
32.49999678
 31
0.0
  0
LINE
  5
1D6
100
AcDbEntity
  8
SLD-0
  6
CONTINUOUS
 62
       3
100
AcDbLine
 10
-130.85493924
 20
32.49999678
 30
0.0
 11
-130.86036209
 21
32.49999678
 31
0.0
  0
LINE
  5
1D7
100
AcDbEntity
  8
SLD-0
  6
CONTINUOUS
 62
       3
100
AcDbLine
 10
-130.86036209
 20
32.49999678
 30
0.0
 11
-130.86518273
 21
32.49999678
 31
0.0
  0
LINE
  5
1D8
100
AcDbEntity
  8
SLD-0
  6
CONTINUOUS
 62
       3
100
AcDbLine
 10
-130.86518273
 20
32.49999678
 30
0.0
 11
-130.86940941
 21
32.49999678
 31
0.0
  0
LINE
  5
1D9
100
AcDbEntity
  8
SLD-0
  6
CONTINUOUS
 62
       3
100
AcDbLine
 10
-130.86940941
 20
32.49999678
 30
0.0
 11
-130.87305039
 21
32.49999678
 31
0.0
  0
LINE
  5
1DA
100
AcDbEntity
  8
SLD-0
  6
CONTINUOUS
 62
       3
100
AcDbLine
 10
-130.87305039
 20
32.49999678
 30
0.0
 11
-130.87611394
 21
32.49999678
 31
0.0
  0
LINE
  5
1DB
100
AcDbEntity
  8
SLD-0
  6
CONTINUOUS
 62
       3
100
AcDbLine
 10
-130.87611394
 20
32.49999678
 30
0.0
 11
-130.87860831
 21
32.49999678
 31
0.0
  0
LINE
  5
1DC
100
AcDbEntity
  8
SLD-0
  6
CONTINUOUS
 62
       3
100
AcDbLine
 10
-130.88055817
 20
32.49999678
 30
0.0
 11
-130.8820577
 21
32.49999678
 31
0.0
  0
LINE
  5
1DD
100
AcDbEntity
  8
SLD-0
  6
CONTINUOUS
 62
       3
100
AcDbLine
 10
-130.88321947
 20
32.49999678
 30
0.0
 11
-130.88415607
 21
32.49999678
 31
0.0
  0
LINE
  5
1DE
100
AcDbEntity
  8
SLD-0
  6
CONTINUOUS
 62
       3
100
AcDbLine
 10
-130.88498009
 20
33.14564174
 30
0.0
 11
-130.88416927
 21
33.17547455
 31
0.0
  0
LINE
  5
1DF
100
AcDbEntity
  8
SLD-0
  6
CONTINUOUS
 62
       3
100
AcDbLine
 10
-130.88416927
 20
33.17547455
 30
0.0
 11
-130.88324323
 21
33.20530785
 31
0.0
  0
LINE
  5
1E0
100
AcDbEntity
  8
SLD-0
  6
CONTINUOUS
 62
       3
100
AcDbLine
 10
-130.88324323
 20
33.20530785
 30
0.0
 11
-130.88208673
 21
33.23514211
 31
0.0
  0
LINE
  5
1E1
100
AcDbEntity
  8
SLD-0
  6
CONTINUOUS
 62
       3
100
AcDbLine
 10
-130.88208673
 20
33.23514211
 30
0.0
 11
-130.88058455
 21
33.26497782
 31
0.0
  0
LINE
  5
1E2
100
AcDbEntity
  8
SLD-0
  6
CONTINUOUS
 62
       3
100
AcDbLine
 10
-130.88058455
 20
33.26497782
 30
0.0
 11
-130.87862147
 21
33.29481546
 31
0.0
  0
LINE
  5
1E3
100
AcDbEntity
  8
SLD-0
  6
CONTINUOUS
 62
       3
100
AcDbLine
 10
-130.87862147
 20
33.29481546
 30
0.0
 11
-130.87610215
 21
33.32465246
 31
0.0
  0
LINE
  5
1E4
100
AcDbEntity
  8
SLD-0
  6
CONTINUOUS
 62
       3
100
AcDbLine
 10
-130.87610215
 20
33.32465246
 30
0.0
 11
-130.87300778
 21
33.3544745
 31
0.0
  0
LINE
  5
1E5
100
AcDbEntity
  8
SLD-0
  6
CONTINUOUS
 62
       3
100
AcDbLine
 10
-130.87300778
 20
33.3544745
 30
0.0
 11
-130.86933793
 21
33.38426446
 31
0.0
  0
LINE
  5
1E6
100
AcDbEntity
  8
SLD-0
  6
CONTINUOUS
 62
       3
100
AcDbLine
 10
-130.86933793
 20
33.38426446
 30
0.0
 11
-130.86509219
 21
33.41400519
 31
0.0
  0
LINE
  5
1E7
100
AcDbEntity
  8
SLD-0
  6
CONTINUOUS
 62
       3
100
AcDbLine
 10
-130.86509219
 20
33.41400519
 30
0.0
 11
-130.86027013
 21
33.44367957
 31
0.0
  0
LINE
  5
1E8
100
AcDbEntity
  8
SLD-0
  6
CONTINUOUS
 62
       3
100
AcDbLine
 10
-130.86027013
 20
33.44367957
 30
0.0
 11
-130.85487133
 21
33.47327046
 31
0.0
  0
LINE
  5
1E9
100
AcDbEntity
  8
SLD-0
  6
CONTINUOUS
 62
       3
100
AcDbLine
 10
-130.85487133
 20
33.47327046
 30
0.0
 11
-130.84889535
 21
33.50276072
 31
0.0
  0
LINE
  5
1EA
100
AcDbEntity
  8
SLD-0
  6
CONTINUOUS
 62
       3
100
AcDbLine
 10
-130.84889535
 20
33.50276072
 30
0.0
 11
-130.84234177
 21
33.53213322
 31
0.0
  0
LINE
  5
1EB
100
AcDbEntity
  8
SLD-0
  6
CONTINUOUS
 62
       3
100
AcDbLine
 10
-130.84234177
 20
33.53213322
 30
0.0
 11
-130.83521018
 21
33.56137082
 31
0.0
  0
LINE
  5
1EC
100
AcDbEntity
  8
SLD-0
  6
CONTINUOUS
 62
       3
100
AcDbLine
 10
-130.83521018
 20
33.56137082
 30
0.0
 11
-130.82750014
 21
33.59045639
 31
0.0
  0
LINE
  5
1ED
100
AcDbEntity
  8
SLD-0
  6
CONTINUOUS
 62
       3
100
AcDbLine
 10
-130.82750014
 20
33.59045639
 30
0.0
 11
-130.81921123
 21
33.6193728
 31
0.0
  0
LINE
  5
1EE
100
AcDbEntity
  8
SLD-0
  6
CONTINUOUS
 62
       3
100
AcDbLine
 10
-130.81921123
 20
33.6193728
 30
0.0
 11
-130.81034302
 21
33.64810292
 31
0.0
  0
LINE
  5
1EF
100
AcDbEntity
  8
SLD-0
  6
CONTINUOUS
 62
       3
100
AcDbLine
 10
-130.81034302
 20
33.64810292
 30
0.0
 11
-130.8008951
 21
33.67662959
 31
0.0
  0
LINE
  5
1F0
100
AcDbEntity
  8
SLD-0
  6
CONTINUOUS
 62
       3
100
AcDbLine
 10
-130.8008951
 20
33.67662959
 30
0.0
 11
-130.79086703
 21
33.7049357
 31
0.0
  0
LINE
  5
1F1
100
AcDbEntity
  8
SLD-0
  6
CONTINUOUS
 62
       3
100
AcDbLine
 10
-130.79086703
 20
33.7049357
 30
0.0
 11
-130.78025839
 21
33.73300411
 31
0.0
  0
LINE
  5
1F2
100
AcDbEntity
  8
SLD-0
  6
CONTINUOUS
 62
       3
100
AcDbLine
 10
-130.78025839
 20
33.73300411
 30
0.0
 11
-130.76906876
 21
33.76081768
 31
0.0
  0
LINE
  5
1F3
100
AcDbEntity
  8
SLD-0
  6
CONTINUOUS
 62
       3
100
AcDbLine
 10
-130.76906876
 20
33.76081768
 30
0.0
 11
-130.75729771
 21
33.78835928
 31
0.0
  0
LINE
  5
1F4
100
AcDbEntity
  8
SLD-0
  6
CONTINUOUS
 62
       3
100
AcDbLine
 10
-130.75729771
 20
33.78835928
 30
0.0
 11
-130.74494481
 21
33.81561178
 31
0.0
  0
LINE
  5
1F5
100
AcDbEntity
  8
SLD-0
  6
CONTINUOUS
 62
       3
100
AcDbLine
 10
-130.74494481
 20
33.81561178
 30
0.0
 11
-130.73201395
 21
33.84256116
 31
0.0
  0
LINE
  5
1F6
100
AcDbEntity
  8
SLD-0
  6
CONTINUOUS
 62
       3
100
AcDbLine
 10
-130.73201395
 20
33.84256116
 30
0.0
 11
-130.71855929
 21
33.86923006
 31
0.0
  0
LINE
  5
1F7
100
AcDbEntity
  8
SLD-0
  6
CONTINUOUS
 62
       3
100
AcDbLine
 10
-130.71855929
 20
33.86923006
 30
0.0
 11
-130.70466768
 21
33.89566489
 31
0.0
  0
LINE
  5
1F8
100
AcDbEntity
  8
SLD-0
  6
CONTINUOUS
 62
       3
100
AcDbLine
 10
-130.70466768
 20
33.89566489
 30
0.0
 11
-130.69042652
 21
33.92191247
 31
0.0
  0
LINE
  5
1F9
100
AcDbEntity
  8
SLD-0
  6
CONTINUOUS
 62
       3
100
AcDbLine
 10
-130.69042652
 20
33.92191247
 30
0.0
 11
-130.67592318
 21
33.94801961
 31
0.0
  0
LINE
  5
1FA
100
AcDbEntity
  8
SLD-0
  6
CONTINUOUS
 62
       3
100
AcDbLine
 10
-130.67592318
 20
33.94801961
 30
0.0
 11
-130.66124506
 21
33.97403312
 31
0.0
  0
LINE
  5
1FB
100
AcDbEntity
  8
SLD-0
  6
CONTINUOUS
 62
       3
100
AcDbLine
 10
-130.66124506
 20
33.97403312
 30
0.0
 11
-130.64647955
 21
33.99999982
 31
0.0
  0
LINE
  5
1FC
100
AcDbEntity
  8
SLD-0
  6
CONTINUOUS
 62
       3
100
AcDbLine
 10
-59.28671564
 20
32.49999678
 30
0.0
 11
-59.28787214
 21
32.49999678
 31
0.0
  0
LINE
  5
1FD
100
AcDbEntity
  8
SLD-0
  6
CONTINUOUS
 62
       3
100
AcDbLine
 10
-59.2913374
 20
32.49999678
 30
0.0
 11
-59.29385672
 21
32.49999678
 31
0.0
  0
LINE
  5
1FE
100
AcDbEntity
  8
SLD-0
  6
CONTINUOUS
 62
       3
100
AcDbLine
 10
-59.29385672
 20
32.49999678
 30
0.0
 11
-59.29695109
 21
32.49999678
 31
0.0
  0
LINE
  5
1FF
100
AcDbEntity
  8
SLD-0
  6
CONTINUOUS
 62
       3
100
AcDbLine
 10
-59.29695109
 20
32.49999678
 30
0.0
 11
-59.30062094
 21
32.49999678
 31
0.0
  0
LINE
  5
200
100
AcDbEntity
  8
SLD-0
  6
CONTINUOUS
 62
       3
100
AcDbLine
 10
-59.30062094
 20
32.49999678
 30
0.0
 11
-59.30486667
 21
32.49999678
 31
0.0
  0
LINE
  5
201
100
AcDbEntity
  8
SLD-0
  6
CONTINUOUS
 62
       3
100
AcDbLine
 10
-59.30486667
 20
32.49999678
 30
0.0
 11
-59.30968874
 21
32.49999678
 31
0.0
  0
LINE
  5
202
100
AcDbEntity
  8
SLD-0
  6
CONTINUOUS
 62
       3
100
AcDbLine
 10
-59.30968874
 20
32.49999678
 30
0.0
 11
-59.31508754
 21
32.49999678
 31
0.0
  0
LINE
  5
203
100
AcDbEntity
  8
SLD-0
  6
CONTINUOUS
 62
       3
100
AcDbLine
 10
-59.31508754
 20
32.49999678
 30
0.0
 11
-59.32106352
 21
32.49999678
 31
0.0
  0
LINE
  5
204
100
AcDbEntity
  8
SLD-0
  6
CONTINUOUS
 62
       3
100
AcDbLine
 10
-59.32106352
 20
32.49999678
 30
0.0
 11
-59.3276171
 21
32.49999678
 31
0.0
  0
LINE
  5
205
100
AcDbEntity
  8
SLD-0
  6
CONTINUOUS
 62
       3
100
AcDbLine
 10
-59.3276171
 20
32.49999678
 30
0.0
 11
-59.33474869
 21
32.49999678
 31
0.0
  0
LINE
  5
206
100
AcDbEntity
  8
SLD-0
  6
CONTINUOUS
 62
       3
100
AcDbLine
 10
-59.33474869
 20
32.49999678
 30
0.0
 11
-59.34245873
 21
32.49999678
 31
0.0
  0
LINE
  5
207
100
AcDbEntity
  8
SLD-0
  6
CONTINUOUS
 62
       3
100
AcDbLine
 10
-59.34245873
 20
32.49999678
 30
0.0
 11
-59.35074764
 21
32.49999678
 31
0.0
  0
LINE
  5
208
100
AcDbEntity
  8
SLD-0
  6
CONTINUOUS
 62
       3
100
AcDbLine
 10
-59.35074764
 20
32.49999678
 30
0.0
 11
-59.35961585
 21
32.49999678
 31
0.0
  0
LINE
  5
209
100
AcDbEntity
  8
SLD-0
  6
CONTINUOUS
 62
       3
100
AcDbLine
 10
-59.35961585
 20
32.49999678
 30
0.0
 11
-59.36906377
 21
32.49999678
 31
0.0
  0
LINE
  5
20A
100
AcDbEntity
  8
SLD-0
  6
CONTINUOUS
 62
       3
100
AcDbLine
 10
-59.36906377
 20
32.49999678
 30
0.0
 11
-59.37909184
 21
32.49999678
 31
0.0
  0
LINE
  5
20B
100
AcDbEntity
  8
SLD-0
  6
CONTINUOUS
 62
       3
100
AcDbLine
 10
-59.37909184
 20
32.49999678
 30
0.0
 11
-59.38970048
 21
32.49999678
 31
0.0
  0
LINE
  5
20C
100
AcDbEntity
  8
SLD-0
  6
CONTINUOUS
 62
       3
100
AcDbLine
 10
-59.38970048
 20
32.49999678
 30
0.0
 11
-59.40089011
 21
32.49999678
 31
0.0
  0
LINE
  5
20D
100
AcDbEntity
  8
SLD-0
  6
CONTINUOUS
 62
       3
100
AcDbLine
 10
-59.40089011
 20
32.49999678
 30
0.0
 11
-59.41266116
 21
32.49999678
 31
0.0
  0
LINE
  5
20E
100
AcDbEntity
  8
SLD-0
  6
CONTINUOUS
 62
       3
100
AcDbLine
 10
-59.41266116
 20
32.49999678
 30
0.0
 11
-59.42501406
 21
32.49999678
 31
0.0
  0
LINE
  5
20F
100
AcDbEntity
  8
SLD-0
  6
CONTINUOUS
 62
       3
100
AcDbLine
 10
-59.42501406
 20
32.49999678
 30
0.0
 11
-59.43794492
 21
32.49999678
 31
0.0
  0
LINE
  5
210
100
AcDbEntity
  8
SLD-0
  6
CONTINUOUS
 62
       3
100
AcDbLine
 10
-59.43794492
 20
32.49999678
 30
0.0
 11
-59.45139958
 21
32.49999678
 31
0.0
  0
LINE
  5
211
100
AcDbEntity
  8
SLD-0
  6
CONTINUOUS
 62
       3
100
AcDbLine
 10
-59.45139958
 20
32.49999678
 30
0.0
 11
-59.46529119
 21
32.49999678
 31
0.0
  0
LINE
  5
212
100
AcDbEntity
  8
SLD-0
  6
CONTINUOUS
 62
       3
100
AcDbLine
 10
-59.46529119
 20
32.49999678
 30
0.0
 11
-59.47953235
 21
32.49999678
 31
0.0
  0
LINE
  5
213
100
AcDbEntity
  8
SLD-0
  6
CONTINUOUS
 62
       3
100
AcDbLine
 10
-59.47953235
 20
32.49999678
 30
0.0
 11
-59.49403569
 21
32.49999678
 31
0.0
  0
LINE
  5
214
100
AcDbEntity
  8
SLD-0
  6
CONTINUOUS
 62
       3
100
AcDbLine
 10
-59.49403569
 20
32.49999678
 30
0.0
 11
-59.50871381
 21
32.49999678
 31
0.0
  0
LINE
  5
215
100
AcDbEntity
  8
SLD-0
  6
CONTINUOUS
 62
       3
100
AcDbLine
 10
-59.50871381
 20
32.49999678
 30
0.0
 11
-59.52347932
 21
32.49999678
 31
0.0
  0
LINE
  5
216
100
AcDbEntity
  8
SLD-0
  6
CONTINUOUS
 62
       3
100
AcDbLine
 10
-59.52347932
 20
32.49999678
 30
0.0
 11
-59.51893285
 21
32.46687082
 31
0.0
  0
LINE
  5
217
100
AcDbEntity
  8
SLD-0
  6
CONTINUOUS
 62
       3
100
AcDbLine
 10
-59.51893285
 20
32.46687082
 30
0.0
 11
-59.51446399
 21
32.43373415
 31
0.0
  0
LINE
  5
218
100
AcDbEntity
  8
SLD-0
  6
CONTINUOUS
 62
       3
100
AcDbLine
 10
-59.51446399
 20
32.43373415
 30
0.0
 11
-59.51015036
 21
32.40057606
 31
0.0
  0
LINE
  5
219
100
AcDbEntity
  8
SLD-0
  6
CONTINUOUS
 62
       3
100
AcDbLine
 10
-59.51015036
 20
32.40057606
 30
0.0
 11
-59.50606954
 21
32.36738583
 31
0.0
  0
LINE
  5
21A
100
AcDbEntity
  8
SLD-0
  6
CONTINUOUS
 62
       3
100
AcDbLine
 10
-59.50606954
 20
32.36738583
 30
0.0
 11
-59.50229911
 21
32.33415277
 31
0.0
  0
LINE
  5
21B
100
AcDbEntity
  8
SLD-0
  6
CONTINUOUS
 62
       3
100
AcDbLine
 10
-59.50229911
 20
32.33415277
 30
0.0
 11
-59.49889737
 21
32.30087076
 31
0.0
  0
LINE
  5
21C
100
AcDbEntity
  8
SLD-0
  6
CONTINUOUS
 62
       3
100
AcDbLine
 10
-59.49889737
 20
32.30087076
 30
0.0
 11
-59.4958759
 21
32.26754487
 31
0.0
  0
LINE
  5
21D
100
AcDbEntity
  8
SLD-0
  6
CONTINUOUS
 62
       3
100
AcDbLine
 10
-59.4958759
 20
32.26754487
 30
0.0
 11
-59.49323924
 21
32.23418182
 31
0.0
  0
LINE
  5
21E
100
AcDbEntity
  8
SLD-0
  6
CONTINUOUS
 62
       3
100
AcDbLine
 10
-59.49323924
 20
32.23418182
 30
0.0
 11
-59.49099197
 21
32.20078834
 31
0.0
  0
LINE
  5
21F
100
AcDbEntity
  8
SLD-0
  6
CONTINUOUS
 62
       3
100
AcDbLine
 10
-59.49099197
 20
32.20078834
 30
0.0
 11
-59.48913865
 21
32.16737116
 31
0.0
  0
LINE
  5
220
100
AcDbEntity
  8
SLD-0
  6
CONTINUOUS
 62
       3
100
AcDbLine
 10
-59.48913865
 20
32.16737116
 30
0.0
 11
-59.48768386
 21
32.13393699
 31
0.0
  0
LINE
  5
221
100
AcDbEntity
  8
SLD-0
  6
CONTINUOUS
 62
       3
100
AcDbLine
 10
-59.48768386
 20
32.13393699
 30
0.0
 11
-59.48663216
 21
32.10049257
 31
0.0
  0
LINE
  5
222
100
AcDbEntity
  8
SLD-0
  6
CONTINUOUS
 62
       3
100
AcDbLine
 10
-59.48663216
 20
32.10049257
 30
0.0
 11
-59.48598812
 21
32.06704461
 31
0.0
  0
LINE
  5
223
100
AcDbEntity
  8
SLD-0
  6
CONTINUOUS
 62
       3
100
AcDbLine
 10
-59.48598812
 20
32.06704461
 30
0.0
 11
-59.48575631
 21
32.03359986
 31
0.0
  0
LINE
  5
224
100
AcDbEntity
  8
SLD-0
  6
CONTINUOUS
 62
       3
100
AcDbLine
 10
-59.48575631
 20
32.03359986
 30
0.0
 11
-59.48594129
 21
32.00016503
 31
0.0
  0
LINE
  5
225
100
AcDbEntity
  8
SLD-0
  6
CONTINUOUS
 62
       3
100
AcDbLine
 10
-59.48594129
 20
32.00016503
 30
0.0
 11
-59.48654227
 21
31.96674556
 31
0.0
  0
LINE
  5
226
100
AcDbEntity
  8
SLD-0
  6
CONTINUOUS
 62
       3
100
AcDbLine
 10
-59.48654227
 20
31.96674556
 30
0.0
 11
-59.48753667
 21
31.93334166
 31
0.0
  0
LINE
  5
227
100
AcDbEntity
  8
SLD-0
  6
CONTINUOUS
 62
       3
100
AcDbLine
 10
-59.48753667
 20
31.93334166
 30
0.0
 11
-59.4888964
 21
31.89995223
 31
0.0
  0
LINE
  5
228
100
AcDbEntity
  8
SLD-0
  6
CONTINUOUS
 62
       3
100
AcDbLine
 10
-59.4888964
 20
31.89995223
 30
0.0
 11
-59.49059335
 21
31.86657615
 31
0.0
  0
LINE
  5
229
100
AcDbEntity
  8
SLD-0
  6
CONTINUOUS
 62
       3
100
AcDbLine
 10
-59.49059335
 20
31.86657615
 30
0.0
 11
-59.49259942
 21
31.8332123
 31
0.0
  0
LINE
  5
22A
100
AcDbEntity
  8
SLD-0
  6
CONTINUOUS
 62
       3
100
AcDbLine
 10
-59.49259942
 20
31.8332123
 30
0.0
 11
-59.49488651
 21
31.79985959
 31
0.0
  0
LINE
  5
22B
100
AcDbEntity
  8
SLD-0
  6
CONTINUOUS
 62
       3
100
AcDbLine
 10
-59.49488651
 20
31.79985959
 30
0.0
 11
-59.49742651
 21
31.76651688
 31
0.0
  0
LINE
  5
22C
100
AcDbEntity
  8
SLD-0
  6
CONTINUOUS
 62
       3
100
AcDbLine
 10
-59.49742651
 20
31.76651688
 30
0.0
 11
-59.50019133
 21
31.73318308
 31
0.0
  0
LINE
  5
22D
100
AcDbEntity
  8
SLD-0
  6
CONTINUOUS
 62
       3
100
AcDbLine
 10
-59.50019133
 20
31.73318308
 30
0.0
 11
-59.50315286
 21
31.69985706
 31
0.0
  0
LINE
  5
22E
100
AcDbEntity
  8
SLD-0
  6
CONTINUOUS
 62
       3
100
AcDbLine
 10
-59.50315286
 20
31.69985706
 30
0.0
 11
-59.50628301
 21
31.66653772
 31
0.0
  0
LINE
  5
22F
100
AcDbEntity
  8
SLD-0
  6
CONTINUOUS
 62
       3
100
AcDbLine
 10
-59.50628301
 20
31.66653772
 30
0.0
 11
-59.50955366
 21
31.63322394
 31
0.0
  0
LINE
  5
230
100
AcDbEntity
  8
SLD-0
  6
CONTINUOUS
 62
       3
100
AcDbLine
 10
-59.50955366
 20
31.63322394
 30
0.0
 11
-59.51293672
 21
31.59991461
 31
0.0
  0
LINE
  5
231
100
AcDbEntity
  8
SLD-0
  6
CONTINUOUS
 62
       3
100
AcDbLine
 10
-59.51293672
 20
31.59991461
 30
0.0
 11
-59.51640408
 21
31.56660862
 31
0.0
  0
LINE
  5
232
100
AcDbEntity
  8
SLD-0
  6
CONTINUOUS
 62
       3
100
AcDbLine
 10
-59.51640408
 20
31.56660862
 30
0.0
 11
-59.51992765
 21
31.53330485
 31
0.0
  0
LINE
  5
233
100
AcDbEntity
  8
SLD-0
  6
CONTINUOUS
 62
       3
100
AcDbLine
 10
-59.51992765
 20
31.53330485
 30
0.0
 11
-59.52347932
 21
31.5000022
 31
0.0
  0
LINE
  5
234
100
AcDbEntity
  8
SLD-0
  6
CONTINUOUS
 62
       3
100
AcDbLine
 10
-59.52347932
 20
31.5000022
 30
0.0
 11
-59.50946791
 21
31.5000022
 31
0.0
  0
LINE
  5
235
100
AcDbEntity
  8
SLD-0
  6
CONTINUOUS
 62
       3
100
AcDbLine
 10
-59.50946791
 20
31.5000022
 30
0.0
 11
-59.49550964
 21
31.5000022
 31
0.0
  0
LINE
  5
236
100
AcDbEntity
  8
SLD-0
  6
CONTINUOUS
 62
       3
100
AcDbLine
 10
-59.49550964
 20
31.5000022
 30
0.0
 11
-59.48165763
 21
31.5000022
 31
0.0
  0
LINE
  5
237
100
AcDbEntity
  8
SLD-0
  6
CONTINUOUS
 62
       3
100
AcDbLine
 10
-59.48165763
 20
31.5000022
 30
0.0
 11
-59.46796501
 21
31.5000022
 31
0.0
  0
LINE
  5
238
100
AcDbEntity
  8
SLD-0
  6
CONTINUOUS
 62
       3
100
AcDbLine
 10
-59.46796501
 20
31.5000022
 30
0.0
 11
-59.45448491
 21
31.5000022
 31
0.0
  0
LINE
  5
239
100
AcDbEntity
  8
SLD-0
  6
CONTINUOUS
 62
       3
100
AcDbLine
 10
-59.45448491
 20
31.5000022
 30
0.0
 11
-59.44127046
 21
31.5000022
 31
0.0
  0
LINE
  5
23A
100
AcDbEntity
  8
SLD-0
  6
CONTINUOUS
 62
       3
100
AcDbLine
 10
-59.44127046
 20
31.5000022
 30
0.0
 11
-59.4283748
 21
31.5000022
 31
0.0
  0
LINE
  5
23B
100
AcDbEntity
  8
SLD-0
  6
CONTINUOUS
 62
       3
100
AcDbLine
 10
-59.4283748
 20
31.5000022
 30
0.0
 11
-59.41585105
 21
31.5000022
 31
0.0
  0
LINE
  5
23C
100
AcDbEntity
  8
SLD-0
  6
CONTINUOUS
 62
       3
100
AcDbLine
 10
-59.41585105
 20
31.5000022
 30
0.0
 11
-59.40375234
 21
31.5000022
 31
0.0
  0
LINE
  5
23D
100
AcDbEntity
  8
SLD-0
  6
CONTINUOUS
 62
       3
100
AcDbLine
 10
-59.40375234
 20
31.5000022
 30
0.0
 11
-59.39213181
 21
31.5000022
 31
0.0
  0
LINE
  5
23E
100
AcDbEntity
  8
SLD-0
  6
CONTINUOUS
 62
       3
100
AcDbLine
 10
-59.39213181
 20
31.5000022
 30
0.0
 11
-59.38104258
 21
31.5000022
 31
0.0
  0
LINE
  5
23F
100
AcDbEntity
  8
SLD-0
  6
CONTINUOUS
 62
       3
100
AcDbLine
 10
-59.38104258
 20
31.5000022
 30
0.0
 11
-59.37053779
 21
31.5000022
 31
0.0
  0
LINE
  5
240
100
AcDbEntity
  8
SLD-0
  6
CONTINUOUS
 62
       3
100
AcDbLine
 10
-59.37053779
 20
31.5000022
 30
0.0
 11
-59.36066929
 21
31.5000022
 31
0.0
  0
LINE
  5
241
100
AcDbEntity
  8
SLD-0
  6
CONTINUOUS
 62
       3
100
AcDbLine
 10
-59.36066929
 20
31.5000022
 30
0.0
 11
-59.35145947
 21
31.5000022
 31
0.0
  0
LINE
  5
242
100
AcDbEntity
  8
SLD-0
  6
CONTINUOUS
 62
       3
100
AcDbLine
 10
-59.35145947
 20
31.5000022
 30
0.0
 11
-59.34290139
 21
31.5000022
 31
0.0
  0
LINE
  5
243
100
AcDbEntity
  8
SLD-0
  6
CONTINUOUS
 62
       3
100
AcDbLine
 10
-59.34290139
 20
31.5000022
 30
0.0
 11
-59.33498677
 21
31.5000022
 31
0.0
  0
LINE
  5
244
100
AcDbEntity
  8
SLD-0
  6
CONTINUOUS
 62
       3
100
AcDbLine
 10
-59.33498677
 20
31.5000022
 30
0.0
 11
-59.32770738
 21
31.5000022
 31
0.0
  0
LINE
  5
245
100
AcDbEntity
  8
SLD-0
  6
CONTINUOUS
 62
       3
100
AcDbLine
 10
-59.32770738
 20
31.5000022
 30
0.0
 11
-59.32105497
 21
31.5000022
 31
0.0
  0
LINE
  5
246
100
AcDbEntity
  8
SLD-0
  6
CONTINUOUS
 62
       3
100
AcDbLine
 10
-59.32105497
 20
31.5000022
 30
0.0
 11
-59.31502128
 21
31.5000022
 31
0.0
  0
LINE
  5
247
100
AcDbEntity
  8
SLD-0
  6
CONTINUOUS
 62
       3
100
AcDbLine
 10
-59.31502128
 20
31.5000022
 30
0.0
 11
-59.30959808
 21
31.5000022
 31
0.0
  0
LINE
  5
248
100
AcDbEntity
  8
SLD-0
  6
CONTINUOUS
 62
       3
100
AcDbLine
 10
-59.30959808
 20
31.5000022
 30
0.0
 11
-59.3047771
 21
31.5000022
 31
0.0
  0
LINE
  5
249
100
AcDbEntity
  8
SLD-0
  6
CONTINUOUS
 62
       3
100
AcDbLine
 10
-59.3047771
 20
31.5000022
 30
0.0
 11
-59.30055011
 21
31.5000022
 31
0.0
  0
LINE
  5
24A
100
AcDbEntity
  8
SLD-0
  6
CONTINUOUS
 62
       3
100
AcDbLine
 10
-59.30055011
 20
31.5000022
 30
0.0
 11
-59.29690886
 21
31.5000022
 31
0.0
  0
LINE
  5
24B
100
AcDbEntity
  8
SLD-0
  6
CONTINUOUS
 62
       3
100
AcDbLine
 10
-59.29690886
 20
31.5000022
 30
0.0
 11
-59.29384509
 21
31.5000022
 31
0.0
  0
LINE
  5
24C
100
AcDbEntity
  8
SLD-0
  6
CONTINUOUS
 62
       3
100
AcDbLine
 10
-59.29384509
 20
31.5000022
 30
0.0
 11
-59.29135055
 21
31.5000022
 31
0.0
  0
LINE
  5
24D
100
AcDbEntity
  8
SLD-0
  6
CONTINUOUS
 62
       3
100
AcDbLine
 10
-59.2894006
 20
31.5000022
 30
0.0
 11
-59.28790105
 21
31.5000022
 31
0.0
  0
LINE
  5
24E
100
AcDbEntity
  8
SLD-0
  6
CONTINUOUS
 62
       3
100
AcDbLine
 10
-59.28673929
 20
31.5000022
 30
0.0
 11
-59.28580274
 21
31.5000022
 31
0.0
  0
LINE
  5
24F
100
AcDbEntity
  8
SLD-0
  6
CONTINUOUS
 62
       3
100
AcDbLine
 10
-59.28497878
 20
30.85435724
 30
0.0
 11
-59.2857896
 21
30.82452442
 31
0.0
  0
LINE
  5
250
100
AcDbEntity
  8
SLD-0
  6
CONTINUOUS
 62
       3
100
AcDbLine
 10
-59.2857896
 20
30.82452442
 30
0.0
 11
-59.28671564
 21
30.79469113
 31
0.0
  0
LINE
  5
251
100
AcDbEntity
  8
SLD-0
  6
CONTINUOUS
 62
       3
100
AcDbLine
 10
-59.28671564
 20
30.79469113
 30
0.0
 11
-59.28787214
 21
30.76485686
 31
0.0
  0
LINE
  5
252
100
AcDbEntity
  8
SLD-0
  6
CONTINUOUS
 62
       3
100
AcDbLine
 10
-59.28787214
 20
30.76485686
 30
0.0
 11
-59.28937432
 21
30.73502116
 31
0.0
  0
LINE
  5
253
100
AcDbEntity
  8
SLD-0
  6
CONTINUOUS
 62
       3
100
AcDbLine
 10
-59.28937432
 20
30.73502116
 30
0.0
 11
-59.2913374
 21
30.70518352
 31
0.0
  0
LINE
  5
254
100
AcDbEntity
  8
SLD-0
  6
CONTINUOUS
 62
       3
100
AcDbLine
 10
-59.2913374
 20
30.70518352
 30
0.0
 11
-59.29385672
 21
30.67534652
 31
0.0
  0
LINE
  5
255
100
AcDbEntity
  8
SLD-0
  6
CONTINUOUS
 62
       3
100
AcDbLine
 10
-59.29385672
 20
30.67534652
 30
0.0
 11
-59.29695109
 21
30.64552447
 31
0.0
  0
LINE
  5
256
100
AcDbEntity
  8
SLD-0
  6
CONTINUOUS
 62
       3
100
AcDbLine
 10
-59.29695109
 20
30.64552447
 30
0.0
 11
-59.30062094
 21
30.61573451
 31
0.0
  0
LINE
  5
257
100
AcDbEntity
  8
SLD-0
  6
CONTINUOUS
 62
       3
100
AcDbLine
 10
-59.30062094
 20
30.61573451
 30
0.0
 11
-59.30486667
 21
30.58599378
 31
0.0
  0
LINE
  5
258
100
AcDbEntity
  8
SLD-0
  6
CONTINUOUS
 62
       3
100
AcDbLine
 10
-59.30486667
 20
30.58599378
 30
0.0
 11
-59.30968874
 21
30.5563194
 31
0.0
  0
LINE
  5
259
100
AcDbEntity
  8
SLD-0
  6
CONTINUOUS
 62
       3
100
AcDbLine
 10
-59.30968874
 20
30.5563194
 30
0.0
 11
-59.31508754
 21
30.52672852
 31
0.0
  0
LINE
  5
25A
100
AcDbEntity
  8
SLD-0
  6
CONTINUOUS
 62
       3
100
AcDbLine
 10
-59.31508754
 20
30.52672852
 30
0.0
 11
-59.32106352
 21
30.49723826
 31
0.0
  0
LINE
  5
25B
100
AcDbEntity
  8
SLD-0
  6
CONTINUOUS
 62
       3
100
AcDbLine
 10
-59.32106352
 20
30.49723826
 30
0.0
 11
-59.3276171
 21
30.46786576
 31
0.0
  0
LINE
  5
25C
100
AcDbEntity
  8
SLD-0
  6
CONTINUOUS
 62
       3
100
AcDbLine
 10
-59.3276171
 20
30.46786576
 30
0.0
 11
-59.33474869
 21
30.43862815
 31
0.0
  0
LINE
  5
25D
100
AcDbEntity
  8
SLD-0
  6
CONTINUOUS
 62
       3
100
AcDbLine
 10
-59.33474869
 20
30.43862815
 30
0.0
 11
-59.34245873
 21
30.40954258
 31
0.0
  0
LINE
  5
25E
100
AcDbEntity
  8
SLD-0
  6
CONTINUOUS
 62
       3
100
AcDbLine
 10
-59.34245873
 20
30.40954258
 30
0.0
 11
-59.35074764
 21
30.38062617
 31
0.0
  0
LINE
  5
25F
100
AcDbEntity
  8
SLD-0
  6
CONTINUOUS
 62
       3
100
AcDbLine
 10
-59.35074764
 20
30.38062617
 30
0.0
 11
-59.35961585
 21
30.35189606
 31
0.0
  0
LINE
  5
260
100
AcDbEntity
  8
SLD-0
  6
CONTINUOUS
 62
       3
100
AcDbLine
 10
-59.35961585
 20
30.35189606
 30
0.0
 11
-59.36906377
 21
30.32336938
 31
0.0
  0
LINE
  5
261
100
AcDbEntity
  8
SLD-0
  6
CONTINUOUS
 62
       3
100
AcDbLine
 10
-59.36906377
 20
30.32336938
 30
0.0
 11
-59.37909184
 21
30.29506327
 31
0.0
  0
LINE
  5
262
100
AcDbEntity
  8
SLD-0
  6
CONTINUOUS
 62
       3
100
AcDbLine
 10
-59.37909184
 20
30.29506327
 30
0.0
 11
-59.38970048
 21
30.26699486
 31
0.0
  0
LINE
  5
263
100
AcDbEntity
  8
SLD-0
  6
CONTINUOUS
 62
       3
100
AcDbLine
 10
-59.38970048
 20
30.26699486
 30
0.0
 11
-59.40089011
 21
30.23918129
 31
0.0
  0
LINE
  5
264
100
AcDbEntity
  8
SLD-0
  6
CONTINUOUS
 62
       3
100
AcDbLine
 10
-59.40089011
 20
30.23918129
 30
0.0
 11
-59.41266116
 21
30.21163969
 31
0.0
  0
LINE
  5
265
100
AcDbEntity
  8
SLD-0
  6
CONTINUOUS
 62
       3
100
AcDbLine
 10
-59.41266116
 20
30.21163969
 30
0.0
 11
-59.42501406
 21
30.1843872
 31
0.0
  0
LINE
  5
266
100
AcDbEntity
  8
SLD-0
  6
CONTINUOUS
 62
       3
100
AcDbLine
 10
-59.42501406
 20
30.1843872
 30
0.0
 11
-59.43794492
 21
30.15743782
 31
0.0
  0
LINE
  5
267
100
AcDbEntity
  8
SLD-0
  6
CONTINUOUS
 62
       3
100
AcDbLine
 10
-59.43794492
 20
30.15743782
 30
0.0
 11
-59.45139958
 21
30.13076891
 31
0.0
  0
LINE
  5
268
100
AcDbEntity
  8
SLD-0
  6
CONTINUOUS
 62
       3
100
AcDbLine
 10
-59.45139958
 20
30.13076891
 30
0.0
 11
-59.46529119
 21
30.10433408
 31
0.0
  0
LINE
  5
269
100
AcDbEntity
  8
SLD-0
  6
CONTINUOUS
 62
       3
100
AcDbLine
 10
-59.46529119
 20
30.10433408
 30
0.0
 11
-59.47953235
 21
30.0780865
 31
0.0
  0
LINE
  5
26A
100
AcDbEntity
  8
SLD-0
  6
CONTINUOUS
 62
       3
100
AcDbLine
 10
-59.47953235
 20
30.0780865
 30
0.0
 11
-59.49403569
 21
30.05197937
 31
0.0
  0
LINE
  5
26B
100
AcDbEntity
  8
SLD-0
  6
CONTINUOUS
 62
       3
100
AcDbLine
 10
-59.49403569
 20
30.05197937
 30
0.0
 11
-59.50871381
 21
30.02596586
 31
0.0
  0
LINE
  5
26C
100
AcDbEntity
  8
SLD-0
  6
CONTINUOUS
 62
       3
100
AcDbLine
 10
-59.50871381
 20
30.02596586
 30
0.0
 11
-59.52347932
 21
29.99999916
 31
0.0
  0
LINE
  5
26D
100
AcDbEntity
  8
SLD-0
  6
CONTINUOUS
 62
       3
100
AcDbLine
 10
-59.52347932
 20
33.99999982
 30
0.0
 11
-59.50946791
 21
33.97345015
 31
0.0
  0
LINE
  5
26E
100
AcDbEntity
  8
SLD-0
  6
CONTINUOUS
 62
       3
100
AcDbLine
 10
-59.50946791
 20
33.97345015
 30
0.0
 11
-59.49550964
 21
33.94687936
 31
0.0
  0
LINE
  5
26F
100
AcDbEntity
  8
SLD-0
  6
CONTINUOUS
 62
       3
100
AcDbLine
 10
-59.49550964
 20
33.94687936
 30
0.0
 11
-59.48165763
 21
33.92026631
 31
0.0
  0
LINE
  5
270
100
AcDbEntity
  8
SLD-0
  6
CONTINUOUS
 62
       3
100
AcDbLine
 10
-59.48165763
 20
33.92026631
 30
0.0
 11
-59.46796501
 21
33.89358987
 31
0.0
  0
LINE
  5
271
100
AcDbEntity
  8
SLD-0
  6
CONTINUOUS
 62
       3
100
AcDbLine
 10
-59.46796501
 20
33.89358987
 30
0.0
 11
-59.45448491
 21
33.8668289
 31
0.0
  0
LINE
  5
272
100
AcDbEntity
  8
SLD-0
  6
CONTINUOUS
 62
       3
100
AcDbLine
 10
-59.45448491
 20
33.8668289
 30
0.0
 11
-59.44127046
 21
33.83996228
 31
0.0
  0
LINE
  5
273
100
AcDbEntity
  8
SLD-0
  6
CONTINUOUS
 62
       3
100
AcDbLine
 10
-59.44127046
 20
33.83996228
 30
0.0
 11
-59.4283748
 21
33.81296888
 31
0.0
  0
LINE
  5
274
100
AcDbEntity
  8
SLD-0
  6
CONTINUOUS
 62
       3
100
AcDbLine
 10
-59.4283748
 20
33.81296888
 30
0.0
 11
-59.41585105
 21
33.78582756
 31
0.0
  0
LINE
  5
275
100
AcDbEntity
  8
SLD-0
  6
CONTINUOUS
 62
       3
100
AcDbLine
 10
-59.41585105
 20
33.78582756
 30
0.0
 11
-59.40375234
 21
33.7585172
 31
0.0
  0
LINE
  5
276
100
AcDbEntity
  8
SLD-0
  6
CONTINUOUS
 62
       3
100
AcDbLine
 10
-59.40375234
 20
33.7585172
 30
0.0
 11
-59.39213181
 21
33.73101666
 31
0.0
  0
LINE
  5
277
100
AcDbEntity
  8
SLD-0
  6
CONTINUOUS
 62
       3
100
AcDbLine
 10
-59.39213181
 20
33.73101666
 30
0.0
 11
-59.38104258
 21
33.70330481
 31
0.0
  0
LINE
  5
278
100
AcDbEntity
  8
SLD-0
  6
CONTINUOUS
 62
       3
100
AcDbLine
 10
-59.38104258
 20
33.70330481
 30
0.0
 11
-59.37053779
 21
33.67536053
 31
0.0
  0
LINE
  5
279
100
AcDbEntity
  8
SLD-0
  6
CONTINUOUS
 62
       3
100
AcDbLine
 10
-59.37053779
 20
33.67536053
 30
0.0
 11
-59.36066929
 21
33.64716356
 31
0.0
  0
LINE
  5
27A
100
AcDbEntity
  8
SLD-0
  6
CONTINUOUS
 62
       3
100
AcDbLine
 10
-59.36066929
 20
33.64716356
 30
0.0
 11
-59.35145947
 21
33.6187138
 31
0.0
  0
LINE
  5
27B
100
AcDbEntity
  8
SLD-0
  6
CONTINUOUS
 62
       3
100
AcDbLine
 10
-59.35145947
 20
33.6187138
 30
0.0
 11
-59.34290139
 21
33.59003126
 31
0.0
  0
LINE
  5
27C
100
AcDbEntity
  8
SLD-0
  6
CONTINUOUS
 62
       3
100
AcDbLine
 10
-59.34290139
 20
33.59003126
 30
0.0
 11
-59.33498677
 21
33.56113682
 31
0.0
  0
LINE
  5
27D
100
AcDbEntity
  8
SLD-0
  6
CONTINUOUS
 62
       3
100
AcDbLine
 10
-59.33498677
 20
33.56113682
 30
0.0
 11
-59.32770738
 21
33.53205137
 31
0.0
  0
LINE
  5
27E
100
AcDbEntity
  8
SLD-0
  6
CONTINUOUS
 62
       3
100
AcDbLine
 10
-59.32770738
 20
33.53205137
 30
0.0
 11
-59.32105497
 21
33.50279579
 31
0.0
  0
LINE
  5
27F
100
AcDbEntity
  8
SLD-0
  6
CONTINUOUS
 62
       3
100
AcDbLine
 10
-59.32105497
 20
33.50279579
 30
0.0
 11
-59.31502128
 21
33.47339097
 31
0.0
  0
LINE
  5
280
100
AcDbEntity
  8
SLD-0
  6
CONTINUOUS
 62
       3
100
AcDbLine
 10
-59.31502128
 20
33.47339097
 30
0.0
 11
-59.30959808
 21
33.44385779
 31
0.0
  0
LINE
  5
281
100
AcDbEntity
  8
SLD-0
  6
CONTINUOUS
 62
       3
100
AcDbLine
 10
-59.30959808
 20
33.44385779
 30
0.0
 11
-59.3047771
 21
33.41421713
 31
0.0
  0
LINE
  5
282
100
AcDbEntity
  8
SLD-0
  6
CONTINUOUS
 62
       3
100
AcDbLine
 10
-59.3047771
 20
33.41421713
 30
0.0
 11
-59.30055011
 21
33.38448989
 31
0.0
  0
LINE
  5
283
100
AcDbEntity
  8
SLD-0
  6
CONTINUOUS
 62
       3
100
AcDbLine
 10
-59.30055011
 20
33.38448989
 30
0.0
 11
-59.29690886
 21
33.35469694
 31
0.0
  0
LINE
  5
284
100
AcDbEntity
  8
SLD-0
  6
CONTINUOUS
 62
       3
100
AcDbLine
 10
-59.29690886
 20
33.35469694
 30
0.0
 11
-59.29384509
 21
33.32485917
 31
0.0
  0
LINE
  5
285
100
AcDbEntity
  8
SLD-0
  6
CONTINUOUS
 62
       3
100
AcDbLine
 10
-59.29384509
 20
33.32485917
 30
0.0
 11
-59.29135055
 21
33.29499747
 31
0.0
  0
LINE
  5
286
100
AcDbEntity
  8
SLD-0
  6
CONTINUOUS
 62
       3
100
AcDbLine
 10
-59.29135055
 20
33.29499747
 30
0.0
 11
-59.2894006
 21
33.26512951
 31
0.0
  0
LINE
  5
287
100
AcDbEntity
  8
SLD-0
  6
CONTINUOUS
 62
       3
100
AcDbLine
 10
-59.2894006
 20
33.26512951
 30
0.0
 11
-59.28790105
 21
33.23525943
 31
0.0
  0
LINE
  5
288
100
AcDbEntity
  8
SLD-0
  6
CONTINUOUS
 62
       3
100
AcDbLine
 10
-59.28790105
 20
33.23525943
 30
0.0
 11
-59.28673929
 21
33.20538775
 31
0.0
  0
LINE
  5
289
100
AcDbEntity
  8
SLD-0
  6
CONTINUOUS
 62
       3
100
AcDbLine
 10
-59.28673929
 20
33.20538775
 30
0.0
 11
-59.28580274
 21
33.17551501
 31
0.0
  0
LINE
  5
28A
100
AcDbEntity
  8
SLD-0
  6
CONTINUOUS
 62
       3
100
AcDbLine
 10
-59.28580274
 20
33.17551501
 30
0.0
 11
-59.28497878
 21
33.14564174
 31
0.0
  0
LINE
  5
28B
100
AcDbEntity
  8
SLD-0
  6
CONTINUOUS
 62
       3
100
AcDbLine
 10
-59.28671576
 20
-34.50000117
 30
0.0
 11
-59.28787231
 21
-34.50000117
 31
0.0
  0
LINE
  5
28C
100
AcDbEntity
  8
SLD-0
  6
CONTINUOUS
 62
       3
100
AcDbLine
 10
-59.29133764
 20
-34.50000117
 30
0.0
 11
-59.29385696
 21
-34.50000117
 31
0.0
  0
LINE
  5
28D
100
AcDbEntity
  8
SLD-0
  6
CONTINUOUS
 62
       3
100
AcDbLine
 10
-59.29385696
 20
-34.50000117
 30
0.0
 11
-59.29695129
 21
-34.50000117
 31
0.0
  0
LINE
  5
28E
100
AcDbEntity
  8
SLD-0
  6
CONTINUOUS
 62
       3
100
AcDbLine
 10
-59.29695129
 20
-34.50000117
 30
0.0
 11
-59.30062108
 21
-34.50000117
 31
0.0
  0
LINE
  5
28F
100
AcDbEntity
  8
SLD-0
  6
CONTINUOUS
 62
       3
100
AcDbLine
 10
-59.30062108
 20
-34.50000117
 30
0.0
 11
-59.30486674
 21
-34.50000117
 31
0.0
  0
LINE
  5
290
100
AcDbEntity
  8
SLD-0
  6
CONTINUOUS
 62
       3
100
AcDbLine
 10
-59.30486674
 20
-34.50000117
 30
0.0
 11
-59.3096887
 21
-34.50000117
 31
0.0
  0
LINE
  5
291
100
AcDbEntity
  8
SLD-0
  6
CONTINUOUS
 62
       3
100
AcDbLine
 10
-59.3096887
 20
-34.50000117
 30
0.0
 11
-59.3150874
 21
-34.50000117
 31
0.0
  0
LINE
  5
292
100
AcDbEntity
  8
SLD-0
  6
CONTINUOUS
 62
       3
100
AcDbLine
 10
-59.3150874
 20
-34.50000117
 30
0.0
 11
-59.32106326
 21
-34.50000117
 31
0.0
  0
LINE
  5
293
100
AcDbEntity
  8
SLD-0
  6
CONTINUOUS
 62
       3
100
AcDbLine
 10
-59.32106326
 20
-34.50000117
 30
0.0
 11
-59.32761671
 21
-34.50000117
 31
0.0
  0
LINE
  5
294
100
AcDbEntity
  8
SLD-0
  6
CONTINUOUS
 62
       3
100
AcDbLine
 10
-59.32761671
 20
-34.50000117
 30
0.0
 11
-59.33474817
 21
-34.50000117
 31
0.0
  0
LINE
  5
295
100
AcDbEntity
  8
SLD-0
  6
CONTINUOUS
 62
       3
100
AcDbLine
 10
-59.33474817
 20
-34.50000117
 30
0.0
 11
-59.34245809
 21
-34.50000117
 31
0.0
  0
LINE
  5
296
100
AcDbEntity
  8
SLD-0
  6
CONTINUOUS
 62
       3
100
AcDbLine
 10
-59.34245809
 20
-34.50000117
 30
0.0
 11
-59.35074688
 21
-34.50000117
 31
0.0
  0
LINE
  5
297
100
AcDbEntity
  8
SLD-0
  6
CONTINUOUS
 62
       3
100
AcDbLine
 10
-59.35074688
 20
-34.50000117
 30
0.0
 11
-59.35961498
 21
-34.50000117
 31
0.0
  0
LINE
  5
298
100
AcDbEntity
  8
SLD-0
  6
CONTINUOUS
 62
       3
100
AcDbLine
 10
-59.35961498
 20
-34.50000117
 30
0.0
 11
-59.36906281
 21
-34.50000117
 31
0.0
  0
LINE
  5
299
100
AcDbEntity
  8
SLD-0
  6
CONTINUOUS
 62
       3
100
AcDbLine
 10
-59.36906281
 20
-34.50000117
 30
0.0
 11
-59.3790908
 21
-34.50000117
 31
0.0
  0
LINE
  5
29A
100
AcDbEntity
  8
SLD-0
  6
CONTINUOUS
 62
       3
100
AcDbLine
 10
-59.3790908
 20
-34.50000117
 30
0.0
 11
-59.38969938
 21
-34.50000117
 31
0.0
  0
LINE
  5
29B
100
AcDbEntity
  8
SLD-0
  6
CONTINUOUS
 62
       3
100
AcDbLine
 10
-59.38969938
 20
-34.50000117
 30
0.0
 11
-59.40088898
 21
-34.50000117
 31
0.0
  0
LINE
  5
29C
100
AcDbEntity
  8
SLD-0
  6
CONTINUOUS
 62
       3
100
AcDbLine
 10
-59.40088898
 20
-34.50000117
 30
0.0
 11
-59.41266003
 21
-34.50000117
 31
0.0
  0
LINE
  5
29D
100
AcDbEntity
  8
SLD-0
  6
CONTINUOUS
 62
       3
100
AcDbLine
 10
-59.41266003
 20
-34.50000117
 30
0.0
 11
-59.42501295
 21
-34.50000117
 31
0.0
  0
LINE
  5
29E
100
AcDbEntity
  8
SLD-0
  6
CONTINUOUS
 62
       3
100
AcDbLine
 10
-59.42501295
 20
-34.50000117
 30
0.0
 11
-59.43794389
 21
-34.50000117
 31
0.0
  0
LINE
  5
29F
100
AcDbEntity
  8
SLD-0
  6
CONTINUOUS
 62
       3
100
AcDbLine
 10
-59.43794389
 20
-34.50000117
 30
0.0
 11
-59.45139865
 21
-34.50000117
 31
0.0
  0
LINE
  5
2A0
100
AcDbEntity
  8
SLD-0
  6
CONTINUOUS
 62
       3
100
AcDbLine
 10
-59.45139865
 20
-34.50000117
 30
0.0
 11
-59.4652904
 21
-34.50000117
 31
0.0
  0
LINE
  5
2A1
100
AcDbEntity
  8
SLD-0
  6
CONTINUOUS
 62
       3
100
AcDbLine
 10
-59.4652904
 20
-34.50000117
 30
0.0
 11
-59.47953174
 21
-34.50000117
 31
0.0
  0
LINE
  5
2A2
100
AcDbEntity
  8
SLD-0
  6
CONTINUOUS
 62
       3
100
AcDbLine
 10
-59.47953174
 20
-34.50000117
 30
0.0
 11
-59.49403527
 21
-34.50000117
 31
0.0
  0
LINE
  5
2A3
100
AcDbEntity
  8
SLD-0
  6
CONTINUOUS
 62
       3
100
AcDbLine
 10
-59.49403527
 20
-34.50000117
 30
0.0
 11
-59.5087136
 21
-34.50000117
 31
0.0
  0
LINE
  5
2A4
100
AcDbEntity
  8
SLD-0
  6
CONTINUOUS
 62
       3
100
AcDbLine
 10
-59.5087136
 20
-34.50000117
 30
0.0
 11
-59.52347932
 21
-34.50000117
 31
0.0
  0
LINE
  5
2A5
100
AcDbEntity
  8
SLD-0
  6
CONTINUOUS
 62
       3
100
AcDbLine
 10
-59.52347932
 20
-34.50000117
 30
0.0
 11
-59.51893291
 21
-34.53312732
 31
0.0
  0
LINE
  5
2A6
100
AcDbEntity
  8
SLD-0
  6
CONTINUOUS
 62
       3
100
AcDbLine
 10
-59.51893291
 20
-34.53312732
 30
0.0
 11
-59.5144641
 21
-34.56626418
 31
0.0
  0
LINE
  5
2A7
100
AcDbEntity
  8
SLD-0
  6
CONTINUOUS
 62
       3
100
AcDbLine
 10
-59.5144641
 20
-34.56626418
 30
0.0
 11
-59.51015051
 21
-34.59942246
 31
0.0
  0
LINE
  5
2A8
100
AcDbEntity
  8
SLD-0
  6
CONTINUOUS
 62
       3
100
AcDbLine
 10
-59.51015051
 20
-34.59942246
 30
0.0
 11
-59.50606973
 21
-34.63261288
 31
0.0
  0
LINE
  5
2A9
100
AcDbEntity
  8
SLD-0
  6
CONTINUOUS
 62
       3
100
AcDbLine
 10
-59.50606973
 20
-34.63261288
 30
0.0
 11
-59.50229931
 21
-34.66584613
 31
0.0
  0
LINE
  5
2AA
100
AcDbEntity
  8
SLD-0
  6
CONTINUOUS
 62
       3
100
AcDbLine
 10
-59.50229931
 20
-34.66584613
 30
0.0
 11
-59.49889759
 21
-34.69912833
 31
0.0
  0
LINE
  5
2AB
100
AcDbEntity
  8
SLD-0
  6
CONTINUOUS
 62
       3
100
AcDbLine
 10
-59.49889759
 20
-34.69912833
 30
0.0
 11
-59.49587611
 21
-34.7324544
 31
0.0
  0
LINE
  5
2AC
100
AcDbEntity
  8
SLD-0
  6
CONTINUOUS
 62
       3
100
AcDbLine
 10
-59.49587611
 20
-34.7324544
 30
0.0
 11
-59.49323944
 21
-34.76581764
 31
0.0
  0
LINE
  5
2AD
100
AcDbEntity
  8
SLD-0
  6
CONTINUOUS
 62
       3
100
AcDbLine
 10
-59.49323944
 20
-34.76581764
 30
0.0
 11
-59.49099215
 21
-34.7992113
 31
0.0
  0
LINE
  5
2AE
100
AcDbEntity
  8
SLD-0
  6
CONTINUOUS
 62
       3
100
AcDbLine
 10
-59.49099215
 20
-34.7992113
 30
0.0
 11
-59.48913882
 21
-34.83262867
 31
0.0
  0
LINE
  5
2AF
100
AcDbEntity
  8
SLD-0
  6
CONTINUOUS
 62
       3
100
AcDbLine
 10
-59.48913882
 20
-34.83262867
 30
0.0
 11
-59.487684
 21
-34.86606302
 31
0.0
  0
LINE
  5
2B0
100
AcDbEntity
  8
SLD-0
  6
CONTINUOUS
 62
       3
100
AcDbLine
 10
-59.487684
 20
-34.86606302
 30
0.0
 11
-59.48663227
 21
-34.89950763
 31
0.0
  0
LINE
  5
2B1
100
AcDbEntity
  8
SLD-0
  6
CONTINUOUS
 62
       3
100
AcDbLine
 10
-59.48663227
 20
-34.89950763
 30
0.0
 11
-59.48598821
 21
-34.93295576
 31
0.0
  0
LINE
  5
2B2
100
AcDbEntity
  8
SLD-0
  6
CONTINUOUS
 62
       3
100
AcDbLine
 10
-59.48598821
 20
-34.93295576
 30
0.0
 11
-59.48575637
 21
-34.9664007
 31
0.0
  0
LINE
  5
2B3
100
AcDbEntity
  8
SLD-0
  6
CONTINUOUS
 62
       3
100
AcDbLine
 10
-59.48575637
 20
-34.9664007
 30
0.0
 11
-59.48594133
 21
-34.99983571
 31
0.0
  0
LINE
  5
2B4
100
AcDbEntity
  8
SLD-0
  6
CONTINUOUS
 62
       3
100
AcDbLine
 10
-59.48594133
 20
-34.99983571
 30
0.0
 11
-59.4865423
 21
-35.03325536
 31
0.0
  0
LINE
  5
2B5
100
AcDbEntity
  8
SLD-0
  6
CONTINUOUS
 62
       3
100
AcDbLine
 10
-59.4865423
 20
-35.03325536
 30
0.0
 11
-59.48753669
 21
-35.06665944
 31
0.0
  0
LINE
  5
2B6
100
AcDbEntity
  8
SLD-0
  6
CONTINUOUS
 62
       3
100
AcDbLine
 10
-59.48753669
 20
-35.06665944
 30
0.0
 11
-59.48889641
 21
-35.10004905
 31
0.0
  0
LINE
  5
2B7
100
AcDbEntity
  8
SLD-0
  6
CONTINUOUS
 62
       3
100
AcDbLine
 10
-59.48889641
 20
-35.10004905
 30
0.0
 11
-59.49059335
 21
-35.13342532
 31
0.0
  0
LINE
  5
2B8
100
AcDbEntity
  8
SLD-0
  6
CONTINUOUS
 62
       3
100
AcDbLine
 10
-59.49059335
 20
-35.13342532
 30
0.0
 11
-59.49259941
 21
-35.16678935
 31
0.0
  0
LINE
  5
2B9
100
AcDbEntity
  8
SLD-0
  6
CONTINUOUS
 62
       3
100
AcDbLine
 10
-59.49259941
 20
-35.16678935
 30
0.0
 11
-59.4948865
 21
-35.20014225
 31
0.0
  0
LINE
  5
2BA
100
AcDbEntity
  8
SLD-0
  6
CONTINUOUS
 62
       3
100
AcDbLine
 10
-59.4948865
 20
-35.20014225
 30
0.0
 11
-59.4974265
 21
-35.23348514
 31
0.0
  0
LINE
  5
2BB
100
AcDbEntity
  8
SLD-0
  6
CONTINUOUS
 62
       3
100
AcDbLine
 10
-59.4974265
 20
-35.23348514
 30
0.0
 11
-59.50019132
 21
-35.26681914
 31
0.0
  0
LINE
  5
2BC
100
AcDbEntity
  8
SLD-0
  6
CONTINUOUS
 62
       3
100
AcDbLine
 10
-59.50019132
 20
-35.26681914
 30
0.0
 11
-59.50315285
 21
-35.30014534
 31
0.0
  0
LINE
  5
2BD
100
AcDbEntity
  8
SLD-0
  6
CONTINUOUS
 62
       3
100
AcDbLine
 10
-59.50315285
 20
-35.30014534
 30
0.0
 11
-59.50628299
 21
-35.33346487
 31
0.0
  0
LINE
  5
2BE
100
AcDbEntity
  8
SLD-0
  6
CONTINUOUS
 62
       3
100
AcDbLine
 10
-59.50628299
 20
-35.33346487
 30
0.0
 11
-59.50955364
 21
-35.36677884
 31
0.0
  0
LINE
  5
2BF
100
AcDbEntity
  8
SLD-0
  6
CONTINUOUS
 62
       3
100
AcDbLine
 10
-59.50955364
 20
-35.36677884
 30
0.0
 11
-59.51293671
 21
-35.40008836
 31
0.0
  0
LINE
  5
2C0
100
AcDbEntity
  8
SLD-0
  6
CONTINUOUS
 62
       3
100
AcDbLine
 10
-59.51293671
 20
-35.40008836
 30
0.0
 11
-59.51640407
 21
-35.43339453
 31
0.0
  0
LINE
  5
2C1
100
AcDbEntity
  8
SLD-0
  6
CONTINUOUS
 62
       3
100
AcDbLine
 10
-59.51640407
 20
-35.43339453
 30
0.0
 11
-59.51992764
 21
-35.46669849
 31
0.0
  0
LINE
  5
2C2
100
AcDbEntity
  8
SLD-0
  6
CONTINUOUS
 62
       3
100
AcDbLine
 10
-59.51992764
 20
-35.46669849
 30
0.0
 11
-59.52347932
 21
-35.50000133
 31
0.0
  0
LINE
  5
2C3
100
AcDbEntity
  8
SLD-0
  6
CONTINUOUS
 62
       3
100
AcDbLine
 10
-59.52347932
 20
-35.50000133
 30
0.0
 11
-59.50946797
 21
-35.50000133
 31
0.0
  0
LINE
  5
2C4
100
AcDbEntity
  8
SLD-0
  6
CONTINUOUS
 62
       3
100
AcDbLine
 10
-59.50946797
 20
-35.50000133
 30
0.0
 11
-59.49550975
 21
-35.50000133
 31
0.0
  0
LINE
  5
2C5
100
AcDbEntity
  8
SLD-0
  6
CONTINUOUS
 62
       3
100
AcDbLine
 10
-59.49550975
 20
-35.50000133
 30
0.0
 11
-59.4816578
 21
-35.50000133
 31
0.0
  0
LINE
  5
2C6
100
AcDbEntity
  8
SLD-0
  6
CONTINUOUS
 62
       3
100
AcDbLine
 10
-59.4816578
 20
-35.50000133
 30
0.0
 11
-59.46796523
 21
-35.50000133
 31
0.0
  0
LINE
  5
2C7
100
AcDbEntity
  8
SLD-0
  6
CONTINUOUS
 62
       3
100
AcDbLine
 10
-59.46796523
 20
-35.50000133
 30
0.0
 11
-59.45448518
 21
-35.50000133
 31
0.0
  0
LINE
  5
2C8
100
AcDbEntity
  8
SLD-0
  6
CONTINUOUS
 62
       3
100
AcDbLine
 10
-59.45448518
 20
-35.50000133
 30
0.0
 11
-59.44127078
 21
-35.50000133
 31
0.0
  0
LINE
  5
2C9
100
AcDbEntity
  8
SLD-0
  6
CONTINUOUS
 62
       3
100
AcDbLine
 10
-59.44127078
 20
-35.50000133
 30
0.0
 11
-59.42837516
 21
-35.50000133
 31
0.0
  0
LINE
  5
2CA
100
AcDbEntity
  8
SLD-0
  6
CONTINUOUS
 62
       3
100
AcDbLine
 10
-59.42837516
 20
-35.50000133
 30
0.0
 11
-59.41585145
 21
-35.50000133
 31
0.0
  0
LINE
  5
2CB
100
AcDbEntity
  8
SLD-0
  6
CONTINUOUS
 62
       3
100
AcDbLine
 10
-59.41585145
 20
-35.50000133
 30
0.0
 11
-59.40375278
 21
-35.50000133
 31
0.0
  0
LINE
  5
2CC
100
AcDbEntity
  8
SLD-0
  6
CONTINUOUS
 62
       3
100
AcDbLine
 10
-59.40375278
 20
-35.50000133
 30
0.0
 11
-59.39213228
 21
-35.50000133
 31
0.0
  0
LINE
  5
2CD
100
AcDbEntity
  8
SLD-0
  6
CONTINUOUS
 62
       3
100
AcDbLine
 10
-59.39213228
 20
-35.50000133
 30
0.0
 11
-59.38104308
 21
-35.50000133
 31
0.0
  0
LINE
  5
2CE
100
AcDbEntity
  8
SLD-0
  6
CONTINUOUS
 62
       3
100
AcDbLine
 10
-59.38104308
 20
-35.50000133
 30
0.0
 11
-59.3705383
 21
-35.50000133
 31
0.0
  0
LINE
  5
2CF
100
AcDbEntity
  8
SLD-0
  6
CONTINUOUS
 62
       3
100
AcDbLine
 10
-59.3705383
 20
-35.50000133
 30
0.0
 11
-59.3606698
 21
-35.50000133
 31
0.0
  0
LINE
  5
2D0
100
AcDbEntity
  8
SLD-0
  6
CONTINUOUS
 62
       3
100
AcDbLine
 10
-59.3606698
 20
-35.50000133
 30
0.0
 11
-59.35145999
 21
-35.50000133
 31
0.0
  0
LINE
  5
2D1
100
AcDbEntity
  8
SLD-0
  6
CONTINUOUS
 62
       3
100
AcDbLine
 10
-59.35145999
 20
-35.50000133
 30
0.0
 11
-59.3429019
 21
-35.50000133
 31
0.0
  0
LINE
  5
2D2
100
AcDbEntity
  8
SLD-0
  6
CONTINUOUS
 62
       3
100
AcDbLine
 10
-59.3429019
 20
-35.50000133
 30
0.0
 11
-59.33498728
 21
-35.50000133
 31
0.0
  0
LINE
  5
2D3
100
AcDbEntity
  8
SLD-0
  6
CONTINUOUS
 62
       3
100
AcDbLine
 10
-59.33498728
 20
-35.50000133
 30
0.0
 11
-59.32770788
 21
-35.50000133
 31
0.0
  0
LINE
  5
2D4
100
AcDbEntity
  8
SLD-0
  6
CONTINUOUS
 62
       3
100
AcDbLine
 10
-59.32770788
 20
-35.50000133
 30
0.0
 11
-59.32105545
 21
-35.50000133
 31
0.0
  0
LINE
  5
2D5
100
AcDbEntity
  8
SLD-0
  6
CONTINUOUS
 62
       3
100
AcDbLine
 10
-59.32105545
 20
-35.50000133
 30
0.0
 11
-59.31502175
 21
-35.50000133
 31
0.0
  0
LINE
  5
2D6
100
AcDbEntity
  8
SLD-0
  6
CONTINUOUS
 62
       3
100
AcDbLine
 10
-59.31502175
 20
-35.50000133
 30
0.0
 11
-59.30959852
 21
-35.50000133
 31
0.0
  0
LINE
  5
2D7
100
AcDbEntity
  8
SLD-0
  6
CONTINUOUS
 62
       3
100
AcDbLine
 10
-59.30959852
 20
-35.50000133
 30
0.0
 11
-59.30477751
 21
-35.50000133
 31
0.0
  0
LINE
  5
2D8
100
AcDbEntity
  8
SLD-0
  6
CONTINUOUS
 62
       3
100
AcDbLine
 10
-59.30477751
 20
-35.50000133
 30
0.0
 11
-59.30055048
 21
-35.50000133
 31
0.0
  0
LINE
  5
2D9
100
AcDbEntity
  8
SLD-0
  6
CONTINUOUS
 62
       3
100
AcDbLine
 10
-59.30055048
 20
-35.50000133
 30
0.0
 11
-59.29690918
 21
-35.50000133
 31
0.0
  0
LINE
  5
2DA
100
AcDbEntity
  8
SLD-0
  6
CONTINUOUS
 62
       3
100
AcDbLine
 10
-59.29690918
 20
-35.50000133
 30
0.0
 11
-59.29384537
 21
-35.50000133
 31
0.0
  0
LINE
  5
2DB
100
AcDbEntity
  8
SLD-0
  6
CONTINUOUS
 62
       3
100
AcDbLine
 10
-59.29384537
 20
-35.50000133
 30
0.0
 11
-59.29135078
 21
-35.50000133
 31
0.0
  0
LINE
  5
2DC
100
AcDbEntity
  8
SLD-0
  6
CONTINUOUS
 62
       3
100
AcDbLine
 10
-59.28940078
 20
-35.50000133
 30
0.0
 11
-59.28790118
 21
-35.50000133
 31
0.0
  0
LINE
  5
2DD
100
AcDbEntity
  8
SLD-0
  6
CONTINUOUS
 62
       3
100
AcDbLine
 10
-59.28673938
 20
-35.50000133
 30
0.0
 11
-59.28580278
 21
-35.50000133
 31
0.0
  0
LINE
  5
2DE
100
AcDbEntity
  8
SLD-0
  6
CONTINUOUS
 62
       3
100
AcDbLine
 10
-59.28497878
 20
-36.14564513
 30
0.0
 11
-59.28578962
 21
-36.17547788
 31
0.0
  0
LINE
  5
2DF
100
AcDbEntity
  8
SLD-0
  6
CONTINUOUS
 62
       3
100
AcDbLine
 10
-59.28578962
 20
-36.17547788
 30
0.0
 11
-59.28671569
 21
-36.20531111
 31
0.0
  0
LINE
  5
2E0
100
AcDbEntity
  8
SLD-0
  6
CONTINUOUS
 62
       3
100
AcDbLine
 10
-59.28671569
 20
-36.20531111
 30
0.0
 11
-59.2878722
 21
-36.23514531
 31
0.0
  0
LINE
  5
2E1
100
AcDbEntity
  8
SLD-0
  6
CONTINUOUS
 62
       3
100
AcDbLine
 10
-59.2878722
 20
-36.23514531
 30
0.0
 11
-59.28937438
 21
-36.26498096
 31
0.0
  0
LINE
  5
2E2
100
AcDbEntity
  8
SLD-0
  6
CONTINUOUS
 62
       3
100
AcDbLine
 10
-59.28937438
 20
-36.26498096
 30
0.0
 11
-59.29133747
 21
-36.29481854
 31
0.0
  0
LINE
  5
2E3
100
AcDbEntity
  8
SLD-0
  6
CONTINUOUS
 62
       3
100
AcDbLine
 10
-59.29133747
 20
-36.29481854
 30
0.0
 11
-59.29385677
 21
-36.32465549
 31
0.0
  0
LINE
  5
2E4
100
AcDbEntity
  8
SLD-0
  6
CONTINUOUS
 62
       3
100
AcDbLine
 10
-59.29385677
 20
-36.32465549
 30
0.0
 11
-59.29695111
 21
-36.35447749
 31
0.0
  0
LINE
  5
2E5
100
AcDbEntity
  8
SLD-0
  6
CONTINUOUS
 62
       3
100
AcDbLine
 10
-59.29695111
 20
-36.35447749
 30
0.0
 11
-59.30062091
 21
-36.3842674
 31
0.0
  0
LINE
  5
2E6
100
AcDbEntity
  8
SLD-0
  6
CONTINUOUS
 62
       3
100
AcDbLine
 10
-59.30062091
 20
-36.3842674
 30
0.0
 11
-59.30486659
 21
-36.4140081
 31
0.0
  0
LINE
  5
2E7
100
AcDbEntity
  8
SLD-0
  6
CONTINUOUS
 62
       3
100
AcDbLine
 10
-59.30486659
 20
-36.4140081
 30
0.0
 11
-59.30968859
 21
-36.44368244
 31
0.0
  0
LINE
  5
2E8
100
AcDbEntity
  8
SLD-0
  6
CONTINUOUS
 62
       3
100
AcDbLine
 10
-59.30968859
 20
-36.44368244
 30
0.0
 11
-59.31508733
 21
-36.47327329
 31
0.0
  0
LINE
  5
2E9
100
AcDbEntity
  8
SLD-0
  6
CONTINUOUS
 62
       3
100
AcDbLine
 10
-59.31508733
 20
-36.47327329
 30
0.0
 11
-59.32106323
 21
-36.50276351
 31
0.0
  0
LINE
  5
2EA
100
AcDbEntity
  8
SLD-0
  6
CONTINUOUS
 62
       3
100
AcDbLine
 10
-59.32106323
 20
-36.50276351
 30
0.0
 11
-59.32761674
 21
-36.53213597
 31
0.0
  0
LINE
  5
2EB
100
AcDbEntity
  8
SLD-0
  6
CONTINUOUS
 62
       3
100
AcDbLine
 10
-59.32761674
 20
-36.53213597
 30
0.0
 11
-59.33474826
 21
-36.56137354
 31
0.0
  0
LINE
  5
2EC
100
AcDbEntity
  8
SLD-0
  6
CONTINUOUS
 62
       3
100
AcDbLine
 10
-59.33474826
 20
-36.56137354
 30
0.0
 11
-59.34245823
 21
-36.59045907
 31
0.0
  0
LINE
  5
2ED
100
AcDbEntity
  8
SLD-0
  6
CONTINUOUS
 62
       3
100
AcDbLine
 10
-59.34245823
 20
-36.59045907
 30
0.0
 11
-59.35074707
 21
-36.61937544
 31
0.0
  0
LINE
  5
2EE
100
AcDbEntity
  8
SLD-0
  6
CONTINUOUS
 62
       3
100
AcDbLine
 10
-59.35074707
 20
-36.61937544
 30
0.0
 11
-59.35961522
 21
-36.64810551
 31
0.0
  0
LINE
  5
2EF
100
AcDbEntity
  8
SLD-0
  6
CONTINUOUS
 62
       3
100
AcDbLine
 10
-59.35961522
 20
-36.64810551
 30
0.0
 11
-59.36906309
 21
-36.67663213
 31
0.0
  0
LINE
  5
2F0
100
AcDbEntity
  8
SLD-0
  6
CONTINUOUS
 62
       3
100
AcDbLine
 10
-59.36906309
 20
-36.67663213
 30
0.0
 11
-59.37909113
 21
-36.70493818
 31
0.0
  0
LINE
  5
2F1
100
AcDbEntity
  8
SLD-0
  6
CONTINUOUS
 62
       3
100
AcDbLine
 10
-59.37909113
 20
-36.70493818
 30
0.0
 11
-59.38969974
 21
-36.73300653
 31
0.0
  0
LINE
  5
2F2
100
AcDbEntity
  8
SLD-0
  6
CONTINUOUS
 62
       3
100
AcDbLine
 10
-59.38969974
 20
-36.73300653
 30
0.0
 11
-59.40088936
 21
-36.76082003
 31
0.0
  0
LINE
  5
2F3
100
AcDbEntity
  8
SLD-0
  6
CONTINUOUS
 62
       3
100
AcDbLine
 10
-59.40088936
 20
-36.76082003
 30
0.0
 11
-59.41266042
 21
-36.78836155
 31
0.0
  0
LINE
  5
2F4
100
AcDbEntity
  8
SLD-0
  6
CONTINUOUS
 62
       3
100
AcDbLine
 10
-59.41266042
 20
-36.78836155
 30
0.0
 11
-59.42501334
 21
-36.81561395
 31
0.0
  0
LINE
  5
2F5
100
AcDbEntity
  8
SLD-0
  6
CONTINUOUS
 62
       3
100
AcDbLine
 10
-59.42501334
 20
-36.81561395
 30
0.0
 11
-59.43794426
 21
-36.84256324
 31
0.0
  0
LINE
  5
2F6
100
AcDbEntity
  8
SLD-0
  6
CONTINUOUS
 62
       3
100
AcDbLine
 10
-59.43794426
 20
-36.84256324
 30
0.0
 11
-59.45139899
 21
-36.86923203
 31
0.0
  0
LINE
  5
2F7
100
AcDbEntity
  8
SLD-0
  6
CONTINUOUS
 62
       3
100
AcDbLine
 10
-59.45139899
 20
-36.86923203
 30
0.0
 11
-59.46529069
 21
-36.89566674
 31
0.0
  0
LINE
  5
2F8
100
AcDbEntity
  8
SLD-0
  6
CONTINUOUS
 62
       3
100
AcDbLine
 10
-59.46529069
 20
-36.89566674
 30
0.0
 11
-59.47953196
 21
-36.92191419
 31
0.0
  0
LINE
  5
2F9
100
AcDbEntity
  8
SLD-0
  6
CONTINUOUS
 62
       3
100
AcDbLine
 10
-59.47953196
 20
-36.92191419
 30
0.0
 11
-59.49403543
 21
-36.94802119
 31
0.0
  0
LINE
  5
2FA
100
AcDbEntity
  8
SLD-0
  6
CONTINUOUS
 62
       3
100
AcDbLine
 10
-59.49403543
 20
-36.94802119
 30
0.0
 11
-59.50871367
 21
-36.97403456
 31
0.0
  0
LINE
  5
2FB
100
AcDbEntity
  8
SLD-0
  6
CONTINUOUS
 62
       3
100
AcDbLine
 10
-59.50871367
 20
-36.97403456
 30
0.0
 11
-59.52347932
 21
-37.00000111
 31
0.0
  0
LINE
  5
2FC
100
AcDbEntity
  8
SLD-0
  6
CONTINUOUS
 62
       3
100
AcDbLine
 10
-59.52347932
 20
-33.00000092
 30
0.0
 11
-59.50946796
 21
-33.02655054
 31
0.0
  0
LINE
  5
2FD
100
AcDbEntity
  8
SLD-0
  6
CONTINUOUS
 62
       3
100
AcDbLine
 10
-59.50946796
 20
-33.02655054
 30
0.0
 11
-59.49550974
 21
-33.05312128
 31
0.0
  0
LINE
  5
2FE
100
AcDbEntity
  8
SLD-0
  6
CONTINUOUS
 62
       3
100
AcDbLine
 10
-59.49550974
 20
-33.05312128
 30
0.0
 11
-59.48165777
 21
-33.07973428
 31
0.0
  0
LINE
  5
2FF
100
AcDbEntity
  8
SLD-0
  6
CONTINUOUS
 62
       3
100
AcDbLine
 10
-59.48165777
 20
-33.07973428
 30
0.0
 11
-59.4679652
 21
-33.10641068
 31
0.0
  0
LINE
  5
300
100
AcDbEntity
  8
SLD-0
  6
CONTINUOUS
 62
       3
100
AcDbLine
 10
-59.4679652
 20
-33.10641068
 30
0.0
 11
-59.45448514
 21
-33.1331716
 31
0.0
  0
LINE
  5
301
100
AcDbEntity
  8
SLD-0
  6
CONTINUOUS
 62
       3
100
AcDbLine
 10
-59.45448514
 20
-33.1331716
 30
0.0
 11
-59.44127074
 21
-33.16003817
 31
0.0
  0
LINE
  5
302
100
AcDbEntity
  8
SLD-0
  6
CONTINUOUS
 62
       3
100
AcDbLine
 10
-59.44127074
 20
-33.16003817
 30
0.0
 11
-59.42837511
 21
-33.18703152
 31
0.0
  0
LINE
  5
303
100
AcDbEntity
  8
SLD-0
  6
CONTINUOUS
 62
       3
100
AcDbLine
 10
-59.42837511
 20
-33.18703152
 30
0.0
 11
-59.41585139
 21
-33.21417278
 31
0.0
  0
LINE
  5
304
100
AcDbEntity
  8
SLD-0
  6
CONTINUOUS
 62
       3
100
AcDbLine
 10
-59.41585139
 20
-33.21417278
 30
0.0
 11
-59.40375271
 21
-33.24148309
 31
0.0
  0
LINE
  5
305
100
AcDbEntity
  8
SLD-0
  6
CONTINUOUS
 62
       3
100
AcDbLine
 10
-59.40375271
 20
-33.24148309
 30
0.0
 11
-59.3921322
 21
-33.26898357
 31
0.0
  0
LINE
  5
306
100
AcDbEntity
  8
SLD-0
  6
CONTINUOUS
 62
       3
100
AcDbLine
 10
-59.3921322
 20
-33.26898357
 30
0.0
 11
-59.38104298
 21
-33.29669535
 31
0.0
  0
LINE
  5
307
100
AcDbEntity
  8
SLD-0
  6
CONTINUOUS
 62
       3
100
AcDbLine
 10
-59.38104298
 20
-33.29669535
 30
0.0
 11
-59.37053819
 21
-33.32463956
 31
0.0
  0
LINE
  5
308
100
AcDbEntity
  8
SLD-0
  6
CONTINUOUS
 62
       3
100
AcDbLine
 10
-59.37053819
 20
-33.32463956
 30
0.0
 11
-59.36066968
 21
-33.35283647
 31
0.0
  0
LINE
  5
309
100
AcDbEntity
  8
SLD-0
  6
CONTINUOUS
 62
       3
100
AcDbLine
 10
-59.36066968
 20
-33.35283647
 30
0.0
 11
-59.35145986
 21
-33.38128616
 31
0.0
  0
LINE
  5
30A
100
AcDbEntity
  8
SLD-0
  6
CONTINUOUS
 62
       3
100
AcDbLine
 10
-59.35145986
 20
-33.38128616
 30
0.0
 11
-59.34290175
 21
-33.40996863
 31
0.0
  0
LINE
  5
30B
100
AcDbEntity
  8
SLD-0
  6
CONTINUOUS
 62
       3
100
AcDbLine
 10
-59.34290175
 20
-33.40996863
 30
0.0
 11
-59.33498712
 21
-33.438863
 31
0.0
  0
LINE
  5
30C
100
AcDbEntity
  8
SLD-0
  6
CONTINUOUS
 62
       3
100
AcDbLine
 10
-59.33498712
 20
-33.438863
 30
0.0
 11
-59.3277077
 21
-33.46794838
 31
0.0
  0
LINE
  5
30D
100
AcDbEntity
  8
SLD-0
  6
CONTINUOUS
 62
       3
100
AcDbLine
 10
-59.3277077
 20
-33.46794838
 30
0.0
 11
-59.32105526
 21
-33.49720389
 31
0.0
  0
LINE
  5
30E
100
AcDbEntity
  8
SLD-0
  6
CONTINUOUS
 62
       3
100
AcDbLine
 10
-59.32105526
 20
-33.49720389
 30
0.0
 11
-59.31502155
 21
-33.52660864
 31
0.0
  0
LINE
  5
30F
100
AcDbEntity
  8
SLD-0
  6
CONTINUOUS
 62
       3
100
AcDbLine
 10
-59.31502155
 20
-33.52660864
 30
0.0
 11
-59.30959831
 21
-33.55614175
 31
0.0
  0
LINE
  5
310
100
AcDbEntity
  8
SLD-0
  6
CONTINUOUS
 62
       3
100
AcDbLine
 10
-59.30959831
 20
-33.55614175
 30
0.0
 11
-59.30477731
 21
-33.58578233
 31
0.0
  0
LINE
  5
311
100
AcDbEntity
  8
SLD-0
  6
CONTINUOUS
 62
       3
100
AcDbLine
 10
-59.30477731
 20
-33.58578233
 30
0.0
 11
-59.30055028
 21
-33.61550951
 31
0.0
  0
LINE
  5
312
100
AcDbEntity
  8
SLD-0
  6
CONTINUOUS
 62
       3
100
AcDbLine
 10
-59.30055028
 20
-33.61550951
 30
0.0
 11
-59.296909
 21
-33.64530239
 31
0.0
  0
LINE
  5
313
100
AcDbEntity
  8
SLD-0
  6
CONTINUOUS
 62
       3
100
AcDbLine
 10
-59.296909
 20
-33.64530239
 30
0.0
 11
-59.29384519
 21
-33.67514009
 31
0.0
  0
LINE
  5
314
100
AcDbEntity
  8
SLD-0
  6
CONTINUOUS
 62
       3
100
AcDbLine
 10
-59.29384519
 20
-33.67514009
 30
0.0
 11
-59.29135063
 21
-33.70500172
 31
0.0
  0
LINE
  5
315
100
AcDbEntity
  8
SLD-0
  6
CONTINUOUS
 62
       3
100
AcDbLine
 10
-59.29135063
 20
-33.70500172
 30
0.0
 11
-59.28940066
 21
-33.73486961
 31
0.0
  0
LINE
  5
316
100
AcDbEntity
  8
SLD-0
  6
CONTINUOUS
 62
       3
100
AcDbLine
 10
-59.28940066
 20
-33.73486961
 30
0.0
 11
-59.28790108
 21
-33.76473963
 31
0.0
  0
LINE
  5
317
100
AcDbEntity
  8
SLD-0
  6
CONTINUOUS
 62
       3
100
AcDbLine
 10
-59.28790108
 20
-33.76473963
 30
0.0
 11
-59.28673932
 21
-33.79461125
 31
0.0
  0
LINE
  5
318
100
AcDbEntity
  8
SLD-0
  6
CONTINUOUS
 62
       3
100
AcDbLine
 10
-59.28673932
 20
-33.79461125
 30
0.0
 11
-59.28580275
 21
-33.82448393
 31
0.0
  0
LINE
  5
319
100
AcDbEntity
  8
SLD-0
  6
CONTINUOUS
 62
       3
100
AcDbLine
 10
-59.28580275
 20
-33.82448393
 30
0.0
 11
-59.28497878
 21
-33.85435714
 31
0.0
  0
LINE
  5
31A
100
AcDbEntity
  8
SLD-0
  6
CONTINUOUS
 62
       3
100
AcDbLine
 10
-130.64647955
 20
-37.00000111
 30
0.0
 11
-130.66049134
 21
-36.97345165
 31
0.0
  0
LINE
  5
31B
100
AcDbEntity
  8
SLD-0
  6
CONTINUOUS
 62
       3
100
AcDbLine
 10
-130.66049134
 20
-36.97345165
 30
0.0
 11
-130.67444998
 21
-36.94688105
 31
0.0
  0
LINE
  5
31C
100
AcDbEntity
  8
SLD-0
  6
CONTINUOUS
 62
       3
100
AcDbLine
 10
-130.67444998
 20
-36.94688105
 30
0.0
 11
-130.68830236
 21
-36.92026819
 31
0.0
  0
LINE
  5
31D
100
AcDbEntity
  8
SLD-0
  6
CONTINUOUS
 62
       3
100
AcDbLine
 10
-130.68830236
 20
-36.92026819
 30
0.0
 11
-130.70199532
 21
-36.89359193
 31
0.0
  0
LINE
  5
31E
100
AcDbEntity
  8
SLD-0
  6
CONTINUOUS
 62
       3
100
AcDbLine
 10
-130.70199532
 20
-36.89359193
 30
0.0
 11
-130.71547574
 21
-36.86683115
 31
0.0
  0
LINE
  5
31F
100
AcDbEntity
  8
SLD-0
  6
CONTINUOUS
 62
       3
100
AcDbLine
 10
-130.71547574
 20
-36.86683115
 30
0.0
 11
-130.72869048
 21
-36.8399647
 31
0.0
  0
LINE
  5
320
100
AcDbEntity
  8
SLD-0
  6
CONTINUOUS
 62
       3
100
AcDbLine
 10
-130.72869048
 20
-36.8399647
 30
0.0
 11
-130.74158641
 21
-36.81297146
 31
0.0
  0
LINE
  5
321
100
AcDbEntity
  8
SLD-0
  6
CONTINUOUS
 62
       3
100
AcDbLine
 10
-130.74158641
 20
-36.81297146
 30
0.0
 11
-130.75411037
 21
-36.78583029
 31
0.0
  0
LINE
  5
322
100
AcDbEntity
  8
SLD-0
  6
CONTINUOUS
 62
       3
100
AcDbLine
 10
-130.75411037
 20
-36.78583029
 30
0.0
 11
-130.76620925
 21
-36.75852006
 31
0.0
  0
LINE
  5
323
100
AcDbEntity
  8
SLD-0
  6
CONTINUOUS
 62
       3
100
AcDbLine
 10
-130.76620925
 20
-36.75852006
 30
0.0
 11
-130.77782991
 21
-36.73101965
 31
0.0
  0
LINE
  5
324
100
AcDbEntity
  8
SLD-0
  6
CONTINUOUS
 62
       3
100
AcDbLine
 10
-130.77782991
 20
-36.73101965
 30
0.0
 11
-130.7889192
 21
-36.70330791
 31
0.0
  0
LINE
  5
325
100
AcDbEntity
  8
SLD-0
  6
CONTINUOUS
 62
       3
100
AcDbLine
 10
-130.7889192
 20
-36.70330791
 30
0.0
 11
-130.79942399
 21
-36.67536371
 31
0.0
  0
LINE
  5
326
100
AcDbEntity
  8
SLD-0
  6
CONTINUOUS
 62
       3
100
AcDbLine
 10
-130.79942399
 20
-36.67536371
 30
0.0
 11
-130.80929243
 21
-36.64716681
 31
0.0
  0
LINE
  5
327
100
AcDbEntity
  8
SLD-0
  6
CONTINUOUS
 62
       3
100
AcDbLine
 10
-130.80929243
 20
-36.64716681
 30
0.0
 11
-130.81850211
 21
-36.61871709
 31
0.0
  0
LINE
  5
328
100
AcDbEntity
  8
SLD-0
  6
CONTINUOUS
 62
       3
100
AcDbLine
 10
-130.81850211
 20
-36.61871709
 30
0.0
 11
-130.82706
 21
-36.59003457
 31
0.0
  0
LINE
  5
329
100
AcDbEntity
  8
SLD-0
  6
CONTINUOUS
 62
       3
100
AcDbLine
 10
-130.82706
 20
-36.59003457
 30
0.0
 11
-130.83497438
 21
-36.56114013
 31
0.0
  0
LINE
  5
32A
100
AcDbEntity
  8
SLD-0
  6
CONTINUOUS
 62
       3
100
AcDbLine
 10
-130.83497438
 20
-36.56114013
 30
0.0
 11
-130.84225349
 21
-36.53205468
 31
0.0
  0
LINE
  5
32B
100
AcDbEntity
  8
SLD-0
  6
CONTINUOUS
 62
       3
100
AcDbLine
 10
-130.84225349
 20
-36.53205468
 30
0.0
 11
-130.8489056
 21
-36.50279908
 31
0.0
  0
LINE
  5
32C
100
AcDbEntity
  8
SLD-0
  6
CONTINUOUS
 62
       3
100
AcDbLine
 10
-130.8489056
 20
-36.50279908
 30
0.0
 11
-130.85493897
 21
-36.47339424
 31
0.0
  0
LINE
  5
32D
100
AcDbEntity
  8
SLD-0
  6
CONTINUOUS
 62
       3
100
AcDbLine
 10
-130.85493897
 20
-36.47339424
 30
0.0
 11
-130.86036187
 21
-36.44386103
 31
0.0
  0
LINE
  5
32E
100
AcDbEntity
  8
SLD-0
  6
CONTINUOUS
 62
       3
100
AcDbLine
 10
-130.86036187
 20
-36.44386103
 30
0.0
 11
-130.86518254
 21
-36.41422035
 31
0.0
  0
LINE
  5
32F
100
AcDbEntity
  8
SLD-0
  6
CONTINUOUS
 62
       3
100
AcDbLine
 10
-130.86518254
 20
-36.41422035
 30
0.0
 11
-130.86940926
 21
-36.38449308
 31
0.0
  0
LINE
  5
330
100
AcDbEntity
  8
SLD-0
  6
CONTINUOUS
 62
       3
100
AcDbLine
 10
-130.86940926
 20
-36.38449308
 30
0.0
 11
-130.87305027
 21
-36.35470012
 31
0.0
  0
LINE
  5
331
100
AcDbEntity
  8
SLD-0
  6
CONTINUOUS
 62
       3
100
AcDbLine
 10
-130.87305027
 20
-36.35470012
 30
0.0
 11
-130.87611385
 21
-36.32486234
 31
0.0
  0
LINE
  5
332
100
AcDbEntity
  8
SLD-0
  6
CONTINUOUS
 62
       3
100
AcDbLine
 10
-130.87611385
 20
-36.32486234
 30
0.0
 11
-130.87860825
 21
-36.29500065
 31
0.0
  0
LINE
  5
333
100
AcDbEntity
  8
SLD-0
  6
CONTINUOUS
 62
       3
100
AcDbLine
 10
-130.87860825
 20
-36.29500065
 30
0.0
 11
-130.88055813
 21
-36.26513271
 31
0.0
  0
LINE
  5
334
100
AcDbEntity
  8
SLD-0
  6
CONTINUOUS
 62
       3
100
AcDbLine
 10
-130.88055813
 20
-36.26513271
 30
0.0
 11
-130.88205767
 21
-36.23526267
 31
0.0
  0
LINE
  5
335
100
AcDbEntity
  8
SLD-0
  6
CONTINUOUS
 62
       3
100
AcDbLine
 10
-130.88205767
 20
-36.23526267
 30
0.0
 11
-130.88321945
 21
-36.20539104
 31
0.0
  0
LINE
  5
336
100
AcDbEntity
  8
SLD-0
  6
CONTINUOUS
 62
       3
100
AcDbLine
 10
-130.88321945
 20
-36.20539104
 30
0.0
 11
-130.88415606
 21
-36.17551835
 31
0.0
  0
LINE
  5
337
100
AcDbEntity
  8
SLD-0
  6
CONTINUOUS
 62
       3
100
AcDbLine
 10
-130.88415606
 20
-36.17551835
 30
0.0
 11
-130.88498009
 21
-36.14564513
 31
0.0
  0
LINE
  5
338
100
AcDbEntity
  8
SLD-0
  6
CONTINUOUS
 62
       3
100
AcDbLine
 10
-130.88324311
 20
-35.50000133
 30
0.0
 11
-130.88208656
 21
-35.50000133
 31
0.0
  0
LINE
  5
339
100
AcDbEntity
  8
SLD-0
  6
CONTINUOUS
 62
       3
100
AcDbLine
 10
-130.87862123
 20
-35.50000133
 30
0.0
 11
-130.87610191
 21
-35.50000133
 31
0.0
  0
LINE
  5
33A
100
AcDbEntity
  8
SLD-0
  6
CONTINUOUS
 62
       3
100
AcDbLine
 10
-130.87610191
 20
-35.50000133
 30
0.0
 11
-130.87300758
 21
-35.50000133
 31
0.0
  0
LINE
  5
33B
100
AcDbEntity
  8
SLD-0
  6
CONTINUOUS
 62
       3
100
AcDbLine
 10
-130.87300758
 20
-35.50000133
 30
0.0
 11
-130.86933779
 21
-35.50000133
 31
0.0
  0
LINE
  5
33C
100
AcDbEntity
  8
SLD-0
  6
CONTINUOUS
 62
       3
100
AcDbLine
 10
-130.86933779
 20
-35.50000133
 30
0.0
 11
-130.86509213
 21
-35.50000133
 31
0.0
  0
LINE
  5
33D
100
AcDbEntity
  8
SLD-0
  6
CONTINUOUS
 62
       3
100
AcDbLine
 10
-130.86509213
 20
-35.50000133
 30
0.0
 11
-130.86027017
 21
-35.50000133
 31
0.0
  0
LINE
  5
33E
100
AcDbEntity
  8
SLD-0
  6
CONTINUOUS
 62
       3
100
AcDbLine
 10
-130.86027017
 20
-35.50000133
 30
0.0
 11
-130.85487147
 21
-35.50000133
 31
0.0
  0
LINE
  5
33F
100
AcDbEntity
  8
SLD-0
  6
CONTINUOUS
 62
       3
100
AcDbLine
 10
-130.85487147
 20
-35.50000133
 30
0.0
 11
-130.84889561
 21
-35.50000133
 31
0.0
  0
LINE
  5
340
100
AcDbEntity
  8
SLD-0
  6
CONTINUOUS
 62
       3
100
AcDbLine
 10
-130.84889561
 20
-35.50000133
 30
0.0
 11
-130.84234216
 21
-35.50000133
 31
0.0
  0
LINE
  5
341
100
AcDbEntity
  8
SLD-0
  6
CONTINUOUS
 62
       3
100
AcDbLine
 10
-130.84234216
 20
-35.50000133
 30
0.0
 11
-130.8352107
 21
-35.50000133
 31
0.0
  0
LINE
  5
342
100
AcDbEntity
  8
SLD-0
  6
CONTINUOUS
 62
       3
100
AcDbLine
 10
-130.8352107
 20
-35.50000133
 30
0.0
 11
-130.82750078
 21
-35.50000133
 31
0.0
  0
LINE
  5
343
100
AcDbEntity
  8
SLD-0
  6
CONTINUOUS
 62
       3
100
AcDbLine
 10
-130.82750078
 20
-35.50000133
 30
0.0
 11
-130.81921199
 21
-35.50000133
 31
0.0
  0
LINE
  5
344
100
AcDbEntity
  8
SLD-0
  6
CONTINUOUS
 62
       3
100
AcDbLine
 10
-130.81921199
 20
-35.50000133
 30
0.0
 11
-130.81034389
 21
-35.50000133
 31
0.0
  0
LINE
  5
345
100
AcDbEntity
  8
SLD-0
  6
CONTINUOUS
 62
       3
100
AcDbLine
 10
-130.81034389
 20
-35.50000133
 30
0.0
 11
-130.80089606
 21
-35.50000133
 31
0.0
  0
LINE
  5
346
100
AcDbEntity
  8
SLD-0
  6
CONTINUOUS
 62
       3
100
AcDbLine
 10
-130.80089606
 20
-35.50000133
 30
0.0
 11
-130.79086807
 21
-35.50000133
 31
0.0
  0
LINE
  5
347
100
AcDbEntity
  8
SLD-0
  6
CONTINUOUS
 62
       3
100
AcDbLine
 10
-130.79086807
 20
-35.50000133
 30
0.0
 11
-130.78025949
 21
-35.50000133
 31
0.0
  0
LINE
  5
348
100
AcDbEntity
  8
SLD-0
  6
CONTINUOUS
 62
       3
100
AcDbLine
 10
-130.78025949
 20
-35.50000133
 30
0.0
 11
-130.76906989
 21
-35.50000133
 31
0.0
  0
LINE
  5
349
100
AcDbEntity
  8
SLD-0
  6
CONTINUOUS
 62
       3
100
AcDbLine
 10
-130.76906989
 20
-35.50000133
 30
0.0
 11
-130.75729884
 21
-35.50000133
 31
0.0
  0
LINE
  5
34A
100
AcDbEntity
  8
SLD-0
  6
CONTINUOUS
 62
       3
100
AcDbLine
 10
-130.75729884
 20
-35.50000133
 30
0.0
 11
-130.74494592
 21
-35.50000133
 31
0.0
  0
LINE
  5
34B
100
AcDbEntity
  8
SLD-0
  6
CONTINUOUS
 62
       3
100
AcDbLine
 10
-130.74494592
 20
-35.50000133
 30
0.0
 11
-130.73201498
 21
-35.50000133
 31
0.0
  0
LINE
  5
34C
100
AcDbEntity
  8
SLD-0
  6
CONTINUOUS
 62
       3
100
AcDbLine
 10
-130.73201498
 20
-35.50000133
 30
0.0
 11
-130.71856022
 21
-35.50000133
 31
0.0
  0
LINE
  5
34D
100
AcDbEntity
  8
SLD-0
  6
CONTINUOUS
 62
       3
100
AcDbLine
 10
-130.71856022
 20
-35.50000133
 30
0.0
 11
-130.70466847
 21
-35.50000133
 31
0.0
  0
LINE
  5
34E
100
AcDbEntity
  8
SLD-0
  6
CONTINUOUS
 62
       3
100
AcDbLine
 10
-130.70466847
 20
-35.50000133
 30
0.0
 11
-130.69042713
 21
-35.50000133
 31
0.0
  0
LINE
  5
34F
100
AcDbEntity
  8
SLD-0
  6
CONTINUOUS
 62
       3
100
AcDbLine
 10
-130.69042713
 20
-35.50000133
 30
0.0
 11
-130.6759236
 21
-35.50000133
 31
0.0
  0
LINE
  5
350
100
AcDbEntity
  8
SLD-0
  6
CONTINUOUS
 62
       3
100
AcDbLine
 10
-130.6759236
 20
-35.50000133
 30
0.0
 11
-130.66124527
 21
-35.50000133
 31
0.0
  0
LINE
  5
351
100
AcDbEntity
  8
SLD-0
  6
CONTINUOUS
 62
       3
100
AcDbLine
 10
-130.66124527
 20
-35.50000133
 30
0.0
 11
-130.64647955
 21
-35.50000133
 31
0.0
  0
LINE
  5
352
100
AcDbEntity
  8
SLD-0
  6
CONTINUOUS
 62
       3
100
AcDbLine
 10
-130.64647955
 20
-35.50000133
 30
0.0
 11
-130.65102588
 21
-35.46687516
 31
0.0
  0
LINE
  5
353
100
AcDbEntity
  8
SLD-0
  6
CONTINUOUS
 62
       3
100
AcDbLine
 10
-130.65102588
 20
-35.46687516
 30
0.0
 11
-130.65549463
 21
-35.43373829
 31
0.0
  0
LINE
  5
354
100
AcDbEntity
  8
SLD-0
  6
CONTINUOUS
 62
       3
100
AcDbLine
 10
-130.65549463
 20
-35.43373829
 30
0.0
 11
-130.65980821
 21
-35.40057998
 31
0.0
  0
LINE
  5
355
100
AcDbEntity
  8
SLD-0
  6
CONTINUOUS
 62
       3
100
AcDbLine
 10
-130.65980821
 20
-35.40057998
 30
0.0
 11
-130.66388904
 21
-35.36738955
 31
0.0
  0
LINE
  5
356
100
AcDbEntity
  8
SLD-0
  6
CONTINUOUS
 62
       3
100
AcDbLine
 10
-130.66388904
 20
-35.36738955
 30
0.0
 11
-130.66765959
 21
-35.33415629
 31
0.0
  0
LINE
  5
357
100
AcDbEntity
  8
SLD-0
  6
CONTINUOUS
 62
       3
100
AcDbLine
 10
-130.66765959
 20
-35.33415629
 30
0.0
 11
-130.67106155
 21
-35.30087409
 31
0.0
  0
LINE
  5
358
100
AcDbEntity
  8
SLD-0
  6
CONTINUOUS
 62
       3
100
AcDbLine
 10
-130.67106155
 20
-35.30087409
 30
0.0
 11
-130.67408335
 21
-35.26754801
 31
0.0
  0
LINE
  5
359
100
AcDbEntity
  8
SLD-0
  6
CONTINUOUS
 62
       3
100
AcDbLine
 10
-130.67408335
 20
-35.26754801
 30
0.0
 11
-130.6767204
 21
-35.23418478
 31
0.0
  0
LINE
  5
35A
100
AcDbEntity
  8
SLD-0
  6
CONTINUOUS
 62
       3
100
AcDbLine
 10
-130.6767204
 20
-35.23418478
 30
0.0
 11
-130.67896811
 21
-35.20079112
 31
0.0
  0
LINE
  5
35B
100
AcDbEntity
  8
SLD-0
  6
CONTINUOUS
 62
       3
100
AcDbLine
 10
-130.67896811
 20
-35.20079112
 30
0.0
 11
-130.68082189
 21
-35.16737375
 31
0.0
  0
LINE
  5
35C
100
AcDbEntity
  8
SLD-0
  6
CONTINUOUS
 62
       3
100
AcDbLine
 10
-130.68082189
 20
-35.16737375
 30
0.0
 11
-130.68227715
 21
-35.1339394
 31
0.0
  0
LINE
  5
35D
100
AcDbEntity
  8
SLD-0
  6
CONTINUOUS
 62
       3
100
AcDbLine
 10
-130.68227715
 20
-35.1339394
 30
0.0
 11
-130.68332931
 21
-35.10049481
 31
0.0
  0
LINE
  5
35E
100
AcDbEntity
  8
SLD-0
  6
CONTINUOUS
 62
       3
100
AcDbLine
 10
-130.68332931
 20
-35.10049481
 30
0.0
 11
-130.68397378
 21
-35.06704668
 31
0.0
  0
LINE
  5
35F
100
AcDbEntity
  8
SLD-0
  6
CONTINUOUS
 62
       3
100
AcDbLine
 10
-130.68397378
 20
-35.06704668
 30
0.0
 11
-130.68420596
 21
-35.03360175
 31
0.0
  0
LINE
  5
360
100
AcDbEntity
  8
SLD-0
  6
CONTINUOUS
 62
       3
100
AcDbLine
 10
-130.68420596
 20
-35.03360175
 30
0.0
 11
-130.68402126
 21
-35.00016674
 31
0.0
  0
LINE
  5
361
100
AcDbEntity
  8
SLD-0
  6
CONTINUOUS
 62
       3
100
AcDbLine
 10
-130.68402126
 20
-35.00016674
 30
0.0
 11
-130.68342047
 21
-34.9667471
 31
0.0
  0
LINE
  5
362
100
AcDbEntity
  8
SLD-0
  6
CONTINUOUS
 62
       3
100
AcDbLine
 10
-130.68342047
 20
-34.9667471
 30
0.0
 11
-130.68242617
 21
-34.93334303
 31
0.0
  0
LINE
  5
363
100
AcDbEntity
  8
SLD-0
  6
CONTINUOUS
 62
       3
100
AcDbLine
 10
-130.68242617
 20
-34.93334303
 30
0.0
 11
-130.68106646
 21
-34.89995342
 31
0.0
  0
LINE
  5
364
100
AcDbEntity
  8
SLD-0
  6
CONTINUOUS
 62
       3
100
AcDbLine
 10
-130.68106646
 20
-34.89995342
 30
0.0
 11
-130.67936945
 21
-34.86657715
 31
0.0
  0
LINE
  5
365
100
AcDbEntity
  8
SLD-0
  6
CONTINUOUS
 62
       3
100
AcDbLine
 10
-130.67936945
 20
-34.86657715
 30
0.0
 11
-130.67736325
 21
-34.83321313
 31
0.0
  0
LINE
  5
366
100
AcDbEntity
  8
SLD-0
  6
CONTINUOUS
 62
       3
100
AcDbLine
 10
-130.67736325
 20
-34.83321313
 30
0.0
 11
-130.67507597
 21
-34.79986023
 31
0.0
  0
LINE
  5
367
100
AcDbEntity
  8
SLD-0
  6
CONTINUOUS
 62
       3
100
AcDbLine
 10
-130.67507597
 20
-34.79986023
 30
0.0
 11
-130.67253571
 21
-34.76651734
 31
0.0
  0
LINE
  5
368
100
AcDbEntity
  8
SLD-0
  6
CONTINUOUS
 62
       3
100
AcDbLine
 10
-130.67253571
 20
-34.76651734
 30
0.0
 11
-130.66977058
 21
-34.73318335
 31
0.0
  0
LINE
  5
369
100
AcDbEntity
  8
SLD-0
  6
CONTINUOUS
 62
       3
100
AcDbLine
 10
-130.66977058
 20
-34.73318335
 30
0.0
 11
-130.6668087
 21
-34.69985715
 31
0.0
  0
LINE
  5
36A
100
AcDbEntity
  8
SLD-0
  6
CONTINUOUS
 62
       3
100
AcDbLine
 10
-130.6668087
 20
-34.69985715
 30
0.0
 11
-130.66367817
 21
-34.66653762
 31
0.0
  0
LINE
  5
36B
100
AcDbEntity
  8
SLD-0
  6
CONTINUOUS
 62
       3
100
AcDbLine
 10
-130.66367817
 20
-34.66653762
 30
0.0
 11
-130.66040709
 21
-34.63322366
 31
0.0
  0
LINE
  5
36C
100
AcDbEntity
  8
SLD-0
  6
CONTINUOUS
 62
       3
100
AcDbLine
 10
-130.66040709
 20
-34.63322366
 30
0.0
 11
-130.65702359
 21
-34.59991414
 31
0.0
  0
LINE
  5
36D
100
AcDbEntity
  8
SLD-0
  6
CONTINUOUS
 62
       3
100
AcDbLine
 10
-130.65702359
 20
-34.59991414
 30
0.0
 11
-130.65355576
 21
-34.56660796
 31
0.0
  0
LINE
  5
36E
100
AcDbEntity
  8
SLD-0
  6
CONTINUOUS
 62
       3
100
AcDbLine
 10
-130.65355576
 20
-34.56660796
 30
0.0
 11
-130.65003171
 21
-34.53330401
 31
0.0
  0
LINE
  5
36F
100
AcDbEntity
  8
SLD-0
  6
CONTINUOUS
 62
       3
100
AcDbLine
 10
-130.65003171
 20
-34.53330401
 30
0.0
 11
-130.64647955
 21
-34.50000117
 31
0.0
  0
LINE
  5
370
100
AcDbEntity
  8
SLD-0
  6
CONTINUOUS
 62
       3
100
AcDbLine
 10
-130.64647955
 20
-34.50000117
 30
0.0
 11
-130.66049133
 21
-34.50000117
 31
0.0
  0
LINE
  5
371
100
AcDbEntity
  8
SLD-0
  6
CONTINUOUS
 62
       3
100
AcDbLine
 10
-130.66049133
 20
-34.50000117
 30
0.0
 11
-130.67444998
 21
-34.50000117
 31
0.0
  0
LINE
  5
372
100
AcDbEntity
  8
SLD-0
  6
CONTINUOUS
 62
       3
100
AcDbLine
 10
-130.67444998
 20
-34.50000117
 30
0.0
 11
-130.68830235
 21
-34.50000117
 31
0.0
  0
LINE
  5
373
100
AcDbEntity
  8
SLD-0
  6
CONTINUOUS
 62
       3
100
AcDbLine
 10
-130.68830235
 20
-34.50000117
 30
0.0
 11
-130.70199531
 21
-34.50000117
 31
0.0
  0
LINE
  5
374
100
AcDbEntity
  8
SLD-0
  6
CONTINUOUS
 62
       3
100
AcDbLine
 10
-130.70199531
 20
-34.50000117
 30
0.0
 11
-130.71547573
 21
-34.50000117
 31
0.0
  0
LINE
  5
375
100
AcDbEntity
  8
SLD-0
  6
CONTINUOUS
 62
       3
100
AcDbLine
 10
-130.71547573
 20
-34.50000117
 30
0.0
 11
-130.72869047
 21
-34.50000117
 31
0.0
  0
LINE
  5
376
100
AcDbEntity
  8
SLD-0
  6
CONTINUOUS
 62
       3
100
AcDbLine
 10
-130.72869047
 20
-34.50000117
 30
0.0
 11
-130.74158638
 21
-34.50000117
 31
0.0
  0
LINE
  5
377
100
AcDbEntity
  8
SLD-0
  6
CONTINUOUS
 62
       3
100
AcDbLine
 10
-130.74158638
 20
-34.50000117
 30
0.0
 11
-130.75411035
 21
-34.50000117
 31
0.0
  0
LINE
  5
378
100
AcDbEntity
  8
SLD-0
  6
CONTINUOUS
 62
       3
100
AcDbLine
 10
-130.75411035
 20
-34.50000117
 30
0.0
 11
-130.76620922
 21
-34.50000117
 31
0.0
  0
LINE
  5
379
100
AcDbEntity
  8
SLD-0
  6
CONTINUOUS
 62
       3
100
AcDbLine
 10
-130.76620922
 20
-34.50000117
 30
0.0
 11
-130.77782986
 21
-34.50000117
 31
0.0
  0
LINE
  5
37A
100
AcDbEntity
  8
SLD-0
  6
CONTINUOUS
 62
       3
100
AcDbLine
 10
-130.77782986
 20
-34.50000117
 30
0.0
 11
-130.78891914
 21
-34.50000117
 31
0.0
  0
LINE
  5
37B
100
AcDbEntity
  8
SLD-0
  6
CONTINUOUS
 62
       3
100
AcDbLine
 10
-130.78891914
 20
-34.50000117
 30
0.0
 11
-130.79942392
 21
-34.50000117
 31
0.0
  0
LINE
  5
37C
100
AcDbEntity
  8
SLD-0
  6
CONTINUOUS
 62
       3
100
AcDbLine
 10
-130.79942392
 20
-34.50000117
 30
0.0
 11
-130.80929234
 21
-34.50000117
 31
0.0
  0
LINE
  5
37D
100
AcDbEntity
  8
SLD-0
  6
CONTINUOUS
 62
       3
100
AcDbLine
 10
-130.80929234
 20
-34.50000117
 30
0.0
 11
-130.818502
 21
-34.50000117
 31
0.0
  0
LINE
  5
37E
100
AcDbEntity
  8
SLD-0
  6
CONTINUOUS
 62
       3
100
AcDbLine
 10
-130.818502
 20
-34.50000117
 30
0.0
 11
-130.82705987
 21
-34.50000117
 31
0.0
  0
LINE
  5
37F
100
AcDbEntity
  8
SLD-0
  6
CONTINUOUS
 62
       3
100
AcDbLine
 10
-130.82705987
 20
-34.50000117
 30
0.0
 11
-130.83497423
 21
-34.50000117
 31
0.0
  0
LINE
  5
380
100
AcDbEntity
  8
SLD-0
  6
CONTINUOUS
 62
       3
100
AcDbLine
 10
-130.83497423
 20
-34.50000117
 30
0.0
 11
-130.84225332
 21
-34.50000117
 31
0.0
  0
LINE
  5
381
100
AcDbEntity
  8
SLD-0
  6
CONTINUOUS
 62
       3
100
AcDbLine
 10
-130.84225332
 20
-34.50000117
 30
0.0
 11
-130.84890541
 21
-34.50000117
 31
0.0
  0
LINE
  5
382
100
AcDbEntity
  8
SLD-0
  6
CONTINUOUS
 62
       3
100
AcDbLine
 10
-130.84890541
 20
-34.50000117
 30
0.0
 11
-130.85493877
 21
-34.50000117
 31
0.0
  0
LINE
  5
383
100
AcDbEntity
  8
SLD-0
  6
CONTINUOUS
 62
       3
100
AcDbLine
 10
-130.85493877
 20
-34.50000117
 30
0.0
 11
-130.86036165
 21
-34.50000117
 31
0.0
  0
LINE
  5
384
100
AcDbEntity
  8
SLD-0
  6
CONTINUOUS
 62
       3
100
AcDbLine
 10
-130.86036165
 20
-34.50000117
 30
0.0
 11
-130.86518232
 21
-34.50000117
 31
0.0
  0
LINE
  5
385
100
AcDbEntity
  8
SLD-0
  6
CONTINUOUS
 62
       3
100
AcDbLine
 10
-130.86518232
 20
-34.50000117
 30
0.0
 11
-130.86940904
 21
-34.50000117
 31
0.0
  0
LINE
  5
386
100
AcDbEntity
  8
SLD-0
  6
CONTINUOUS
 62
       3
100
AcDbLine
 10
-130.86940904
 20
-34.50000117
 30
0.0
 11
-130.87305006
 21
-34.50000117
 31
0.0
  0
LINE
  5
387
100
AcDbEntity
  8
SLD-0
  6
CONTINUOUS
 62
       3
100
AcDbLine
 10
-130.87305006
 20
-34.50000117
 30
0.0
 11
-130.87611366
 21
-34.50000117
 31
0.0
  0
LINE
  5
388
100
AcDbEntity
  8
SLD-0
  6
CONTINUOUS
 62
       3
100
AcDbLine
 10
-130.87611366
 20
-34.50000117
 30
0.0
 11
-130.87860808
 21
-34.50000117
 31
0.0
  0
LINE
  5
389
100
AcDbEntity
  8
SLD-0
  6
CONTINUOUS
 62
       3
100
AcDbLine
 10
-130.880558
 20
-34.50000117
 30
0.0
 11
-130.88205757
 21
-34.50000117
 31
0.0
  0
LINE
  5
38A
100
AcDbEntity
  8
SLD-0
  6
CONTINUOUS
 62
       3
100
AcDbLine
 10
-130.88321938
 20
-34.50000117
 30
0.0
 11
-130.88415603
 21
-34.50000117
 31
0.0
  0
LINE
  5
38B
100
AcDbEntity
  8
SLD-0
  6
CONTINUOUS
 62
       3
100
AcDbLine
 10
-130.88498009
 20
-33.85435714
 30
0.0
 11
-130.88416925
 21
-33.82452438
 31
0.0
  0
LINE
  5
38C
100
AcDbEntity
  8
SLD-0
  6
CONTINUOUS
 62
       3
100
AcDbLine
 10
-130.88416925
 20
-33.82452438
 30
0.0
 11
-130.88324318
 21
-33.79469115
 31
0.0
  0
LINE
  5
38D
100
AcDbEntity
  8
SLD-0
  6
CONTINUOUS
 62
       3
100
AcDbLine
 10
-130.88324318
 20
-33.79469115
 30
0.0
 11
-130.88208667
 21
-33.76485694
 31
0.0
  0
LINE
  5
38E
100
AcDbEntity
  8
SLD-0
  6
CONTINUOUS
 62
       3
100
AcDbLine
 10
-130.88208667
 20
-33.76485694
 30
0.0
 11
-130.88058447
 21
-33.73502129
 31
0.0
  0
LINE
  5
38F
100
AcDbEntity
  8
SLD-0
  6
CONTINUOUS
 62
       3
100
AcDbLine
 10
-130.88058447
 20
-33.73502129
 30
0.0
 11
-130.87862138
 21
-33.7051837
 31
0.0
  0
LINE
  5
390
100
AcDbEntity
  8
SLD-0
  6
CONTINUOUS
 62
       3
100
AcDbLine
 10
-130.87862138
 20
-33.7051837
 30
0.0
 11
-130.87610207
 21
-33.67534675
 31
0.0
  0
LINE
  5
391
100
AcDbEntity
  8
SLD-0
  6
CONTINUOUS
 62
       3
100
AcDbLine
 10
-130.87610207
 20
-33.67534675
 30
0.0
 11
-130.87300772
 21
-33.64552474
 31
0.0
  0
LINE
  5
392
100
AcDbEntity
  8
SLD-0
  6
CONTINUOUS
 62
       3
100
AcDbLine
 10
-130.87300772
 20
-33.64552474
 30
0.0
 11
-130.86933791
 21
-33.61573483
 31
0.0
  0
LINE
  5
393
100
AcDbEntity
  8
SLD-0
  6
CONTINUOUS
 62
       3
100
AcDbLine
 10
-130.86933791
 20
-33.61573483
 30
0.0
 11
-130.86509221
 21
-33.58599413
 31
0.0
  0
LINE
  5
394
100
AcDbEntity
  8
SLD-0
  6
CONTINUOUS
 62
       3
100
AcDbLine
 10
-130.86509221
 20
-33.58599413
 30
0.0
 11
-130.8602702
 21
-33.55631979
 31
0.0
  0
LINE
  5
395
100
AcDbEntity
  8
SLD-0
  6
CONTINUOUS
 62
       3
100
AcDbLine
 10
-130.8602702
 20
-33.55631979
 30
0.0
 11
-130.85487145
 21
-33.52672894
 31
0.0
  0
LINE
  5
396
100
AcDbEntity
  8
SLD-0
  6
CONTINUOUS
 62
       3
100
AcDbLine
 10
-130.85487145
 20
-33.52672894
 30
0.0
 11
-130.84889553
 21
-33.49723871
 31
0.0
  0
LINE
  5
397
100
AcDbEntity
  8
SLD-0
  6
CONTINUOUS
 62
       3
100
AcDbLine
 10
-130.84889553
 20
-33.49723871
 30
0.0
 11
-130.84234201
 21
-33.46786625
 31
0.0
  0
LINE
  5
398
100
AcDbEntity
  8
SLD-0
  6
CONTINUOUS
 62
       3
100
AcDbLine
 10
-130.84234201
 20
-33.46786625
 30
0.0
 11
-130.83521048
 21
-33.43862868
 31
0.0
  0
LINE
  5
399
100
AcDbEntity
  8
SLD-0
  6
CONTINUOUS
 62
       3
100
AcDbLine
 10
-130.83521048
 20
-33.43862868
 30
0.0
 11
-130.82750049
 21
-33.40954315
 31
0.0
  0
LINE
  5
39A
100
AcDbEntity
  8
SLD-0
  6
CONTINUOUS
 62
       3
100
AcDbLine
 10
-130.82750049
 20
-33.40954315
 30
0.0
 11
-130.81921164
 21
-33.38062678
 31
0.0
  0
LINE
  5
39B
100
AcDbEntity
  8
SLD-0
  6
CONTINUOUS
 62
       3
100
AcDbLine
 10
-130.81921164
 20
-33.38062678
 30
0.0
 11
-130.81034348
 21
-33.35189671
 31
0.0
  0
LINE
  5
39C
100
AcDbEntity
  8
SLD-0
  6
CONTINUOUS
 62
       3
100
AcDbLine
 10
-130.81034348
 20
-33.35189671
 30
0.0
 11
-130.8008956
 21
-33.32337008
 31
0.0
  0
LINE
  5
39D
100
AcDbEntity
  8
SLD-0
  6
CONTINUOUS
 62
       3
100
AcDbLine
 10
-130.8008956
 20
-33.32337008
 30
0.0
 11
-130.79086757
 21
-33.29506402
 31
0.0
  0
LINE
  5
39E
100
AcDbEntity
  8
SLD-0
  6
CONTINUOUS
 62
       3
100
AcDbLine
 10
-130.79086757
 20
-33.29506402
 30
0.0
 11
-130.78025895
 21
-33.26699567
 31
0.0
  0
LINE
  5
39F
100
AcDbEntity
  8
SLD-0
  6
CONTINUOUS
 62
       3
100
AcDbLine
 10
-130.78025895
 20
-33.26699567
 30
0.0
 11
-130.76906933
 21
-33.23918216
 31
0.0
  0
LINE
  5
3A0
100
AcDbEntity
  8
SLD-0
  6
CONTINUOUS
 62
       3
100
AcDbLine
 10
-130.76906933
 20
-33.23918216
 30
0.0
 11
-130.75729828
 21
-33.21164063
 31
0.0
  0
LINE
  5
3A1
100
AcDbEntity
  8
SLD-0
  6
CONTINUOUS
 62
       3
100
AcDbLine
 10
-130.75729828
 20
-33.21164063
 30
0.0
 11
-130.74494537
 21
-33.18438822
 31
0.0
  0
LINE
  5
3A2
100
AcDbEntity
  8
SLD-0
  6
CONTINUOUS
 62
       3
100
AcDbLine
 10
-130.74494537
 20
-33.18438822
 30
0.0
 11
-130.73201446
 21
-33.15743892
 31
0.0
  0
LINE
  5
3A3
100
AcDbEntity
  8
SLD-0
  6
CONTINUOUS
 62
       3
100
AcDbLine
 10
-130.73201446
 20
-33.15743892
 30
0.0
 11
-130.71855975
 21
-33.13077011
 31
0.0
  0
LINE
  5
3A4
100
AcDbEntity
  8
SLD-0
  6
CONTINUOUS
 62
       3
100
AcDbLine
 10
-130.71855975
 20
-33.13077011
 30
0.0
 11
-130.70466807
 21
-33.10433538
 31
0.0
  0
LINE
  5
3A5
100
AcDbEntity
  8
SLD-0
  6
CONTINUOUS
 62
       3
100
AcDbLine
 10
-130.70466807
 20
-33.10433538
 30
0.0
 11
-130.69042682
 21
-33.07808791
 31
0.0
  0
LINE
  5
3A6
100
AcDbEntity
  8
SLD-0
  6
CONTINUOUS
 62
       3
100
AcDbLine
 10
-130.69042682
 20
-33.07808791
 30
0.0
 11
-130.67592339
 21
-33.05198089
 31
0.0
  0
LINE
  5
3A7
100
AcDbEntity
  8
SLD-0
  6
CONTINUOUS
 62
       3
100
AcDbLine
 10
-130.67592339
 20
-33.05198089
 30
0.0
 11
-130.66124517
 21
-33.0259675
 31
0.0
  0
LINE
  5
3A8
100
AcDbEntity
  8
SLD-0
  6
CONTINUOUS
 62
       3
100
AcDbLine
 10
-130.66124517
 20
-33.0259675
 30
0.0
 11
-130.64647955
 21
-33.00000092
 31
0.0
  0
ARC
  5
3A9
100
AcDbEntity
  8
SLD-0
  6
CONTINUOUS
 62
       3
100
AcDbCircle
 10
-129.3849796
 20
30.74999886
 30
0.0
 40
1.5
100
AcDbArc
 50
209.97722057
 51
270.0
  0
ARC
  5
3AA
100
AcDbEntity
  8
SLD-0
  6
CONTINUOUS
 62
       3
100
AcDbCircle
 10
-129.3849796
 20
33.24999886
 30
0.0
 40
1.5
100
AcDbArc
 50
90.0
 51
150.0023943
  0
ARC
  5
3AB
100
AcDbEntity
  8
SLD-0
  6
CONTINUOUS
 62
       3
100
AcDbCircle
 10
-60.7849796
 20
33.24999886
 30
0.0
 40
1.5
100
AcDbArc
 50
29.97722057
 51
90.0
  0
ARC
  5
3AC
100
AcDbEntity
  8
SLD-0
  6
CONTINUOUS
 62
       3
100
AcDbCircle
 10
-60.7849796
 20
30.74999886
 30
0.0
 40
1.5
100
AcDbArc
 50
270.0
 51
330.0023943
  0
ARC
  5
3AD
100
AcDbEntity
  8
SLD-0
  6
CONTINUOUS
 62
       3
100
AcDbCircle
 10
-60.7849796
 20
-33.75000114
 30
0.0
 40
1.5
100
AcDbArc
 50
29.97722057
 51
90.0
  0
ARC
  5
3AE
100
AcDbEntity
  8
SLD-0
  6
CONTINUOUS
 62
       3
100
AcDbCircle
 10
-60.7849796
 20
-36.25000124
 30
0.0
 40
1.5
100
AcDbArc
 50
270.0
 51
330.0023943
  0
ARC
  5
3AF
100
AcDbEntity
  8
SLD-0
  6
CONTINUOUS
 62
       3
100
AcDbCircle
 10
-129.3849796
 20
-36.25000114
 30
0.0
 40
1.5
100
AcDbArc
 50
209.97722057
 51
270.0
  0
ARC
  5
3B0
100
AcDbEntity
  8
SLD-0
  6
CONTINUOUS
 62
       3
100
AcDbCircle
 10
-129.3849796
 20
-33.75000104
 30
0.0
 40
1.5
100
AcDbArc
 50
90.0
 51
150.0023943
  0
CIRCLE
  5
3B1
100
AcDbEntity
  8
SLD-0
  6
CONTINUOUS
 62
       3
100
AcDbCircle
 10
-116.8849796
 20
15.49999886
 30
0.0
 40
3.5
  0
CIRCLE
  5
3B2
100
AcDbEntity
  8
SLD-0
  6
CONTINUOUS
 62
       3
100
AcDbCircle
 10
-116.8849796
 20
2.49999886
 30
0.0
 40
3.5
  0
CIRCLE
  5
3B3
100
AcDbEntity
  8
SLD-0
  6
CONTINUOUS
 62
       3
100
AcDbCircle
 10
-116.8849796
 20
-10.50000114
 30
0.0
 40
3.5
  0
CIRCLE
  5
3B4
100
AcDbEntity
  8
SLD-0
  6
CONTINUOUS
 62
       3
100
AcDbCircle
 10
-73.0849796
 20
15.49999886
 30
0.0
 40
3.5
  0
CIRCLE
  5
3B5
100
AcDbEntity
  8
SLD-0
  6
CONTINUOUS
 62
       3
100
AcDbCircle
 10
-73.0849796
 20
2.49999886
 30
0.0
 40
3.5
  0
CIRCLE
  5
3B6
100
AcDbEntity
  8
SLD-0
  6
CONTINUOUS
 62
       3
100
AcDbCircle
 10
-77.9849796
 20
-31.80000114
 30
0.0
 40
1.75
  0
CIRCLE
  5
3B7
100
AcDbEntity
  8
SLD-0
  6
CONTINUOUS
 62
       3
100
AcDbCircle
 10
-77.9849796
 20
-26.72000114
 30
0.0
 40
1.75
  0
CIRCLE
  5
3B8
100
AcDbEntity
  8
SLD-0
  6
CONTINUOUS
 62
       3
100
AcDbCircle
 10
-77.9849796
 20
-21.64000114
 30
0.0
 40
1.75
  0
ARC
  5
3B9
100
AcDbEntity
  8
SLD-0
  6
CONTINUOUS
 62
       3
100
AcDbCircle
 10
-63.58497972
 20
38.59999886
 30
0.0
 40
0.20000157
100
AcDbArc
 50
0.0
 51
89.99996562
  0
ARC
  5
3BA
100
AcDbEntity
  8
SLD-0
  6
CONTINUOUS
 62
       3
100
AcDbCircle
 10
-126.3849796
 20
38.59999886
 30
0.0
 40
0.19999844
100
AcDbArc
 50
89.99966195
 51
180.0
  0
ARC
  5
3BB
100
AcDbEntity
  8
SLD-0
  6
CONTINUOUS
 62
       3
100
AcDbCircle
 10
-63.38497698
 20
38.79999886
 30
0.0
 40
1.20000122
100
AcDbArc
 50
359.99985055
 51
450.00007305
  0
ARC
  5
3BC
100
AcDbEntity
  8
SLD-0
  6
CONTINUOUS
 62
       3
100
AcDbCircle
 10
-126.58497698
 20
38.79999886
 30
0.0
 40
1.20000122
100
AcDbArc
 50
89.99992695
 51
180.00014945
  0
ARC
  5
3BD
100
AcDbEntity
  8
SLD-0
  6
CONTINUOUS
 62
       3
100
AcDbCircle
 10
-136.98497804
 20
-38.00000114
 30
0.0
 40
2.0
100
AcDbArc
 50
180.0
 51
270.0
  0
ARC
  5
3BE
100
AcDbEntity
  8
SLD-0
  6
CONTINUOUS
 62
       3
100
AcDbCircle
 10
-136.98497816
 20
36.39999886
 30
0.0
 40
1.99999988
100
AcDbArc
 50
90.0
 51
180.00008938
  0
ARC
  5
3BF
100
AcDbEntity
  8
SLD-0
  6
CONTINUOUS
 62
       3
100
AcDbCircle
 10
-133.4849796
 20
22.99999852
 30
0.0
 40
2.09999966
100
AcDbArc
 50
89.99999454
 51
270.0
  0
ARC
  5
3C0
100
AcDbEntity
  8
SLD-0
  6
CONTINUOUS
 62
       3
100
AcDbCircle
 10
-132.48498035
 20
22.99999852
 30
0.0
 40
2.09999966
100
AcDbArc
 50
270.00002046
 51
450.00002019
  0
ARC
  5
3C1
100
AcDbEntity
  8
SLD-0
  6
CONTINUOUS
 62
       3
100
AcDbCircle
 10
-133.4849796
 20
-27.00000108
 30
0.0
 40
2.09999995
100
AcDbArc
 50
90.0
 51
270.00000546
  0
ARC
  5
3C2
100
AcDbEntity
  8
SLD-0
  6
CONTINUOUS
 62
       3
100
AcDbCircle
 10
-132.48498109
 20
-27.00000087
 30
0.0
 40
2.10000016
100
AcDbArc
 50
270.0
 51
450.0
  0
ARC
  5
3C3
100
AcDbEntity
  8
SLD-0
  6
CONTINUOUS
 62
       3
100
AcDbCircle
 10
-52.98497604
 20
36.39999874
 30
0.0
 40
2.0
100
AcDbArc
 50
0.0
 51
90.0
  0
ARC
  5
3C4
100
AcDbEntity
  8
SLD-0
  6
CONTINUOUS
 62
       3
100
AcDbCircle
 10
-52.98497592
 20
-38.00000126
 30
0.0
 40
1.99999988
100
AcDbArc
 50
270.0
 51
360.00000286
  0
ARC
  5
3C5
100
AcDbEntity
  8
SLD-0
  6
CONTINUOUS
 62
       3
100
AcDbCircle
 10
-57.4849796
 20
-27.00000108
 30
0.0
 40
2.09999995
100
AcDbArc
 50
90.0
 51
270.00004065
  0
ARC
  5
3C6
100
AcDbEntity
  8
SLD-0
  6
CONTINUOUS
 62
       3
100
AcDbCircle
 10
-56.48497981
 20
-27.00000087
 30
0.0
 40
2.10000016
100
AcDbArc
 50
270.0
 51
450.0
  0
ARC
  5
3C7
100
AcDbEntity
  8
SLD-0
  6
CONTINUOUS
 62
       3
100
AcDbCircle
 10
-56.4849796
 20
22.99999886
 30
0.0
 40
2.1
100
AcDbArc
 50
270.0
 51
450.0
  0
ARC
  5
3C8
100
AcDbEntity
  8
SLD-0
  6
CONTINUOUS
 62
       3
100
AcDbCircle
 10
-57.4849796
 20
22.99999836
 30
0.0
 40
2.10000051
100
AcDbArc
 50
90.0
 51
270.00004065
  0
CIRCLE
  5
3C9
100
AcDbEntity
  8
SLD-0
  6
CONTINUOUS
 62
       3
100
AcDbCircle
 10
-85.4849796
 20
-11.90000114
 30
0.0
 40
2.75
  0
CIRCLE
  5
3CA
100
AcDbEntity
  8
SLD-0
  6
CONTINUOUS
 62
       3
100
AcDbCircle
 10
133.98497804
 20
31.99999886
 30
0.0
 40
2.9
  0
CIRCLE
  5
3CB
100
AcDbEntity
  8
SLD-0
  6
CONTINUOUS
 62
       3
100
AcDbCircle
 10
36.98497804
 20
-35.00000114
 30
0.0
 40
2.9
  0
CIRCLE
  5
3CC
100
AcDbEntity
  8
SLD-0
  6
CONTINUOUS
 62
       3
100
AcDbCircle
 10
123.98497804
 20
-35.00000114
 30
0.0
 40
2.9
  0
CIRCLE
  5
3CD
100
AcDbEntity
  8
SLD-0
  6
CONTINUOUS
 62
       3
100
AcDbCircle
 10
26.98497804
 20
31.99999886
 30
0.0
 40
2.9
  0
ARC
  5
3CE
100
AcDbEntity
  8
SLD-0
  6
CONTINUOUS
 62
       3
100
AcDbCircle
 10
23.98497869
 20
-38.00000114
 30
0.0
 40
2.0
100
AcDbArc
 50
180.0
 51
270.0
  0
LINE
  5
3CF
100
AcDbEntity
  8
SLD-0_0
  6
CONTINUOUS
 62
       3
100
AcDbLine
 10
9.38498147
 20
-14.0000006
 30
0.0
 11
10.18498011
 21
-14.0000006
 31
0.0
  0
LINE
  5
3D0
100
AcDbEntity
  8
SLD-0_0
  6
CONTINUOUS
 62
       3
100
AcDbLine
 10
16.484975
 20
-18.00000126
 30
0.0
 11
16.484975
 21
-16.00000093
 31
0.0
  0
LINE
  5
3D1
100
AcDbEntity
  8
SLD-0_0
  6
CONTINUOUS
 62
       3
100
AcDbLine
 10
16.484975
 20
7.99999928
 30
0.0
 11
16.484975
 21
9.99999961
 31
0.0
  0
LINE
  5
3D2
100
AcDbEntity
  8
SLD-0_0
  6
CONTINUOUS
 62
       3
100
AcDbLine
 10
5.18497743
 20
20.99999955
 30
0.0
 11
4.01033379
 21
20.99999955
 31
0.0
  0
LINE
  5
3D3
100
AcDbEntity
  8
SLD-0_0
  6
CONTINUOUS
 62
       3
100
AcDbLine
 10
11.18497469
 20
10.99999791
 30
0.0
 11
11.18497469
 21
19.99999752
 31
0.0
  0
LINE
  5
3D4
100
AcDbEntity
  8
SLD-0_0
  6
CONTINUOUS
 62
       3
100
AcDbLine
 10
4.01033379
 20
-5.00000099
 30
0.0
 11
4.01033379
 21
22.99999987
 31
0.0
  0
LINE
  5
3D5
100
AcDbEntity
  8
SLD-0_0
  6
CONTINUOUS
 62
       3
100
AcDbLine
 10
-0.01502525
 20
-18.00000126
 30
0.0
 11
-0.01502525
 21
-5.00000099
 31
0.0
  0
LINE
  5
3D6
100
AcDbEntity
  8
SLD-0_0
  6
CONTINUOUS
 62
       3
100
AcDbLine
 10
9.38498147
 20
-14.0000006
 30
0.0
 11
9.38498147
 21
-13.82979768
 31
0.0
  0
LINE
  5
3D7
100
AcDbEntity
  8
SLD-0_0
  6
CONTINUOUS
 62
       3
100
AcDbLine
 10
6.5843721
 20
-8.55000078
 30
0.0
 11
6.6045643
 21
-8.55000078
 31
0.0
  0
LINE
  5
3D8
100
AcDbEntity
  8
SLD-0_0
  6
CONTINUOUS
 62
       3
100
AcDbLine
 10
7.48497911
 20
28.99999713
 30
0.0
 11
7.48497911
 21
30.79619055
 31
0.0
  0
LINE
  5
3D9
100
AcDbEntity
  8
SLD-0_0
  6
CONTINUOUS
 62
       3
100
AcDbLine
 10
5.18497743
 20
-5.00000099
 30
0.0
 11
5.18497743
 21
-3.00000066
 31
0.0
  0
LINE
  5
3DA
100
AcDbEntity
  8
SLD-0_0
  6
CONTINUOUS
 62
       3
100
AcDbLine
 10
5.18497743
 20
-5.00000099
 30
0.0
 11
4.01033379
 21
-5.00000099
 31
0.0
  0
LINE
  5
3DB
100
AcDbEntity
  8
SLD-0_0
  6
CONTINUOUS
 62
       3
100
AcDbLine
 10
11.98498078
 20
-5.00000099
 30
0.0
 11
11.98498078
 21
-15.40000195
 31
0.0
  0
LINE
  5
3DC
100
AcDbEntity
  8
SLD-0_0
  6
CONTINUOUS
 62
       3
100
AcDbLine
 10
11.98498078
 20
19.99999752
 30
0.0
 11
11.18497469
 21
19.99999752
 31
0.0
  0
LINE
  5
3DD
100
AcDbEntity
  8
SLD-0_0
  6
CONTINUOUS
 62
       3
100
AcDbLine
 10
10.18498011
 20
-1.90000067
 30
0.0
 11
10.18498011
 21
6.89999928
 31
0.0
  0
LINE
  5
3DE
100
AcDbEntity
  8
SLD-0_0
  6
CONTINUOUS
 62
       3
100
AcDbLine
 10
6.60456543
 20
14.99999886
 30
0.0
 11
6.32355405
 21
14.99999886
 31
0.0
  0
LINE
  5
3DF
100
AcDbEntity
  8
SLD-0_0
  6
CONTINUOUS
 62
       3
100
AcDbLine
 10
8.48497804
 20
-13.85000114
 30
0.0
 11
9.18497804
 21
-13.85000114
 31
0.0
  0
LINE
  5
3E0
100
AcDbEntity
  8
SLD-0_0
  6
CONTINUOUS
 62
       3
100
AcDbLine
 10
10.18498011
 20
-26.75000129
 30
0.0
 11
11.18497469
 21
-26.75000129
 31
0.0
  0
LINE
  5
3E1
100
AcDbEntity
  8
SLD-0_0
  6
CONTINUOUS
 62
       3
100
AcDbLine
 10
4.01033379
 20
-18.00000126
 30
0.0
 11
4.01033379
 21
-5.00000099
 31
0.0
  0
LINE
  5
3E2
100
AcDbEntity
  8
SLD-0_0
  6
CONTINUOUS
 62
       3
100
AcDbLine
 10
11.98498078
 20
-19.00000142
 30
0.0
 11
11.18497469
 21
-19.00000142
 31
0.0
  0
LINE
  5
3E3
100
AcDbEntity
  8
SLD-0_0
  6
CONTINUOUS
 62
       3
100
AcDbLine
 10
7.48497911
 20
26.20380914
 30
0.0
 11
7.48497911
 21
28.00000256
 31
0.0
  0
LINE
  5
3E4
100
AcDbEntity
  8
SLD-0_0
  6
CONTINUOUS
 62
       3
100
AcDbLine
 10
16.484975
 20
-15.40000195
 30
0.0
 11
16.484975
 21
-5.00000099
 31
0.0
  0
LINE
  5
3E5
100
AcDbEntity
  8
SLD-0_0
  6
CONTINUOUS
 62
       3
100
AcDbLine
 10
11.98498078
 20
7.99999928
 30
0.0
 11
11.98498078
 21
-3.00000066
 31
0.0
  0
LINE
  5
3E6
100
AcDbEntity
  8
SLD-0_0
  6
CONTINUOUS
 62
       3
100
AcDbLine
 10
11.18497469
 20
-2.00000236
 30
0.0
 11
11.18497469
 21
6.99999725
 31
0.0
  0
LINE
  5
3E7
100
AcDbEntity
  8
SLD-0_0
  6
CONTINUOUS
 62
       3
100
AcDbLine
 10
10.18498011
 20
5.99999895
 30
0.0
 11
9.38498147
 21
5.99999895
 31
0.0
  0
LINE
  5
3E8
100
AcDbEntity
  8
SLD-0_0
  6
CONTINUOUS
 62
       3
100
AcDbLine
 10
7.89928285
 20
12.09999805
 30
0.0
 11
9.38498077
 21
12.09999805
 31
0.0
  0
LINE
  5
3E9
100
AcDbEntity
  8
SLD-0_0
  6
CONTINUOUS
 62
       3
100
AcDbLine
 10
7.53030099
 20
-7.90000165
 30
0.0
 11
7.51674094
 21
-7.90000165
 31
0.0
  0
LINE
  5
3EA
100
AcDbEntity
  8
SLD-0_0
  6
CONTINUOUS
 62
       3
100
AcDbLine
 10
10.18498011
 20
31.74999898
 30
0.0
 11
10.18498011
 21
25.25000071
 31
0.0
  0
LINE
  5
3EB
100
AcDbEntity
  8
SLD-0_0
  6
CONTINUOUS
 62
       3
100
AcDbLine
 10
16.484975
 20
-5.00000099
 30
0.0
 11
16.484975
 21
-3.00000066
 31
0.0
  0
LINE
  5
3EC
100
AcDbEntity
  8
SLD-0_0
  6
CONTINUOUS
 62
       3
100
AcDbLine
 10
4.01033379
 20
22.99999987
 30
0.0
 11
5.18497743
 21
22.99999987
 31
0.0
  0
LINE
  5
3ED
100
AcDbEntity
  8
SLD-0_0
  6
CONTINUOUS
 62
       3
100
AcDbLine
 10
4.01033379
 20
-3.00000066
 30
0.0
 11
5.18497743
 21
-3.00000066
 31
0.0
  0
LINE
  5
3EE
100
AcDbEntity
  8
SLD-0_0
  6
CONTINUOUS
 62
       3
100
AcDbLine
 10
6.58437194
 20
4.44999927
 30
0.0
 11
6.60456414
 21
4.44999927
 31
0.0
  0
LINE
  5
3EF
100
AcDbEntity
  8
SLD-0_0
  6
CONTINUOUS
 62
       3
100
AcDbLine
 10
6.58437192
 20
17.44999927
 30
0.0
 11
6.60456412
 21
17.44999927
 31
0.0
  0
LINE
  5
3F0
100
AcDbEntity
  8
SLD-0_0
  6
CONTINUOUS
 62
       3
100
AcDbLine
 10
5.18497743
 20
-18.00000126
 30
0.0
 11
16.484975
 21
-18.00000126
 31
0.0
  0
LINE
  5
3F1
100
AcDbEntity
  8
SLD-0_0
  6
CONTINUOUS
 62
       3
100
AcDbLine
 10
5.18497743
 20
-16.00000093
 30
0.0
 11
16.484975
 21
-16.00000093
 31
0.0
  0
LINE
  5
3F2
100
AcDbEntity
  8
SLD-0_0
  6
CONTINUOUS
 62
       3
100
AcDbLine
 10
11.98498078
 20
-18.00000126
 30
0.0
 11
11.98498078
 21
-28.40000129
 31
0.0
  0
LINE
  5
3F3
100
AcDbEntity
  8
SLD-0_0
  6
CONTINUOUS
 62
       3
100
AcDbLine
 10
16.484975
 20
9.99999961
 30
0.0
 11
16.484975
 21
20.99999955
 31
0.0
  0
LINE
  5
3F4
100
AcDbEntity
  8
SLD-0_0
  6
CONTINUOUS
 62
       3
100
AcDbLine
 10
16.484975
 20
-15.40000195
 30
0.0
 11
21.98497869
 21
-15.40000195
 31
0.0
  0
LINE
  5
3F5
100
AcDbEntity
  8
SLD-0_0
  6
CONTINUOUS
 62
       3
100
AcDbLine
 10
11.18497469
 20
24.0000019
 30
0.0
 11
11.18497469
 21
32.99999779
 31
0.0
  0
LINE
  5
3F6
100
AcDbEntity
  8
SLD-0_0
  6
CONTINUOUS
 62
       3
100
AcDbLine
 10
10.18498011
 20
6.89999928
 30
0.0
 11
11.18497469
 21
6.89999928
 31
0.0
  0
LINE
  5
3F7
100
AcDbEntity
  8
SLD-0_0
  6
CONTINUOUS
 62
       3
100
AcDbLine
 10
6.60456516
 20
13.54999972
 30
0.0
 11
6.58437203
 21
13.54999848
 31
0.0
  0
LINE
  5
3F8
100
AcDbEntity
  8
SLD-0_0
  6
CONTINUOUS
 62
       3
100
AcDbLine
 10
11.18497469
 20
-20.25000023
 30
0.0
 11
10.18498011
 21
-20.25000023
 31
0.0
  0
LINE
  5
3F9
100
AcDbEntity
  8
SLD-0_0
  6
CONTINUOUS
 62
       3
100
AcDbLine
 10
7.89928304
 20
-0.90000199
 30
0.0
 11
9.38498097
 21
-0.90000199
 31
0.0
  0
LINE
  5
3FA
100
AcDbEntity
  8
SLD-0_0
  6
CONTINUOUS
 62
       3
100
AcDbLine
 10
4.01033379
 20
-5.00000099
 30
0.0
 11
-0.01502525
 21
-5.00000099
 31
0.0
  0
LINE
  5
3FB
100
AcDbEntity
  8
SLD-0_0
  6
CONTINUOUS
 62
       3
100
AcDbLine
 10
16.484975
 20
-16.00000093
 30
0.0
 11
16.484975
 21
-15.40000195
 31
0.0
  0
LINE
  5
3FC
100
AcDbEntity
  8
SLD-0_0
  6
CONTINUOUS
 62
       3
100
AcDbLine
 10
16.484975
 20
-28.40000129
 30
0.0
 11
16.484975
 21
-18.00000126
 31
0.0
  0
LINE
  5
3FD
100
AcDbEntity
  8
SLD-0_0
  6
CONTINUOUS
 62
       3
100
AcDbLine
 10
11.18497469
 20
-28.00000103
 30
0.0
 11
11.18497469
 21
-19.00000142
 31
0.0
  0
LINE
  5
3FE
100
AcDbEntity
  8
SLD-0_0
  6
CONTINUOUS
 62
       3
100
AcDbLine
 10
10.18498011
 20
-14.90000094
 30
0.0
 11
11.18497469
 21
-14.90000094
 31
0.0
  0
LINE
  5
3FF
100
AcDbEntity
  8
SLD-0_0
  6
CONTINUOUS
 62
       3
100
AcDbLine
 10
7.51674839
 20
-26.10000147
 30
0.0
 11
7.53030099
 21
-26.10000147
 31
0.0
  0
LINE
  5
400
100
AcDbEntity
  8
SLD-0_0
  6
CONTINUOUS
 62
       3
100
AcDbLine
 10
7.53030099
 20
-20.90000192
 30
0.0
 11
7.51674094
 21
-20.90000192
 31
0.0
  0
LINE
  5
401
100
AcDbEntity
  8
SLD-0_0
  6
CONTINUOUS
 62
       3
100
AcDbLine
 10
10.18498011
 20
-20.25000023
 30
0.0
 11
10.18498011
 21
-26.75000129
 31
0.0
  0
LINE
  5
402
100
AcDbEntity
  8
SLD-0_0
  6
CONTINUOUS
 62
       3
100
AcDbLine
 10
5.18497743
 20
-3.00000066
 30
0.0
 11
16.484975
 21
-3.00000066
 31
0.0
  0
LINE
  5
403
100
AcDbEntity
  8
SLD-0_0
  6
CONTINUOUS
 62
       3
100
AcDbLine
 10
11.98498078
 20
33.39999711
 30
0.0
 11
11.98498078
 21
22.99999987
 31
0.0
  0
LINE
  5
404
100
AcDbEntity
  8
SLD-0_0
  6
CONTINUOUS
 62
       3
100
AcDbLine
 10
10.18498011
 20
-7.00000132
 30
0.0
 11
9.38498147
 21
-7.00000132
 31
0.0
  0
LINE
  5
405
100
AcDbEntity
  8
SLD-0_0
  6
CONTINUOUS
 62
       3
100
AcDbLine
 10
7.53030099
 20
31.09999543
 30
0.0
 11
7.51674094
 21
31.09999543
 31
0.0
  0
LINE
  5
406
100
AcDbEntity
  8
SLD-0_0
  6
CONTINUOUS
 62
       3
100
AcDbLine
 10
10.18498011
 20
11.0999996
 30
0.0
 11
11.18497469
 21
11.0999996
 31
0.0
  0
LINE
  5
407
100
AcDbEntity
  8
SLD-0_0
  6
CONTINUOUS
 62
       3
100
AcDbLine
 10
6.60456524
 20
0.54999947
 30
0.0
 11
6.58437211
 21
0.54999851
 31
0.0
  0
LINE
  5
408
100
AcDbEntity
  8
SLD-0_0
  6
CONTINUOUS
 62
       3
100
AcDbLine
 10
7.89928239
 20
-13.9000015
 30
0.0
 11
9.38498032
 21
-13.9000015
 31
0.0
  0
LINE
  5
409
100
AcDbEntity
  8
SLD-0_0
  6
CONTINUOUS
 62
       3
100
AcDbLine
 10
8.48497804
 20
25.14999886
 30
0.0
 11
9.18497804
 21
25.14999886
 31
0.0
  0
LINE
  5
40A
100
AcDbEntity
  8
SLD-0_0
  6
CONTINUOUS
 62
       3
100
AcDbLine
 10
10.18498011
 20
-13.75000196
 30
0.0
 11
11.18497469
 21
-13.75000196
 31
0.0
  0
LINE
  5
40B
100
AcDbEntity
  8
SLD-0_0
  6
CONTINUOUS
 62
       3
100
AcDbLine
 10
16.484975
 20
-28.40000129
 30
0.0
 11
21.98497869
 21
-28.40000129
 31
0.0
  0
LINE
  5
40C
100
AcDbEntity
  8
SLD-0_0
  6
CONTINUOUS
 62
       3
100
AcDbLine
 10
6.60456531
 20
-12.45000077
 30
0.0
 11
6.58437219
 21
-12.45000147
 31
0.0
  0
LINE
  5
40D
100
AcDbEntity
  8
SLD-0_0
  6
CONTINUOUS
 62
       3
100
AcDbLine
 10
5.18497743
 20
-5.00000099
 30
0.0
 11
16.484975
 21
-5.00000099
 31
0.0
  0
LINE
  5
40E
100
AcDbEntity
  8
SLD-0_0
  6
CONTINUOUS
 62
       3
100
AcDbLine
 10
16.484975
 20
-15.40000195
 30
0.0
 11
11.98498078
 21
-15.40000195
 31
0.0
  0
LINE
  5
40F
100
AcDbEntity
  8
SLD-0_0
  6
CONTINUOUS
 62
       3
100
AcDbLine
 10
9.18497804
 20
31.84999886
 30
0.0
 11
8.48497804
 21
31.84999886
 31
0.0
  0
LINE
  5
410
100
AcDbEntity
  8
SLD-0_0
  6
CONTINUOUS
 62
       3
100
AcDbLine
 10
11.98498078
 20
-15.40000195
 30
0.0
 11
11.98498078
 21
-16.00000093
 31
0.0
  0
LINE
  5
411
100
AcDbEntity
  8
SLD-0_0
  6
CONTINUOUS
 62
       3
100
AcDbLine
 10
8.48498114
 20
28.99999713
 30
0.0
 11
8.48498114
 21
28.00000256
 31
0.0
  0
LINE
  5
412
100
AcDbEntity
  8
SLD-0_0
  6
CONTINUOUS
 62
       3
100
AcDbLine
 10
5.18497743
 20
20.99999955
 30
0.0
 11
16.484975
 21
20.99999955
 31
0.0
  0
LINE
  5
413
100
AcDbEntity
  8
SLD-0_0
  6
CONTINUOUS
 62
       3
100
AcDbLine
 10
10.18498011
 20
11.0999996
 30
0.0
 11
10.18498011
 21
19.89999955
 31
0.0
  0
LINE
  5
414
100
AcDbEntity
  8
SLD-0_0
  6
CONTINUOUS
 62
       3
100
AcDbLine
 10
9.38498147
 20
-1.00000033
 30
0.0
 11
9.38498147
 21
5.99999895
 31
0.0
  0
LINE
  5
415
100
AcDbEntity
  8
SLD-0_0
  6
CONTINUOUS
 62
       3
100
AcDbLine
 10
9.18497804
 20
-20.15000114
 30
0.0
 11
8.48497804
 21
-20.15000114
 31
0.0
  0
LINE
  5
416
100
AcDbEntity
  8
SLD-0_0
  6
CONTINUOUS
 62
       3
100
AcDbLine
 10
9.38498147
 20
11.99999993
 30
0.0
 11
10.18498011
 21
11.99999993
 31
0.0
  0
LINE
  5
417
100
AcDbEntity
  8
SLD-0_0
  6
CONTINUOUS
 62
       3
100
AcDbLine
 10
10.18498011
 20
-14.90000094
 30
0.0
 11
10.18498011
 21
-13.75000196
 31
0.0
  0
LINE
  5
418
100
AcDbEntity
  8
SLD-0_0
  6
CONTINUOUS
 62
       3
100
AcDbLine
 10
6.60456543
 20
-11.00000114
 30
0.0
 11
6.32355405
 21
-11.00000114
 31
0.0
  0
LINE
  5
419
100
AcDbEntity
  8
SLD-0_0
  6
CONTINUOUS
 62
       3
100
AcDbLine
 10
7.48497911
 20
-10.00000181
 30
0.0
 11
7.48497911
 21
-8.20381025
 31
0.0
  0
LINE
  5
41A
100
AcDbEntity
  8
SLD-0_0
  6
CONTINUOUS
 62
       3
100
AcDbLine
 10
7.48497911
 20
-23.00000021
 30
0.0
 11
7.48497911
 21
-21.20380866
 31
0.0
  0
LINE
  5
41B
100
AcDbEntity
  8
SLD-0_0
  6
CONTINUOUS
 62
       3
100
AcDbLine
 10
16.484975
 20
22.99999987
 30
0.0
 11
16.484975
 21
33.39999711
 31
0.0
  0
LINE
  5
41C
100
AcDbEntity
  8
SLD-0_0
  6
CONTINUOUS
 62
       3
100
AcDbLine
 10
11.98498078
 20
-15.00000077
 30
0.0
 11
11.18497469
 21
-15.00000077
 31
0.0
  0
LINE
  5
41D
100
AcDbEntity
  8
SLD-0_0
  6
CONTINUOUS
 62
       3
100
AcDbLine
 10
5.18497743
 20
-18.00000126
 30
0.0
 11
4.01033379
 21
-18.00000126
 31
0.0
  0
LINE
  5
41E
100
AcDbEntity
  8
SLD-0_0
  6
CONTINUOUS
 62
       3
100
AcDbLine
 10
10.18498011
 20
19.89999955
 30
0.0
 11
11.18497469
 21
19.89999955
 31
0.0
  0
LINE
  5
41F
100
AcDbEntity
  8
SLD-0_0
  6
CONTINUOUS
 62
       3
100
AcDbLine
 10
6.60456543
 20
1.99999886
 30
0.0
 11
6.32355405
 21
1.99999886
 31
0.0
  0
LINE
  5
420
100
AcDbEntity
  8
SLD-0_0
  6
CONTINUOUS
 62
       3
100
AcDbLine
 10
9.18497804
 20
-7.15000114
 30
0.0
 11
8.48497804
 21
-7.15000114
 31
0.0
  0
LINE
  5
421
100
AcDbEntity
  8
SLD-0_0
  6
CONTINUOUS
 62
       3
100
AcDbLine
 10
4.01033379
 20
-16.00000093
 30
0.0
 11
5.18497743
 21
-16.00000093
 31
0.0
  0
LINE
  5
422
100
AcDbEntity
  8
SLD-0_0
  6
CONTINUOUS
 62
       3
100
AcDbLine
 10
16.484975
 20
-28.40000129
 30
0.0
 11
11.98498078
 21
-28.40000129
 31
0.0
  0
LINE
  5
423
100
AcDbEntity
  8
SLD-0_0
  6
CONTINUOUS
 62
       3
100
AcDbLine
 10
11.98498078
 20
-28.00000103
 30
0.0
 11
11.18497469
 21
-28.00000103
 31
0.0
  0
LINE
  5
424
100
AcDbEntity
  8
SLD-0_0
  6
CONTINUOUS
 62
       3
100
AcDbLine
 10
10.18498011
 20
-7.25000182
 30
0.0
 11
10.18498011
 21
-6.10000098
 31
0.0
  0
LINE
  5
425
100
AcDbEntity
  8
SLD-0_0
  6
CONTINUOUS
 62
       3
100
AcDbLine
 10
8.48498114
 20
-10.00000181
 30
0.0
 11
8.48498114
 21
-11.00000197
 31
0.0
  0
LINE
  5
426
100
AcDbEntity
  8
SLD-0_0
  6
CONTINUOUS
 62
       3
100
AcDbLine
 10
8.48498114
 20
-23.00000021
 30
0.0
 11
8.48498114
 21
-24.00000038
 31
0.0
  0
LINE
  5
427
100
AcDbEntity
  8
SLD-0_0
  6
CONTINUOUS
 62
       3
100
AcDbLine
 10
5.18497743
 20
20.99999955
 30
0.0
 11
5.18497743
 21
22.99999987
 31
0.0
  0
LINE
  5
428
100
AcDbEntity
  8
SLD-0_0
  6
CONTINUOUS
 62
       3
100
AcDbLine
 10
4.01033379
 20
9.99999961
 30
0.0
 11
5.18497743
 21
9.99999961
 31
0.0
  0
LINE
  5
429
100
AcDbEntity
  8
SLD-0_0
  6
CONTINUOUS
 62
       3
100
AcDbLine
 10
11.98498078
 20
20.99999955
 30
0.0
 11
11.98498078
 21
9.99999961
 31
0.0
  0
LINE
  5
42A
100
AcDbEntity
  8
SLD-0_0
  6
CONTINUOUS
 62
       3
100
AcDbLine
 10
11.98498078
 20
10.99999791
 30
0.0
 11
11.18497469
 21
10.99999791
 31
0.0
  0
LINE
  5
42B
100
AcDbEntity
  8
SLD-0_0
  6
CONTINUOUS
 62
       3
100
AcDbLine
 10
9.38498124
 20
-7.1000001
 30
0.0
 11
7.89928331
 21
-7.1000001
 31
0.0
  0
LINE
  5
42C
100
AcDbEntity
  8
SLD-0_0
  6
CONTINUOUS
 62
       3
100
AcDbLine
 10
7.48497911
 20
-25.7961938
 30
0.0
 11
7.48497911
 21
-24.00000038
 31
0.0
  0
LINE
  5
42D
100
AcDbEntity
  8
SLD-0_0
  6
CONTINUOUS
 62
       3
100
AcDbLine
 10
5.18497743
 20
9.99999961
 30
0.0
 11
16.484975
 21
9.99999961
 31
0.0
  0
LINE
  5
42E
100
AcDbEntity
  8
SLD-0_0
  6
CONTINUOUS
 62
       3
100
AcDbLine
 10
16.484975
 20
20.99999955
 30
0.0
 11
16.484975
 21
22.99999987
 31
0.0
  0
LINE
  5
42F
100
AcDbEntity
  8
SLD-0_0
  6
CONTINUOUS
 62
       3
100
AcDbLine
 10
16.484975
 20
33.39999711
 30
0.0
 11
21.98497869
 21
33.39999711
 31
0.0
  0
LINE
  5
430
100
AcDbEntity
  8
SLD-0_0
  6
CONTINUOUS
 62
       3
100
AcDbLine
 10
11.98498078
 20
6.99999725
 30
0.0
 11
11.18497469
 21
6.99999725
 31
0.0
  0
LINE
  5
431
100
AcDbEntity
  8
SLD-0_0
  6
CONTINUOUS
 62
       3
100
AcDbLine
 10
11.18497469
 20
-7.25000182
 30
0.0
 11
10.18498011
 21
-7.25000182
 31
0.0
  0
LINE
  5
432
100
AcDbEntity
  8
SLD-0_0
  6
CONTINUOUS
 62
       3
100
AcDbLine
 10
10.18498011
 20
25.25000071
 30
0.0
 11
11.18497469
 21
25.25000071
 31
0.0
  0
LINE
  5
433
100
AcDbEntity
  8
SLD-0_0
  6
CONTINUOUS
 62
       3
100
AcDbLine
 10
9.38497952
 20
5.89999898
 30
0.0
 11
7.8992816
 21
5.89999898
 31
0.0
  0
LINE
  5
434
100
AcDbEntity
  8
SLD-0_0
  6
CONTINUOUS
 62
       3
100
AcDbLine
 10
9.38498147
 20
-7.17020611
 30
0.0
 11
9.38498147
 21
-7.00000132
 31
0.0
  0
LINE
  5
435
100
AcDbEntity
  8
SLD-0_0
  6
CONTINUOUS
 62
       3
100
AcDbLine
 10
11.18497469
 20
-15.00000077
 30
0.0
 11
11.18497469
 21
-5.99999929
 31
0.0
  0
LINE
  5
436
100
AcDbEntity
  8
SLD-0_0
  6
CONTINUOUS
 62
       3
100
AcDbLine
 10
10.18498011
 20
-1.90000067
 30
0.0
 11
11.18497469
 21
-1.90000067
 31
0.0
  0
LINE
  5
437
100
AcDbEntity
  8
SLD-0_0
  6
CONTINUOUS
 62
       3
100
AcDbLine
 10
9.38498147
 20
11.99999993
 30
0.0
 11
9.38498147
 21
18.99999922
 31
0.0
  0
LINE
  5
438
100
AcDbEntity
  8
SLD-0_0
  6
CONTINUOUS
 62
       3
100
AcDbLine
 10
10.18498011
 20
18.99999922
 30
0.0
 11
9.38498147
 21
18.99999922
 31
0.0
  0
LINE
  5
439
100
AcDbEntity
  8
SLD-0_0
  6
CONTINUOUS
 62
       3
100
AcDbLine
 10
-0.01502525
 20
22.99999987
 30
0.0
 11
4.01033379
 21
22.99999987
 31
0.0
  0
LINE
  5
43A
100
AcDbEntity
  8
SLD-0_0
  6
CONTINUOUS
 62
       3
100
AcDbLine
 10
5.18497743
 20
-18.00000126
 30
0.0
 11
5.18497743
 21
-16.00000093
 31
0.0
  0
LINE
  5
43B
100
AcDbEntity
  8
SLD-0_0
  6
CONTINUOUS
 62
       3
100
AcDbLine
 10
6.3235528
 20
-10.00000181
 30
0.0
 11
6.60456543
 21
-10.00000114
 31
0.0
  0
LINE
  5
43C
100
AcDbEntity
  8
SLD-0_0
  6
CONTINUOUS
 62
       3
100
AcDbLine
 10
11.98498078
 20
-5.99999929
 30
0.0
 11
11.18497469
 21
-5.99999929
 31
0.0
  0
LINE
  5
43D
100
AcDbEntity
  8
SLD-0_0
  6
CONTINUOUS
 62
       3
100
AcDbLine
 10
11.98498078
 20
24.0000019
 30
0.0
 11
11.18497469
 21
24.0000019
 31
0.0
  0
LINE
  5
43E
100
AcDbEntity
  8
SLD-0_0
  6
CONTINUOUS
 62
       3
100
AcDbLine
 10
8.48497804
 20
-26.85000114
 30
0.0
 11
9.18497804
 21
-26.85000114
 31
0.0
  0
LINE
  5
43F
100
AcDbEntity
  8
SLD-0_0
  6
CONTINUOUS
 62
       3
100
AcDbLine
 10
11.18497469
 20
31.74999898
 30
0.0
 11
10.18498011
 21
31.74999898
 31
0.0
  0
LINE
  5
440
100
AcDbEntity
  8
SLD-0_0
  6
CONTINUOUS
 62
       3
100
AcDbLine
 10
9.38498147
 20
-1.00000033
 30
0.0
 11
10.18498011
 21
-1.00000033
 31
0.0
  0
LINE
  5
441
100
AcDbEntity
  8
SLD-0_0
  6
CONTINUOUS
 62
       3
100
AcDbLine
 10
9.38497963
 20
18.89999906
 30
0.0
 11
7.8992817
 21
18.89999906
 31
0.0
  0
LINE
  5
442
100
AcDbEntity
  8
SLD-0_0
  6
CONTINUOUS
 62
       3
100
AcDbLine
 10
4.01033379
 20
-18.00000126
 30
0.0
 11
-0.01502525
 21
-18.00000126
 31
0.0
  0
LINE
  5
443
100
AcDbEntity
  8
SLD-0_0
  6
CONTINUOUS
 62
       3
100
AcDbLine
 10
10.18498011
 20
-6.10000098
 30
0.0
 11
11.18497469
 21
-6.10000098
 31
0.0
  0
LINE
  5
444
100
AcDbEntity
  8
SLD-0_0
  6
CONTINUOUS
 62
       3
100
AcDbLine
 10
7.51674839
 20
25.89999681
 30
0.0
 11
7.53030099
 21
25.89999681
 31
0.0
  0
LINE
  5
445
100
AcDbEntity
  8
SLD-0_0
  6
CONTINUOUS
 62
       3
100
AcDbLine
 10
10.18498011
 20
-7.25000182
 30
0.0
 11
10.18498011
 21
-13.75000196
 31
0.0
  0
LINE
  5
446
100
AcDbEntity
  8
SLD-0_0
  6
CONTINUOUS
 62
       3
100
AcDbLine
 10
5.18497743
 20
7.99999928
 30
0.0
 11
5.18497743
 21
9.99999961
 31
0.0
  0
LINE
  5
447
100
AcDbEntity
  8
SLD-0_0
  6
CONTINUOUS
 62
       3
100
AcDbLine
 10
5.18497743
 20
22.99999987
 30
0.0
 11
16.484975
 21
22.99999987
 31
0.0
  0
LINE
  5
448
100
AcDbEntity
  8
SLD-0_0
  6
CONTINUOUS
 62
       3
100
AcDbLine
 10
11.98498078
 20
-2.00000236
 30
0.0
 11
11.18497469
 21
-2.00000236
 31
0.0
  0
LINE
  5
449
100
AcDbEntity
  8
SLD-0_0
  6
CONTINUOUS
 62
       3
100
AcDbLine
 10
6.3235528
 20
3.00000032
 30
0.0
 11
6.60456543
 21
2.99999886
 31
0.0
  0
LINE
  5
44A
100
AcDbEntity
  8
SLD-0_0
  6
CONTINUOUS
 62
       3
100
AcDbLine
 10
7.51674839
 20
-13.10000027
 30
0.0
 11
7.53030099
 21
-13.10000027
 31
0.0
  0
LINE
  5
44B
100
AcDbEntity
  8
SLD-0_0
  6
CONTINUOUS
 62
       3
100
AcDbLine
 10
7.48497911
 20
-12.79619353
 30
0.0
 11
7.48497911
 21
-11.00000197
 31
0.0
  0
LINE
  5
44C
100
AcDbEntity
  8
SLD-0_0
  6
CONTINUOUS
 62
       3
100
AcDbLine
 10
5.18497743
 20
7.99999928
 30
0.0
 11
16.484975
 21
7.99999928
 31
0.0
  0
LINE
  5
44D
100
AcDbEntity
  8
SLD-0_0
  6
CONTINUOUS
 62
       3
100
AcDbLine
 10
5.18497743
 20
7.99999928
 30
0.0
 11
4.01033379
 21
7.99999928
 31
0.0
  0
LINE
  5
44E
100
AcDbEntity
  8
SLD-0_0
  6
CONTINUOUS
 62
       3
100
AcDbLine
 10
16.484975
 20
-3.00000066
 30
0.0
 11
16.484975
 21
7.99999928
 31
0.0
  0
LINE
  5
44F
100
AcDbEntity
  8
SLD-0_0
  6
CONTINUOUS
 62
       3
100
AcDbLine
 10
16.484975
 20
33.39999711
 30
0.0
 11
11.98498078
 21
33.39999711
 31
0.0
  0
LINE
  5
450
100
AcDbEntity
  8
SLD-0_0
  6
CONTINUOUS
 62
       3
100
AcDbLine
 10
11.98498078
 20
32.99999779
 30
0.0
 11
11.18497469
 21
32.99999779
 31
0.0
  0
LINE
  5
451
100
AcDbEntity
  8
SLD-0_0
  6
CONTINUOUS
 62
       3
100
AcDbLine
 10
6.3235528
 20
16.00000059
 30
0.0
 11
6.60456543
 21
15.99999886
 31
0.0
  0
LINE
  5
452
100
AcDbEntity
  8
SLD-0_0
  6
CONTINUOUS
 62
       3
100
AcDbLine
 10
-0.01502525
 20
-5.00000099
 30
0.0
 11
-0.01502525
 21
22.99999987
 31
0.0
  0
LINE
  5
453
100
AcDbEntity
  8
SLD-0_0
  6
CONTINUOUS
 62
       3
100
AcDbLine
 10
7.53030099
 20
25.89999681
 30
0.0
 11
7.52745943
 21
25.90986035
 31
0.0
  0
LINE
  5
454
100
AcDbEntity
  8
SLD-0_0
  6
CONTINUOUS
 62
       3
100
AcDbLine
 10
7.52745943
 20
25.90986035
 30
0.0
 11
7.52463872
 21
25.9197301
 31
0.0
  0
LINE
  5
455
100
AcDbEntity
  8
SLD-0_0
  6
CONTINUOUS
 62
       3
100
AcDbLine
 10
7.52463872
 20
25.9197301
 30
0.0
 11
7.52185971
 21
25.92961229
 31
0.0
  0
LINE
  5
456
100
AcDbEntity
  8
SLD-0_0
  6
CONTINUOUS
 62
       3
100
AcDbLine
 10
7.52185971
 20
25.92961229
 30
0.0
 11
7.51914325
 21
25.93951313
 31
0.0
  0
LINE
  5
457
100
AcDbEntity
  8
SLD-0_0
  6
CONTINUOUS
 62
       3
100
AcDbLine
 10
7.51914325
 20
25.93951313
 30
0.0
 11
7.5165102
 21
25.94943884
 31
0.0
  0
LINE
  5
458
100
AcDbEntity
  8
SLD-0_0
  6
CONTINUOUS
 62
       3
100
AcDbLine
 10
7.5165102
 20
25.94943884
 30
0.0
 11
7.51397872
 21
25.95939462
 31
0.0
  0
LINE
  5
459
100
AcDbEntity
  8
SLD-0_0
  6
CONTINUOUS
 62
       3
100
AcDbLine
 10
7.51397872
 20
25.95939462
 30
0.0
 11
7.51155335
 21
25.96938055
 31
0.0
  0
LINE
  5
45A
100
AcDbEntity
  8
SLD-0_0
  6
CONTINUOUS
 62
       3
100
AcDbLine
 10
7.51155335
 20
25.96938055
 30
0.0
 11
7.50923428
 21
25.97939507
 31
0.0
  0
LINE
  5
45B
100
AcDbEntity
  8
SLD-0_0
  6
CONTINUOUS
 62
       3
100
AcDbLine
 10
7.50923428
 20
25.97939507
 30
0.0
 11
7.50702172
 21
25.98943659
 31
0.0
  0
LINE
  5
45C
100
AcDbEntity
  8
SLD-0_0
  6
CONTINUOUS
 62
       3
100
AcDbLine
 10
7.50702172
 20
25.98943659
 30
0.0
 11
7.50491584
 21
25.99950357
 31
0.0
  0
LINE
  5
45D
100
AcDbEntity
  8
SLD-0_0
  6
CONTINUOUS
 62
       3
100
AcDbLine
 10
7.50491584
 20
25.99950357
 30
0.0
 11
7.50291685
 21
26.00959442
 31
0.0
  0
LINE
  5
45E
100
AcDbEntity
  8
SLD-0_0
  6
CONTINUOUS
 62
       3
100
AcDbLine
 10
7.50291685
 20
26.00959442
 30
0.0
 11
7.50102492
 21
26.01970759
 31
0.0
  0
LINE
  5
45F
100
AcDbEntity
  8
SLD-0_0
  6
CONTINUOUS
 62
       3
100
AcDbLine
 10
7.50102492
 20
26.01970759
 30
0.0
 11
7.49924026
 21
26.02984151
 31
0.0
  0
LINE
  5
460
100
AcDbEntity
  8
SLD-0_0
  6
CONTINUOUS
 62
       3
100
AcDbLine
 10
7.49924026
 20
26.02984151
 30
0.0
 11
7.49756305
 21
26.0399946
 31
0.0
  0
LINE
  5
461
100
AcDbEntity
  8
SLD-0_0
  6
CONTINUOUS
 62
       3
100
AcDbLine
 10
7.49756305
 20
26.0399946
 30
0.0
 11
7.49599349
 21
26.05016531
 31
0.0
  0
LINE
  5
462
100
AcDbEntity
  8
SLD-0_0
  6
CONTINUOUS
 62
       3
100
AcDbLine
 10
7.49599349
 20
26.05016531
 30
0.0
 11
7.49453177
 21
26.06035207
 31
0.0
  0
LINE
  5
463
100
AcDbEntity
  8
SLD-0_0
  6
CONTINUOUS
 62
       3
100
AcDbLine
 10
7.49453177
 20
26.06035207
 30
0.0
 11
7.49317807
 21
26.07055331
 31
0.0
  0
LINE
  5
464
100
AcDbEntity
  8
SLD-0_0
  6
CONTINUOUS
 62
       3
100
AcDbLine
 10
7.49317807
 20
26.07055331
 30
0.0
 11
7.4919326
 21
26.08076746
 31
0.0
  0
LINE
  5
465
100
AcDbEntity
  8
SLD-0_0
  6
CONTINUOUS
 62
       3
100
AcDbLine
 10
7.4919326
 20
26.08076746
 30
0.0
 11
7.49079554
 21
26.09099296
 31
0.0
  0
LINE
  5
466
100
AcDbEntity
  8
SLD-0_0
  6
CONTINUOUS
 62
       3
100
AcDbLine
 10
7.49079554
 20
26.09099296
 30
0.0
 11
7.48976708
 21
26.10122824
 31
0.0
  0
LINE
  5
467
100
AcDbEntity
  8
SLD-0_0
  6
CONTINUOUS
 62
       3
100
AcDbLine
 10
7.48976708
 20
26.10122824
 30
0.0
 11
7.48884741
 21
26.11147173
 31
0.0
  0
LINE
  5
468
100
AcDbEntity
  8
SLD-0_0
  6
CONTINUOUS
 62
       3
100
AcDbLine
 10
7.48884741
 20
26.11147173
 30
0.0
 11
7.48803674
 21
26.12172186
 31
0.0
  0
LINE
  5
469
100
AcDbEntity
  8
SLD-0_0
  6
CONTINUOUS
 62
       3
100
AcDbLine
 10
7.48803674
 20
26.12172186
 30
0.0
 11
7.48733524
 21
26.13197708
 31
0.0
  0
LINE
  5
46A
100
AcDbEntity
  8
SLD-0_0
  6
CONTINUOUS
 62
       3
100
AcDbLine
 10
7.48733524
 20
26.13197708
 30
0.0
 11
7.48674311
 21
26.14223581
 31
0.0
  0
LINE
  5
46B
100
AcDbEntity
  8
SLD-0_0
  6
CONTINUOUS
 62
       3
100
AcDbLine
 10
7.48674311
 20
26.14223581
 30
0.0
 11
7.48626044
 21
26.15249649
 31
0.0
  0
LINE
  5
46C
100
AcDbEntity
  8
SLD-0_0
  6
CONTINUOUS
 62
       3
100
AcDbLine
 10
7.48626044
 20
26.15249649
 30
0.0
 11
7.48588004
 21
26.16275805
 31
0.0
  0
LINE
  5
46D
100
AcDbEntity
  8
SLD-0_0
  6
CONTINUOUS
 62
       3
100
AcDbLine
 10
7.48588004
 20
26.16275805
 30
0.0
 11
7.4855824
 21
26.17302026
 31
0.0
  0
LINE
  5
46E
100
AcDbEntity
  8
SLD-0_0
  6
CONTINUOUS
 62
       3
100
AcDbLine
 10
7.4855824
 20
26.17302026
 30
0.0
 11
7.48534682
 21
26.18328295
 31
0.0
  0
LINE
  5
46F
100
AcDbEntity
  8
SLD-0_0
  6
CONTINUOUS
 62
       3
100
AcDbLine
 10
7.48534682
 20
26.18328295
 30
0.0
 11
7.48515262
 21
26.19354596
 31
0.0
  0
LINE
  5
470
100
AcDbEntity
  8
SLD-0_0
  6
CONTINUOUS
 62
       3
100
AcDbLine
 10
7.48515262
 20
26.19354596
 30
0.0
 11
7.48497911
 21
26.20380914
 31
0.0
  0
LINE
  5
471
100
AcDbEntity
  8
SLD-0_0
  6
CONTINUOUS
 62
       3
100
AcDbLine
 10
7.48497911
 20
-8.20381025
 30
0.0
 11
7.48510064
 21
-8.19150169
 31
0.0
  0
LINE
  5
472
100
AcDbEntity
  8
SLD-0_0
  6
CONTINUOUS
 62
       3
100
AcDbLine
 10
7.48510064
 20
-8.19150169
 30
0.0
 11
7.48529314
 21
-8.17919968
 31
0.0
  0
LINE
  5
473
100
AcDbEntity
  8
SLD-0_0
  6
CONTINUOUS
 62
       3
100
AcDbLine
 10
7.48529314
 20
-8.17919968
 30
0.0
 11
7.48562761
 21
-8.16691079
 31
0.0
  0
LINE
  5
474
100
AcDbEntity
  8
SLD-0_0
  6
CONTINUOUS
 62
       3
100
AcDbLine
 10
7.48562761
 20
-8.16691079
 30
0.0
 11
7.48616409
 21
-8.15464055
 31
0.0
  0
LINE
  5
475
100
AcDbEntity
  8
SLD-0_0
  6
CONTINUOUS
 62
       3
100
AcDbLine
 10
7.48616409
 20
-8.15464055
 30
0.0
 11
7.48690904
 21
-8.14238957
 31
0.0
  0
LINE
  5
476
100
AcDbEntity
  8
SLD-0_0
  6
CONTINUOUS
 62
       3
100
AcDbLine
 10
7.48690904
 20
-8.14238957
 30
0.0
 11
7.48785256
 21
-8.13015693
 31
0.0
  0
LINE
  5
477
100
AcDbEntity
  8
SLD-0_0
  6
CONTINUOUS
 62
       3
100
AcDbLine
 10
7.48785256
 20
-8.13015693
 30
0.0
 11
7.4889847
 21
-8.11794171
 31
0.0
  0
LINE
  5
478
100
AcDbEntity
  8
SLD-0_0
  6
CONTINUOUS
 62
       3
100
AcDbLine
 10
7.4889847
 20
-8.11794171
 30
0.0
 11
7.49029554
 21
-8.105743
 31
0.0
  0
LINE
  5
479
100
AcDbEntity
  8
SLD-0_0
  6
CONTINUOUS
 62
       3
100
AcDbLine
 10
7.49029554
 20
-8.105743
 30
0.0
 11
7.49177516
 21
-8.09355987
 31
0.0
  0
LINE
  5
47A
100
AcDbEntity
  8
SLD-0_0
  6
CONTINUOUS
 62
       3
100
AcDbLine
 10
7.49177516
 20
-8.09355987
 30
0.0
 11
7.49341362
 21
-8.08139142
 31
0.0
  0
LINE
  5
47B
100
AcDbEntity
  8
SLD-0_0
  6
CONTINUOUS
 62
       3
100
AcDbLine
 10
7.49341362
 20
-8.08139142
 30
0.0
 11
7.49520099
 21
-8.06923672
 31
0.0
  0
LINE
  5
47C
100
AcDbEntity
  8
SLD-0_0
  6
CONTINUOUS
 62
       3
100
AcDbLine
 10
7.49520099
 20
-8.06923672
 30
0.0
 11
7.49712736
 21
-8.05709486
 31
0.0
  0
LINE
  5
47D
100
AcDbEntity
  8
SLD-0_0
  6
CONTINUOUS
 62
       3
100
AcDbLine
 10
7.49712736
 20
-8.05709486
 30
0.0
 11
7.49918279
 21
-8.04496492
 31
0.0
  0
LINE
  5
47E
100
AcDbEntity
  8
SLD-0_0
  6
CONTINUOUS
 62
       3
100
AcDbLine
 10
7.49918279
 20
-8.04496492
 30
0.0
 11
7.50135735
 21
-8.03284598
 31
0.0
  0
LINE
  5
47F
100
AcDbEntity
  8
SLD-0_0
  6
CONTINUOUS
 62
       3
100
AcDbLine
 10
7.50135735
 20
-8.03284598
 30
0.0
 11
7.50364112
 21
-8.02073713
 31
0.0
  0
LINE
  5
480
100
AcDbEntity
  8
SLD-0_0
  6
CONTINUOUS
 62
       3
100
AcDbLine
 10
7.50364112
 20
-8.02073713
 30
0.0
 11
7.50602416
 21
-8.00863745
 31
0.0
  0
LINE
  5
481
100
AcDbEntity
  8
SLD-0_0
  6
CONTINUOUS
 62
       3
100
AcDbLine
 10
7.50602416
 20
-8.00863745
 30
0.0
 11
7.50849656
 21
-7.99654602
 31
0.0
  0
LINE
  5
482
100
AcDbEntity
  8
SLD-0_0
  6
CONTINUOUS
 62
       3
100
AcDbLine
 10
7.50849656
 20
-7.99654602
 30
0.0
 11
7.51104837
 21
-7.98446193
 31
0.0
  0
LINE
  5
483
100
AcDbEntity
  8
SLD-0_0
  6
CONTINUOUS
 62
       3
100
AcDbLine
 10
7.51104837
 20
-7.98446193
 30
0.0
 11
7.51366969
 21
-7.97238425
 31
0.0
  0
LINE
  5
484
100
AcDbEntity
  8
SLD-0_0
  6
CONTINUOUS
 62
       3
100
AcDbLine
 10
7.51366969
 20
-7.97238425
 30
0.0
 11
7.51635057
 21
-7.96031208
 31
0.0
  0
LINE
  5
485
100
AcDbEntity
  8
SLD-0_0
  6
CONTINUOUS
 62
       3
100
AcDbLine
 10
7.51635057
 20
-7.96031208
 30
0.0
 11
7.51908108
 21
-7.94824449
 31
0.0
  0
LINE
  5
486
100
AcDbEntity
  8
SLD-0_0
  6
CONTINUOUS
 62
       3
100
AcDbLine
 10
7.51908108
 20
-7.94824449
 30
0.0
 11
7.52185131
 21
-7.93618057
 31
0.0
  0
LINE
  5
487
100
AcDbEntity
  8
SLD-0_0
  6
CONTINUOUS
 62
       3
100
AcDbLine
 10
7.52185131
 20
-7.93618057
 30
0.0
 11
7.52465133
 21
-7.9241194
 31
0.0
  0
LINE
  5
488
100
AcDbEntity
  8
SLD-0_0
  6
CONTINUOUS
 62
       3
100
AcDbLine
 10
7.52465133
 20
-7.9241194
 30
0.0
 11
7.5274712
 21
-7.91206007
 31
0.0
  0
LINE
  5
489
100
AcDbEntity
  8
SLD-0_0
  6
CONTINUOUS
 62
       3
100
AcDbLine
 10
7.5274712
 20
-7.91206007
 30
0.0
 11
7.53030099
 21
-7.90000165
 31
0.0
  0
LINE
  5
48A
100
AcDbEntity
  8
SLD-0_0
  6
CONTINUOUS
 62
       3
100
AcDbLine
 10
7.48497911
 20
-11.00000197
 30
0.0
 11
7.4862351
 21
-11.00000197
 31
0.0
  0
LINE
  5
48B
100
AcDbEntity
  8
SLD-0_0
  6
CONTINUOUS
 62
       3
100
AcDbLine
 10
7.48790482
 20
-11.00000197
 30
0.0
 11
7.49040201
 21
-11.00000197
 31
0.0
  0
LINE
  5
48C
100
AcDbEntity
  8
SLD-0_0
  6
CONTINUOUS
 62
       3
100
AcDbLine
 10
7.49040201
 20
-11.00000197
 30
0.0
 11
7.49411282
 21
-11.00000197
 31
0.0
  0
LINE
  5
48D
100
AcDbEntity
  8
SLD-0_0
  6
CONTINUOUS
 62
       3
100
AcDbLine
 10
7.49411282
 20
-11.00000197
 30
0.0
 11
7.49915798
 21
-11.00000197
 31
0.0
  0
LINE
  5
48E
100
AcDbEntity
  8
SLD-0_0
  6
CONTINUOUS
 62
       3
100
AcDbLine
 10
7.49915798
 20
-11.00000197
 30
0.0
 11
7.50551
 21
-11.00000197
 31
0.0
  0
LINE
  5
48F
100
AcDbEntity
  8
SLD-0_0
  6
CONTINUOUS
 62
       3
100
AcDbLine
 10
7.50551
 20
-11.00000197
 30
0.0
 11
7.5131398
 21
-11.00000197
 31
0.0
  0
LINE
  5
490
100
AcDbEntity
  8
SLD-0_0
  6
CONTINUOUS
 62
       3
100
AcDbLine
 10
7.5131398
 20
-11.00000197
 30
0.0
 11
7.5220183
 21
-11.00000197
 31
0.0
  0
LINE
  5
491
100
AcDbEntity
  8
SLD-0_0
  6
CONTINUOUS
 62
       3
100
AcDbLine
 10
7.5220183
 20
-11.00000197
 30
0.0
 11
7.53211641
 21
-11.00000197
 31
0.0
  0
LINE
  5
492
100
AcDbEntity
  8
SLD-0_0
  6
CONTINUOUS
 62
       3
100
AcDbLine
 10
7.53211641
 20
-11.00000197
 30
0.0
 11
7.54340505
 21
-11.00000197
 31
0.0
  0
LINE
  5
493
100
AcDbEntity
  8
SLD-0_0
  6
CONTINUOUS
 62
       3
100
AcDbLine
 10
7.54340505
 20
-11.00000197
 30
0.0
 11
7.55585513
 21
-11.00000197
 31
0.0
  0
LINE
  5
494
100
AcDbEntity
  8
SLD-0_0
  6
CONTINUOUS
 62
       3
100
AcDbLine
 10
7.55585513
 20
-11.00000197
 30
0.0
 11
7.56943756
 21
-11.00000197
 31
0.0
  0
LINE
  5
495
100
AcDbEntity
  8
SLD-0_0
  6
CONTINUOUS
 62
       3
100
AcDbLine
 10
7.56943756
 20
-11.00000197
 30
0.0
 11
7.58412326
 21
-11.00000197
 31
0.0
  0
LINE
  5
496
100
AcDbEntity
  8
SLD-0_0
  6
CONTINUOUS
 62
       3
100
AcDbLine
 10
7.58412326
 20
-11.00000197
 30
0.0
 11
7.59988362
 21
-11.00000197
 31
0.0
  0
LINE
  5
497
100
AcDbEntity
  8
SLD-0_0
  6
CONTINUOUS
 62
       3
100
AcDbLine
 10
7.59988362
 20
-11.00000197
 30
0.0
 11
7.61669599
 21
-11.00000197
 31
0.0
  0
LINE
  5
498
100
AcDbEntity
  8
SLD-0_0
  6
CONTINUOUS
 62
       3
100
AcDbLine
 10
7.61669599
 20
-11.00000197
 30
0.0
 11
7.63454178
 21
-11.00000197
 31
0.0
  0
LINE
  5
499
100
AcDbEntity
  8
SLD-0_0
  6
CONTINUOUS
 62
       3
100
AcDbLine
 10
7.63454178
 20
-11.00000197
 30
0.0
 11
7.65340247
 21
-11.00000197
 31
0.0
  0
LINE
  5
49A
100
AcDbEntity
  8
SLD-0_0
  6
CONTINUOUS
 62
       3
100
AcDbLine
 10
7.65340247
 20
-11.00000197
 30
0.0
 11
7.67325957
 21
-11.00000197
 31
0.0
  0
LINE
  5
49B
100
AcDbEntity
  8
SLD-0_0
  6
CONTINUOUS
 62
       3
100
AcDbLine
 10
7.67325957
 20
-11.00000197
 30
0.0
 11
7.69409457
 21
-11.00000197
 31
0.0
  0
LINE
  5
49C
100
AcDbEntity
  8
SLD-0_0
  6
CONTINUOUS
 62
       3
100
AcDbLine
 10
7.69409457
 20
-11.00000197
 30
0.0
 11
7.71588894
 21
-11.00000197
 31
0.0
  0
LINE
  5
49D
100
AcDbEntity
  8
SLD-0_0
  6
CONTINUOUS
 62
       3
100
AcDbLine
 10
7.71588894
 20
-11.00000197
 30
0.0
 11
7.73862418
 21
-11.00000197
 31
0.0
  0
LINE
  5
49E
100
AcDbEntity
  8
SLD-0_0
  6
CONTINUOUS
 62
       3
100
AcDbLine
 10
7.73862418
 20
-11.00000197
 30
0.0
 11
7.76228179
 21
-11.00000197
 31
0.0
  0
LINE
  5
49F
100
AcDbEntity
  8
SLD-0_0
  6
CONTINUOUS
 62
       3
100
AcDbLine
 10
7.76228179
 20
-11.00000197
 30
0.0
 11
7.78684324
 21
-11.00000197
 31
0.0
  0
LINE
  5
4A0
100
AcDbEntity
  8
SLD-0_0
  6
CONTINUOUS
 62
       3
100
AcDbLine
 10
7.78684324
 20
-11.00000197
 30
0.0
 11
7.81228867
 21
-11.00000197
 31
0.0
  0
LINE
  5
4A1
100
AcDbEntity
  8
SLD-0_0
  6
CONTINUOUS
 62
       3
100
AcDbLine
 10
7.81228867
 20
-11.00000197
 30
0.0
 11
7.83858738
 21
-11.00000197
 31
0.0
  0
LINE
  5
4A2
100
AcDbEntity
  8
SLD-0_0
  6
CONTINUOUS
 62
       3
100
AcDbLine
 10
7.83858738
 20
-11.00000197
 30
0.0
 11
7.86570362
 21
-11.00000197
 31
0.0
  0
LINE
  5
4A3
100
AcDbEntity
  8
SLD-0_0
  6
CONTINUOUS
 62
       3
100
AcDbLine
 10
7.86570362
 20
-11.00000197
 30
0.0
 11
7.8936016
 21
-11.00000197
 31
0.0
  0
LINE
  5
4A4
100
AcDbEntity
  8
SLD-0_0
  6
CONTINUOUS
 62
       3
100
AcDbLine
 10
7.8936016
 20
-11.00000197
 30
0.0
 11
7.92224552
 21
-11.00000197
 31
0.0
  0
LINE
  5
4A5
100
AcDbEntity
  8
SLD-0_0
  6
CONTINUOUS
 62
       3
100
AcDbLine
 10
7.92224552
 20
-11.00000197
 30
0.0
 11
7.9515996
 21
-11.00000197
 31
0.0
  0
LINE
  5
4A6
100
AcDbEntity
  8
SLD-0_0
  6
CONTINUOUS
 62
       3
100
AcDbLine
 10
7.9515996
 20
-11.00000197
 30
0.0
 11
7.98162803
 21
-11.00000197
 31
0.0
  0
LINE
  5
4A7
100
AcDbEntity
  8
SLD-0_0
  6
CONTINUOUS
 62
       3
100
AcDbLine
 10
7.98162803
 20
-11.00000197
 30
0.0
 11
8.01229503
 21
-11.00000197
 31
0.0
  0
LINE
  5
4A8
100
AcDbEntity
  8
SLD-0_0
  6
CONTINUOUS
 62
       3
100
AcDbLine
 10
8.01229503
 20
-11.00000197
 30
0.0
 11
8.0435648
 21
-11.00000197
 31
0.0
  0
LINE
  5
4A9
100
AcDbEntity
  8
SLD-0_0
  6
CONTINUOUS
 62
       3
100
AcDbLine
 10
8.0435648
 20
-11.00000197
 30
0.0
 11
8.07540155
 21
-11.00000197
 31
0.0
  0
LINE
  5
4AA
100
AcDbEntity
  8
SLD-0_0
  6
CONTINUOUS
 62
       3
100
AcDbLine
 10
8.07540155
 20
-11.00000197
 30
0.0
 11
8.10776671
 21
-11.00000197
 31
0.0
  0
LINE
  5
4AB
100
AcDbEntity
  8
SLD-0_0
  6
CONTINUOUS
 62
       3
100
AcDbLine
 10
8.10776671
 20
-11.00000197
 30
0.0
 11
8.14061345
 21
-11.00000197
 31
0.0
  0
LINE
  5
4AC
100
AcDbEntity
  8
SLD-0_0
  6
CONTINUOUS
 62
       3
100
AcDbLine
 10
8.14061345
 20
-11.00000197
 30
0.0
 11
8.1738934
 21
-11.00000197
 31
0.0
  0
LINE
  5
4AD
100
AcDbEntity
  8
SLD-0_0
  6
CONTINUOUS
 62
       3
100
AcDbLine
 10
8.1738934
 20
-11.00000197
 30
0.0
 11
8.20755819
 21
-11.00000197
 31
0.0
  0
LINE
  5
4AE
100
AcDbEntity
  8
SLD-0_0
  6
CONTINUOUS
 62
       3
100
AcDbLine
 10
8.20755819
 20
-11.00000197
 30
0.0
 11
8.24155946
 21
-11.00000197
 31
0.0
  0
LINE
  5
4AF
100
AcDbEntity
  8
SLD-0_0
  6
CONTINUOUS
 62
       3
100
AcDbLine
 10
8.24155946
 20
-11.00000197
 30
0.0
 11
8.27584884
 21
-11.00000197
 31
0.0
  0
LINE
  5
4B0
100
AcDbEntity
  8
SLD-0_0
  6
CONTINUOUS
 62
       3
100
AcDbLine
 10
8.27584884
 20
-11.00000197
 30
0.0
 11
8.31037795
 21
-11.00000197
 31
0.0
  0
LINE
  5
4B1
100
AcDbEntity
  8
SLD-0_0
  6
CONTINUOUS
 62
       3
100
AcDbLine
 10
8.31037795
 20
-11.00000197
 30
0.0
 11
8.34509845
 21
-11.00000197
 31
0.0
  0
LINE
  5
4B2
100
AcDbEntity
  8
SLD-0_0
  6
CONTINUOUS
 62
       3
100
AcDbLine
 10
8.34509845
 20
-11.00000197
 30
0.0
 11
8.37996195
 21
-11.00000197
 31
0.0
  0
LINE
  5
4B3
100
AcDbEntity
  8
SLD-0_0
  6
CONTINUOUS
 62
       3
100
AcDbLine
 10
8.37996195
 20
-11.00000197
 30
0.0
 11
8.41492061
 21
-11.00000197
 31
0.0
  0
LINE
  5
4B4
100
AcDbEntity
  8
SLD-0_0
  6
CONTINUOUS
 62
       3
100
AcDbLine
 10
8.41492061
 20
-11.00000197
 30
0.0
 11
8.44993662
 21
-11.00000197
 31
0.0
  0
LINE
  5
4B5
100
AcDbEntity
  8
SLD-0_0
  6
CONTINUOUS
 62
       3
100
AcDbLine
 10
8.44993662
 20
-11.00000197
 30
0.0
 11
8.48498114
 21
-11.00000197
 31
0.0
  0
LINE
  5
4B6
100
AcDbEntity
  8
SLD-0_0
  6
CONTINUOUS
 62
       3
100
AcDbLine
 10
8.48498114
 20
-23.00000021
 30
0.0
 11
8.44988178
 21
-23.00000021
 31
0.0
  0
LINE
  5
4B7
100
AcDbEntity
  8
SLD-0_0
  6
CONTINUOUS
 62
       3
100
AcDbLine
 10
8.44988178
 20
-23.00000021
 30
0.0
 11
8.41482354
 21
-23.00000021
 31
0.0
  0
LINE
  5
4B8
100
AcDbEntity
  8
SLD-0_0
  6
CONTINUOUS
 62
       3
100
AcDbLine
 10
8.41482354
 20
-23.00000021
 30
0.0
 11
8.37984754
 21
-23.00000021
 31
0.0
  0
LINE
  5
4B9
100
AcDbEntity
  8
SLD-0_0
  6
CONTINUOUS
 62
       3
100
AcDbLine
 10
8.37984754
 20
-23.00000021
 30
0.0
 11
8.34499491
 21
-23.00000021
 31
0.0
  0
LINE
  5
4BA
100
AcDbEntity
  8
SLD-0_0
  6
CONTINUOUS
 62
       3
100
AcDbLine
 10
8.34499491
 20
-23.00000021
 30
0.0
 11
8.31030677
 21
-23.00000021
 31
0.0
  0
LINE
  5
4BB
100
AcDbEntity
  8
SLD-0_0
  6
CONTINUOUS
 62
       3
100
AcDbLine
 10
8.31030677
 20
-23.00000021
 30
0.0
 11
8.27582423
 21
-23.00000021
 31
0.0
  0
LINE
  5
4BC
100
AcDbEntity
  8
SLD-0_0
  6
CONTINUOUS
 62
       3
100
AcDbLine
 10
8.27582423
 20
-23.00000021
 30
0.0
 11
8.24158892
 21
-23.00000021
 31
0.0
  0
LINE
  5
4BD
100
AcDbEntity
  8
SLD-0_0
  6
CONTINUOUS
 62
       3
100
AcDbLine
 10
8.24158892
 20
-23.00000021
 30
0.0
 11
8.20764431
 21
-23.00000021
 31
0.0
  0
LINE
  5
4BE
100
AcDbEntity
  8
SLD-0_0
  6
CONTINUOUS
 62
       3
100
AcDbLine
 10
8.20764431
 20
-23.00000021
 30
0.0
 11
8.17403432
 21
-23.00000021
 31
0.0
  0
LINE
  5
4BF
100
AcDbEntity
  8
SLD-0_0
  6
CONTINUOUS
 62
       3
100
AcDbLine
 10
8.17403432
 20
-23.00000021
 30
0.0
 11
8.14080285
 21
-23.00000021
 31
0.0
  0
LINE
  5
4C0
100
AcDbEntity
  8
SLD-0_0
  6
CONTINUOUS
 62
       3
100
AcDbLine
 10
8.14080285
 20
-23.00000021
 30
0.0
 11
8.10799382
 21
-23.00000021
 31
0.0
  0
LINE
  5
4C1
100
AcDbEntity
  8
SLD-0_0
  6
CONTINUOUS
 62
       3
100
AcDbLine
 10
8.10799382
 20
-23.00000021
 30
0.0
 11
8.07565113
 21
-23.00000021
 31
0.0
  0
LINE
  5
4C2
100
AcDbEntity
  8
SLD-0_0
  6
CONTINUOUS
 62
       3
100
AcDbLine
 10
8.07565113
 20
-23.00000021
 30
0.0
 11
8.04381869
 21
-23.00000021
 31
0.0
  0
LINE
  5
4C3
100
AcDbEntity
  8
SLD-0_0
  6
CONTINUOUS
 62
       3
100
AcDbLine
 10
8.04381869
 20
-23.00000021
 30
0.0
 11
8.01254041
 21
-23.00000021
 31
0.0
  0
LINE
  5
4C4
100
AcDbEntity
  8
SLD-0_0
  6
CONTINUOUS
 62
       3
100
AcDbLine
 10
8.01254041
 20
-23.00000021
 30
0.0
 11
7.98186019
 21
-23.00000021
 31
0.0
  0
LINE
  5
4C5
100
AcDbEntity
  8
SLD-0_0
  6
CONTINUOUS
 62
       3
100
AcDbLine
 10
7.98186019
 20
-23.00000021
 30
0.0
 11
7.95182162
 21
-23.00000021
 31
0.0
  0
LINE
  5
4C6
100
AcDbEntity
  8
SLD-0_0
  6
CONTINUOUS
 62
       3
100
AcDbLine
 10
7.95182162
 20
-23.00000021
 30
0.0
 11
7.92246206
 21
-23.00000021
 31
0.0
  0
LINE
  5
4C7
100
AcDbEntity
  8
SLD-0_0
  6
CONTINUOUS
 62
       3
100
AcDbLine
 10
7.92246206
 20
-23.00000021
 30
0.0
 11
7.89381346
 21
-23.00000021
 31
0.0
  0
LINE
  5
4C8
100
AcDbEntity
  8
SLD-0_0
  6
CONTINUOUS
 62
       3
100
AcDbLine
 10
7.89381346
 20
-23.00000021
 30
0.0
 11
7.86590761
 21
-23.00000021
 31
0.0
  0
LINE
  5
4C9
100
AcDbEntity
  8
SLD-0_0
  6
CONTINUOUS
 62
       3
100
AcDbLine
 10
7.86590761
 20
-23.00000021
 30
0.0
 11
7.83877629
 21
-23.00000021
 31
0.0
  0
LINE
  5
4CA
100
AcDbEntity
  8
SLD-0_0
  6
CONTINUOUS
 62
       3
100
AcDbLine
 10
7.83877629
 20
-23.00000021
 30
0.0
 11
7.81245128
 21
-23.00000021
 31
0.0
  0
LINE
  5
4CB
100
AcDbEntity
  8
SLD-0_0
  6
CONTINUOUS
 62
       3
100
AcDbLine
 10
7.81245128
 20
-23.00000021
 30
0.0
 11
7.78696435
 21
-23.00000021
 31
0.0
  0
LINE
  5
4CC
100
AcDbEntity
  8
SLD-0_0
  6
CONTINUOUS
 62
       3
100
AcDbLine
 10
7.78696435
 20
-23.00000021
 30
0.0
 11
7.76234728
 21
-23.00000021
 31
0.0
  0
LINE
  5
4CD
100
AcDbEntity
  8
SLD-0_0
  6
CONTINUOUS
 62
       3
100
AcDbLine
 10
7.76234728
 20
-23.00000021
 30
0.0
 11
7.73863186
 21
-23.00000021
 31
0.0
  0
LINE
  5
4CE
100
AcDbEntity
  8
SLD-0_0
  6
CONTINUOUS
 62
       3
100
AcDbLine
 10
7.73863186
 20
-23.00000021
 30
0.0
 11
7.71584986
 21
-23.00000021
 31
0.0
  0
LINE
  5
4CF
100
AcDbEntity
  8
SLD-0_0
  6
CONTINUOUS
 62
       3
100
AcDbLine
 10
7.71584986
 20
-23.00000021
 30
0.0
 11
7.69403034
 21
-23.00000021
 31
0.0
  0
LINE
  5
4D0
100
AcDbEntity
  8
SLD-0_0
  6
CONTINUOUS
 62
       3
100
AcDbLine
 10
7.69403034
 20
-23.00000021
 30
0.0
 11
7.67319305
 21
-23.00000021
 31
0.0
  0
LINE
  5
4D1
100
AcDbEntity
  8
SLD-0_0
  6
CONTINUOUS
 62
       3
100
AcDbLine
 10
7.67319305
 20
-23.00000021
 30
0.0
 11
7.6533557
 21
-23.00000021
 31
0.0
  0
LINE
  5
4D2
100
AcDbEntity
  8
SLD-0_0
  6
CONTINUOUS
 62
       3
100
AcDbLine
 10
7.6533557
 20
-23.00000021
 30
0.0
 11
7.63453599
 21
-23.00000021
 31
0.0
  0
LINE
  5
4D3
100
AcDbEntity
  8
SLD-0_0
  6
CONTINUOUS
 62
       3
100
AcDbLine
 10
7.63453599
 20
-23.00000021
 30
0.0
 11
7.61675166
 21
-23.00000021
 31
0.0
  0
LINE
  5
4D4
100
AcDbEntity
  8
SLD-0_0
  6
CONTINUOUS
 62
       3
100
AcDbLine
 10
7.61675166
 20
-23.00000021
 30
0.0
 11
7.60002042
 21
-23.00000021
 31
0.0
  0
LINE
  5
4D5
100
AcDbEntity
  8
SLD-0_0
  6
CONTINUOUS
 62
       3
100
AcDbLine
 10
7.60002042
 20
-23.00000021
 30
0.0
 11
7.58435997
 21
-23.00000021
 31
0.0
  0
LINE
  5
4D6
100
AcDbEntity
  8
SLD-0_0
  6
CONTINUOUS
 62
       3
100
AcDbLine
 10
7.58435997
 20
-23.00000021
 30
0.0
 11
7.56978805
 21
-23.00000021
 31
0.0
  0
LINE
  5
4D7
100
AcDbEntity
  8
SLD-0_0
  6
CONTINUOUS
 62
       3
100
AcDbLine
 10
7.56978805
 20
-23.00000021
 30
0.0
 11
7.55632237
 21
-23.00000021
 31
0.0
  0
LINE
  5
4D8
100
AcDbEntity
  8
SLD-0_0
  6
CONTINUOUS
 62
       3
100
AcDbLine
 10
7.55632237
 20
-23.00000021
 30
0.0
 11
7.54398054
 21
-23.00000021
 31
0.0
  0
LINE
  5
4D9
100
AcDbEntity
  8
SLD-0_0
  6
CONTINUOUS
 62
       3
100
AcDbLine
 10
7.54398054
 20
-23.00000021
 30
0.0
 11
7.53277734
 21
-23.00000021
 31
0.0
  0
LINE
  5
4DA
100
AcDbEntity
  8
SLD-0_0
  6
CONTINUOUS
 62
       3
100
AcDbLine
 10
7.53277734
 20
-23.00000021
 30
0.0
 11
7.52272445
 21
-23.00000021
 31
0.0
  0
LINE
  5
4DB
100
AcDbEntity
  8
SLD-0_0
  6
CONTINUOUS
 62
       3
100
AcDbLine
 10
7.52272445
 20
-23.00000021
 30
0.0
 11
7.51383339
 21
-23.00000021
 31
0.0
  0
LINE
  5
4DC
100
AcDbEntity
  8
SLD-0_0
  6
CONTINUOUS
 62
       3
100
AcDbLine
 10
7.51383339
 20
-23.00000021
 30
0.0
 11
7.50611567
 21
-23.00000021
 31
0.0
  0
LINE
  5
4DD
100
AcDbEntity
  8
SLD-0_0
  6
CONTINUOUS
 62
       3
100
AcDbLine
 10
7.50611567
 20
-23.00000021
 30
0.0
 11
7.49958281
 21
-23.00000021
 31
0.0
  0
LINE
  5
4DE
100
AcDbEntity
  8
SLD-0_0
  6
CONTINUOUS
 62
       3
100
AcDbLine
 10
7.49958281
 20
-23.00000021
 30
0.0
 11
7.49424634
 21
-23.00000021
 31
0.0
  0
LINE
  5
4DF
100
AcDbEntity
  8
SLD-0_0
  6
CONTINUOUS
 62
       3
100
AcDbLine
 10
7.49424634
 20
-23.00000021
 30
0.0
 11
7.49011776
 21
-23.00000021
 31
0.0
  0
LINE
  5
4E0
100
AcDbEntity
  8
SLD-0_0
  6
CONTINUOUS
 62
       3
100
AcDbLine
 10
7.49011776
 20
-23.00000021
 30
0.0
 11
7.48720859
 21
-23.00000021
 31
0.0
  0
LINE
  5
4E1
100
AcDbEntity
  8
SLD-0_0
  6
CONTINUOUS
 62
       3
100
AcDbLine
 10
7.48553036
 20
-23.00000021
 30
0.0
 11
7.48497911
 21
-23.00000021
 31
0.0
  0
LINE
  5
4E2
100
AcDbEntity
  8
SLD-0_0
  6
CONTINUOUS
 62
       3
100
AcDbLine
 10
7.48497911
 20
28.00000256
 30
0.0
 11
7.4862351
 21
28.00000256
 31
0.0
  0
LINE
  5
4E3
100
AcDbEntity
  8
SLD-0_0
  6
CONTINUOUS
 62
       3
100
AcDbLine
 10
7.48790482
 20
28.00000256
 30
0.0
 11
7.49040201
 21
28.00000256
 31
0.0
  0
LINE
  5
4E4
100
AcDbEntity
  8
SLD-0_0
  6
CONTINUOUS
 62
       3
100
AcDbLine
 10
7.49040201
 20
28.00000256
 30
0.0
 11
7.49411282
 21
28.00000256
 31
0.0
  0
LINE
  5
4E5
100
AcDbEntity
  8
SLD-0_0
  6
CONTINUOUS
 62
       3
100
AcDbLine
 10
7.49411282
 20
28.00000256
 30
0.0
 11
7.49915798
 21
28.00000256
 31
0.0
  0
LINE
  5
4E6
100
AcDbEntity
  8
SLD-0_0
  6
CONTINUOUS
 62
       3
100
AcDbLine
 10
7.49915798
 20
28.00000256
 30
0.0
 11
7.50551
 21
28.00000256
 31
0.0
  0
LINE
  5
4E7
100
AcDbEntity
  8
SLD-0_0
  6
CONTINUOUS
 62
       3
100
AcDbLine
 10
7.50551
 20
28.00000256
 30
0.0
 11
7.5131398
 21
28.00000256
 31
0.0
  0
LINE
  5
4E8
100
AcDbEntity
  8
SLD-0_0
  6
CONTINUOUS
 62
       3
100
AcDbLine
 10
7.5131398
 20
28.00000256
 30
0.0
 11
7.5220183
 21
28.00000256
 31
0.0
  0
LINE
  5
4E9
100
AcDbEntity
  8
SLD-0_0
  6
CONTINUOUS
 62
       3
100
AcDbLine
 10
7.5220183
 20
28.00000256
 30
0.0
 11
7.53211641
 21
28.00000256
 31
0.0
  0
LINE
  5
4EA
100
AcDbEntity
  8
SLD-0_0
  6
CONTINUOUS
 62
       3
100
AcDbLine
 10
7.53211641
 20
28.00000256
 30
0.0
 11
7.54340505
 21
28.00000256
 31
0.0
  0
LINE
  5
4EB
100
AcDbEntity
  8
SLD-0_0
  6
CONTINUOUS
 62
       3
100
AcDbLine
 10
7.54340505
 20
28.00000256
 30
0.0
 11
7.55585513
 21
28.00000256
 31
0.0
  0
LINE
  5
4EC
100
AcDbEntity
  8
SLD-0_0
  6
CONTINUOUS
 62
       3
100
AcDbLine
 10
7.55585513
 20
28.00000256
 30
0.0
 11
7.56943756
 21
28.00000256
 31
0.0
  0
LINE
  5
4ED
100
AcDbEntity
  8
SLD-0_0
  6
CONTINUOUS
 62
       3
100
AcDbLine
 10
7.56943756
 20
28.00000256
 30
0.0
 11
7.58412326
 21
28.00000256
 31
0.0
  0
LINE
  5
4EE
100
AcDbEntity
  8
SLD-0_0
  6
CONTINUOUS
 62
       3
100
AcDbLine
 10
7.58412326
 20
28.00000256
 30
0.0
 11
7.59988362
 21
28.00000256
 31
0.0
  0
LINE
  5
4EF
100
AcDbEntity
  8
SLD-0_0
  6
CONTINUOUS
 62
       3
100
AcDbLine
 10
7.59988362
 20
28.00000256
 30
0.0
 11
7.61669599
 21
28.00000256
 31
0.0
  0
LINE
  5
4F0
100
AcDbEntity
  8
SLD-0_0
  6
CONTINUOUS
 62
       3
100
AcDbLine
 10
7.61669599
 20
28.00000256
 30
0.0
 11
7.63454178
 21
28.00000256
 31
0.0
  0
LINE
  5
4F1
100
AcDbEntity
  8
SLD-0_0
  6
CONTINUOUS
 62
       3
100
AcDbLine
 10
7.63454178
 20
28.00000256
 30
0.0
 11
7.65340247
 21
28.00000256
 31
0.0
  0
LINE
  5
4F2
100
AcDbEntity
  8
SLD-0_0
  6
CONTINUOUS
 62
       3
100
AcDbLine
 10
7.65340247
 20
28.00000256
 30
0.0
 11
7.67325957
 21
28.00000256
 31
0.0
  0
LINE
  5
4F3
100
AcDbEntity
  8
SLD-0_0
  6
CONTINUOUS
 62
       3
100
AcDbLine
 10
7.67325957
 20
28.00000256
 30
0.0
 11
7.69409457
 21
28.00000256
 31
0.0
  0
LINE
  5
4F4
100
AcDbEntity
  8
SLD-0_0
  6
CONTINUOUS
 62
       3
100
AcDbLine
 10
7.69409457
 20
28.00000256
 30
0.0
 11
7.71588894
 21
28.00000256
 31
0.0
  0
LINE
  5
4F5
100
AcDbEntity
  8
SLD-0_0
  6
CONTINUOUS
 62
       3
100
AcDbLine
 10
7.71588894
 20
28.00000256
 30
0.0
 11
7.73862418
 21
28.00000256
 31
0.0
  0
LINE
  5
4F6
100
AcDbEntity
  8
SLD-0_0
  6
CONTINUOUS
 62
       3
100
AcDbLine
 10
7.73862418
 20
28.00000256
 30
0.0
 11
7.76228179
 21
28.00000256
 31
0.0
  0
LINE
  5
4F7
100
AcDbEntity
  8
SLD-0_0
  6
CONTINUOUS
 62
       3
100
AcDbLine
 10
7.76228179
 20
28.00000256
 30
0.0
 11
7.78684324
 21
28.00000256
 31
0.0
  0
LINE
  5
4F8
100
AcDbEntity
  8
SLD-0_0
  6
CONTINUOUS
 62
       3
100
AcDbLine
 10
7.78684324
 20
28.00000256
 30
0.0
 11
7.81228867
 21
28.00000256
 31
0.0
  0
LINE
  5
4F9
100
AcDbEntity
  8
SLD-0_0
  6
CONTINUOUS
 62
       3
100
AcDbLine
 10
7.81228867
 20
28.00000256
 30
0.0
 11
7.83858738
 21
28.00000256
 31
0.0
  0
LINE
  5
4FA
100
AcDbEntity
  8
SLD-0_0
  6
CONTINUOUS
 62
       3
100
AcDbLine
 10
7.83858738
 20
28.00000256
 30
0.0
 11
7.86570362
 21
28.00000256
 31
0.0
  0
LINE
  5
4FB
100
AcDbEntity
  8
SLD-0_0
  6
CONTINUOUS
 62
       3
100
AcDbLine
 10
7.86570362
 20
28.00000256
 30
0.0
 11
7.8936016
 21
28.00000256
 31
0.0
  0
LINE
  5
4FC
100
AcDbEntity
  8
SLD-0_0
  6
CONTINUOUS
 62
       3
100
AcDbLine
 10
7.8936016
 20
28.00000256
 30
0.0
 11
7.92224552
 21
28.00000256
 31
0.0
  0
LINE
  5
4FD
100
AcDbEntity
  8
SLD-0_0
  6
CONTINUOUS
 62
       3
100
AcDbLine
 10
7.92224552
 20
28.00000256
 30
0.0
 11
7.9515996
 21
28.00000256
 31
0.0
  0
LINE
  5
4FE
100
AcDbEntity
  8
SLD-0_0
  6
CONTINUOUS
 62
       3
100
AcDbLine
 10
7.9515996
 20
28.00000256
 30
0.0
 11
7.98162803
 21
28.00000256
 31
0.0
  0
LINE
  5
4FF
100
AcDbEntity
  8
SLD-0_0
  6
CONTINUOUS
 62
       3
100
AcDbLine
 10
7.98162803
 20
28.00000256
 30
0.0
 11
8.01229503
 21
28.00000256
 31
0.0
  0
LINE
  5
500
100
AcDbEntity
  8
SLD-0_0
  6
CONTINUOUS
 62
       3
100
AcDbLine
 10
8.01229503
 20
28.00000256
 30
0.0
 11
8.0435648
 21
28.00000256
 31
0.0
  0
LINE
  5
501
100
AcDbEntity
  8
SLD-0_0
  6
CONTINUOUS
 62
       3
100
AcDbLine
 10
8.0435648
 20
28.00000256
 30
0.0
 11
8.07540155
 21
28.00000256
 31
0.0
  0
LINE
  5
502
100
AcDbEntity
  8
SLD-0_0
  6
CONTINUOUS
 62
       3
100
AcDbLine
 10
8.07540155
 20
28.00000256
 30
0.0
 11
8.10776671
 21
28.00000256
 31
0.0
  0
LINE
  5
503
100
AcDbEntity
  8
SLD-0_0
  6
CONTINUOUS
 62
       3
100
AcDbLine
 10
8.10776671
 20
28.00000256
 30
0.0
 11
8.14061345
 21
28.00000256
 31
0.0
  0
LINE
  5
504
100
AcDbEntity
  8
SLD-0_0
  6
CONTINUOUS
 62
       3
100
AcDbLine
 10
8.14061345
 20
28.00000256
 30
0.0
 11
8.1738934
 21
28.00000256
 31
0.0
  0
LINE
  5
505
100
AcDbEntity
  8
SLD-0_0
  6
CONTINUOUS
 62
       3
100
AcDbLine
 10
8.1738934
 20
28.00000256
 30
0.0
 11
8.20755819
 21
28.00000256
 31
0.0
  0
LINE
  5
506
100
AcDbEntity
  8
SLD-0_0
  6
CONTINUOUS
 62
       3
100
AcDbLine
 10
8.20755819
 20
28.00000256
 30
0.0
 11
8.24155946
 21
28.00000256
 31
0.0
  0
LINE
  5
507
100
AcDbEntity
  8
SLD-0_0
  6
CONTINUOUS
 62
       3
100
AcDbLine
 10
8.24155946
 20
28.00000256
 30
0.0
 11
8.27584884
 21
28.00000256
 31
0.0
  0
LINE
  5
508
100
AcDbEntity
  8
SLD-0_0
  6
CONTINUOUS
 62
       3
100
AcDbLine
 10
8.27584884
 20
28.00000256
 30
0.0
 11
8.31037795
 21
28.00000256
 31
0.0
  0
LINE
  5
509
100
AcDbEntity
  8
SLD-0_0
  6
CONTINUOUS
 62
       3
100
AcDbLine
 10
8.31037795
 20
28.00000256
 30
0.0
 11
8.34509845
 21
28.00000256
 31
0.0
  0
LINE
  5
50A
100
AcDbEntity
  8
SLD-0_0
  6
CONTINUOUS
 62
       3
100
AcDbLine
 10
8.34509845
 20
28.00000256
 30
0.0
 11
8.37996195
 21
28.00000256
 31
0.0
  0
LINE
  5
50B
100
AcDbEntity
  8
SLD-0_0
  6
CONTINUOUS
 62
       3
100
AcDbLine
 10
8.37996195
 20
28.00000256
 30
0.0
 11
8.41492061
 21
28.00000256
 31
0.0
  0
LINE
  5
50C
100
AcDbEntity
  8
SLD-0_0
  6
CONTINUOUS
 62
       3
100
AcDbLine
 10
8.41492061
 20
28.00000256
 30
0.0
 11
8.44993662
 21
28.00000256
 31
0.0
  0
LINE
  5
50D
100
AcDbEntity
  8
SLD-0_0
  6
CONTINUOUS
 62
       3
100
AcDbLine
 10
8.44993662
 20
28.00000256
 30
0.0
 11
8.48498114
 21
28.00000256
 31
0.0
  0
LINE
  5
50E
100
AcDbEntity
  8
SLD-0_0
  6
CONTINUOUS
 62
       3
100
AcDbLine
 10
8.48498114
 20
28.99999713
 30
0.0
 11
8.44988178
 21
28.99999713
 31
0.0
  0
LINE
  5
50F
100
AcDbEntity
  8
SLD-0_0
  6
CONTINUOUS
 62
       3
100
AcDbLine
 10
8.44988178
 20
28.99999713
 30
0.0
 11
8.41482354
 21
28.99999713
 31
0.0
  0
LINE
  5
510
100
AcDbEntity
  8
SLD-0_0
  6
CONTINUOUS
 62
       3
100
AcDbLine
 10
8.41482354
 20
28.99999713
 30
0.0
 11
8.37984754
 21
28.99999713
 31
0.0
  0
LINE
  5
511
100
AcDbEntity
  8
SLD-0_0
  6
CONTINUOUS
 62
       3
100
AcDbLine
 10
8.37984754
 20
28.99999713
 30
0.0
 11
8.34499491
 21
28.99999713
 31
0.0
  0
LINE
  5
512
100
AcDbEntity
  8
SLD-0_0
  6
CONTINUOUS
 62
       3
100
AcDbLine
 10
8.34499491
 20
28.99999713
 30
0.0
 11
8.31030677
 21
28.99999713
 31
0.0
  0
LINE
  5
513
100
AcDbEntity
  8
SLD-0_0
  6
CONTINUOUS
 62
       3
100
AcDbLine
 10
8.31030677
 20
28.99999713
 30
0.0
 11
8.27582423
 21
28.99999713
 31
0.0
  0
LINE
  5
514
100
AcDbEntity
  8
SLD-0_0
  6
CONTINUOUS
 62
       3
100
AcDbLine
 10
8.27582423
 20
28.99999713
 30
0.0
 11
8.24158892
 21
28.99999713
 31
0.0
  0
LINE
  5
515
100
AcDbEntity
  8
SLD-0_0
  6
CONTINUOUS
 62
       3
100
AcDbLine
 10
8.24158892
 20
28.99999713
 30
0.0
 11
8.20764431
 21
28.99999713
 31
0.0
  0
LINE
  5
516
100
AcDbEntity
  8
SLD-0_0
  6
CONTINUOUS
 62
       3
100
AcDbLine
 10
8.20764431
 20
28.99999713
 30
0.0
 11
8.17403432
 21
28.99999713
 31
0.0
  0
LINE
  5
517
100
AcDbEntity
  8
SLD-0_0
  6
CONTINUOUS
 62
       3
100
AcDbLine
 10
8.17403432
 20
28.99999713
 30
0.0
 11
8.14080285
 21
28.99999713
 31
0.0
  0
LINE
  5
518
100
AcDbEntity
  8
SLD-0_0
  6
CONTINUOUS
 62
       3
100
AcDbLine
 10
8.14080285
 20
28.99999713
 30
0.0
 11
8.10799382
 21
28.99999713
 31
0.0
  0
LINE
  5
519
100
AcDbEntity
  8
SLD-0_0
  6
CONTINUOUS
 62
       3
100
AcDbLine
 10
8.10799382
 20
28.99999713
 30
0.0
 11
8.07565113
 21
28.99999713
 31
0.0
  0
LINE
  5
51A
100
AcDbEntity
  8
SLD-0_0
  6
CONTINUOUS
 62
       3
100
AcDbLine
 10
8.07565113
 20
28.99999713
 30
0.0
 11
8.04381869
 21
28.99999713
 31
0.0
  0
LINE
  5
51B
100
AcDbEntity
  8
SLD-0_0
  6
CONTINUOUS
 62
       3
100
AcDbLine
 10
8.04381869
 20
28.99999713
 30
0.0
 11
8.01254041
 21
28.99999713
 31
0.0
  0
LINE
  5
51C
100
AcDbEntity
  8
SLD-0_0
  6
CONTINUOUS
 62
       3
100
AcDbLine
 10
8.01254041
 20
28.99999713
 30
0.0
 11
7.98186019
 21
28.99999713
 31
0.0
  0
LINE
  5
51D
100
AcDbEntity
  8
SLD-0_0
  6
CONTINUOUS
 62
       3
100
AcDbLine
 10
7.98186019
 20
28.99999713
 30
0.0
 11
7.95182162
 21
28.99999713
 31
0.0
  0
LINE
  5
51E
100
AcDbEntity
  8
SLD-0_0
  6
CONTINUOUS
 62
       3
100
AcDbLine
 10
7.95182162
 20
28.99999713
 30
0.0
 11
7.92246206
 21
28.99999713
 31
0.0
  0
LINE
  5
51F
100
AcDbEntity
  8
SLD-0_0
  6
CONTINUOUS
 62
       3
100
AcDbLine
 10
7.92246206
 20
28.99999713
 30
0.0
 11
7.89381346
 21
28.99999713
 31
0.0
  0
LINE
  5
520
100
AcDbEntity
  8
SLD-0_0
  6
CONTINUOUS
 62
       3
100
AcDbLine
 10
7.89381346
 20
28.99999713
 30
0.0
 11
7.86590761
 21
28.99999713
 31
0.0
  0
LINE
  5
521
100
AcDbEntity
  8
SLD-0_0
  6
CONTINUOUS
 62
       3
100
AcDbLine
 10
7.86590761
 20
28.99999713
 30
0.0
 11
7.83877629
 21
28.99999713
 31
0.0
  0
LINE
  5
522
100
AcDbEntity
  8
SLD-0_0
  6
CONTINUOUS
 62
       3
100
AcDbLine
 10
7.83877629
 20
28.99999713
 30
0.0
 11
7.81245128
 21
28.99999713
 31
0.0
  0
LINE
  5
523
100
AcDbEntity
  8
SLD-0_0
  6
CONTINUOUS
 62
       3
100
AcDbLine
 10
7.81245128
 20
28.99999713
 30
0.0
 11
7.78696435
 21
28.99999713
 31
0.0
  0
LINE
  5
524
100
AcDbEntity
  8
SLD-0_0
  6
CONTINUOUS
 62
       3
100
AcDbLine
 10
7.78696435
 20
28.99999713
 30
0.0
 11
7.76234728
 21
28.99999713
 31
0.0
  0
LINE
  5
525
100
AcDbEntity
  8
SLD-0_0
  6
CONTINUOUS
 62
       3
100
AcDbLine
 10
7.76234728
 20
28.99999713
 30
0.0
 11
7.73863186
 21
28.99999713
 31
0.0
  0
LINE
  5
526
100
AcDbEntity
  8
SLD-0_0
  6
CONTINUOUS
 62
       3
100
AcDbLine
 10
7.73863186
 20
28.99999713
 30
0.0
 11
7.71584986
 21
28.99999713
 31
0.0
  0
LINE
  5
527
100
AcDbEntity
  8
SLD-0_0
  6
CONTINUOUS
 62
       3
100
AcDbLine
 10
7.71584986
 20
28.99999713
 30
0.0
 11
7.69403034
 21
28.99999713
 31
0.0
  0
LINE
  5
528
100
AcDbEntity
  8
SLD-0_0
  6
CONTINUOUS
 62
       3
100
AcDbLine
 10
7.69403034
 20
28.99999713
 30
0.0
 11
7.67319305
 21
28.99999713
 31
0.0
  0
LINE
  5
529
100
AcDbEntity
  8
SLD-0_0
  6
CONTINUOUS
 62
       3
100
AcDbLine
 10
7.67319305
 20
28.99999713
 30
0.0
 11
7.6533557
 21
28.99999713
 31
0.0
  0
LINE
  5
52A
100
AcDbEntity
  8
SLD-0_0
  6
CONTINUOUS
 62
       3
100
AcDbLine
 10
7.6533557
 20
28.99999713
 30
0.0
 11
7.63453599
 21
28.99999713
 31
0.0
  0
LINE
  5
52B
100
AcDbEntity
  8
SLD-0_0
  6
CONTINUOUS
 62
       3
100
AcDbLine
 10
7.63453599
 20
28.99999713
 30
0.0
 11
7.61675166
 21
28.99999713
 31
0.0
  0
LINE
  5
52C
100
AcDbEntity
  8
SLD-0_0
  6
CONTINUOUS
 62
       3
100
AcDbLine
 10
7.61675166
 20
28.99999713
 30
0.0
 11
7.60002042
 21
28.99999713
 31
0.0
  0
LINE
  5
52D
100
AcDbEntity
  8
SLD-0_0
  6
CONTINUOUS
 62
       3
100
AcDbLine
 10
7.60002042
 20
28.99999713
 30
0.0
 11
7.58435997
 21
28.99999713
 31
0.0
  0
LINE
  5
52E
100
AcDbEntity
  8
SLD-0_0
  6
CONTINUOUS
 62
       3
100
AcDbLine
 10
7.58435997
 20
28.99999713
 30
0.0
 11
7.56978805
 21
28.99999713
 31
0.0
  0
LINE
  5
52F
100
AcDbEntity
  8
SLD-0_0
  6
CONTINUOUS
 62
       3
100
AcDbLine
 10
7.56978805
 20
28.99999713
 30
0.0
 11
7.55632237
 21
28.99999713
 31
0.0
  0
LINE
  5
530
100
AcDbEntity
  8
SLD-0_0
  6
CONTINUOUS
 62
       3
100
AcDbLine
 10
7.55632237
 20
28.99999713
 30
0.0
 11
7.54398054
 21
28.99999713
 31
0.0
  0
LINE
  5
531
100
AcDbEntity
  8
SLD-0_0
  6
CONTINUOUS
 62
       3
100
AcDbLine
 10
7.54398054
 20
28.99999713
 30
0.0
 11
7.53277734
 21
28.99999713
 31
0.0
  0
LINE
  5
532
100
AcDbEntity
  8
SLD-0_0
  6
CONTINUOUS
 62
       3
100
AcDbLine
 10
7.53277734
 20
28.99999713
 30
0.0
 11
7.52272445
 21
28.99999713
 31
0.0
  0
LINE
  5
533
100
AcDbEntity
  8
SLD-0_0
  6
CONTINUOUS
 62
       3
100
AcDbLine
 10
7.52272445
 20
28.99999713
 30
0.0
 11
7.51383339
 21
28.99999713
 31
0.0
  0
LINE
  5
534
100
AcDbEntity
  8
SLD-0_0
  6
CONTINUOUS
 62
       3
100
AcDbLine
 10
7.51383339
 20
28.99999713
 30
0.0
 11
7.50611567
 21
28.99999713
 31
0.0
  0
LINE
  5
535
100
AcDbEntity
  8
SLD-0_0
  6
CONTINUOUS
 62
       3
100
AcDbLine
 10
7.50611567
 20
28.99999713
 30
0.0
 11
7.49958281
 21
28.99999713
 31
0.0
  0
LINE
  5
536
100
AcDbEntity
  8
SLD-0_0
  6
CONTINUOUS
 62
       3
100
AcDbLine
 10
7.49958281
 20
28.99999713
 30
0.0
 11
7.49424634
 21
28.99999713
 31
0.0
  0
LINE
  5
537
100
AcDbEntity
  8
SLD-0_0
  6
CONTINUOUS
 62
       3
100
AcDbLine
 10
7.49424634
 20
28.99999713
 30
0.0
 11
7.49011776
 21
28.99999713
 31
0.0
  0
LINE
  5
538
100
AcDbEntity
  8
SLD-0_0
  6
CONTINUOUS
 62
       3
100
AcDbLine
 10
7.49011776
 20
28.99999713
 30
0.0
 11
7.48720859
 21
28.99999713
 31
0.0
  0
LINE
  5
539
100
AcDbEntity
  8
SLD-0_0
  6
CONTINUOUS
 62
       3
100
AcDbLine
 10
7.48553036
 20
28.99999713
 30
0.0
 11
7.48497911
 21
28.99999713
 31
0.0
  0
LINE
  5
53A
100
AcDbEntity
  8
SLD-0_0
  6
CONTINUOUS
 62
       3
100
AcDbLine
 10
8.48498114
 20
-10.00000181
 30
0.0
 11
8.44988178
 21
-10.00000181
 31
0.0
  0
LINE
  5
53B
100
AcDbEntity
  8
SLD-0_0
  6
CONTINUOUS
 62
       3
100
AcDbLine
 10
8.44988178
 20
-10.00000181
 30
0.0
 11
8.41482354
 21
-10.00000181
 31
0.0
  0
LINE
  5
53C
100
AcDbEntity
  8
SLD-0_0
  6
CONTINUOUS
 62
       3
100
AcDbLine
 10
8.41482354
 20
-10.00000181
 30
0.0
 11
8.37984754
 21
-10.00000181
 31
0.0
  0
LINE
  5
53D
100
AcDbEntity
  8
SLD-0_0
  6
CONTINUOUS
 62
       3
100
AcDbLine
 10
8.37984754
 20
-10.00000181
 30
0.0
 11
8.34499491
 21
-10.00000181
 31
0.0
  0
LINE
  5
53E
100
AcDbEntity
  8
SLD-0_0
  6
CONTINUOUS
 62
       3
100
AcDbLine
 10
8.34499491
 20
-10.00000181
 30
0.0
 11
8.31030677
 21
-10.00000181
 31
0.0
  0
LINE
  5
53F
100
AcDbEntity
  8
SLD-0_0
  6
CONTINUOUS
 62
       3
100
AcDbLine
 10
8.31030677
 20
-10.00000181
 30
0.0
 11
8.27582423
 21
-10.00000181
 31
0.0
  0
LINE
  5
540
100
AcDbEntity
  8
SLD-0_0
  6
CONTINUOUS
 62
       3
100
AcDbLine
 10
8.27582423
 20
-10.00000181
 30
0.0
 11
8.24158892
 21
-10.00000181
 31
0.0
  0
LINE
  5
541
100
AcDbEntity
  8
SLD-0_0
  6
CONTINUOUS
 62
       3
100
AcDbLine
 10
8.24158892
 20
-10.00000181
 30
0.0
 11
8.20764431
 21
-10.00000181
 31
0.0
  0
LINE
  5
542
100
AcDbEntity
  8
SLD-0_0
  6
CONTINUOUS
 62
       3
100
AcDbLine
 10
8.20764431
 20
-10.00000181
 30
0.0
 11
8.17403432
 21
-10.00000181
 31
0.0
  0
LINE
  5
543
100
AcDbEntity
  8
SLD-0_0
  6
CONTINUOUS
 62
       3
100
AcDbLine
 10
8.17403432
 20
-10.00000181
 30
0.0
 11
8.14080285
 21
-10.00000181
 31
0.0
  0
LINE
  5
544
100
AcDbEntity
  8
SLD-0_0
  6
CONTINUOUS
 62
       3
100
AcDbLine
 10
8.14080285
 20
-10.00000181
 30
0.0
 11
8.10799382
 21
-10.00000181
 31
0.0
  0
LINE
  5
545
100
AcDbEntity
  8
SLD-0_0
  6
CONTINUOUS
 62
       3
100
AcDbLine
 10
8.10799382
 20
-10.00000181
 30
0.0
 11
8.07565113
 21
-10.00000181
 31
0.0
  0
LINE
  5
546
100
AcDbEntity
  8
SLD-0_0
  6
CONTINUOUS
 62
       3
100
AcDbLine
 10
8.07565113
 20
-10.00000181
 30
0.0
 11
8.04381869
 21
-10.00000181
 31
0.0
  0
LINE
  5
547
100
AcDbEntity
  8
SLD-0_0
  6
CONTINUOUS
 62
       3
100
AcDbLine
 10
8.04381869
 20
-10.00000181
 30
0.0
 11
8.01254041
 21
-10.00000181
 31
0.0
  0
LINE
  5
548
100
AcDbEntity
  8
SLD-0_0
  6
CONTINUOUS
 62
       3
100
AcDbLine
 10
8.01254041
 20
-10.00000181
 30
0.0
 11
7.98186019
 21
-10.00000181
 31
0.0
  0
LINE
  5
549
100
AcDbEntity
  8
SLD-0_0
  6
CONTINUOUS
 62
       3
100
AcDbLine
 10
7.98186019
 20
-10.00000181
 30
0.0
 11
7.95182162
 21
-10.00000181
 31
0.0
  0
LINE
  5
54A
100
AcDbEntity
  8
SLD-0_0
  6
CONTINUOUS
 62
       3
100
AcDbLine
 10
7.95182162
 20
-10.00000181
 30
0.0
 11
7.92246206
 21
-10.00000181
 31
0.0
  0
LINE
  5
54B
100
AcDbEntity
  8
SLD-0_0
  6
CONTINUOUS
 62
       3
100
AcDbLine
 10
7.92246206
 20
-10.00000181
 30
0.0
 11
7.89381346
 21
-10.00000181
 31
0.0
  0
LINE
  5
54C
100
AcDbEntity
  8
SLD-0_0
  6
CONTINUOUS
 62
       3
100
AcDbLine
 10
7.89381346
 20
-10.00000181
 30
0.0
 11
7.86590761
 21
-10.00000181
 31
0.0
  0
LINE
  5
54D
100
AcDbEntity
  8
SLD-0_0
  6
CONTINUOUS
 62
       3
100
AcDbLine
 10
7.86590761
 20
-10.00000181
 30
0.0
 11
7.83877629
 21
-10.00000181
 31
0.0
  0
LINE
  5
54E
100
AcDbEntity
  8
SLD-0_0
  6
CONTINUOUS
 62
       3
100
AcDbLine
 10
7.83877629
 20
-10.00000181
 30
0.0
 11
7.81245128
 21
-10.00000181
 31
0.0
  0
LINE
  5
54F
100
AcDbEntity
  8
SLD-0_0
  6
CONTINUOUS
 62
       3
100
AcDbLine
 10
7.81245128
 20
-10.00000181
 30
0.0
 11
7.78696435
 21
-10.00000181
 31
0.0
  0
LINE
  5
550
100
AcDbEntity
  8
SLD-0_0
  6
CONTINUOUS
 62
       3
100
AcDbLine
 10
7.78696435
 20
-10.00000181
 30
0.0
 11
7.76234728
 21
-10.00000181
 31
0.0
  0
LINE
  5
551
100
AcDbEntity
  8
SLD-0_0
  6
CONTINUOUS
 62
       3
100
AcDbLine
 10
7.76234728
 20
-10.00000181
 30
0.0
 11
7.73863186
 21
-10.00000181
 31
0.0
  0
LINE
  5
552
100
AcDbEntity
  8
SLD-0_0
  6
CONTINUOUS
 62
       3
100
AcDbLine
 10
7.73863186
 20
-10.00000181
 30
0.0
 11
7.71584986
 21
-10.00000181
 31
0.0
  0
LINE
  5
553
100
AcDbEntity
  8
SLD-0_0
  6
CONTINUOUS
 62
       3
100
AcDbLine
 10
7.71584986
 20
-10.00000181
 30
0.0
 11
7.69403034
 21
-10.00000181
 31
0.0
  0
LINE
  5
554
100
AcDbEntity
  8
SLD-0_0
  6
CONTINUOUS
 62
       3
100
AcDbLine
 10
7.69403034
 20
-10.00000181
 30
0.0
 11
7.67319305
 21
-10.00000181
 31
0.0
  0
LINE
  5
555
100
AcDbEntity
  8
SLD-0_0
  6
CONTINUOUS
 62
       3
100
AcDbLine
 10
7.67319305
 20
-10.00000181
 30
0.0
 11
7.6533557
 21
-10.00000181
 31
0.0
  0
LINE
  5
556
100
AcDbEntity
  8
SLD-0_0
  6
CONTINUOUS
 62
       3
100
AcDbLine
 10
7.6533557
 20
-10.00000181
 30
0.0
 11
7.63453599
 21
-10.00000181
 31
0.0
  0
LINE
  5
557
100
AcDbEntity
  8
SLD-0_0
  6
CONTINUOUS
 62
       3
100
AcDbLine
 10
7.63453599
 20
-10.00000181
 30
0.0
 11
7.61675166
 21
-10.00000181
 31
0.0
  0
LINE
  5
558
100
AcDbEntity
  8
SLD-0_0
  6
CONTINUOUS
 62
       3
100
AcDbLine
 10
7.61675166
 20
-10.00000181
 30
0.0
 11
7.60002042
 21
-10.00000181
 31
0.0
  0
LINE
  5
559
100
AcDbEntity
  8
SLD-0_0
  6
CONTINUOUS
 62
       3
100
AcDbLine
 10
7.60002042
 20
-10.00000181
 30
0.0
 11
7.58435997
 21
-10.00000181
 31
0.0
  0
LINE
  5
55A
100
AcDbEntity
  8
SLD-0_0
  6
CONTINUOUS
 62
       3
100
AcDbLine
 10
7.58435997
 20
-10.00000181
 30
0.0
 11
7.56978805
 21
-10.00000181
 31
0.0
  0
LINE
  5
55B
100
AcDbEntity
  8
SLD-0_0
  6
CONTINUOUS
 62
       3
100
AcDbLine
 10
7.56978805
 20
-10.00000181
 30
0.0
 11
7.55632237
 21
-10.00000181
 31
0.0
  0
LINE
  5
55C
100
AcDbEntity
  8
SLD-0_0
  6
CONTINUOUS
 62
       3
100
AcDbLine
 10
7.55632237
 20
-10.00000181
 30
0.0
 11
7.54398054
 21
-10.00000181
 31
0.0
  0
LINE
  5
55D
100
AcDbEntity
  8
SLD-0_0
  6
CONTINUOUS
 62
       3
100
AcDbLine
 10
7.54398054
 20
-10.00000181
 30
0.0
 11
7.53277734
 21
-10.00000181
 31
0.0
  0
LINE
  5
55E
100
AcDbEntity
  8
SLD-0_0
  6
CONTINUOUS
 62
       3
100
AcDbLine
 10
7.53277734
 20
-10.00000181
 30
0.0
 11
7.52272445
 21
-10.00000181
 31
0.0
  0
LINE
  5
55F
100
AcDbEntity
  8
SLD-0_0
  6
CONTINUOUS
 62
       3
100
AcDbLine
 10
7.52272445
 20
-10.00000181
 30
0.0
 11
7.51383339
 21
-10.00000181
 31
0.0
  0
LINE
  5
560
100
AcDbEntity
  8
SLD-0_0
  6
CONTINUOUS
 62
       3
100
AcDbLine
 10
7.51383339
 20
-10.00000181
 30
0.0
 11
7.50611567
 21
-10.00000181
 31
0.0
  0
LINE
  5
561
100
AcDbEntity
  8
SLD-0_0
  6
CONTINUOUS
 62
       3
100
AcDbLine
 10
7.50611567
 20
-10.00000181
 30
0.0
 11
7.49958281
 21
-10.00000181
 31
0.0
  0
LINE
  5
562
100
AcDbEntity
  8
SLD-0_0
  6
CONTINUOUS
 62
       3
100
AcDbLine
 10
7.49958281
 20
-10.00000181
 30
0.0
 11
7.49424634
 21
-10.00000181
 31
0.0
  0
LINE
  5
563
100
AcDbEntity
  8
SLD-0_0
  6
CONTINUOUS
 62
       3
100
AcDbLine
 10
7.49424634
 20
-10.00000181
 30
0.0
 11
7.49011776
 21
-10.00000181
 31
0.0
  0
LINE
  5
564
100
AcDbEntity
  8
SLD-0_0
  6
CONTINUOUS
 62
       3
100
AcDbLine
 10
7.49011776
 20
-10.00000181
 30
0.0
 11
7.48720859
 21
-10.00000181
 31
0.0
  0
LINE
  5
565
100
AcDbEntity
  8
SLD-0_0
  6
CONTINUOUS
 62
       3
100
AcDbLine
 10
7.48553036
 20
-10.00000181
 30
0.0
 11
7.48497911
 21
-10.00000181
 31
0.0
  0
LINE
  5
566
100
AcDbEntity
  8
SLD-0_0
  6
CONTINUOUS
 62
       3
100
AcDbLine
 10
7.53030099
 20
-26.10000147
 30
0.0
 11
7.52745916
 21
-26.09013816
 31
0.0
  0
LINE
  5
567
100
AcDbEntity
  8
SLD-0_0
  6
CONTINUOUS
 62
       3
100
AcDbLine
 10
7.52745916
 20
-26.09013816
 30
0.0
 11
7.52463819
 21
-26.08026863
 31
0.0
  0
LINE
  5
568
100
AcDbEntity
  8
SLD-0_0
  6
CONTINUOUS
 62
       3
100
AcDbLine
 10
7.52463819
 20
-26.08026863
 30
0.0
 11
7.52185894
 21
-26.07038667
 31
0.0
  0
LINE
  5
569
100
AcDbEntity
  8
SLD-0_0
  6
CONTINUOUS
 62
       3
100
AcDbLine
 10
7.52185894
 20
-26.07038667
 30
0.0
 11
7.51914227
 21
-26.06048604
 31
0.0
  0
LINE
  5
56A
100
AcDbEntity
  8
SLD-0_0
  6
CONTINUOUS
 62
       3
100
AcDbLine
 10
7.51914227
 20
-26.06048604
 30
0.0
 11
7.51650905
 21
-26.05056053
 31
0.0
  0
LINE
  5
56B
100
AcDbEntity
  8
SLD-0_0
  6
CONTINUOUS
 62
       3
100
AcDbLine
 10
7.51650905
 20
-26.05056053
 30
0.0
 11
7.51397744
 21
-26.04060494
 31
0.0
  0
LINE
  5
56C
100
AcDbEntity
  8
SLD-0_0
  6
CONTINUOUS
 62
       3
100
AcDbLine
 10
7.51397744
 20
-26.04060494
 30
0.0
 11
7.51155199
 21
-26.03061919
 31
0.0
  0
LINE
  5
56D
100
AcDbEntity
  8
SLD-0_0
  6
CONTINUOUS
 62
       3
100
AcDbLine
 10
7.51155199
 20
-26.03061919
 30
0.0
 11
7.50923288
 21
-26.02060485
 31
0.0
  0
LINE
  5
56E
100
AcDbEntity
  8
SLD-0_0
  6
CONTINUOUS
 62
       3
100
AcDbLine
 10
7.50923288
 20
-26.02060485
 30
0.0
 11
7.5070203
 21
-26.01056348
 31
0.0
  0
LINE
  5
56F
100
AcDbEntity
  8
SLD-0_0
  6
CONTINUOUS
 62
       3
100
AcDbLine
 10
7.5070203
 20
-26.01056348
 30
0.0
 11
7.50491444
 21
-26.00049666
 31
0.0
  0
LINE
  5
570
100
AcDbEntity
  8
SLD-0_0
  6
CONTINUOUS
 62
       3
100
AcDbLine
 10
7.50491444
 20
-26.00049666
 30
0.0
 11
7.50291548
 21
-25.99040595
 31
0.0
  0
LINE
  5
571
100
AcDbEntity
  8
SLD-0_0
  6
CONTINUOUS
 62
       3
100
AcDbLine
 10
7.50291548
 20
-25.99040595
 30
0.0
 11
7.50102362
 21
-25.98029292
 31
0.0
  0
LINE
  5
572
100
AcDbEntity
  8
SLD-0_0
  6
CONTINUOUS
 62
       3
100
AcDbLine
 10
7.50102362
 20
-25.98029292
 30
0.0
 11
7.49923904
 21
-25.97015914
 31
0.0
  0
LINE
  5
573
100
AcDbEntity
  8
SLD-0_0
  6
CONTINUOUS
 62
       3
100
AcDbLine
 10
7.49923904
 20
-25.97015914
 30
0.0
 11
7.49756193
 21
-25.96000618
 31
0.0
  0
LINE
  5
574
100
AcDbEntity
  8
SLD-0_0
  6
CONTINUOUS
 62
       3
100
AcDbLine
 10
7.49756193
 20
-25.96000618
 30
0.0
 11
7.49599248
 21
-25.9498356
 31
0.0
  0
LINE
  5
575
100
AcDbEntity
  8
SLD-0_0
  6
CONTINUOUS
 62
       3
100
AcDbLine
 10
7.49599248
 20
-25.9498356
 30
0.0
 11
7.49453088
 21
-25.93964897
 31
0.0
  0
LINE
  5
576
100
AcDbEntity
  8
SLD-0_0
  6
CONTINUOUS
 62
       3
100
AcDbLine
 10
7.49453088
 20
-25.93964897
 30
0.0
 11
7.49317731
 21
-25.92944785
 31
0.0
  0
LINE
  5
577
100
AcDbEntity
  8
SLD-0_0
  6
CONTINUOUS
 62
       3
100
AcDbLine
 10
7.49317731
 20
-25.92944785
 30
0.0
 11
7.49193196
 21
-25.91923383
 31
0.0
  0
LINE
  5
578
100
AcDbEntity
  8
SLD-0_0
  6
CONTINUOUS
 62
       3
100
AcDbLine
 10
7.49193196
 20
-25.91923383
 30
0.0
 11
7.49079502
 21
-25.90900845
 31
0.0
  0
LINE
  5
579
100
AcDbEntity
  8
SLD-0_0
  6
CONTINUOUS
 62
       3
100
AcDbLine
 10
7.49079502
 20
-25.90900845
 30
0.0
 11
7.48976668
 21
-25.8987733
 31
0.0
  0
LINE
  5
57A
100
AcDbEntity
  8
SLD-0_0
  6
CONTINUOUS
 62
       3
100
AcDbLine
 10
7.48976668
 20
-25.8987733
 30
0.0
 11
7.48884713
 21
-25.88852993
 31
0.0
  0
LINE
  5
57B
100
AcDbEntity
  8
SLD-0_0
  6
CONTINUOUS
 62
       3
100
AcDbLine
 10
7.48884713
 20
-25.88852993
 30
0.0
 11
7.48803656
 21
-25.87827992
 31
0.0
  0
LINE
  5
57C
100
AcDbEntity
  8
SLD-0_0
  6
CONTINUOUS
 62
       3
100
AcDbLine
 10
7.48803656
 20
-25.87827992
 30
0.0
 11
7.48733514
 21
-25.86802484
 31
0.0
  0
LINE
  5
57D
100
AcDbEntity
  8
SLD-0_0
  6
CONTINUOUS
 62
       3
100
AcDbLine
 10
7.48733514
 20
-25.86802484
 30
0.0
 11
7.48674308
 21
-25.85776624
 31
0.0
  0
LINE
  5
57E
100
AcDbEntity
  8
SLD-0_0
  6
CONTINUOUS
 62
       3
100
AcDbLine
 10
7.48674308
 20
-25.85776624
 30
0.0
 11
7.48626046
 21
-25.8475057
 31
0.0
  0
LINE
  5
57F
100
AcDbEntity
  8
SLD-0_0
  6
CONTINUOUS
 62
       3
100
AcDbLine
 10
7.48626046
 20
-25.8475057
 30
0.0
 11
7.48588008
 21
-25.83724428
 31
0.0
  0
LINE
  5
580
100
AcDbEntity
  8
SLD-0_0
  6
CONTINUOUS
 62
       3
100
AcDbLine
 10
7.48588008
 20
-25.83724428
 30
0.0
 11
7.48558244
 21
-25.82698222
 31
0.0
  0
LINE
  5
581
100
AcDbEntity
  8
SLD-0_0
  6
CONTINUOUS
 62
       3
100
AcDbLine
 10
7.48558244
 20
-25.82698222
 30
0.0
 11
7.48534686
 21
-25.81671968
 31
0.0
  0
LINE
  5
582
100
AcDbEntity
  8
SLD-0_0
  6
CONTINUOUS
 62
       3
100
AcDbLine
 10
7.48534686
 20
-25.81671968
 30
0.0
 11
7.48515264
 21
-25.80645682
 31
0.0
  0
LINE
  5
583
100
AcDbEntity
  8
SLD-0_0
  6
CONTINUOUS
 62
       3
100
AcDbLine
 10
7.48515264
 20
-25.80645682
 30
0.0
 11
7.48497911
 21
-25.7961938
 31
0.0
  0
LINE
  5
584
100
AcDbEntity
  8
SLD-0_0
  6
CONTINUOUS
 62
       3
100
AcDbLine
 10
7.48497911
 20
-21.20380866
 30
0.0
 11
7.48510063
 21
-21.19150017
 31
0.0
  0
LINE
  5
585
100
AcDbEntity
  8
SLD-0_0
  6
CONTINUOUS
 62
       3
100
AcDbLine
 10
7.48510063
 20
-21.19150017
 30
0.0
 11
7.48529314
 21
-21.17919823
 31
0.0
  0
LINE
  5
586
100
AcDbEntity
  8
SLD-0_0
  6
CONTINUOUS
 62
       3
100
AcDbLine
 10
7.48529314
 20
-21.17919823
 30
0.0
 11
7.4856276
 21
-21.16690941
 31
0.0
  0
LINE
  5
587
100
AcDbEntity
  8
SLD-0_0
  6
CONTINUOUS
 62
       3
100
AcDbLine
 10
7.4856276
 20
-21.16690941
 30
0.0
 11
7.48616407
 21
-21.15463925
 31
0.0
  0
LINE
  5
588
100
AcDbEntity
  8
SLD-0_0
  6
CONTINUOUS
 62
       3
100
AcDbLine
 10
7.48616407
 20
-21.15463925
 30
0.0
 11
7.48690903
 21
-21.14238834
 31
0.0
  0
LINE
  5
589
100
AcDbEntity
  8
SLD-0_0
  6
CONTINUOUS
 62
       3
100
AcDbLine
 10
7.48690903
 20
-21.14238834
 30
0.0
 11
7.48785254
 21
-21.13015578
 31
0.0
  0
LINE
  5
58A
100
AcDbEntity
  8
SLD-0_0
  6
CONTINUOUS
 62
       3
100
AcDbLine
 10
7.48785254
 20
-21.13015578
 30
0.0
 11
7.48898468
 21
-21.11794063
 31
0.0
  0
LINE
  5
58B
100
AcDbEntity
  8
SLD-0_0
  6
CONTINUOUS
 62
       3
100
AcDbLine
 10
7.48898468
 20
-21.11794063
 30
0.0
 11
7.49029552
 21
-21.10574199
 31
0.0
  0
LINE
  5
58C
100
AcDbEntity
  8
SLD-0_0
  6
CONTINUOUS
 62
       3
100
AcDbLine
 10
7.49029552
 20
-21.10574199
 30
0.0
 11
7.49177514
 21
-21.09355894
 31
0.0
  0
LINE
  5
58D
100
AcDbEntity
  8
SLD-0_0
  6
CONTINUOUS
 62
       3
100
AcDbLine
 10
7.49177514
 20
-21.09355894
 30
0.0
 11
7.49341359
 21
-21.08139056
 31
0.0
  0
LINE
  5
58E
100
AcDbEntity
  8
SLD-0_0
  6
CONTINUOUS
 62
       3
100
AcDbLine
 10
7.49341359
 20
-21.08139056
 30
0.0
 11
7.49520097
 21
-21.06923594
 31
0.0
  0
LINE
  5
58F
100
AcDbEntity
  8
SLD-0_0
  6
CONTINUOUS
 62
       3
100
AcDbLine
 10
7.49520097
 20
-21.06923594
 30
0.0
 11
7.49712734
 21
-21.05709415
 31
0.0
  0
LINE
  5
590
100
AcDbEntity
  8
SLD-0_0
  6
CONTINUOUS
 62
       3
100
AcDbLine
 10
7.49712734
 20
-21.05709415
 30
0.0
 11
7.49918277
 21
-21.04496428
 31
0.0
  0
LINE
  5
591
100
AcDbEntity
  8
SLD-0_0
  6
CONTINUOUS
 62
       3
100
AcDbLine
 10
7.49918277
 20
-21.04496428
 30
0.0
 11
7.50135733
 21
-21.03284542
 31
0.0
  0
LINE
  5
592
100
AcDbEntity
  8
SLD-0_0
  6
CONTINUOUS
 62
       3
100
AcDbLine
 10
7.50135733
 20
-21.03284542
 30
0.0
 11
7.5036411
 21
-21.02073664
 31
0.0
  0
LINE
  5
593
100
AcDbEntity
  8
SLD-0_0
  6
CONTINUOUS
 62
       3
100
AcDbLine
 10
7.5036411
 20
-21.02073664
 30
0.0
 11
7.50602414
 21
-21.00863704
 31
0.0
  0
LINE
  5
594
100
AcDbEntity
  8
SLD-0_0
  6
CONTINUOUS
 62
       3
100
AcDbLine
 10
7.50602414
 20
-21.00863704
 30
0.0
 11
7.50849654
 21
-20.99654568
 31
0.0
  0
LINE
  5
595
100
AcDbEntity
  8
SLD-0_0
  6
CONTINUOUS
 62
       3
100
AcDbLine
 10
7.50849654
 20
-20.99654568
 30
0.0
 11
7.51104836
 21
-20.98446167
 31
0.0
  0
LINE
  5
596
100
AcDbEntity
  8
SLD-0_0
  6
CONTINUOUS
 62
       3
100
AcDbLine
 10
7.51104836
 20
-20.98446167
 30
0.0
 11
7.51366967
 21
-20.97238407
 31
0.0
  0
LINE
  5
597
100
AcDbEntity
  8
SLD-0_0
  6
CONTINUOUS
 62
       3
100
AcDbLine
 10
7.51366967
 20
-20.97238407
 30
0.0
 11
7.51635055
 21
-20.96031197
 31
0.0
  0
LINE
  5
598
100
AcDbEntity
  8
SLD-0_0
  6
CONTINUOUS
 62
       3
100
AcDbLine
 10
7.51635055
 20
-20.96031197
 30
0.0
 11
7.51908108
 21
-20.94824446
 31
0.0
  0
LINE
  5
599
100
AcDbEntity
  8
SLD-0_0
  6
CONTINUOUS
 62
       3
100
AcDbLine
 10
7.51908108
 20
-20.94824446
 30
0.0
 11
7.52185131
 21
-20.93618061
 31
0.0
  0
LINE
  5
59A
100
AcDbEntity
  8
SLD-0_0
  6
CONTINUOUS
 62
       3
100
AcDbLine
 10
7.52185131
 20
-20.93618061
 30
0.0
 11
7.52465132
 21
-20.92411952
 31
0.0
  0
LINE
  5
59B
100
AcDbEntity
  8
SLD-0_0
  6
CONTINUOUS
 62
       3
100
AcDbLine
 10
7.52465132
 20
-20.92411952
 30
0.0
 11
7.52747119
 21
-20.91206026
 31
0.0
  0
LINE
  5
59C
100
AcDbEntity
  8
SLD-0_0
  6
CONTINUOUS
 62
       3
100
AcDbLine
 10
7.52747119
 20
-20.91206026
 30
0.0
 11
7.53030099
 21
-20.90000192
 31
0.0
  0
LINE
  5
59D
100
AcDbEntity
  8
SLD-0_0
  6
CONTINUOUS
 62
       3
100
AcDbLine
 10
7.53030099
 20
-13.10000027
 30
0.0
 11
7.52745907
 21
-13.09013702
 31
0.0
  0
LINE
  5
59E
100
AcDbEntity
  8
SLD-0_0
  6
CONTINUOUS
 62
       3
100
AcDbLine
 10
7.52745907
 20
-13.09013702
 30
0.0
 11
7.524638
 21
-13.08026754
 31
0.0
  0
LINE
  5
59F
100
AcDbEntity
  8
SLD-0_0
  6
CONTINUOUS
 62
       3
100
AcDbLine
 10
7.524638
 20
-13.08026754
 30
0.0
 11
7.52185867
 21
-13.07038563
 31
0.0
  0
LINE
  5
5A0
100
AcDbEntity
  8
SLD-0_0
  6
CONTINUOUS
 62
       3
100
AcDbLine
 10
7.52185867
 20
-13.07038563
 30
0.0
 11
7.51914193
 21
-13.06048506
 31
0.0
  0
LINE
  5
5A1
100
AcDbEntity
  8
SLD-0_0
  6
CONTINUOUS
 62
       3
100
AcDbLine
 10
7.51914193
 20
-13.06048506
 30
0.0
 11
7.51650864
 21
-13.0505596
 31
0.0
  0
LINE
  5
5A2
100
AcDbEntity
  8
SLD-0_0
  6
CONTINUOUS
 62
       3
100
AcDbLine
 10
7.51650864
 20
-13.0505596
 30
0.0
 11
7.51397699
 21
-13.04060405
 31
0.0
  0
LINE
  5
5A3
100
AcDbEntity
  8
SLD-0_0
  6
CONTINUOUS
 62
       3
100
AcDbLine
 10
7.51397699
 20
-13.04060405
 30
0.0
 11
7.5115515
 21
-13.03061833
 31
0.0
  0
LINE
  5
5A4
100
AcDbEntity
  8
SLD-0_0
  6
CONTINUOUS
 62
       3
100
AcDbLine
 10
7.5115515
 20
-13.03061833
 30
0.0
 11
7.50923237
 21
-13.02060403
 31
0.0
  0
LINE
  5
5A5
100
AcDbEntity
  8
SLD-0_0
  6
CONTINUOUS
 62
       3
100
AcDbLine
 10
7.50923237
 20
-13.02060403
 30
0.0
 11
7.50701978
 21
-13.01056269
 31
0.0
  0
LINE
  5
5A6
100
AcDbEntity
  8
SLD-0_0
  6
CONTINUOUS
 62
       3
100
AcDbLine
 10
7.50701978
 20
-13.01056269
 30
0.0
 11
7.50491392
 21
-13.00049591
 31
0.0
  0
LINE
  5
5A7
100
AcDbEntity
  8
SLD-0_0
  6
CONTINUOUS
 62
       3
100
AcDbLine
 10
7.50491392
 20
-13.00049591
 30
0.0
 11
7.50291497
 21
-12.99040523
 31
0.0
  0
LINE
  5
5A8
100
AcDbEntity
  8
SLD-0_0
  6
CONTINUOUS
 62
       3
100
AcDbLine
 10
7.50291497
 20
-12.99040523
 30
0.0
 11
7.50102312
 21
-12.98029223
 31
0.0
  0
LINE
  5
5A9
100
AcDbEntity
  8
SLD-0_0
  6
CONTINUOUS
 62
       3
100
AcDbLine
 10
7.50102312
 20
-12.98029223
 30
0.0
 11
7.49923857
 21
-12.97015847
 31
0.0
  0
LINE
  5
5AA
100
AcDbEntity
  8
SLD-0_0
  6
CONTINUOUS
 62
       3
100
AcDbLine
 10
7.49923857
 20
-12.97015847
 30
0.0
 11
7.49756149
 21
-12.96000553
 31
0.0
  0
LINE
  5
5AB
100
AcDbEntity
  8
SLD-0_0
  6
CONTINUOUS
 62
       3
100
AcDbLine
 10
7.49756149
 20
-12.96000553
 30
0.0
 11
7.49599207
 21
-12.94983497
 31
0.0
  0
LINE
  5
5AC
100
AcDbEntity
  8
SLD-0_0
  6
CONTINUOUS
 62
       3
100
AcDbLine
 10
7.49599207
 20
-12.94983497
 30
0.0
 11
7.4945305
 21
-12.93964836
 31
0.0
  0
LINE
  5
5AD
100
AcDbEntity
  8
SLD-0_0
  6
CONTINUOUS
 62
       3
100
AcDbLine
 10
7.4945305
 20
-12.93964836
 30
0.0
 11
7.49317697
 21
-12.92944727
 31
0.0
  0
LINE
  5
5AE
100
AcDbEntity
  8
SLD-0_0
  6
CONTINUOUS
 62
       3
100
AcDbLine
 10
7.49317697
 20
-12.92944727
 30
0.0
 11
7.49193166
 21
-12.91923326
 31
0.0
  0
LINE
  5
5AF
100
AcDbEntity
  8
SLD-0_0
  6
CONTINUOUS
 62
       3
100
AcDbLine
 10
7.49193166
 20
-12.91923326
 30
0.0
 11
7.49079477
 21
-12.9090079
 31
0.0
  0
LINE
  5
5B0
100
AcDbEntity
  8
SLD-0_0
  6
CONTINUOUS
 62
       3
100
AcDbLine
 10
7.49079477
 20
-12.9090079
 30
0.0
 11
7.48976647
 21
-12.89877277
 31
0.0
  0
LINE
  5
5B1
100
AcDbEntity
  8
SLD-0_0
  6
CONTINUOUS
 62
       3
100
AcDbLine
 10
7.48976647
 20
-12.89877277
 30
0.0
 11
7.48884696
 21
-12.88852943
 31
0.0
  0
LINE
  5
5B2
100
AcDbEntity
  8
SLD-0_0
  6
CONTINUOUS
 62
       3
100
AcDbLine
 10
7.48884696
 20
-12.88852943
 30
0.0
 11
7.48803642
 21
-12.87827944
 31
0.0
  0
LINE
  5
5B3
100
AcDbEntity
  8
SLD-0_0
  6
CONTINUOUS
 62
       3
100
AcDbLine
 10
7.48803642
 20
-12.87827944
 30
0.0
 11
7.48733505
 21
-12.86802437
 31
0.0
  0
LINE
  5
5B4
100
AcDbEntity
  8
SLD-0_0
  6
CONTINUOUS
 62
       3
100
AcDbLine
 10
7.48733505
 20
-12.86802437
 30
0.0
 11
7.48674301
 21
-12.8577658
 31
0.0
  0
LINE
  5
5B5
100
AcDbEntity
  8
SLD-0_0
  6
CONTINUOUS
 62
       3
100
AcDbLine
 10
7.48674301
 20
-12.8577658
 30
0.0
 11
7.48626042
 21
-12.84750529
 31
0.0
  0
LINE
  5
5B6
100
AcDbEntity
  8
SLD-0_0
  6
CONTINUOUS
 62
       3
100
AcDbLine
 10
7.48626042
 20
-12.84750529
 30
0.0
 11
7.48588006
 21
-12.83724389
 31
0.0
  0
LINE
  5
5B7
100
AcDbEntity
  8
SLD-0_0
  6
CONTINUOUS
 62
       3
100
AcDbLine
 10
7.48588006
 20
-12.83724389
 30
0.0
 11
7.48558243
 21
-12.82698186
 31
0.0
  0
LINE
  5
5B8
100
AcDbEntity
  8
SLD-0_0
  6
CONTINUOUS
 62
       3
100
AcDbLine
 10
7.48558243
 20
-12.82698186
 30
0.0
 11
7.48534685
 21
-12.81671935
 31
0.0
  0
LINE
  5
5B9
100
AcDbEntity
  8
SLD-0_0
  6
CONTINUOUS
 62
       3
100
AcDbLine
 10
7.48534685
 20
-12.81671935
 30
0.0
 11
7.48515264
 21
-12.80645652
 31
0.0
  0
LINE
  5
5BA
100
AcDbEntity
  8
SLD-0_0
  6
CONTINUOUS
 62
       3
100
AcDbLine
 10
7.48515264
 20
-12.80645652
 30
0.0
 11
7.48497911
 21
-12.79619353
 31
0.0
  0
LINE
  5
5BB
100
AcDbEntity
  8
SLD-0_0
  6
CONTINUOUS
 62
       3
100
AcDbLine
 10
7.48497911
 20
30.79619055
 30
0.0
 11
7.48510063
 21
30.80849897
 31
0.0
  0
LINE
  5
5BC
100
AcDbEntity
  8
SLD-0_0
  6
CONTINUOUS
 62
       3
100
AcDbLine
 10
7.48510063
 20
30.80849897
 30
0.0
 11
7.48529313
 21
30.82080083
 31
0.0
  0
LINE
  5
5BD
100
AcDbEntity
  8
SLD-0_0
  6
CONTINUOUS
 62
       3
100
AcDbLine
 10
7.48529313
 20
30.82080083
 30
0.0
 11
7.48562759
 21
30.83308958
 31
0.0
  0
LINE
  5
5BE
100
AcDbEntity
  8
SLD-0_0
  6
CONTINUOUS
 62
       3
100
AcDbLine
 10
7.48562759
 20
30.83308958
 30
0.0
 11
7.48616406
 21
30.84535967
 31
0.0
  0
LINE
  5
5BF
100
AcDbEntity
  8
SLD-0_0
  6
CONTINUOUS
 62
       3
100
AcDbLine
 10
7.48616406
 20
30.84535967
 30
0.0
 11
7.48690902
 21
30.8576105
 31
0.0
  0
LINE
  5
5C0
100
AcDbEntity
  8
SLD-0_0
  6
CONTINUOUS
 62
       3
100
AcDbLine
 10
7.48690902
 20
30.8576105
 30
0.0
 11
7.48785252
 21
30.86984299
 31
0.0
  0
LINE
  5
5C1
100
AcDbEntity
  8
SLD-0_0
  6
CONTINUOUS
 62
       3
100
AcDbLine
 10
7.48785252
 20
30.86984299
 30
0.0
 11
7.48898466
 21
30.88205807
 31
0.0
  0
LINE
  5
5C2
100
AcDbEntity
  8
SLD-0_0
  6
CONTINUOUS
 62
       3
100
AcDbLine
 10
7.48898466
 20
30.88205807
 30
0.0
 11
7.4902955
 21
30.89425663
 31
0.0
  0
LINE
  5
5C3
100
AcDbEntity
  8
SLD-0_0
  6
CONTINUOUS
 62
       3
100
AcDbLine
 10
7.4902955
 20
30.89425663
 30
0.0
 11
7.49177511
 21
30.90643961
 31
0.0
  0
LINE
  5
5C4
100
AcDbEntity
  8
SLD-0_0
  6
CONTINUOUS
 62
       3
100
AcDbLine
 10
7.49177511
 20
30.90643961
 30
0.0
 11
7.49341357
 21
30.91860791
 31
0.0
  0
LINE
  5
5C5
100
AcDbEntity
  8
SLD-0_0
  6
CONTINUOUS
 62
       3
100
AcDbLine
 10
7.49341357
 20
30.91860791
 30
0.0
 11
7.49520095
 21
30.93076246
 31
0.0
  0
LINE
  5
5C6
100
AcDbEntity
  8
SLD-0_0
  6
CONTINUOUS
 62
       3
100
AcDbLine
 10
7.49520095
 20
30.93076246
 30
0.0
 11
7.49712732
 21
30.94290417
 31
0.0
  0
LINE
  5
5C7
100
AcDbEntity
  8
SLD-0_0
  6
CONTINUOUS
 62
       3
100
AcDbLine
 10
7.49712732
 20
30.94290417
 30
0.0
 11
7.49918274
 21
30.95503397
 31
0.0
  0
LINE
  5
5C8
100
AcDbEntity
  8
SLD-0_0
  6
CONTINUOUS
 62
       3
100
AcDbLine
 10
7.49918274
 20
30.95503397
 30
0.0
 11
7.50135731
 21
30.96715275
 31
0.0
  0
LINE
  5
5C9
100
AcDbEntity
  8
SLD-0_0
  6
CONTINUOUS
 62
       3
100
AcDbLine
 10
7.50135731
 20
30.96715275
 30
0.0
 11
7.50364108
 21
30.97926146
 31
0.0
  0
LINE
  5
5CA
100
AcDbEntity
  8
SLD-0_0
  6
CONTINUOUS
 62
       3
100
AcDbLine
 10
7.50364108
 20
30.97926146
 30
0.0
 11
7.50602412
 21
30.99136099
 31
0.0
  0
LINE
  5
5CB
100
AcDbEntity
  8
SLD-0_0
  6
CONTINUOUS
 62
       3
100
AcDbLine
 10
7.50602412
 20
30.99136099
 30
0.0
 11
7.50849652
 21
31.00345226
 31
0.0
  0
LINE
  5
5CC
100
AcDbEntity
  8
SLD-0_0
  6
CONTINUOUS
 62
       3
100
AcDbLine
 10
7.50849652
 20
31.00345226
 30
0.0
 11
7.51104834
 21
31.01553621
 31
0.0
  0
LINE
  5
5CD
100
AcDbEntity
  8
SLD-0_0
  6
CONTINUOUS
 62
       3
100
AcDbLine
 10
7.51104834
 20
31.01553621
 30
0.0
 11
7.51366966
 21
31.02761373
 31
0.0
  0
LINE
  5
5CE
100
AcDbEntity
  8
SLD-0_0
  6
CONTINUOUS
 62
       3
100
AcDbLine
 10
7.51366966
 20
31.02761373
 30
0.0
 11
7.51635054
 21
31.03968575
 31
0.0
  0
LINE
  5
5CF
100
AcDbEntity
  8
SLD-0_0
  6
CONTINUOUS
 62
       3
100
AcDbLine
 10
7.51635054
 20
31.03968575
 30
0.0
 11
7.51908107
 21
31.05175319
 31
0.0
  0
LINE
  5
5D0
100
AcDbEntity
  8
SLD-0_0
  6
CONTINUOUS
 62
       3
100
AcDbLine
 10
7.51908107
 20
31.05175319
 30
0.0
 11
7.5218513
 21
31.06381696
 31
0.0
  0
LINE
  5
5D1
100
AcDbEntity
  8
SLD-0_0
  6
CONTINUOUS
 62
       3
100
AcDbLine
 10
7.5218513
 20
31.06381696
 30
0.0
 11
7.52465132
 21
31.07587798
 31
0.0
  0
LINE
  5
5D2
100
AcDbEntity
  8
SLD-0_0
  6
CONTINUOUS
 62
       3
100
AcDbLine
 10
7.52465132
 20
31.07587798
 30
0.0
 11
7.52747119
 21
31.08793716
 31
0.0
  0
LINE
  5
5D3
100
AcDbEntity
  8
SLD-0_0
  6
CONTINUOUS
 62
       3
100
AcDbLine
 10
7.52747119
 20
31.08793716
 30
0.0
 11
7.53030099
 21
31.09999543
 31
0.0
  0
LINE
  5
5D4
100
AcDbEntity
  8
SLD-0_0
  6
CONTINUOUS
 62
       3
100
AcDbLine
 10
7.48497911
 20
-24.00000038
 30
0.0
 11
7.4862351
 21
-24.00000038
 31
0.0
  0
LINE
  5
5D5
100
AcDbEntity
  8
SLD-0_0
  6
CONTINUOUS
 62
       3
100
AcDbLine
 10
7.48790482
 20
-24.00000038
 30
0.0
 11
7.49040201
 21
-24.00000038
 31
0.0
  0
LINE
  5
5D6
100
AcDbEntity
  8
SLD-0_0
  6
CONTINUOUS
 62
       3
100
AcDbLine
 10
7.49040201
 20
-24.00000038
 30
0.0
 11
7.49411282
 21
-24.00000038
 31
0.0
  0
LINE
  5
5D7
100
AcDbEntity
  8
SLD-0_0
  6
CONTINUOUS
 62
       3
100
AcDbLine
 10
7.49411282
 20
-24.00000038
 30
0.0
 11
7.49915798
 21
-24.00000038
 31
0.0
  0
LINE
  5
5D8
100
AcDbEntity
  8
SLD-0_0
  6
CONTINUOUS
 62
       3
100
AcDbLine
 10
7.49915798
 20
-24.00000038
 30
0.0
 11
7.50551
 21
-24.00000038
 31
0.0
  0
LINE
  5
5D9
100
AcDbEntity
  8
SLD-0_0
  6
CONTINUOUS
 62
       3
100
AcDbLine
 10
7.50551
 20
-24.00000038
 30
0.0
 11
7.5131398
 21
-24.00000038
 31
0.0
  0
LINE
  5
5DA
100
AcDbEntity
  8
SLD-0_0
  6
CONTINUOUS
 62
       3
100
AcDbLine
 10
7.5131398
 20
-24.00000038
 30
0.0
 11
7.5220183
 21
-24.00000038
 31
0.0
  0
LINE
  5
5DB
100
AcDbEntity
  8
SLD-0_0
  6
CONTINUOUS
 62
       3
100
AcDbLine
 10
7.5220183
 20
-24.00000038
 30
0.0
 11
7.53211641
 21
-24.00000038
 31
0.0
  0
LINE
  5
5DC
100
AcDbEntity
  8
SLD-0_0
  6
CONTINUOUS
 62
       3
100
AcDbLine
 10
7.53211641
 20
-24.00000038
 30
0.0
 11
7.54340505
 21
-24.00000038
 31
0.0
  0
LINE
  5
5DD
100
AcDbEntity
  8
SLD-0_0
  6
CONTINUOUS
 62
       3
100
AcDbLine
 10
7.54340505
 20
-24.00000038
 30
0.0
 11
7.55585513
 21
-24.00000038
 31
0.0
  0
LINE
  5
5DE
100
AcDbEntity
  8
SLD-0_0
  6
CONTINUOUS
 62
       3
100
AcDbLine
 10
7.55585513
 20
-24.00000038
 30
0.0
 11
7.56943756
 21
-24.00000038
 31
0.0
  0
LINE
  5
5DF
100
AcDbEntity
  8
SLD-0_0
  6
CONTINUOUS
 62
       3
100
AcDbLine
 10
7.56943756
 20
-24.00000038
 30
0.0
 11
7.58412326
 21
-24.00000038
 31
0.0
  0
LINE
  5
5E0
100
AcDbEntity
  8
SLD-0_0
  6
CONTINUOUS
 62
       3
100
AcDbLine
 10
7.58412326
 20
-24.00000038
 30
0.0
 11
7.59988362
 21
-24.00000038
 31
0.0
  0
LINE
  5
5E1
100
AcDbEntity
  8
SLD-0_0
  6
CONTINUOUS
 62
       3
100
AcDbLine
 10
7.59988362
 20
-24.00000038
 30
0.0
 11
7.61669599
 21
-24.00000038
 31
0.0
  0
LINE
  5
5E2
100
AcDbEntity
  8
SLD-0_0
  6
CONTINUOUS
 62
       3
100
AcDbLine
 10
7.61669599
 20
-24.00000038
 30
0.0
 11
7.63454178
 21
-24.00000038
 31
0.0
  0
LINE
  5
5E3
100
AcDbEntity
  8
SLD-0_0
  6
CONTINUOUS
 62
       3
100
AcDbLine
 10
7.63454178
 20
-24.00000038
 30
0.0
 11
7.65340247
 21
-24.00000038
 31
0.0
  0
LINE
  5
5E4
100
AcDbEntity
  8
SLD-0_0
  6
CONTINUOUS
 62
       3
100
AcDbLine
 10
7.65340247
 20
-24.00000038
 30
0.0
 11
7.67325957
 21
-24.00000038
 31
0.0
  0
LINE
  5
5E5
100
AcDbEntity
  8
SLD-0_0
  6
CONTINUOUS
 62
       3
100
AcDbLine
 10
7.67325957
 20
-24.00000038
 30
0.0
 11
7.69409457
 21
-24.00000038
 31
0.0
  0
LINE
  5
5E6
100
AcDbEntity
  8
SLD-0_0
  6
CONTINUOUS
 62
       3
100
AcDbLine
 10
7.69409457
 20
-24.00000038
 30
0.0
 11
7.71588894
 21
-24.00000038
 31
0.0
  0
LINE
  5
5E7
100
AcDbEntity
  8
SLD-0_0
  6
CONTINUOUS
 62
       3
100
AcDbLine
 10
7.71588894
 20
-24.00000038
 30
0.0
 11
7.73862418
 21
-24.00000038
 31
0.0
  0
LINE
  5
5E8
100
AcDbEntity
  8
SLD-0_0
  6
CONTINUOUS
 62
       3
100
AcDbLine
 10
7.73862418
 20
-24.00000038
 30
0.0
 11
7.76228179
 21
-24.00000038
 31
0.0
  0
LINE
  5
5E9
100
AcDbEntity
  8
SLD-0_0
  6
CONTINUOUS
 62
       3
100
AcDbLine
 10
7.76228179
 20
-24.00000038
 30
0.0
 11
7.78684324
 21
-24.00000038
 31
0.0
  0
LINE
  5
5EA
100
AcDbEntity
  8
SLD-0_0
  6
CONTINUOUS
 62
       3
100
AcDbLine
 10
7.78684324
 20
-24.00000038
 30
0.0
 11
7.81228867
 21
-24.00000038
 31
0.0
  0
LINE
  5
5EB
100
AcDbEntity
  8
SLD-0_0
  6
CONTINUOUS
 62
       3
100
AcDbLine
 10
7.81228867
 20
-24.00000038
 30
0.0
 11
7.83858738
 21
-24.00000038
 31
0.0
  0
LINE
  5
5EC
100
AcDbEntity
  8
SLD-0_0
  6
CONTINUOUS
 62
       3
100
AcDbLine
 10
7.83858738
 20
-24.00000038
 30
0.0
 11
7.86570362
 21
-24.00000038
 31
0.0
  0
LINE
  5
5ED
100
AcDbEntity
  8
SLD-0_0
  6
CONTINUOUS
 62
       3
100
AcDbLine
 10
7.86570362
 20
-24.00000038
 30
0.0
 11
7.8936016
 21
-24.00000038
 31
0.0
  0
LINE
  5
5EE
100
AcDbEntity
  8
SLD-0_0
  6
CONTINUOUS
 62
       3
100
AcDbLine
 10
7.8936016
 20
-24.00000038
 30
0.0
 11
7.92224552
 21
-24.00000038
 31
0.0
  0
LINE
  5
5EF
100
AcDbEntity
  8
SLD-0_0
  6
CONTINUOUS
 62
       3
100
AcDbLine
 10
7.92224552
 20
-24.00000038
 30
0.0
 11
7.9515996
 21
-24.00000038
 31
0.0
  0
LINE
  5
5F0
100
AcDbEntity
  8
SLD-0_0
  6
CONTINUOUS
 62
       3
100
AcDbLine
 10
7.9515996
 20
-24.00000038
 30
0.0
 11
7.98162803
 21
-24.00000038
 31
0.0
  0
LINE
  5
5F1
100
AcDbEntity
  8
SLD-0_0
  6
CONTINUOUS
 62
       3
100
AcDbLine
 10
7.98162803
 20
-24.00000038
 30
0.0
 11
8.01229503
 21
-24.00000038
 31
0.0
  0
LINE
  5
5F2
100
AcDbEntity
  8
SLD-0_0
  6
CONTINUOUS
 62
       3
100
AcDbLine
 10
8.01229503
 20
-24.00000038
 30
0.0
 11
8.0435648
 21
-24.00000038
 31
0.0
  0
LINE
  5
5F3
100
AcDbEntity
  8
SLD-0_0
  6
CONTINUOUS
 62
       3
100
AcDbLine
 10
8.0435648
 20
-24.00000038
 30
0.0
 11
8.07540155
 21
-24.00000038
 31
0.0
  0
LINE
  5
5F4
100
AcDbEntity
  8
SLD-0_0
  6
CONTINUOUS
 62
       3
100
AcDbLine
 10
8.07540155
 20
-24.00000038
 30
0.0
 11
8.10776671
 21
-24.00000038
 31
0.0
  0
LINE
  5
5F5
100
AcDbEntity
  8
SLD-0_0
  6
CONTINUOUS
 62
       3
100
AcDbLine
 10
8.10776671
 20
-24.00000038
 30
0.0
 11
8.14061345
 21
-24.00000038
 31
0.0
  0
LINE
  5
5F6
100
AcDbEntity
  8
SLD-0_0
  6
CONTINUOUS
 62
       3
100
AcDbLine
 10
8.14061345
 20
-24.00000038
 30
0.0
 11
8.1738934
 21
-24.00000038
 31
0.0
  0
LINE
  5
5F7
100
AcDbEntity
  8
SLD-0_0
  6
CONTINUOUS
 62
       3
100
AcDbLine
 10
8.1738934
 20
-24.00000038
 30
0.0
 11
8.20755819
 21
-24.00000038
 31
0.0
  0
LINE
  5
5F8
100
AcDbEntity
  8
SLD-0_0
  6
CONTINUOUS
 62
       3
100
AcDbLine
 10
8.20755819
 20
-24.00000038
 30
0.0
 11
8.24155946
 21
-24.00000038
 31
0.0
  0
LINE
  5
5F9
100
AcDbEntity
  8
SLD-0_0
  6
CONTINUOUS
 62
       3
100
AcDbLine
 10
8.24155946
 20
-24.00000038
 30
0.0
 11
8.27584884
 21
-24.00000038
 31
0.0
  0
LINE
  5
5FA
100
AcDbEntity
  8
SLD-0_0
  6
CONTINUOUS
 62
       3
100
AcDbLine
 10
8.27584884
 20
-24.00000038
 30
0.0
 11
8.31037795
 21
-24.00000038
 31
0.0
  0
LINE
  5
5FB
100
AcDbEntity
  8
SLD-0_0
  6
CONTINUOUS
 62
       3
100
AcDbLine
 10
8.31037795
 20
-24.00000038
 30
0.0
 11
8.34509845
 21
-24.00000038
 31
0.0
  0
LINE
  5
5FC
100
AcDbEntity
  8
SLD-0_0
  6
CONTINUOUS
 62
       3
100
AcDbLine
 10
8.34509845
 20
-24.00000038
 30
0.0
 11
8.37996195
 21
-24.00000038
 31
0.0
  0
LINE
  5
5FD
100
AcDbEntity
  8
SLD-0_0
  6
CONTINUOUS
 62
       3
100
AcDbLine
 10
8.37996195
 20
-24.00000038
 30
0.0
 11
8.41492061
 21
-24.00000038
 31
0.0
  0
LINE
  5
5FE
100
AcDbEntity
  8
SLD-0_0
  6
CONTINUOUS
 62
       3
100
AcDbLine
 10
8.41492061
 20
-24.00000038
 30
0.0
 11
8.44993662
 21
-24.00000038
 31
0.0
  0
LINE
  5
5FF
100
AcDbEntity
  8
SLD-0_0
  6
CONTINUOUS
 62
       3
100
AcDbLine
 10
8.44993662
 20
-24.00000038
 30
0.0
 11
8.48498114
 21
-24.00000038
 31
0.0
  0
ARC
  5
600
100
AcDbEntity
  8
SLD-0_0
  6
CONTINUOUS
 62
       3
100
AcDbCircle
 10
8.48497804
 20
-12.85000114
 30
0.0
 40
1.0
100
AcDbArc
 50
194.49644355
 51
270.0
  0
ARC
  5
601
100
AcDbEntity
  8
SLD-0_0
  6
CONTINUOUS
 62
       3
100
AcDbCircle
 10
8.48497804
 20
26.14999886
 30
0.0
 40
1.0
100
AcDbArc
 50
194.49644355
 51
270.0
  0
ARC
  5
602
100
AcDbEntity
  8
SLD-0_0
  6
CONTINUOUS
 62
       3
100
AcDbCircle
 10
9.18497804
 20
26.14999886
 30
0.0
 40
1.0
100
AcDbArc
 50
270.0
 51
360.0
  0
ARC
  5
603
100
AcDbEntity
  8
SLD-0_0
  6
CONTINUOUS
 62
       3
100
AcDbCircle
 10
12.78497804
 20
-10.50000114
 30
0.0
 40
6.50000119
100
AcDbArc
 50
154.79071441
 51
162.54239684
  0
ARC
  5
604
100
AcDbEntity
  8
SLD-0_0
  6
CONTINUOUS
 62
       3
100
AcDbCircle
 10
7.89928394
 20
13.19999853
 30
0.0
 40
1.10000048
100
AcDbArc
 50
205.20928559
 51
269.99994323
  0
ARC
  5
605
100
AcDbEntity
  8
SLD-0_0
  6
CONTINUOUS
 62
       3
100
AcDbCircle
 10
12.78497804
 20
-10.50000114
 30
0.0
 40
6.20060481
100
AcDbArc
 50
175.37480159
 51
184.62519841
  0
ARC
  5
606
100
AcDbEntity
  8
SLD-0_0
  6
CONTINUOUS
 62
       3
100
AcDbCircle
 10
7.89928349
 20
-12.80000168
 30
0.0
 40
1.09999982
100
AcDbArc
 50
205.20928559
 51
269.9999427
  0
ARC
  5
607
100
AcDbEntity
  8
SLD-0_0
  6
CONTINUOUS
 62
       3
100
AcDbCircle
 10
9.18497804
 20
-12.85000114
 30
0.0
 40
1.0
100
AcDbArc
 50
270.0
 51
360.0
  0
ARC
  5
608
100
AcDbEntity
  8
SLD-0_0
  6
CONTINUOUS
 62
       3
100
AcDbCircle
 10
9.18497804
 20
-8.15000114
 30
0.0
 40
1.0
100
AcDbArc
 50
0.0
 51
90.0
  0
ARC
  5
609
100
AcDbEntity
  8
SLD-0_0
  6
CONTINUOUS
 62
       3
100
AcDbCircle
 10
8.48497804
 20
-21.15000114
 30
0.0
 40
1.0
100
AcDbArc
 50
90.0
 51
165.50524541
  0
ARC
  5
60A
100
AcDbEntity
  8
SLD-0_0
  6
CONTINUOUS
 62
       3
100
AcDbCircle
 10
7.89928413
 20
0.19999862
 30
0.0
 40
1.10000061
100
AcDbArc
 50
205.20928559
 51
269.99994323
  0
ARC
  5
60B
100
AcDbEntity
  8
SLD-0_0
  6
CONTINUOUS
 62
       3
100
AcDbCircle
 10
12.78497804
 20
2.49999886
 30
0.0
 40
6.50000135
100
AcDbArc
 50
154.79071441
 51
162.54239684
  0
ARC
  5
60C
100
AcDbEntity
  8
SLD-0_0
  6
CONTINUOUS
 62
       3
100
AcDbCircle
 10
12.78497804
 20
2.49999886
 30
0.0
 40
6.48074206
100
AcDbArc
 50
162.48884149
 51
175.57512545
  0
ARC
  5
60D
100
AcDbEntity
  8
SLD-0_0
  6
CONTINUOUS
 62
       3
100
AcDbCircle
 10
12.78497804
 20
15.49999886
 30
0.0
 40
6.20060481
100
AcDbArc
 50
175.37480159
 51
184.62519841
  0
ARC
  5
60E
100
AcDbEntity
  8
SLD-0_0
  6
CONTINUOUS
 62
       3
100
AcDbCircle
 10
8.48497804
 20
30.84999886
 30
0.0
 40
1.0
100
AcDbArc
 50
90.0
 51
165.50524541
  0
ARC
  5
60F
100
AcDbEntity
  8
SLD-0_0
  6
CONTINUOUS
 62
       3
100
AcDbCircle
 10
7.89928279
 20
17.79999973
 30
0.0
 40
1.09999933
100
AcDbArc
 50
90.00005677
 51
154.79071441
  0
ARC
  5
610
100
AcDbEntity
  8
SLD-0_0
  6
CONTINUOUS
 62
       3
100
AcDbCircle
 10
7.89928269
 20
4.79999978
 30
0.0
 40
1.0999992
100
AcDbArc
 50
90.00005677
 51
154.79071449
  0
ARC
  5
611
100
AcDbEntity
  8
SLD-0_0
  6
CONTINUOUS
 62
       3
100
AcDbCircle
 10
12.78497804
 20
-10.50000114
 30
0.0
 40
6.48074189
100
AcDbArc
 50
162.48884149
 51
175.57514423
  0
ARC
  5
612
100
AcDbEntity
  8
SLD-0_0
  6
CONTINUOUS
 62
       3
100
AcDbCircle
 10
8.48497804
 20
-25.85000114
 30
0.0
 40
1.0
100
AcDbArc
 50
194.49644355
 51
270.0
  0
ARC
  5
613
100
AcDbEntity
  8
SLD-0_0
  6
CONTINUOUS
 62
       3
100
AcDbCircle
 10
12.78497804
 20
2.49999886
 30
0.0
 40
6.20060481
100
AcDbArc
 50
175.37480159
 51
184.62519841
  0
ARC
  5
614
100
AcDbEntity
  8
SLD-0_0
  6
CONTINUOUS
 62
       3
100
AcDbCircle
 10
7.8992844
 20
-8.20000103
 30
0.0
 40
1.10000093
100
AcDbArc
 50
90.00005677
 51
154.79071426
  0
ARC
  5
615
100
AcDbEntity
  8
SLD-0_0
  6
CONTINUOUS
 62
       3
100
AcDbCircle
 10
12.78497804
 20
2.49999886
 30
0.0
 40
6.4807407
100
AcDbArc
 50
184.42486253
 51
197.51115283
  0
ARC
  5
616
100
AcDbEntity
  8
SLD-0_0
  6
CONTINUOUS
 62
       3
100
AcDbCircle
 10
12.78497804
 20
15.49999886
 30
0.0
 40
6.48074208
100
AcDbArc
 50
162.48884155
 51
175.57512307
  0
ARC
  5
617
100
AcDbEntity
  8
SLD-0_0
  6
CONTINUOUS
 62
       3
100
AcDbCircle
 10
12.78497804
 20
2.49999886
 30
0.0
 40
6.50000117
100
AcDbArc
 50
197.4576031
 51
205.20928559
  0
ARC
  5
618
100
AcDbEntity
  8
SLD-0_0
  6
CONTINUOUS
 62
       3
100
AcDbCircle
 10
12.78497804
 20
15.49999886
 30
0.0
 40
6.50000137
100
AcDbArc
 50
154.79071442
 51
162.54239689
  0
ARC
  5
619
100
AcDbEntity
  8
SLD-0_0
  6
CONTINUOUS
 62
       3
100
AcDbCircle
 10
12.78497804
 20
-10.50000114
 30
0.0
 40
6.4807407
100
AcDbArc
 50
184.42486253
 51
197.51115504
  0
ARC
  5
61A
100
AcDbEntity
  8
SLD-0_0
  6
CONTINUOUS
 62
       3
100
AcDbCircle
 10
9.18497804
 20
-21.15000114
 30
0.0
 40
1.0
100
AcDbArc
 50
0.0
 51
90.0
  0
ARC
  5
61B
100
AcDbEntity
  8
SLD-0_0
  6
CONTINUOUS
 62
       3
100
AcDbCircle
 10
12.78497804
 20
15.49999886
 30
0.0
 40
6.4807407
100
AcDbArc
 50
184.42486253
 51
197.51115051
  0
ARC
  5
61C
100
AcDbEntity
  8
SLD-0_0
  6
CONTINUOUS
 62
       3
100
AcDbCircle
 10
8.48497804
 20
-8.15000114
 30
0.0
 40
1.0
100
AcDbArc
 50
90.0
 51
165.50524541
  0
ARC
  5
61D
100
AcDbEntity
  8
SLD-0_0
  6
CONTINUOUS
 62
       3
100
AcDbCircle
 10
9.18497804
 20
30.84999886
 30
0.0
 40
1.0
100
AcDbArc
 50
0.0
 51
90.0
  0
ARC
  5
61E
100
AcDbEntity
  8
SLD-0_0
  6
CONTINUOUS
 62
       3
100
AcDbCircle
 10
12.78497804
 20
15.49999886
 30
0.0
 40
6.50000126
100
AcDbArc
 50
197.45760314
 51
205.20928559
  0
ARC
  5
61F
100
AcDbEntity
  8
SLD-0_0
  6
CONTINUOUS
 62
       3
100
AcDbCircle
 10
12.78497804
 20
-10.50000114
 30
0.0
 40
6.50000109
100
AcDbArc
 50
197.45760315
 51
205.20928558
  0
ARC
  5
620
100
AcDbEntity
  8
SLD-0_0
  6
CONTINUOUS
 62
       3
100
AcDbCircle
 10
9.18497804
 20
-25.85000114
 30
0.0
 40
1.0
100
AcDbArc
 50
270.0
 51
360.0
  0
TEXT
  5
621
100
AcDbEntity
  8
0
 62
       3
100
AcDbText
 10
100.06918419
 20
-86.23263187
 30
0.0
 40
5.0
  1
000
 41
0.8
 72
       5
 11
112.06918419
 21
-86.23263187
 31
0.0
100
AcDbText
  0
ENDSEC
  0
SECTION
  2
OBJECTS
  0
DICTIONARY
  5
19
100
AcDbDictionary
  3
ACAD_GROUP
350
1A
  3
ACAD_MLINESTYLE
350
1B
  0
DICTIONARY
  5
1A
102
{ACAD_REACTORS
330
19
102
}
100
AcDbDictionary
  0
DICTIONARY
  5
1B
102
{ACAD_REACTORS
330
19
102
}
100
AcDbDictionary
  3
STANDARD
350
1C
  0
MLINESTYLE
  5
1C
102
{ACAD_REACTORS
330
1B
102
}
100
AcDbMlineStyle
  2
STANDARD
 70
       0
  3

 62
       0
 51
90.0
 52
90.0
 71
       2
 49
0.5
 62
     256
  6
BYLAYER
 49
-0.5
 62
     256
  6
BYLAYER
  0
ENDSEC
  0
EOF
