  0
SECTION
  2
HEADER
  9
$ACADVER
  1
AC1009
  9
$DWGCODEPAGE
  3
ansi_932
  9
$INSBASE
 10
0.0
 20
0.0
 30
0.0
  9
$EXTMIN
 10
-604.8275508101149
 20
-989.3729288895247
 30
0.0
  9
$EXTMAX
 10
592.1235193323924
 20
984.163442396607
 30
0.0
  9
$LIMMIN
 10
-297.0
 20
-420.5
  9
$LIMMAX
 10
297.0
 20
420.5
  9
$ORTHOMODE
 70
     0
  9
$REGENMODE
 70
     1
  9
$FILLMODE
 70
     1
  9
$QTEXTMODE
 70
     0
  9
$MIRRTEXT
 70
     1
  9
$DRAGMODE
 70
     2
  9
$LTSCALE
 40
0.25
  9
$OSMODE
 70
    37
  9
$ATTMODE
 70
     1
  9
$TEXTSIZE
 40
0.2
  9
$TRACEWID
 40
0.05
  9
$TEXTSTYLE
  7
STANDARD
  9
$CLAYER
  8
0
  9
$CELTYPE
  6
BYLAYER
  9
$CECOLOR
 62
   256
  9
$DIMSCALE
 40
1.0
  9
$DIMASZ
 40
1.800315856933594
  9
$DIMEXO
 40
1.0
  9
$DIMDLI
 40
10.0
  9
$DIMRND
 40
0.0
  9
$DIMDLE
 40
0.0
  9
$DIMEXE
 40
1.0
  9
$DIMTP
 40
0.0
  9
$DIMTM
 40
0.0
  9
$DIMTXT
 40
3.5
  9
$DIMCEN
 40
0.0
  9
$DIMTSZ
 40
0.0
  9
$DIMTOL
 70
     0
  9
$DIMLIM
 70
     0
  9
$DIMTIH
 70
     0
  9
$DIMTOH
 70
     0
  9
$DIMSE1
 70
     0
  9
$DIMSE2
 70
     0
  9
$DIMTAD
 70
     1
  9
$DIMZIN
 70
     8
  9
$DIMBLK
  1

  9
$DIMASO
 70
     1
  9
$DIMSHO
 70
     1
  9
$DIMPOST
  1

  9
$DIMAPOST
  1

  9
$DIMALT
 70
     0
  9
$DIMALTD
 70
     2
  9
$DIMALTF
 40
0.0393700787401575
  9
$DIMLFAC
 40
1.0
  9
$DIMTOFL
 70
     0
  9
$DIMTVP
 40
0.0
  9
$DIMTIX
 70
     0
  9
$DIMSOXD
 70
     0
  9
$DIMSAH
 70
     0
  9
$DIMBLK1
  1

  9
$DIMBLK2
  1

  9
$DIMSTYLE
  2
STANDARD
  9
$DIMCLRD
 70
     0
  9
$DIMCLRE
 70
     0
  9
$DIMCLRT
 70
     0
  9
$DIMTFAC
 40
0.65
  9
$DIMGAP
 40
0.09
  9
$LUNITS
 70
     2
  9
$LUPREC
 70
     4
  9
$SKETCHINC
 40
0.1
  9
$FILLETRAD
 40
0.5
  9
$AUNITS
 70
     0
  9
$AUPREC
 70
     0
  9
$MENU
  1
.
  9
$ELEVATION
 40
0.0
  9
$PELEVATION
 40
0.0
  9
$THICKNESS
 40
0.0
  9
$LIMCHECK
 70
     0
  9
$CHAMFERA
 40
0.0
  9
$CHAMFERB
 40
0.0
  9
$SKPOLY
 70
     0
  9
$TDCREATE
 40
2460123.478917523
  9
$TDUPDATE
 40
2460123.478917708
  9
$TDINDWG
 40
0.0000000116
  9
$TDUSRTIMER
 40
0.0000000116
  9
$USRTIMER
 70
     1
  9
$ANGBASE
 50
0.0
  9
$ANGDIR
 70
     0
  9
$PDMODE
 70
     0
  9
$PDSIZE
 40
1.0
  9
$PLINEWID
 40
0.0
  9
$COORDS
 70
     1
  9
$SPLFRAME
 70
     0
  9
$SPLINETYPE
 70
     6
  9
$SPLINESEGS
 70
     8
  9
$ATTDIA
 70
     0
  9
$ATTREQ
 70
     1
  9
$HANDLING
 70
     1
  9
$HANDSEED
  5
715
  9
$SURFTAB1
 70
     6
  9
$SURFTAB2
 70
     6
  9
$SURFTYPE
 70
     6
  9
$SURFU
 70
     6
  9
$SURFV
 70
     6
  9
$UCSNAME
  2

  9
$UCSORG
 10
0.0
 20
0.0
 30
0.0
  9
$UCSXDIR
 10
1.0
 20
0.0
 30
0.0
  9
$UCSYDIR
 10
0.0
 20
1.0
 30
0.0
  9
$PUCSNAME
  2

  9
$PUCSORG
 10
0.0
 20
0.0
 30
0.0
  9
$PUCSXDIR
 10
1.0
 20
0.0
 30
0.0
  9
$PUCSYDIR
 10
0.0
 20
1.0
 30
0.0
  9
$USERI1
 70
     0
  9
$USERI2
 70
     0
  9
$USERI3
 70
     0
  9
$USERI4
 70
     0
  9
$USERI5
 70
     0
  9
$USERR1
 40
0.0
  9
$USERR2
 40
0.0
  9
$USERR3
 40
0.0
  9
$USERR4
 40
0.0
  9
$USERR5
 40
0.0
  9
$WORLDVIEW
 70
     1
  9
$SHADEDGE
 70
     3
  9
$SHADEDIF
 70
    70
  9
$TILEMODE
 70
     1
  9
$MAXACTVP
 70
    64
  9
$PLIMCHECK
 70
     0
  9
$PEXTMIN
 10
1.000000000000000E+20
 20
1.000000000000000E+20
 30
1.000000000000000E+20
  9
$PEXTMAX
 10
-1.000000000000000E+20
 20
-1.000000000000000E+20
 30
-1.000000000000000E+20
  9
$PLIMMIN
 10
0.0
 20
0.0
  9
$PLIMMAX
 10
12.0
 20
9.0
  9
$UNITMODE
 70
     0
  9
$VISRETAIN
 70
     0
  9
$PLINEGEN
 70
     1
  9
$PSLTSCALE
 70
     0
  0
ENDSEC
  0
SECTION
  2
TABLES
  0
TABLE
  2
VPORT
 70
     1
  0
VPORT
  2
*ACTIVE
 70
     0
 10
0.0
 20
0.0
 11
1.0
 21
1.0
 12
-6.352015738861102
 22
-4.780898439590089
 13
0.0
 23
0.0
 14
0.5
 24
0.5
 15
0.5
 25
0.5
 16
0.0
 26
0.0
 36
1.0
 17
0.0
 27
0.0
 37
0.0
 40
666.5630096432969
 41
0.6105399759075046
 42
50.0
 43
0.0
 44
0.0
 50
0.0
 51
0.0
 71
     0
 72
  1000
 73
     1
 74
     1
 75
     0
 76
     0
 77
     0
 78
     0
  0
ENDTAB
  0
TABLE
  2
LTYPE
 70
    67
  0
LTYPE
  2
CONTINUOUS
 70
     0
  3
Solid line
 72
    65
 73
     0
 40
0.0
  0
LTYPE
  2
HIDDENX2
 70
     0
  3
Hidden (2x) ____ ____ ____ ____ ____ ____ ____ 
 72
    65
 73
     2
 40
19.05
 49
12.7
 49
-6.35
  0
LTYPE
  2
HIDDEN
 70
     0
  3
Hidden __ __ __ __ __ __ __ __ __ __ __ __ __ __
 72
    65
 73
     2
 40
9.524999999999999
 49
6.35
 49
-3.175
  0
LTYPE
  2
HIDDEN2
 70
     0
  3
Hidden (.5x) _ _ _ _ _ _ _ _ _ _ _ _ _ _ _ _ _ 
 72
    65
 73
     2
 40
4.762499999999999
 49
3.175
 49
-1.5875
  0
LTYPE
  2
DASHED
 70
     0
  3
Dashed __ __ __ __ __ __ __ __ __ __ __ __ __ _
 72
    65
 73
     2
 40
19.05
 49
12.7
 49
-6.35
  0
LTYPE
  2
DASHED2
 70
     0
  3
Dashed (.5x) _ _ _ _ _ _ _ _ _ _ _ _ _ _ _ _ _ 
 72
    65
 73
     2
 40
9.524999999999999
 49
6.35
 49
-3.175
  0
LTYPE
  2
DASHEDX2
 70
     0
  3
Dashed (2x) ____  ____  ____  ____  ____  ___
 72
    65
 73
     2
 40
38.09999999999999
 49
25.4
 49
-12.7
  0
LTYPE
  2
DOTX2
 70
     0
  3
Dot (2x) .  .  .  .  .  .  .  .  .  .  .  .  .  .
 72
    65
 73
     2
 40
12.7
 49
0.0
 49
-12.7
  0
LTYPE
  2
DOT
 70
     0
  3
Dot . . . . . . . . . . . . . . . . . . . . . . . .
 72
    65
 73
     2
 40
6.35
 49
0.0
 49
-6.35
  0
LTYPE
  2
DOT2
 70
     0
  3
Dot (.5x) ........................................
 72
    65
 73
     2
 40
3.175
 49
0.0
 49
-3.175
  0
LTYPE
  2
CENTERX2
 70
     0
  3
Center (2x) ________  __  ________  __  _____
 72
    65
 73
     4
 40
101.6
 49
63.5
 49
-12.7
 49
12.7
 49
-12.7
  0
LTYPE
  2
CENTER
 70
     0
  3
Center ____ _ ____ _ ____ _ ____ _ ____ _ ____
 72
    65
 73
     4
 40
50.8
 49
31.75
 49
-6.35
 49
6.35
 49
-6.35
  0
LTYPE
  2
CENTER2
 70
     0
  3
Center (.5x) ___ _ ___ _ ___ _ ___ _ ___ _ ___
 72
    65
 73
     4
 40
28.575
 49
19.05
 49
-3.175
 49
3.175
 49
-3.175
  0
LTYPE
  2
DASHDOTX2
 70
     0
  3
Dash dot (2x) ____  .  ____  .  ____  .  ___
 72
    65
 73
     4
 40
50.8
 49
25.4
 49
-12.7
 49
0.0
 49
-12.7
  0
LTYPE
  2
DASHDOT
 70
     0
  3
Dash dot __ . __ . __ . __ . __ . __ . __ . __
 72
    65
 73
     4
 40
25.4
 49
12.7
 49
-6.35
 49
0.0
 49
-6.35
  0
LTYPE
  2
DASHDOT2
 70
     0
  3
Dash dot (.5x) _._._._._._._._._._._._._._._.
 72
    65
 73
     4
 40
12.7
 49
6.35
 49
-3.175
 49
0.0
 49
-3.175
  0
LTYPE
  2
DIVIDEX2
 70
     0
  3
Divide (2x) ________  .  .  ________  .  .  _
 72
    65
 73
     6
 40
63.5
 49
25.4
 49
-12.7
 49
0.0
 49
-12.7
 49
0.0
 49
-12.7
  0
LTYPE
  2
DIVIDE
 70
     0
  3
Divide ____ . . ____ . . ____ . . ____ . . ____
 72
    65
 73
     6
 40
31.75
 49
12.7
 49
-6.35
 49
0.0
 49
-6.35
 49
0.0
 49
-6.35
  0
LTYPE
  2
DIVIDE2
 70
     0
  3
Divide (.5x) __..__..__..__..__..__..__..__.._
 72
    65
 73
     6
 40
15.875
 49
6.35
 49
-3.175
 49
0.0
 49
-3.175
 49
0.0
 49
-3.175
  0
LTYPE
  2
BORDERX2
 70
     0
  3
Border (2x) ____  ____  .  ____  ____  .  ___
 72
    65
 73
     6
 40
88.89999999999999
 49
25.4
 49
-12.7
 49
25.4
 49
-12.7
 49
0.0
 49
-12.7
  0
LTYPE
  2
BORDER
 70
     0
  3
Border __ __ . __ __ . __ __ . __ __ . __ __ .
 72
    65
 73
     6
 40
44.45
 49
12.7
 49
-6.35
 49
12.7
 49
-6.35
 49
0.0
 49
-6.35
  0
LTYPE
  2
BORDER2
 70
     0
  3
Border (.5x) __.__.__.__.__.__.__.__.__.__.__.
 72
    65
 73
     6
 40
22.225
 49
6.35
 49
-3.175
 49
6.35
 49
-3.175
 49
0.0
 49
-3.175
  0
LTYPE
  2
PHANTOMX2
 70
     0
  3
Phantom (2x) ____________    ____    ____   _
 72
    65
 73
     6
 40
127.0
 49
63.5
 49
-12.7
 49
12.7
 49
-12.7
 49
12.7
 49
-12.7
  0
LTYPE
  2
PHANTOM
 70
     0
  3
Phantom ______  __  __  ______  __  __  ______ 
 72
    65
 73
     6
 40
63.5
 49
31.75
 49
-6.35
 49
6.35
 49
-6.35
 49
6.35
 49
-6.35
  0
LTYPE
  2
PHANTOM2
 70
     0
  3
Phantom (.5x) ___ _ _ ___ _ _ ___ _ _ ___ _ _
 72
    65
 73
     6
 40
31.75
 49
15.875
 49
-3.175
 49
3.175
 49
-3.175
 49
3.175
 49
-3.175
  0
LTYPE
  2
ACAD_ISO06W100
 70
     0
  3
ISO long-dash triple-dot ____ ... ____ ... ____
 72
    65
 73
     8
 40
36.0
 49
24.0
 49
-3.0
 49
0.0
 49
-3.0
 49
0.0
 49
-3.0
 49
0.0
 49
-3.0
  0
LTYPE
  2
ACAD_ISO13W100
 70
     0
  3
ISO double-dash double-dot __ __ . . __ __ . . _
 72
    65
 73
     8
 40
36.0
 49
12.0
 49
-3.0
 49
12.0
 49
-3.0
 49
0.0
 49
-3.0
 49
0.0
 49
-3.0
  0
LTYPE
  2
ACAD_ISO14W100
 70
     0
  3
ISO dash triple-dot __ . . . __ . . . __ . . . _
 72
    65
 73
     8
 40
24.0
 49
12.0
 49
-3.0
 49
0.0
 49
-3.0
 49
0.0
 49
-3.0
 49
0.0
 49
-3.0
  0
LTYPE
  2
ACAD_ISO02W100
 70
     0
  3
ISO dash __ __ __ __ __ __ __ __ __ __ __ __ __
 72
    65
 73
     2
 40
15.0
 49
12.0
 49
-3.0
  0
LTYPE
  2
ACAD_ISO03W100
 70
     0
  3
ISO dash space __    __    __    __    __    __
 72
    65
 73
     2
 40
30.0
 49
12.0
 49
-18.0
  0
LTYPE
  2
ACAD_ISO04W100
 70
     0
  3
ISO long-dash dot ____ . ____ . ____ . ____ . _
 72
    65
 73
     4
 40
30.0
 49
24.0
 49
-3.0
 49
0.0
 49
-3.0
  0
LTYPE
  2
ACAD_ISO05W100
 70
     0
  3
ISO long-dash double-dot ____ .. ____ .. ____ . 
 72
    65
 73
     6
 40
33.0
 49
24.0
 49
-3.0
 49
0.0
 49
-3.0
 49
0.0
 49
-3.0
  0
LTYPE
  2
ACAD_ISO07W100
 70
     0
  3
ISO dot . . . . . . . . . . . . . . . . . . . . 
 72
    65
 73
     2
 40
3.0
 49
0.0
 49
-3.0
  0
LTYPE
  2
ACAD_ISO08W100
 70
     0
  3
ISO long-dash short-dash ____ __ ____ __ ____ _
 72
    65
 73
     4
 40
36.0
 49
24.0
 49
-3.0
 49
6.0
 49
-3.0
  0
LTYPE
  2
ACAD_ISO09W100
 70
     0
  3
ISO long-dash double-short-dash ____ __ __ ____
 72
    65
 73
     6
 40
45.0
 49
24.0
 49
-3.0
 49
6.0
 49
-3.0
 49
6.0
 49
-3.0
  0
LTYPE
  2
ACAD_ISO10W100
 70
     0
  3
ISO dash dot __ . __ . __ . __ . __ . __ . __ . 
 72
    65
 73
     4
 40
18.0
 49
12.0
 49
-3.0
 49
0.0
 49
-3.0
  0
LTYPE
  2
ACAD_ISO11W100
 70
     0
  3
ISO double-dash dot __ __ . __ __ . __ __ . __ _
 72
    65
 73
     6
 40
33.0
 49
12.0
 49
-3.0
 49
12.0
 49
-3.0
 49
0.0
 49
-3.0
  0
LTYPE
  2
ACAD_ISO12W100
 70
     0
  3
ISO dash double-dot __ . . __ . . __ . . __ . . 
 72
    65
 73
     6
 40
21.0
 49
12.0
 49
-3.0
 49
0.0
 49
-3.0
 49
0.0
 49
-3.0
  0
LTYPE
  2
ACAD_ISO15W100
 70
     0
  3
ISO double-dash triple-dot __ __ . . . __ __ . .
 72
    65
 73
    10
 40
39.0
 49
12.0
 49
-3.0
 49
12.0
 49
-3.0
 49
0.0
 49
-3.0
 49
0.0
 49
-3.0
 49
0.0
 49
-3.0
  0
LTYPE
  2
JIS_02_0_7
 70
     0
  3
HIDDEN0.75 _ _ _ _ _ _ _ _ _ _ _ _ _ _ _ _ _ 
 72
    65
 73
     2
 40
1.35
 49
0.75
 49
-0.6
  0
LTYPE
  2
JIS_02_1_0
 70
     0
  3
HIDDEN01 _ _ _ _ _ _ _ _ _ _ _ _ _ _ _ _ _ 
 72
    65
 73
     2
 40
2.0
 49
1.0
 49
-1.0
  0
LTYPE
  2
JIS_02_1_2
 70
     0
  3
HIDDEN01.25  _ _ _ _ _ _ _ _ _ _ _ _ _ _ _ _ _ 
 72
    65
 73
     2
 40
2.5
 49
1.25
 49
-1.25
  0
LTYPE
  2
JIS_02_2_0
 70
     0
  3
HIDDEN02 __ __ __ __ __ __ __ __ __ __ __ 
 72
    65
 73
     2
 40
3.0
 49
2.0
 49
-1.0
  0
LTYPE
  2
JIS_02_4_0
 70
     0
  3
HIDDEN04 ____ ____ ____ ____ ____ ____ ____ 
 72
    65
 73
     2
 40
5.5
 49
4.0
 49
-1.5
  0
LTYPE
  2
JIS_08_11
 70
     0
  3
1SASEN11 ___ _ ___ _ ___ _ ___ _ ___ _ ___
 72
    65
 73
     4
 40
12.8
 49
11.0
 49
-0.6
 49
0.6
 49
-0.6
  0
LTYPE
  2
JIS_08_15
 70
     0
  3
1SASEN15 ____ _ ____ _ ____ _ ____ _ ____ 
 72
    65
 73
     4
 40
17.25
 49
15.0
 49
-0.75
 49
0.75
 49
-0.75
  0
LTYPE
  2
JIS_08_25
 70
     0
  3
1SASEN25 ________  __  ________  __  _____
 72
    65
 73
     4
 40
28.0
 49
25.0
 49
-1.125
 49
0.75
 49
-1.125
  0
LTYPE
  2
JIS_08_37
 70
     0
  3
1SASEN37 ________  __  ________  __  _____
 72
    65
 73
     4
 40
40.5
 49
37.5
 49
-1.125
 49
0.75
 49
-1.125
  0
LTYPE
  2
JIS_08_50
 70
     0
  3
1SASEN50 _______________  __  ____________
 72
    65
 73
     4
 40
53.0
 49
50.0
 49
-1.125
 49
0.75
 49
-1.125
  0
LTYPE
  2
JIS_09_08
 70
     0
  3
2SASEN8 __ _ _ __ _ _ __ _ _ __ _ _ __ _ _ 
 72
    65
 73
     6
 40
10.75
 49
8.0
 49
-0.55
 49
0.55
 49
-0.55
 49
0.55
 49
-0.55
  0
LTYPE
  2
JIS_09_15
 70
     0
  3
2SASEN15 ___ _ _ ___ _ _ ___ _ _ ___ _ _ ___ 
 72
    65
 73
     6
 40
18.9
 49
15.0
 49
-0.9
 49
0.6
 49
-0.9
 49
0.6
 49
-0.9
  0
LTYPE
  2
JIS_09_29
 70
     0
  3
2SASEN29 ______　__  __  ______　__  __  ___
 72
    65
 73
     6
 40
34.0
 49
29.0
 49
-1.2
 49
0.7
 49
-1.2
 49
0.7
 49
-1.2
  0
LTYPE
  2
JIS_09_50
 70
     0
  3
2SASEN50 ____________　__  __  _____________
 72
    65
 73
     6
 40
55.0
 49
50.0
 49
-1.2
 49
0.7
 49
-1.2
 49
0.7
 49
-1.2
  0
LTYPE
  2
SXF_破線
 70
     0
  3
02 dashed -- -- -- -- -- --
 72
    65
 73
     2
 40
7.5
 49
6.0
 49
-1.5
  0
LTYPE
  2
SXF_跳び破線
 70
     0
  3
03 dashed_spaced --  --  --  --
 72
    65
 73
     2
 40
12.0
 49
6.0
 49
-6.0
  0
LTYPE
  2
SXF_一点長鎖線
 70
     0
  3
04 long_dashed_dotted ---- . ---- . ----
 72
    65
 73
     4
 40
15.25
 49
12.0
 49
-1.5
 49
0.25
 49
-1.5
  0
LTYPE
  2
SXF_二点長鎖線
 70
     0
  3
05 long_dashed_double-dotted ---- . . ---- 
 72
    65
 73
     6
 40
17.0
 49
12.0
 49
-1.5
 49
0.25
 49
-1.5
 49
0.25
 49
-1.5
  0
LTYPE
  2
SXF_三点長鎖線
 70
     0
  3
06 long_dashed_triplicate-dotted ---- ... ---- 
 72
    65
 73
     8
 40
18.75
 49
12.0
 49
-1.5
 49
0.25
 49
-1.5
 49
0.25
 49
-1.5
 49
0.25
 49
-1.5
  0
LTYPE
  2
SXF_点線
 70
     0
  3
07 dotted . . . . . . . . . . . . 
 72
    65
 73
     2
 40
1.75
 49
0.25
 49
-1.5
  0
LTYPE
  2
SXF_一点鎖線
 70
     0
  3
08 chain ---- - --- - --- - ---
 72
    65
 73
     4
 40
18.5
 49
12.0
 49
-1.5
 49
3.5
 49
-1.5
  0
LTYPE
  2
SXF_二点鎖線
 70
     0
  3
09 chain_double_dash ---- - - ---- - - ----
 72
    65
 73
     6
 40
23.5
 49
12.0
 49
-1.5
 49
3.5
 49
-1.5
 49
3.5
 49
-1.5
  0
LTYPE
  2
SXF_一点短鎖線
 70
     0
  3
10 dashed_dotted -- . -- . -- . --
 72
    65
 73
     4
 40
9.25
 49
6.0
 49
-1.5
 49
0.25
 49
-1.5
  0
LTYPE
  2
SXF_一点二短鎖線
 70
     0
  3
11 double-dashed_dotted -- -- . -- --
 72
    65
 73
     6
 40
16.75
 49
6.0
 49
-1.5
 49
6.0
 49
-1.5
 49
0.25
 49
-1.5
  0
LTYPE
  2
SXF_二点短鎖線
 70
     0
  3
12 dashed_double_dotted -- . . -- . . --
 72
    65
 73
     6
 40
11.0
 49
6.0
 49
-1.5
 49
0.25
 49
-1.5
 49
0.25
 49
-1.5
  0
LTYPE
  2
SXF_二点二短鎖線
 70
     0
  3
13 double-dashed_double-dotted -- -- . . -- --
 72
    65
 73
     8
 40
18.5
 49
6.0
 49
-1.5
 49
6.0
 49
-1.5
 49
0.25
 49
-1.5
 49
0.25
 49
-1.5
  0
LTYPE
  2
SXF_三点短鎖線
 70
     0
  3
14 dashed triplicate-dotted -- . . . -- . . . --
 72
    65
 73
     8
 40
12.75
 49
6.0
 49
-1.5
 49
0.25
 49
-1.5
 49
0.25
 49
-1.5
 49
0.25
 49
-1.5
  0
LTYPE
  2
SXF_三点二短鎖線
 70
     0
  3
15 double-dashed triplicate-dotted -- -- . . . -- -- 
 72
    65
 73
    10
 40
20.25
 49
6.0
 49
-1.5
 49
6.0
 49
-1.5
 49
0.25
 49
-1.5
 49
0.25
 49
-1.5
 49
0.25
 49
-1.5
  0
ENDTAB
  0
TABLE
  2
LAYER
 70
     5
  0
LAYER
  2
0
 70
     0
 62
     7
  6
CONTINUOUS
  0
LAYER
  2
AM_0
 70
     0
 62
     7
  6
CONTINUOUS
  0
LAYER
  2
AM_7
 70
     0
 62
     7
  6
CONTINUOUS
  0
LAYER
  2
AM_4
 70
     0
 62
     7
  6
CONTINUOUS
  0
LAYER
  2
AM_3
 70
     0
 62
     7
  6
CONTINUOUS
  0
ENDTAB
  0
TABLE
  2
STYLE
 70
     2
  0
STYLE
  2
STANDARD
 70
     0
 40
0.0
 41
1.0
 50
0.0
 71
     0
 42
0.2
  3
txt.shx
  4
bigfont.shx
  0
STYLE
  2
DCSTYLE0
 70
     0
 40
0.0
 41
1.29
 50
0.0
 71
     0
 42
0.2
  3
txt.shx
  4
bigfont
  0
ENDTAB
  0
TABLE
  2
VIEW
 70
     0
  0
ENDTAB
  0
TABLE
  2
UCS
 70
     0
  0
ENDTAB
  0
TABLE
  2
APPID
 70
     2
  0
APPID
  2
ACAD
 70
     0
  0
APPID
  2
DAFUSIONOUT
 70
     0
  0
ENDTAB
  0
TABLE
  2
DIMSTYLE
 70
     1
  0
DIMSTYLE
  2
STANDARD
 70
     0
  3

  4

  5

  6

  7

 40
1.0
 41
0.18
 42
0.0625
 43
0.38
 44
0.18
 45
0.0
 46
0.0
 47
0.0
 48
0.0
140
0.18
141
0.09
142
0.0
143
25.4
144
1.0
145
0.0
146
1.0
147
0.09
 71
     0
 72
     0
 73
     1
 74
     1
 75
     0
 76
     0
 77
     0
 78
     0
170
     0
171
     2
172
     0
173
     0
174
     0
175
     0
176
     0
177
     0
178
     0
  0
ENDTAB
  0
ENDSEC
  0
SECTION
  2
BLOCKS
  0
BLOCK
  8
0
  2
$MODEL_SPACE
 70
     0
 10
0.0
 20
0.0
 30
0.0
  3
$MODEL_SPACE
  1

  0
ENDBLK
  5
21
  8
0
  0
BLOCK
 67
     1
  8
0
  2
$PAPER_SPACE
 70
     0
 10
0.0
 20
0.0
 30
0.0
  3
$PAPER_SPACE
  1

  0
ENDBLK
  5
1D
 67
     1
  8
0
  0
BLOCK
  8
0
  2
DC_GROUP_1
 70
     0
 10
0.0
 20
0.0
 30
0.0
  3
DC_GROUP_1
  1

  0
LINE
  5
12E
  8
AM_0
  6
CONTINUOUS
 62
     7
 10
98.64049595155689
 20
22.89435260403764
 30
0.0
 11
98.64049595155689
 21
-36.10698072929569
 31
0.0
  0
ENDBLK
  5
B8
  8
0
  0
BLOCK
  8
0
  2
DC_GROUP_2
 70
     0
 10
0.0
 20
0.0
 30
0.0
  3
DC_GROUP_2
  1

  0
LINE
  5
12F
  8
AM_0
  6
CONTINUOUS
 62
     7
 10
-6.624976314304035
 20
22.39435260403735
 30
0.0
 11
-6.624976314304035
 21
-4.605647395962364
 31
0.0
  0
ENDBLK
  5
BB
  8
0
  0
BLOCK
  8
0
  2
DC_GROUP_3
 70
     0
 10
0.0
 20
0.0
 30
0.0
  3
DC_GROUP_3
  1

  0
LINE
  5
130
  8
AM_0
  6
CONTINUOUS
 62
     7
 10
104.1404959515569
 20
-41.60631406262905
 30
0.0
 11
173.1391626182233
 21
-41.60631406262905
 31
0.0
  0
ENDBLK
  5
BE
  8
0
  0
BLOCK
  8
0
  2
DC_GROUP_4
 70
     0
 10
0.0
 20
0.0
 30
0.0
  3
DC_GROUP_4
  1

  0
LINE
  5
131
  8
AM_0
  6
CONTINUOUS
 62
     7
 10
-12.62497631430404
 20
-38.10631406262917
 30
0.0
 11
-8.874309647637233
 21
-38.10631406262917
 31
0.0
  0
LINE
  5
132
  8
AM_0
  6
CONTINUOUS
 62
     7
 10
-8.874309647637233
 20
-38.10631406262917
 30
0.0
 11
-8.624976314304035
 21
-38.60631406262928
 31
0.0
  0
LINE
  5
133
  8
AM_0
  6
CONTINUOUS
 62
     7
 10
-8.624976314304035
 20
-38.60631406262928
 30
0.0
 11
-8.624976314304035
 21
-44.60631406262928
 31
0.0
  0
LINE
  5
134
  8
AM_0
  6
CONTINUOUS
 62
     7
 10
-8.624976314304035
 20
-44.60631406262928
 30
0.0
 11
-8.874309647637233
 21
-45.10631406262917
 31
0.0
  0
ENDBLK
  5
C1
  8
0
  0
BLOCK
  8
0
  2
DC_GROUP_5
 70
     0
 10
0.0
 20
0.0
 30
0.0
  3
DC_GROUP_5
  1

  0
LINE
  5
135
  8
AM_0
  6
CONTINUOUS
 62
     7
 10
-8.874309647637233
 20
-38.10631406262917
 30
0.0
 11
-8.874309647637233
 21
-45.10631406262917
 31
0.0
  0
LINE
  5
136
  8
AM_0
  6
CONTINUOUS
 62
     7
 10
-8.874309647637233
 20
-45.10631406262917
 30
0.0
 11
-12.62497631430404
 21
-45.10631406262917
 31
0.0
  0
ENDBLK
  5
C4
  8
0
  0
BLOCK
  8
0
  2
DC_GROUP_6
 70
     0
 10
0.0
 20
0.0
 30
0.0
  3
DC_GROUP_6
  1

  0
LINE
  5
137
  8
AM_0
  6
CONTINUOUS
 62
     7
 10
-12.62497631430404
 20
24.89368593737095
 30
0.0
 11
-8.874309647637233
 21
24.89368593737095
 31
0.0
  0
LINE
  5
138
  8
AM_0
  6
CONTINUOUS
 62
     7
 10
-8.874309647637233
 20
24.89368593737095
 30
0.0
 11
-8.624976314304035
 21
25.39368593737106
 31
0.0
  0
LINE
  5
139
  8
AM_0
  6
CONTINUOUS
 62
     7
 10
-8.624976314304035
 20
25.39368593737106
 30
0.0
 11
-8.624976314304035
 21
31.39368593737072
 31
0.0
  0
LINE
  5
13A
  8
AM_0
  6
CONTINUOUS
 62
     7
 10
-8.624976314304035
 20
31.39368593737072
 30
0.0
 11
-8.874309647637233
 21
31.89368593737072
 31
0.0
  0
ENDBLK
  5
C7
  8
0
  0
BLOCK
  8
0
  2
DC_GROUP_7
 70
     0
 10
0.0
 20
0.0
 30
0.0
  3
DC_GROUP_7
  1

  0
LINE
  5
13B
  8
AM_0
  6
CONTINUOUS
 62
     7
 10
-8.874309647637233
 20
24.89368593737095
 30
0.0
 11
-8.874309647637233
 21
31.89368593737072
 31
0.0
  0
LINE
  5
13C
  8
AM_0
  6
CONTINUOUS
 62
     7
 10
-8.874309647637233
 20
31.89368593737072
 30
0.0
 11
-12.62497631430404
 21
31.89368593737072
 31
0.0
  0
ENDBLK
  5
CA
  8
0
  0
BLOCK
  8
0
  2
DC_GROUP_8
 70
     0
 10
0.0
 20
0.0
 30
0.0
  3
DC_GROUP_8
  1

  0
LINE
  5
13D
  8
AM_0
  6
CONTINUOUS
 62
     7
 10
-6.624976314222181
 20
271.4231865777016
 30
0.0
 11
-6.624976314222181
 21
244.4231865777016
 31
0.0
  0
ENDBLK
  5
CD
  8
0
  0
BLOCK
  8
0
  2
DC_GROUP_9
 70
     0
 10
0.0
 20
0.0
 30
0.0
  3
DC_GROUP_9
  1

  0
LINE
  5
13E
  8
AM_0
  6
CONTINUOUS
 62
     7
 10
-12.62497631422218
 20
221.4231865777016
 30
0.0
 11
-8.874309647555378
 21
221.4231865777016
 31
0.0
  0
LINE
  5
13F
  8
AM_0
  6
CONTINUOUS
 62
     7
 10
-8.874309647555378
 20
221.4231865777016
 30
0.0
 11
-8.624976314222181
 21
220.9231865777012
 31
0.0
  0
LINE
  5
140
  8
AM_0
  6
CONTINUOUS
 62
     7
 10
-8.624976314222181
 20
220.9231865777012
 30
0.0
 11
-8.624976314222181
 21
214.9231865777011
 31
0.0
  0
LINE
  5
141
  8
AM_0
  6
CONTINUOUS
 62
     7
 10
-8.624976314222181
 20
214.9231865777011
 30
0.0
 11
-8.874309647555378
 21
214.4231865777016
 31
0.0
  0
ENDBLK
  5
D0
  8
0
  0
BLOCK
  8
0
  2
DC_GROUP_10
 70
     0
 10
0.0
 20
0.0
 30
0.0
  3
DC_GROUP_10
  1

  0
LINE
  5
142
  8
AM_0
  6
CONTINUOUS
 62
     7
 10
-8.874309647555378
 20
221.4231865777016
 30
0.0
 11
-8.874309647555378
 21
214.4231865777016
 31
0.0
  0
LINE
  5
143
  8
AM_0
  6
CONTINUOUS
 62
     7
 10
-8.874309647555378
 20
214.4231865777016
 30
0.0
 11
-12.62497631422218
 21
214.4231865777016
 31
0.0
  0
ENDBLK
  5
D3
  8
0
  0
BLOCK
  8
0
  2
DC_GROUP_11
 70
     0
 10
0.0
 20
0.0
 30
0.0
  3
DC_GROUP_11
  1

  0
LINE
  5
144
  8
AM_0
  6
CONTINUOUS
 62
     7
 10
-12.62497631422218
 20
294.4231865777016
 30
0.0
 11
-8.874309647555378
 21
294.4231865777016
 31
0.0
  0
LINE
  5
145
  8
AM_0
  6
CONTINUOUS
 62
     7
 10
-8.874309647555378
 20
294.4231865777016
 30
0.0
 11
-8.624976314222181
 21
294.9231865777016
 31
0.0
  0
LINE
  5
146
  8
AM_0
  6
CONTINUOUS
 62
     7
 10
-8.624976314222181
 20
294.9231865777016
 30
0.0
 11
-8.624976314222181
 21
300.9231865777016
 31
0.0
  0
LINE
  5
147
  8
AM_0
  6
CONTINUOUS
 62
     7
 10
-8.624976314222181
 20
300.9231865777016
 30
0.0
 11
-8.874309647555378
 21
301.4231865777016
 31
0.0
  0
ENDBLK
  5
D6
  8
0
  0
BLOCK
  8
0
  2
DC_GROUP_12
 70
     0
 10
0.0
 20
0.0
 30
0.0
  3
DC_GROUP_12
  1

  0
LINE
  5
148
  8
AM_0
  6
CONTINUOUS
 62
     7
 10
-8.874309647555378
 20
294.4231865777016
 30
0.0
 11
-8.874309647555378
 21
301.4231865777016
 31
0.0
  0
LINE
  5
149
  8
AM_0
  6
CONTINUOUS
 62
     7
 10
-8.874309647555378
 20
301.4231865777016
 30
0.0
 11
-12.62497631422218
 21
301.4231865777016
 31
0.0
  0
ENDBLK
  5
D9
  8
0
  0
BLOCK
  8
0
  2
DC_GROUP_13
 70
     0
 10
0.0
 20
0.0
 30
0.0
  3
DC_GROUP_13
  1

  0
LINE
  5
14A
  8
AM_0
  6
CONTINUOUS
 62
     7
 10
-7.624976314222181
 20
288.4231865777019
 30
0.0
 11
-7.624976314222181
 21
272.4231865777011
 31
0.0
  0
ENDBLK
  5
DC
  8
0
  0
BLOCK
  8
0
  2
DC_GROUP_14
 70
     0
 10
0.0
 20
0.0
 30
0.0
  3
DC_GROUP_14
  1

  0
LINE
  5
14B
  8
AM_0
  6
CONTINUOUS
 62
     7
 10
-6.624976314222181
 20
272.4231865777011
 30
0.0
 11
-6.624976314222181
 21
288.4231865777019
 31
0.0
  0
ENDBLK
  5
DF
  8
0
  0
BLOCK
  8
0
  2
DC_GROUP_15
 70
     0
 10
0.0
 20
0.0
 30
0.0
  3
DC_GROUP_15
  1

  0
LINE
  5
14C
  8
AM_0
  6
CONTINUOUS
 62
     7
 10
2.875023685778274
 20
274.9231865777012
 30
0.0
 11
2.875023685778274
 21
285.9231865777016
 31
0.0
  0
LINE
  5
14D
  8
AM_0
  6
CONTINUOUS
 62
     7
 10
2.875023685778274
 20
285.9231865777016
 30
0.0
 11
3.875023685778274
 21
285.9231865777016
 31
0.0
  0
LINE
  5
14E
  8
AM_0
  6
CONTINUOUS
 62
     7
 10
3.875023685778274
 20
285.9231865777016
 30
0.0
 11
3.875023685778274
 21
274.9231865777012
 31
0.0
  0
LINE
  5
14F
  8
AM_0
  6
CONTINUOUS
 62
     7
 10
3.875023685778274
 20
274.9231865777012
 30
0.0
 11
2.875023685778274
 21
274.9231865777012
 31
0.0
  0
ENDBLK
  5
E2
  8
0
  0
BLOCK
  8
0
  2
DC_GROUP_16
 70
     0
 10
0.0
 20
0.0
 30
0.0
  3
DC_GROUP_16
  1

  0
LINE
  5
150
  8
AM_0
  6
CONTINUOUS
 62
     7
 10
-6.624976314222181
 20
287.5481865777016
 30
0.0
 11
-4.124976314222181
 21
287.5481865777016
 31
0.0
  0
LINE
  5
151
  8
AM_0
  6
CONTINUOUS
 62
     7
 10
-4.124976314222181
 20
287.5481865777016
 30
0.0
 11
-4.124976314222181
 21
273.2981865777016
 31
0.0
  0
LINE
  5
152
  8
AM_0
  6
CONTINUOUS
 62
     7
 10
-4.124976314222181
 20
273.2981865777016
 30
0.0
 11
-6.624976314222181
 21
273.2981865777016
 31
0.0
  0
ENDBLK
  5
E5
  8
0
  0
BLOCK
  8
0
  2
DC_GROUP_17
 70
     0
 10
0.0
 20
0.0
 30
0.0
  3
DC_GROUP_17
  1

  0
LINE
  5
153
  8
AM_0
  6
CONTINUOUS
 62
     7
 10
2.875023685778274
 20
285.9231865777016
 30
0.0
 11
2.375023685777819
 21
286.4231865777016
 31
0.0
  0
LINE
  5
154
  8
AM_0
  6
CONTINUOUS
 62
     7
 10
2.375023685777819
 20
286.4231865777016
 30
0.0
 11
-4.124976314222181
 21
286.4231865777016
 31
0.0
  0
ENDBLK
  5
E8
  8
0
  0
BLOCK
  8
0
  2
DC_GROUP_18
 70
     0
 10
0.0
 20
0.0
 30
0.0
  3
DC_GROUP_18
  1

  0
LINE
  5
155
  8
AM_0
  6
CONTINUOUS
 62
     7
 10
2.875023685778274
 20
274.9231865777012
 30
0.0
 11
2.375023685777819
 21
274.4231865777012
 31
0.0
  0
LINE
  5
156
  8
AM_0
  6
CONTINUOUS
 62
     7
 10
2.375023685777819
 20
274.4231865777012
 30
0.0
 11
-4.124976314222181
 21
274.4231865777012
 31
0.0
  0
ENDBLK
  5
EB
  8
0
  0
BLOCK
  8
0
  2
DC_GROUP_19
 70
     0
 10
0.0
 20
0.0
 30
0.0
  3
DC_GROUP_19
  1

  0
LINE
  5
157
  8
AM_0
  6
CONTINUOUS
 62
     7
 10
2.375023685777819
 20
286.4231865777016
 30
0.0
 11
2.375023685777819
 21
274.4231865777012
 31
0.0
  0
ENDBLK
  5
EE
  8
0
  0
BLOCK
  8
0
  2
DC_GROUP_20
 70
     0
 10
0.0
 20
0.0
 30
0.0
  3
DC_GROUP_20
  1

  0
LINE
  5
158
  8
AM_0
  6
CONTINUOUS
 62
     7
 10
-74.54987823908164
 20
-309.7799853012299
 30
0.0
 11
-74.50587823908177
 21
-309.7359853012298
 31
0.0
  0
LINE
  5
159
  8
AM_0
  6
CONTINUOUS
 62
     7
 10
-74.50587823908177
 20
-309.7359853012298
 30
0.0
 11
-74.48487823908158
 21
-309.71398530123
 31
0.0
  0
LINE
  5
15A
  8
AM_0
  6
CONTINUOUS
 62
     7
 10
-74.48487823908158
 20
-309.71398530123
 30
0.0
 11
-74.46387823908185
 21
-309.6919853012299
 31
0.0
  0
LINE
  5
15B
  8
AM_0
  6
CONTINUOUS
 62
     7
 10
-74.46387823908185
 20
-309.6919853012299
 30
0.0
 11
-74.44287823908167
 21
-309.66998530123
 31
0.0
  0
LINE
  5
15C
  8
AM_0
  6
CONTINUOUS
 62
     7
 10
-74.44287823908167
 20
-309.66998530123
 30
0.0
 11
-74.42187823908148
 21
-309.6469853012298
 31
0.0
  0
LINE
  5
15D
  8
AM_0
  6
CONTINUOUS
 62
     7
 10
-74.42187823908148
 20
-309.6469853012298
 30
0.0
 11
-74.40087823908175
 21
-309.62498530123
 31
0.0
  0
LINE
  5
15E
  8
AM_0
  6
CONTINUOUS
 62
     7
 10
-74.40087823908175
 20
-309.62498530123
 30
0.0
 11
-74.37987823908156
 21
-309.6019853012299
 31
0.0
  0
LINE
  5
15F
  8
AM_0
  6
CONTINUOUS
 62
     7
 10
-74.37987823908156
 20
-309.6019853012299
 30
0.0
 11
-74.35987823908158
 21
-309.5789853012296
 31
0.0
  0
LINE
  5
160
  8
AM_0
  6
CONTINUOUS
 62
     7
 10
-74.35987823908158
 20
-309.5789853012296
 30
0.0
 11
-74.33887823908185
 21
-309.5559853012298
 31
0.0
  0
LINE
  5
161
  8
AM_0
  6
CONTINUOUS
 62
     7
 10
-74.33887823908185
 20
-309.5559853012298
 30
0.0
 11
-74.25887823908192
 21
-309.4639853012299
 31
0.0
  0
LINE
  5
162
  8
AM_0
  6
CONTINUOUS
 62
     7
 10
-74.25887823908192
 20
-309.4639853012299
 30
0.0
 11
-74.23987823908169
 21
-309.4399853012299
 31
0.0
  0
LINE
  5
163
  8
AM_0
  6
CONTINUOUS
 62
     7
 10
-74.23987823908169
 20
-309.4399853012299
 30
0.0
 11
-74.21987823908171
 21
-309.4159853012297
 31
0.0
  0
LINE
  5
164
  8
AM_0
  6
CONTINUOUS
 62
     7
 10
-74.21987823908171
 20
-309.4159853012297
 30
0.0
 11
-74.20087823908193
 21
-309.3929853012299
 31
0.0
  0
LINE
  5
165
  8
AM_0
  6
CONTINUOUS
 62
     7
 10
-74.20087823908193
 20
-309.3929853012299
 30
0.0
 11
-74.1818782390817
 21
-309.3689853012299
 31
0.0
  0
LINE
  5
166
  8
AM_0
  6
CONTINUOUS
 62
     7
 10
-74.1818782390817
 20
-309.3689853012299
 30
0.0
 11
-74.16187823908172
 21
-309.3449853012298
 31
0.0
  0
LINE
  5
167
  8
AM_0
  6
CONTINUOUS
 62
     7
 10
-74.16187823908172
 20
-309.3449853012298
 30
0.0
 11
-74.14387823908169
 21
-309.3209853012299
 31
0.0
  0
LINE
  5
168
  8
AM_0
  6
CONTINUOUS
 62
     7
 10
-74.14387823908169
 20
-309.3209853012299
 30
0.0
 11
-74.12487823908191
 21
-309.2959853012298
 31
0.0
  0
LINE
  5
169
  8
AM_0
  6
CONTINUOUS
 62
     7
 10
-74.12487823908191
 20
-309.2959853012298
 30
0.0
 11
-74.10587823908168
 21
-309.27198530123
 31
0.0
  0
LINE
  5
16A
  8
AM_0
  6
CONTINUOUS
 62
     7
 10
-74.10587823908168
 20
-309.27198530123
 30
0.0
 11
-74.08787823908165
 21
-309.2479853012298
 31
0.0
  0
LINE
  5
16B
  8
AM_0
  6
CONTINUOUS
 62
     7
 10
-74.08787823908165
 20
-309.2479853012298
 30
0.0
 11
-74.06887823908187
 21
-309.2229853012301
 31
0.0
  0
LINE
  5
16C
  8
AM_0
  6
CONTINUOUS
 62
     7
 10
-74.06887823908187
 20
-309.2229853012301
 30
0.0
 11
-74.05087823908184
 21
-309.1979853012299
 31
0.0
  0
LINE
  5
16D
  8
AM_0
  6
CONTINUOUS
 62
     7
 10
-74.05087823908184
 20
-309.1979853012299
 30
0.0
 11
-74.03287823908181
 21
-309.1739853012297
 31
0.0
  0
LINE
  5
16E
  8
AM_0
  6
CONTINUOUS
 62
     7
 10
-74.03287823908181
 20
-309.1739853012297
 30
0.0
 11
-74.01487823908178
 21
-309.1489853012299
 31
0.0
  0
LINE
  5
16F
  8
AM_0
  6
CONTINUOUS
 62
     7
 10
-74.01487823908178
 20
-309.1489853012299
 30
0.0
 11
-73.99687823908175
 21
-309.1239853012299
 31
0.0
  0
LINE
  5
170
  8
AM_0
  6
CONTINUOUS
 62
     7
 10
-73.99687823908175
 20
-309.1239853012299
 30
0.0
 11
-73.97987823908147
 21
-309.09898530123
 31
0.0
  0
LINE
  5
171
  8
AM_0
  6
CONTINUOUS
 62
     7
 10
-73.97987823908147
 20
-309.09898530123
 30
0.0
 11
-73.96187823908144
 21
-309.0729853012299
 31
0.0
  0
LINE
  5
172
  8
AM_0
  6
CONTINUOUS
 62
     7
 10
-73.96187823908144
 20
-309.0729853012299
 30
0.0
 11
-73.92787823908179
 21
-309.0229853012299
 31
0.0
  0
LINE
  5
173
  8
AM_0
  6
CONTINUOUS
 62
     7
 10
-73.92787823908179
 20
-309.0229853012299
 30
0.0
 11
-73.89387823908169
 21
-308.9709853012299
 31
0.0
  0
LINE
  5
174
  8
AM_0
  6
CONTINUOUS
 62
     7
 10
-73.89387823908169
 20
-308.9709853012299
 30
0.0
 11
-73.87787823908161
 21
-308.9459853012299
 31
0.0
  0
LINE
  5
175
  8
AM_0
  6
CONTINUOUS
 62
     7
 10
-73.87787823908161
 20
-308.9459853012299
 30
0.0
 11
-73.86087823908179
 21
-308.91998530123
 31
0.0
  0
LINE
  5
176
  8
AM_0
  6
CONTINUOUS
 62
     7
 10
-73.86087823908179
 20
-308.91998530123
 30
0.0
 11
-73.81287823908156
 21
-308.8419853012298
 31
0.0
  0
LINE
  5
177
  8
AM_0
  6
CONTINUOUS
 62
     7
 10
-73.81287823908156
 20
-308.8419853012298
 30
0.0
 11
-73.79687823908148
 21
-308.81498530123
 31
0.0
  0
LINE
  5
178
  8
AM_0
  6
CONTINUOUS
 62
     7
 10
-73.79687823908148
 20
-308.81498530123
 30
0.0
 11
-73.76487823908178
 21
-308.7629853012303
 31
0.0
  0
LINE
  5
179
  8
AM_0
  6
CONTINUOUS
 62
     7
 10
-73.76487823908178
 20
-308.7629853012303
 30
0.0
 11
-73.73487823908158
 21
-308.7089853012301
 31
0.0
  0
LINE
  5
17A
  8
AM_0
  6
CONTINUOUS
 62
     7
 10
-73.73487823908158
 20
-308.7089853012301
 30
0.0
 11
-73.71987823908171
 21
-308.6829853012301
 31
0.0
  0
LINE
  5
17B
  8
AM_0
  6
CONTINUOUS
 62
     7
 10
-73.71987823908171
 20
-308.6829853012301
 30
0.0
 11
-73.68987823908196
 21
-308.6289853012299
 31
0.0
  0
LINE
  5
17C
  8
AM_0
  6
CONTINUOUS
 62
     7
 10
-73.68987823908196
 20
-308.6289853012299
 30
0.0
 11
-73.67587823908184
 21
-308.6019853012299
 31
0.0
  0
LINE
  5
17D
  8
AM_0
  6
CONTINUOUS
 62
     7
 10
-73.67587823908184
 20
-308.6019853012299
 30
0.0
 11
-73.66087823908197
 21
-308.5749853012298
 31
0.0
  0
LINE
  5
17E
  8
AM_0
  6
CONTINUOUS
 62
     7
 10
-73.66087823908197
 20
-308.5749853012298
 30
0.0
 11
-73.63287823908172
 21
-308.5209853012295
 31
0.0
  0
LINE
  5
17F
  8
AM_0
  6
CONTINUOUS
 62
     7
 10
-73.63287823908172
 20
-308.5209853012295
 30
0.0
 11
-73.6188782390816
 21
-308.49298530123
 31
0.0
  0
LINE
  5
180
  8
AM_0
  6
CONTINUOUS
 62
     7
 10
-73.6188782390816
 20
-308.49298530123
 30
0.0
 11
-73.60487823908147
 21
-308.4659853012299
 31
0.0
  0
LINE
  5
181
  8
AM_0
  6
CONTINUOUS
 62
     7
 10
-73.60487823908147
 20
-308.4659853012299
 30
0.0
 11
-73.59187823908155
 21
-308.4379853012301
 31
0.0
  0
LINE
  5
182
  8
AM_0
  6
CONTINUOUS
 62
     7
 10
-73.59187823908155
 20
-308.4379853012301
 30
0.0
 11
-73.57887823908163
 21
-308.4109853012296
 31
0.0
  0
LINE
  5
183
  8
AM_0
  6
CONTINUOUS
 62
     7
 10
-73.57887823908163
 20
-308.4109853012296
 30
0.0
 11
-73.56487823908151
 21
-308.38298530123
 31
0.0
  0
LINE
  5
184
  8
AM_0
  6
CONTINUOUS
 62
     7
 10
-73.56487823908151
 20
-308.38298530123
 30
0.0
 11
-73.55187823908159
 21
-308.3549853012299
 31
0.0
  0
LINE
  5
185
  8
AM_0
  6
CONTINUOUS
 62
     7
 10
-73.55187823908159
 20
-308.3549853012299
 30
0.0
 11
-73.53887823908167
 21
-308.3269853012299
 31
0.0
  0
LINE
  5
186
  8
AM_0
  6
CONTINUOUS
 62
     7
 10
-73.53887823908167
 20
-308.3269853012299
 30
0.0
 11
-73.52687823908195
 21
-308.29998530123
 31
0.0
  0
LINE
  5
187
  8
AM_0
  6
CONTINUOUS
 62
     7
 10
-73.52687823908195
 20
-308.29998530123
 30
0.0
 11
-73.51387823908158
 21
-308.2719853012298
 31
0.0
  0
LINE
  5
188
  8
AM_0
  6
CONTINUOUS
 62
     7
 10
-73.51387823908158
 20
-308.2719853012298
 30
0.0
 11
-73.50187823908186
 21
-308.24298530123
 31
0.0
  0
LINE
  5
189
  8
AM_0
  6
CONTINUOUS
 62
     7
 10
-73.50187823908186
 20
-308.24298530123
 30
0.0
 11
-73.4658782390818
 21
-308.1589853012298
 31
0.0
  0
LINE
  5
18A
  8
AM_0
  6
CONTINUOUS
 62
     7
 10
-73.4658782390818
 20
-308.1589853012298
 30
0.0
 11
-73.45387823908163
 21
-308.1299853012301
 31
0.0
  0
LINE
  5
18B
  8
AM_0
  6
CONTINUOUS
 62
     7
 10
-73.45387823908163
 20
-308.1299853012301
 30
0.0
 11
-73.44287823908167
 21
-308.1019853012299
 31
0.0
  0
LINE
  5
18C
  8
AM_0
  6
CONTINUOUS
 62
     7
 10
-73.44287823908167
 20
-308.1019853012299
 30
0.0
 11
-73.4308782390815
 21
-308.0739853012299
 31
0.0
  0
LINE
  5
18D
  8
AM_0
  6
CONTINUOUS
 62
     7
 10
-73.4308782390815
 20
-308.0739853012299
 30
0.0
 11
-73.40887823908156
 21
-308.0159853012295
 31
0.0
  0
LINE
  5
18E
  8
AM_0
  6
CONTINUOUS
 62
     7
 10
-73.40887823908156
 20
-308.0159853012295
 30
0.0
 11
-73.3988782390818
 21
-307.9879853012299
 31
0.0
  0
LINE
  5
18F
  8
AM_0
  6
CONTINUOUS
 62
     7
 10
-73.3988782390818
 20
-307.9879853012299
 30
0.0
 11
-73.37687823908186
 21
-307.9299853012301
 31
0.0
  0
LINE
  5
190
  8
AM_0
  6
CONTINUOUS
 62
     7
 10
-73.37687823908186
 20
-307.9299853012301
 30
0.0
 11
-73.34687823908143
 21
-307.84298530123
 31
0.0
  0
LINE
  5
191
  8
AM_0
  6
CONTINUOUS
 62
     7
 10
-73.34687823908143
 20
-307.84298530123
 30
0.0
 11
-73.33787823908165
 21
-307.81398530123
 31
0.0
  0
LINE
  5
192
  8
AM_0
  6
CONTINUOUS
 62
     7
 10
-73.33787823908165
 20
-307.81398530123
 30
0.0
 11
-73.32787823908188
 21
-307.78498530123
 31
0.0
  0
LINE
  5
193
  8
AM_0
  6
CONTINUOUS
 62
     7
 10
-73.32787823908188
 20
-307.78498530123
 30
0.0
 11
-73.31887823908187
 21
-307.7559853012299
 31
0.0
  0
LINE
  5
194
  8
AM_0
  6
CONTINUOUS
 62
     7
 10
-73.31887823908187
 20
-307.7559853012299
 30
0.0
 11
-73.30887823908165
 21
-307.7269853012299
 31
0.0
  0
LINE
  5
195
  8
AM_0
  6
CONTINUOUS
 62
     7
 10
-73.30887823908165
 20
-307.7269853012299
 30
0.0
 11
-73.29987823908164
 21
-307.6969853012299
 31
0.0
  0
LINE
  5
196
  8
AM_0
  6
CONTINUOUS
 62
     7
 10
-73.29987823908164
 20
-307.6969853012299
 30
0.0
 11
-73.29187823908183
 21
-307.66798530123
 31
0.0
  0
LINE
  5
197
  8
AM_0
  6
CONTINUOUS
 62
     7
 10
-73.29187823908183
 20
-307.66798530123
 30
0.0
 11
-73.28287823908181
 21
-307.6379853012299
 31
0.0
  0
LINE
  5
198
  8
AM_0
  6
CONTINUOUS
 62
     7
 10
-73.28287823908181
 20
-307.6379853012299
 30
0.0
 11
-73.2738782390818
 21
-307.6089853012299
 31
0.0
  0
LINE
  5
199
  8
AM_0
  6
CONTINUOUS
 62
     7
 10
-73.2738782390818
 20
-307.6089853012299
 30
0.0
 11
-73.26587823908153
 21
-307.5789853012299
 31
0.0
  0
LINE
  5
19A
  8
AM_0
  6
CONTINUOUS
 62
     7
 10
-73.26587823908153
 20
-307.5789853012299
 30
0.0
 11
-73.25787823908172
 21
-307.5499853012301
 31
0.0
  0
LINE
  5
19B
  8
AM_0
  6
CONTINUOUS
 62
     7
 10
-73.25787823908172
 20
-307.5499853012301
 30
0.0
 11
-73.24987823908191
 21
-307.51998530123
 31
0.0
  0
LINE
  5
19C
  8
AM_0
  6
CONTINUOUS
 62
     7
 10
-73.24987823908191
 20
-307.51998530123
 30
0.0
 11
-73.24187823908164
 21
-307.4909853012298
 31
0.0
  0
LINE
  5
19D
  8
AM_0
  6
CONTINUOUS
 62
     7
 10
-73.24187823908164
 20
-307.4909853012298
 30
0.0
 11
-73.23487823908158
 21
-307.4609853012299
 31
0.0
  0
LINE
  5
19E
  8
AM_0
  6
CONTINUOUS
 62
     7
 10
-73.23487823908158
 20
-307.4609853012299
 30
0.0
 11
-73.22687823908154
 21
-307.4309853012298
 31
0.0
  0
LINE
  5
19F
  8
AM_0
  6
CONTINUOUS
 62
     7
 10
-73.22687823908154
 20
-307.4309853012298
 30
0.0
 11
-73.21287823908165
 21
-307.3709853012297
 31
0.0
  0
LINE
  5
1A0
  8
AM_0
  6
CONTINUOUS
 62
     7
 10
-73.21287823908165
 20
-307.3709853012297
 30
0.0
 11
-73.20587823908158
 21
-307.3419853012298
 31
0.0
  0
LINE
  5
1A1
  8
AM_0
  6
CONTINUOUS
 62
     7
 10
-73.20587823908158
 20
-307.3419853012298
 30
0.0
 11
-73.19987823908173
 21
-307.3119853012299
 31
0.0
  0
LINE
  5
1A2
  8
AM_0
  6
CONTINUOUS
 62
     7
 10
-73.19987823908173
 20
-307.3119853012299
 30
0.0
 11
-73.19287823908167
 21
-307.2819853012298
 31
0.0
  0
LINE
  5
1A3
  8
AM_0
  6
CONTINUOUS
 62
     7
 10
-73.19287823908167
 20
-307.2819853012298
 30
0.0
 11
-73.17487823908164
 21
-307.19198530123
 31
0.0
  0
LINE
  5
1A4
  8
AM_0
  6
CONTINUOUS
 62
     7
 10
-73.17487823908164
 20
-307.19198530123
 30
0.0
 11
-73.16887823908178
 21
-307.1609853012299
 31
0.0
  0
LINE
  5
1A5
  8
AM_0
  6
CONTINUOUS
 62
     7
 10
-73.16887823908178
 20
-307.1609853012299
 30
0.0
 11
-73.16387823908167
 21
-307.1309853012299
 31
0.0
  0
LINE
  5
1A6
  8
AM_0
  6
CONTINUOUS
 62
     7
 10
-73.16387823908167
 20
-307.1309853012299
 30
0.0
 11
-73.15787823908181
 21
-307.1009853012299
 31
0.0
  0
LINE
  5
1A7
  8
AM_0
  6
CONTINUOUS
 62
     7
 10
-73.15787823908181
 20
-307.1009853012299
 30
0.0
 11
-73.14787823908159
 21
-307.0409853012297
 31
0.0
  0
LINE
  5
1A8
  8
AM_0
  6
CONTINUOUS
 62
     7
 10
-73.14787823908159
 20
-307.0409853012297
 30
0.0
 11
-73.14387823908169
 21
-307.0099853012301
 31
0.0
  0
LINE
  5
1A9
  8
AM_0
  6
CONTINUOUS
 62
     7
 10
-73.14387823908169
 20
-307.0099853012301
 30
0.0
 11
-73.13387823908192
 21
-306.94998530123
 31
0.0
  0
LINE
  5
1AA
  8
AM_0
  6
CONTINUOUS
 62
     7
 10
-73.13387823908192
 20
-306.94998530123
 30
0.0
 11
-73.12987823908156
 21
-306.9189853012297
 31
0.0
  0
LINE
  5
1AB
  8
AM_0
  6
CONTINUOUS
 62
     7
 10
-73.12987823908156
 20
-306.9189853012297
 30
0.0
 11
-73.12187823908175
 21
-306.8589853012299
 31
0.0
  0
LINE
  5
1AC
  8
AM_0
  6
CONTINUOUS
 62
     7
 10
-73.12187823908175
 20
-306.8589853012299
 30
0.0
 11
-73.1188782390816
 21
-306.8279853012299
 31
0.0
  0
LINE
  5
1AD
  8
AM_0
  6
CONTINUOUS
 62
     7
 10
-73.1188782390816
 20
-306.8279853012299
 30
0.0
 11
-73.11487823908169
 21
-306.79798530123
 31
0.0
  0
LINE
  5
1AE
  8
AM_0
  6
CONTINUOUS
 62
     7
 10
-73.11487823908169
 20
-306.79798530123
 30
0.0
 11
-73.11187823908199
 21
-306.76698530123
 31
0.0
  0
LINE
  5
1AF
  8
AM_0
  6
CONTINUOUS
 62
     7
 10
-73.11187823908199
 20
-306.76698530123
 30
0.0
 11
-73.10887823908183
 21
-306.73698530123
 31
0.0
  0
LINE
  5
1B0
  8
AM_0
  6
CONTINUOUS
 62
     7
 10
-73.10887823908183
 20
-306.73698530123
 30
0.0
 11
-73.10587823908168
 21
-306.7059853012299
 31
0.0
  0
LINE
  5
1B1
  8
AM_0
  6
CONTINUOUS
 62
     7
 10
-73.10587823908168
 20
-306.7059853012299
 30
0.0
 11
-73.10287823908197
 21
-306.6759853012298
 31
0.0
  0
LINE
  5
1B2
  8
AM_0
  6
CONTINUOUS
 62
     7
 10
-73.10287823908197
 20
-306.6759853012298
 30
0.0
 11
-73.09987823908182
 21
-306.6449853012299
 31
0.0
  0
LINE
  5
1B3
  8
AM_0
  6
CONTINUOUS
 62
     7
 10
-73.09987823908182
 20
-306.6449853012299
 30
0.0
 11
-73.09787823908187
 21
-306.61498530123
 31
0.0
  0
LINE
  5
1B4
  8
AM_0
  6
CONTINUOUS
 62
     7
 10
-73.09787823908187
 20
-306.61498530123
 30
0.0
 11
-73.09387823908196
 21
-306.5529853012301
 31
0.0
  0
LINE
  5
1B5
  8
AM_0
  6
CONTINUOUS
 62
     7
 10
-73.09387823908196
 20
-306.5529853012301
 30
0.0
 11
-73.09187823908155
 21
-306.5229853012302
 31
0.0
  0
LINE
  5
1B6
  8
AM_0
  6
CONTINUOUS
 62
     7
 10
-73.09187823908155
 20
-306.5229853012302
 30
0.0
 11
-73.08987823908205
 21
-306.49198530123
 31
0.0
  0
LINE
  5
1B7
  8
AM_0
  6
CONTINUOUS
 62
     7
 10
-73.08987823908205
 20
-306.49198530123
 30
0.0
 11
-73.08887823908185
 21
-306.4619853012298
 31
0.0
  0
LINE
  5
1B8
  8
AM_0
  6
CONTINUOUS
 62
     7
 10
-73.08887823908185
 20
-306.4619853012298
 30
0.0
 11
-73.08687823908144
 21
-306.3999853012299
 31
0.0
  0
LINE
  5
1B9
  8
AM_0
  6
CONTINUOUS
 62
     7
 10
-73.08687823908144
 20
-306.3999853012299
 30
0.0
 11
-73.0858782390817
 21
-306.36998530123
 31
0.0
  0
LINE
  5
1BA
  8
AM_0
  6
CONTINUOUS
 62
     7
 10
-73.0858782390817
 20
-306.36998530123
 30
0.0
 11
-73.08487823908195
 21
-306.3389853012299
 31
0.0
  0
LINE
  5
1BB
  8
AM_0
  6
CONTINUOUS
 62
     7
 10
-73.08487823908195
 20
-306.3389853012299
 30
0.0
 11
-73.08487823908195
 21
-306.3079853012301
 31
0.0
  0
LINE
  5
1BC
  8
AM_0
  6
CONTINUOUS
 62
     7
 10
-73.08487823908195
 20
-306.3079853012301
 30
0.0
 11
-73.08387823908174
 21
-306.2779853012299
 31
0.0
  0
LINE
  5
1BD
  8
AM_0
  6
CONTINUOUS
 62
     7
 10
-73.08387823908174
 20
-306.2779853012299
 30
0.0
 11
-73.08387823908174
 21
-306.24698530123
 31
0.0
  0
ENDBLK
  5
F1
  8
0
  0
BLOCK
  8
0
  2
DC_GROUP_21
 70
     0
 10
0.0
 20
0.0
 30
0.0
  3
DC_GROUP_21
  1

  0
LINE
  5
1BE
  8
AM_0
  6
CONTINUOUS
 62
     7
 10
-173.7008782390819
 20
-254.77398530123
 30
0.0
 11
-173.7218782390817
 21
-254.7959853012297
 31
0.0
  0
LINE
  5
1BF
  8
AM_0
  6
CONTINUOUS
 62
     7
 10
-173.7218782390817
 20
-254.7959853012297
 30
0.0
 11
-173.7438782390816
 21
-254.8179853012301
 31
0.0
  0
LINE
  5
1C0
  8
AM_0
  6
CONTINUOUS
 62
     7
 10
-173.7438782390816
 20
-254.8179853012301
 30
0.0
 11
-173.8068782390817
 21
-254.8839853012298
 31
0.0
  0
LINE
  5
1C1
  8
AM_0
  6
CONTINUOUS
 62
     7
 10
-173.8068782390817
 20
-254.8839853012298
 30
0.0
 11
-173.8278782390819
 21
-254.9069853012297
 31
0.0
  0
LINE
  5
1C2
  8
AM_0
  6
CONTINUOUS
 62
     7
 10
-173.8278782390819
 20
-254.9069853012297
 30
0.0
 11
-173.8488782390816
 21
-254.9289853012301
 31
0.0
  0
LINE
  5
1C3
  8
AM_0
  6
CONTINUOUS
 62
     7
 10
-173.8488782390816
 20
-254.9289853012301
 30
0.0
 11
-173.8698782390818
 21
-254.9519853012299
 31
0.0
  0
LINE
  5
1C4
  8
AM_0
  6
CONTINUOUS
 62
     7
 10
-173.8698782390818
 20
-254.9519853012299
 30
0.0
 11
-173.8898782390818
 21
-254.9749853012298
 31
0.0
  0
LINE
  5
1C5
  8
AM_0
  6
CONTINUOUS
 62
     7
 10
-173.8898782390818
 20
-254.9749853012298
 30
0.0
 11
-173.910878239082
 21
-254.9969853012302
 31
0.0
  0
LINE
  5
1C6
  8
AM_0
  6
CONTINUOUS
 62
     7
 10
-173.910878239082
 20
-254.9969853012302
 30
0.0
 11
-173.9308782390815
 21
-255.0199853012301
 31
0.0
  0
LINE
  5
1C7
  8
AM_0
  6
CONTINUOUS
 62
     7
 10
-173.9308782390815
 20
-255.0199853012301
 30
0.0
 11
-173.9508782390819
 21
-255.0439853012299
 31
0.0
  0
LINE
  5
1C8
  8
AM_0
  6
CONTINUOUS
 62
     7
 10
-173.9508782390819
 20
-255.0439853012299
 30
0.0
 11
-173.9908782390819
 21
-255.0899853012299
 31
0.0
  0
LINE
  5
1C9
  8
AM_0
  6
CONTINUOUS
 62
     7
 10
-173.9908782390819
 20
-255.0899853012299
 30
0.0
 11
-174.0098782390817
 21
-255.1139853012298
 31
0.0
  0
LINE
  5
1CA
  8
AM_0
  6
CONTINUOUS
 62
     7
 10
-174.0098782390817
 20
-255.1139853012298
 30
0.0
 11
-174.0298782390817
 21
-255.1369853012299
 31
0.0
  0
LINE
  5
1CB
  8
AM_0
  6
CONTINUOUS
 62
     7
 10
-174.0298782390817
 20
-255.1369853012299
 30
0.0
 11
-174.0488782390819
 21
-255.1609853012296
 31
0.0
  0
LINE
  5
1CC
  8
AM_0
  6
CONTINUOUS
 62
     7
 10
-174.0488782390819
 20
-255.1609853012296
 30
0.0
 11
-174.0688782390819
 21
-255.1849853012301
 31
0.0
  0
LINE
  5
1CD
  8
AM_0
  6
CONTINUOUS
 62
     7
 10
-174.0688782390819
 20
-255.1849853012301
 30
0.0
 11
-174.1068782390821
 21
-255.2329853012301
 31
0.0
  0
LINE
  5
1CE
  8
AM_0
  6
CONTINUOUS
 62
     7
 10
-174.1068782390821
 20
-255.2329853012301
 30
0.0
 11
-174.1248782390819
 21
-255.2569853012301
 31
0.0
  0
LINE
  5
1CF
  8
AM_0
  6
CONTINUOUS
 62
     7
 10
-174.1248782390819
 20
-255.2569853012301
 30
0.0
 11
-174.1438782390817
 21
-255.2819853012297
 31
0.0
  0
LINE
  5
1D0
  8
AM_0
  6
CONTINUOUS
 62
     7
 10
-174.1438782390817
 20
-255.2819853012297
 30
0.0
 11
-174.1628782390815
 21
-255.3059853012297
 31
0.0
  0
LINE
  5
1D1
  8
AM_0
  6
CONTINUOUS
 62
     7
 10
-174.1628782390815
 20
-255.3059853012297
 30
0.0
 11
-174.1808782390819
 21
-255.3309853012298
 31
0.0
  0
LINE
  5
1D2
  8
AM_0
  6
CONTINUOUS
 62
     7
 10
-174.1808782390819
 20
-255.3309853012298
 30
0.0
 11
-174.1988782390815
 21
-255.3549853012299
 31
0.0
  0
LINE
  5
1D3
  8
AM_0
  6
CONTINUOUS
 62
     7
 10
-174.1988782390815
 20
-255.3549853012299
 30
0.0
 11
-174.2528782390816
 21
-255.4299853012301
 31
0.0
  0
LINE
  5
1D4
  8
AM_0
  6
CONTINUOUS
 62
     7
 10
-174.2528782390816
 20
-255.4299853012301
 30
0.0
 11
-174.2698782390814
 21
-255.4549853012297
 31
0.0
  0
LINE
  5
1D5
  8
AM_0
  6
CONTINUOUS
 62
     7
 10
-174.2698782390814
 20
-255.4549853012297
 30
0.0
 11
-174.2878782390815
 21
-255.4809853012299
 31
0.0
  0
LINE
  5
1D6
  8
AM_0
  6
CONTINUOUS
 62
     7
 10
-174.2878782390815
 20
-255.4809853012299
 30
0.0
 11
-174.321878239082
 21
-255.5309853012301
 31
0.0
  0
LINE
  5
1D7
  8
AM_0
  6
CONTINUOUS
 62
     7
 10
-174.321878239082
 20
-255.5309853012301
 30
0.0
 11
-174.3558782390817
 21
-255.5829853012301
 31
0.0
  0
LINE
  5
1D8
  8
AM_0
  6
CONTINUOUS
 62
     7
 10
-174.3558782390817
 20
-255.5829853012301
 30
0.0
 11
-174.372878239082
 21
-255.6079853012301
 31
0.0
  0
LINE
  5
1D9
  8
AM_0
  6
CONTINUOUS
 62
     7
 10
-174.372878239082
 20
-255.6079853012301
 30
0.0
 11
-174.4048782390817
 21
-255.6599853012301
 31
0.0
  0
LINE
  5
1DA
  8
AM_0
  6
CONTINUOUS
 62
     7
 10
-174.4048782390817
 20
-255.6599853012301
 30
0.0
 11
-174.4218782390815
 21
-255.6859853012297
 31
0.0
  0
LINE
  5
1DB
  8
AM_0
  6
CONTINUOUS
 62
     7
 10
-174.4218782390815
 20
-255.6859853012297
 30
0.0
 11
-174.4378782390816
 21
-255.7119853012299
 31
0.0
  0
LINE
  5
1DC
  8
AM_0
  6
CONTINUOUS
 62
     7
 10
-174.4378782390816
 20
-255.7119853012299
 30
0.0
 11
-174.4538782390816
 21
-255.7389853012298
 31
0.0
  0
LINE
  5
1DD
  8
AM_0
  6
CONTINUOUS
 62
     7
 10
-174.4538782390816
 20
-255.7389853012298
 30
0.0
 11
-174.468878239082
 21
-255.7649853012301
 31
0.0
  0
LINE
  5
1DE
  8
AM_0
  6
CONTINUOUS
 62
     7
 10
-174.468878239082
 20
-255.7649853012301
 30
0.0
 11
-174.4848782390816
 21
-255.7909853012299
 31
0.0
  0
LINE
  5
1DF
  8
AM_0
  6
CONTINUOUS
 62
     7
 10
-174.4848782390816
 20
-255.7909853012299
 30
0.0
 11
-174.4998782390819
 21
-255.8179853012301
 31
0.0
  0
LINE
  5
1E0
  8
AM_0
  6
CONTINUOUS
 62
     7
 10
-174.4998782390819
 20
-255.8179853012301
 30
0.0
 11
-174.5148782390818
 21
-255.8439853012298
 31
0.0
  0
LINE
  5
1E1
  8
AM_0
  6
CONTINUOUS
 62
     7
 10
-174.5148782390818
 20
-255.8439853012298
 30
0.0
 11
-174.5598782390819
 21
-255.9249853012301
 31
0.0
  0
LINE
  5
1E2
  8
AM_0
  6
CONTINUOUS
 62
     7
 10
-174.5598782390819
 20
-255.9249853012301
 30
0.0
 11
-174.5738782390815
 21
-255.9519853012299
 31
0.0
  0
LINE
  5
1E3
  8
AM_0
  6
CONTINUOUS
 62
     7
 10
-174.5738782390815
 20
-255.9519853012299
 30
0.0
 11
-174.5888782390819
 21
-255.9789853012297
 31
0.0
  0
LINE
  5
1E4
  8
AM_0
  6
CONTINUOUS
 62
     7
 10
-174.5888782390819
 20
-255.9789853012297
 30
0.0
 11
-174.602878239082
 21
-256.0059853012301
 31
0.0
  0
LINE
  5
1E5
  8
AM_0
  6
CONTINUOUS
 62
     7
 10
-174.602878239082
 20
-256.0059853012301
 30
0.0
 11
-174.6168782390816
 21
-256.0329853012302
 31
0.0
  0
LINE
  5
1E6
  8
AM_0
  6
CONTINUOUS
 62
     7
 10
-174.6168782390816
 20
-256.0329853012302
 30
0.0
 11
-174.6308782390818
 21
-256.0609853012297
 31
0.0
  0
LINE
  5
1E7
  8
AM_0
  6
CONTINUOUS
 62
     7
 10
-174.6308782390818
 20
-256.0609853012297
 30
0.0
 11
-174.6448782390814
 21
-256.08798530123
 31
0.0
  0
LINE
  5
1E8
  8
AM_0
  6
CONTINUOUS
 62
     7
 10
-174.6448782390814
 20
-256.08798530123
 30
0.0
 11
-174.6578782390818
 21
-256.1159853012299
 31
0.0
  0
LINE
  5
1E9
  8
AM_0
  6
CONTINUOUS
 62
     7
 10
-174.6578782390818
 20
-256.1159853012299
 30
0.0
 11
-174.6718782390815
 21
-256.1429853012303
 31
0.0
  0
LINE
  5
1EA
  8
AM_0
  6
CONTINUOUS
 62
     7
 10
-174.6718782390815
 20
-256.1429853012303
 30
0.0
 11
-174.6848782390819
 21
-256.1709853012298
 31
0.0
  0
LINE
  5
1EB
  8
AM_0
  6
CONTINUOUS
 62
     7
 10
-174.6848782390819
 20
-256.1709853012298
 30
0.0
 11
-174.6978782390818
 21
-256.1989853012302
 31
0.0
  0
LINE
  5
1EC
  8
AM_0
  6
CONTINUOUS
 62
     7
 10
-174.6978782390818
 20
-256.1989853012302
 30
0.0
 11
-174.7108782390817
 21
-256.2269853012301
 31
0.0
  0
LINE
  5
1ED
  8
AM_0
  6
CONTINUOUS
 62
     7
 10
-174.7108782390817
 20
-256.2269853012301
 30
0.0
 11
-174.7228782390819
 21
-256.2539853012299
 31
0.0
  0
LINE
  5
1EE
  8
AM_0
  6
CONTINUOUS
 62
     7
 10
-174.7228782390819
 20
-256.2539853012299
 30
0.0
 11
-174.7358782390818
 21
-256.2819853012297
 31
0.0
  0
LINE
  5
1EF
  8
AM_0
  6
CONTINUOUS
 62
     7
 10
-174.7358782390818
 20
-256.2819853012297
 30
0.0
 11
-174.747878239082
 21
-256.30998530123
 31
0.0
  0
LINE
  5
1F0
  8
AM_0
  6
CONTINUOUS
 62
     7
 10
-174.747878239082
 20
-256.30998530123
 30
0.0
 11
-174.7608782390819
 21
-256.3389853012299
 31
0.0
  0
LINE
  5
1F1
  8
AM_0
  6
CONTINUOUS
 62
     7
 10
-174.7608782390819
 20
-256.3389853012299
 30
0.0
 11
-174.7728782390816
 21
-256.3669853012301
 31
0.0
  0
LINE
  5
1F2
  8
AM_0
  6
CONTINUOUS
 62
     7
 10
-174.7728782390816
 20
-256.3669853012301
 30
0.0
 11
-174.7838782390816
 21
-256.3949853012301
 31
0.0
  0
LINE
  5
1F3
  8
AM_0
  6
CONTINUOUS
 62
     7
 10
-174.7838782390816
 20
-256.3949853012301
 30
0.0
 11
-174.7958782390817
 21
-256.42298530123
 31
0.0
  0
LINE
  5
1F4
  8
AM_0
  6
CONTINUOUS
 62
     7
 10
-174.7958782390817
 20
-256.42298530123
 30
0.0
 11
-174.8068782390817
 21
-256.4519853012299
 31
0.0
  0
LINE
  5
1F5
  8
AM_0
  6
CONTINUOUS
 62
     7
 10
-174.8068782390817
 20
-256.4519853012299
 30
0.0
 11
-174.8188782390819
 21
-256.4799853012298
 31
0.0
  0
LINE
  5
1F6
  8
AM_0
  6
CONTINUOUS
 62
     7
 10
-174.8188782390819
 20
-256.4799853012298
 30
0.0
 11
-174.8408782390818
 21
-256.53798530123
 31
0.0
  0
LINE
  5
1F7
  8
AM_0
  6
CONTINUOUS
 62
     7
 10
-174.8408782390818
 20
-256.53798530123
 30
0.0
 11
-174.8518782390818
 21
-256.5659853012298
 31
0.0
  0
LINE
  5
1F8
  8
AM_0
  6
CONTINUOUS
 62
     7
 10
-174.8518782390818
 20
-256.5659853012298
 30
0.0
 11
-174.8618782390815
 21
-256.5949853012298
 31
0.0
  0
LINE
  5
1F9
  8
AM_0
  6
CONTINUOUS
 62
     7
 10
-174.8618782390815
 20
-256.5949853012298
 30
0.0
 11
-174.872878239082
 21
-256.6239853012299
 31
0.0
  0
LINE
  5
1FA
  8
AM_0
  6
CONTINUOUS
 62
     7
 10
-174.872878239082
 20
-256.6239853012299
 30
0.0
 11
-174.9128782390815
 21
-256.7399853012298
 31
0.0
  0
LINE
  5
1FB
  8
AM_0
  6
CONTINUOUS
 62
     7
 10
-174.9128782390815
 20
-256.7399853012298
 30
0.0
 11
-174.9218782390815
 21
-256.7689853012297
 31
0.0
  0
LINE
  5
1FC
  8
AM_0
  6
CONTINUOUS
 62
     7
 10
-174.9218782390815
 20
-256.7689853012297
 30
0.0
 11
-174.9318782390817
 21
-256.79798530123
 31
0.0
  0
LINE
  5
1FD
  8
AM_0
  6
CONTINUOUS
 62
     7
 10
-174.9318782390817
 20
-256.79798530123
 30
0.0
 11
-174.9408782390817
 21
-256.8269853012299
 31
0.0
  0
LINE
  5
1FE
  8
AM_0
  6
CONTINUOUS
 62
     7
 10
-174.9408782390817
 20
-256.8269853012299
 30
0.0
 11
-174.9498782390817
 21
-256.8569853012301
 31
0.0
  0
LINE
  5
1FF
  8
AM_0
  6
CONTINUOUS
 62
     7
 10
-174.9498782390817
 20
-256.8569853012301
 30
0.0
 11
-174.9588782390817
 21
-256.8859853012301
 31
0.0
  0
LINE
  5
200
  8
AM_0
  6
CONTINUOUS
 62
     7
 10
-174.9588782390817
 20
-256.8859853012301
 30
0.0
 11
-174.9668782390816
 21
-256.9149853012301
 31
0.0
  0
LINE
  5
201
  8
AM_0
  6
CONTINUOUS
 62
     7
 10
-174.9668782390816
 20
-256.9149853012301
 30
0.0
 11
-174.9758782390816
 21
-256.94498530123
 31
0.0
  0
LINE
  5
202
  8
AM_0
  6
CONTINUOUS
 62
     7
 10
-174.9758782390816
 20
-256.94498530123
 30
0.0
 11
-174.9838782390818
 21
-256.9739853012298
 31
0.0
  0
LINE
  5
203
  8
AM_0
  6
CONTINUOUS
 62
     7
 10
-174.9838782390818
 20
-256.9739853012298
 30
0.0
 11
-174.9998782390819
 21
-257.0339853012298
 31
0.0
  0
LINE
  5
204
  8
AM_0
  6
CONTINUOUS
 62
     7
 10
-174.9998782390819
 20
-257.0339853012298
 30
0.0
 11
-175.0078782390817
 21
-257.0629853012301
 31
0.0
  0
LINE
  5
205
  8
AM_0
  6
CONTINUOUS
 62
     7
 10
-175.0078782390817
 20
-257.0629853012301
 30
0.0
 11
-175.0148782390818
 21
-257.0929853012301
 31
0.0
  0
LINE
  5
206
  8
AM_0
  6
CONTINUOUS
 62
     7
 10
-175.0148782390818
 20
-257.0929853012301
 30
0.0
 11
-175.0228782390816
 21
-257.12298530123
 31
0.0
  0
LINE
  5
207
  8
AM_0
  6
CONTINUOUS
 62
     7
 10
-175.0228782390816
 20
-257.12298530123
 30
0.0
 11
-175.0298782390817
 21
-257.1529853012299
 31
0.0
  0
LINE
  5
208
  8
AM_0
  6
CONTINUOUS
 62
     7
 10
-175.0298782390817
 20
-257.1529853012299
 30
0.0
 11
-175.0368782390817
 21
-257.1819853012298
 31
0.0
  0
LINE
  5
209
  8
AM_0
  6
CONTINUOUS
 62
     7
 10
-175.0368782390817
 20
-257.1819853012298
 30
0.0
 11
-175.0438782390818
 21
-257.2119853012298
 31
0.0
  0
LINE
  5
20A
  8
AM_0
  6
CONTINUOUS
 62
     7
 10
-175.0438782390818
 20
-257.2119853012298
 30
0.0
 11
-175.0498782390816
 21
-257.2419853012301
 31
0.0
  0
LINE
  5
20B
  8
AM_0
  6
CONTINUOUS
 62
     7
 10
-175.0498782390816
 20
-257.2419853012301
 30
0.0
 11
-175.0568782390817
 21
-257.2719853012298
 31
0.0
  0
LINE
  5
20C
  8
AM_0
  6
CONTINUOUS
 62
     7
 10
-175.0568782390817
 20
-257.2719853012298
 30
0.0
 11
-175.080878239082
 21
-257.3919853012299
 31
0.0
  0
LINE
  5
20D
  8
AM_0
  6
CONTINUOUS
 62
     7
 10
-175.080878239082
 20
-257.3919853012299
 30
0.0
 11
-175.0858782390817
 21
-257.42298530123
 31
0.0
  0
LINE
  5
20E
  8
AM_0
  6
CONTINUOUS
 62
     7
 10
-175.0858782390817
 20
-257.42298530123
 30
0.0
 11
-175.0918782390816
 21
-257.4529853012301
 31
0.0
  0
LINE
  5
20F
  8
AM_0
  6
CONTINUOUS
 62
     7
 10
-175.0918782390816
 20
-257.4529853012301
 30
0.0
 11
-175.1018782390818
 21
-257.5129853012304
 31
0.0
  0
LINE
  5
210
  8
AM_0
  6
CONTINUOUS
 62
     7
 10
-175.1018782390818
 20
-257.5129853012304
 30
0.0
 11
-175.1068782390821
 21
-257.5439853012298
 31
0.0
  0
LINE
  5
211
  8
AM_0
  6
CONTINUOUS
 62
     7
 10
-175.1068782390821
 20
-257.5439853012298
 30
0.0
 11
-175.1108782390818
 21
-257.5739853012302
 31
0.0
  0
LINE
  5
212
  8
AM_0
  6
CONTINUOUS
 62
     7
 10
-175.1108782390818
 20
-257.5739853012302
 30
0.0
 11
-175.1158782390819
 21
-257.6039853012297
 31
0.0
  0
LINE
  5
213
  8
AM_0
  6
CONTINUOUS
 62
     7
 10
-175.1158782390819
 20
-257.6039853012297
 30
0.0
 11
-175.1198782390818
 21
-257.6349853012301
 31
0.0
  0
LINE
  5
214
  8
AM_0
  6
CONTINUOUS
 62
     7
 10
-175.1198782390818
 20
-257.6349853012301
 30
0.0
 11
-175.1278782390816
 21
-257.6949853012298
 31
0.0
  0
LINE
  5
215
  8
AM_0
  6
CONTINUOUS
 62
     7
 10
-175.1278782390816
 20
-257.6949853012298
 30
0.0
 11
-175.1318782390815
 21
-257.7259853012299
 31
0.0
  0
LINE
  5
216
  8
AM_0
  6
CONTINUOUS
 62
     7
 10
-175.1318782390815
 20
-257.7259853012299
 30
0.0
 11
-175.1348782390817
 21
-257.7559853012301
 31
0.0
  0
LINE
  5
217
  8
AM_0
  6
CONTINUOUS
 62
     7
 10
-175.1348782390817
 20
-257.7559853012301
 30
0.0
 11
-175.1378782390818
 21
-257.7869853012297
 31
0.0
  0
LINE
  5
218
  8
AM_0
  6
CONTINUOUS
 62
     7
 10
-175.1378782390818
 20
-257.7869853012297
 30
0.0
 11
-175.1408782390815
 21
-257.8169853012297
 31
0.0
  0
LINE
  5
219
  8
AM_0
  6
CONTINUOUS
 62
     7
 10
-175.1408782390815
 20
-257.8169853012297
 30
0.0
 11
-175.1438782390817
 21
-257.8479853012302
 31
0.0
  0
LINE
  5
21A
  8
AM_0
  6
CONTINUOUS
 62
     7
 10
-175.1438782390817
 20
-257.8479853012302
 30
0.0
 11
-175.1468782390818
 21
-257.8779853012298
 31
0.0
  0
LINE
  5
21B
  8
AM_0
  6
CONTINUOUS
 62
     7
 10
-175.1468782390818
 20
-257.8779853012298
 30
0.0
 11
-175.1498782390815
 21
-257.9089853012298
 31
0.0
  0
LINE
  5
21C
  8
AM_0
  6
CONTINUOUS
 62
     7
 10
-175.1498782390815
 20
-257.9089853012298
 30
0.0
 11
-175.151878239082
 21
-257.93898530123
 31
0.0
  0
LINE
  5
21D
  8
AM_0
  6
CONTINUOUS
 62
     7
 10
-175.151878239082
 20
-257.93898530123
 30
0.0
 11
-175.1558782390819
 21
-258.0009853012301
 31
0.0
  0
LINE
  5
21E
  8
AM_0
  6
CONTINUOUS
 62
     7
 10
-175.1558782390819
 20
-258.0009853012301
 30
0.0
 11
-175.1578782390818
 21
-258.0309853012296
 31
0.0
  0
LINE
  5
21F
  8
AM_0
  6
CONTINUOUS
 62
     7
 10
-175.1578782390818
 20
-258.0309853012296
 30
0.0
 11
-175.1598782390818
 21
-258.0619853012298
 31
0.0
  0
LINE
  5
220
  8
AM_0
  6
CONTINUOUS
 62
     7
 10
-175.1598782390818
 20
-258.0619853012298
 30
0.0
 11
-175.160878239082
 21
-258.0919853012298
 31
0.0
  0
LINE
  5
221
  8
AM_0
  6
CONTINUOUS
 62
     7
 10
-175.160878239082
 20
-258.0919853012298
 30
0.0
 11
-175.1628782390815
 21
-258.1539853012299
 31
0.0
  0
LINE
  5
222
  8
AM_0
  6
CONTINUOUS
 62
     7
 10
-175.1628782390815
 20
-258.1539853012299
 30
0.0
 11
-175.1638782390817
 21
-258.1839853012301
 31
0.0
  0
LINE
  5
223
  8
AM_0
  6
CONTINUOUS
 62
     7
 10
-175.1638782390817
 20
-258.1839853012301
 30
0.0
 11
-175.1648782390819
 21
-258.2149853012299
 31
0.0
  0
LINE
  5
224
  8
AM_0
  6
CONTINUOUS
 62
     7
 10
-175.1648782390819
 20
-258.2149853012299
 30
0.0
 11
-175.1648782390819
 21
-258.2459853012298
 31
0.0
  0
LINE
  5
225
  8
AM_0
  6
CONTINUOUS
 62
     7
 10
-175.1648782390819
 20
-258.2459853012298
 30
0.0
 11
-175.1658782390816
 21
-258.2759853012301
 31
0.0
  0
LINE
  5
226
  8
AM_0
  6
CONTINUOUS
 62
     7
 10
-175.1658782390816
 20
-258.2759853012301
 30
0.0
 11
-175.1658782390816
 21
-258.3069853012298
 31
0.0
  0
ENDBLK
  5
F4
  8
0
  0
BLOCK
  8
0
  2
DC_GROUP_22
 70
     0
 10
0.0
 20
0.0
 30
0.0
  3
DC_GROUP_22
  1

  0
LINE
  5
227
  8
AM_0
  6
CONTINUOUS
 62
     7
 10
-155.0948782390817
 20
-238.2359853012298
 30
0.0
 11
-155.1258782390817
 21
-238.2359853012298
 31
0.0
  0
LINE
  5
228
  8
AM_0
  6
CONTINUOUS
 62
     7
 10
-155.1258782390817
 20
-238.2359853012298
 30
0.0
 11
-155.1558782390819
 21
-238.23698530123
 31
0.0
  0
LINE
  5
229
  8
AM_0
  6
CONTINUOUS
 62
     7
 10
-155.1558782390819
 20
-238.23698530123
 30
0.0
 11
-155.1868782390818
 21
-238.23698530123
 31
0.0
  0
LINE
  5
22A
  8
AM_0
  6
CONTINUOUS
 62
     7
 10
-155.1868782390818
 20
-238.23698530123
 30
0.0
 11
-155.2178782390818
 21
-238.2379853012299
 31
0.0
  0
LINE
  5
22B
  8
AM_0
  6
CONTINUOUS
 62
     7
 10
-155.2178782390818
 20
-238.2379853012299
 30
0.0
 11
-155.247878239082
 21
-238.2389853012299
 31
0.0
  0
LINE
  5
22C
  8
AM_0
  6
CONTINUOUS
 62
     7
 10
-155.247878239082
 20
-238.2389853012299
 30
0.0
 11
-155.3098782390819
 21
-238.2409853012298
 31
0.0
  0
LINE
  5
22D
  8
AM_0
  6
CONTINUOUS
 62
     7
 10
-155.3098782390819
 20
-238.2409853012298
 30
0.0
 11
-155.3398782390816
 21
-238.2419853012301
 31
0.0
  0
LINE
  5
22E
  8
AM_0
  6
CONTINUOUS
 62
     7
 10
-155.3398782390816
 20
-238.2419853012301
 30
0.0
 11
-155.401878239082
 21
-238.2459853012299
 31
0.0
  0
LINE
  5
22F
  8
AM_0
  6
CONTINUOUS
 62
     7
 10
-155.401878239082
 20
-238.2459853012299
 30
0.0
 11
-155.4318782390817
 21
-238.2479853012298
 31
0.0
  0
LINE
  5
230
  8
AM_0
  6
CONTINUOUS
 62
     7
 10
-155.4318782390817
 20
-238.2479853012298
 30
0.0
 11
-155.4628782390816
 21
-238.24998530123
 31
0.0
  0
LINE
  5
231
  8
AM_0
  6
CONTINUOUS
 62
     7
 10
-155.4628782390816
 20
-238.24998530123
 30
0.0
 11
-155.4928782390818
 21
-238.2519853012301
 31
0.0
  0
LINE
  5
232
  8
AM_0
  6
CONTINUOUS
 62
     7
 10
-155.4928782390818
 20
-238.2519853012301
 30
0.0
 11
-155.5238782390818
 21
-238.25498530123
 31
0.0
  0
LINE
  5
233
  8
AM_0
  6
CONTINUOUS
 62
     7
 10
-155.5238782390818
 20
-238.25498530123
 30
0.0
 11
-155.5538782390815
 21
-238.2579853012297
 31
0.0
  0
LINE
  5
234
  8
AM_0
  6
CONTINUOUS
 62
     7
 10
-155.5538782390815
 20
-238.2579853012297
 30
0.0
 11
-155.5848782390819
 21
-238.2609853012301
 31
0.0
  0
LINE
  5
235
  8
AM_0
  6
CONTINUOUS
 62
     7
 10
-155.5848782390819
 20
-238.2609853012301
 30
0.0
 11
-155.6148782390817
 21
-238.2639853012298
 31
0.0
  0
LINE
  5
236
  8
AM_0
  6
CONTINUOUS
 62
     7
 10
-155.6148782390817
 20
-238.2639853012298
 30
0.0
 11
-155.6458782390816
 21
-238.2669853012299
 31
0.0
  0
LINE
  5
237
  8
AM_0
  6
CONTINUOUS
 62
     7
 10
-155.6458782390816
 20
-238.2669853012299
 30
0.0
 11
-155.6758782390818
 21
-238.2699853012301
 31
0.0
  0
LINE
  5
238
  8
AM_0
  6
CONTINUOUS
 62
     7
 10
-155.6758782390818
 20
-238.2699853012301
 30
0.0
 11
-155.7068782390818
 21
-238.2739853012299
 31
0.0
  0
LINE
  5
239
  8
AM_0
  6
CONTINUOUS
 62
     7
 10
-155.7068782390818
 20
-238.2739853012299
 30
0.0
 11
-155.7668782390817
 21
-238.2819853012297
 31
0.0
  0
LINE
  5
23A
  8
AM_0
  6
CONTINUOUS
 62
     7
 10
-155.7668782390817
 20
-238.2819853012297
 30
0.0
 11
-155.7978782390817
 21
-238.2859853012296
 31
0.0
  0
LINE
  5
23B
  8
AM_0
  6
CONTINUOUS
 62
     7
 10
-155.7978782390817
 20
-238.2859853012296
 30
0.0
 11
-155.8278782390819
 21
-238.2909853012296
 31
0.0
  0
LINE
  5
23C
  8
AM_0
  6
CONTINUOUS
 62
     7
 10
-155.8278782390819
 20
-238.2909853012296
 30
0.0
 11
-155.8588782390818
 21
-238.2949853012302
 31
0.0
  0
LINE
  5
23D
  8
AM_0
  6
CONTINUOUS
 62
     7
 10
-155.8588782390818
 20
-238.2949853012302
 30
0.0
 11
-155.9488782390815
 21
-238.3099853012301
 31
0.0
  0
LINE
  5
23E
  8
AM_0
  6
CONTINUOUS
 62
     7
 10
-155.9488782390815
 20
-238.3099853012301
 30
0.0
 11
-155.9788782390817
 21
-238.3159853012299
 31
0.0
  0
LINE
  5
23F
  8
AM_0
  6
CONTINUOUS
 62
     7
 10
-155.9788782390817
 20
-238.3159853012299
 30
0.0
 11
-156.0098782390817
 21
-238.3209853012298
 31
0.0
  0
LINE
  5
240
  8
AM_0
  6
CONTINUOUS
 62
     7
 10
-156.0098782390817
 20
-238.3209853012298
 30
0.0
 11
-156.1298782390816
 21
-238.3449853012298
 31
0.0
  0
LINE
  5
241
  8
AM_0
  6
CONTINUOUS
 62
     7
 10
-156.1298782390816
 20
-238.3449853012298
 30
0.0
 11
-156.1598782390818
 21
-238.3519853012301
 31
0.0
  0
LINE
  5
242
  8
AM_0
  6
CONTINUOUS
 62
     7
 10
-156.1598782390818
 20
-238.3519853012301
 30
0.0
 11
-156.1898782390815
 21
-238.3579853012301
 31
0.0
  0
LINE
  5
243
  8
AM_0
  6
CONTINUOUS
 62
     7
 10
-156.1898782390815
 20
-238.3579853012301
 30
0.0
 11
-156.2198782390817
 21
-238.3649853012299
 31
0.0
  0
LINE
  5
244
  8
AM_0
  6
CONTINUOUS
 62
     7
 10
-156.2198782390817
 20
-238.3649853012299
 30
0.0
 11
-156.2488782390817
 21
-238.3719853012302
 31
0.0
  0
LINE
  5
245
  8
AM_0
  6
CONTINUOUS
 62
     7
 10
-156.2488782390817
 20
-238.3719853012302
 30
0.0
 11
-156.2788782390819
 21
-238.3789853012299
 31
0.0
  0
LINE
  5
246
  8
AM_0
  6
CONTINUOUS
 62
     7
 10
-156.2788782390819
 20
-238.3789853012299
 30
0.0
 11
-156.3088782390817
 21
-238.3869853012301
 31
0.0
  0
LINE
  5
247
  8
AM_0
  6
CONTINUOUS
 62
     7
 10
-156.3088782390817
 20
-238.3869853012301
 30
0.0
 11
-156.3388782390819
 21
-238.3939853012297
 31
0.0
  0
LINE
  5
248
  8
AM_0
  6
CONTINUOUS
 62
     7
 10
-156.3388782390819
 20
-238.3939853012297
 30
0.0
 11
-156.3678782390818
 21
-238.4019853012297
 31
0.0
  0
LINE
  5
249
  8
AM_0
  6
CONTINUOUS
 62
     7
 10
-156.3678782390818
 20
-238.4019853012297
 30
0.0
 11
-156.4278782390818
 21
-238.4179853012303
 31
0.0
  0
LINE
  5
24A
  8
AM_0
  6
CONTINUOUS
 62
     7
 10
-156.4278782390818
 20
-238.4179853012303
 30
0.0
 11
-156.4568782390818
 21
-238.4259853012297
 31
0.0
  0
LINE
  5
24B
  8
AM_0
  6
CONTINUOUS
 62
     7
 10
-156.4568782390818
 20
-238.4259853012297
 30
0.0
 11
-156.486878239082
 21
-238.4349853012299
 31
0.0
  0
LINE
  5
24C
  8
AM_0
  6
CONTINUOUS
 62
     7
 10
-156.486878239082
 20
-238.4349853012299
 30
0.0
 11
-156.515878239082
 21
-238.4429853012301
 31
0.0
  0
LINE
  5
24D
  8
AM_0
  6
CONTINUOUS
 62
     7
 10
-156.515878239082
 20
-238.4429853012301
 30
0.0
 11
-156.5448782390815
 21
-238.45198530123
 31
0.0
  0
LINE
  5
24E
  8
AM_0
  6
CONTINUOUS
 62
     7
 10
-156.5448782390815
 20
-238.45198530123
 30
0.0
 11
-156.5748782390817
 21
-238.4609853012298
 31
0.0
  0
LINE
  5
24F
  8
AM_0
  6
CONTINUOUS
 62
     7
 10
-156.5748782390817
 20
-238.4609853012298
 30
0.0
 11
-156.6038782390817
 21
-238.4699853012298
 31
0.0
  0
LINE
  5
250
  8
AM_0
  6
CONTINUOUS
 62
     7
 10
-156.6038782390817
 20
-238.4699853012298
 30
0.0
 11
-156.6328782390817
 21
-238.4799853012298
 31
0.0
  0
LINE
  5
251
  8
AM_0
  6
CONTINUOUS
 62
     7
 10
-156.6328782390817
 20
-238.4799853012298
 30
0.0
 11
-156.6618782390817
 21
-238.4889853012299
 31
0.0
  0
LINE
  5
252
  8
AM_0
  6
CONTINUOUS
 62
     7
 10
-156.6618782390817
 20
-238.4889853012299
 30
0.0
 11
-156.7778782390817
 21
-238.5289853012299
 31
0.0
  0
LINE
  5
253
  8
AM_0
  6
CONTINUOUS
 62
     7
 10
-156.7778782390817
 20
-238.5289853012299
 30
0.0
 11
-156.8068782390817
 21
-238.5399853012302
 31
0.0
  0
LINE
  5
254
  8
AM_0
  6
CONTINUOUS
 62
     7
 10
-156.8068782390817
 20
-238.5399853012302
 30
0.0
 11
-156.8358782390817
 21
-238.5499853012301
 31
0.0
  0
LINE
  5
255
  8
AM_0
  6
CONTINUOUS
 62
     7
 10
-156.8358782390817
 20
-238.5499853012301
 30
0.0
 11
-156.8638782390815
 21
-238.5609853012297
 31
0.0
  0
LINE
  5
256
  8
AM_0
  6
CONTINUOUS
 62
     7
 10
-156.8638782390815
 20
-238.5609853012297
 30
0.0
 11
-156.9218782390815
 21
-238.5829853012301
 31
0.0
  0
LINE
  5
257
  8
AM_0
  6
CONTINUOUS
 62
     7
 10
-156.9218782390815
 20
-238.5829853012301
 30
0.0
 11
-156.9498782390817
 21
-238.5949853012298
 31
0.0
  0
LINE
  5
258
  8
AM_0
  6
CONTINUOUS
 62
     7
 10
-156.9498782390817
 20
-238.5949853012298
 30
0.0
 11
-156.9788782390817
 21
-238.6059853012299
 31
0.0
  0
LINE
  5
259
  8
AM_0
  6
CONTINUOUS
 62
     7
 10
-156.9788782390817
 20
-238.6059853012299
 30
0.0
 11
-157.0628782390816
 21
-238.6419853012299
 31
0.0
  0
LINE
  5
25A
  8
AM_0
  6
CONTINUOUS
 62
     7
 10
-157.0628782390816
 20
-238.6419853012299
 30
0.0
 11
-157.0918782390816
 21
-238.65398530123
 31
0.0
  0
LINE
  5
25B
  8
AM_0
  6
CONTINUOUS
 62
     7
 10
-157.0918782390816
 20
-238.65398530123
 30
0.0
 11
-157.1198782390818
 21
-238.6659853012296
 31
0.0
  0
LINE
  5
25C
  8
AM_0
  6
CONTINUOUS
 62
     7
 10
-157.1198782390818
 20
-238.6659853012296
 30
0.0
 11
-157.1478782390816
 21
-238.6789853012301
 31
0.0
  0
LINE
  5
25D
  8
AM_0
  6
CONTINUOUS
 62
     7
 10
-157.1478782390816
 20
-238.6789853012301
 30
0.0
 11
-157.1758782390818
 21
-238.6909853012298
 31
0.0
  0
LINE
  5
25E
  8
AM_0
  6
CONTINUOUS
 62
     7
 10
-157.1758782390818
 20
-238.6909853012298
 30
0.0
 11
-157.2028782390819
 21
-238.7039853012301
 31
0.0
  0
LINE
  5
25F
  8
AM_0
  6
CONTINUOUS
 62
     7
 10
-157.2028782390819
 20
-238.7039853012301
 30
0.0
 11
-157.2588782390819
 21
-238.7299853012298
 31
0.0
  0
LINE
  5
260
  8
AM_0
  6
CONTINUOUS
 62
     7
 10
-157.2588782390819
 20
-238.7299853012298
 30
0.0
 11
-157.285878239082
 21
-238.7439853012298
 31
0.0
  0
LINE
  5
261
  8
AM_0
  6
CONTINUOUS
 62
     7
 10
-157.285878239082
 20
-238.7439853012298
 30
0.0
 11
-157.3138782390818
 21
-238.7569853012301
 31
0.0
  0
LINE
  5
262
  8
AM_0
  6
CONTINUOUS
 62
     7
 10
-157.3138782390818
 20
-238.7569853012301
 30
0.0
 11
-157.3408782390818
 21
-238.77098530123
 31
0.0
  0
LINE
  5
263
  8
AM_0
  6
CONTINUOUS
 62
     7
 10
-157.3408782390818
 20
-238.77098530123
 30
0.0
 11
-157.3688782390821
 21
-238.7849853012301
 31
0.0
  0
LINE
  5
264
  8
AM_0
  6
CONTINUOUS
 62
     7
 10
-157.3688782390821
 20
-238.7849853012301
 30
0.0
 11
-157.4228782390817
 21
-238.8129853012301
 31
0.0
  0
LINE
  5
265
  8
AM_0
  6
CONTINUOUS
 62
     7
 10
-157.4228782390817
 20
-238.8129853012301
 30
0.0
 11
-157.4498782390817
 21
-238.8279853012301
 31
0.0
  0
LINE
  5
266
  8
AM_0
  6
CONTINUOUS
 62
     7
 10
-157.4498782390817
 20
-238.8279853012301
 30
0.0
 11
-157.4768782390818
 21
-238.8419853012299
 31
0.0
  0
LINE
  5
267
  8
AM_0
  6
CONTINUOUS
 62
     7
 10
-157.4768782390818
 20
-238.8419853012299
 30
0.0
 11
-157.5578782390819
 21
-238.8869853012301
 31
0.0
  0
LINE
  5
268
  8
AM_0
  6
CONTINUOUS
 62
     7
 10
-157.5578782390819
 20
-238.8869853012301
 30
0.0
 11
-157.5838782390817
 21
-238.9019853012297
 31
0.0
  0
LINE
  5
269
  8
AM_0
  6
CONTINUOUS
 62
     7
 10
-157.5838782390817
 20
-238.9019853012297
 30
0.0
 11
-157.6108782390818
 21
-238.9169853012298
 31
0.0
  0
LINE
  5
26A
  8
AM_0
  6
CONTINUOUS
 62
     7
 10
-157.6108782390818
 20
-238.9169853012298
 30
0.0
 11
-157.6368782390816
 21
-238.93298530123
 31
0.0
  0
LINE
  5
26B
  8
AM_0
  6
CONTINUOUS
 62
     7
 10
-157.6368782390816
 20
-238.93298530123
 30
0.0
 11
-157.6638782390817
 21
-238.9489853012302
 31
0.0
  0
LINE
  5
26C
  8
AM_0
  6
CONTINUOUS
 62
     7
 10
-157.6638782390817
 20
-238.9489853012302
 30
0.0
 11
-157.6898782390815
 21
-238.96398530123
 31
0.0
  0
LINE
  5
26D
  8
AM_0
  6
CONTINUOUS
 62
     7
 10
-157.6898782390815
 20
-238.96398530123
 30
0.0
 11
-157.7158782390818
 21
-238.9799853012299
 31
0.0
  0
LINE
  5
26E
  8
AM_0
  6
CONTINUOUS
 62
     7
 10
-157.7158782390818
 20
-238.9799853012299
 30
0.0
 11
-157.7418782390816
 21
-238.9969853012301
 31
0.0
  0
LINE
  5
26F
  8
AM_0
  6
CONTINUOUS
 62
     7
 10
-157.7418782390816
 20
-238.9969853012301
 30
0.0
 11
-157.7938782390818
 21
-239.0289853012298
 31
0.0
  0
LINE
  5
270
  8
AM_0
  6
CONTINUOUS
 62
     7
 10
-157.7938782390818
 20
-239.0289853012298
 30
0.0
 11
-157.8198782390816
 21
-239.0459853012297
 31
0.0
  0
LINE
  5
271
  8
AM_0
  6
CONTINUOUS
 62
     7
 10
-157.8198782390816
 20
-239.0459853012297
 30
0.0
 11
-157.8448782390817
 21
-239.0629853012301
 31
0.0
  0
LINE
  5
272
  8
AM_0
  6
CONTINUOUS
 62
     7
 10
-157.8448782390817
 20
-239.0629853012301
 30
0.0
 11
-157.870878239082
 21
-239.0799853012297
 31
0.0
  0
LINE
  5
273
  8
AM_0
  6
CONTINUOUS
 62
     7
 10
-157.870878239082
 20
-239.0799853012297
 30
0.0
 11
-157.8958782390816
 21
-239.0969853012299
 31
0.0
  0
LINE
  5
274
  8
AM_0
  6
CONTINUOUS
 62
     7
 10
-157.8958782390816
 20
-239.0969853012299
 30
0.0
 11
-157.9218782390815
 21
-239.1139853012298
 31
0.0
  0
LINE
  5
275
  8
AM_0
  6
CONTINUOUS
 62
     7
 10
-157.9218782390815
 20
-239.1139853012298
 30
0.0
 11
-157.9468782390816
 21
-239.1319853012301
 31
0.0
  0
LINE
  5
276
  8
AM_0
  6
CONTINUOUS
 62
     7
 10
-157.9468782390816
 20
-239.1319853012301
 30
0.0
 11
-157.9718782390817
 21
-239.14898530123
 31
0.0
  0
LINE
  5
277
  8
AM_0
  6
CONTINUOUS
 62
     7
 10
-157.9718782390817
 20
-239.14898530123
 30
0.0
 11
-158.0468782390819
 21
-239.2029853012301
 31
0.0
  0
LINE
  5
278
  8
AM_0
  6
CONTINUOUS
 62
     7
 10
-158.0468782390819
 20
-239.2029853012301
 30
0.0
 11
-158.0708782390818
 21
-239.22098530123
 31
0.0
  0
LINE
  5
279
  8
AM_0
  6
CONTINUOUS
 62
     7
 10
-158.0708782390818
 20
-239.22098530123
 30
0.0
 11
-158.0958782390819
 21
-239.2389853012299
 31
0.0
  0
LINE
  5
27A
  8
AM_0
  6
CONTINUOUS
 62
     7
 10
-158.0958782390819
 20
-239.2389853012299
 30
0.0
 11
-158.1198782390818
 21
-239.2579853012297
 31
0.0
  0
LINE
  5
27B
  8
AM_0
  6
CONTINUOUS
 62
     7
 10
-158.1198782390818
 20
-239.2579853012297
 30
0.0
 11
-158.1448782390814
 21
-239.2769853012297
 31
0.0
  0
LINE
  5
27C
  8
AM_0
  6
CONTINUOUS
 62
     7
 10
-158.1448782390814
 20
-239.2769853012297
 30
0.0
 11
-158.1688782390818
 21
-239.2949853012302
 31
0.0
  0
LINE
  5
27D
  8
AM_0
  6
CONTINUOUS
 62
     7
 10
-158.1688782390818
 20
-239.2949853012302
 30
0.0
 11
-158.2168782390816
 21
-239.3329853012301
 31
0.0
  0
LINE
  5
27E
  8
AM_0
  6
CONTINUOUS
 62
     7
 10
-158.2168782390816
 20
-239.3329853012301
 30
0.0
 11
-158.2408782390819
 21
-239.3529853012301
 31
0.0
  0
LINE
  5
27F
  8
AM_0
  6
CONTINUOUS
 62
     7
 10
-158.2408782390819
 20
-239.3529853012301
 30
0.0
 11
-158.2648782390818
 21
-239.3719853012302
 31
0.0
  0
LINE
  5
280
  8
AM_0
  6
CONTINUOUS
 62
     7
 10
-158.2648782390818
 20
-239.3719853012302
 30
0.0
 11
-158.2878782390815
 21
-239.3919853012301
 31
0.0
  0
LINE
  5
281
  8
AM_0
  6
CONTINUOUS
 62
     7
 10
-158.2878782390815
 20
-239.3919853012301
 30
0.0
 11
-158.3118782390818
 21
-239.4109853012299
 31
0.0
  0
LINE
  5
282
  8
AM_0
  6
CONTINUOUS
 62
     7
 10
-158.3118782390818
 20
-239.4109853012299
 30
0.0
 11
-158.3578782390816
 21
-239.4509853012302
 31
0.0
  0
LINE
  5
283
  8
AM_0
  6
CONTINUOUS
 62
     7
 10
-158.3578782390816
 20
-239.4509853012302
 30
0.0
 11
-158.381878239082
 21
-239.4709853012299
 31
0.0
  0
LINE
  5
284
  8
AM_0
  6
CONTINUOUS
 62
     7
 10
-158.381878239082
 20
-239.4709853012299
 30
0.0
 11
-158.4048782390817
 21
-239.4909853012299
 31
0.0
  0
LINE
  5
285
  8
AM_0
  6
CONTINUOUS
 62
     7
 10
-158.4048782390817
 20
-239.4909853012299
 30
0.0
 11
-158.4278782390818
 21
-239.51198530123
 31
0.0
  0
LINE
  5
286
  8
AM_0
  6
CONTINUOUS
 62
     7
 10
-158.4278782390818
 20
-239.51198530123
 30
0.0
 11
-158.4498782390817
 21
-239.5319853012297
 31
0.0
  0
LINE
  5
287
  8
AM_0
  6
CONTINUOUS
 62
     7
 10
-158.4498782390817
 20
-239.5319853012297
 30
0.0
 11
-158.495878239082
 21
-239.5739853012299
 31
0.0
  0
LINE
  5
288
  8
AM_0
  6
CONTINUOUS
 62
     7
 10
-158.495878239082
 20
-239.5739853012299
 30
0.0
 11
-158.5838782390817
 21
-239.6579853012302
 31
0.0
  0
LINE
  5
289
  8
AM_0
  6
CONTINUOUS
 62
     7
 10
-158.5838782390817
 20
-239.6579853012302
 30
0.0
 11
-158.6058782390817
 21
-239.6799853012301
 31
0.0
  0
LINE
  5
28A
  8
AM_0
  6
CONTINUOUS
 62
     7
 10
-158.6058782390817
 20
-239.6799853012301
 30
0.0
 11
-158.6278782390816
 21
-239.7009853012298
 31
0.0
  0
ENDBLK
  5
F7
  8
0
  0
BLOCK
  8
0
  2
DC_GROUP_23
 70
     0
 10
0.0
 20
0.0
 30
0.0
  3
DC_GROUP_23
  1

  0
LINE
  5
28B
  8
AM_0
  6
CONTINUOUS
 62
     7
 10
-175.1658782390816
 20
-306.24698530123
 30
0.0
 11
-175.1658782390816
 21
-306.2779853012299
 31
0.0
  0
LINE
  5
28C
  8
AM_0
  6
CONTINUOUS
 62
     7
 10
-175.1658782390816
 20
-306.2779853012299
 30
0.0
 11
-175.1648782390819
 21
-306.3079853012301
 31
0.0
  0
LINE
  5
28D
  8
AM_0
  6
CONTINUOUS
 62
     7
 10
-175.1648782390819
 20
-306.3079853012301
 30
0.0
 11
-175.1648782390819
 21
-306.3389853012299
 31
0.0
  0
LINE
  5
28E
  8
AM_0
  6
CONTINUOUS
 62
     7
 10
-175.1648782390819
 20
-306.3389853012299
 30
0.0
 11
-175.1638782390817
 21
-306.36998530123
 31
0.0
  0
LINE
  5
28F
  8
AM_0
  6
CONTINUOUS
 62
     7
 10
-175.1638782390817
 20
-306.36998530123
 30
0.0
 11
-175.1628782390815
 21
-306.3999853012299
 31
0.0
  0
LINE
  5
290
  8
AM_0
  6
CONTINUOUS
 62
     7
 10
-175.1628782390815
 20
-306.3999853012299
 30
0.0
 11
-175.160878239082
 21
-306.4619853012298
 31
0.0
  0
LINE
  5
291
  8
AM_0
  6
CONTINUOUS
 62
     7
 10
-175.160878239082
 20
-306.4619853012298
 30
0.0
 11
-175.1598782390818
 21
-306.49198530123
 31
0.0
  0
LINE
  5
292
  8
AM_0
  6
CONTINUOUS
 62
     7
 10
-175.1598782390818
 20
-306.49198530123
 30
0.0
 11
-175.1578782390818
 21
-306.5229853012302
 31
0.0
  0
LINE
  5
293
  8
AM_0
  6
CONTINUOUS
 62
     7
 10
-175.1578782390818
 20
-306.5229853012302
 30
0.0
 11
-175.1558782390819
 21
-306.5529853012301
 31
0.0
  0
LINE
  5
294
  8
AM_0
  6
CONTINUOUS
 62
     7
 10
-175.1558782390819
 20
-306.5529853012301
 30
0.0
 11
-175.151878239082
 21
-306.61498530123
 31
0.0
  0
LINE
  5
295
  8
AM_0
  6
CONTINUOUS
 62
     7
 10
-175.151878239082
 20
-306.61498530123
 30
0.0
 11
-175.1498782390815
 21
-306.6449853012299
 31
0.0
  0
LINE
  5
296
  8
AM_0
  6
CONTINUOUS
 62
     7
 10
-175.1498782390815
 20
-306.6449853012299
 30
0.0
 11
-175.1468782390818
 21
-306.6759853012298
 31
0.0
  0
LINE
  5
297
  8
AM_0
  6
CONTINUOUS
 62
     7
 10
-175.1468782390818
 20
-306.6759853012298
 30
0.0
 11
-175.1438782390817
 21
-306.7059853012299
 31
0.0
  0
LINE
  5
298
  8
AM_0
  6
CONTINUOUS
 62
     7
 10
-175.1438782390817
 20
-306.7059853012299
 30
0.0
 11
-175.1408782390815
 21
-306.73698530123
 31
0.0
  0
LINE
  5
299
  8
AM_0
  6
CONTINUOUS
 62
     7
 10
-175.1408782390815
 20
-306.73698530123
 30
0.0
 11
-175.1378782390818
 21
-306.76698530123
 31
0.0
  0
LINE
  5
29A
  8
AM_0
  6
CONTINUOUS
 62
     7
 10
-175.1378782390818
 20
-306.76698530123
 30
0.0
 11
-175.1348782390817
 21
-306.79798530123
 31
0.0
  0
LINE
  5
29B
  8
AM_0
  6
CONTINUOUS
 62
     7
 10
-175.1348782390817
 20
-306.79798530123
 30
0.0
 11
-175.1318782390815
 21
-306.8279853012299
 31
0.0
  0
LINE
  5
29C
  8
AM_0
  6
CONTINUOUS
 62
     7
 10
-175.1318782390815
 20
-306.8279853012299
 30
0.0
 11
-175.1278782390816
 21
-306.8589853012299
 31
0.0
  0
LINE
  5
29D
  8
AM_0
  6
CONTINUOUS
 62
     7
 10
-175.1278782390816
 20
-306.8589853012299
 30
0.0
 11
-175.1198782390818
 21
-306.9189853012297
 31
0.0
  0
LINE
  5
29E
  8
AM_0
  6
CONTINUOUS
 62
     7
 10
-175.1198782390818
 20
-306.9189853012297
 30
0.0
 11
-175.1158782390819
 21
-306.94998530123
 31
0.0
  0
LINE
  5
29F
  8
AM_0
  6
CONTINUOUS
 62
     7
 10
-175.1158782390819
 20
-306.94998530123
 30
0.0
 11
-175.1108782390818
 21
-306.9799853012299
 31
0.0
  0
LINE
  5
2A0
  8
AM_0
  6
CONTINUOUS
 62
     7
 10
-175.1108782390818
 20
-306.9799853012299
 30
0.0
 11
-175.1068782390821
 21
-307.0099853012301
 31
0.0
  0
LINE
  5
2A1
  8
AM_0
  6
CONTINUOUS
 62
     7
 10
-175.1068782390821
 20
-307.0099853012301
 30
0.0
 11
-175.1018782390818
 21
-307.0409853012297
 31
0.0
  0
LINE
  5
2A2
  8
AM_0
  6
CONTINUOUS
 62
     7
 10
-175.1018782390818
 20
-307.0409853012297
 30
0.0
 11
-175.0918782390816
 21
-307.1009853012299
 31
0.0
  0
LINE
  5
2A3
  8
AM_0
  6
CONTINUOUS
 62
     7
 10
-175.0918782390816
 20
-307.1009853012299
 30
0.0
 11
-175.0858782390817
 21
-307.1309853012299
 31
0.0
  0
LINE
  5
2A4
  8
AM_0
  6
CONTINUOUS
 62
     7
 10
-175.0858782390817
 20
-307.1309853012299
 30
0.0
 11
-175.080878239082
 21
-307.1609853012299
 31
0.0
  0
LINE
  5
2A5
  8
AM_0
  6
CONTINUOUS
 62
     7
 10
-175.080878239082
 20
-307.1609853012299
 30
0.0
 11
-175.0748782390817
 21
-307.19198530123
 31
0.0
  0
LINE
  5
2A6
  8
AM_0
  6
CONTINUOUS
 62
     7
 10
-175.0748782390817
 20
-307.19198530123
 30
0.0
 11
-175.0568782390817
 21
-307.2819853012298
 31
0.0
  0
LINE
  5
2A7
  8
AM_0
  6
CONTINUOUS
 62
     7
 10
-175.0568782390817
 20
-307.2819853012298
 30
0.0
 11
-175.0498782390816
 21
-307.3119853012299
 31
0.0
  0
LINE
  5
2A8
  8
AM_0
  6
CONTINUOUS
 62
     7
 10
-175.0498782390816
 20
-307.3119853012299
 30
0.0
 11
-175.0438782390818
 21
-307.3419853012298
 31
0.0
  0
LINE
  5
2A9
  8
AM_0
  6
CONTINUOUS
 62
     7
 10
-175.0438782390818
 20
-307.3419853012298
 30
0.0
 11
-175.0368782390817
 21
-307.3709853012297
 31
0.0
  0
LINE
  5
2AA
  8
AM_0
  6
CONTINUOUS
 62
     7
 10
-175.0368782390817
 20
-307.3709853012297
 30
0.0
 11
-175.0228782390816
 21
-307.4309853012298
 31
0.0
  0
LINE
  5
2AB
  8
AM_0
  6
CONTINUOUS
 62
     7
 10
-175.0228782390816
 20
-307.4309853012298
 30
0.0
 11
-175.0148782390818
 21
-307.4609853012299
 31
0.0
  0
LINE
  5
2AC
  8
AM_0
  6
CONTINUOUS
 62
     7
 10
-175.0148782390818
 20
-307.4609853012299
 30
0.0
 11
-175.0078782390817
 21
-307.4909853012298
 31
0.0
  0
LINE
  5
2AD
  8
AM_0
  6
CONTINUOUS
 62
     7
 10
-175.0078782390817
 20
-307.4909853012298
 30
0.0
 11
-174.9998782390819
 21
-307.51998530123
 31
0.0
  0
LINE
  5
2AE
  8
AM_0
  6
CONTINUOUS
 62
     7
 10
-174.9998782390819
 20
-307.51998530123
 30
0.0
 11
-174.9918782390816
 21
-307.5499853012301
 31
0.0
  0
LINE
  5
2AF
  8
AM_0
  6
CONTINUOUS
 62
     7
 10
-174.9918782390816
 20
-307.5499853012301
 30
0.0
 11
-174.9838782390818
 21
-307.5789853012299
 31
0.0
  0
LINE
  5
2B0
  8
AM_0
  6
CONTINUOUS
 62
     7
 10
-174.9838782390818
 20
-307.5789853012299
 30
0.0
 11
-174.9758782390816
 21
-307.6089853012299
 31
0.0
  0
LINE
  5
2B1
  8
AM_0
  6
CONTINUOUS
 62
     7
 10
-174.9758782390816
 20
-307.6089853012299
 30
0.0
 11
-174.9668782390816
 21
-307.6379853012299
 31
0.0
  0
LINE
  5
2B2
  8
AM_0
  6
CONTINUOUS
 62
     7
 10
-174.9668782390816
 20
-307.6379853012299
 30
0.0
 11
-174.9588782390817
 21
-307.66798530123
 31
0.0
  0
LINE
  5
2B3
  8
AM_0
  6
CONTINUOUS
 62
     7
 10
-174.9588782390817
 20
-307.66798530123
 30
0.0
 11
-174.9498782390817
 21
-307.6969853012299
 31
0.0
  0
LINE
  5
2B4
  8
AM_0
  6
CONTINUOUS
 62
     7
 10
-174.9498782390817
 20
-307.6969853012299
 30
0.0
 11
-174.9408782390817
 21
-307.7269853012299
 31
0.0
  0
LINE
  5
2B5
  8
AM_0
  6
CONTINUOUS
 62
     7
 10
-174.9408782390817
 20
-307.7269853012299
 30
0.0
 11
-174.9318782390817
 21
-307.7559853012299
 31
0.0
  0
LINE
  5
2B6
  8
AM_0
  6
CONTINUOUS
 62
     7
 10
-174.9318782390817
 20
-307.7559853012299
 30
0.0
 11
-174.9218782390815
 21
-307.78498530123
 31
0.0
  0
LINE
  5
2B7
  8
AM_0
  6
CONTINUOUS
 62
     7
 10
-174.9218782390815
 20
-307.78498530123
 30
0.0
 11
-174.9128782390815
 21
-307.81398530123
 31
0.0
  0
LINE
  5
2B8
  8
AM_0
  6
CONTINUOUS
 62
     7
 10
-174.9128782390815
 20
-307.81398530123
 30
0.0
 11
-174.872878239082
 21
-307.9299853012301
 31
0.0
  0
LINE
  5
2B9
  8
AM_0
  6
CONTINUOUS
 62
     7
 10
-174.872878239082
 20
-307.9299853012301
 30
0.0
 11
-174.8618782390815
 21
-307.9589853012301
 31
0.0
  0
LINE
  5
2BA
  8
AM_0
  6
CONTINUOUS
 62
     7
 10
-174.8618782390815
 20
-307.9589853012301
 30
0.0
 11
-174.8518782390818
 21
-307.9879853012299
 31
0.0
  0
LINE
  5
2BB
  8
AM_0
  6
CONTINUOUS
 62
     7
 10
-174.8518782390818
 20
-307.9879853012299
 30
0.0
 11
-174.8408782390818
 21
-308.0159853012295
 31
0.0
  0
LINE
  5
2BC
  8
AM_0
  6
CONTINUOUS
 62
     7
 10
-174.8408782390818
 20
-308.0159853012295
 30
0.0
 11
-174.8188782390819
 21
-308.0739853012299
 31
0.0
  0
LINE
  5
2BD
  8
AM_0
  6
CONTINUOUS
 62
     7
 10
-174.8188782390819
 20
-308.0739853012299
 30
0.0
 11
-174.8068782390817
 21
-308.1019853012299
 31
0.0
  0
LINE
  5
2BE
  8
AM_0
  6
CONTINUOUS
 62
     7
 10
-174.8068782390817
 20
-308.1019853012299
 30
0.0
 11
-174.7958782390817
 21
-308.1299853012301
 31
0.0
  0
LINE
  5
2BF
  8
AM_0
  6
CONTINUOUS
 62
     7
 10
-174.7958782390817
 20
-308.1299853012301
 30
0.0
 11
-174.7838782390816
 21
-308.1589853012298
 31
0.0
  0
LINE
  5
2C0
  8
AM_0
  6
CONTINUOUS
 62
     7
 10
-174.7838782390816
 20
-308.1589853012298
 30
0.0
 11
-174.7728782390816
 21
-308.1869853012299
 31
0.0
  0
LINE
  5
2C1
  8
AM_0
  6
CONTINUOUS
 62
     7
 10
-174.7728782390816
 20
-308.1869853012299
 30
0.0
 11
-174.7608782390819
 21
-308.2149853012298
 31
0.0
  0
LINE
  5
2C2
  8
AM_0
  6
CONTINUOUS
 62
     7
 10
-174.7608782390819
 20
-308.2149853012298
 30
0.0
 11
-174.747878239082
 21
-308.24298530123
 31
0.0
  0
LINE
  5
2C3
  8
AM_0
  6
CONTINUOUS
 62
     7
 10
-174.747878239082
 20
-308.24298530123
 30
0.0
 11
-174.7358782390818
 21
-308.2719853012298
 31
0.0
  0
LINE
  5
2C4
  8
AM_0
  6
CONTINUOUS
 62
     7
 10
-174.7358782390818
 20
-308.2719853012298
 30
0.0
 11
-174.7228782390819
 21
-308.29998530123
 31
0.0
  0
LINE
  5
2C5
  8
AM_0
  6
CONTINUOUS
 62
     7
 10
-174.7228782390819
 20
-308.29998530123
 30
0.0
 11
-174.7108782390817
 21
-308.3269853012299
 31
0.0
  0
LINE
  5
2C6
  8
AM_0
  6
CONTINUOUS
 62
     7
 10
-174.7108782390817
 20
-308.3269853012299
 30
0.0
 11
-174.6978782390818
 21
-308.3549853012299
 31
0.0
  0
LINE
  5
2C7
  8
AM_0
  6
CONTINUOUS
 62
     7
 10
-174.6978782390818
 20
-308.3549853012299
 30
0.0
 11
-174.6848782390819
 21
-308.38298530123
 31
0.0
  0
LINE
  5
2C8
  8
AM_0
  6
CONTINUOUS
 62
     7
 10
-174.6848782390819
 20
-308.38298530123
 30
0.0
 11
-174.6718782390815
 21
-308.4109853012296
 31
0.0
  0
LINE
  5
2C9
  8
AM_0
  6
CONTINUOUS
 62
     7
 10
-174.6718782390815
 20
-308.4109853012296
 30
0.0
 11
-174.6578782390818
 21
-308.4379853012301
 31
0.0
  0
LINE
  5
2CA
  8
AM_0
  6
CONTINUOUS
 62
     7
 10
-174.6578782390818
 20
-308.4379853012301
 30
0.0
 11
-174.6448782390814
 21
-308.4659853012299
 31
0.0
  0
LINE
  5
2CB
  8
AM_0
  6
CONTINUOUS
 62
     7
 10
-174.6448782390814
 20
-308.4659853012299
 30
0.0
 11
-174.6308782390818
 21
-308.49298530123
 31
0.0
  0
LINE
  5
2CC
  8
AM_0
  6
CONTINUOUS
 62
     7
 10
-174.6308782390818
 20
-308.49298530123
 30
0.0
 11
-174.6168782390816
 21
-308.5209853012295
 31
0.0
  0
LINE
  5
2CD
  8
AM_0
  6
CONTINUOUS
 62
     7
 10
-174.6168782390816
 20
-308.5209853012295
 30
0.0
 11
-174.602878239082
 21
-308.54798530123
 31
0.0
  0
LINE
  5
2CE
  8
AM_0
  6
CONTINUOUS
 62
     7
 10
-174.602878239082
 20
-308.54798530123
 30
0.0
 11
-174.5888782390819
 21
-308.5749853012298
 31
0.0
  0
LINE
  5
2CF
  8
AM_0
  6
CONTINUOUS
 62
     7
 10
-174.5888782390819
 20
-308.5749853012298
 30
0.0
 11
-174.5738782390815
 21
-308.6019853012299
 31
0.0
  0
LINE
  5
2D0
  8
AM_0
  6
CONTINUOUS
 62
     7
 10
-174.5738782390815
 20
-308.6019853012299
 30
0.0
 11
-174.5598782390819
 21
-308.6289853012299
 31
0.0
  0
LINE
  5
2D1
  8
AM_0
  6
CONTINUOUS
 62
     7
 10
-174.5598782390819
 20
-308.6289853012299
 30
0.0
 11
-174.5298782390817
 21
-308.6829853012301
 31
0.0
  0
LINE
  5
2D2
  8
AM_0
  6
CONTINUOUS
 62
     7
 10
-174.5298782390817
 20
-308.6829853012301
 30
0.0
 11
-174.5148782390818
 21
-308.7089853012301
 31
0.0
  0
LINE
  5
2D3
  8
AM_0
  6
CONTINUOUS
 62
     7
 10
-174.5148782390818
 20
-308.7089853012301
 30
0.0
 11
-174.4848782390816
 21
-308.7629853012303
 31
0.0
  0
LINE
  5
2D4
  8
AM_0
  6
CONTINUOUS
 62
     7
 10
-174.4848782390816
 20
-308.7629853012303
 30
0.0
 11
-174.468878239082
 21
-308.7889853012298
 31
0.0
  0
LINE
  5
2D5
  8
AM_0
  6
CONTINUOUS
 62
     7
 10
-174.468878239082
 20
-308.7889853012298
 30
0.0
 11
-174.4538782390816
 21
-308.81498530123
 31
0.0
  0
LINE
  5
2D6
  8
AM_0
  6
CONTINUOUS
 62
     7
 10
-174.4538782390816
 20
-308.81498530123
 30
0.0
 11
-174.4378782390816
 21
-308.8419853012298
 31
0.0
  0
LINE
  5
2D7
  8
AM_0
  6
CONTINUOUS
 62
     7
 10
-174.4378782390816
 20
-308.8419853012298
 30
0.0
 11
-174.4218782390815
 21
-308.8679853012299
 31
0.0
  0
LINE
  5
2D8
  8
AM_0
  6
CONTINUOUS
 62
     7
 10
-174.4218782390815
 20
-308.8679853012299
 30
0.0
 11
-174.4048782390817
 21
-308.8939853012299
 31
0.0
  0
LINE
  5
2D9
  8
AM_0
  6
CONTINUOUS
 62
     7
 10
-174.4048782390817
 20
-308.8939853012299
 30
0.0
 11
-174.372878239082
 21
-308.9459853012299
 31
0.0
  0
LINE
  5
2DA
  8
AM_0
  6
CONTINUOUS
 62
     7
 10
-174.372878239082
 20
-308.9459853012299
 30
0.0
 11
-174.3558782390817
 21
-308.9709853012299
 31
0.0
  0
LINE
  5
2DB
  8
AM_0
  6
CONTINUOUS
 62
     7
 10
-174.3558782390817
 20
-308.9709853012299
 30
0.0
 11
-174.321878239082
 21
-309.0229853012299
 31
0.0
  0
LINE
  5
2DC
  8
AM_0
  6
CONTINUOUS
 62
     7
 10
-174.321878239082
 20
-309.0229853012299
 30
0.0
 11
-174.2878782390815
 21
-309.0729853012299
 31
0.0
  0
LINE
  5
2DD
  8
AM_0
  6
CONTINUOUS
 62
     7
 10
-174.2878782390815
 20
-309.0729853012299
 30
0.0
 11
-174.2698782390814
 21
-309.09898530123
 31
0.0
  0
LINE
  5
2DE
  8
AM_0
  6
CONTINUOUS
 62
     7
 10
-174.2698782390814
 20
-309.09898530123
 30
0.0
 11
-174.2528782390816
 21
-309.1239853012299
 31
0.0
  0
LINE
  5
2DF
  8
AM_0
  6
CONTINUOUS
 62
     7
 10
-174.2528782390816
 20
-309.1239853012299
 30
0.0
 11
-174.2348782390816
 21
-309.1489853012299
 31
0.0
  0
LINE
  5
2E0
  8
AM_0
  6
CONTINUOUS
 62
     7
 10
-174.2348782390816
 20
-309.1489853012299
 30
0.0
 11
-174.2168782390816
 21
-309.1739853012297
 31
0.0
  0
LINE
  5
2E1
  8
AM_0
  6
CONTINUOUS
 62
     7
 10
-174.2168782390816
 20
-309.1739853012297
 30
0.0
 11
-174.1988782390815
 21
-309.1979853012299
 31
0.0
  0
LINE
  5
2E2
  8
AM_0
  6
CONTINUOUS
 62
     7
 10
-174.1988782390815
 20
-309.1979853012299
 30
0.0
 11
-174.1808782390819
 21
-309.2229853012301
 31
0.0
  0
LINE
  5
2E3
  8
AM_0
  6
CONTINUOUS
 62
     7
 10
-174.1808782390819
 20
-309.2229853012301
 30
0.0
 11
-174.1628782390815
 21
-309.2479853012298
 31
0.0
  0
LINE
  5
2E4
  8
AM_0
  6
CONTINUOUS
 62
     7
 10
-174.1628782390815
 20
-309.2479853012298
 30
0.0
 11
-174.1248782390819
 21
-309.2959853012298
 31
0.0
  0
LINE
  5
2E5
  8
AM_0
  6
CONTINUOUS
 62
     7
 10
-174.1248782390819
 20
-309.2959853012298
 30
0.0
 11
-174.1068782390821
 21
-309.3209853012299
 31
0.0
  0
LINE
  5
2E6
  8
AM_0
  6
CONTINUOUS
 62
     7
 10
-174.1068782390821
 20
-309.3209853012299
 30
0.0
 11
-174.0688782390819
 21
-309.3689853012299
 31
0.0
  0
LINE
  5
2E7
  8
AM_0
  6
CONTINUOUS
 62
     7
 10
-174.0688782390819
 20
-309.3689853012299
 30
0.0
 11
-174.0488782390819
 21
-309.3929853012299
 31
0.0
  0
LINE
  5
2E8
  8
AM_0
  6
CONTINUOUS
 62
     7
 10
-174.0488782390819
 20
-309.3929853012299
 30
0.0
 11
-174.0298782390817
 21
-309.4159853012297
 31
0.0
  0
LINE
  5
2E9
  8
AM_0
  6
CONTINUOUS
 62
     7
 10
-174.0298782390817
 20
-309.4159853012297
 30
0.0
 11
-174.0098782390817
 21
-309.4399853012299
 31
0.0
  0
LINE
  5
2EA
  8
AM_0
  6
CONTINUOUS
 62
     7
 10
-174.0098782390817
 20
-309.4399853012299
 30
0.0
 11
-173.9908782390819
 21
-309.4639853012299
 31
0.0
  0
LINE
  5
2EB
  8
AM_0
  6
CONTINUOUS
 62
     7
 10
-173.9908782390819
 20
-309.4639853012299
 30
0.0
 11
-173.910878239082
 21
-309.5559853012298
 31
0.0
  0
LINE
  5
2EC
  8
AM_0
  6
CONTINUOUS
 62
     7
 10
-173.910878239082
 20
-309.5559853012298
 30
0.0
 11
-173.8898782390818
 21
-309.5789853012296
 31
0.0
  0
LINE
  5
2ED
  8
AM_0
  6
CONTINUOUS
 62
     7
 10
-173.8898782390818
 20
-309.5789853012296
 30
0.0
 11
-173.8698782390818
 21
-309.6019853012299
 31
0.0
  0
LINE
  5
2EE
  8
AM_0
  6
CONTINUOUS
 62
     7
 10
-173.8698782390818
 20
-309.6019853012299
 30
0.0
 11
-173.8488782390816
 21
-309.62498530123
 31
0.0
  0
LINE
  5
2EF
  8
AM_0
  6
CONTINUOUS
 62
     7
 10
-173.8488782390816
 20
-309.62498530123
 30
0.0
 11
-173.8278782390819
 21
-309.6469853012298
 31
0.0
  0
LINE
  5
2F0
  8
AM_0
  6
CONTINUOUS
 62
     7
 10
-173.8278782390819
 20
-309.6469853012298
 30
0.0
 11
-173.8068782390817
 21
-309.66998530123
 31
0.0
  0
LINE
  5
2F1
  8
AM_0
  6
CONTINUOUS
 62
     7
 10
-173.8068782390817
 20
-309.66998530123
 30
0.0
 11
-173.7438782390816
 21
-309.7359853012298
 31
0.0
  0
LINE
  5
2F2
  8
AM_0
  6
CONTINUOUS
 62
     7
 10
-173.7438782390816
 20
-309.7359853012298
 30
0.0
 11
-173.7218782390817
 21
-309.75798530123
 31
0.0
  0
LINE
  5
2F3
  8
AM_0
  6
CONTINUOUS
 62
     7
 10
-173.7218782390817
 20
-309.75798530123
 30
0.0
 11
-173.7008782390819
 21
-309.7799853012299
 31
0.0
  0
ENDBLK
  5
FA
  8
0
  0
BLOCK
  8
0
  2
DC_GROUP_24
 70
     0
 10
0.0
 20
0.0
 30
0.0
  3
DC_GROUP_24
  1

  0
LINE
  5
2F4
  8
AM_0
  6
CONTINUOUS
 62
     7
 10
-89.62187823908175
 20
-239.7009853012298
 30
0.0
 11
-89.64387823908169
 21
-239.6799853012301
 31
0.0
  0
LINE
  5
2F5
  8
AM_0
  6
CONTINUOUS
 62
     7
 10
-89.64387823908169
 20
-239.6799853012301
 30
0.0
 11
-89.66587823908162
 21
-239.6579853012302
 31
0.0
  0
LINE
  5
2F6
  8
AM_0
  6
CONTINUOUS
 62
     7
 10
-89.66587823908162
 20
-239.6579853012302
 30
0.0
 11
-89.73187823908188
 21
-239.5949853012298
 31
0.0
  0
LINE
  5
2F7
  8
AM_0
  6
CONTINUOUS
 62
     7
 10
-89.73187823908188
 20
-239.5949853012298
 30
0.0
 11
-89.75487823908202
 21
-239.5739853012299
 31
0.0
  0
LINE
  5
2F8
  8
AM_0
  6
CONTINUOUS
 62
     7
 10
-89.75487823908202
 20
-239.5739853012299
 30
0.0
 11
-89.77687823908195
 21
-239.55298530123
 31
0.0
  0
LINE
  5
2F9
  8
AM_0
  6
CONTINUOUS
 62
     7
 10
-89.77687823908195
 20
-239.55298530123
 30
0.0
 11
-89.79987823908164
 21
-239.5319853012297
 31
0.0
  0
LINE
  5
2FA
  8
AM_0
  6
CONTINUOUS
 62
     7
 10
-89.79987823908164
 20
-239.5319853012297
 30
0.0
 11
-89.82287823908177
 21
-239.51198530123
 31
0.0
  0
LINE
  5
2FB
  8
AM_0
  6
CONTINUOUS
 62
     7
 10
-89.82287823908177
 20
-239.51198530123
 30
0.0
 11
-89.84587823908191
 21
-239.4909853012299
 31
0.0
  0
LINE
  5
2FC
  8
AM_0
  6
CONTINUOUS
 62
     7
 10
-89.84587823908191
 20
-239.4909853012299
 30
0.0
 11
-89.93787823908201
 21
-239.4109853012299
 31
0.0
  0
LINE
  5
2FD
  8
AM_0
  6
CONTINUOUS
 62
     7
 10
-89.93787823908201
 20
-239.4109853012299
 30
0.0
 11
-89.96187823908144
 21
-239.3919853012301
 31
0.0
  0
LINE
  5
2FE
  8
AM_0
  6
CONTINUOUS
 62
     7
 10
-89.96187823908144
 20
-239.3919853012301
 30
0.0
 11
-89.98587823908179
 21
-239.3719853012302
 31
0.0
  0
LINE
  5
2FF
  8
AM_0
  6
CONTINUOUS
 62
     7
 10
-89.98587823908179
 20
-239.3719853012302
 30
0.0
 11
-90.00887823908192
 21
-239.3529853012301
 31
0.0
  0
LINE
  5
300
  8
AM_0
  6
CONTINUOUS
 62
     7
 10
-90.00887823908192
 20
-239.3529853012301
 30
0.0
 11
-90.03287823908181
 21
-239.3329853012301
 31
0.0
  0
LINE
  5
301
  8
AM_0
  6
CONTINUOUS
 62
     7
 10
-90.03287823908181
 20
-239.3329853012301
 30
0.0
 11
-90.08087823908158
 21
-239.2949853012302
 31
0.0
  0
LINE
  5
302
  8
AM_0
  6
CONTINUOUS
 62
     7
 10
-90.08087823908158
 20
-239.2949853012302
 30
0.0
 11
-90.10587823908168
 21
-239.2769853012297
 31
0.0
  0
LINE
  5
303
  8
AM_0
  6
CONTINUOUS
 62
     7
 10
-90.10587823908168
 20
-239.2769853012297
 30
0.0
 11
-90.15387823908145
 21
-239.2389853012299
 31
0.0
  0
LINE
  5
304
  8
AM_0
  6
CONTINUOUS
 62
     7
 10
-90.15387823908145
 20
-239.2389853012299
 30
0.0
 11
-90.20387823908163
 21
-239.2029853012301
 31
0.0
  0
LINE
  5
305
  8
AM_0
  6
CONTINUOUS
 62
     7
 10
-90.20387823908163
 20
-239.2029853012301
 30
0.0
 11
-90.22787823908197
 21
-239.1849853012301
 31
0.0
  0
LINE
  5
306
  8
AM_0
  6
CONTINUOUS
 62
     7
 10
-90.22787823908197
 20
-239.1849853012301
 30
0.0
 11
-90.25287823908161
 21
-239.1669853012298
 31
0.0
  0
LINE
  5
307
  8
AM_0
  6
CONTINUOUS
 62
     7
 10
-90.25287823908161
 20
-239.1669853012298
 30
0.0
 11
-90.2778782390817
 21
-239.14898530123
 31
0.0
  0
LINE
  5
308
  8
AM_0
  6
CONTINUOUS
 62
     7
 10
-90.2778782390817
 20
-239.14898530123
 30
0.0
 11
-90.30287823908179
 21
-239.1319853012301
 31
0.0
  0
LINE
  5
309
  8
AM_0
  6
CONTINUOUS
 62
     7
 10
-90.30287823908179
 20
-239.1319853012301
 30
0.0
 11
-90.32887823908163
 21
-239.1139853012298
 31
0.0
  0
LINE
  5
30A
  8
AM_0
  6
CONTINUOUS
 62
     7
 10
-90.32887823908163
 20
-239.1139853012298
 30
0.0
 11
-90.37887823908181
 21
-239.0799853012297
 31
0.0
  0
LINE
  5
30B
  8
AM_0
  6
CONTINUOUS
 62
     7
 10
-90.37887823908181
 20
-239.0799853012297
 30
0.0
 11
-90.4308782390815
 21
-239.0459853012297
 31
0.0
  0
LINE
  5
30C
  8
AM_0
  6
CONTINUOUS
 62
     7
 10
-90.4308782390815
 20
-239.0459853012297
 30
0.0
 11
-90.45587823908204
 21
-239.0289853012298
 31
0.0
  0
LINE
  5
30D
  8
AM_0
  6
CONTINUOUS
 62
     7
 10
-90.45587823908204
 20
-239.0289853012298
 30
0.0
 11
-90.50787823908172
 21
-238.9969853012301
 31
0.0
  0
LINE
  5
30E
  8
AM_0
  6
CONTINUOUS
 62
     7
 10
-90.50787823908172
 20
-238.9969853012301
 30
0.0
 11
-90.53387823908156
 21
-238.9799853012299
 31
0.0
  0
LINE
  5
30F
  8
AM_0
  6
CONTINUOUS
 62
     7
 10
-90.53387823908156
 20
-238.9799853012299
 30
0.0
 11
-90.55987823908185
 21
-238.96398530123
 31
0.0
  0
LINE
  5
310
  8
AM_0
  6
CONTINUOUS
 62
     7
 10
-90.55987823908185
 20
-238.96398530123
 30
0.0
 11
-90.5868782390819
 21
-238.9489853012302
 31
0.0
  0
LINE
  5
311
  8
AM_0
  6
CONTINUOUS
 62
     7
 10
-90.5868782390819
 20
-238.9489853012302
 30
0.0
 11
-90.63887823908158
 21
-238.9169853012298
 31
0.0
  0
LINE
  5
312
  8
AM_0
  6
CONTINUOUS
 62
     7
 10
-90.63887823908158
 20
-238.9169853012298
 30
0.0
 11
-90.69287823908167
 21
-238.8869853012301
 31
0.0
  0
LINE
  5
313
  8
AM_0
  6
CONTINUOUS
 62
     7
 10
-90.69287823908167
 20
-238.8869853012301
 30
0.0
 11
-90.71887823908196
 21
-238.8719853012302
 31
0.0
  0
LINE
  5
314
  8
AM_0
  6
CONTINUOUS
 62
     7
 10
-90.71887823908196
 20
-238.8719853012302
 30
0.0
 11
-90.77287823908205
 21
-238.8419853012299
 31
0.0
  0
LINE
  5
315
  8
AM_0
  6
CONTINUOUS
 62
     7
 10
-90.77287823908205
 20
-238.8419853012299
 30
0.0
 11
-90.79987823908164
 21
-238.8279853012301
 31
0.0
  0
LINE
  5
316
  8
AM_0
  6
CONTINUOUS
 62
     7
 10
-90.79987823908164
 20
-238.8279853012301
 30
0.0
 11
-90.82687823908168
 21
-238.8129853012301
 31
0.0
  0
LINE
  5
317
  8
AM_0
  6
CONTINUOUS
 62
     7
 10
-90.82687823908168
 20
-238.8129853012301
 30
0.0
 11
-90.85387823908172
 21
-238.7989853012298
 31
0.0
  0
LINE
  5
318
  8
AM_0
  6
CONTINUOUS
 62
     7
 10
-90.85387823908172
 20
-238.7989853012298
 30
0.0
 11
-90.88187823908152
 21
-238.7849853012301
 31
0.0
  0
LINE
  5
319
  8
AM_0
  6
CONTINUOUS
 62
     7
 10
-90.88187823908152
 20
-238.7849853012301
 30
0.0
 11
-90.90887823908156
 21
-238.77098530123
 31
0.0
  0
LINE
  5
31A
  8
AM_0
  6
CONTINUOUS
 62
     7
 10
-90.90887823908156
 20
-238.77098530123
 30
0.0
 11
-90.9358782390816
 21
-238.7569853012301
 31
0.0
  0
LINE
  5
31B
  8
AM_0
  6
CONTINUOUS
 62
     7
 10
-90.9358782390816
 20
-238.7569853012301
 30
0.0
 11
-90.96387823908185
 21
-238.7439853012298
 31
0.0
  0
LINE
  5
31C
  8
AM_0
  6
CONTINUOUS
 62
     7
 10
-90.96387823908185
 20
-238.7439853012298
 30
0.0
 11
-90.9908782390819
 21
-238.7299853012298
 31
0.0
  0
LINE
  5
31D
  8
AM_0
  6
CONTINUOUS
 62
     7
 10
-90.9908782390819
 20
-238.7299853012298
 30
0.0
 11
-91.01887823908169
 21
-238.7169853012299
 31
0.0
  0
LINE
  5
31E
  8
AM_0
  6
CONTINUOUS
 62
     7
 10
-91.01887823908169
 20
-238.7169853012299
 30
0.0
 11
-91.04687823908193
 21
-238.7039853012301
 31
0.0
  0
LINE
  5
31F
  8
AM_0
  6
CONTINUOUS
 62
     7
 10
-91.04687823908193
 20
-238.7039853012301
 30
0.0
 11
-91.07487823908173
 21
-238.6909853012298
 31
0.0
  0
LINE
  5
320
  8
AM_0
  6
CONTINUOUS
 62
     7
 10
-91.07487823908173
 20
-238.6909853012298
 30
0.0
 11
-91.10287823908197
 21
-238.6789853012301
 31
0.0
  0
LINE
  5
321
  8
AM_0
  6
CONTINUOUS
 62
     7
 10
-91.10287823908197
 20
-238.6789853012301
 30
0.0
 11
-91.13087823908177
 21
-238.6659853012296
 31
0.0
  0
LINE
  5
322
  8
AM_0
  6
CONTINUOUS
 62
     7
 10
-91.13087823908177
 20
-238.6659853012296
 30
0.0
 11
-91.24287823908185
 21
-238.6179853012299
 31
0.0
  0
LINE
  5
323
  8
AM_0
  6
CONTINUOUS
 62
     7
 10
-91.24287823908185
 20
-238.6179853012299
 30
0.0
 11
-91.27187823908184
 21
-238.6059853012299
 31
0.0
  0
LINE
  5
324
  8
AM_0
  6
CONTINUOUS
 62
     7
 10
-91.27187823908184
 20
-238.6059853012299
 30
0.0
 11
-91.29987823908164
 21
-238.5949853012298
 31
0.0
  0
LINE
  5
325
  8
AM_0
  6
CONTINUOUS
 62
     7
 10
-91.29987823908164
 20
-238.5949853012298
 30
0.0
 11
-91.32887823908163
 21
-238.5829853012301
 31
0.0
  0
LINE
  5
326
  8
AM_0
  6
CONTINUOUS
 62
     7
 10
-91.32887823908163
 20
-238.5829853012301
 30
0.0
 11
-91.35687823908188
 21
-238.5719853012299
 31
0.0
  0
LINE
  5
327
  8
AM_0
  6
CONTINUOUS
 62
     7
 10
-91.35687823908188
 20
-238.5719853012299
 30
0.0
 11
-91.38587823908188
 21
-238.5609853012297
 31
0.0
  0
LINE
  5
328
  8
AM_0
  6
CONTINUOUS
 62
     7
 10
-91.38587823908188
 20
-238.5609853012297
 30
0.0
 11
-91.41387823908167
 21
-238.5499853012301
 31
0.0
  0
LINE
  5
329
  8
AM_0
  6
CONTINUOUS
 62
     7
 10
-91.41387823908167
 20
-238.5499853012301
 30
0.0
 11
-91.44287823908167
 21
-238.5399853012302
 31
0.0
  0
LINE
  5
32A
  8
AM_0
  6
CONTINUOUS
 62
     7
 10
-91.44287823908167
 20
-238.5399853012302
 30
0.0
 11
-91.47187823908166
 21
-238.5289853012299
 31
0.0
  0
LINE
  5
32B
  8
AM_0
  6
CONTINUOUS
 62
     7
 10
-91.47187823908166
 20
-238.5289853012299
 30
0.0
 11
-91.58787823908165
 21
-238.4889853012299
 31
0.0
  0
LINE
  5
32C
  8
AM_0
  6
CONTINUOUS
 62
     7
 10
-91.58787823908165
 20
-238.4889853012299
 30
0.0
 11
-91.6168782390821
 21
-238.4799853012298
 31
0.0
  0
LINE
  5
32D
  8
AM_0
  6
CONTINUOUS
 62
     7
 10
-91.6168782390821
 20
-238.4799853012298
 30
0.0
 11
-91.64587823908164
 21
-238.4699853012298
 31
0.0
  0
LINE
  5
32E
  8
AM_0
  6
CONTINUOUS
 62
     7
 10
-91.64587823908164
 20
-238.4699853012298
 30
0.0
 11
-91.67587823908184
 21
-238.4609853012298
 31
0.0
  0
LINE
  5
32F
  8
AM_0
  6
CONTINUOUS
 62
     7
 10
-91.67587823908184
 20
-238.4609853012298
 30
0.0
 11
-91.73387823908183
 21
-238.4429853012301
 31
0.0
  0
LINE
  5
330
  8
AM_0
  6
CONTINUOUS
 62
     7
 10
-91.73387823908183
 20
-238.4429853012301
 30
0.0
 11
-91.76387823908158
 21
-238.4349853012299
 31
0.0
  0
LINE
  5
331
  8
AM_0
  6
CONTINUOUS
 62
     7
 10
-91.76387823908158
 20
-238.4349853012299
 30
0.0
 11
-91.79287823908157
 21
-238.4259853012297
 31
0.0
  0
LINE
  5
332
  8
AM_0
  6
CONTINUOUS
 62
     7
 10
-91.79287823908157
 20
-238.4259853012297
 30
0.0
 11
-91.82287823908177
 21
-238.4179853012303
 31
0.0
  0
LINE
  5
333
  8
AM_0
  6
CONTINUOUS
 62
     7
 10
-91.82287823908177
 20
-238.4179853012303
 30
0.0
 11
-91.85187823908177
 21
-238.4099853012301
 31
0.0
  0
LINE
  5
334
  8
AM_0
  6
CONTINUOUS
 62
     7
 10
-91.85187823908177
 20
-238.4099853012301
 30
0.0
 11
-91.88187823908152
 21
-238.4019853012297
 31
0.0
  0
LINE
  5
335
  8
AM_0
  6
CONTINUOUS
 62
     7
 10
-91.88187823908152
 20
-238.4019853012297
 30
0.0
 11
-91.91087823908197
 21
-238.3939853012297
 31
0.0
  0
LINE
  5
336
  8
AM_0
  6
CONTINUOUS
 62
     7
 10
-91.91087823908197
 20
-238.3939853012297
 30
0.0
 11
-91.94087823908171
 21
-238.3869853012301
 31
0.0
  0
LINE
  5
337
  8
AM_0
  6
CONTINUOUS
 62
     7
 10
-91.94087823908171
 20
-238.3869853012301
 30
0.0
 11
-91.97087823908191
 21
-238.3789853012299
 31
0.0
  0
LINE
  5
338
  8
AM_0
  6
CONTINUOUS
 62
     7
 10
-91.97087823908191
 20
-238.3789853012299
 30
0.0
 11
-92.03087823908186
 21
-238.3649853012299
 31
0.0
  0
LINE
  5
339
  8
AM_0
  6
CONTINUOUS
 62
     7
 10
-92.03087823908186
 20
-238.3649853012299
 30
0.0
 11
-92.05987823908185
 21
-238.3579853012301
 31
0.0
  0
LINE
  5
33A
  8
AM_0
  6
CONTINUOUS
 62
     7
 10
-92.05987823908185
 20
-238.3579853012301
 30
0.0
 11
-92.0898782390816
 21
-238.3519853012301
 31
0.0
  0
LINE
  5
33B
  8
AM_0
  6
CONTINUOUS
 62
     7
 10
-92.0898782390816
 20
-238.3519853012301
 30
0.0
 11
-92.1198782390818
 21
-238.3449853012298
 31
0.0
  0
LINE
  5
33C
  8
AM_0
  6
CONTINUOUS
 62
     7
 10
-92.1198782390818
 20
-238.3449853012298
 30
0.0
 11
-92.20987823908195
 21
-238.3269853012299
 31
0.0
  0
LINE
  5
33D
  8
AM_0
  6
CONTINUOUS
 62
     7
 10
-92.20987823908195
 20
-238.3269853012299
 30
0.0
 11
-92.2408782390819
 21
-238.3209853012298
 31
0.0
  0
LINE
  5
33E
  8
AM_0
  6
CONTINUOUS
 62
     7
 10
-92.2408782390819
 20
-238.3209853012298
 30
0.0
 11
-92.27087823908164
 21
-238.3159853012299
 31
0.0
  0
LINE
  5
33F
  8
AM_0
  6
CONTINUOUS
 62
     7
 10
-92.27087823908164
 20
-238.3159853012299
 30
0.0
 11
-92.30087823908184
 21
-238.3099853012301
 31
0.0
  0
LINE
  5
340
  8
AM_0
  6
CONTINUOUS
 62
     7
 10
-92.30087823908184
 20
-238.3099853012301
 30
0.0
 11
-92.36087823908179
 21
-238.2999853012301
 31
0.0
  0
LINE
  5
341
  8
AM_0
  6
CONTINUOUS
 62
     7
 10
-92.36087823908179
 20
-238.2999853012301
 30
0.0
 11
-92.39187823908173
 21
-238.2949853012302
 31
0.0
  0
LINE
  5
342
  8
AM_0
  6
CONTINUOUS
 62
     7
 10
-92.39187823908173
 20
-238.2949853012302
 30
0.0
 11
-92.42187823908193
 21
-238.2909853012296
 31
0.0
  0
LINE
  5
343
  8
AM_0
  6
CONTINUOUS
 62
     7
 10
-92.42187823908193
 20
-238.2909853012296
 30
0.0
 11
-92.45187823908168
 21
-238.2859853012296
 31
0.0
  0
LINE
  5
344
  8
AM_0
  6
CONTINUOUS
 62
     7
 10
-92.45187823908168
 20
-238.2859853012296
 30
0.0
 11
-92.48287823908208
 21
-238.2819853012297
 31
0.0
  0
LINE
  5
345
  8
AM_0
  6
CONTINUOUS
 62
     7
 10
-92.48287823908208
 20
-238.2819853012297
 30
0.0
 11
-92.54287823908157
 21
-238.2739853012299
 31
0.0
  0
LINE
  5
346
  8
AM_0
  6
CONTINUOUS
 62
     7
 10
-92.54287823908157
 20
-238.2739853012299
 30
0.0
 11
-92.57387823908152
 21
-238.2699853012301
 31
0.0
  0
LINE
  5
347
  8
AM_0
  6
CONTINUOUS
 62
     7
 10
-92.57387823908152
 20
-238.2699853012301
 30
0.0
 11
-92.60387823908172
 21
-238.2669853012299
 31
0.0
  0
LINE
  5
348
  8
AM_0
  6
CONTINUOUS
 62
     7
 10
-92.60387823908172
 20
-238.2669853012299
 30
0.0
 11
-92.63487823908167
 21
-238.2639853012298
 31
0.0
  0
LINE
  5
349
  8
AM_0
  6
CONTINUOUS
 62
     7
 10
-92.63487823908167
 20
-238.2639853012298
 30
0.0
 11
-92.66487823908187
 21
-238.2609853012301
 31
0.0
  0
LINE
  5
34A
  8
AM_0
  6
CONTINUOUS
 62
     7
 10
-92.66487823908187
 20
-238.2609853012301
 30
0.0
 11
-92.69587823908182
 21
-238.2579853012297
 31
0.0
  0
LINE
  5
34B
  8
AM_0
  6
CONTINUOUS
 62
     7
 10
-92.69587823908182
 20
-238.2579853012297
 30
0.0
 11
-92.72587823908157
 21
-238.25498530123
 31
0.0
  0
LINE
  5
34C
  8
AM_0
  6
CONTINUOUS
 62
     7
 10
-92.72587823908157
 20
-238.25498530123
 30
0.0
 11
-92.75687823908152
 21
-238.2519853012301
 31
0.0
  0
LINE
  5
34D
  8
AM_0
  6
CONTINUOUS
 62
     7
 10
-92.75687823908152
 20
-238.2519853012301
 30
0.0
 11
-92.78787823908146
 21
-238.24998530123
 31
0.0
  0
LINE
  5
34E
  8
AM_0
  6
CONTINUOUS
 62
     7
 10
-92.78787823908146
 20
-238.24998530123
 30
0.0
 11
-92.81787823908167
 21
-238.2479853012298
 31
0.0
  0
LINE
  5
34F
  8
AM_0
  6
CONTINUOUS
 62
     7
 10
-92.81787823908167
 20
-238.2479853012298
 30
0.0
 11
-92.84887823908207
 21
-238.2459853012299
 31
0.0
  0
LINE
  5
350
  8
AM_0
  6
CONTINUOUS
 62
     7
 10
-92.84887823908207
 20
-238.2459853012299
 30
0.0
 11
-92.87887823908181
 21
-238.2439853012298
 31
0.0
  0
LINE
  5
351
  8
AM_0
  6
CONTINUOUS
 62
     7
 10
-92.87887823908181
 20
-238.2439853012298
 30
0.0
 11
-92.90987823908176
 21
-238.2419853012301
 31
0.0
  0
LINE
  5
352
  8
AM_0
  6
CONTINUOUS
 62
     7
 10
-92.90987823908176
 20
-238.2419853012301
 30
0.0
 11
-92.94087823908171
 21
-238.2409853012298
 31
0.0
  0
LINE
  5
353
  8
AM_0
  6
CONTINUOUS
 62
     7
 10
-92.94087823908171
 20
-238.2409853012298
 30
0.0
 11
-92.97087823908191
 21
-238.2399853012298
 31
0.0
  0
LINE
  5
354
  8
AM_0
  6
CONTINUOUS
 62
     7
 10
-92.97087823908191
 20
-238.2399853012298
 30
0.0
 11
-93.00187823908186
 21
-238.2389853012299
 31
0.0
  0
LINE
  5
355
  8
AM_0
  6
CONTINUOUS
 62
     7
 10
-93.00187823908186
 20
-238.2389853012299
 30
0.0
 11
-93.03187823908206
 21
-238.2379853012299
 31
0.0
  0
LINE
  5
356
  8
AM_0
  6
CONTINUOUS
 62
     7
 10
-93.03187823908206
 20
-238.2379853012299
 30
0.0
 11
-93.06287823908201
 21
-238.23698530123
 31
0.0
  0
LINE
  5
357
  8
AM_0
  6
CONTINUOUS
 62
     7
 10
-93.06287823908201
 20
-238.23698530123
 30
0.0
 11
-93.09387823908196
 21
-238.23698530123
 31
0.0
  0
LINE
  5
358
  8
AM_0
  6
CONTINUOUS
 62
     7
 10
-93.09387823908196
 20
-238.23698530123
 30
0.0
 11
-93.1238782390817
 21
-238.2359853012298
 31
0.0
  0
LINE
  5
359
  8
AM_0
  6
CONTINUOUS
 62
     7
 10
-93.1238782390817
 20
-238.2359853012298
 30
0.0
 11
-93.15487823908165
 21
-238.2359853012298
 31
0.0
  0
ENDBLK
  5
FD
  8
0
  0
BLOCK
  8
0
  2
DC_GROUP_25
 70
     0
 10
0.0
 20
0.0
 30
0.0
  3
DC_GROUP_25
  1

  0
LINE
  5
35A
  8
AM_0
  6
CONTINUOUS
 62
     7
 10
-158.6278782390816
 20
-324.85298530123
 30
0.0
 11
-158.6058782390817
 21
-324.8739853012298
 31
0.0
  0
LINE
  5
35B
  8
AM_0
  6
CONTINUOUS
 62
     7
 10
-158.6058782390817
 20
-324.8739853012298
 30
0.0
 11
-158.5838782390817
 21
-324.8959853012296
 31
0.0
  0
LINE
  5
35C
  8
AM_0
  6
CONTINUOUS
 62
     7
 10
-158.5838782390817
 20
-324.8959853012296
 30
0.0
 11
-158.495878239082
 21
-324.9799853012299
 31
0.0
  0
LINE
  5
35D
  8
AM_0
  6
CONTINUOUS
 62
     7
 10
-158.495878239082
 20
-324.9799853012299
 30
0.0
 11
-158.4498782390817
 21
-325.0219853012298
 31
0.0
  0
LINE
  5
35E
  8
AM_0
  6
CONTINUOUS
 62
     7
 10
-158.4498782390817
 20
-325.0219853012298
 30
0.0
 11
-158.4278782390818
 21
-325.0419853012298
 31
0.0
  0
LINE
  5
35F
  8
AM_0
  6
CONTINUOUS
 62
     7
 10
-158.4278782390818
 20
-325.0419853012298
 30
0.0
 11
-158.4048782390817
 21
-325.0629853012301
 31
0.0
  0
LINE
  5
360
  8
AM_0
  6
CONTINUOUS
 62
     7
 10
-158.4048782390817
 20
-325.0629853012301
 30
0.0
 11
-158.381878239082
 21
-325.0829853012299
 31
0.0
  0
LINE
  5
361
  8
AM_0
  6
CONTINUOUS
 62
     7
 10
-158.381878239082
 20
-325.0829853012299
 30
0.0
 11
-158.3578782390816
 21
-325.10298530123
 31
0.0
  0
LINE
  5
362
  8
AM_0
  6
CONTINUOUS
 62
     7
 10
-158.3578782390816
 20
-325.10298530123
 30
0.0
 11
-158.3118782390818
 21
-325.1429853012299
 31
0.0
  0
LINE
  5
363
  8
AM_0
  6
CONTINUOUS
 62
     7
 10
-158.3118782390818
 20
-325.1429853012299
 30
0.0
 11
-158.2878782390815
 21
-325.1619853012298
 31
0.0
  0
LINE
  5
364
  8
AM_0
  6
CONTINUOUS
 62
     7
 10
-158.2878782390815
 20
-325.1619853012298
 30
0.0
 11
-158.2648782390818
 21
-325.1819853012298
 31
0.0
  0
LINE
  5
365
  8
AM_0
  6
CONTINUOUS
 62
     7
 10
-158.2648782390818
 20
-325.1819853012298
 30
0.0
 11
-158.2408782390819
 21
-325.2009853012298
 31
0.0
  0
LINE
  5
366
  8
AM_0
  6
CONTINUOUS
 62
     7
 10
-158.2408782390819
 20
-325.2009853012298
 30
0.0
 11
-158.2168782390816
 21
-325.2209853012298
 31
0.0
  0
LINE
  5
367
  8
AM_0
  6
CONTINUOUS
 62
     7
 10
-158.2168782390816
 20
-325.2209853012298
 30
0.0
 11
-158.1688782390818
 21
-325.2589853012298
 31
0.0
  0
LINE
  5
368
  8
AM_0
  6
CONTINUOUS
 62
     7
 10
-158.1688782390818
 20
-325.2589853012298
 30
0.0
 11
-158.1448782390814
 21
-325.2769853012298
 31
0.0
  0
LINE
  5
369
  8
AM_0
  6
CONTINUOUS
 62
     7
 10
-158.1448782390814
 20
-325.2769853012298
 30
0.0
 11
-158.1198782390818
 21
-325.2959853012297
 31
0.0
  0
LINE
  5
36A
  8
AM_0
  6
CONTINUOUS
 62
     7
 10
-158.1198782390818
 20
-325.2959853012297
 30
0.0
 11
-158.0958782390819
 21
-325.3139853012296
 31
0.0
  0
LINE
  5
36B
  8
AM_0
  6
CONTINUOUS
 62
     7
 10
-158.0958782390819
 20
-325.3139853012296
 30
0.0
 11
-158.0708782390818
 21
-325.3329853012299
 31
0.0
  0
LINE
  5
36C
  8
AM_0
  6
CONTINUOUS
 62
     7
 10
-158.0708782390818
 20
-325.3329853012299
 30
0.0
 11
-158.0468782390819
 21
-325.3509853012298
 31
0.0
  0
LINE
  5
36D
  8
AM_0
  6
CONTINUOUS
 62
     7
 10
-158.0468782390819
 20
-325.3509853012298
 30
0.0
 11
-157.9718782390817
 21
-325.4049853012299
 31
0.0
  0
LINE
  5
36E
  8
AM_0
  6
CONTINUOUS
 62
     7
 10
-157.9718782390817
 20
-325.4049853012299
 30
0.0
 11
-157.9468782390816
 21
-325.4219853012298
 31
0.0
  0
LINE
  5
36F
  8
AM_0
  6
CONTINUOUS
 62
     7
 10
-157.9468782390816
 20
-325.4219853012298
 30
0.0
 11
-157.9218782390815
 21
-325.4399853012298
 31
0.0
  0
LINE
  5
370
  8
AM_0
  6
CONTINUOUS
 62
     7
 10
-157.9218782390815
 20
-325.4399853012298
 30
0.0
 11
-157.8958782390816
 21
-325.4569853012298
 31
0.0
  0
LINE
  5
371
  8
AM_0
  6
CONTINUOUS
 62
     7
 10
-157.8958782390816
 20
-325.4569853012298
 30
0.0
 11
-157.870878239082
 21
-325.4739853012298
 31
0.0
  0
LINE
  5
372
  8
AM_0
  6
CONTINUOUS
 62
     7
 10
-157.870878239082
 20
-325.4739853012298
 30
0.0
 11
-157.8448782390817
 21
-325.4909853012297
 31
0.0
  0
LINE
  5
373
  8
AM_0
  6
CONTINUOUS
 62
     7
 10
-157.8448782390817
 20
-325.4909853012297
 30
0.0
 11
-157.8198782390816
 21
-325.5079853012299
 31
0.0
  0
LINE
  5
374
  8
AM_0
  6
CONTINUOUS
 62
     7
 10
-157.8198782390816
 20
-325.5079853012299
 30
0.0
 11
-157.7938782390818
 21
-325.5249853012299
 31
0.0
  0
LINE
  5
375
  8
AM_0
  6
CONTINUOUS
 62
     7
 10
-157.7938782390818
 20
-325.5249853012299
 30
0.0
 11
-157.7418782390816
 21
-325.55698530123
 31
0.0
  0
LINE
  5
376
  8
AM_0
  6
CONTINUOUS
 62
     7
 10
-157.7418782390816
 20
-325.55698530123
 30
0.0
 11
-157.7158782390818
 21
-325.5739853012296
 31
0.0
  0
LINE
  5
377
  8
AM_0
  6
CONTINUOUS
 62
     7
 10
-157.7158782390818
 20
-325.5739853012296
 30
0.0
 11
-157.6898782390815
 21
-325.5899853012299
 31
0.0
  0
LINE
  5
378
  8
AM_0
  6
CONTINUOUS
 62
     7
 10
-157.6898782390815
 20
-325.5899853012299
 30
0.0
 11
-157.6638782390817
 21
-325.6049853012298
 31
0.0
  0
LINE
  5
379
  8
AM_0
  6
CONTINUOUS
 62
     7
 10
-157.6638782390817
 20
-325.6049853012298
 30
0.0
 11
-157.6368782390816
 21
-325.6209853012296
 31
0.0
  0
LINE
  5
37A
  8
AM_0
  6
CONTINUOUS
 62
     7
 10
-157.6368782390816
 20
-325.6209853012296
 30
0.0
 11
-157.6108782390818
 21
-325.63698530123
 31
0.0
  0
LINE
  5
37B
  8
AM_0
  6
CONTINUOUS
 62
     7
 10
-157.6108782390818
 20
-325.63698530123
 30
0.0
 11
-157.5838782390817
 21
-325.6519853012298
 31
0.0
  0
LINE
  5
37C
  8
AM_0
  6
CONTINUOUS
 62
     7
 10
-157.5838782390817
 20
-325.6519853012298
 30
0.0
 11
-157.5578782390819
 21
-325.6669853012299
 31
0.0
  0
LINE
  5
37D
  8
AM_0
  6
CONTINUOUS
 62
     7
 10
-157.5578782390819
 20
-325.6669853012299
 30
0.0
 11
-157.4768782390818
 21
-325.7119853012297
 31
0.0
  0
LINE
  5
37E
  8
AM_0
  6
CONTINUOUS
 62
     7
 10
-157.4768782390818
 20
-325.7119853012297
 30
0.0
 11
-157.4498782390817
 21
-325.7259853012298
 31
0.0
  0
LINE
  5
37F
  8
AM_0
  6
CONTINUOUS
 62
     7
 10
-157.4498782390817
 20
-325.7259853012298
 30
0.0
 11
-157.4228782390817
 21
-325.7409853012297
 31
0.0
  0
LINE
  5
380
  8
AM_0
  6
CONTINUOUS
 62
     7
 10
-157.4228782390817
 20
-325.7409853012297
 30
0.0
 11
-157.3688782390821
 21
-325.7689853012298
 31
0.0
  0
LINE
  5
381
  8
AM_0
  6
CONTINUOUS
 62
     7
 10
-157.3688782390821
 20
-325.7689853012298
 30
0.0
 11
-157.3408782390818
 21
-325.78298530123
 31
0.0
  0
LINE
  5
382
  8
AM_0
  6
CONTINUOUS
 62
     7
 10
-157.3408782390818
 20
-325.78298530123
 30
0.0
 11
-157.3138782390818
 21
-325.7969853012298
 31
0.0
  0
LINE
  5
383
  8
AM_0
  6
CONTINUOUS
 62
     7
 10
-157.3138782390818
 20
-325.7969853012298
 30
0.0
 11
-157.285878239082
 21
-325.8099853012301
 31
0.0
  0
LINE
  5
384
  8
AM_0
  6
CONTINUOUS
 62
     7
 10
-157.285878239082
 20
-325.8099853012301
 30
0.0
 11
-157.2588782390819
 21
-325.8239853012298
 31
0.0
  0
LINE
  5
385
  8
AM_0
  6
CONTINUOUS
 62
     7
 10
-157.2588782390819
 20
-325.8239853012298
 30
0.0
 11
-157.2308782390817
 21
-325.8369853012297
 31
0.0
  0
LINE
  5
386
  8
AM_0
  6
CONTINUOUS
 62
     7
 10
-157.2308782390817
 20
-325.8369853012297
 30
0.0
 11
-157.2028782390819
 21
-325.8499853012298
 31
0.0
  0
LINE
  5
387
  8
AM_0
  6
CONTINUOUS
 62
     7
 10
-157.2028782390819
 20
-325.8499853012298
 30
0.0
 11
-157.1758782390818
 21
-325.8629853012298
 31
0.0
  0
LINE
  5
388
  8
AM_0
  6
CONTINUOUS
 62
     7
 10
-157.1758782390818
 20
-325.8629853012298
 30
0.0
 11
-157.1478782390816
 21
-325.87498530123
 31
0.0
  0
LINE
  5
389
  8
AM_0
  6
CONTINUOUS
 62
     7
 10
-157.1478782390816
 20
-325.87498530123
 30
0.0
 11
-157.1198782390818
 21
-325.8879853012298
 31
0.0
  0
LINE
  5
38A
  8
AM_0
  6
CONTINUOUS
 62
     7
 10
-157.1198782390818
 20
-325.8879853012298
 30
0.0
 11
-157.0918782390816
 21
-325.8999853012299
 31
0.0
  0
LINE
  5
38B
  8
AM_0
  6
CONTINUOUS
 62
     7
 10
-157.0918782390816
 20
-325.8999853012299
 30
0.0
 11
-157.0628782390816
 21
-325.9119853012298
 31
0.0
  0
LINE
  5
38C
  8
AM_0
  6
CONTINUOUS
 62
     7
 10
-157.0628782390816
 20
-325.9119853012298
 30
0.0
 11
-156.9788782390817
 21
-325.9479853012298
 31
0.0
  0
LINE
  5
38D
  8
AM_0
  6
CONTINUOUS
 62
     7
 10
-156.9788782390817
 20
-325.9479853012298
 30
0.0
 11
-156.9498782390817
 21
-325.9589853012298
 31
0.0
  0
LINE
  5
38E
  8
AM_0
  6
CONTINUOUS
 62
     7
 10
-156.9498782390817
 20
-325.9589853012298
 30
0.0
 11
-156.9218782390815
 21
-325.9709853012298
 31
0.0
  0
LINE
  5
38F
  8
AM_0
  6
CONTINUOUS
 62
     7
 10
-156.9218782390815
 20
-325.9709853012298
 30
0.0
 11
-156.8638782390815
 21
-325.9929853012299
 31
0.0
  0
LINE
  5
390
  8
AM_0
  6
CONTINUOUS
 62
     7
 10
-156.8638782390815
 20
-325.9929853012299
 30
0.0
 11
-156.8358782390817
 21
-326.0039853012298
 31
0.0
  0
LINE
  5
391
  8
AM_0
  6
CONTINUOUS
 62
     7
 10
-156.8358782390817
 20
-326.0039853012298
 30
0.0
 11
-156.8068782390817
 21
-326.0139853012298
 31
0.0
  0
LINE
  5
392
  8
AM_0
  6
CONTINUOUS
 62
     7
 10
-156.8068782390817
 20
-326.0139853012298
 30
0.0
 11
-156.7778782390817
 21
-326.0249853012299
 31
0.0
  0
LINE
  5
393
  8
AM_0
  6
CONTINUOUS
 62
     7
 10
-156.7778782390817
 20
-326.0249853012299
 30
0.0
 11
-156.6618782390817
 21
-326.0649853012298
 31
0.0
  0
LINE
  5
394
  8
AM_0
  6
CONTINUOUS
 62
     7
 10
-156.6618782390817
 20
-326.0649853012298
 30
0.0
 11
-156.6038782390817
 21
-326.0829853012299
 31
0.0
  0
LINE
  5
395
  8
AM_0
  6
CONTINUOUS
 62
     7
 10
-156.6038782390817
 20
-326.0829853012299
 30
0.0
 11
-156.5748782390817
 21
-326.09298530123
 31
0.0
  0
LINE
  5
396
  8
AM_0
  6
CONTINUOUS
 62
     7
 10
-156.5748782390817
 20
-326.09298530123
 30
0.0
 11
-156.5448782390815
 21
-326.1019853012299
 31
0.0
  0
LINE
  5
397
  8
AM_0
  6
CONTINUOUS
 62
     7
 10
-156.5448782390815
 20
-326.1019853012299
 30
0.0
 11
-156.515878239082
 21
-326.1099853012298
 31
0.0
  0
LINE
  5
398
  8
AM_0
  6
CONTINUOUS
 62
     7
 10
-156.515878239082
 20
-326.1099853012298
 30
0.0
 11
-156.486878239082
 21
-326.1189853012298
 31
0.0
  0
LINE
  5
399
  8
AM_0
  6
CONTINUOUS
 62
     7
 10
-156.486878239082
 20
-326.1189853012298
 30
0.0
 11
-156.4568782390818
 21
-326.1279853012298
 31
0.0
  0
LINE
  5
39A
  8
AM_0
  6
CONTINUOUS
 62
     7
 10
-156.4568782390818
 20
-326.1279853012298
 30
0.0
 11
-156.4278782390818
 21
-326.1359853012299
 31
0.0
  0
LINE
  5
39B
  8
AM_0
  6
CONTINUOUS
 62
     7
 10
-156.4278782390818
 20
-326.1359853012299
 30
0.0
 11
-156.3678782390818
 21
-326.1519853012298
 31
0.0
  0
LINE
  5
39C
  8
AM_0
  6
CONTINUOUS
 62
     7
 10
-156.3678782390818
 20
-326.1519853012298
 30
0.0
 11
-156.3388782390819
 21
-326.1599853012299
 31
0.0
  0
LINE
  5
39D
  8
AM_0
  6
CONTINUOUS
 62
     7
 10
-156.3388782390819
 20
-326.1599853012299
 30
0.0
 11
-156.3088782390817
 21
-326.1669853012299
 31
0.0
  0
LINE
  5
39E
  8
AM_0
  6
CONTINUOUS
 62
     7
 10
-156.3088782390817
 20
-326.1669853012299
 30
0.0
 11
-156.2788782390819
 21
-326.17498530123
 31
0.0
  0
LINE
  5
39F
  8
AM_0
  6
CONTINUOUS
 62
     7
 10
-156.2788782390819
 20
-326.17498530123
 30
0.0
 11
-156.2488782390817
 21
-326.1819853012298
 31
0.0
  0
LINE
  5
3A0
  8
AM_0
  6
CONTINUOUS
 62
     7
 10
-156.2488782390817
 20
-326.1819853012298
 30
0.0
 11
-156.2198782390817
 21
-326.1889853012296
 31
0.0
  0
LINE
  5
3A1
  8
AM_0
  6
CONTINUOUS
 62
     7
 10
-156.2198782390817
 20
-326.1889853012296
 30
0.0
 11
-156.1898782390815
 21
-326.1959853012298
 31
0.0
  0
LINE
  5
3A2
  8
AM_0
  6
CONTINUOUS
 62
     7
 10
-156.1898782390815
 20
-326.1959853012298
 30
0.0
 11
-156.1598782390818
 21
-326.2019853012298
 31
0.0
  0
LINE
  5
3A3
  8
AM_0
  6
CONTINUOUS
 62
     7
 10
-156.1598782390818
 20
-326.2019853012298
 30
0.0
 11
-156.1298782390816
 21
-326.20898530123
 31
0.0
  0
LINE
  5
3A4
  8
AM_0
  6
CONTINUOUS
 62
     7
 10
-156.1298782390816
 20
-326.20898530123
 30
0.0
 11
-156.0098782390817
 21
-326.2329853012298
 31
0.0
  0
LINE
  5
3A5
  8
AM_0
  6
CONTINUOUS
 62
     7
 10
-156.0098782390817
 20
-326.2329853012298
 30
0.0
 11
-155.9788782390817
 21
-326.2379853012298
 31
0.0
  0
LINE
  5
3A6
  8
AM_0
  6
CONTINUOUS
 62
     7
 10
-155.9788782390817
 20
-326.2379853012298
 30
0.0
 11
-155.9488782390815
 21
-326.2439853012298
 31
0.0
  0
LINE
  5
3A7
  8
AM_0
  6
CONTINUOUS
 62
     7
 10
-155.9488782390815
 20
-326.2439853012298
 30
0.0
 11
-155.8588782390818
 21
-326.2589853012298
 31
0.0
  0
LINE
  5
3A8
  8
AM_0
  6
CONTINUOUS
 62
     7
 10
-155.8588782390818
 20
-326.2589853012298
 30
0.0
 11
-155.8278782390819
 21
-326.26298530123
 31
0.0
  0
LINE
  5
3A9
  8
AM_0
  6
CONTINUOUS
 62
     7
 10
-155.8278782390819
 20
-326.26298530123
 30
0.0
 11
-155.7978782390817
 21
-326.2679853012299
 31
0.0
  0
LINE
  5
3AA
  8
AM_0
  6
CONTINUOUS
 62
     7
 10
-155.7978782390817
 20
-326.2679853012299
 30
0.0
 11
-155.7668782390817
 21
-326.2719853012298
 31
0.0
  0
LINE
  5
3AB
  8
AM_0
  6
CONTINUOUS
 62
     7
 10
-155.7668782390817
 20
-326.2719853012298
 30
0.0
 11
-155.7068782390818
 21
-326.2799853012299
 31
0.0
  0
LINE
  5
3AC
  8
AM_0
  6
CONTINUOUS
 62
     7
 10
-155.7068782390818
 20
-326.2799853012299
 30
0.0
 11
-155.6758782390818
 21
-326.28298530123
 31
0.0
  0
LINE
  5
3AD
  8
AM_0
  6
CONTINUOUS
 62
     7
 10
-155.6758782390818
 20
-326.28298530123
 30
0.0
 11
-155.6458782390816
 21
-326.2869853012298
 31
0.0
  0
LINE
  5
3AE
  8
AM_0
  6
CONTINUOUS
 62
     7
 10
-155.6458782390816
 20
-326.2869853012298
 30
0.0
 11
-155.6148782390817
 21
-326.28998530123
 31
0.0
  0
LINE
  5
3AF
  8
AM_0
  6
CONTINUOUS
 62
     7
 10
-155.6148782390817
 20
-326.28998530123
 30
0.0
 11
-155.5848782390819
 21
-326.29298530123
 31
0.0
  0
LINE
  5
3B0
  8
AM_0
  6
CONTINUOUS
 62
     7
 10
-155.5848782390819
 20
-326.29298530123
 30
0.0
 11
-155.5538782390815
 21
-326.2959853012298
 31
0.0
  0
LINE
  5
3B1
  8
AM_0
  6
CONTINUOUS
 62
     7
 10
-155.5538782390815
 20
-326.2959853012298
 30
0.0
 11
-155.5238782390818
 21
-326.2989853012296
 31
0.0
  0
LINE
  5
3B2
  8
AM_0
  6
CONTINUOUS
 62
     7
 10
-155.5238782390818
 20
-326.2989853012296
 30
0.0
 11
-155.4928782390818
 21
-326.3019853012298
 31
0.0
  0
LINE
  5
3B3
  8
AM_0
  6
CONTINUOUS
 62
     7
 10
-155.4928782390818
 20
-326.3019853012298
 30
0.0
 11
-155.4628782390816
 21
-326.3039853012296
 31
0.0
  0
LINE
  5
3B4
  8
AM_0
  6
CONTINUOUS
 62
     7
 10
-155.4628782390816
 20
-326.3039853012296
 30
0.0
 11
-155.4318782390817
 21
-326.3059853012297
 31
0.0
  0
LINE
  5
3B5
  8
AM_0
  6
CONTINUOUS
 62
     7
 10
-155.4318782390817
 20
-326.3059853012297
 30
0.0
 11
-155.401878239082
 21
-326.30798530123
 31
0.0
  0
LINE
  5
3B6
  8
AM_0
  6
CONTINUOUS
 62
     7
 10
-155.401878239082
 20
-326.30798530123
 30
0.0
 11
-155.3398782390816
 21
-326.3119853012298
 31
0.0
  0
LINE
  5
3B7
  8
AM_0
  6
CONTINUOUS
 62
     7
 10
-155.3398782390816
 20
-326.3119853012298
 30
0.0
 11
-155.3098782390819
 21
-326.3129853012301
 31
0.0
  0
LINE
  5
3B8
  8
AM_0
  6
CONTINUOUS
 62
     7
 10
-155.3098782390819
 20
-326.3129853012301
 30
0.0
 11
-155.247878239082
 21
-326.3149853012299
 31
0.0
  0
LINE
  5
3B9
  8
AM_0
  6
CONTINUOUS
 62
     7
 10
-155.247878239082
 20
-326.3149853012299
 30
0.0
 11
-155.2178782390818
 21
-326.3159853012298
 31
0.0
  0
LINE
  5
3BA
  8
AM_0
  6
CONTINUOUS
 62
     7
 10
-155.2178782390818
 20
-326.3159853012298
 30
0.0
 11
-155.1868782390818
 21
-326.3169853012298
 31
0.0
  0
LINE
  5
3BB
  8
AM_0
  6
CONTINUOUS
 62
     7
 10
-155.1868782390818
 20
-326.3169853012298
 30
0.0
 11
-155.1558782390819
 21
-326.3169853012298
 31
0.0
  0
LINE
  5
3BC
  8
AM_0
  6
CONTINUOUS
 62
     7
 10
-155.1558782390819
 20
-326.3169853012298
 30
0.0
 11
-155.1258782390817
 21
-326.3179853012298
 31
0.0
  0
LINE
  5
3BD
  8
AM_0
  6
CONTINUOUS
 62
     7
 10
-155.1258782390817
 20
-326.3179853012298
 30
0.0
 11
-155.0948782390817
 21
-326.3179853012298
 31
0.0
  0
ENDBLK
  5
100
  8
0
  0
BLOCK
  8
0
  2
DC_GROUP_26
 70
     0
 10
0.0
 20
0.0
 30
0.0
  3
DC_GROUP_26
  1

  0
LINE
  5
3BE
  8
AM_0
  6
CONTINUOUS
 62
     7
 10
-73.08387823908174
 20
-258.3069853012298
 30
0.0
 11
-73.08387823908174
 21
-258.2759853012301
 31
0.0
  0
LINE
  5
3BF
  8
AM_0
  6
CONTINUOUS
 62
     7
 10
-73.08387823908174
 20
-258.2759853012301
 30
0.0
 11
-73.08487823908195
 21
-258.2459853012298
 31
0.0
  0
LINE
  5
3C0
  8
AM_0
  6
CONTINUOUS
 62
     7
 10
-73.08487823908195
 20
-258.2459853012298
 30
0.0
 11
-73.08487823908195
 21
-258.2149853012299
 31
0.0
  0
LINE
  5
3C1
  8
AM_0
  6
CONTINUOUS
 62
     7
 10
-73.08487823908195
 20
-258.2149853012299
 30
0.0
 11
-73.0858782390817
 21
-258.1839853012301
 31
0.0
  0
LINE
  5
3C2
  8
AM_0
  6
CONTINUOUS
 62
     7
 10
-73.0858782390817
 20
-258.1839853012301
 30
0.0
 11
-73.08687823908144
 21
-258.1539853012299
 31
0.0
  0
LINE
  5
3C3
  8
AM_0
  6
CONTINUOUS
 62
     7
 10
-73.08687823908144
 20
-258.1539853012299
 30
0.0
 11
-73.08887823908185
 21
-258.0919853012298
 31
0.0
  0
LINE
  5
3C4
  8
AM_0
  6
CONTINUOUS
 62
     7
 10
-73.08887823908185
 20
-258.0919853012298
 30
0.0
 11
-73.08987823908205
 21
-258.0619853012298
 31
0.0
  0
LINE
  5
3C5
  8
AM_0
  6
CONTINUOUS
 62
     7
 10
-73.08987823908205
 20
-258.0619853012298
 30
0.0
 11
-73.09187823908155
 21
-258.0309853012296
 31
0.0
  0
LINE
  5
3C6
  8
AM_0
  6
CONTINUOUS
 62
     7
 10
-73.09187823908155
 20
-258.0309853012296
 30
0.0
 11
-73.09387823908196
 21
-258.0009853012301
 31
0.0
  0
LINE
  5
3C7
  8
AM_0
  6
CONTINUOUS
 62
     7
 10
-73.09387823908196
 20
-258.0009853012301
 30
0.0
 11
-73.09787823908187
 21
-257.93898530123
 31
0.0
  0
LINE
  5
3C8
  8
AM_0
  6
CONTINUOUS
 62
     7
 10
-73.09787823908187
 20
-257.93898530123
 30
0.0
 11
-73.09987823908182
 21
-257.9089853012298
 31
0.0
  0
LINE
  5
3C9
  8
AM_0
  6
CONTINUOUS
 62
     7
 10
-73.09987823908182
 20
-257.9089853012298
 30
0.0
 11
-73.10287823908197
 21
-257.8779853012298
 31
0.0
  0
LINE
  5
3CA
  8
AM_0
  6
CONTINUOUS
 62
     7
 10
-73.10287823908197
 20
-257.8779853012298
 30
0.0
 11
-73.10587823908168
 21
-257.8479853012302
 31
0.0
  0
LINE
  5
3CB
  8
AM_0
  6
CONTINUOUS
 62
     7
 10
-73.10587823908168
 20
-257.8479853012302
 30
0.0
 11
-73.10887823908183
 21
-257.8169853012297
 31
0.0
  0
LINE
  5
3CC
  8
AM_0
  6
CONTINUOUS
 62
     7
 10
-73.10887823908183
 20
-257.8169853012297
 30
0.0
 11
-73.11187823908199
 21
-257.7869853012297
 31
0.0
  0
LINE
  5
3CD
  8
AM_0
  6
CONTINUOUS
 62
     7
 10
-73.11187823908199
 20
-257.7869853012297
 30
0.0
 11
-73.11487823908169
 21
-257.7559853012301
 31
0.0
  0
LINE
  5
3CE
  8
AM_0
  6
CONTINUOUS
 62
     7
 10
-73.11487823908169
 20
-257.7559853012301
 30
0.0
 11
-73.1188782390816
 21
-257.7259853012299
 31
0.0
  0
LINE
  5
3CF
  8
AM_0
  6
CONTINUOUS
 62
     7
 10
-73.1188782390816
 20
-257.7259853012299
 30
0.0
 11
-73.12187823908175
 21
-257.6949853012298
 31
0.0
  0
LINE
  5
3D0
  8
AM_0
  6
CONTINUOUS
 62
     7
 10
-73.12187823908175
 20
-257.6949853012298
 30
0.0
 11
-73.12987823908156
 21
-257.6349853012301
 31
0.0
  0
LINE
  5
3D1
  8
AM_0
  6
CONTINUOUS
 62
     7
 10
-73.12987823908156
 20
-257.6349853012301
 30
0.0
 11
-73.13387823908192
 21
-257.6039853012297
 31
0.0
  0
LINE
  5
3D2
  8
AM_0
  6
CONTINUOUS
 62
     7
 10
-73.13387823908192
 20
-257.6039853012297
 30
0.0
 11
-73.14387823908169
 21
-257.5439853012298
 31
0.0
  0
LINE
  5
3D3
  8
AM_0
  6
CONTINUOUS
 62
     7
 10
-73.14387823908169
 20
-257.5439853012298
 30
0.0
 11
-73.14787823908159
 21
-257.5129853012304
 31
0.0
  0
LINE
  5
3D4
  8
AM_0
  6
CONTINUOUS
 62
     7
 10
-73.14787823908159
 20
-257.5129853012304
 30
0.0
 11
-73.15787823908181
 21
-257.4529853012301
 31
0.0
  0
LINE
  5
3D5
  8
AM_0
  6
CONTINUOUS
 62
     7
 10
-73.15787823908181
 20
-257.4529853012301
 30
0.0
 11
-73.16387823908167
 21
-257.42298530123
 31
0.0
  0
LINE
  5
3D6
  8
AM_0
  6
CONTINUOUS
 62
     7
 10
-73.16387823908167
 20
-257.42298530123
 30
0.0
 11
-73.16887823908178
 21
-257.3919853012299
 31
0.0
  0
LINE
  5
3D7
  8
AM_0
  6
CONTINUOUS
 62
     7
 10
-73.16887823908178
 20
-257.3919853012299
 30
0.0
 11
-73.19287823908167
 21
-257.2719853012298
 31
0.0
  0
LINE
  5
3D8
  8
AM_0
  6
CONTINUOUS
 62
     7
 10
-73.19287823908167
 20
-257.2719853012298
 30
0.0
 11
-73.19987823908173
 21
-257.2419853012301
 31
0.0
  0
LINE
  5
3D9
  8
AM_0
  6
CONTINUOUS
 62
     7
 10
-73.19987823908173
 20
-257.2419853012301
 30
0.0
 11
-73.20587823908158
 21
-257.2119853012298
 31
0.0
  0
LINE
  5
3DA
  8
AM_0
  6
CONTINUOUS
 62
     7
 10
-73.20587823908158
 20
-257.2119853012298
 30
0.0
 11
-73.21287823908165
 21
-257.1819853012298
 31
0.0
  0
LINE
  5
3DB
  8
AM_0
  6
CONTINUOUS
 62
     7
 10
-73.21287823908165
 20
-257.1819853012298
 30
0.0
 11
-73.21987823908171
 21
-257.1529853012299
 31
0.0
  0
LINE
  5
3DC
  8
AM_0
  6
CONTINUOUS
 62
     7
 10
-73.21987823908171
 20
-257.1529853012299
 30
0.0
 11
-73.22687823908154
 21
-257.12298530123
 31
0.0
  0
LINE
  5
3DD
  8
AM_0
  6
CONTINUOUS
 62
     7
 10
-73.22687823908154
 20
-257.12298530123
 30
0.0
 11
-73.23487823908158
 21
-257.0929853012301
 31
0.0
  0
LINE
  5
3DE
  8
AM_0
  6
CONTINUOUS
 62
     7
 10
-73.23487823908158
 20
-257.0929853012301
 30
0.0
 11
-73.24187823908164
 21
-257.0629853012301
 31
0.0
  0
LINE
  5
3DF
  8
AM_0
  6
CONTINUOUS
 62
     7
 10
-73.24187823908164
 20
-257.0629853012301
 30
0.0
 11
-73.24987823908191
 21
-257.0339853012298
 31
0.0
  0
LINE
  5
3E0
  8
AM_0
  6
CONTINUOUS
 62
     7
 10
-73.24987823908191
 20
-257.0339853012298
 30
0.0
 11
-73.26587823908153
 21
-256.9739853012298
 31
0.0
  0
LINE
  5
3E1
  8
AM_0
  6
CONTINUOUS
 62
     7
 10
-73.26587823908153
 20
-256.9739853012298
 30
0.0
 11
-73.2738782390818
 21
-256.94498530123
 31
0.0
  0
LINE
  5
3E2
  8
AM_0
  6
CONTINUOUS
 62
     7
 10
-73.2738782390818
 20
-256.94498530123
 30
0.0
 11
-73.28287823908181
 21
-256.9149853012301
 31
0.0
  0
LINE
  5
3E3
  8
AM_0
  6
CONTINUOUS
 62
     7
 10
-73.28287823908181
 20
-256.9149853012301
 30
0.0
 11
-73.29187823908183
 21
-256.8859853012301
 31
0.0
  0
LINE
  5
3E4
  8
AM_0
  6
CONTINUOUS
 62
     7
 10
-73.29187823908183
 20
-256.8859853012301
 30
0.0
 11
-73.29987823908164
 21
-256.8569853012301
 31
0.0
  0
LINE
  5
3E5
  8
AM_0
  6
CONTINUOUS
 62
     7
 10
-73.29987823908164
 20
-256.8569853012301
 30
0.0
 11
-73.30887823908165
 21
-256.8269853012299
 31
0.0
  0
LINE
  5
3E6
  8
AM_0
  6
CONTINUOUS
 62
     7
 10
-73.30887823908165
 20
-256.8269853012299
 30
0.0
 11
-73.31887823908187
 21
-256.79798530123
 31
0.0
  0
LINE
  5
3E7
  8
AM_0
  6
CONTINUOUS
 62
     7
 10
-73.31887823908187
 20
-256.79798530123
 30
0.0
 11
-73.32787823908188
 21
-256.7689853012297
 31
0.0
  0
LINE
  5
3E8
  8
AM_0
  6
CONTINUOUS
 62
     7
 10
-73.32787823908188
 20
-256.7689853012297
 30
0.0
 11
-73.33787823908165
 21
-256.7399853012298
 31
0.0
  0
LINE
  5
3E9
  8
AM_0
  6
CONTINUOUS
 62
     7
 10
-73.33787823908165
 20
-256.7399853012298
 30
0.0
 11
-73.34687823908143
 21
-256.7109853012302
 31
0.0
  0
LINE
  5
3EA
  8
AM_0
  6
CONTINUOUS
 62
     7
 10
-73.34687823908143
 20
-256.7109853012302
 30
0.0
 11
-73.37687823908186
 21
-256.6239853012299
 31
0.0
  0
LINE
  5
3EB
  8
AM_0
  6
CONTINUOUS
 62
     7
 10
-73.37687823908186
 20
-256.6239853012299
 30
0.0
 11
-73.3988782390818
 21
-256.5659853012298
 31
0.0
  0
LINE
  5
3EC
  8
AM_0
  6
CONTINUOUS
 62
     7
 10
-73.3988782390818
 20
-256.5659853012298
 30
0.0
 11
-73.40887823908156
 21
-256.53798530123
 31
0.0
  0
LINE
  5
3ED
  8
AM_0
  6
CONTINUOUS
 62
     7
 10
-73.40887823908156
 20
-256.53798530123
 30
0.0
 11
-73.4308782390815
 21
-256.4799853012298
 31
0.0
  0
LINE
  5
3EE
  8
AM_0
  6
CONTINUOUS
 62
     7
 10
-73.4308782390815
 20
-256.4799853012298
 30
0.0
 11
-73.44287823908167
 21
-256.4519853012299
 31
0.0
  0
LINE
  5
3EF
  8
AM_0
  6
CONTINUOUS
 62
     7
 10
-73.44287823908167
 20
-256.4519853012299
 30
0.0
 11
-73.45387823908163
 21
-256.42298530123
 31
0.0
  0
LINE
  5
3F0
  8
AM_0
  6
CONTINUOUS
 62
     7
 10
-73.45387823908163
 20
-256.42298530123
 30
0.0
 11
-73.48987823908169
 21
-256.3389853012299
 31
0.0
  0
LINE
  5
3F1
  8
AM_0
  6
CONTINUOUS
 62
     7
 10
-73.48987823908169
 20
-256.3389853012299
 30
0.0
 11
-73.50187823908186
 21
-256.30998530123
 31
0.0
  0
LINE
  5
3F2
  8
AM_0
  6
CONTINUOUS
 62
     7
 10
-73.50187823908186
 20
-256.30998530123
 30
0.0
 11
-73.51387823908158
 21
-256.2819853012297
 31
0.0
  0
LINE
  5
3F3
  8
AM_0
  6
CONTINUOUS
 62
     7
 10
-73.51387823908158
 20
-256.2819853012297
 30
0.0
 11
-73.52687823908195
 21
-256.2539853012299
 31
0.0
  0
LINE
  5
3F4
  8
AM_0
  6
CONTINUOUS
 62
     7
 10
-73.52687823908195
 20
-256.2539853012299
 30
0.0
 11
-73.53887823908167
 21
-256.2269853012301
 31
0.0
  0
LINE
  5
3F5
  8
AM_0
  6
CONTINUOUS
 62
     7
 10
-73.53887823908167
 20
-256.2269853012301
 30
0.0
 11
-73.55187823908159
 21
-256.1989853012302
 31
0.0
  0
LINE
  5
3F6
  8
AM_0
  6
CONTINUOUS
 62
     7
 10
-73.55187823908159
 20
-256.1989853012302
 30
0.0
 11
-73.56487823908151
 21
-256.1709853012298
 31
0.0
  0
LINE
  5
3F7
  8
AM_0
  6
CONTINUOUS
 62
     7
 10
-73.56487823908151
 20
-256.1709853012298
 30
0.0
 11
-73.57887823908163
 21
-256.1429853012303
 31
0.0
  0
LINE
  5
3F8
  8
AM_0
  6
CONTINUOUS
 62
     7
 10
-73.57887823908163
 20
-256.1429853012303
 30
0.0
 11
-73.59187823908155
 21
-256.1159853012299
 31
0.0
  0
LINE
  5
3F9
  8
AM_0
  6
CONTINUOUS
 62
     7
 10
-73.59187823908155
 20
-256.1159853012299
 30
0.0
 11
-73.60487823908147
 21
-256.08798530123
 31
0.0
  0
LINE
  5
3FA
  8
AM_0
  6
CONTINUOUS
 62
     7
 10
-73.60487823908147
 20
-256.08798530123
 30
0.0
 11
-73.6188782390816
 21
-256.0609853012297
 31
0.0
  0
LINE
  5
3FB
  8
AM_0
  6
CONTINUOUS
 62
     7
 10
-73.6188782390816
 20
-256.0609853012297
 30
0.0
 11
-73.63287823908172
 21
-256.0329853012302
 31
0.0
  0
LINE
  5
3FC
  8
AM_0
  6
CONTINUOUS
 62
     7
 10
-73.63287823908172
 20
-256.0329853012302
 30
0.0
 11
-73.66087823908197
 21
-255.9789853012297
 31
0.0
  0
LINE
  5
3FD
  8
AM_0
  6
CONTINUOUS
 62
     7
 10
-73.66087823908197
 20
-255.9789853012297
 30
0.0
 11
-73.67587823908184
 21
-255.9519853012299
 31
0.0
  0
LINE
  5
3FE
  8
AM_0
  6
CONTINUOUS
 62
     7
 10
-73.67587823908184
 20
-255.9519853012299
 30
0.0
 11
-73.68987823908196
 21
-255.9249853012301
 31
0.0
  0
LINE
  5
3FF
  8
AM_0
  6
CONTINUOUS
 62
     7
 10
-73.68987823908196
 20
-255.9249853012301
 30
0.0
 11
-73.73487823908158
 21
-255.8439853012298
 31
0.0
  0
LINE
  5
400
  8
AM_0
  6
CONTINUOUS
 62
     7
 10
-73.73487823908158
 20
-255.8439853012298
 30
0.0
 11
-73.74987823908191
 21
-255.8179853012301
 31
0.0
  0
LINE
  5
401
  8
AM_0
  6
CONTINUOUS
 62
     7
 10
-73.74987823908191
 20
-255.8179853012301
 30
0.0
 11
-73.76487823908178
 21
-255.7909853012299
 31
0.0
  0
LINE
  5
402
  8
AM_0
  6
CONTINUOUS
 62
     7
 10
-73.76487823908178
 20
-255.7909853012299
 30
0.0
 11
-73.79687823908148
 21
-255.7389853012298
 31
0.0
  0
LINE
  5
403
  8
AM_0
  6
CONTINUOUS
 62
     7
 10
-73.79687823908148
 20
-255.7389853012298
 30
0.0
 11
-73.81287823908156
 21
-255.7119853012299
 31
0.0
  0
LINE
  5
404
  8
AM_0
  6
CONTINUOUS
 62
     7
 10
-73.81287823908156
 20
-255.7119853012299
 30
0.0
 11
-73.86087823908179
 21
-255.6339853012302
 31
0.0
  0
LINE
  5
405
  8
AM_0
  6
CONTINUOUS
 62
     7
 10
-73.86087823908179
 20
-255.6339853012302
 30
0.0
 11
-73.87787823908161
 21
-255.6079853012301
 31
0.0
  0
LINE
  5
406
  8
AM_0
  6
CONTINUOUS
 62
     7
 10
-73.87787823908161
 20
-255.6079853012301
 30
0.0
 11
-73.89387823908169
 21
-255.5829853012301
 31
0.0
  0
LINE
  5
407
  8
AM_0
  6
CONTINUOUS
 62
     7
 10
-73.89387823908169
 20
-255.5829853012301
 30
0.0
 11
-73.92787823908179
 21
-255.5309853012301
 31
0.0
  0
LINE
  5
408
  8
AM_0
  6
CONTINUOUS
 62
     7
 10
-73.92787823908179
 20
-255.5309853012301
 30
0.0
 11
-73.96187823908144
 21
-255.4809853012299
 31
0.0
  0
LINE
  5
409
  8
AM_0
  6
CONTINUOUS
 62
     7
 10
-73.96187823908144
 20
-255.4809853012299
 30
0.0
 11
-73.97987823908147
 21
-255.4549853012297
 31
0.0
  0
LINE
  5
40A
  8
AM_0
  6
CONTINUOUS
 62
     7
 10
-73.97987823908147
 20
-255.4549853012297
 30
0.0
 11
-73.99687823908175
 21
-255.4299853012301
 31
0.0
  0
LINE
  5
40B
  8
AM_0
  6
CONTINUOUS
 62
     7
 10
-73.99687823908175
 20
-255.4299853012301
 30
0.0
 11
-74.05087823908184
 21
-255.3549853012299
 31
0.0
  0
LINE
  5
40C
  8
AM_0
  6
CONTINUOUS
 62
     7
 10
-74.05087823908184
 20
-255.3549853012299
 30
0.0
 11
-74.06887823908187
 21
-255.3309853012298
 31
0.0
  0
LINE
  5
40D
  8
AM_0
  6
CONTINUOUS
 62
     7
 10
-74.06887823908187
 20
-255.3309853012298
 30
0.0
 11
-74.08787823908165
 21
-255.3059853012297
 31
0.0
  0
LINE
  5
40E
  8
AM_0
  6
CONTINUOUS
 62
     7
 10
-74.08787823908165
 20
-255.3059853012297
 30
0.0
 11
-74.10587823908168
 21
-255.2819853012297
 31
0.0
  0
LINE
  5
40F
  8
AM_0
  6
CONTINUOUS
 62
     7
 10
-74.10587823908168
 20
-255.2819853012297
 30
0.0
 11
-74.12487823908191
 21
-255.2569853012301
 31
0.0
  0
LINE
  5
410
  8
AM_0
  6
CONTINUOUS
 62
     7
 10
-74.12487823908191
 20
-255.2569853012301
 30
0.0
 11
-74.14387823908169
 21
-255.2329853012301
 31
0.0
  0
LINE
  5
411
  8
AM_0
  6
CONTINUOUS
 62
     7
 10
-74.14387823908169
 20
-255.2329853012301
 30
0.0
 11
-74.16187823908172
 21
-255.2089853012301
 31
0.0
  0
LINE
  5
412
  8
AM_0
  6
CONTINUOUS
 62
     7
 10
-74.16187823908172
 20
-255.2089853012301
 30
0.0
 11
-74.1818782390817
 21
-255.1849853012301
 31
0.0
  0
LINE
  5
413
  8
AM_0
  6
CONTINUOUS
 62
     7
 10
-74.1818782390817
 20
-255.1849853012301
 30
0.0
 11
-74.21987823908171
 21
-255.1369853012299
 31
0.0
  0
LINE
  5
414
  8
AM_0
  6
CONTINUOUS
 62
     7
 10
-74.21987823908171
 20
-255.1369853012299
 30
0.0
 11
-74.23987823908169
 21
-255.1139853012298
 31
0.0
  0
LINE
  5
415
  8
AM_0
  6
CONTINUOUS
 62
     7
 10
-74.23987823908169
 20
-255.1139853012298
 30
0.0
 11
-74.25887823908192
 21
-255.0899853012299
 31
0.0
  0
LINE
  5
416
  8
AM_0
  6
CONTINUOUS
 62
     7
 10
-74.25887823908192
 20
-255.0899853012299
 30
0.0
 11
-74.29887823908189
 21
-255.0439853012299
 31
0.0
  0
LINE
  5
417
  8
AM_0
  6
CONTINUOUS
 62
     7
 10
-74.29887823908189
 20
-255.0439853012299
 30
0.0
 11
-74.31887823908187
 21
-255.0199853012301
 31
0.0
  0
LINE
  5
418
  8
AM_0
  6
CONTINUOUS
 62
     7
 10
-74.31887823908187
 20
-255.0199853012301
 30
0.0
 11
-74.33887823908185
 21
-254.9969853012302
 31
0.0
  0
LINE
  5
419
  8
AM_0
  6
CONTINUOUS
 62
     7
 10
-74.33887823908185
 20
-254.9969853012302
 30
0.0
 11
-74.35987823908158
 21
-254.9749853012298
 31
0.0
  0
LINE
  5
41A
  8
AM_0
  6
CONTINUOUS
 62
     7
 10
-74.35987823908158
 20
-254.9749853012298
 30
0.0
 11
-74.37987823908156
 21
-254.9519853012299
 31
0.0
  0
LINE
  5
41B
  8
AM_0
  6
CONTINUOUS
 62
     7
 10
-74.37987823908156
 20
-254.9519853012299
 30
0.0
 11
-74.40087823908175
 21
-254.9289853012301
 31
0.0
  0
LINE
  5
41C
  8
AM_0
  6
CONTINUOUS
 62
     7
 10
-74.40087823908175
 20
-254.9289853012301
 30
0.0
 11
-74.42187823908148
 21
-254.9069853012297
 31
0.0
  0
LINE
  5
41D
  8
AM_0
  6
CONTINUOUS
 62
     7
 10
-74.42187823908148
 20
-254.9069853012297
 30
0.0
 11
-74.44287823908167
 21
-254.8839853012298
 31
0.0
  0
LINE
  5
41E
  8
AM_0
  6
CONTINUOUS
 62
     7
 10
-74.44287823908167
 20
-254.8839853012298
 30
0.0
 11
-74.46387823908185
 21
-254.86198530123
 31
0.0
  0
LINE
  5
41F
  8
AM_0
  6
CONTINUOUS
 62
     7
 10
-74.46387823908185
 20
-254.86198530123
 30
0.0
 11
-74.48487823908158
 21
-254.8399853012299
 31
0.0
  0
LINE
  5
420
  8
AM_0
  6
CONTINUOUS
 62
     7
 10
-74.48487823908158
 20
-254.8399853012299
 30
0.0
 11
-74.50587823908177
 21
-254.8179853012301
 31
0.0
  0
LINE
  5
421
  8
AM_0
  6
CONTINUOUS
 62
     7
 10
-74.50587823908177
 20
-254.8179853012301
 30
0.0
 11
-74.5278782390817
 21
-254.7959853012297
 31
0.0
  0
LINE
  5
422
  8
AM_0
  6
CONTINUOUS
 62
     7
 10
-74.5278782390817
 20
-254.7959853012297
 30
0.0
 11
-74.54987823908164
 21
-254.77398530123
 31
0.0
  0
ENDBLK
  5
103
  8
0
  0
BLOCK
  8
0
  2
DC_GROUP_27
 70
     0
 10
0.0
 20
0.0
 30
0.0
  3
DC_GROUP_27
  1

  0
LINE
  5
423
  8
AM_0
  6
CONTINUOUS
 62
     7
 10
-93.15487823908165
 20
-326.3179853012298
 30
0.0
 11
-93.1238782390817
 21
-326.3179853012298
 31
0.0
  0
LINE
  5
424
  8
AM_0
  6
CONTINUOUS
 62
     7
 10
-93.1238782390817
 20
-326.3179853012298
 30
0.0
 11
-93.09387823908196
 21
-326.3169853012298
 31
0.0
  0
LINE
  5
425
  8
AM_0
  6
CONTINUOUS
 62
     7
 10
-93.09387823908196
 20
-326.3169853012298
 30
0.0
 11
-93.06287823908201
 21
-326.3169853012298
 31
0.0
  0
LINE
  5
426
  8
AM_0
  6
CONTINUOUS
 62
     7
 10
-93.06287823908201
 20
-326.3169853012298
 30
0.0
 11
-93.03187823908206
 21
-326.3159853012298
 31
0.0
  0
LINE
  5
427
  8
AM_0
  6
CONTINUOUS
 62
     7
 10
-93.03187823908206
 20
-326.3159853012298
 30
0.0
 11
-93.00187823908186
 21
-326.3149853012299
 31
0.0
  0
LINE
  5
428
  8
AM_0
  6
CONTINUOUS
 62
     7
 10
-93.00187823908186
 20
-326.3149853012299
 30
0.0
 11
-92.97087823908191
 21
-326.3139853012299
 31
0.0
  0
LINE
  5
429
  8
AM_0
  6
CONTINUOUS
 62
     7
 10
-92.97087823908191
 20
-326.3139853012299
 30
0.0
 11
-92.94087823908171
 21
-326.3129853012301
 31
0.0
  0
LINE
  5
42A
  8
AM_0
  6
CONTINUOUS
 62
     7
 10
-92.94087823908171
 20
-326.3129853012301
 30
0.0
 11
-92.90987823908176
 21
-326.3119853012298
 31
0.0
  0
LINE
  5
42B
  8
AM_0
  6
CONTINUOUS
 62
     7
 10
-92.90987823908176
 20
-326.3119853012298
 30
0.0
 11
-92.87887823908181
 21
-326.30998530123
 31
0.0
  0
LINE
  5
42C
  8
AM_0
  6
CONTINUOUS
 62
     7
 10
-92.87887823908181
 20
-326.30998530123
 30
0.0
 11
-92.84887823908207
 21
-326.30798530123
 31
0.0
  0
LINE
  5
42D
  8
AM_0
  6
CONTINUOUS
 62
     7
 10
-92.84887823908207
 20
-326.30798530123
 30
0.0
 11
-92.81787823908167
 21
-326.3059853012297
 31
0.0
  0
LINE
  5
42E
  8
AM_0
  6
CONTINUOUS
 62
     7
 10
-92.81787823908167
 20
-326.3059853012297
 30
0.0
 11
-92.78787823908146
 21
-326.3039853012296
 31
0.0
  0
LINE
  5
42F
  8
AM_0
  6
CONTINUOUS
 62
     7
 10
-92.78787823908146
 20
-326.3039853012296
 30
0.0
 11
-92.75687823908152
 21
-326.3019853012298
 31
0.0
  0
LINE
  5
430
  8
AM_0
  6
CONTINUOUS
 62
     7
 10
-92.75687823908152
 20
-326.3019853012298
 30
0.0
 11
-92.72587823908157
 21
-326.2989853012296
 31
0.0
  0
LINE
  5
431
  8
AM_0
  6
CONTINUOUS
 62
     7
 10
-92.72587823908157
 20
-326.2989853012296
 30
0.0
 11
-92.69587823908182
 21
-326.2959853012298
 31
0.0
  0
LINE
  5
432
  8
AM_0
  6
CONTINUOUS
 62
     7
 10
-92.69587823908182
 20
-326.2959853012298
 30
0.0
 11
-92.66487823908187
 21
-326.29298530123
 31
0.0
  0
LINE
  5
433
  8
AM_0
  6
CONTINUOUS
 62
     7
 10
-92.66487823908187
 20
-326.29298530123
 30
0.0
 11
-92.63487823908167
 21
-326.28998530123
 31
0.0
  0
LINE
  5
434
  8
AM_0
  6
CONTINUOUS
 62
     7
 10
-92.63487823908167
 20
-326.28998530123
 30
0.0
 11
-92.60387823908172
 21
-326.2869853012298
 31
0.0
  0
LINE
  5
435
  8
AM_0
  6
CONTINUOUS
 62
     7
 10
-92.60387823908172
 20
-326.2869853012298
 30
0.0
 11
-92.57387823908152
 21
-326.28298530123
 31
0.0
  0
LINE
  5
436
  8
AM_0
  6
CONTINUOUS
 62
     7
 10
-92.57387823908152
 20
-326.28298530123
 30
0.0
 11
-92.54287823908157
 21
-326.2799853012299
 31
0.0
  0
LINE
  5
437
  8
AM_0
  6
CONTINUOUS
 62
     7
 10
-92.54287823908157
 20
-326.2799853012299
 30
0.0
 11
-92.48287823908208
 21
-326.2719853012298
 31
0.0
  0
LINE
  5
438
  8
AM_0
  6
CONTINUOUS
 62
     7
 10
-92.48287823908208
 20
-326.2719853012298
 30
0.0
 11
-92.45187823908168
 21
-326.2679853012299
 31
0.0
  0
LINE
  5
439
  8
AM_0
  6
CONTINUOUS
 62
     7
 10
-92.45187823908168
 20
-326.2679853012299
 30
0.0
 11
-92.42187823908193
 21
-326.26298530123
 31
0.0
  0
LINE
  5
43A
  8
AM_0
  6
CONTINUOUS
 62
     7
 10
-92.42187823908193
 20
-326.26298530123
 30
0.0
 11
-92.39187823908173
 21
-326.2589853012298
 31
0.0
  0
LINE
  5
43B
  8
AM_0
  6
CONTINUOUS
 62
     7
 10
-92.39187823908173
 20
-326.2589853012298
 30
0.0
 11
-92.36087823908179
 21
-326.2539853012299
 31
0.0
  0
LINE
  5
43C
  8
AM_0
  6
CONTINUOUS
 62
     7
 10
-92.36087823908179
 20
-326.2539853012299
 30
0.0
 11
-92.30087823908184
 21
-326.2439853012298
 31
0.0
  0
LINE
  5
43D
  8
AM_0
  6
CONTINUOUS
 62
     7
 10
-92.30087823908184
 20
-326.2439853012298
 30
0.0
 11
-92.27087823908164
 21
-326.2379853012298
 31
0.0
  0
LINE
  5
43E
  8
AM_0
  6
CONTINUOUS
 62
     7
 10
-92.27087823908164
 20
-326.2379853012298
 30
0.0
 11
-92.2408782390819
 21
-326.2329853012298
 31
0.0
  0
LINE
  5
43F
  8
AM_0
  6
CONTINUOUS
 62
     7
 10
-92.2408782390819
 20
-326.2329853012298
 30
0.0
 11
-92.20987823908195
 21
-326.2269853012299
 31
0.0
  0
LINE
  5
440
  8
AM_0
  6
CONTINUOUS
 62
     7
 10
-92.20987823908195
 20
-326.2269853012299
 30
0.0
 11
-92.1198782390818
 21
-326.20898530123
 31
0.0
  0
LINE
  5
441
  8
AM_0
  6
CONTINUOUS
 62
     7
 10
-92.1198782390818
 20
-326.20898530123
 30
0.0
 11
-92.0898782390816
 21
-326.2019853012298
 31
0.0
  0
LINE
  5
442
  8
AM_0
  6
CONTINUOUS
 62
     7
 10
-92.0898782390816
 20
-326.2019853012298
 30
0.0
 11
-92.05987823908185
 21
-326.1959853012298
 31
0.0
  0
LINE
  5
443
  8
AM_0
  6
CONTINUOUS
 62
     7
 10
-92.05987823908185
 20
-326.1959853012298
 30
0.0
 11
-92.03087823908186
 21
-326.1889853012296
 31
0.0
  0
LINE
  5
444
  8
AM_0
  6
CONTINUOUS
 62
     7
 10
-92.03087823908186
 20
-326.1889853012296
 30
0.0
 11
-91.97087823908191
 21
-326.17498530123
 31
0.0
  0
LINE
  5
445
  8
AM_0
  6
CONTINUOUS
 62
     7
 10
-91.97087823908191
 20
-326.17498530123
 30
0.0
 11
-91.94087823908171
 21
-326.1669853012299
 31
0.0
  0
LINE
  5
446
  8
AM_0
  6
CONTINUOUS
 62
     7
 10
-91.94087823908171
 20
-326.1669853012299
 30
0.0
 11
-91.91087823908197
 21
-326.1599853012299
 31
0.0
  0
LINE
  5
447
  8
AM_0
  6
CONTINUOUS
 62
     7
 10
-91.91087823908197
 20
-326.1599853012299
 30
0.0
 11
-91.88187823908152
 21
-326.1519853012298
 31
0.0
  0
LINE
  5
448
  8
AM_0
  6
CONTINUOUS
 62
     7
 10
-91.88187823908152
 20
-326.1519853012298
 30
0.0
 11
-91.85187823908177
 21
-326.1439853012298
 31
0.0
  0
LINE
  5
449
  8
AM_0
  6
CONTINUOUS
 62
     7
 10
-91.85187823908177
 20
-326.1439853012298
 30
0.0
 11
-91.82287823908177
 21
-326.1359853012299
 31
0.0
  0
LINE
  5
44A
  8
AM_0
  6
CONTINUOUS
 62
     7
 10
-91.82287823908177
 20
-326.1359853012299
 30
0.0
 11
-91.79287823908157
 21
-326.1279853012298
 31
0.0
  0
LINE
  5
44B
  8
AM_0
  6
CONTINUOUS
 62
     7
 10
-91.79287823908157
 20
-326.1279853012298
 30
0.0
 11
-91.76387823908158
 21
-326.1189853012298
 31
0.0
  0
LINE
  5
44C
  8
AM_0
  6
CONTINUOUS
 62
     7
 10
-91.76387823908158
 20
-326.1189853012298
 30
0.0
 11
-91.73387823908183
 21
-326.1099853012298
 31
0.0
  0
LINE
  5
44D
  8
AM_0
  6
CONTINUOUS
 62
     7
 10
-91.73387823908183
 20
-326.1099853012298
 30
0.0
 11
-91.70487823908184
 21
-326.1019853012299
 31
0.0
  0
LINE
  5
44E
  8
AM_0
  6
CONTINUOUS
 62
     7
 10
-91.70487823908184
 20
-326.1019853012299
 30
0.0
 11
-91.67587823908184
 21
-326.09298530123
 31
0.0
  0
LINE
  5
44F
  8
AM_0
  6
CONTINUOUS
 62
     7
 10
-91.67587823908184
 20
-326.09298530123
 30
0.0
 11
-91.64587823908164
 21
-326.0829853012299
 31
0.0
  0
LINE
  5
450
  8
AM_0
  6
CONTINUOUS
 62
     7
 10
-91.64587823908164
 20
-326.0829853012299
 30
0.0
 11
-91.58787823908165
 21
-326.0649853012298
 31
0.0
  0
LINE
  5
451
  8
AM_0
  6
CONTINUOUS
 62
     7
 10
-91.58787823908165
 20
-326.0649853012298
 30
0.0
 11
-91.47187823908166
 21
-326.0249853012299
 31
0.0
  0
LINE
  5
452
  8
AM_0
  6
CONTINUOUS
 62
     7
 10
-91.47187823908166
 20
-326.0249853012299
 30
0.0
 11
-91.44287823908167
 21
-326.0139853012298
 31
0.0
  0
LINE
  5
453
  8
AM_0
  6
CONTINUOUS
 62
     7
 10
-91.44287823908167
 20
-326.0139853012298
 30
0.0
 11
-91.41387823908167
 21
-326.0039853012298
 31
0.0
  0
LINE
  5
454
  8
AM_0
  6
CONTINUOUS
 62
     7
 10
-91.41387823908167
 20
-326.0039853012298
 30
0.0
 11
-91.38587823908188
 21
-325.9929853012299
 31
0.0
  0
LINE
  5
455
  8
AM_0
  6
CONTINUOUS
 62
     7
 10
-91.38587823908188
 20
-325.9929853012299
 30
0.0
 11
-91.35687823908188
 21
-325.9819853012299
 31
0.0
  0
LINE
  5
456
  8
AM_0
  6
CONTINUOUS
 62
     7
 10
-91.35687823908188
 20
-325.9819853012299
 30
0.0
 11
-91.32887823908163
 21
-325.9709853012298
 31
0.0
  0
LINE
  5
457
  8
AM_0
  6
CONTINUOUS
 62
     7
 10
-91.32887823908163
 20
-325.9709853012298
 30
0.0
 11
-91.29987823908164
 21
-325.9589853012298
 31
0.0
  0
LINE
  5
458
  8
AM_0
  6
CONTINUOUS
 62
     7
 10
-91.29987823908164
 20
-325.9589853012298
 30
0.0
 11
-91.27187823908184
 21
-325.9479853012298
 31
0.0
  0
LINE
  5
459
  8
AM_0
  6
CONTINUOUS
 62
     7
 10
-91.27187823908184
 20
-325.9479853012298
 30
0.0
 11
-91.24287823908185
 21
-325.9359853012297
 31
0.0
  0
LINE
  5
45A
  8
AM_0
  6
CONTINUOUS
 62
     7
 10
-91.24287823908185
 20
-325.9359853012297
 30
0.0
 11
-91.13087823908177
 21
-325.8879853012298
 31
0.0
  0
LINE
  5
45B
  8
AM_0
  6
CONTINUOUS
 62
     7
 10
-91.13087823908177
 20
-325.8879853012298
 30
0.0
 11
-91.10287823908197
 21
-325.87498530123
 31
0.0
  0
LINE
  5
45C
  8
AM_0
  6
CONTINUOUS
 62
     7
 10
-91.10287823908197
 20
-325.87498530123
 30
0.0
 11
-91.07487823908173
 21
-325.8629853012298
 31
0.0
  0
LINE
  5
45D
  8
AM_0
  6
CONTINUOUS
 62
     7
 10
-91.07487823908173
 20
-325.8629853012298
 30
0.0
 11
-90.9908782390819
 21
-325.8239853012298
 31
0.0
  0
LINE
  5
45E
  8
AM_0
  6
CONTINUOUS
 62
     7
 10
-90.9908782390819
 20
-325.8239853012298
 30
0.0
 11
-90.96387823908185
 21
-325.8099853012301
 31
0.0
  0
LINE
  5
45F
  8
AM_0
  6
CONTINUOUS
 62
     7
 10
-90.96387823908185
 20
-325.8099853012301
 30
0.0
 11
-90.9358782390816
 21
-325.7969853012298
 31
0.0
  0
LINE
  5
460
  8
AM_0
  6
CONTINUOUS
 62
     7
 10
-90.9358782390816
 20
-325.7969853012298
 30
0.0
 11
-90.90887823908156
 21
-325.78298530123
 31
0.0
  0
LINE
  5
461
  8
AM_0
  6
CONTINUOUS
 62
     7
 10
-90.90887823908156
 20
-325.78298530123
 30
0.0
 11
-90.88187823908152
 21
-325.7689853012298
 31
0.0
  0
LINE
  5
462
  8
AM_0
  6
CONTINUOUS
 62
     7
 10
-90.88187823908152
 20
-325.7689853012298
 30
0.0
 11
-90.85387823908172
 21
-325.75498530123
 31
0.0
  0
LINE
  5
463
  8
AM_0
  6
CONTINUOUS
 62
     7
 10
-90.85387823908172
 20
-325.75498530123
 30
0.0
 11
-90.82687823908168
 21
-325.7409853012297
 31
0.0
  0
LINE
  5
464
  8
AM_0
  6
CONTINUOUS
 62
     7
 10
-90.82687823908168
 20
-325.7409853012297
 30
0.0
 11
-90.79987823908164
 21
-325.7259853012298
 31
0.0
  0
LINE
  5
465
  8
AM_0
  6
CONTINUOUS
 62
     7
 10
-90.79987823908164
 20
-325.7259853012298
 30
0.0
 11
-90.77287823908205
 21
-325.7119853012297
 31
0.0
  0
LINE
  5
466
  8
AM_0
  6
CONTINUOUS
 62
     7
 10
-90.77287823908205
 20
-325.7119853012297
 30
0.0
 11
-90.71887823908196
 21
-325.6819853012298
 31
0.0
  0
LINE
  5
467
  8
AM_0
  6
CONTINUOUS
 62
     7
 10
-90.71887823908196
 20
-325.6819853012298
 30
0.0
 11
-90.69287823908167
 21
-325.6669853012299
 31
0.0
  0
LINE
  5
468
  8
AM_0
  6
CONTINUOUS
 62
     7
 10
-90.69287823908167
 20
-325.6669853012299
 30
0.0
 11
-90.63887823908158
 21
-325.63698530123
 31
0.0
  0
LINE
  5
469
  8
AM_0
  6
CONTINUOUS
 62
     7
 10
-90.63887823908158
 20
-325.63698530123
 30
0.0
 11
-90.5868782390819
 21
-325.6049853012298
 31
0.0
  0
LINE
  5
46A
  8
AM_0
  6
CONTINUOUS
 62
     7
 10
-90.5868782390819
 20
-325.6049853012298
 30
0.0
 11
-90.55987823908185
 21
-325.5899853012299
 31
0.0
  0
LINE
  5
46B
  8
AM_0
  6
CONTINUOUS
 62
     7
 10
-90.55987823908185
 20
-325.5899853012299
 30
0.0
 11
-90.53387823908156
 21
-325.5739853012296
 31
0.0
  0
LINE
  5
46C
  8
AM_0
  6
CONTINUOUS
 62
     7
 10
-90.53387823908156
 20
-325.5739853012296
 30
0.0
 11
-90.50787823908172
 21
-325.55698530123
 31
0.0
  0
LINE
  5
46D
  8
AM_0
  6
CONTINUOUS
 62
     7
 10
-90.50787823908172
 20
-325.55698530123
 30
0.0
 11
-90.45587823908204
 21
-325.5249853012299
 31
0.0
  0
LINE
  5
46E
  8
AM_0
  6
CONTINUOUS
 62
     7
 10
-90.45587823908204
 20
-325.5249853012299
 30
0.0
 11
-90.4308782390815
 21
-325.5079853012299
 31
0.0
  0
LINE
  5
46F
  8
AM_0
  6
CONTINUOUS
 62
     7
 10
-90.4308782390815
 20
-325.5079853012299
 30
0.0
 11
-90.37887823908181
 21
-325.4739853012298
 31
0.0
  0
LINE
  5
470
  8
AM_0
  6
CONTINUOUS
 62
     7
 10
-90.37887823908181
 20
-325.4739853012298
 30
0.0
 11
-90.32887823908163
 21
-325.4399853012298
 31
0.0
  0
LINE
  5
471
  8
AM_0
  6
CONTINUOUS
 62
     7
 10
-90.32887823908163
 20
-325.4399853012298
 30
0.0
 11
-90.30287823908179
 21
-325.4219853012298
 31
0.0
  0
LINE
  5
472
  8
AM_0
  6
CONTINUOUS
 62
     7
 10
-90.30287823908179
 20
-325.4219853012298
 30
0.0
 11
-90.2778782390817
 21
-325.4049853012299
 31
0.0
  0
LINE
  5
473
  8
AM_0
  6
CONTINUOUS
 62
     7
 10
-90.2778782390817
 20
-325.4049853012299
 30
0.0
 11
-90.25287823908161
 21
-325.38698530123
 31
0.0
  0
LINE
  5
474
  8
AM_0
  6
CONTINUOUS
 62
     7
 10
-90.25287823908161
 20
-325.38698530123
 30
0.0
 11
-90.22787823908197
 21
-325.3689853012299
 31
0.0
  0
LINE
  5
475
  8
AM_0
  6
CONTINUOUS
 62
     7
 10
-90.22787823908197
 20
-325.3689853012299
 30
0.0
 11
-90.20387823908163
 21
-325.3509853012298
 31
0.0
  0
LINE
  5
476
  8
AM_0
  6
CONTINUOUS
 62
     7
 10
-90.20387823908163
 20
-325.3509853012298
 30
0.0
 11
-90.178878239082
 21
-325.3329853012299
 31
0.0
  0
LINE
  5
477
  8
AM_0
  6
CONTINUOUS
 62
     7
 10
-90.178878239082
 20
-325.3329853012299
 30
0.0
 11
-90.15387823908145
 21
-325.3139853012296
 31
0.0
  0
LINE
  5
478
  8
AM_0
  6
CONTINUOUS
 62
     7
 10
-90.15387823908145
 20
-325.3139853012296
 30
0.0
 11
-90.12987823908202
 21
-325.2959853012297
 31
0.0
  0
LINE
  5
479
  8
AM_0
  6
CONTINUOUS
 62
     7
 10
-90.12987823908202
 20
-325.2959853012297
 30
0.0
 11
-90.10587823908168
 21
-325.2769853012298
 31
0.0
  0
LINE
  5
47A
  8
AM_0
  6
CONTINUOUS
 62
     7
 10
-90.10587823908168
 20
-325.2769853012298
 30
0.0
 11
-90.08087823908158
 21
-325.2589853012298
 31
0.0
  0
LINE
  5
47B
  8
AM_0
  6
CONTINUOUS
 62
     7
 10
-90.08087823908158
 20
-325.2589853012298
 30
0.0
 11
-90.03287823908181
 21
-325.2209853012298
 31
0.0
  0
LINE
  5
47C
  8
AM_0
  6
CONTINUOUS
 62
     7
 10
-90.03287823908181
 20
-325.2209853012298
 30
0.0
 11
-90.00887823908192
 21
-325.2009853012298
 31
0.0
  0
LINE
  5
47D
  8
AM_0
  6
CONTINUOUS
 62
     7
 10
-90.00887823908192
 20
-325.2009853012298
 30
0.0
 11
-89.98587823908179
 21
-325.1819853012298
 31
0.0
  0
LINE
  5
47E
  8
AM_0
  6
CONTINUOUS
 62
     7
 10
-89.98587823908179
 20
-325.1819853012298
 30
0.0
 11
-89.96187823908144
 21
-325.1619853012298
 31
0.0
  0
LINE
  5
47F
  8
AM_0
  6
CONTINUOUS
 62
     7
 10
-89.96187823908144
 20
-325.1619853012298
 30
0.0
 11
-89.93787823908201
 21
-325.1429853012299
 31
0.0
  0
LINE
  5
480
  8
AM_0
  6
CONTINUOUS
 62
     7
 10
-89.93787823908201
 20
-325.1429853012299
 30
0.0
 11
-89.84587823908191
 21
-325.0629853012301
 31
0.0
  0
LINE
  5
481
  8
AM_0
  6
CONTINUOUS
 62
     7
 10
-89.84587823908191
 20
-325.0629853012301
 30
0.0
 11
-89.82287823908177
 21
-325.0419853012298
 31
0.0
  0
LINE
  5
482
  8
AM_0
  6
CONTINUOUS
 62
     7
 10
-89.82287823908177
 20
-325.0419853012298
 30
0.0
 11
-89.79987823908164
 21
-325.0219853012298
 31
0.0
  0
LINE
  5
483
  8
AM_0
  6
CONTINUOUS
 62
     7
 10
-89.79987823908164
 20
-325.0219853012298
 30
0.0
 11
-89.77687823908195
 21
-325.0009853012299
 31
0.0
  0
LINE
  5
484
  8
AM_0
  6
CONTINUOUS
 62
     7
 10
-89.77687823908195
 20
-325.0009853012299
 30
0.0
 11
-89.75487823908202
 21
-324.9799853012299
 31
0.0
  0
LINE
  5
485
  8
AM_0
  6
CONTINUOUS
 62
     7
 10
-89.75487823908202
 20
-324.9799853012299
 30
0.0
 11
-89.73187823908188
 21
-324.95898530123
 31
0.0
  0
LINE
  5
486
  8
AM_0
  6
CONTINUOUS
 62
     7
 10
-89.73187823908188
 20
-324.95898530123
 30
0.0
 11
-89.66587823908162
 21
-324.8959853012296
 31
0.0
  0
LINE
  5
487
  8
AM_0
  6
CONTINUOUS
 62
     7
 10
-89.66587823908162
 20
-324.8959853012296
 30
0.0
 11
-89.64387823908169
 21
-324.8739853012298
 31
0.0
  0
LINE
  5
488
  8
AM_0
  6
CONTINUOUS
 62
     7
 10
-89.64387823908169
 20
-324.8739853012298
 30
0.0
 11
-89.62187823908175
 21
-324.85298530123
 31
0.0
  0
ENDBLK
  5
106
  8
0
  0
BLOCK
  8
0
  2
DC_GROUP_28
 70
     0
 10
0.0
 20
0.0
 30
0.0
  3
DC_GROUP_28
  1

  0
TEXT
  5
48A
  8
AM_0
 62
     7
 10
145.156676201373
 20
-321.3890160183066
 30
0.0
 40
13.5
  1
001
 41
0.796764705882353
  7
DCSTYLE0
 72
     5
 11
171.279176201373
 21
-321.3890160183066
 31
0.0
  0
ENDBLK
  5
109
  8
0
  0
BLOCK
  8
0
  2
DC_GROUP_29
 70
     0
 10
0.0
 20
0.0
 30
0.0
  3
DC_GROUP_29
  1

  0
LINE
  5
48B
  8
AM_0
  6
CONTINUOUS
 62
     7
 10
144.6400021026168
 20
-148.6054573819218
 30
0.0
 11
144.5590021026167
 21
-148.571457381922
 31
0.0
  0
LINE
  5
48C
  8
AM_0
  6
CONTINUOUS
 62
     7
 10
144.5590021026167
 20
-148.571457381922
 30
0.0
 11
144.4780021026168
 21
-148.5364573819219
 31
0.0
  0
LINE
  5
48D
  8
AM_0
  6
CONTINUOUS
 62
     7
 10
144.4780021026168
 20
-148.5364573819219
 30
0.0
 11
144.3960021026166
 21
-148.503457381922
 31
0.0
  0
LINE
  5
48E
  8
AM_0
  6
CONTINUOUS
 62
     7
 10
144.3960021026166
 20
-148.503457381922
 30
0.0
 11
144.3130021026168
 21
-148.470457381922
 31
0.0
  0
LINE
  5
48F
  8
AM_0
  6
CONTINUOUS
 62
     7
 10
144.3130021026168
 20
-148.470457381922
 30
0.0
 11
144.2300021026167
 21
-148.4374573819219
 31
0.0
  0
LINE
  5
490
  8
AM_0
  6
CONTINUOUS
 62
     7
 10
144.2300021026167
 20
-148.4374573819219
 30
0.0
 11
144.1470021026166
 21
-148.405457381922
 31
0.0
  0
LINE
  5
491
  8
AM_0
  6
CONTINUOUS
 62
     7
 10
144.1470021026166
 20
-148.405457381922
 30
0.0
 11
144.0620021026168
 21
-148.373457381922
 31
0.0
  0
LINE
  5
492
  8
AM_0
  6
CONTINUOUS
 62
     7
 10
144.0620021026168
 20
-148.373457381922
 30
0.0
 11
143.9780021026168
 21
-148.342457381922
 31
0.0
  0
LINE
  5
493
  8
AM_0
  6
CONTINUOUS
 62
     7
 10
143.9780021026168
 20
-148.342457381922
 30
0.0
 11
143.8920021026167
 21
-148.311457381922
 31
0.0
  0
LINE
  5
494
  8
AM_0
  6
CONTINUOUS
 62
     7
 10
143.8920021026167
 20
-148.311457381922
 30
0.0
 11
143.8070021026167
 21
-148.2814573819219
 31
0.0
  0
LINE
  5
495
  8
AM_0
  6
CONTINUOUS
 62
     7
 10
143.8070021026167
 20
-148.2814573819219
 30
0.0
 11
143.7200021026169
 21
-148.251457381922
 31
0.0
  0
LINE
  5
496
  8
AM_0
  6
CONTINUOUS
 62
     7
 10
143.7200021026169
 20
-148.251457381922
 30
0.0
 11
143.633002102617
 21
-148.222457381922
 31
0.0
  0
LINE
  5
497
  8
AM_0
  6
CONTINUOUS
 62
     7
 10
143.633002102617
 20
-148.222457381922
 30
0.0
 11
143.5460021026167
 21
-148.193457381922
 31
0.0
  0
LINE
  5
498
  8
AM_0
  6
CONTINUOUS
 62
     7
 10
143.5460021026167
 20
-148.193457381922
 30
0.0
 11
143.4580021026168
 21
-148.1654573819218
 31
0.0
  0
LINE
  5
499
  8
AM_0
  6
CONTINUOUS
 62
     7
 10
143.4580021026168
 20
-148.1654573819218
 30
0.0
 11
143.3700021026168
 21
-148.1374573819219
 31
0.0
  0
LINE
  5
49A
  8
AM_0
  6
CONTINUOUS
 62
     7
 10
143.3700021026168
 20
-148.1374573819219
 30
0.0
 11
143.2810021026169
 21
-148.1104573819221
 31
0.0
  0
LINE
  5
49B
  8
AM_0
  6
CONTINUOUS
 62
     7
 10
143.2810021026169
 20
-148.1104573819221
 30
0.0
 11
143.1920021026169
 21
-148.083457381922
 31
0.0
  0
LINE
  5
49C
  8
AM_0
  6
CONTINUOUS
 62
     7
 10
143.1920021026169
 20
-148.083457381922
 30
0.0
 11
143.1020021026168
 21
-148.0574573819219
 31
0.0
  0
LINE
  5
49D
  8
AM_0
  6
CONTINUOUS
 62
     7
 10
143.1020021026168
 20
-148.0574573819219
 30
0.0
 11
143.0120021026166
 21
-148.0314573819219
 31
0.0
  0
LINE
  5
49E
  8
AM_0
  6
CONTINUOUS
 62
     7
 10
143.0120021026166
 20
-148.0314573819219
 30
0.0
 11
142.9210021026167
 21
-148.006457381922
 31
0.0
  0
LINE
  5
49F
  8
AM_0
  6
CONTINUOUS
 62
     7
 10
142.9210021026167
 20
-148.006457381922
 30
0.0
 11
142.8300021026168
 21
-147.982457381922
 31
0.0
  0
LINE
  5
4A0
  8
AM_0
  6
CONTINUOUS
 62
     7
 10
142.8300021026168
 20
-147.982457381922
 30
0.0
 11
142.7380021026167
 21
-147.958457381922
 31
0.0
  0
LINE
  5
4A1
  8
AM_0
  6
CONTINUOUS
 62
     7
 10
142.7380021026167
 20
-147.958457381922
 30
0.0
 11
142.6460021026166
 21
-147.934457381922
 31
0.0
  0
LINE
  5
4A2
  8
AM_0
  6
CONTINUOUS
 62
     7
 10
142.6460021026166
 20
-147.934457381922
 30
0.0
 11
142.554002102617
 21
-147.9114573819219
 31
0.0
  0
LINE
  5
4A3
  8
AM_0
  6
CONTINUOUS
 62
     7
 10
142.554002102617
 20
-147.9114573819219
 30
0.0
 11
142.4610021026167
 21
-147.8894573819219
 31
0.0
  0
LINE
  5
4A4
  8
AM_0
  6
CONTINUOUS
 62
     7
 10
142.4610021026167
 20
-147.8894573819219
 30
0.0
 11
142.3680021026169
 21
-147.8674573819218
 31
0.0
  0
LINE
  5
4A5
  8
AM_0
  6
CONTINUOUS
 62
     7
 10
142.3680021026169
 20
-147.8674573819218
 30
0.0
 11
142.275002102617
 21
-147.845457381922
 31
0.0
  0
LINE
  5
4A6
  8
AM_0
  6
CONTINUOUS
 62
     7
 10
142.275002102617
 20
-147.845457381922
 30
0.0
 11
142.1810021026165
 21
-147.825457381922
 31
0.0
  0
LINE
  5
4A7
  8
AM_0
  6
CONTINUOUS
 62
     7
 10
142.1810021026165
 20
-147.825457381922
 30
0.0
 11
142.0870021026167
 21
-147.804457381922
 31
0.0
  0
LINE
  5
4A8
  8
AM_0
  6
CONTINUOUS
 62
     7
 10
142.0870021026167
 20
-147.804457381922
 30
0.0
 11
141.9920021026169
 21
-147.785457381922
 31
0.0
  0
LINE
  5
4A9
  8
AM_0
  6
CONTINUOUS
 62
     7
 10
141.9920021026169
 20
-147.785457381922
 30
0.0
 11
141.8970021026166
 21
-147.765457381922
 31
0.0
  0
LINE
  5
4AA
  8
AM_0
  6
CONTINUOUS
 62
     7
 10
141.8970021026166
 20
-147.765457381922
 30
0.0
 11
141.8020021026168
 21
-147.7474573819219
 31
0.0
  0
LINE
  5
4AB
  8
AM_0
  6
CONTINUOUS
 62
     7
 10
141.8020021026168
 20
-147.7474573819219
 30
0.0
 11
141.7070021026168
 21
-147.729457381922
 31
0.0
  0
LINE
  5
4AC
  8
AM_0
  6
CONTINUOUS
 62
     7
 10
141.7070021026168
 20
-147.729457381922
 30
0.0
 11
141.6110021026168
 21
-147.7114573819219
 31
0.0
  0
LINE
  5
4AD
  8
AM_0
  6
CONTINUOUS
 62
     7
 10
141.6110021026168
 20
-147.7114573819219
 30
0.0
 11
141.5150021026168
 21
-147.6944573819219
 31
0.0
  0
LINE
  5
4AE
  8
AM_0
  6
CONTINUOUS
 62
     7
 10
141.5150021026168
 20
-147.6944573819219
 30
0.0
 11
141.4180021026166
 21
-147.678457381922
 31
0.0
  0
LINE
  5
4AF
  8
AM_0
  6
CONTINUOUS
 62
     7
 10
141.4180021026166
 20
-147.678457381922
 30
0.0
 11
141.3210021026168
 21
-147.662457381922
 31
0.0
  0
LINE
  5
4B0
  8
AM_0
  6
CONTINUOUS
 62
     7
 10
141.3210021026168
 20
-147.662457381922
 30
0.0
 11
141.2240021026169
 21
-147.647457381922
 31
0.0
  0
LINE
  5
4B1
  8
AM_0
  6
CONTINUOUS
 62
     7
 10
141.2240021026169
 20
-147.647457381922
 30
0.0
 11
141.1270021026169
 21
-147.6324573819219
 31
0.0
  0
LINE
  5
4B2
  8
AM_0
  6
CONTINUOUS
 62
     7
 10
141.1270021026169
 20
-147.6324573819219
 30
0.0
 11
141.0300021026167
 21
-147.618457381922
 31
0.0
  0
LINE
  5
4B3
  8
AM_0
  6
CONTINUOUS
 62
     7
 10
141.0300021026167
 20
-147.618457381922
 30
0.0
 11
140.9320021026169
 21
-147.604457381922
 31
0.0
  0
LINE
  5
4B4
  8
AM_0
  6
CONTINUOUS
 62
     7
 10
140.9320021026169
 20
-147.604457381922
 30
0.0
 11
140.8340021026168
 21
-147.5914573819219
 31
0.0
  0
LINE
  5
4B5
  8
AM_0
  6
CONTINUOUS
 62
     7
 10
140.8340021026168
 20
-147.5914573819219
 30
0.0
 11
140.7360021026168
 21
-147.5794573819219
 31
0.0
  0
LINE
  5
4B6
  8
AM_0
  6
CONTINUOUS
 62
     7
 10
140.7360021026168
 20
-147.5794573819219
 30
0.0
 11
140.6370021026166
 21
-147.5674573819221
 31
0.0
  0
LINE
  5
4B7
  8
AM_0
  6
CONTINUOUS
 62
     7
 10
140.6370021026166
 20
-147.5674573819221
 30
0.0
 11
140.5390021026167
 21
-147.556457381922
 31
0.0
  0
LINE
  5
4B8
  8
AM_0
  6
CONTINUOUS
 62
     7
 10
140.5390021026167
 20
-147.556457381922
 30
0.0
 11
140.4400021026167
 21
-147.5454573819219
 31
0.0
  0
LINE
  5
4B9
  8
AM_0
  6
CONTINUOUS
 62
     7
 10
140.4400021026167
 20
-147.5454573819219
 30
0.0
 11
140.3410021026168
 21
-147.535457381922
 31
0.0
  0
LINE
  5
4BA
  8
AM_0
  6
CONTINUOUS
 62
     7
 10
140.3410021026168
 20
-147.535457381922
 30
0.0
 11
140.2420021026169
 21
-147.525457381922
 31
0.0
  0
LINE
  5
4BB
  8
AM_0
  6
CONTINUOUS
 62
     7
 10
140.2420021026169
 20
-147.525457381922
 30
0.0
 11
140.1420021026167
 21
-147.5164573819218
 31
0.0
  0
LINE
  5
4BC
  8
AM_0
  6
CONTINUOUS
 62
     7
 10
140.1420021026167
 20
-147.5164573819218
 30
0.0
 11
140.0430021026168
 21
-147.508457381922
 31
0.0
  0
LINE
  5
4BD
  8
AM_0
  6
CONTINUOUS
 62
     7
 10
140.0430021026168
 20
-147.508457381922
 30
0.0
 11
139.9430021026169
 21
-147.5004573819219
 31
0.0
  0
LINE
  5
4BE
  8
AM_0
  6
CONTINUOUS
 62
     7
 10
139.9430021026169
 20
-147.5004573819219
 30
0.0
 11
139.8430021026168
 21
-147.4924573819218
 31
0.0
  0
LINE
  5
4BF
  8
AM_0
  6
CONTINUOUS
 62
     7
 10
139.8430021026168
 20
-147.4924573819218
 30
0.0
 11
139.7440021026168
 21
-147.486457381922
 31
0.0
  0
LINE
  5
4C0
  8
AM_0
  6
CONTINUOUS
 62
     7
 10
139.7440021026168
 20
-147.486457381922
 30
0.0
 11
139.6440021026169
 21
-147.4804573819218
 31
0.0
  0
LINE
  5
4C1
  8
AM_0
  6
CONTINUOUS
 62
     7
 10
139.6440021026169
 20
-147.4804573819218
 30
0.0
 11
139.5440021026168
 21
-147.474457381922
 31
0.0
  0
LINE
  5
4C2
  8
AM_0
  6
CONTINUOUS
 62
     7
 10
139.5440021026168
 20
-147.474457381922
 30
0.0
 11
139.4430021026169
 21
-147.469457381922
 31
0.0
  0
LINE
  5
4C3
  8
AM_0
  6
CONTINUOUS
 62
     7
 10
139.4430021026169
 20
-147.469457381922
 30
0.0
 11
139.3430021026168
 21
-147.465457381922
 31
0.0
  0
LINE
  5
4C4
  8
AM_0
  6
CONTINUOUS
 62
     7
 10
139.3430021026168
 20
-147.465457381922
 30
0.0
 11
139.2430021026169
 21
-147.4614573819219
 31
0.0
  0
LINE
  5
4C5
  8
AM_0
  6
CONTINUOUS
 62
     7
 10
139.2430021026169
 20
-147.4614573819219
 30
0.0
 11
139.1420021026167
 21
-147.458457381922
 31
0.0
  0
LINE
  5
4C6
  8
AM_0
  6
CONTINUOUS
 62
     7
 10
139.1420021026167
 20
-147.458457381922
 30
0.0
 11
139.0420021026168
 21
-147.455457381922
 31
0.0
  0
LINE
  5
4C7
  8
AM_0
  6
CONTINUOUS
 62
     7
 10
139.0420021026168
 20
-147.455457381922
 30
0.0
 11
138.9410021026169
 21
-147.453457381922
 31
0.0
  0
LINE
  5
4C8
  8
AM_0
  6
CONTINUOUS
 62
     7
 10
138.9410021026169
 20
-147.453457381922
 30
0.0
 11
138.8410021026168
 21
-147.452457381922
 31
0.0
  0
LINE
  5
4C9
  8
AM_0
  6
CONTINUOUS
 62
     7
 10
138.8410021026168
 20
-147.452457381922
 30
0.0
 11
138.7400021026167
 21
-147.451457381922
 31
0.0
  0
LINE
  5
4CA
  8
AM_0
  6
CONTINUOUS
 62
     7
 10
138.7400021026167
 20
-147.451457381922
 30
0.0
 11
138.6400021026168
 21
-147.450457381922
 31
0.0
  0
LINE
  5
4CB
  8
AM_0
  6
CONTINUOUS
 62
     7
 10
138.6400021026168
 20
-147.450457381922
 30
0.0
 11
138.5390021026167
 21
-147.451457381922
 31
0.0
  0
LINE
  5
4CC
  8
AM_0
  6
CONTINUOUS
 62
     7
 10
138.5390021026167
 20
-147.451457381922
 30
0.0
 11
138.4390021026168
 21
-147.452457381922
 31
0.0
  0
LINE
  5
4CD
  8
AM_0
  6
CONTINUOUS
 62
     7
 10
138.4390021026168
 20
-147.452457381922
 30
0.0
 11
138.3380021026167
 21
-147.453457381922
 31
0.0
  0
LINE
  5
4CE
  8
AM_0
  6
CONTINUOUS
 62
     7
 10
138.3380021026167
 20
-147.453457381922
 30
0.0
 11
138.2380021026167
 21
-147.455457381922
 31
0.0
  0
LINE
  5
4CF
  8
AM_0
  6
CONTINUOUS
 62
     7
 10
138.2380021026167
 20
-147.455457381922
 30
0.0
 11
138.1370021026169
 21
-147.458457381922
 31
0.0
  0
LINE
  5
4D0
  8
AM_0
  6
CONTINUOUS
 62
     7
 10
138.1370021026169
 20
-147.458457381922
 30
0.0
 11
138.0370021026167
 21
-147.4614573819219
 31
0.0
  0
LINE
  5
4D1
  8
AM_0
  6
CONTINUOUS
 62
     7
 10
138.0370021026167
 20
-147.4614573819219
 30
0.0
 11
137.9370021026168
 21
-147.465457381922
 31
0.0
  0
LINE
  5
4D2
  8
AM_0
  6
CONTINUOUS
 62
     7
 10
137.9370021026168
 20
-147.465457381922
 30
0.0
 11
137.8360021026167
 21
-147.469457381922
 31
0.0
  0
LINE
  5
4D3
  8
AM_0
  6
CONTINUOUS
 62
     7
 10
137.8360021026167
 20
-147.469457381922
 30
0.0
 11
137.7360021026168
 21
-147.474457381922
 31
0.0
  0
LINE
  5
4D4
  8
AM_0
  6
CONTINUOUS
 62
     7
 10
137.7360021026168
 20
-147.474457381922
 30
0.0
 11
137.6360021026169
 21
-147.4804573819218
 31
0.0
  0
LINE
  5
4D5
  8
AM_0
  6
CONTINUOUS
 62
     7
 10
137.6360021026169
 20
-147.4804573819218
 30
0.0
 11
137.5360021026167
 21
-147.486457381922
 31
0.0
  0
LINE
  5
4D6
  8
AM_0
  6
CONTINUOUS
 62
     7
 10
137.5360021026167
 20
-147.486457381922
 30
0.0
 11
137.4360021026166
 21
-147.4924573819218
 31
0.0
  0
LINE
  5
4D7
  8
AM_0
  6
CONTINUOUS
 62
     7
 10
137.4360021026166
 20
-147.4924573819218
 30
0.0
 11
137.3360021026167
 21
-147.5004573819219
 31
0.0
  0
LINE
  5
4D8
  8
AM_0
  6
CONTINUOUS
 62
     7
 10
137.3360021026167
 20
-147.5004573819219
 30
0.0
 11
137.2370021026168
 21
-147.508457381922
 31
0.0
  0
LINE
  5
4D9
  8
AM_0
  6
CONTINUOUS
 62
     7
 10
137.2370021026168
 20
-147.508457381922
 30
0.0
 11
137.1370021026169
 21
-147.5164573819218
 31
0.0
  0
LINE
  5
4DA
  8
AM_0
  6
CONTINUOUS
 62
     7
 10
137.1370021026169
 20
-147.5164573819218
 30
0.0
 11
137.0380021026167
 21
-147.525457381922
 31
0.0
  0
LINE
  5
4DB
  8
AM_0
  6
CONTINUOUS
 62
     7
 10
137.0380021026167
 20
-147.525457381922
 30
0.0
 11
136.9390021026168
 21
-147.535457381922
 31
0.0
  0
LINE
  5
4DC
  8
AM_0
  6
CONTINUOUS
 62
     7
 10
136.9390021026168
 20
-147.535457381922
 30
0.0
 11
136.8400021026166
 21
-147.5454573819219
 31
0.0
  0
LINE
  5
4DD
  8
AM_0
  6
CONTINUOUS
 62
     7
 10
136.8400021026166
 20
-147.5454573819219
 30
0.0
 11
136.7410021026169
 21
-147.556457381922
 31
0.0
  0
LINE
  5
4DE
  8
AM_0
  6
CONTINUOUS
 62
     7
 10
136.7410021026169
 20
-147.556457381922
 30
0.0
 11
136.6420021026167
 21
-147.5674573819221
 31
0.0
  0
LINE
  5
4DF
  8
AM_0
  6
CONTINUOUS
 62
     7
 10
136.6420021026167
 20
-147.5674573819221
 30
0.0
 11
136.5440021026163
 21
-147.5794573819219
 31
0.0
  0
LINE
  5
4E0
  8
AM_0
  6
CONTINUOUS
 62
     7
 10
136.5440021026163
 20
-147.5794573819219
 30
0.0
 11
136.4460021026168
 21
-147.5914573819219
 31
0.0
  0
LINE
  5
4E1
  8
AM_0
  6
CONTINUOUS
 62
     7
 10
136.4460021026168
 20
-147.5914573819219
 30
0.0
 11
136.3480021026169
 21
-147.604457381922
 31
0.0
  0
LINE
  5
4E2
  8
AM_0
  6
CONTINUOUS
 62
     7
 10
136.3480021026169
 20
-147.604457381922
 30
0.0
 11
136.2500021026169
 21
-147.618457381922
 31
0.0
  0
LINE
  5
4E3
  8
AM_0
  6
CONTINUOUS
 62
     7
 10
136.2500021026169
 20
-147.618457381922
 30
0.0
 11
136.1530021026169
 21
-147.6324573819219
 31
0.0
  0
LINE
  5
4E4
  8
AM_0
  6
CONTINUOUS
 62
     7
 10
136.1530021026169
 20
-147.6324573819219
 30
0.0
 11
136.0550021026168
 21
-147.647457381922
 31
0.0
  0
LINE
  5
4E5
  8
AM_0
  6
CONTINUOUS
 62
     7
 10
136.0550021026168
 20
-147.647457381922
 30
0.0
 11
135.9580021026168
 21
-147.662457381922
 31
0.0
  0
LINE
  5
4E6
  8
AM_0
  6
CONTINUOUS
 62
     7
 10
135.9580021026168
 20
-147.662457381922
 30
0.0
 11
135.862002102617
 21
-147.678457381922
 31
0.0
  0
LINE
  5
4E7
  8
AM_0
  6
CONTINUOUS
 62
     7
 10
135.862002102617
 20
-147.678457381922
 30
0.0
 11
135.7650021026168
 21
-147.6944573819219
 31
0.0
  0
LINE
  5
4E8
  8
AM_0
  6
CONTINUOUS
 62
     7
 10
135.7650021026168
 20
-147.6944573819219
 30
0.0
 11
135.6690021026166
 21
-147.7114573819219
 31
0.0
  0
LINE
  5
4E9
  8
AM_0
  6
CONTINUOUS
 62
     7
 10
135.6690021026166
 20
-147.7114573819219
 30
0.0
 11
135.5730021026166
 21
-147.729457381922
 31
0.0
  0
LINE
  5
4EA
  8
AM_0
  6
CONTINUOUS
 62
     7
 10
135.5730021026166
 20
-147.729457381922
 30
0.0
 11
135.4780021026168
 21
-147.7474573819219
 31
0.0
  0
LINE
  5
4EB
  8
AM_0
  6
CONTINUOUS
 62
     7
 10
135.4780021026168
 20
-147.7474573819219
 30
0.0
 11
135.3820021026168
 21
-147.765457381922
 31
0.0
  0
LINE
  5
4EC
  8
AM_0
  6
CONTINUOUS
 62
     7
 10
135.3820021026168
 20
-147.765457381922
 30
0.0
 11
135.287002102617
 21
-147.785457381922
 31
0.0
  0
LINE
  5
4ED
  8
AM_0
  6
CONTINUOUS
 62
     7
 10
135.287002102617
 20
-147.785457381922
 30
0.0
 11
135.1930021026167
 21
-147.804457381922
 31
0.0
  0
LINE
  5
4EE
  8
AM_0
  6
CONTINUOUS
 62
     7
 10
135.1930021026167
 20
-147.804457381922
 30
0.0
 11
135.0990021026169
 21
-147.825457381922
 31
0.0
  0
LINE
  5
4EF
  8
AM_0
  6
CONTINUOUS
 62
     7
 10
135.0990021026169
 20
-147.825457381922
 30
0.0
 11
135.0050021026166
 21
-147.845457381922
 31
0.0
  0
LINE
  5
4F0
  8
AM_0
  6
CONTINUOUS
 62
     7
 10
135.0050021026166
 20
-147.845457381922
 30
0.0
 11
134.9110021026167
 21
-147.8674573819218
 31
0.0
  0
LINE
  5
4F1
  8
AM_0
  6
CONTINUOUS
 62
     7
 10
134.9110021026167
 20
-147.8674573819218
 30
0.0
 11
134.8180021026169
 21
-147.8894573819219
 31
0.0
  0
LINE
  5
4F2
  8
AM_0
  6
CONTINUOUS
 62
     7
 10
134.8180021026169
 20
-147.8894573819219
 30
0.0
 11
134.7250021026168
 21
-147.9114573819219
 31
0.0
  0
LINE
  5
4F3
  8
AM_0
  6
CONTINUOUS
 62
     7
 10
134.7250021026168
 20
-147.9114573819219
 30
0.0
 11
134.6330021026167
 21
-147.934457381922
 31
0.0
  0
LINE
  5
4F4
  8
AM_0
  6
CONTINUOUS
 62
     7
 10
134.6330021026167
 20
-147.934457381922
 30
0.0
 11
134.5410021026166
 21
-147.958457381922
 31
0.0
  0
LINE
  5
4F5
  8
AM_0
  6
CONTINUOUS
 62
     7
 10
134.5410021026166
 20
-147.958457381922
 30
0.0
 11
134.4500021026167
 21
-147.982457381922
 31
0.0
  0
LINE
  5
4F6
  8
AM_0
  6
CONTINUOUS
 62
     7
 10
134.4500021026167
 20
-147.982457381922
 30
0.0
 11
134.3590021026168
 21
-148.006457381922
 31
0.0
  0
LINE
  5
4F7
  8
AM_0
  6
CONTINUOUS
 62
     7
 10
134.3590021026168
 20
-148.006457381922
 30
0.0
 11
134.2680021026165
 21
-148.0314573819219
 31
0.0
  0
LINE
  5
4F8
  8
AM_0
  6
CONTINUOUS
 62
     7
 10
134.2680021026165
 20
-148.0314573819219
 30
0.0
 11
134.1780021026168
 21
-148.0574573819219
 31
0.0
  0
LINE
  5
4F9
  8
AM_0
  6
CONTINUOUS
 62
     7
 10
134.1780021026168
 20
-148.0574573819219
 30
0.0
 11
134.0880021026169
 21
-148.083457381922
 31
0.0
  0
LINE
  5
4FA
  8
AM_0
  6
CONTINUOUS
 62
     7
 10
134.0880021026169
 20
-148.083457381922
 30
0.0
 11
133.9990021026167
 21
-148.1104573819221
 31
0.0
  0
LINE
  5
4FB
  8
AM_0
  6
CONTINUOUS
 62
     7
 10
133.9990021026167
 20
-148.1104573819221
 30
0.0
 11
133.9100021026168
 21
-148.1374573819219
 31
0.0
  0
LINE
  5
4FC
  8
AM_0
  6
CONTINUOUS
 62
     7
 10
133.9100021026168
 20
-148.1374573819219
 30
0.0
 11
133.8220021026168
 21
-148.1654573819218
 31
0.0
  0
LINE
  5
4FD
  8
AM_0
  6
CONTINUOUS
 62
     7
 10
133.8220021026168
 20
-148.1654573819218
 30
0.0
 11
133.7340021026168
 21
-148.193457381922
 31
0.0
  0
LINE
  5
4FE
  8
AM_0
  6
CONTINUOUS
 62
     7
 10
133.7340021026168
 20
-148.193457381922
 30
0.0
 11
133.6460021026166
 21
-148.222457381922
 31
0.0
  0
LINE
  5
4FF
  8
AM_0
  6
CONTINUOUS
 62
     7
 10
133.6460021026166
 20
-148.222457381922
 30
0.0
 11
133.5590021026167
 21
-148.251457381922
 31
0.0
  0
LINE
  5
500
  8
AM_0
  6
CONTINUOUS
 62
     7
 10
133.5590021026167
 20
-148.251457381922
 30
0.0
 11
133.4730021026169
 21
-148.2814573819219
 31
0.0
  0
LINE
  5
501
  8
AM_0
  6
CONTINUOUS
 62
     7
 10
133.4730021026169
 20
-148.2814573819219
 30
0.0
 11
133.3870021026169
 21
-148.311457381922
 31
0.0
  0
LINE
  5
502
  8
AM_0
  6
CONTINUOUS
 62
     7
 10
133.3870021026169
 20
-148.311457381922
 30
0.0
 11
133.3020021026168
 21
-148.342457381922
 31
0.0
  0
LINE
  5
503
  8
AM_0
  6
CONTINUOUS
 62
     7
 10
133.3020021026168
 20
-148.342457381922
 30
0.0
 11
133.2170021026163
 21
-148.373457381922
 31
0.0
  0
LINE
  5
504
  8
AM_0
  6
CONTINUOUS
 62
     7
 10
133.2170021026163
 20
-148.373457381922
 30
0.0
 11
133.1330021026165
 21
-148.405457381922
 31
0.0
  0
LINE
  5
505
  8
AM_0
  6
CONTINUOUS
 62
     7
 10
133.1330021026165
 20
-148.405457381922
 30
0.0
 11
133.0490021026169
 21
-148.4374573819219
 31
0.0
  0
LINE
  5
506
  8
AM_0
  6
CONTINUOUS
 62
     7
 10
133.0490021026169
 20
-148.4374573819219
 30
0.0
 11
132.9660021026168
 21
-148.470457381922
 31
0.0
  0
LINE
  5
507
  8
AM_0
  6
CONTINUOUS
 62
     7
 10
132.9660021026168
 20
-148.470457381922
 30
0.0
 11
132.8840021026167
 21
-148.503457381922
 31
0.0
  0
LINE
  5
508
  8
AM_0
  6
CONTINUOUS
 62
     7
 10
132.8840021026167
 20
-148.503457381922
 30
0.0
 11
132.8020021026168
 21
-148.5364573819219
 31
0.0
  0
LINE
  5
509
  8
AM_0
  6
CONTINUOUS
 62
     7
 10
132.8020021026168
 20
-148.5364573819219
 30
0.0
 11
132.7210021026167
 21
-148.571457381922
 31
0.0
  0
LINE
  5
50A
  8
AM_0
  6
CONTINUOUS
 62
     7
 10
132.7210021026167
 20
-148.571457381922
 30
0.0
 11
132.6400021026168
 21
-148.6054573819218
 31
0.0
  0
ENDBLK
  5
10C
  8
0
  0
BLOCK
  8
0
  2
DC_GROUP_30
 70
     0
 10
0.0
 20
0.0
 30
0.0
  3
DC_GROUP_30
  1

  0
LINE
  5
50B
  8
AM_4
  6
CONTINUOUS
 62
   150
 10
2.875023685777819
 20
285.9231865777016
 30
0.0
 11
-4.124976314222181
 21
285.9231865777016
 31
0.0
  0
ENDBLK
  5
10F
  8
0
  0
BLOCK
  8
0
  2
DC_GROUP_31
 70
     0
 10
0.0
 20
0.0
 30
0.0
  3
DC_GROUP_31
  1

  0
LINE
  5
50C
  8
AM_4
  6
CONTINUOUS
 62
   150
 10
2.875023685777819
 20
274.9231865777012
 30
0.0
 11
-4.124976314222181
 21
274.9231865777012
 31
0.0
  0
ENDBLK
  5
112
  8
0
  0
BLOCK
  8
0
  2
DC_GROUP_32
 70
     0
 10
0.0
 20
0.0
 30
0.0
  3
DC_GROUP_32
  1

  0
CIRCLE
  5
50D
  8
0
  6
CONTINUOUS
 62
     3
 10
-190.6249763143037
 20
306.9231865777017
 30
0.0
 40
4.5
  0
LINE
  5
50E
  8
0
  6
CONTINUOUS
 62
     3
 10
-188.8925647003966
 20
308.6555981916088
 30
0.0
 11
-192.3573879282108
 21
305.1907749637946
 31
0.0
  0
LINE
  5
50F
  8
0
  6
CONTINUOUS
 62
     3
 10
-192.3573879282108
 20
308.6555981916088
 30
0.0
 11
-188.8925647003966
 21
305.1907749637946
 31
0.0
  0
ENDBLK
  5
115
  8
0
  0
BLOCK
  8
0
  2
DC_GROUP_33
 70
     0
 10
0.0
 20
0.0
 30
0.0
  3
DC_GROUP_33
  1

  0
CIRCLE
  5
510
  8
0
  6
CONTINUOUS
 62
     3
 10
-57.62497631430369
 20
306.9231865777017
 30
0.0
 40
4.5
  0
LINE
  5
511
  8
0
  6
CONTINUOUS
 62
     3
 10
-55.89256470039663
 20
308.6555981916088
 30
0.0
 11
-59.35738792821076
 21
305.1907749637948
 31
0.0
  0
LINE
  5
512
  8
0
  6
CONTINUOUS
 62
     3
 10
-59.35738792821076
 20
308.6555981916088
 30
0.0
 11
-55.89256470039663
 21
305.1907749637948
 31
0.0
  0
ENDBLK
  5
118
  8
0
  0
BLOCK
  8
0
  2
DC_GROUP_34
 70
     0
 10
0.0
 20
0.0
 30
0.0
  3
DC_GROUP_34
  1

  0
CIRCLE
  5
513
  8
0
  6
CONTINUOUS
 62
     3
 10
-57.57067878852013
 20
208.9231865777025
 30
0.0
 40
4.5
  0
LINE
  5
514
  8
0
  6
CONTINUOUS
 62
     3
 10
-55.83826717461307
 20
210.6555981916096
 30
0.0
 11
-59.30309040242719
 21
207.1907749637954
 31
0.0
  0
LINE
  5
515
  8
0
  6
CONTINUOUS
 62
     3
 10
-59.30309040242719
 20
210.6555981916096
 30
0.0
 11
-55.83826717461307
 21
207.1907749637954
 31
0.0
  0
ENDBLK
  5
11B
  8
0
  0
BLOCK
  8
0
  2
DC_GROUP_35
 70
     0
 10
0.0
 20
0.0
 30
0.0
  3
DC_GROUP_35
  1

  0
CIRCLE
  5
516
  8
0
  6
CONTINUOUS
 62
     3
 10
-190.6792738400873
 20
208.9231865777025
 30
0.0
 40
4.5
  0
LINE
  5
517
  8
0
  6
CONTINUOUS
 62
     3
 10
-188.9468622261802
 20
210.6555981916096
 30
0.0
 11
-192.4116854539943
 21
207.1907749637954
 31
0.0
  0
LINE
  5
518
  8
0
  6
CONTINUOUS
 62
     3
 10
-192.4116854539943
 20
210.6555981916096
 30
0.0
 11
-188.9468622261802
 21
207.1907749637954
 31
0.0
  0
ENDBLK
  5
11E
  8
0
  0
BLOCK
  8
0
  2
DC_GROUP_36
 70
     0
 10
0.0
 20
0.0
 30
0.0
  3
DC_GROUP_36
  1

  0
LINE
  5
519
  8
0
  6
CONTINUOUS
 62
     3
 10
-52.62802278115475
 20
12.39435260403741
 30
0.0
 11
-62.62802278115475
 21
12.39435260403741
 31
0.0
  0
LINE
  5
51A
  8
0
  6
CONTINUOUS
 62
     3
 10
-52.62802278115475
 20
12.39435260403741
 30
0.0
 11
-52.62802278115475
 21
10.89435260403741
 31
0.0
  0
LINE
  5
51B
  8
0
  6
CONTINUOUS
 62
     3
 10
-62.62802278115475
 20
12.39435260403741
 30
0.0
 11
-62.62802278115475
 21
10.89435260403741
 31
0.0
  0
LINE
  5
51C
  8
0
  6
CONTINUOUS
 62
     3
 10
-53.12802278115475
 20
12.39435260403741
 30
0.0
 11
-53.21437710895577
 21
14.04209133638247
 31
0.0
  0
LINE
  5
51D
  8
0
  6
CONTINUOUS
 62
     3
 10
-62.12802278115475
 20
12.39435260403741
 30
0.0
 11
-62.04166845335419
 21
14.04209133638247
 31
0.0
  0
ARC
  5
51E
  8
0
  6
CONTINUOUS
 62
     3
 10
-54.4517408626092
 20
13.97724384988817
 30
0.0
 40
1.239061844848766
 50
3.000000000000004
 51
75.648115107119
  0
ARC
  5
51F
  8
0
  6
CONTINUOUS
 62
     3
 10
-60.80430469970054
 20
13.97724384988817
 30
0.0
 40
1.239061844848766
 50
104.351884892881
 51
177.0
  0
ARC
  5
520
  8
0
  6
CONTINUOUS
 62
     3
 10
-57.62802278115475
 20
3.694352604037419
 30
0.0
 40
12.0
 50
73.12500000000001
 51
106.875
  0
ENDBLK
  5
121
  8
0
  0
BLOCK
  8
0
  2
DC_GROUP_37
 70
     0
 10
0.0
 20
0.0
 30
0.0
  3
DC_GROUP_37
  1

  0
LINE
  5
521
  8
0
  6
CONTINUOUS
 62
     3
 10
-185.624972781155
 20
12.39435260403741
 30
0.0
 11
-195.624972781155
 21
12.39435260403741
 31
0.0
  0
LINE
  5
522
  8
0
  6
CONTINUOUS
 62
     3
 10
-185.624972781155
 20
12.39435260403741
 30
0.0
 11
-185.624972781155
 21
10.89435260403741
 31
0.0
  0
LINE
  5
523
  8
0
  6
CONTINUOUS
 62
     3
 10
-195.624972781155
 20
12.39435260403741
 30
0.0
 11
-195.624972781155
 21
10.89435260403741
 31
0.0
  0
LINE
  5
524
  8
0
  6
CONTINUOUS
 62
     3
 10
-186.124972781155
 20
12.39435260403741
 30
0.0
 11
-186.2113271089557
 21
14.04209133638247
 31
0.0
  0
LINE
  5
525
  8
0
  6
CONTINUOUS
 62
     3
 10
-195.124972781155
 20
12.39435260403741
 30
0.0
 11
-195.0386184533542
 21
14.04209133638247
 31
0.0
  0
ARC
  5
526
  8
0
  6
CONTINUOUS
 62
     3
 10
-187.4486908626094
 20
13.97724384988817
 30
0.0
 40
1.239061844848766
 50
3.000000000000004
 51
75.648115107119
  0
ARC
  5
527
  8
0
  6
CONTINUOUS
 62
     3
 10
-193.8012546997007
 20
13.97724384988817
 30
0.0
 40
1.239061844848766
 50
104.351884892881
 51
177.0
  0
ARC
  5
528
  8
0
  6
CONTINUOUS
 62
     3
 10
-190.624972781155
 20
3.694352604037419
 30
0.0
 40
12.0
 50
73.12500000000001
 51
106.875
  0
ENDBLK
  5
124
  8
0
  0
BLOCK
  8
0
  2
DC_GROUP_38
 70
     0
 10
0.0
 20
0.0
 30
0.0
  3
DC_GROUP_38
  1

  0
LINE
  5
529
  8
0
  6
CONTINUOUS
 62
     3
 10
192.1386295111722
 20
12.39435260403654
 30
0.0
 11
183.7427705613032
 21
12.39435260403654
 31
0.0
  0
LINE
  5
52A
  8
0
  6
CONTINUOUS
 62
     3
 10
192.1386295111722
 20
12.39435260403654
 30
0.0
 11
192.1386295111722
 21
10.89435260403654
 31
0.0
  0
LINE
  5
52B
  8
0
  6
CONTINUOUS
 62
     3
 10
191.6386295111722
 20
12.39435260403654
 30
0.0
 11
191.5522751833711
 21
14.0420913363816
 31
0.0
  0
ARC
  5
52C
  8
0
  6
CONTINUOUS
 62
     3
 10
190.3149114297177
 20
13.9772438498873
 30
0.0
 40
1.239061844848766
 50
3.000000000000004
 51
75.648115107119
  0
ARC
  5
52D
  8
0
  6
CONTINUOUS
 62
     3
 10
183.9623475926264
 20
13.9772438498873
 30
0.0
 40
1.239061844848766
 50
104.351884892881
 51
105.0874093028966
  0
ARC
  5
52E
  8
0
  6
CONTINUOUS
 62
     3
 10
187.1386295111722
 20
3.694352604036553
 30
0.0
 40
12.0
 50
73.12500000000001
 51
106.875
  0
ENDBLK
  5
127
  8
0
  0
BLOCK
  8
0
  2
DC_GROUP_39
 70
     0
 10
0.0
 20
0.0
 30
0.0
  3
DC_GROUP_39
  1

  0
LINE
  5
52F
  8
0
  6
CONTINUOUS
 62
     3
 10
93.63982928488963
 20
12.39435260403654
 30
0.0
 11
85.14102905860824
 21
12.39435260403654
 31
0.0
  0
LINE
  5
530
  8
0
  6
CONTINUOUS
 62
     3
 10
85.14102905860824
 20
12.39435260403654
 30
0.0
 11
85.14102905860824
 21
10.89435260403654
 31
0.0
  0
LINE
  5
531
  8
0
  6
CONTINUOUS
 62
     3
 10
85.64102905860824
 20
12.39435260403654
 30
0.0
 11
85.72738338640903
 21
14.0420913363816
 31
0.0
  0
ARC
  5
532
  8
0
  6
CONTINUOUS
 62
     3
 10
86.96474714006246
 20
13.9772438498873
 30
0.0
 40
1.239061844848766
 50
104.351884892881
 51
177.0
  0
ARC
  5
533
  8
0
  6
CONTINUOUS
 62
     3
 10
90.14102905860824
 20
3.694352604036553
 30
0.0
 40
12.0
 50
73.12500000000001
 51
106.875
  0
ENDBLK
  5
12A
  8
0
  0
BLOCK
  8
0
  2
DC_FILL_GROUP_40
 70
     0
 10
0.0
 20
0.0
 30
0.0
  3
DC_FILL_GROUP_40
  1

  0
LINE
  5
534
  8
0
  6
CONTINUOUS
 62
     3
 10
84.13982928489014
 20
3.394352604037508
 30
0.0
 11
84.13982928489014
 21
4.894352604036484
 31
0.0
  0
ENDBLK
  5
12D
  8
0
  0
BLOCK
  8
0
  2
*U41
 70
     1
 10
0.0
 20
0.0
 30
0.0
  3
*U41
  1

  0
SOLID
  5
70F
  8
0
  6
CONTINUOUS
 62
     7
 10
84.13982928489193
 20
3.394352604037316
 30
0.0
 11
84.13982928489193
 21
4.894352604036484
 31
0.0
 12
93.63982928488963
 22
3.39435260403737
 32
0.0
 13
93.63982928488963
 23
3.39435260403737
 33
0.0
  0
SOLID
  5
710
  8
0
  6
CONTINUOUS
 62
     7
 10
93.63982928488963
 20
3.39435260403737
 30
0.0
 11
84.13982928489193
 21
4.894352604036484
 31
0.0
 12
93.63982928488963
 22
4.894352604036484
 32
0.0
 13
93.63982928488963
 23
4.894352604036484
 33
0.0
  0
SOLID
  5
711
  8
0
  6
CONTINUOUS
 62
     7
 10
183.6398292848901
 20
3.394352604036877
 30
0.0
 11
183.6398292848901
 21
4.894352604036484
 31
0.0
 12
193.13982928489
 22
3.394352604036825
 32
0.0
 13
193.13982928489
 23
3.394352604036825
 33
0.0
  0
SOLID
  5
712
  8
0
  6
CONTINUOUS
 62
     7
 10
193.13982928489
 20
3.394352604036825
 30
0.0
 11
183.6398292848901
 21
4.894352604036484
 31
0.0
 12
193.13982928489
 22
4.894352604036484
 32
0.0
 13
193.13982928489
 23
4.894352604036484
 33
0.0
  0
ENDBLK
  5
714
  8
0
  0
ENDSEC
  0
SECTION
  2
ENTITIES
  0
LINE
  5
535
  8
AM_0
  6
CONTINUOUS
 62
     7
 10
-151.6249763142266
 20
-80.60564739596236
 30
0.0
 11
-96.62497631422661
 21
-80.60564739596236
 31
0.0
  0
LINE
  5
536
  8
AM_0
  6
CONTINUOUS
 62
     7
 10
-96.62497631422661
 20
-78.60564739596236
 30
0.0
 11
-96.62497631422661
 21
-80.60564739596236
 31
0.0
  0
LINE
  5
537
  8
AM_0
  6
CONTINUOUS
 62
     7
 10
-151.6249763142266
 20
-78.60564739596236
 30
0.0
 11
-151.6249763142266
 21
-80.60564739596236
 31
0.0
  0
LINE
  5
538
  8
AM_0
  6
CONTINUOUS
 62
     7
 10
-48.62497631430404
 20
-0.854980729295562
 30
0.0
 11
-48.62497631430404
 21
-32.35631406262905
 31
0.0
  0
LINE
  5
539
  8
AM_0
  6
CONTINUOUS
 62
     7
 10
-48.62497631430404
 20
-30.60564739596236
 30
0.0
 11
-50.62497631430404
 21
-30.60564739596236
 31
0.0
  0
LINE
  5
53A
  8
AM_0
  6
CONTINUOUS
 62
     7
 10
-48.62497631430404
 20
-2.605647395962649
 30
0.0
 11
-50.62497631430404
 21
-2.605647395962649
 31
0.0
  0
LINE
  5
53B
  8
AM_0
  6
CONTINUOUS
 62
     7
 10
-48.62497631422218
 20
263.9231865776958
 30
0.0
 11
-50.62497631422218
 21
263.9231865776958
 31
0.0
  0
LINE
  5
53C
  8
AM_0
  6
CONTINUOUS
 62
     7
 10
-48.62497631422218
 20
291.923186577696
 30
0.0
 11
-50.62497631422218
 21
291.923186577696
 31
0.0
  0
ARC
  5
53D
  8
AM_0
  6
CONTINUOUS
 62
     7
 10
85.13982928489418
 20
-2.605647395962649
 30
0.0
 40
0.9999999999999964
 50
180.0
 51
270.0
  0
LINE
  5
53E
  8
AM_0
  6
CONTINUOUS
 62
     7
 10
93.5587155502908
 20
-3.605647395962478
 30
0.0
 11
85.13982928489418
 21
-3.605647395962478
 31
0.0
  0
LINE
  5
53F
  8
AM_0
  6
CONTINUOUS
 62
     7
 10
84.13982928489372
 20
3.394352604037124
 30
0.0
 11
84.13982928489372
 21
-2.605647395962649
 31
0.0
  0
ARC
  5
540
  8
AM_0
  6
CONTINUOUS
 62
     7
 10
99.59705651379045
 20
-73.60564739596236
 30
0.0
 40
4.999999999999992
 50
181.6000000000059
 51
270.0
  0
ARC
  5
541
  8
AM_0
  6
CONTINUOUS
 62
     7
 10
177.6826020559756
 20
-73.60564739596236
 30
0.0
 40
4.999999999999976
 50
270.0
 51
358.4000000000065
  0
LINE
  5
542
  8
AM_0
  6
CONTINUOUS
 62
     7
 10
99.59705651379045
 20
-78.60564739596236
 30
0.0
 11
177.6826020559756
 21
-78.60564739596236
 31
0.0
  0
CIRCLE
  5
543
  8
AM_0
  6
CONTINUOUS
 62
     7
 10
-124.1249763142266
 20
-282.2769496700316
 30
0.0
 40
18.0
  0
CIRCLE
  5
544
  8
AM_0
  6
CONTINUOUS
 62
     7
 10
-124.1249763142266
 20
-282.2769496700122
 30
0.0
 40
27.5
  0
LINE
  5
545
  8
AM_0
  6
CONTINUOUS
 62
     7
 10
-155.0950667620561
 20
-326.3177730163043
 30
0.0
 11
-93.15488586639708
 21
-326.3177730163043
 31
0.0
  0
LINE
  5
546
  8
AM_0
  6
CONTINUOUS
 62
     7
 10
-89.62210725239697
 20
-324.8525010551038
 30
0.0
 11
-74.54942492913301
 21
-309.7798187318405
 31
0.0
  0
LINE
  5
547
  8
AM_0
  6
CONTINUOUS
 62
     7
 10
-175.1657996605211
 20
-258.3068592221803
 30
0.0
 11
-175.1657996605211
 21
-306.2470401178398
 31
0.0
  0
LINE
  5
548
  8
AM_0
  6
CONTINUOUS
 62
     7
 10
-173.7005276993202
 20
-309.7798187318405
 30
0.0
 11
-158.6278453760567
 21
-324.8525010551038
 31
0.0
  0
LINE
  5
549
  8
AM_0
  6
CONTINUOUS
 62
     7
 10
-73.08415296793214
 20
-306.2470401178398
 30
0.0
 11
-73.08415296793214
 21
-258.3068592221803
 31
0.0
  0
LINE
  5
54A
  8
AM_0
  6
CONTINUOUS
 62
     7
 10
-74.54942492913301
 20
-254.7740806081806
 30
0.0
 11
-89.62210725239697
 21
-239.701398284918
 31
0.0
  0
LINE
  5
54B
  8
AM_0
  6
CONTINUOUS
 62
     7
 10
-93.15488586639708
 20
-238.2361263237153
 30
0.0
 11
-155.0950667620557
 21
-238.2361263237153
 31
0.0
  0
LINE
  5
54C
  8
AM_0
  6
CONTINUOUS
 62
     7
 10
-158.6278453760567
 20
-239.701398284918
 30
0.0
 11
-173.7005276993202
 21
-254.7740806081806
 31
0.0
  0
CIRCLE
  5
54D
  8
AM_0
  6
CONTINUOUS
 62
     7
 10
-99.2329748542586
 20
-306.8815887309365
 30
0.0
 40
3.2
  0
CIRCLE
  5
54E
  8
AM_0
  6
CONTINUOUS
 62
     7
 10
-149.0169777741951
 20
-306.8815887309365
 30
0.0
 40
3.2
  0
CIRCLE
  5
54F
  8
AM_0
  6
CONTINUOUS
 62
     7
 10
-99.2329748542586
 20
-257.6723106091351
 30
0.0
 40
3.2
  0
CIRCLE
  5
550
  8
AM_0
  6
CONTINUOUS
 62
     7
 10
-149.0169777741951
 20
-257.6723106091351
 30
0.0
 40
3.2
  0
CIRCLE
  5
551
  8
AM_0
  6
CONTINUOUS
 62
     7
 10
-124.1249763142266
 20
-282.2769496700357
 30
0.0
 40
9.999999999999998
  0
CIRCLE
  5
552
  8
AM_0
  6
CONTINUOUS
 62
     7
 10
98.63982928488963
 20
28.39368593737095
 30
0.0
 40
3.5
  0
LINE
  5
553
  8
AM_0
  6
CONTINUOUS
 62
     7
 10
99.50585468867416
 20
26.89368593737083
 30
0.0
 11
97.773803881106
 21
26.89368593737083
 31
0.0
  0
LINE
  5
554
  8
AM_0
  6
CONTINUOUS
 62
     7
 10
97.773803881106
 20
26.89368593737083
 30
0.0
 11
96.90777847732102
 21
28.39368593737095
 31
0.0
  0
LINE
  5
555
  8
AM_0
  6
CONTINUOUS
 62
     7
 10
96.90777847732102
 20
28.39368593737095
 30
0.0
 11
97.773803881106
 21
29.89368593737106
 31
0.0
  0
LINE
  5
556
  8
AM_0
  6
CONTINUOUS
 62
     7
 10
97.773803881106
 20
29.89368593737106
 30
0.0
 11
99.50585468867416
 21
29.89368593737106
 31
0.0
  0
LINE
  5
557
  8
AM_0
  6
CONTINUOUS
 62
     7
 10
99.50585468867416
 20
29.89368593737106
 30
0.0
 11
100.3718800924585
 21
28.39368593737095
 31
0.0
  0
LINE
  5
558
  8
AM_0
  6
CONTINUOUS
 62
     7
 10
100.3718800924585
 20
28.39368593737095
 30
0.0
 11
99.50585468867416
 21
26.89368593737083
 31
0.0
  0
LINE
  5
559
  8
AM_0
  6
CONTINUOUS
 62
     7
 10
-4.624976314304035
 20
-16.10631406262894
 30
0.0
 11
-3.874309647637233
 21
-16.10631406262894
 31
0.0
  0
LINE
  5
55A
  8
AM_0
  6
CONTINUOUS
 62
     7
 10
-3.874309647637233
 20
-16.10631406262894
 30
0.0
 11
-3.874309647637233
 21
-32.10631406262905
 31
0.0
  0
LINE
  5
55B
  8
AM_0
  6
CONTINUOUS
 62
     7
 10
-3.874309647637233
 20
-32.10631406262905
 30
0.0
 11
-4.624976314304035
 21
-32.10631406262905
 31
0.0
  0
LINE
  5
55C
  8
AM_0
  6
CONTINUOUS
 62
     7
 10
6.875690352362767
 20
-18.60631406262928
 30
0.0
 11
6.875690352362767
 21
-29.60631406262894
 31
0.0
  0
LINE
  5
55D
  8
AM_0
  6
CONTINUOUS
 62
     7
 10
8.375690352362767
 20
-29.60631406262894
 30
0.0
 11
8.375690352362767
 21
-18.60631406262928
 31
0.0
  0
LINE
  5
55E
  8
AM_0
  6
CONTINUOUS
 62
     7
 10
8.375690352362767
 20
-18.60631406262928
 30
0.0
 11
6.875690352362767
 21
-18.60631406262928
 31
0.0
  0
LINE
  5
55F
  8
AM_0
  6
CONTINUOUS
 62
     7
 10
-1.624309647637233
 20
-30.10631406262894
 30
0.0
 11
-1.624309647637233
 21
-18.10631406262928
 31
0.0
  0
LINE
  5
560
  8
AM_0
  6
CONTINUOUS
 62
     7
 10
-1.624309647637233
 20
-18.60631406262928
 30
0.0
 11
-3.874309647637233
 21
-18.60631406262928
 31
0.0
  0
LINE
  5
561
  8
AM_0
  6
CONTINUOUS
 62
     7
 10
6.375690352362767
 20
-18.10631406262928
 30
0.0
 11
-1.624309647637233
 21
-18.10631406262928
 31
0.0
  0
LINE
  5
562
  8
AM_0
  6
CONTINUOUS
 62
     7
 10
6.375690352362767
 20
-30.10631406262894
 30
0.0
 11
6.375690352362767
 21
-18.10631406262928
 31
0.0
  0
LINE
  5
563
  8
AM_0
  6
CONTINUOUS
 62
     7
 10
-45.72125320734142
 20
30.15172905502203
 30
0.0
 11
-23.62497631430404
 21
31.21664408328184
 31
0.0
  0
LINE
  5
564
  8
AM_0
  6
CONTINUOUS
 62
     7
 10
-23.62497631430404
 20
25.24312128778001
 30
0.0
 11
-45.72362477871059
 21
24.15179407711946
 31
0.0
  0
LINE
  5
565
  8
AM_0
  6
CONTINUOUS
 62
     7
 10
-21.79150711654654
 20
-46.34173282226385
 30
0.0
 11
-18.62497631430404
 21
-46.60631406262905
 31
0.0
  0
LINE
  5
566
  8
AM_0
  6
CONTINUOUS
 62
     7
 10
-18.62497631430404
 20
-46.60631406262905
 30
0.0
 11
-18.62497631430404
 21
33.39368593737083
 31
0.0
  0
LINE
  5
567
  8
AM_0
  6
CONTINUOUS
 62
     7
 10
183.6398292848901
 20
29.39368593737083
 30
0.0
 11
183.6398292848901
 21
-42.60631406262905
 31
0.0
  0
LINE
  5
568
  8
AM_0
  6
CONTINUOUS
 62
     7
 10
93.63982928488963
 20
-42.60631406262905
 30
0.0
 11
93.63982928488963
 21
29.39368593737083
 31
0.0
  0
LINE
  5
569
  8
AM_0
  6
CONTINUOUS
 62
     7
 10
179.6398292848901
 20
33.39368593737083
 30
0.0
 11
97.63982928488963
 21
33.39368593737083
 31
0.0
  0
LINE
  5
56A
  8
AM_0
  6
CONTINUOUS
 62
     7
 10
-23.62497631430404
 20
31.13604988293133
 30
0.0
 11
-23.62497631430404
 21
-44.34867800818955
 31
0.0
  0
LINE
  5
56B
  8
AM_0
  6
CONTINUOUS
 62
     7
 10
-17.62497631430404
 20
33.39368593737083
 30
0.0
 11
-17.62497631430404
 21
-46.60631406262905
 31
0.0
  0
LINE
  5
56C
  8
AM_0
  6
CONTINUOUS
 62
     7
 10
-14.62497631430404
 20
-46.60631406262905
 30
0.0
 11
-18.62497631430404
 21
-46.60631406262905
 31
0.0
  0
LINE
  5
56D
  8
AM_0
  6
CONTINUOUS
 62
     7
 10
-12.62497631430404
 20
-36.10698072929569
 30
0.0
 11
-9.624976314304035
 21
-36.10698072929569
 31
0.0
  0
LINE
  5
56E
  8
AM_0
  6
CONTINUOUS
 62
     7
 10
97.63982928488963
 20
-46.60631406262905
 30
0.0
 11
179.6398292848901
 21
-46.60631406262905
 31
0.0
  0
CIRCLE
  5
56F
  8
AM_0
  6
CONTINUOUS
 62
     7
 10
138.6398292848901
 20
8.893685937371458
 30
0.0
 40
13.5
  0
CIRCLE
  5
570
  8
AM_0
  6
CONTINUOUS
 62
     7
 10
138.6398292848901
 20
8.893685937371458
 30
0.0
 40
11.0
  0
CIRCLE
  5
571
  8
AM_0
  6
CONTINUOUS
 62
     7
 10
113.6404959515569
 20
-24.10631406262894
 30
0.0
 40
8.0
  0
CIRCLE
  5
572
  8
AM_0
  6
CONTINUOUS
 62
     7
 10
113.6404959515569
 20
-24.10631406262894
 30
0.0
 40
6.0
  0
CIRCLE
  5
573
  8
AM_0
  6
CONTINUOUS
 62
     7
 10
161.1398292848896
 20
-24.10631406262894
 30
0.0
 40
6.0
  0
CIRCLE
  5
574
  8
AM_0
  6
CONTINUOUS
 62
     7
 10
161.1398292848896
 20
-24.10631406262894
 30
0.0
 40
8.0
  0
LINE
  5
575
  8
AM_0
  6
CONTINUOUS
 62
     7
 10
104.1404959515569
 20
28.39435260403764
 30
0.0
 11
104.1404959515569
 21
31.39368593737072
 31
0.0
  0
LINE
  5
576
  8
AM_0
  6
CONTINUOUS
 62
     7
 10
98.64049595155689
 20
22.89435260403764
 30
0.0
 11
95.63982928488963
 21
22.89435260403764
 31
0.0
  0
ARC
  5
577
  8
AM_0
  6
CONTINUOUS
 62
     7
 10
106.1404959515569
 20
31.39368593737072
 30
0.0
 40
2.0
 50
90.0
 51
180.0
  0
ARC
  5
578
  8
AM_0
  6
CONTINUOUS
 62
     7
 10
95.63982928488963
 20
20.89435260403764
 30
0.0
 40
2.0
 50
90.0
 51
180.0
  0
ARC
  5
579
  8
AM_0
  6
CONTINUOUS
 62
     7
 10
97.63982928488963
 20
29.39368593737083
 30
0.0
 40
4.0
 50
90.0
 51
180.0
  0
ARC
  5
57A
  8
AM_0
  6
CONTINUOUS
 62
     7
 10
98.64049595155689
 20
28.39435260403764
 30
0.0
 40
5.5
 50
270.0
 51
0.0
  0
ARC
  5
57B
  8
AM_0
  6
CONTINUOUS
 62
     7
 10
179.6398292848901
 20
29.39368593737083
 30
0.0
 40
4.0
 50
0.0
 51
90.0
  0
ARC
  5
57C
  8
AM_0
  6
CONTINUOUS
 62
     7
 10
181.6398292848899
 20
20.89435260403764
 30
0.0
 40
2.0
 50
0.0
 51
90.0
  0
LINE
  5
57D
  8
AM_0
  6
CONTINUOUS
 62
     7
 10
173.1391626182233
 20
28.39435260403764
 30
0.0
 11
173.1391626182233
 21
31.39368593737072
 31
0.0
  0
ARC
  5
57E
  8
AM_0
  6
CONTINUOUS
 62
     7
 10
171.1391626182231
 20
31.39368593737072
 30
0.0
 40
2.0
 50
0.0
 51
90.0
  0
LINE
  5
57F
  8
AM_0
  6
CONTINUOUS
 62
     7
 10
178.6391626182231
 20
22.89435260403764
 30
0.0
 11
181.6398292848899
 21
22.89435260403764
 31
0.0
  0
ARC
  5
580
  8
AM_0
  6
CONTINUOUS
 62
     7
 10
178.6391626182231
 20
28.39435260403764
 30
0.0
 40
5.5
 50
180.0
 51
270.0
  0
CIRCLE
  5
581
  8
AM_0
  6
CONTINUOUS
 62
     7
 10
178.6398292848896
 20
28.39368593737095
 30
0.0
 40
3.5
  0
LINE
  5
582
  8
AM_0
  6
CONTINUOUS
 62
     7
 10
177.773803881106
 20
26.89368593737083
 30
0.0
 11
179.5058546886739
 21
26.89368593737083
 31
0.0
  0
LINE
  5
583
  8
AM_0
  6
CONTINUOUS
 62
     7
 10
179.5058546886739
 20
26.89368593737083
 30
0.0
 11
180.3718800924592
 21
28.39368593737095
 31
0.0
  0
LINE
  5
584
  8
AM_0
  6
CONTINUOUS
 62
     7
 10
180.3718800924592
 20
28.39368593737095
 30
0.0
 11
179.5058546886739
 21
29.89368593737106
 31
0.0
  0
LINE
  5
585
  8
AM_0
  6
CONTINUOUS
 62
     7
 10
179.5058546886739
 20
29.89368593737106
 30
0.0
 11
177.773803881106
 21
29.89368593737106
 31
0.0
  0
LINE
  5
586
  8
AM_0
  6
CONTINUOUS
 62
     7
 10
177.773803881106
 20
29.89368593737106
 30
0.0
 11
176.9077784773215
 21
28.39368593737095
 31
0.0
  0
LINE
  5
587
  8
AM_0
  6
CONTINUOUS
 62
     7
 10
176.9077784773215
 20
28.39368593737095
 30
0.0
 11
177.773803881106
 21
26.89368593737083
 31
0.0
  0
ARC
  5
588
  8
AM_0
  6
CONTINUOUS
 62
     7
 10
97.63982928488963
 20
-42.60631406262905
 30
0.0
 40
4.0
 50
180.0
 51
270.0
  0
ARC
  5
589
  8
AM_0
  6
CONTINUOUS
 62
     7
 10
95.63982928488963
 20
-34.10698072929569
 30
0.0
 40
2.0
 50
180.0
 51
270.0
  0
LINE
  5
58A
  8
AM_0
  6
CONTINUOUS
 62
     7
 10
104.1404959515569
 20
-41.60698072929574
 30
0.0
 11
104.1404959515569
 21
-44.60631406262905
 31
0.0
  0
ARC
  5
58B
  8
AM_0
  6
CONTINUOUS
 62
     7
 10
106.1404959515569
 20
-44.60631406262905
 30
0.0
 40
2.0
 50
180.0
 51
270.0
  0
LINE
  5
58C
  8
AM_0
  6
CONTINUOUS
 62
     7
 10
98.64049595155689
 20
-36.10698072929569
 30
0.0
 11
95.63982928488963
 21
-36.10698072929569
 31
0.0
  0
ARC
  5
58D
  8
AM_0
  6
CONTINUOUS
 62
     7
 10
98.64049595155689
 20
-41.60698072929574
 30
0.0
 40
5.5
 50
0.0
 51
90.0
  0
CIRCLE
  5
58E
  8
AM_0
  6
CONTINUOUS
 62
     7
 10
98.63982928488963
 20
-41.60631406262905
 30
0.0
 40
3.5
  0
LINE
  5
58F
  8
AM_0
  6
CONTINUOUS
 62
     7
 10
99.50585468867416
 20
-40.10631406262905
 30
0.0
 11
97.773803881106
 21
-40.10631406262905
 31
0.0
  0
LINE
  5
590
  8
AM_0
  6
CONTINUOUS
 62
     7
 10
97.773803881106
 20
-40.10631406262905
 30
0.0
 11
96.90777847732102
 21
-41.60631406262905
 31
0.0
  0
LINE
  5
591
  8
AM_0
  6
CONTINUOUS
 62
     7
 10
96.90777847732102
 20
-41.60631406262905
 30
0.0
 11
97.773803881106
 21
-43.10631406262905
 31
0.0
  0
LINE
  5
592
  8
AM_0
  6
CONTINUOUS
 62
     7
 10
97.773803881106
 20
-43.10631406262905
 30
0.0
 11
99.50585468867416
 21
-43.10631406262905
 31
0.0
  0
LINE
  5
593
  8
AM_0
  6
CONTINUOUS
 62
     7
 10
99.50585468867416
 20
-43.10631406262905
 30
0.0
 11
100.3718800924585
 21
-41.60631406262905
 31
0.0
  0
LINE
  5
594
  8
AM_0
  6
CONTINUOUS
 62
     7
 10
100.3718800924585
 20
-41.60631406262905
 30
0.0
 11
99.50585468867416
 21
-40.10631406262905
 31
0.0
  0
ARC
  5
595
  8
AM_0
  6
CONTINUOUS
 62
     7
 10
179.6398292848901
 20
-42.60631406262905
 30
0.0
 40
4.0
 50
270.0
 51
0.0
  0
ARC
  5
596
  8
AM_0
  6
CONTINUOUS
 62
     7
 10
181.6398292848899
 20
-34.10698072929569
 30
0.0
 40
2.0
 50
270.0
 51
0.0
  0
LINE
  5
597
  8
AM_0
  6
CONTINUOUS
 62
     7
 10
173.1391626182233
 20
-41.60698072929574
 30
0.0
 11
173.1391626182233
 21
-44.60631406262905
 31
0.0
  0
ARC
  5
598
  8
AM_0
  6
CONTINUOUS
 62
     7
 10
171.1391626182231
 20
-44.60631406262905
 30
0.0
 40
2.0
 50
270.0
 51
0.0
  0
LINE
  5
599
  8
AM_0
  6
CONTINUOUS
 62
     7
 10
178.6391626182231
 20
-36.10698072929569
 30
0.0
 11
181.6398292848899
 21
-36.10698072929569
 31
0.0
  0
ARC
  5
59A
  8
AM_0
  6
CONTINUOUS
 62
     7
 10
178.6391626182231
 20
-41.60698072929574
 30
0.0
 40
5.5
 50
90.0
 51
180.0
  0
CIRCLE
  5
59B
  8
AM_0
  6
CONTINUOUS
 62
     7
 10
178.6398292848896
 20
-41.60631406262905
 30
0.0
 40
3.5
  0
LINE
  5
59C
  8
AM_0
  6
CONTINUOUS
 62
     7
 10
177.773803881106
 20
-40.10631406262905
 30
0.0
 11
179.5058546886739
 21
-40.10631406262905
 31
0.0
  0
LINE
  5
59D
  8
AM_0
  6
CONTINUOUS
 62
     7
 10
179.5058546886739
 20
-40.10631406262905
 30
0.0
 11
180.3718800924592
 21
-41.60631406262905
 31
0.0
  0
LINE
  5
59E
  8
AM_0
  6
CONTINUOUS
 62
     7
 10
180.3718800924592
 20
-41.60631406262905
 30
0.0
 11
179.5058546886739
 21
-43.10631406262905
 31
0.0
  0
LINE
  5
59F
  8
AM_0
  6
CONTINUOUS
 62
     7
 10
179.5058546886739
 20
-43.10631406262905
 30
0.0
 11
177.773803881106
 21
-43.10631406262905
 31
0.0
  0
LINE
  5
5A0
  8
AM_0
  6
CONTINUOUS
 62
     7
 10
177.773803881106
 20
-43.10631406262905
 30
0.0
 11
176.9077784773215
 21
-41.60631406262905
 31
0.0
  0
LINE
  5
5A1
  8
AM_0
  6
CONTINUOUS
 62
     7
 10
176.9077784773215
 20
-41.60631406262905
 30
0.0
 11
177.773803881106
 21
-40.10631406262905
 31
0.0
  0
LINE
  5
5A2
  8
AM_0
  6
CONTINUOUS
 62
     7
 10
-7.624976314304035
 20
-35.07596917723174
 30
0.0
 11
-4.624976314304035
 21
-35.07596917723174
 31
0.0
  0
LINE
  5
5A3
  8
AM_0
  6
CONTINUOUS
 62
     7
 10
-7.624976314304035
 20
-29.59114161993045
 30
0.0
 11
-4.624976314304035
 21
-29.59114161993045
 31
0.0
  0
LINE
  5
5A4
  8
AM_0
  6
CONTINUOUS
 62
     7
 10
-7.624976314304035
 20
-14.43665249649877
 30
0.0
 11
-7.624976314304035
 21
-33.77597562875934
 31
0.0
  0
LINE
  5
5A5
  8
AM_0
  6
CONTINUOUS
 62
     7
 10
-4.624976314304035
 20
-13.13665894802625
 30
0.0
 11
-4.624976314304035
 21
-35.07596917723174
 31
0.0
  0
LINE
  5
5A6
  8
AM_0
  6
CONTINUOUS
 62
     7
 10
-7.624976314304035
 20
-13.13665894802625
 30
0.0
 11
-4.624976314304035
 21
-13.13665894802625
 31
0.0
  0
LINE
  5
5A7
  8
AM_0
  6
CONTINUOUS
 62
     7
 10
-7.624976314304035
 20
-18.62148650532754
 30
0.0
 11
-4.624976314304035
 21
-18.62148650532754
 31
0.0
  0
ARC
  5
5A8
  8
AM_0
  6
CONTINUOUS
 62
     7
 10
-45.62497631430404
 20
28.15404770909453
 30
0.0
 40
2.0
 50
92.75919617050346
 51
180.0
  0
ARC
  5
5A9
  8
AM_0
  6
CONTINUOUS
 62
     7
 10
-45.62497631430404
 20
22.15422843853082
 30
0.0
 40
2.0
 50
92.8272175042705
 51
180.0
  0
LINE
  5
5AA
  8
AM_0
  6
CONTINUOUS
 62
     7
 10
-47.62497631430404
 20
-41.36667583435275
 30
0.0
 11
-47.62497631430404
 21
28.15404770909453
 31
0.0
  0
ARC
  5
5AB
  8
AM_0
  6
CONTINUOUS
 62
     7
 10
-21.62497631430404
 20
-44.34867800818955
 30
0.0
 40
2.0
 50
180.0
 51
265.2237139561863
  0
LINE
  5
5AC
  8
AM_0
  6
CONTINUOUS
 62
     7
 10
-21.79150711654654
 20
33.12910469700512
 30
0.0
 11
-18.62497631430404
 21
33.39368593737083
 31
0.0
  0
ARC
  5
5AD
  8
AM_0
  6
CONTINUOUS
 62
     7
 10
-21.62497631430404
 20
31.13604988293133
 30
0.0
 40
2.0
 50
94.77628604381371
 51
180.0
  0
ARC
  5
5AE
  8
AM_0
  6
CONTINUOUS
 62
     7
 10
-14.62497631430404
 20
-44.60631406262905
 30
0.0
 40
2.0
 50
270.0
 51
0.0
  0
ARC
  5
5AF
  8
AM_0
  6
CONTINUOUS
 62
     7
 10
-9.624976314304035
 20
-39.60631406262917
 30
0.0
 40
1.999999999999964
 50
300.0000000000005
 51
0.0
  0
LINE
  5
5B0
  8
AM_0
  6
CONTINUOUS
 62
     7
 10
-7.624976314304035
 20
-39.60631406262917
 30
0.0
 11
-7.624976314304035
 21
26.39368593737095
 31
0.0
  0
ARC
  5
5B1
  8
AM_0
  6
CONTINUOUS
 62
     7
 10
-9.624976314304035
 20
26.39368593737095
 30
0.0
 40
1.999999999999964
 50
0.0
 51
59.99999999999946
  0
ARC
  5
5B2
  8
AM_0
  6
CONTINUOUS
 62
     7
 10
-9.624976314304035
 20
-34.10698072929569
 30
0.0
 40
2.0
 50
270.0
 51
0.0
  0
LINE
  5
5B3
  8
AM_0
  6
CONTINUOUS
 62
     7
 10
-12.62497631430404
 20
22.89435260403764
 30
0.0
 11
-9.624976314304035
 21
22.89435260403764
 31
0.0
  0
ARC
  5
5B4
  8
AM_0
  6
CONTINUOUS
 62
     7
 10
-9.624976314304035
 20
20.89435260403764
 30
0.0
 40
2.0
 50
0.0
 51
90.0
  0
LINE
  5
5B5
  8
AM_0
  6
CONTINUOUS
 62
     7
 10
-6.624976314304035
 20
22.39435260403735
 30
0.0
 11
-7.624976314304035
 21
22.39435260403735
 31
0.0
  0
LINE
  5
5B6
  8
AM_0
  6
CONTINUOUS
 62
     7
 10
-6.624976314304035
 20
-4.606980729294548
 30
0.0
 11
-7.624976314304035
 21
-4.606980729294548
 31
0.0
  0
LINE
  5
5B7
  8
AM_0
  6
CONTINUOUS
 62
     7
 10
-18.62497631430404
 20
33.39368593737083
 30
0.0
 11
-14.62497631430404
 21
33.39368593737083
 31
0.0
  0
ARC
  5
5B8
  8
AM_0
  6
CONTINUOUS
 62
     7
 10
-14.62497631430404
 20
31.39368593737072
 30
0.0
 40
2.0
 50
0.0
 51
90.0
  0
LINE
  5
5B9
  8
AM_0
  6
CONTINUOUS
 62
     7
 10
-12.62497631430404
 20
31.89368593737072
 30
0.0
 11
-12.62497631430404
 21
-45.10631406262917
 31
0.0
  0
LINE
  5
5BA
  8
AM_0
  6
CONTINUOUS
 62
     7
 10
-48.62497631430404
 20
-32.35631406262905
 30
0.0
 11
-47.62497631430404
 21
-32.35631406262905
 31
0.0
  0
LINE
  5
5BB
  8
AM_0
  6
CONTINUOUS
 62
     7
 10
104.1404959515569
 20
28.39368593737095
 30
0.0
 11
173.1391626182233
 21
28.39368593737095
 31
0.0
  0
LINE
  5
5BC
  8
AM_0
  6
CONTINUOUS
 62
     7
 10
178.6391626182231
 20
22.89435260403764
 30
0.0
 11
178.6391626182231
 21
-36.10698072929569
 31
0.0
  0
LINE
  5
5BD
  8
AM_0
  6
CONTINUOUS
 62
     7
 10
-21.79150711646491
 20
213.1877678180668
 30
0.0
 11
-18.62497631422218
 21
212.9231865777016
 31
0.0
  0
ARC
  5
5BE
  8
AM_0
  6
CONTINUOUS
 62
     7
 10
-21.62497631422218
 20
215.180822632141
 30
0.0
 40
2.0
 50
180.0
 51
265.2237139561863
  0
LINE
  5
5BF
  8
AM_0
  6
CONTINUOUS
 62
     7
 10
-18.62497631422218
 20
212.9231865777016
 30
0.0
 11
-18.62497631422218
 21
302.9231865777016
 31
0.0
  0
LINE
  5
5C0
  8
AM_0
  6
CONTINUOUS
 62
     7
 10
-23.62497631422218
 20
300.6655505232623
 30
0.0
 11
-23.62497631422218
 21
215.180822632141
 31
0.0
  0
LINE
  5
5C1
  8
AM_0
  6
CONTINUOUS
 62
     7
 10
-45.72125320725956
 20
299.681229695353
 30
0.0
 11
-23.62497631422218
 21
300.7461447236121
 31
0.0
  0
LINE
  5
5C2
  8
AM_0
  6
CONTINUOUS
 62
     7
 10
-17.62497631422218
 20
302.9231865777016
 30
0.0
 11
-17.62497631422218
 21
212.9231865777016
 31
0.0
  0
LINE
  5
5C3
  8
AM_0
  6
CONTINUOUS
 62
     7
 10
-14.62497631422218
 20
212.9231865777016
 30
0.0
 11
-18.62497631422218
 21
212.9231865777016
 31
0.0
  0
ARC
  5
5C4
  8
AM_0
  6
CONTINUOUS
 62
     7
 10
-14.62497631422218
 20
214.9231865777016
 30
0.0
 40
2.0
 50
270.0
 51
0.0
  0
LINE
  5
5C5
  8
AM_0
  6
CONTINUOUS
 62
     7
 10
-12.62497631422218
 20
223.4225199110348
 30
0.0
 11
-9.624976314222181
 21
223.4225199110348
 31
0.0
  0
LINE
  5
5C6
  8
AM_0
  6
CONTINUOUS
 62
     7
 10
-18.62497631422218
 20
302.9231865777016
 30
0.0
 11
-14.62497631422218
 21
302.9231865777016
 31
0.0
  0
ARC
  5
5C7
  8
AM_0
  6
CONTINUOUS
 62
     7
 10
-14.62497631422218
 20
300.9231865777016
 30
0.0
 40
2.0
 50
0.0
 51
90.0
  0
LINE
  5
5C8
  8
AM_0
  6
CONTINUOUS
 62
     7
 10
-12.62497631422218
 20
301.4231865777016
 30
0.0
 11
-12.62497631422218
 21
214.4231865777016
 31
0.0
  0
ARC
  5
5C9
  8
AM_0
  6
CONTINUOUS
 62
     7
 10
-45.62497631422218
 20
291.6837290788616
 30
0.0
 40
2.0
 50
92.82721750427041
 51
180.0
  0
ARC
  5
5CA
  8
AM_0
  6
CONTINUOUS
 62
     7
 10
-45.62497631422218
 20
297.6835483494251
 30
0.0
 40
2.0
 50
92.75919617050346
 51
180.0
  0
LINE
  5
5CB
  8
AM_0
  6
CONTINUOUS
 62
     7
 10
-47.62497631422218
 20
218.1628248059775
 30
0.0
 11
-47.62497631422218
 21
297.6835483494251
 31
0.0
  0
LINE
  5
5CC
  8
AM_0
  6
CONTINUOUS
 62
     7
 10
-23.62497631422218
 20
294.7726219281109
 30
0.0
 11
-45.72362477862873
 21
293.6812947174501
 31
0.0
  0
LINE
  5
5CD
  8
AM_0
  6
CONTINUOUS
 62
     7
 10
-7.624976314222181
 20
242.3435148104987
 30
0.0
 11
-7.624976314222181
 21
223.004191678238
 31
0.0
  0
LINE
  5
5CE
  8
AM_0
  6
CONTINUOUS
 62
     7
 10
-4.624976314222181
 20
242.4238532443684
 30
0.0
 11
-4.624976314222181
 21
223.4238532443684
 31
0.0
  0
LINE
  5
5CF
  8
AM_0
  6
CONTINUOUS
 62
     7
 10
-21.79150711646491
 20
302.6586053373364
 30
0.0
 11
-18.62497631422218
 21
302.9231865777016
 31
0.0
  0
ARC
  5
5D0
  8
AM_0
  6
CONTINUOUS
 62
     7
 10
-21.62497631422218
 20
300.6655505232623
 30
0.0
 40
2.0
 50
94.77628604381371
 51
180.0
  0
ARC
  5
5D1
  8
AM_0
  6
CONTINUOUS
 62
     7
 10
-9.624976314222181
 20
219.923186577701
 30
0.0
 40
1.999999999999964
 50
299.9999999999991
 51
0.0
  0
LINE
  5
5D2
  8
AM_0
  6
CONTINUOUS
 62
     7
 10
-7.624976314222181
 20
219.923186577701
 30
0.0
 11
-7.624976314222181
 21
295.9231865777016
 31
0.0
  0
ARC
  5
5D3
  8
AM_0
  6
CONTINUOUS
 62
     7
 10
-9.624976314222181
 20
225.4225199110348
 30
0.0
 40
2.0
 50
270.0
 51
0.0
  0
ARC
  5
5D4
  8
AM_0
  6
CONTINUOUS
 62
     7
 10
-9.624976314222181
 20
295.9231865777016
 30
0.0
 40
1.999999999999964
 50
0.0
 51
60.00000000000087
  0
LINE
  5
5D5
  8
AM_0
  6
CONTINUOUS
 62
     7
 10
-12.62497631422218
 20
292.4238532443682
 30
0.0
 11
-9.624976314222181
 21
292.4238532443682
 31
0.0
  0
ARC
  5
5D6
  8
AM_0
  6
CONTINUOUS
 62
     7
 10
-9.624976314222181
 20
290.4238532443682
 30
0.0
 40
2.0
 50
0.0
 51
90.0
  0
LINE
  5
5D7
  8
AM_0
  6
CONTINUOUS
 62
     7
 10
-6.624976314222181
 20
271.4231865777016
 30
0.0
 11
-7.624976314222181
 21
271.4231865777016
 31
0.0
  0
LINE
  5
5D8
  8
AM_0
  6
CONTINUOUS
 62
     7
 10
-6.624976314222181
 20
244.4218532443693
 30
0.0
 11
-7.624976314222181
 21
244.4218532443693
 31
0.0
  0
LINE
  5
5D9
  8
AM_0
  6
CONTINUOUS
 62
     7
 10
-45.72125320734142
 20
-43.36435718028036
 30
0.0
 11
-23.62497631430404
 21
-44.42927220854006
 31
0.0
  0
ARC
  5
5DA
  8
AM_0
  6
CONTINUOUS
 62
     7
 10
-45.62497631430404
 20
-35.36685656378904
 30
0.0
 40
2.0
 50
180.0
 51
267.1727824957295
  0
ARC
  5
5DB
  8
AM_0
  6
CONTINUOUS
 62
     7
 10
-45.62497631430404
 20
-41.36667583435275
 30
0.0
 40
2.0
 50
180.0
 51
267.2408038294835
  0
LINE
  5
5DC
  8
AM_0
  6
CONTINUOUS
 62
     7
 10
-23.62497631430404
 20
-38.45574941303846
 30
0.0
 11
-45.72362477871059
 21
-37.36442220237774
 31
0.0
  0
LINE
  5
5DD
  8
AM_0
  6
CONTINUOUS
 62
     7
 10
-45.72125320725956
 20
216.1651434600501
 30
0.0
 11
-23.62497631422218
 21
215.1002284317907
 31
0.0
  0
ARC
  5
5DE
  8
AM_0
  6
CONTINUOUS
 62
     7
 10
-45.62497631422218
 20
224.1626440765416
 30
0.0
 40
2.0
 50
180.0
 51
267.1727824957296
  0
ARC
  5
5DF
  8
AM_0
  6
CONTINUOUS
 62
     7
 10
-45.62497631422218
 20
218.1628248059775
 30
0.0
 40
2.0
 50
180.0
 51
267.2408038294965
  0
LINE
  5
5E0
  8
AM_0
  6
CONTINUOUS
 62
     7
 10
-23.62497631422218
 20
221.0737512272923
 30
0.0
 11
-45.72362477862873
 21
222.165078437953
 31
0.0
  0
LINE
  5
5E1
  8
AM_0
  6
CONTINUOUS
 62
     7
 10
-6.624976314304035
 20
19.89435260403764
 30
0.0
 11
-4.624976314304035
 21
19.89435260403764
 31
0.0
  0
ARC
  5
5E2
  8
AM_0
  6
CONTINUOUS
 62
     7
 10
-32.9197002600157
 20
8.894352604037522
 30
0.0
 40
30.35772394571151
 50
338.7556576813851
 51
21.24434231861486
  0
LINE
  5
5E3
  8
AM_0
  6
CONTINUOUS
 62
     7
 10
-4.624976314304035
 20
-2.105647395962876
 30
0.0
 11
-6.624976314304035
 21
-2.105647395962876
 31
0.0
  0
LINE
  5
5E4
  8
AM_0
  6
CONTINUOUS
 62
     7
 10
-6.624976314222181
 20
268.9231865777015
 30
0.0
 11
-4.624976314222181
 21
268.9231865777015
 31
0.0
  0
ARC
  5
5E5
  8
AM_0
  6
CONTINUOUS
 62
     7
 10
-32.91970025993385
 20
257.9231865777015
 30
0.0
 40
30.35772394571151
 50
338.7556576813899
 51
21.24434231860402
  0
LINE
  5
5E6
  8
AM_0
  6
CONTINUOUS
 62
     7
 10
-4.624976314222181
 20
246.9231865777015
 30
0.0
 11
-6.624976314222181
 21
246.9231865777015
 31
0.0
  0
LINE
  5
5E7
  8
AM_0
  6
CONTINUOUS
 62
     7
 10
-6.624976314222181
 20
272.4231865777011
 30
0.0
 11
-7.624976314222181
 21
272.4231865777011
 31
0.0
  0
LINE
  5
5E8
  8
AM_0
  6
CONTINUOUS
 62
     7
 10
-6.624976314222181
 20
288.4231865777019
 30
0.0
 11
-7.624976314222181
 21
288.4231865777019
 31
0.0
  0
LINE
  5
5E9
  8
AM_0
  6
CONTINUOUS
 62
     7
 10
-4.624976314304035
 20
19.89435260403764
 30
0.0
 11
-4.624976314304035
 21
-2.105647395962876
 31
0.0
  0
LINE
  5
5EA
  8
AM_0
  6
CONTINUOUS
 62
     7
 10
-4.624976314222181
 20
246.9231865777015
 30
0.0
 11
-4.624976314222181
 21
268.9231865777015
 31
0.0
  0
LINE
  5
5EB
  8
AM_0
  6
CONTINUOUS
 62
     7
 10
104.1404959515569
 20
-29.59114161993034
 30
0.0
 11
113.6404959515569
 21
-35.07596917723174
 31
0.0
  0
LINE
  5
5EC
  8
AM_0
  6
CONTINUOUS
 62
     7
 10
113.6404959515569
 20
-35.07596917723174
 30
0.0
 11
123.1404959515569
 21
-29.59114161993034
 31
0.0
  0
LINE
  5
5ED
  8
AM_0
  6
CONTINUOUS
 62
     7
 10
123.1404959515569
 20
-29.59114161993034
 30
0.0
 11
123.1404959515569
 21
-18.62148650532748
 31
0.0
  0
LINE
  5
5EE
  8
AM_0
  6
CONTINUOUS
 62
     7
 10
123.1404959515569
 20
-18.62148650532748
 30
0.0
 11
113.6404959515569
 21
-13.13665894802625
 31
0.0
  0
LINE
  5
5EF
  8
AM_0
  6
CONTINUOUS
 62
     7
 10
113.6404959515569
 20
-13.13665894802625
 30
0.0
 11
104.1404959515569
 21
-18.62148650532748
 31
0.0
  0
LINE
  5
5F0
  8
AM_0
  6
CONTINUOUS
 62
     7
 10
104.1404959515569
 20
-18.62148650532748
 30
0.0
 11
104.1404959515569
 21
-29.59114161993034
 31
0.0
  0
LINE
  5
5F1
  8
AM_0
  6
CONTINUOUS
 62
     7
 10
154.0148292848896
 20
-28.21993473060508
 30
0.0
 11
161.1398292848896
 21
-32.33355539858104
 31
0.0
  0
LINE
  5
5F2
  8
AM_0
  6
CONTINUOUS
 62
     7
 10
161.1398292848896
 20
-32.33355539858104
 30
0.0
 11
168.2648292848899
 21
-28.21993473060508
 31
0.0
  0
LINE
  5
5F3
  8
AM_0
  6
CONTINUOUS
 62
     7
 10
168.2648292848899
 20
-28.21993473060508
 30
0.0
 11
168.2648292848899
 21
-19.99269339465275
 31
0.0
  0
LINE
  5
5F4
  8
AM_0
  6
CONTINUOUS
 62
     7
 10
168.2648292848899
 20
-19.99269339465275
 30
0.0
 11
161.1398292848896
 21
-15.87907272667684
 31
0.0
  0
LINE
  5
5F5
  8
AM_0
  6
CONTINUOUS
 62
     7
 10
161.1398292848896
 20
-15.87907272667684
 30
0.0
 11
154.0148292848896
 21
-19.99269339465275
 31
0.0
  0
LINE
  5
5F6
  8
AM_0
  6
CONTINUOUS
 62
     7
 10
154.0148292848896
 20
-19.99269339465275
 30
0.0
 11
154.0148292848896
 21
-28.21993473060508
 31
0.0
  0
LINE
  5
5F7
  8
AM_0
  6
CONTINUOUS
 62
     7
 10
-4.624976314222181
 20
242.4238532443684
 30
0.0
 11
-7.624976314222181
 21
242.4238532443684
 31
0.0
  0
LINE
  5
5F8
  8
AM_0
  6
CONTINUOUS
 62
     7
 10
-7.624976314222181
 20
223.4238532443684
 30
0.0
 11
-4.624976314222181
 21
223.4238532443684
 31
0.0
  0
LINE
  5
5F9
  8
AM_0
  6
CONTINUOUS
 62
     7
 10
-7.624976314222181
 20
232.9238532443684
 30
0.0
 11
-4.624976314222181
 21
232.9238532443684
 31
0.0
  0
LINE
  5
5FA
  8
AM_0
  6
CONTINUOUS
 62
     7
 10
-48.62497631422218
 20
262.9231865777016
 30
0.0
 11
-48.62497631422218
 21
292.9231865777016
 31
0.0
  0
LINE
  5
5FB
  8
AM_0
  6
CONTINUOUS
 62
     7
 10
-47.62497631422218
 20
262.9231865777016
 30
0.0
 11
-48.62497631422218
 21
262.9231865777016
 31
0.0
  0
LINE
  5
5FC
  8
AM_0
  6
CONTINUOUS
 62
     7
 10
-47.62497631422218
 20
292.9231865777016
 30
0.0
 11
-48.62497631422218
 21
292.9231865777016
 31
0.0
  0
LINE
  5
5FD
  8
AM_0
  6
CONTINUOUS
 62
     7
 10
-48.62497631430404
 20
-0.854980729295562
 30
0.0
 11
-47.62497631430404
 21
-0.854980729295562
 31
0.0
  0
LINE
  5
5FE
  8
AM_0
  6
CONTINUOUS
 62
     7
 10
92.63982928488849
 20
-3.605647395962478
 30
0.0
 11
93.63982928488963
 21
-39.40620068514966
 31
0.0
  0
LINE
  5
5FF
  8
AM_0
  6
CONTINUOUS
 62
     7
 10
93.75594167038457
 20
-43.56308832957535
 30
0.0
 11
94.59900593858856
 21
-73.74525558958044
 31
0.0
  0
ARC
  5
600
  8
AM_0
  6
CONTINUOUS
 62
     7
 10
192.139829284886
 20
-2.605647395962649
 30
0.0
 40
0.9999999999999964
 50
270.0
 51
0.0
  0
LINE
  5
601
  8
AM_0
  6
CONTINUOUS
 62
     7
 10
183.7209430194891
 20
-3.605647395962478
 30
0.0
 11
192.139829284886
 21
-3.605647395962478
 31
0.0
  0
LINE
  5
602
  8
AM_0
  6
CONTINUOUS
 62
     7
 10
193.1398292848864
 20
3.394352604037124
 30
0.0
 11
193.1398292848864
 21
-2.605647395962649
 31
0.0
  0
LINE
  5
603
  8
AM_0
  6
CONTINUOUS
 62
     7
 10
-1.624309647637233
 20
-29.60631406262894
 30
0.0
 11
-3.874309647637233
 21
-29.60631406262894
 31
0.0
  0
LINE
  5
604
  8
AM_0
  6
CONTINUOUS
 62
     7
 10
-4.624976314222408
 20
240.9238532443684
 30
0.0
 11
-3.874309647555606
 21
240.9238532443684
 31
0.0
  0
LINE
  5
605
  8
AM_0
  6
CONTINUOUS
 62
     7
 10
-3.874309647555606
 20
240.9238532443684
 30
0.0
 11
-3.874309647555606
 21
224.9238532443684
 31
0.0
  0
LINE
  5
606
  8
AM_0
  6
CONTINUOUS
 62
     7
 10
-3.874309647555606
 20
224.9238532443684
 30
0.0
 11
-4.624976314222408
 21
224.9238532443684
 31
0.0
  0
LINE
  5
607
  8
AM_0
  6
CONTINUOUS
 62
     7
 10
6.875690352362767
 20
-18.60631406262928
 30
0.0
 11
6.375690352362767
 21
-18.10631406262928
 31
0.0
  0
LINE
  5
608
  8
AM_0
  6
CONTINUOUS
 62
     7
 10
8.375690352362767
 20
-29.60631406262894
 30
0.0
 11
6.875690352362767
 21
-29.60631406262894
 31
0.0
  0
LINE
  5
609
  8
AM_0
  6
CONTINUOUS
 62
     7
 10
6.375690352362767
 20
-30.10631406262894
 30
0.0
 11
-1.624309647637233
 21
-30.10631406262894
 31
0.0
  0
LINE
  5
60A
  8
AM_0
  6
CONTINUOUS
 62
     7
 10
6.875690352362767
 20
-29.60631406262894
 30
0.0
 11
6.375690352362767
 21
-30.10631406262894
 31
0.0
  0
LINE
  5
60B
  8
AM_0
  6
CONTINUOUS
 62
     7
 10
6.875690352444394
 20
238.4238532443684
 30
0.0
 11
6.875690352444394
 21
227.4238532443684
 31
0.0
  0
LINE
  5
60C
  8
AM_0
  6
CONTINUOUS
 62
     7
 10
8.375690352444394
 20
227.4238532443684
 30
0.0
 11
8.375690352444394
 21
238.4238532443684
 31
0.0
  0
LINE
  5
60D
  8
AM_0
  6
CONTINUOUS
 62
     7
 10
8.375690352444394
 20
238.4238532443684
 30
0.0
 11
6.875690352444394
 21
238.4238532443684
 31
0.0
  0
LINE
  5
60E
  8
AM_0
  6
CONTINUOUS
 62
     7
 10
-1.624309647555606
 20
226.9238532443684
 30
0.0
 11
-1.624309647555606
 21
238.9238532443684
 31
0.0
  0
LINE
  5
60F
  8
AM_0
  6
CONTINUOUS
 62
     7
 10
-1.624309647555606
 20
238.4238532443684
 30
0.0
 11
-3.874309647555606
 21
238.4238532443684
 31
0.0
  0
LINE
  5
610
  8
AM_0
  6
CONTINUOUS
 62
     7
 10
6.375690352444394
 20
238.9238532443684
 30
0.0
 11
-1.624309647555606
 21
238.9238532443684
 31
0.0
  0
LINE
  5
611
  8
AM_0
  6
CONTINUOUS
 62
     7
 10
6.375690352444394
 20
226.9238532443684
 30
0.0
 11
6.375690352444394
 21
238.9238532443684
 31
0.0
  0
LINE
  5
612
  8
AM_0
  6
CONTINUOUS
 62
     7
 10
-1.624309647555606
 20
227.4238532443684
 30
0.0
 11
-3.874309647555606
 21
227.4238532443684
 31
0.0
  0
LINE
  5
613
  8
AM_0
  6
CONTINUOUS
 62
     7
 10
6.875690352444394
 20
238.4238532443684
 30
0.0
 11
6.375690352444394
 21
238.9238532443684
 31
0.0
  0
LINE
  5
614
  8
AM_0
  6
CONTINUOUS
 62
     7
 10
8.375690352444394
 20
227.4238532443684
 30
0.0
 11
6.875690352444394
 21
227.4238532443684
 31
0.0
  0
LINE
  5
615
  8
AM_0
  6
CONTINUOUS
 62
     7
 10
6.375690352444394
 20
226.9238532443684
 30
0.0
 11
-1.624309647555606
 21
226.9238532443684
 31
0.0
  0
LINE
  5
616
  8
AM_0
  6
CONTINUOUS
 62
     7
 10
6.875690352444394
 20
227.4238532443684
 30
0.0
 11
6.375690352444394
 21
226.9238532443684
 31
0.0
  0
CIRCLE
  5
617
  8
AM_0
  6
CONTINUOUS
 62
     7
 10
-124.1249763142266
 20
-282.2769496700357
 30
0.0
 40
8.0
  0
LINE
  5
618
  8
AM_0
  6
CONTINUOUS
 62
     7
 10
184.6398292848917
 20
-3.605647395962478
 30
0.0
 11
183.6398292848901
 21
-39.40620068514966
 31
0.0
  0
LINE
  5
619
  8
AM_0
  6
CONTINUOUS
 62
     7
 10
183.5237168993956
 20
-43.56308832957535
 30
0.0
 11
182.6806526311914
 21
-73.74525558958044
 31
0.0
  0
LINE
  5
61A
  8
AM_0
  6
CONTINUOUS
 62
     7
 10
-132.1249763142266
 20
-156.6056473959624
 30
0.0
 11
-116.1249763142266
 21
-156.6056473959624
 31
0.0
  0
LINE
  5
61B
  8
AM_0
  6
CONTINUOUS
 62
     7
 10
-114.1249763142266
 20
-143.6056473959624
 30
0.0
 11
-114.1249763142266
 21
-147.4509468575833
 31
0.0
  0
LINE
  5
61C
  8
AM_0
  6
CONTINUOUS
 62
     7
 10
-134.1249763142266
 20
-143.6056473959624
 30
0.0
 11
-134.1249763142266
 21
-147.4509468575833
 31
0.0
  0
LINE
  5
61D
  8
AM_0
  6
CONTINUOUS
 62
     7
 10
-114.1249763142266
 20
-147.4509468575833
 30
0.0
 11
-116.1249763142266
 21
-148.6056473959624
 31
0.0
  0
LINE
  5
61E
  8
AM_0
  6
CONTINUOUS
 62
     7
 10
-116.1249763142266
 20
-156.6056473959624
 30
0.0
 11
-116.1249763142266
 21
-148.6056473959624
 31
0.0
  0
LINE
  5
61F
  8
AM_0
  6
CONTINUOUS
 62
     7
 10
-132.1249763142266
 20
-148.6056473959624
 30
0.0
 11
-134.1249763142266
 21
-147.4509468575833
 31
0.0
  0
LINE
  5
620
  8
AM_0
  6
CONTINUOUS
 62
     7
 10
-132.1249763142266
 20
-148.6056473959624
 30
0.0
 11
-132.1249763142266
 21
-156.6056473959624
 31
0.0
  0
LINE
  5
621
  8
AM_0
  6
CONTINUOUS
 62
     7
 10
-106.1249763142264
 20
-128.6056473959624
 30
0.0
 11
-142.1249763142266
 21
-128.6056473959624
 31
0.0
  0
LINE
  5
622
  8
AM_0
  6
CONTINUOUS
 62
     7
 10
-142.1249763142266
 20
-143.6056473959624
 30
0.0
 11
-106.1249763142264
 21
-143.6056473959624
 31
0.0
  0
LINE
  5
623
  8
AM_0
  6
CONTINUOUS
 62
     7
 10
-106.1249763142264
 20
-128.6056473959624
 30
0.0
 11
-106.1249763142264
 21
-143.6056473959624
 31
0.0
  0
LINE
  5
624
  8
AM_0
  6
CONTINUOUS
 62
     7
 10
-142.1249763142266
 20
-128.6056473959624
 30
0.0
 11
-142.1249763142266
 21
-143.6056473959624
 31
0.0
  0
LINE
  5
625
  8
AM_0
  6
CONTINUOUS
 62
     7
 10
-108.1249763142264
 20
-80.60564739596236
 30
0.0
 11
-108.1249763142264
 21
-128.6056473959624
 31
0.0
  0
LINE
  5
626
  8
AM_0
  6
CONTINUOUS
 62
     7
 10
-140.1249763142266
 20
-80.60564739596236
 30
0.0
 11
-140.1249763142266
 21
-128.6056473959624
 31
0.0
  0
LINE
  5
627
  8
AM_0
  6
CONTINUOUS
 62
     7
 10
144.6398292848701
 20
-156.6056473959624
 30
0.0
 11
132.6398292848689
 21
-156.6056473959624
 31
0.0
  0
LINE
  5
628
  8
AM_0
  6
CONTINUOUS
 62
     7
 10
132.6398292848689
 20
-148.6056473959624
 30
0.0
 11
144.6398292848701
 21
-148.6056473959624
 31
0.0
  0
LINE
  5
629
  8
AM_0
  6
CONTINUOUS
 62
     7
 10
144.6398292848701
 20
-148.6056473959624
 30
0.0
 11
144.6398292848701
 21
-156.6056473959624
 31
0.0
  0
LINE
  5
62A
  8
AM_0
  6
CONTINUOUS
 62
     7
 10
132.6398292848689
 20
-156.6056473959624
 30
0.0
 11
132.6398292848689
 21
-148.6056473959624
 31
0.0
  0
LINE
  5
62B
  8
AM_0
  6
CONTINUOUS
 62
     7
 10
128.6398292848671
 20
-156.6056473959624
 30
0.0
 11
132.6398292848689
 21
-156.6056473959624
 31
0.0
  0
LINE
  5
62C
  8
AM_0
  6
CONTINUOUS
 62
     7
 10
144.6398292848701
 20
-156.6056473959624
 30
0.0
 11
148.6398292848673
 21
-156.6056473959624
 31
0.0
  0
LINE
  5
62D
  8
AM_0
  6
CONTINUOUS
 62
     7
 10
148.6398292848673
 20
-143.6056473959624
 30
0.0
 11
148.6398292848673
 21
-156.6056473959624
 31
0.0
  0
LINE
  5
62E
  8
AM_0
  6
CONTINUOUS
 62
     7
 10
128.6398292848671
 20
-143.6056473959624
 30
0.0
 11
128.6398292848671
 21
-156.6056473959624
 31
0.0
  0
LINE
  5
62F
  8
AM_0
  6
CONTINUOUS
 62
     7
 10
156.6398292848673
 20
-128.6056473959624
 30
0.0
 11
120.6398292848673
 21
-128.6056473959624
 31
0.0
  0
LINE
  5
630
  8
AM_0
  6
CONTINUOUS
 62
     7
 10
120.6398292848673
 20
-143.6056473959624
 30
0.0
 11
156.6398292848673
 21
-143.6056473959624
 31
0.0
  0
LINE
  5
631
  8
AM_0
  6
CONTINUOUS
 62
     7
 10
156.6398292848673
 20
-128.6056473959624
 30
0.0
 11
156.6398292848673
 21
-143.6056473959624
 31
0.0
  0
LINE
  5
632
  8
AM_0
  6
CONTINUOUS
 62
     7
 10
120.6398292848673
 20
-128.6056473959624
 30
0.0
 11
120.6398292848673
 21
-143.6056473959624
 31
0.0
  0
LINE
  5
633
  8
AM_0
  6
CONTINUOUS
 62
     7
 10
111.1398292848673
 20
-78.60564739596236
 30
0.0
 11
111.1398292848673
 21
-80.60564739596236
 31
0.0
  0
LINE
  5
634
  8
AM_0
  6
CONTINUOUS
 62
     7
 10
154.6398292848673
 20
-80.60564739596236
 30
0.0
 11
154.6398292848673
 21
-128.6056473959624
 31
0.0
  0
LINE
  5
635
  8
AM_0
  6
CONTINUOUS
 62
     7
 10
122.6398292848669
 20
-80.60564739596236
 30
0.0
 11
122.6398292848669
 21
-128.6056473959624
 31
0.0
  0
LINE
  5
636
  8
AM_0
  6
CONTINUOUS
 62
     7
 10
111.139829284883
 20
-80.60564739596236
 30
0.0
 11
166.139829284883
 21
-80.60564739596236
 31
0.0
  0
LINE
  5
637
  8
AM_0
  6
CONTINUOUS
 62
     7
 10
166.139829284883
 20
-78.60564739596236
 30
0.0
 11
166.139829284883
 21
-80.60564739596236
 31
0.0
  0
LINE
  5
638
  8
AM_0
  6
CONTINUOUS
 62
     7
 10
-50.62497631430369
 20
291.9231865776964
 30
0.0
 11
-50.62497631430369
 21
263.9231865776964
 31
0.0
  0
LINE
  5
639
  8
AM_0
  6
CONTINUOUS
 62
     7
 10
-50.62497631430369
 20
291.9231865776964
 30
0.0
 11
-50.62497631430369
 21
263.9231865776964
 31
0.0
  0
ARC
  5
63A
  8
AM_0
  6
CONTINUOUS
 62
     7
 10
-51.62497631430369
 20
263.9231865776964
 30
0.0
 40
1.0
 50
270.0
 51
0.0
  0
ARC
  5
63B
  8
AM_0
  6
CONTINUOUS
 62
     7
 10
-51.62497631430369
 20
291.9231865776964
 30
0.0
 40
1.0
 50
0.0
 51
90.0
  0
LINE
  5
63C
  8
AM_0
  6
CONTINUOUS
 62
     7
 10
-50.62497631430404
 20
-2.605647395962364
 30
0.0
 11
-50.62497631430404
 21
-30.60564739596236
 31
0.0
  0
LINE
  5
63D
  8
AM_0
  6
CONTINUOUS
 62
     7
 10
-50.62497631430404
 20
-2.605647395962364
 30
0.0
 11
-50.62497631430404
 21
-30.60564739596236
 31
0.0
  0
LINE
  5
63E
  8
AM_7
  6
CENTER
 62
   222
 10
-124.1249763142266
 20
-233.0264275459242
 30
0.0
 11
-124.1249763142266
 21
-331.5274717941474
 31
0.0
  0
LINE
  5
63F
  8
AM_7
  6
CENTER
 62
   222
 10
-69.08068662416622
 20
-282.2769496700357
 30
0.0
 11
-179.169266004287
 21
-282.2769496700357
 31
0.0
  0
CIRCLE
  5
640
  8
AM_7
  6
CENTER
 62
   222
 10
-124.1249763142266
 20
-282.2769496700357
 30
0.0
 40
35.00000000000364
  0
LINE
  5
641
  8
AM_7
  6
CENTER
 62
   222
 10
-102.9895749057489
 20
-303.1249886794517
 30
0.0
 11
-95.47637480277376
 21
-310.6381887824269
 31
0.0
  0
LINE
  5
642
  8
AM_7
  6
CENTER
 62
   222
 10
-145.2603777227043
 20
-303.1249886794517
 30
0.0
 11
-152.7735778256795
 21
-310.6381887824269
 31
0.0
  0
LINE
  5
643
  8
AM_7
  6
CENTER
 62
   222
 10
-102.9895749057489
 20
-261.4289106606202
 30
0.0
 11
-95.47637480277376
 21
-253.9157105576447
 31
0.0
  0
LINE
  5
644
  8
AM_7
  6
CENTER
 62
   222
 10
-145.2603777227043
 20
-261.4289106606202
 30
0.0
 11
-152.7735778256795
 21
-253.9157105576447
 31
0.0
  0
LINE
  5
645
  8
AM_7
  6
CENTER
 62
   222
 10
-124.1249763143039
 20
321.9656749149672
 30
0.0
 11
-124.1249763143039
 21
195.2137342863871
 31
0.0
  0
LINE
  5
646
  8
AM_7
  6
CENTER
 62
   222
 10
3.339274504608738
 20
257.9231865777017
 30
0.0
 11
-205.8438607626124
 21
257.9231865777017
 31
0.0
  0
LINE
  5
647
  8
AM_7
  6
CENTER
 62
   222
 10
-124.1249763142266
 20
150.0265893922181
 30
0.0
 11
-124.1249763142266
 21
-162.9652134249525
 31
0.0
  0
LINE
  5
648
  8
AM_7
  6
CENTER
 62
   222
 10
138.6398292848901
 20
150.0265893922175
 30
0.0
 11
138.6398292848901
 21
-162.9652134249529
 31
0.0
  0
LINE
  5
649
  8
AM_7
  6
CENTER
 62
   222
 10
100.4163683156864
 20
-24.10631406262894
 30
0.0
 11
126.8646235874273
 21
-24.10631406262894
 31
0.0
  0
LINE
  5
64A
  8
AM_7
  6
CENTER
 62
   222
 10
113.6404959515569
 20
-37.33044169849927
 30
0.0
 11
113.6404959515569
 21
-10.88218642675855
 31
0.0
  0
LINE
  5
64B
  8
AM_7
  6
CENTER
 62
   222
 10
161.1398292848896
 20
-34.24879007099344
 30
0.0
 11
161.1398292848896
 21
-13.96383805426444
 31
0.0
  0
LINE
  5
64C
  8
AM_7
  6
CENTER
 62
   222
 10
171.2823052932545
 20
-24.10631406262894
 30
0.0
 11
150.9973532765255
 21
-24.10631406262894
 31
0.0
  0
LINE
  5
64D
  8
AM_7
  6
CENTER
 62
   222
 10
10.38132547586031
 20
-24.10631406262894
 30
0.0
 11
-14.62424905294426
 21
-24.10631406262894
 31
0.0
  0
LINE
  5
64E
  8
AM_7
  6
CENTER
 62
   222
 10
6.448958845787615
 20
280.4231865777016
 30
0.0
 11
-11.0814945556225
 21
280.4231865777016
 31
0.0
  0
LINE
  5
64F
  8
AM_7
  6
CENTER
 62
   222
 10
10.38132547594194
 20
232.9238532443684
 30
0.0
 11
-14.62424905286241
 21
232.9238532443684
 31
0.0
  0
CIRCLE
  5
650
  8
AM_4
  6
CONTINUOUS
 62
   150
 10
-99.2329748542586
 20
-306.8815887309365
 30
0.0
 40
4.0
  0
CIRCLE
  5
651
  8
AM_4
  6
CONTINUOUS
 62
   150
 10
-149.0169777741951
 20
-306.8815887309365
 30
0.0
 40
4.0
  0
CIRCLE
  5
652
  8
AM_4
  6
CONTINUOUS
 62
   150
 10
-99.2329748542586
 20
-257.6723106091351
 30
0.0
 40
4.0
  0
CIRCLE
  5
653
  8
AM_4
  6
CONTINUOUS
 62
   150
 10
-149.0169777741951
 20
-257.6723106091351
 30
0.0
 40
4.0
  0
LINE
  5
654
  8
AM_4
  6
CONTINUOUS
 62
   150
 10
6.875690352362767
 20
-18.60631406262928
 30
0.0
 11
-1.624309647637233
 21
-18.60631406262928
 31
0.0
  0
CIRCLE
  5
655
  8
AM_4
  6
CONTINUOUS
 62
   150
 10
161.1398292848896
 20
-24.10631406262894
 30
0.0
 40
5.5
  0
CIRCLE
  5
656
  8
AM_4
  6
CONTINUOUS
 62
   150
 10
113.6404959515569
 20
-24.10631406262894
 30
0.0
 40
5.5
  0
LINE
  5
657
  8
AM_4
  6
CONTINUOUS
 62
   150
 10
6.875690352362767
 20
-29.60631406262894
 30
0.0
 11
-1.624309647637233
 21
-29.60631406262894
 31
0.0
  0
LINE
  5
658
  8
AM_4
  6
CONTINUOUS
 62
   150
 10
6.875690352444394
 20
238.4238532443684
 30
0.0
 11
-1.624309647555606
 21
238.4238532443684
 31
0.0
  0
LINE
  5
659
  8
AM_4
  6
CONTINUOUS
 62
   150
 10
6.875690352444394
 20
227.4238532443684
 30
0.0
 11
-1.624309647555606
 21
227.4238532443684
 31
0.0
  0
CIRCLE
  5
65A
  8
AM_4
  6
CONTINUOUS
 62
   150
 10
-124.1249763142266
 20
-282.2769496700357
 30
0.0
 40
7.0
  0
LINE
  5
65B
  8
AM_4
  6
CONTINUOUS
 62
   150
 10
132.639829284856
 20
-156.6056473959624
 30
0.0
 11
144.6398292848562
 21
-148.6056473959637
 31
0.0
  0
LINE
  5
65C
  8
AM_4
  6
CONTINUOUS
 62
   150
 10
144.6398292848833
 20
-156.6056473959624
 30
0.0
 11
132.6398292848833
 21
-148.6056473959637
 31
0.0
  0
LINE
  5
65D
  8
AM_3
  6
CENTER
 62
   222
 10
-120.801476314293
 20
-155.6056473959604
 30
0.0
 11
-127.448476314293
 21
-155.6056473959604
 31
0.0
  0
LINE
  5
65E
  8
AM_3
  6
CENTER
 62
   222
 10
-120.801476314293
 20
-155.6056473959604
 30
0.0
 11
-119.801476314293
 21
-156.6056473959603
 31
0.0
  0
LINE
  5
65F
  8
AM_3
  6
CENTER
 62
   222
 10
-127.448476314293
 20
-155.6056473959604
 30
0.0
 11
-128.448476314293
 21
-156.6056473959603
 31
0.0
  0
LINE
  5
660
  8
AM_3
  6
CENTER
 62
   222
 10
-120.801476314293
 20
-144.6056473959603
 30
0.0
 11
-120.801476314293
 21
-155.6056473959604
 31
0.0
  0
LINE
  5
661
  8
AM_3
  6
CENTER
 62
   222
 10
-127.448476314293
 20
-144.6056473959603
 30
0.0
 11
-127.448476314293
 21
-155.6056473959604
 31
0.0
  0
LINE
  5
662
  8
AM_3
  6
CENTER
 62
   222
 10
-120.124976314293
 20
-156.2821473959604
 30
0.0
 11
-120.124976314293
 21
-144.6056473959603
 31
0.0
  0
LINE
  5
663
  8
AM_3
  6
CENTER
 62
   222
 10
-128.124976314293
 20
-144.6056473959603
 30
0.0
 11
-128.124976314293
 21
-156.2821473959604
 31
0.0
  0
INSERT
  5
664
  8
AM_0
  6
CONTINUOUS
  2
DC_GROUP_1
 10
0.0
 20
0.0
 30
0.0
  0
INSERT
  5
665
  8
AM_0
  6
CONTINUOUS
  2
DC_GROUP_2
 10
0.0
 20
0.0
 30
0.0
  0
INSERT
  5
666
  8
AM_0
  6
CONTINUOUS
  2
DC_GROUP_3
 10
0.0
 20
0.0
 30
0.0
  0
INSERT
  5
667
  8
AM_0
  6
CONTINUOUS
  2
DC_GROUP_4
 10
0.0
 20
0.0
 30
0.0
  0
INSERT
  5
668
  8
AM_0
  6
CONTINUOUS
  2
DC_GROUP_5
 10
0.0
 20
0.0
 30
0.0
  0
INSERT
  5
669
  8
AM_0
  6
CONTINUOUS
  2
DC_GROUP_6
 10
0.0
 20
0.0
 30
0.0
  0
INSERT
  5
66A
  8
AM_0
  6
CONTINUOUS
  2
DC_GROUP_7
 10
0.0
 20
0.0
 30
0.0
  0
INSERT
  5
66B
  8
AM_0
  6
CONTINUOUS
  2
DC_GROUP_8
 10
0.0
 20
0.0
 30
0.0
  0
INSERT
  5
66C
  8
AM_0
  6
CONTINUOUS
  2
DC_GROUP_9
 10
0.0
 20
0.0
 30
0.0
  0
INSERT
  5
66D
  8
AM_0
  6
CONTINUOUS
  2
DC_GROUP_10
 10
0.0
 20
0.0
 30
0.0
  0
INSERT
  5
66E
  8
AM_0
  6
CONTINUOUS
  2
DC_GROUP_11
 10
0.0
 20
0.0
 30
0.0
  0
INSERT
  5
66F
  8
AM_0
  6
CONTINUOUS
  2
DC_GROUP_12
 10
0.0
 20
0.0
 30
0.0
  0
INSERT
  5
670
  8
AM_0
  6
CONTINUOUS
  2
DC_GROUP_13
 10
0.0
 20
0.0
 30
0.0
  0
INSERT
  5
671
  8
AM_0
  6
CONTINUOUS
  2
DC_GROUP_14
 10
0.0
 20
0.0
 30
0.0
  0
INSERT
  5
672
  8
AM_0
  6
CONTINUOUS
  2
DC_GROUP_15
 10
0.0
 20
0.0
 30
0.0
  0
INSERT
  5
673
  8
AM_0
  6
CONTINUOUS
  2
DC_GROUP_16
 10
0.0
 20
0.0
 30
0.0
  0
INSERT
  5
674
  8
AM_0
  6
CONTINUOUS
  2
DC_GROUP_17
 10
0.0
 20
0.0
 30
0.0
  0
INSERT
  5
675
  8
AM_0
  6
CONTINUOUS
  2
DC_GROUP_18
 10
0.0
 20
0.0
 30
0.0
  0
INSERT
  5
676
  8
AM_0
  6
CONTINUOUS
  2
DC_GROUP_19
 10
0.0
 20
0.0
 30
0.0
  0
INSERT
  5
677
  8
AM_0
  6
CONTINUOUS
  2
DC_GROUP_20
 10
0.0
 20
0.0
 30
0.0
  0
INSERT
  5
678
  8
AM_0
  6
CONTINUOUS
  2
DC_GROUP_21
 10
0.0
 20
0.0
 30
0.0
  0
INSERT
  5
679
  8
AM_0
  6
CONTINUOUS
  2
DC_GROUP_22
 10
0.0
 20
0.0
 30
0.0
  0
INSERT
  5
67A
  8
AM_0
  6
CONTINUOUS
  2
DC_GROUP_23
 10
0.0
 20
0.0
 30
0.0
  0
INSERT
  5
67B
  8
AM_0
  6
CONTINUOUS
  2
DC_GROUP_24
 10
0.0
 20
0.0
 30
0.0
  0
INSERT
  5
67C
  8
AM_0
  6
CONTINUOUS
  2
DC_GROUP_25
 10
0.0
 20
0.0
 30
0.0
  0
INSERT
  5
67D
  8
AM_0
  6
CONTINUOUS
  2
DC_GROUP_26
 10
0.0
 20
0.0
 30
0.0
  0
INSERT
  5
67E
  8
AM_0
  6
CONTINUOUS
  2
DC_GROUP_27
 10
0.0
 20
0.0
 30
0.0
  0
INSERT
  5
67F
  8
AM_0
  6
CONTINUOUS
  2
DC_GROUP_28
 10
0.0
 20
0.0
 30
0.0
  0
INSERT
  5
680
  8
AM_0
  6
CONTINUOUS
  2
DC_GROUP_29
 10
0.0
 20
0.0
 30
0.0
  0
INSERT
  5
681
  8
AM_4
  6
CONTINUOUS
  2
DC_GROUP_30
 10
0.0
 20
0.0
 30
0.0
  0
INSERT
  5
682
  8
AM_4
  6
CONTINUOUS
  2
DC_GROUP_31
 10
0.0
 20
0.0
 30
0.0
  0
LINE
  5
683
  8
0
  6
CENTER
 62
   150
 10
-197.7594362399145
 20
306.9231865777017
 30
0.0
 11
-183.1538405061135
 21
306.9231865777017
 31
0.0
  0
LINE
  5
684
  8
0
  6
CENTER
 62
   150
 10
-197.7594362399145
 20
208.9231865777016
 30
0.0
 11
-183.1538405061135
 21
208.9231865777016
 31
0.0
  0
LINE
  5
685
  8
0
  6
CENTER
 62
   150
 10
-190.6249763143037
 20
314.295775469607
 30
0.0
 11
-190.6249763143037
 21
299.4330389658446
 31
0.0
  0
LINE
  5
686
  8
0
  6
CENTER
 62
   150
 10
-57.62497631430369
 20
314.2957754696068
 30
0.0
 11
-57.62497631430369
 21
299.4330389658446
 31
0.0
  0
LINE
  5
687
  8
0
  6
CENTER
 62
   150
 10
-64.75943623991452
 20
306.9231865777017
 30
0.0
 11
-50.15384050611351
 21
306.9231865777017
 31
0.0
  0
LINE
  5
688
  8
0
  6
CENTER
 62
   150
 10
-57.62497631430369
 20
216.2957754696068
 30
0.0
 11
-57.62497631430369
 21
201.4330389658447
 31
0.0
  0
LINE
  5
689
  8
0
  6
CENTER
 62
   150
 10
-64.75943623991452
 20
208.9231865777016
 30
0.0
 11
-50.15384050611351
 21
208.9231865777016
 31
0.0
  0
LINE
  5
68A
  8
0
  6
CENTER
 62
   150
 10
-190.6249763143037
 20
216.2957754696068
 30
0.0
 11
-190.6249763143037
 21
201.4330389658447
 31
0.0
  0
LINE
  5
68B
  8
0
  6
CONTINUOUS
 62
     3
 10
-192.2243023779674
 20
227.3881215634225
 30
0.0
 11
-192.2243023779674
 21
288.4582515919809
 31
0.0
  0
LINE
  5
68C
  8
0
  6
CONTINUOUS
 62
     3
 10
-56.02565025064018
 20
288.4582515919808
 30
0.0
 11
-56.02565025064018
 21
227.3881215634226
 31
0.0
  0
LINE
  5
68D
  8
0
  6
CONTINUOUS
 62
     3
 10
-172.1593673922471
 20
308.5231865777016
 30
0.0
 11
-76.090585236361
 21
308.5231865777016
 31
0.0
  0
LINE
  5
68E
  8
0
  6
CONTINUOUS
 62
     3
 10
-76.09058523636122
 20
207.3231865777018
 30
0.0
 11
-172.1593673922471
 21
207.3231865777018
 31
0.0
  0
LINE
  5
68F
  8
0
  6
CONTINUOUS
 62
     3
 10
-191.6385159403408
 20
289.8724651543539
 30
0.0
 11
-173.57358095462
 21
307.9374001400747
 31
0.0
  0
LINE
  5
690
  8
0
  6
CONTINUOUS
 62
     3
 10
-74.67637167398789
 20
307.9374001400747
 30
0.0
 11
-56.61143668826708
 21
289.8724651543539
 31
0.0
  0
LINE
  5
691
  8
0
  6
CONTINUOUS
 62
     3
 10
-56.61143668826708
 20
225.9739080010495
 30
0.0
 11
-74.67637167398811
 21
207.9089730153287
 31
0.0
  0
LINE
  5
692
  8
0
  6
CONTINUOUS
 62
     3
 10
-173.57358095462
 20
207.9089730153287
 30
0.0
 11
-191.6385159403408
 21
225.9739080010494
 31
0.0
  0
ARC
  5
693
  8
0
  6
CONTINUOUS
 62
     3
 10
-172.1593673922471
 20
306.5231865777016
 30
0.0
 40
2.0
 50
90.0
 51
134.9999999999994
  0
ARC
  5
694
  8
0
  6
CONTINUOUS
 62
     3
 10
-76.090585236361
 20
306.5231865777016
 30
0.0
 40
2.0
 50
45.00000000000029
 51
90.0
  0
ARC
  5
695
  8
0
  6
CONTINUOUS
 62
     3
 10
-58.02565025064018
 20
288.4582515919808
 30
0.0
 40
2.0
 50
0.0
 51
44.99999999999972
  0
ARC
  5
696
  8
0
  6
CONTINUOUS
 62
     3
 10
-58.02565025064018
 20
227.3881215634226
 30
0.0
 40
2.0
 50
314.9999999999997
 51
0.0
  0
ARC
  5
697
  8
0
  6
CONTINUOUS
 62
     3
 10
-76.09058523636122
 20
209.3231865777018
 30
0.0
 40
2.0
 50
270.0
 51
315.0
  0
ARC
  5
698
  8
0
  6
CONTINUOUS
 62
     3
 10
-172.1593673922471
 20
209.3231865777018
 30
0.0
 40
2.0
 50
225.0000000000003
 51
270.0
  0
ARC
  5
699
  8
0
  6
CONTINUOUS
 62
     3
 10
-190.2243023779674
 20
227.3881215634225
 30
0.0
 40
2.0
 50
180.0
 51
224.9999999999997
  0
ARC
  5
69A
  8
0
  6
CONTINUOUS
 62
     3
 10
-190.2243023779674
 20
288.4582515919809
 30
0.0
 40
2.0
 50
135.0000000000006
 51
180.0
  0
LINE
  5
69B
  8
0
  6
CONTINUOUS
 62
     3
 10
-190.6249763143037
 20
312.9231865777018
 30
0.0
 11
-57.62497631430369
 21
312.9231865777017
 31
0.0
  0
LINE
  5
69C
  8
0
  6
CONTINUOUS
 62
     3
 10
-196.6249763143037
 20
306.9231865777018
 30
0.0
 11
-196.6249763143037
 21
208.9231865777017
 31
0.0
  0
LINE
  5
69D
  8
0
  6
CONTINUOUS
 62
     3
 10
-190.6249763143037
 20
202.9231865777017
 30
0.0
 11
-57.62497631430369
 21
202.9231865777017
 31
0.0
  0
LINE
  5
69E
  8
0
  6
CONTINUOUS
 62
     3
 10
-51.62497631430369
 20
306.9231865777017
 30
0.0
 11
-51.62497631430369
 21
208.9231865777017
 31
0.0
  0
ARC
  5
69F
  8
0
  6
CONTINUOUS
 62
     3
 10
-57.62497631430369
 20
306.9231865777017
 30
0.0
 40
6.0
 50
0.0
 51
90.0
  0
ARC
  5
6A0
  8
0
  6
CONTINUOUS
 62
     3
 10
-190.6249763143037
 20
306.9231865777018
 30
0.0
 40
6.0
 50
90.0
 51
180.0
  0
ARC
  5
6A1
  8
0
  6
CONTINUOUS
 62
     3
 10
-190.6249763143037
 20
208.9231865777017
 30
0.0
 40
6.0
 50
180.0
 51
270.0
  0
ARC
  5
6A2
  8
0
  6
CONTINUOUS
 62
     3
 10
-57.62497631430369
 20
208.9231865777017
 30
0.0
 40
6.0
 50
270.0
 51
0.0
  0
LINE
  5
6A3
  8
0
  6
CONTINUOUS
 62
     3
 10
-61.04339392015697
 20
141.3943526040374
 30
0.0
 11
-124.128022781155
 21
141.3943526040374
 31
0.0
  0
LINE
  5
6A4
  8
0
  6
CONTINUOUS
 62
     3
 10
-187.209601642153
 20
141.3943526040373
 30
0.0
 11
-124.128022781155
 21
141.3943526040374
 31
0.0
  0
ARC
  5
6A5
  8
0
  6
CONTINUOUS
 62
     3
 10
-187.209601642153
 20
136.3943526040372
 30
0.0
 40
5.0
 50
90.00000000000016
 51
178.5
  0
ARC
  5
6A6
  8
0
  6
CONTINUOUS
 62
     3
 10
-61.04339392015697
 20
136.3943526040374
 30
0.0
 40
5.0
 50
1.500000000000032
 51
89.99999999999996
  0
ARC
  5
6A7
  8
0
  6
CONTINUOUS
 62
     3
 10
-73.20419644894116
 20
139.3943526040374
 30
0.0
 40
2.0
 50
89.99999999999959
 51
180.6445503284729
  0
ARC
  5
6A8
  8
0
  6
CONTINUOUS
 62
     3
 10
-175.0475993396511
 20
139.3943526040373
 30
0.0
 40
2.0
 50
359.3554496715271
 51
90.0
  0
LINE
  5
6A9
  8
0
  6
CONTINUOUS
 62
     3
 10
-52.44842314439791
 20
11.67341104539111
 30
0.0
 11
-56.04510729527931
 21
136.5252373455768
 31
0.0
  0
LINE
  5
6AA
  8
0
  6
CONTINUOUS
 62
     3
 10
-75.20406989845321
 20
139.3718540277304
 30
0.0
 11
-73.62697176384347
 21
11.68535317351433
 31
0.0
  0
LINE
  5
6AB
  8
0
  6
CONTINUOUS
 62
     3
 10
-173.0477258901388
 20
139.3718540277303
 30
0.0
 11
-174.6248240247488
 21
11.68535317351439
 31
0.0
  0
LINE
  5
6AC
  8
0
  6
CONTINUOUS
 62
     3
 10
-195.804572417912
 20
11.67341104539111
 30
0.0
 11
-192.2078882670309
 21
136.5252373455766
 31
0.0
  0
ARC
  5
6AD
  8
0
  6
CONTINUOUS
 62
     3
 10
-72.82702238403851
 20
11.69435260403714
 30
0.0
 40
0.8
 50
180.6445503284729
 51
270.0
  0
ARC
  5
6AE
  8
0
  6
CONTINUOUS
 62
     3
 10
-51.64869728441761
 20
11.69435260403742
 30
0.0
 40
0.8
 50
181.5000000000001
 51
270.0
  0
LINE
  5
6AF
  8
0
  6
CONTINUOUS
 62
     3
 10
-51.62802278115475
 20
10.89435260403741
 30
0.0
 11
-124.128022781155
 21
10.89435260403735
 31
0.0
  0
LINE
  5
6B0
  8
0
  6
CONTINUOUS
 62
     3
 10
-196.6249727811552
 20
10.89435260403741
 30
0.0
 11
-124.128022781155
 21
10.89435260403735
 31
0.0
  0
ARC
  5
6B1
  8
0
  6
CONTINUOUS
 62
     3
 10
-175.4247734045538
 20
11.69435260403719
 30
0.0
 40
0.8
 50
270.0
 51
359.3554496715271
  0
ARC
  5
6B2
  8
0
  6
CONTINUOUS
 62
     3
 10
-196.6042982778923
 20
11.69435260403742
 30
0.0
 40
0.8
 50
270.0
 51
358.5
  0
LINE
  5
6B3
  8
0
  6
CONTINUOUS
 62
     3
 10
-57.62802278115475
 20
12.39435260403741
 30
0.0
 11
-59.45271490260018
 21
15.55481206655131
 31
0.0
  0
LINE
  5
6B4
  8
0
  6
CONTINUOUS
 62
     3
 10
-57.62802278115475
 20
12.39435260403741
 30
0.0
 11
-55.80333065970956
 21
15.55481206655131
 31
0.0
  0
LINE
  5
6B5
  8
0
  6
CONTINUOUS
 62
     3
 10
-190.624972781155
 20
12.39435260403741
 30
0.0
 11
-192.4496649026004
 21
15.55481206655131
 31
0.0
  0
LINE
  5
6B6
  8
0
  6
CONTINUOUS
 62
     3
 10
-190.624972781155
 20
12.39435260403741
 30
0.0
 11
-188.8002806597098
 21
15.55481206655131
 31
0.0
  0
LINE
  5
6B7
  8
0
  6
CONTINUOUS
 62
     3
 10
-51.62682300743688
 20
3.394352604037636
 30
0.0
 11
-51.62682300743688
 21
4.894352604037351
 31
0.0
  0
LINE
  5
6B8
  8
0
  6
CONTINUOUS
 62
     3
 10
-51.62682300743688
 20
4.894352604037351
 30
0.0
 11
-196.6261725548731
 21
4.894352604037351
 31
0.0
  0
LINE
  5
6B9
  8
0
  6
CONTINUOUS
 62
     3
 10
-51.62802278115475
 20
4.894352604037408
 30
0.0
 11
-124.1280227811548
 21
4.894352604037351
 31
0.0
  0
LINE
  5
6BA
  8
0
  6
CONTINUOUS
 62
     3
 10
-196.6249727811552
 20
4.894352604037408
 30
0.0
 11
-124.1280227811552
 21
4.894352604037351
 31
0.0
  0
LINE
  5
6BB
  8
0
  6
CONTINUOUS
 62
     3
 10
-196.6261725548731
 20
3.394352604037579
 30
0.0
 11
-123.1570783720248
 21
3.394352604037408
 31
0.0
  0
LINE
  5
6BC
  8
0
  6
CONTINUOUS
 62
     3
 10
-51.62682300743688
 20
3.394352604037692
 30
0.0
 11
-123.1570783720248
 21
3.394352604037977
 31
0.0
  0
LINE
  5
6BD
  8
0
  6
CONTINUOUS
 62
     3
 10
-51.62802278115475
 20
10.89435260403741
 30
0.0
 11
-51.62802278115475
 21
4.894352604037408
 31
0.0
  0
LINE
  5
6BE
  8
0
  6
CONTINUOUS
 62
     3
 10
-196.6249727811552
 20
10.89435260403741
 30
0.0
 11
-196.6249727811552
 21
4.894352604037408
 31
0.0
  0
LINE
  5
6BF
  8
0
  6
CONTINUOUS
 62
     3
 10
183.7232583721699
 20
141.3943526040365
 30
0.0
 11
138.6367828179576
 21
141.3943526040366
 31
0.0
  0
LINE
  5
6C0
  8
0
  6
CONTINUOUS
 62
     3
 10
93.55640019761023
 20
141.3943526040364
 30
0.0
 11
138.6367828179576
 21
141.3943526040366
 31
0.0
  0
ARC
  5
6C1
  8
0
  6
CONTINUOUS
 62
     3
 10
93.55640019761023
 20
136.3943526040364
 30
0.0
 40
5.0
 50
90.00000000000016
 51
178.5
  0
ARC
  5
6C2
  8
0
  6
CONTINUOUS
 62
     3
 10
183.7232583721699
 20
136.3943526040365
 30
0.0
 40
5.0
 50
1.500000000000032
 51
89.99999999999996
  0
ARC
  5
6C3
  8
0
  6
CONTINUOUS
 62
     3
 10
171.5624558433857
 20
139.3943526040365
 30
0.0
 40
2.0
 50
89.99999999999959
 51
180.6445503284729
  0
ARC
  5
6C4
  8
0
  6
CONTINUOUS
 62
     3
 10
105.7184025001121
 20
139.3943526040364
 30
0.0
 40
2.0
 50
359.3554496715271
 51
90.0
  0
LINE
  5
6C5
  8
0
  6
CONTINUOUS
 62
     3
 10
192.318229147929
 20
11.67341104539024
 30
0.0
 11
188.7215449970476
 21
136.5252373455759
 31
0.0
  0
LINE
  5
6C6
  8
0
  6
CONTINUOUS
 62
     3
 10
169.5625823938737
 20
139.3718540277295
 30
0.0
 11
170.8715537423445
 21
33.39368593737083
 31
0.0
  0
LINE
  5
6C7
  8
0
  6
CONTINUOUS
 62
     3
 10
107.7182759496243
 20
139.3718540277294
 30
0.0
 11
106.4093046011534
 21
33.39368593737083
 31
0.0
  0
LINE
  5
6C8
  8
0
  6
CONTINUOUS
 62
     3
 10
84.96142942185116
 20
11.67341104539024
 30
0.0
 11
88.55811357273234
 21
136.5252373455758
 31
0.0
  0
ARC
  5
6C9
  8
0
  6
CONTINUOUS
 62
     3
 10
193.1179550079093
 20
11.69435260403655
 30
0.0
 40
0.8
 50
181.5000000000001
 51
270.0
  0
ARC
  5
6CA
  8
0
  6
CONTINUOUS
 62
     3
 10
84.16170356187087
 20
11.69435260403655
 30
0.0
 40
0.8
 50
270.0
 51
358.5
  0
LINE
  5
6CB
  8
0
  6
CONTINUOUS
 62
     3
 10
187.1386295111722
 20
12.39435260403654
 30
0.0
 11
185.3139373897267
 21
15.55481206655044
 31
0.0
  0
LINE
  5
6CC
  8
0
  6
CONTINUOUS
 62
     3
 10
187.1386295111722
 20
12.39435260403654
 30
0.0
 11
188.9633216326174
 21
15.55481206655044
 31
0.0
  0
LINE
  5
6CD
  8
0
  6
CONTINUOUS
 62
     3
 10
90.14102905860824
 20
12.39435260403654
 30
0.0
 11
88.31633693716282
 21
15.55481206655044
 31
0.0
  0
LINE
  5
6CE
  8
0
  6
CONTINUOUS
 62
     3
 10
90.14102905860824
 20
12.39435260403654
 30
0.0
 11
91.96572118005344
 21
15.55481206655044
 31
0.0
  0
LINE
  5
6CF
  8
0
  6
CONTINUOUS
 62
     3
 10
193.13982928489
 20
3.394352604036769
 30
0.0
 11
193.13982928489
 21
4.894352604036484
 31
0.0
  0
LINE
  5
6D0
  8
0
  6
CONTINUOUS
 62
     3
 10
193.1386295111722
 20
10.89435260403654
 30
0.0
 11
193.1386295111722
 21
4.894352604036541
 31
0.0
  0
LINE
  5
6D1
  8
0
  6
CONTINUOUS
 62
     3
 10
84.14102905860801
 20
10.89435260403654
 30
0.0
 11
84.14102905860801
 21
4.894352604036541
 31
0.0
  0
LINE
  5
6D2
  8
0
  6
CONTINUOUS
 62
     3
 10
-196.6261725548731
 20
3.394352604038374
 30
0.0
 11
-196.6261725548731
 21
4.894352604037351
 31
0.0
  0
LINE
  5
6D3
  8
0
  6
CONTINUOUS
 62
     3
 10
193.13982928489
 20
4.894352604036484
 30
0.0
 11
183.6398292848901
 21
4.894352604036484
 31
0.0
  0
LINE
  5
6D4
  8
0
  6
CONTINUOUS
 62
     3
 10
93.63982928488963
 20
4.894352604036484
 30
0.0
 11
84.13982928489014
 21
4.894352604036484
 31
0.0
  0
LINE
  5
6D5
  8
0
  6
CONTINUOUS
 62
     3
 10
193.13982928489
 20
3.394352604036825
 30
0.0
 11
183.6398292848901
 21
3.394352604036877
 31
0.0
  0
LINE
  5
6D6
  8
0
  6
CONTINUOUS
 62
     3
 10
93.63982928488963
 20
3.39435260403737
 30
0.0
 11
84.13982928489014
 21
3.394352604037422
 31
0.0
  0
LINE
  5
6D7
  8
0
  6
CONTINUOUS
 62
     3
 10
93.63982928488963
 20
10.89435260403644
 30
0.0
 11
84.14102905860801
 21
10.89435260403643
 31
0.0
  0
LINE
  5
6D8
  8
0
  6
CONTINUOUS
 62
     3
 10
193.1386295111722
 20
10.89435260403654
 30
0.0
 11
183.6398292848901
 21
10.89435260403653
 31
0.0
  0
INSERT
  5
6D9
  8
0
  6
CONTINUOUS
  2
DC_GROUP_32
 10
0.0
 20
0.0
 30
0.0
  0
INSERT
  5
6DA
  8
0
  6
CONTINUOUS
  2
DC_GROUP_33
 10
0.0
 20
0.0
 30
0.0
  0
INSERT
  5
6DB
  8
0
  6
CONTINUOUS
  2
DC_GROUP_34
 10
0.0
 20
0.0
 30
0.0
  0
INSERT
  5
6DC
  8
0
  6
CONTINUOUS
  2
DC_GROUP_35
 10
0.0
 20
0.0
 30
0.0
  0
INSERT
  5
6DD
  8
0
  6
CONTINUOUS
  2
DC_GROUP_36
 10
0.0
 20
0.0
 30
0.0
  0
INSERT
  5
6DE
  8
0
  6
CONTINUOUS
  2
DC_GROUP_37
 10
0.0
 20
0.0
 30
0.0
  0
INSERT
  5
6DF
  8
0
  6
CONTINUOUS
  2
DC_GROUP_38
 10
0.0
 20
0.0
 30
0.0
  0
INSERT
  5
6E0
  8
0
  6
CONTINUOUS
  2
DC_GROUP_39
 10
0.0
 20
0.0
 30
0.0
  0
INSERT
  5
6E1
  8
0
  6
CONTINUOUS
  2
DC_FILL_GROUP_40
 10
0.0
 20
0.0
 30
0.0
  0
LINE
  5
6E2
  8
AM_0
  6
CONTINUOUS
 62
     7
 10
-192.1238757390248
 20
3.394352604037408
 30
0.0
 11
-56.12302688942816
 21
3.394352604037408
 31
0.0
  0
ARC
  5
6E3
  8
AM_0
  6
CONTINUOUS
 62
     7
 10
-70.23631639398366
 20
-7.605647395962364
 30
0.0
 40
1.000000000000005
 50
90.0
 51
178.3999999999935
  0
LINE
  5
6E4
  8
AM_0
  6
CONTINUOUS
 62
     7
 10
-51.6249763142265
 20
-3.605647395962364
 30
0.0
 11
-51.6249763142265
 21
-2.605647395962364
 31
0.0
  0
ARC
  5
6E5
  8
AM_0
  6
CONTINUOUS
 62
     7
 10
-52.6249763142265
 20
-2.605647395962364
 30
0.0
 40
0.9999999999999964
 50
270.0
 51
0.0
  0
LINE
  5
6E6
  8
AM_0
  6
CONTINUOUS
 62
     7
 10
-52.6249763142265
 20
-3.605647395962364
 30
0.0
 11
-56.62497631422673
 21
-3.605647395962364
 31
0.0
  0
LINE
  5
6E7
  8
AM_0
  6
CONTINUOUS
 62
     7
 10
-191.6219263142267
 20
-3.605647395962364
 30
0.0
 11
-56.62497631422673
 21
-3.605647395962364
 31
0.0
  0
ARC
  5
6E8
  8
AM_0
  6
CONTINUOUS
 62
     7
 10
-195.6219263142267
 20
-2.605647395962364
 30
0.0
 40
0.9999999999999964
 50
180.0
 51
270.0
  0
LINE
  5
6E9
  8
AM_0
  6
CONTINUOUS
 62
     7
 10
-191.6219263142267
 20
-3.605647395962364
 30
0.0
 11
-195.6219263142267
 21
-3.605647395962364
 31
0.0
  0
ARC
  5
6EA
  8
AM_0
  6
CONTINUOUS
 62
     7
 10
-52.6249763142265
 20
-5.605647395962364
 30
0.0
 40
0.9999999999999964
 50
270.0
 51
0.0
  0
LINE
  5
6EB
  8
AM_0
  6
CONTINUOUS
 62
     7
 10
-51.6249763142265
 20
-3.605647395962364
 30
0.0
 11
-51.6249763142265
 21
-5.605647395962364
 31
0.0
  0
ARC
  5
6EC
  8
AM_0
  6
CONTINUOUS
 62
     7
 10
-178.0974338220591
 20
-4.605647395962592
 30
0.0
 40
1.0
 50
1.599999999993508
 51
90.0
  0
ARC
  5
6ED
  8
AM_0
  6
CONTINUOUS
 62
     7
 10
-70.15251880639369
 20
-4.605647395962592
 30
0.0
 40
0.9999999999999915
 50
90.0
 51
178.3999999999935
  0
ARC
  5
6EE
  8
AM_0
  6
CONTINUOUS
 62
     7
 10
-70.93462962389833
 20
-32.60564739596236
 30
0.0
 40
1.0
 50
90.0
 51
178.3999999999935
  0
LINE
  5
6EF
  8
AM_0
  6
CONTINUOUS
 62
     7
 10
-70.23631639398366
 20
-6.605647395962364
 30
0.0
 11
-52.6249763142265
 21
-6.605647395962364
 31
0.0
  0
LINE
  5
6F0
  8
AM_0
  6
CONTINUOUS
 62
     7
 10
-196.6219263142267
 20
3.394352604037408
 30
0.0
 11
-196.6219263142267
 21
-2.605647395962364
 31
0.0
  0
LINE
  5
6F1
  8
AM_0
  6
CONTINUOUS
 62
     7
 10
-51.6249763142265
 20
-2.605647395962364
 30
0.0
 11
-51.6249763142265
 21
3.394352604037408
 31
0.0
  0
ARC
  5
6F2
  8
AM_0
  6
CONTINUOUS
 62
     7
 10
-51.6249763142265
 20
-30.60564739596236
 30
0.0
 40
1.0
 50
270.0
 51
0.0
  0
ARC
  5
6F3
  8
AM_0
  6
CONTINUOUS
 62
     7
 10
-51.6249763142265
 20
-2.605647395962364
 30
0.0
 40
1.0
 50
0.0
 51
90.0
  0
LINE
  5
6F4
  8
AM_0
  6
CONTINUOUS
 62
     7
 10
-176.6380794898454
 20
-21.03682310348211
 30
0.0
 11
-176.4072021566379
 21
-29.30235937420457
 31
0.0
  0
ARC
  5
6F5
  8
AM_0
  6
CONTINUOUS
 62
     7
 10
-170.1677490853193
 20
-73.60564739596236
 30
0.0
 40
5.0
 50
181.6000000000065
 51
270.0
  0
LINE
  5
6F6
  8
AM_0
  6
CONTINUOUS
 62
     7
 10
-176.4072021566379
 20
-29.30235937420457
 30
0.0
 11
-175.1657996605212
 21
-73.7452555895805
 31
0.0
  0
LINE
  5
6F7
  8
AM_0
  6
CONTINUOUS
 62
     7
 10
-71.84275047181484
 20
-29.30235937420457
 30
0.0
 11
-71.61187313860762
 21
-21.03682310348211
 31
0.0
  0
ARC
  5
6F8
  8
AM_0
  6
CONTINUOUS
 62
     7
 10
-78.08220354313391
 20
-73.60564739596236
 30
0.0
 40
4.99999999999999
 50
270.0
 51
358.4000000000065
  0
LINE
  5
6F9
  8
AM_0
  6
CONTINUOUS
 62
     7
 10
-73.0841529679318
 20
-73.7452555895805
 30
0.0
 11
-71.84275047181507
 21
-29.30235937420457
 31
0.0
  0
LINE
  5
6FA
  8
AM_0
  6
CONTINUOUS
 62
     7
 10
-93.15488586639697
 20
-78.60564739596236
 30
0.0
 11
-78.08220354313391
 21
-78.60564739596236
 31
0.0
  0
LINE
  5
6FB
  8
AM_0
  6
CONTINUOUS
 62
     7
 10
-71.61187313860762
 20
-21.03682310348211
 30
0.0
 11
-71.5129807945849
 21
-17.49642247141719
 31
0.0
  0
LINE
  5
6FC
  8
AM_0
  6
CONTINUOUS
 62
     7
 10
-155.0950667620558
 20
-78.60564739596236
 30
0.0
 11
-93.15488586639697
 21
-78.60564739596236
 31
0.0
  0
LINE
  5
6FD
  8
AM_0
  6
CONTINUOUS
 62
     7
 10
-71.5129807945849
 20
-17.49642247141719
 30
0.0
 11
-71.15212892143416
 21
-4.577725757238454
 31
0.0
  0
LINE
  5
6FE
  8
AM_0
  6
CONTINUOUS
 62
     7
 10
-170.1677490853193
 20
-78.60564739596236
 30
0.0
 11
-155.0950667620558
 21
-78.60564739596236
 31
0.0
  0
LINE
  5
6FF
  8
AM_0
  6
CONTINUOUS
 62
     7
 10
-176.7369718338683
 20
-17.49642247141719
 30
0.0
 11
-176.6380794898454
 21
-21.03682310348211
 31
0.0
  0
LINE
  5
700
  8
AM_0
  6
CONTINUOUS
 62
     7
 10
-177.0978237070188
 20
-4.577725757238454
 30
0.0
 11
-176.7369718338683
 21
-17.49642247141719
 31
0.0
  0
LINE
  5
701
  8
AM_0
  6
CONTINUOUS
 62
     7
 10
-51.6249763142265
 20
-31.60564739596236
 30
0.0
 11
-70.93462962389833
 21
-31.60564739596236
 31
0.0
  0
LINE
  5
702
  8
0
  6
CENTER
 62
     4
 10
-57.62802278115498
 20
18.86636706651097
 30
0.0
 11
-57.62802278115498
 21
6.073012964745658
 31
0.0
  0
LINE
  5
703
  8
0
  6
CENTER
 62
     4
 10
-190.624972781155
 20
18.86636706651097
 30
0.0
 11
-190.624972781155
 21
6.073012964745601
 31
0.0
  0
LINE
  5
704
  8
0
  6
CENTER
 62
     4
 10
187.1386295111719
 20
18.86636706651011
 30
0.0
 11
187.1386295111719
 21
6.073012964744791
 31
0.0
  0
LINE
  5
705
  8
0
  6
CENTER
 62
     4
 10
90.14102905860824
 20
18.86636706651011
 30
0.0
 11
90.14102905860824
 21
6.073012964744734
 31
0.0
  0
INSERT
  5
706
  8
0
 62
     7
  2
*U41
 10
0.0
 20
0.0
 30
0.0
1001
ACAD
1002
{
1000
R14_HATCH_DATA
1000
706
1011
1.0
1021
0.0
1031
0.0
1021
0.0
1031
0.0
1011
0.0
1021
1.0
1031
0.0
1021
1.0
1031
0.0
1011
0.0
1021
0.0
1031
1.0
1021
0.0
1031
1.0
1040
0.0
1010
0.0
1020
0.0
1030
1.0
1000
SOLID
1070
     1
1070
     1
1071
        2
1071
        0
1071
        4
1070
     1
1040
93.63982928488963
1040
4.894352604036484
1040
84.13982928489014
1040
4.894352604036484
1070
     1
1040
84.13982928489014
1040
4.894352604036484
1040
84.13982928489193
1040
3.394352604037316
1070
     1
1040
84.13982928489193
1040
3.394352604037316
1040
93.63982928488963
1040
3.39435260403737
1070
     1
1040
93.63982928488963
1040
3.39435260403737
1040
93.63982928488963
1040
4.894352604036484
1071
        0
1071
        0
1071
        4
1070
     1
1040
193.13982928489
1040
3.394352604036825
1040
183.6398292848901
1040
3.394352604036877
1070
     1
1040
183.6398292848901
1040
3.394352604036877
1040
183.6398292848901
1040
4.894352604036484
1070
     1
1040
183.6398292848901
1040
4.894352604036484
1040
193.13982928489
1040
4.894352604036484
1070
     1
1040
193.13982928489
1040
4.894352604036484
1040
193.13982928489
1040
3.394352604036825
1071
        0
1070
     0
1070
     1
1071
        0
1002
}
  0
VIEWPORT
  5
B5
 67
     1
  8
0
 10
-6.352015738861212
 20
-2.604743246458838
 30
0.0
 40
1196.951070142507
 41
1973.536371286132
 68
     1
 69
     1
1001
ACAD
1000
MVIEW
1002
{
1070
    16
1010
0.0
1020
0.0
1030
0.0
1010
0.0
1020
0.0
1030
1.0
1040
0.0
1040
1973.536371286132
1040
-6.352015738861212
1040
-2.604743246458838
1040
50.0
1040
0.0
1040
0.0
1070
     0
1070
   100
1070
     0
1070
     3
1070
     0
1070
     0
1070
     0
1070
     0
1040
0.0
1040
0.0
1040
0.0
1040
0.5
1040
0.5
1040
0.0
1040
0.0
1070
     0
1002
{
1002
}
1002
}
  0
ENDSEC
  0
EOF
