  0
SECTION
  2
HEADER
  9
$ACADVER
  1
AC1014
  9
$ACADMAINTVER
 70
       0
  9
$DWGCODEPAGE
  3
ANSI_932
  9
$INSBASE
 10
0.0
 20
0.0
 30
0.0
  9
$EXTMIN
 10
-131.24987188
 20
-106.68865066
 30
0.0
  9
$EXTMAX
 10
131.24987188
 20
44.76824241
 30
0.0
  9
$LIMMIN
 10
-139.45298887
 20
-111.42167857
  9
$LIMMAX
 10
139.45298887
 20
49.50127032
  9
$ORTHOMODE
 70
       0
  9
$REGENMODE
 70
       1
  9
$FILLMODE
 70
       1
  9
$QTEXTMODE
 70
       0
  9
$MIRRTEXT
 70
       1
  9
$DRAGMODE
 70
       2
  9
$LTSCALE
 40
1.0
  9
$OSMODE
 70
       0
  9
$ATTMODE
 70
       1
  9
$TEXTSIZE
 40
0.2
  9
$TRACEWID
 40
0.05
  9
$TEXTSTYLE
  7
STANDARD
  9
$CLAYER
  8
0
  9
$CELTYPE
  6
CONTINUOUS
  9
$CECOLOR
 62
     256
  9
$CELTSCALE
 40
1.0
  9
$DELOBJ
 70
       1
  9
$DISPSILH
 70
       0
  9
$DIMSCALE
 40
1.0
  9
$DIMASZ
 40
0.18
  9
$DIMEXO
 40
0.0625
  9
$DIMDLI
 40
0.38
  9
$DIMRND
 40
0.0
  9
$DIMDLE
 40
0.0
  9
$DIMEXE
 40
0.18
  9
$DIMTP
 40
0.0
  9
$DIMTM
 40
0.0
  9
$DIMTXT
 40
0.18
  9
$DIMCEN
 40
0.09
  9
$DIMTSZ
 40
0.0
  9
$DIMTOL
 70
       0
  9
$DIMLIM
 70
       0
  9
$DIMTIH
 70
       1
  9
$DIMTOH
 70
       1
  9
$DIMSE1
 70
       0
  9
$DIMSE2
 70
       0
  9
$DIMTAD
 70
       0
  9
$DIMZIN
 70
       0
  9
$DIMBLK
  1

  9
$DIMASO
 70
       1
  9
$DIMSHO
 70
       1
  9
$DIMPOST
  1

  9
$DIMAPOST
  1

  9
$DIMALT
 70
       0
  9
$DIMALTD
 70
       2
  9
$DIMALTF
 40
25.4
  9
$DIMLFAC
 40
1.0
  9
$DIMTOFL
 70
       0
  9
$DIMTVP
 40
0.0
  9
$DIMTIX
 70
       0
  9
$DIMSOXD
 70
       0
  9
$DIMSAH
 70
       0
  9
$DIMBLK1
  1

  9
$DIMBLK2
  1

  9
$DIMSTYLE
  2
STANDARD
  9
$DIMCLRD
 70
       0
  9
$DIMCLRE
 70
       0
  9
$DIMCLRT
 70
       0
  9
$DIMTFAC
 40
1.0
  9
$DIMGAP
 40
0.09
  9
$DIMJUST
 70
       0
  9
$DIMSD1
 70
       0
  9
$DIMSD2
 70
       0
  9
$DIMTOLJ
 70
       1
  9
$DIMTZIN
 70
       0
  9
$DIMALTZ
 70
       0
  9
$DIMALTTZ
 70
       0
  9
$DIMFIT
 70
       3
  9
$DIMUPT
 70
       0
  9
$DIMUNIT
 70
       2
  9
$DIMDEC
 70
       4
  9
$DIMTDEC
 70
       4
  9
$DIMALTU
 70
       2
  9
$DIMALTTD
 70
       2
  9
$DIMTXSTY
  7
STANDARD
  9
$DIMAUNIT
 70
       0
  9
$LUNITS
 70
       2
  9
$LUPREC
 70
       4
  9
$SKETCHINC
 40
0.1
  9
$FILLETRAD
 40
0.0
  9
$AUNITS
 70
       0
  9
$AUPREC
 70
       0
  9
$MENU
  1
acad
  9
$ELEVATION
 40
0.0
  9
$PELEVATION
 40
0.0
  9
$THICKNESS
 40
0.0
  9
$LIMCHECK
 70
       0
  9
$BLIPMODE
 70
       1
  9
$CHAMFERA
 40
0.0
  9
$CHAMFERB
 40
0.0
  9
$CHAMFERC
 40
0.0
  9
$CHAMFERD
 40
0.0
  9
$SKPOLY
 70
       0
  9
$TDCREATE
 40
0.000000000
  9
$TDUPDATE
 40
0.000000000
  9
$TDINDWG
 40
0.0000000000
  9
$TDUSRTIMER
 40
0.0000000000
  9
$USRTIMER
 70
       1
  9
$ANGBASE
 50
0.0
  9
$ANGDIR
 70
       0
  9
$PDMODE
 70
       0
  9
$PDSIZE
 40
1.0
  9
$PLINEWID
 40
0.0
  9
$COORDS
 70
       1
  9
$SPLFRAME
 70
       0
  9
$SPLINETYPE
 70
       6
  9
$SPLINESEGS
 70
       8
  9
$ATTDIA
 70
       0
  9
$ATTREQ
 70
       1
  9
$HANDLING
 70
       1
  9
$HANDSEED
  5
1C5
  9
$SURFTAB1
 70
       6
  9
$SURFTAB2
 70
       6
  9
$SURFTYPE
 70
       6
  9
$SURFU
 70
       6
  9
$SURFV
 70
       6
  9
$UCSNAME
  2

  9
$UCSORG
 10
0.0
 20
0.0
 30
0.0
  9
$UCSXDIR
 10
1.0
 20
0.0
 30
0.0
  9
$UCSYDIR
 10
0.0
 20
1.0
 30
0.0
  9
$PUCSNAME
  2

  9
$PUCSORG
 10
0.0
 20
0.0
 30
0.0
  9
$PUCSXDIR
 10
1.0
 20
0.0
 30
0.0
  9
$PUCSYDIR
 10
0.0
 20
1.0
 30
0.0
  9
$USERI1
 70
       0
  9
$USERI2
 70
       0
  9
$USERI3
 70
       0
  9
$USERI4
 70
       0
  9
$USERI5
 70
       0
  9
$USERR1
 40
0.0
  9
$USERR2
 40
0.0
  9
$USERR3
 40
0.0
  9
$USERR4
 40
0.0
  9
$USERR5
 40
0.0
  9
$WORLDVIEW
 70
       1
  9
$SHADEDGE
 70
       3
  9
$SHADEDIF
 70
      70
  9
$TILEMODE
 70
       1
  9
$MAXACTVP
 70
      16
  9
$PINSBASE
 10
0.0
 20
0.0
 30
0.0
  9
$PLIMCHECK
 70
       0
  9
$PEXTMIN
 10
1.00000000E+20
 20
1.00000000E+20
 30
1.00000000E+20
  9
$PEXTMAX
 10
-1.00000000E+20
 20
-1.00000000E+20
 30
-1.00000000E+20
  9
$PLIMMIN
 10
0.0
 20
0.0
  9
$PLIMMAX
 10
12.0
 20
9.0
  9
$UNITMODE
 70
       0
  9
$VISRETAIN
 70
       0
  9
$PLINEGEN
 70
       1
  9
$PSLTSCALE
 70
       0
  9
$TREEDEPTH
 70
    3020
  9
$PICKSTYLE
 70
       1
  9
$CMLSTYLE
  2
STANDARD
  9
$CMLJUST
 70
       0
  9
$CMLSCALE
 40
1.0
  9
$PROXYGRAPHICS
 70
       0
  9
$MEASUREMENT
 70
       0
  0
ENDSEC
  0
SECTION
  2
CLASSES
  0
CLASS
  1
LWPOLYLINE
  2
AcDbPolyline
  3
"AutoCAD"
 90
        0
280
       0
281
       1
  0
CLASS
  1
IMAGE
  2
AcDbRasterImage
  3
ISM
 90
      127
280
       0
281
       1
  0
CLASS
  1
OLE2FRAME
  2
AcDbOle2Frame
  3
""
 90
        0
280
       0
281
       1
  0
CLASS
  1
HATCH
  2
AcDbHatch
  3
"ACAD_SEDONA"
 90
        0
280
       0
281
       1
  0
CLASS
  1
DICTIONARYVAR
  2
AcDbDictionaryVar
  3
"AutoCAD"
 90
        0
280
       0
281
       0
  0
CLASS
  1
RASTERVARIABLES
  2
AcDbRasterVariables
  3
ISM
 90
        0
280
       0
281
       0
  0
CLASS
  1
IMAGEDEF
  2
AcDbRasterImageDef
  3
ISM
 90
        0
280
       0
281
       0
  0
CLASS
  1
IMAGEDEF_REACTOR
  2
AcDbRasterImageDefReactor
  3
ISM
 90
        1
280
       0
281
       0
  0
CLASS
  1
IDBUFFER
  2
AcDbIdBuffer
  3
"Acad"
 90
        0
280
       0
281
       0
  0
CLASS
  1
SPATIAL_FILTER
  2
AcDbSpatialFilter
  3
"Acad"
 90
        0
280
       0
281
       0
  0
CLASS
  1
XRECORD
  2
AcDbXrecord
  3
"<Built In>"
 90
        0
280
       0
281
       0
  0
CLASS
  1
SORTENTSTABLE
  2
AcDbSortentsTable
  3
"AutoCAD"
 90
        0
280
       0
281
       0
  0
CLASS
  1
LAYER_INDEX
  2
AcDbLayerIndex
  3
"Acad"
 90
        0
280
       0
281
       0
  0
CLASS
  1
SPATIAL_INDEX
  2
AcDbSpatialIndex
  3
"Acad"
 90
        0
280
       0
281
       0
  0
CLASS
  1
OBJECT_PTR
  2
CAseDLPNTableRecord
  3
"ASE-LPNTableRecord"
 90
        1
280
       0
281
       0
  0
CLASS
  1
LAYOUT
  2
AcDbLayout
  3
"AutoCAD 2000"
 90
        1
280
       0
281
       0
  0
CLASS
  1
PLOTSETTINGS
  2
AcDbPlotSettings
  3
"AutoCAD 2000"
 90
        1
280
       0
281
       0
  0
CLASS
  1
ACDBDICTIONARYWDFLT
  2
AcDbDictionaryWithDefault
  3
"AutoCAD 2000"
 90
        1
280
       0
281
       0
  0
CLASS
  1
ACDBPLACEHOLDER
  2
AcDbPlaceHolder
  3
"AutoCAD 2000"
 90
        1
280
       0
281
       0
  0
CLASS
  1
VBA_PROJECT
  2
AcDbVbaProject
  3
"acadvba"
 90
        1
280
       0
281
       0
  0
CLASS
  1
WIPEOUT
  2
AcDbWipeout
  3
WipeOut|AutoCAD Express Tool|expresstools@autodesk.com
 90
      127
280
       0
281
       1
  0
CLASS
  1
WIPEOUTVARIABLES
  2
AcDbWipeoutVariables
  3
WipeOut|AutoCAD Express Tool|expresstools@autodesk.com
 90
        0
280
       0
281
       0
  0
CLASS
  1
RTEXT
  2
RText
  3
RText|AutoCAD Express Tool|expresstools@autodesk.com
 90
        0
280
       0
281
       1
  0
CLASS
  1
ARCALIGNEDTEXT
  2
AcDbArcAlignedText
  3
ATEXT|AutoCAD Express Tool|expresstools@autodesk.com
 90
        0
280
       0
281
       1
  0
ENDSEC
  0
SECTION
  2
TABLES
  0
TABLE
  2
VPORT
  5
7
100
AcDbSymbolTable
 70
       1
  0
VPORT
  5
15
100
AcDbSymbolTableRecord
100
AcDbViewportTableRecord
  2
*ACTIVE
 70
       0
 10
0.0
 20
0.0
 11
1.0
 21
1.0
 12
0.0
 22
-30.96020413
 13
0.0
 23
0.0
 14
1.0
 24
1.0
 15
0.0
 25
0.0
 16
0.0
 26
0.0
 36
1.0
 17
0.0
 27
0.0
 37
0.0
 40
160.92294888
 41
1.73316472
 42
50.0
 43
0.0
 44
0.0
 50
0.0
 51
0.0
 71
       0
 72
     100
 73
       1
 74
       1
 75
       0
 76
       0
 77
       0
 78
       0
  0
ENDTAB
  0
TABLE
  2
LTYPE
  5
4
100
AcDbSymbolTable
 70
      30
  0
LTYPE
  5
11
100
AcDbSymbolTableRecord
100
AcDbLinetypeTableRecord
  2
BYBLOCK
 70
      64
  3

 72
      65
 73
       0
 40
0.0
  0
LTYPE
  5
12
100
AcDbSymbolTableRecord
100
AcDbLinetypeTableRecord
  2
BYLAYER
 70
      64
  3

 72
      65
 73
       0
 40
0.0
  0
LTYPE
  5
13
100
AcDbSymbolTableRecord
100
AcDbLinetypeTableRecord
  2
CONTINUOUS
 70
      64
  3
Solid line
 72
      65
 73
       0
 40
0.0
  0
LTYPE
  5
1D
100
AcDbSymbolTableRecord
100
AcDbLinetypeTableRecord
  2
HIDDENX2
 70
      64
  3
CADPAC LINETYPE
 72
      65
 73
       2
 40
11.88
 49
8.91
 74
       0
 49
-2.97
 74
       0
  0
LTYPE
  5
1E
100
AcDbSymbolTableRecord
100
AcDbLinetypeTableRecord
  2
HIDDEN
 70
      64
  3
CADPAC LINETYPE
 72
      65
 73
       2
 40
8.91
 49
5.94
 74
       0
 49
-2.97
 74
       0
  0
LTYPE
  5
1F
100
AcDbSymbolTableRecord
100
AcDbLinetypeTableRecord
  2
HIDDEN2
 70
      64
  3
CADPAC LINETYPE
 72
      65
 73
       2
 40
7.425
 49
4.455
 74
       0
 49
-2.97
 74
       0
  0
LTYPE
  5
20
100
AcDbSymbolTableRecord
100
AcDbLinetypeTableRecord
  2
DASHED
 70
      64
  3
CADPAC LINETYPE
 72
      65
 73
       2
 40
8.91
 49
5.94
 74
       0
 49
-2.97
 74
       0
  0
LTYPE
  5
21
100
AcDbSymbolTableRecord
100
AcDbLinetypeTableRecord
  2
DASHED2
 70
      64
  3
CADPAC LINETYPE
 72
      65
 73
       2
 40
6.6825
 49
4.455
 74
       0
 49
-2.2275
 74
       0
  0
LTYPE
  5
22
100
AcDbSymbolTableRecord
100
AcDbLinetypeTableRecord
  2
DASHEDX2
 70
      64
  3
CADPAC LINETYPE
 72
      65
 73
       2
 40
13.365
 49
8.91
 74
       0
 49
-4.455
 74
       0
  0
LTYPE
  5
23
100
AcDbSymbolTableRecord
100
AcDbLinetypeTableRecord
  2
DOTX2
 70
      64
  3
CADPAC LINETYPE
 72
      65
 73
       2
 40
3.7125
 49
0.0
 74
       0
 49
-3.7125
 74
       0
  0
LTYPE
  5
24
100
AcDbSymbolTableRecord
100
AcDbLinetypeTableRecord
  2
DOT
 70
      64
  3
CADPAC LINETYPE
 72
      65
 73
       2
 40
2.97
 49
0.0
 74
       0
 49
-2.97
 74
       0
  0
LTYPE
  5
25
100
AcDbSymbolTableRecord
100
AcDbLinetypeTableRecord
  2
DOT2
 70
      64
  3
CADPAC LINETYPE
 72
      65
 73
       2
 40
2.2275
 49
0.0
 74
       0
 49
-2.2275
 74
       0
  0
LTYPE
  5
26
100
AcDbSymbolTableRecord
100
AcDbLinetypeTableRecord
  2
CENTERX2
 70
      64
  3
CADPAC LINETYPE
 72
      65
 73
       4
 40
17.82
 49
7.425
 74
       0
 49
-3.7125
 74
       0
 49
2.97
 74
       0
 49
-3.7125
 74
       0
  0
LTYPE
  5
27
100
AcDbSymbolTableRecord
100
AcDbLinetypeTableRecord
  2
CENTER
 70
      64
  3
CADPAC LINETYPE
 72
      65
 73
       4
 40
13.662
 49
5.94
 74
       0
 49
-2.97
 74
       0
 49
1.782
 74
       0
 49
-2.97
 74
       0
  0
LTYPE
  5
28
100
AcDbSymbolTableRecord
100
AcDbLinetypeTableRecord
  2
CENTER2
 70
      64
  3
CADPAC LINETYPE
 72
      65
 73
       4
 40
9.504
 49
4.455
 74
       0
 49
-2.2275
 74
       0
 49
0.594
 74
       0
 49
-2.2275
 74
       0
  0
LTYPE
  5
29
100
AcDbSymbolTableRecord
100
AcDbLinetypeTableRecord
  2
DASHDOTX2
 70
      64
  3
CADPAC LINETYPE
 72
      65
 73
       4
 40
14.85
 49
7.425
 74
       0
 49
-3.7125
 74
       0
 49
0.0
 74
       0
 49
-3.7125
 74
       0
  0
LTYPE
  5
2A
100
AcDbSymbolTableRecord
100
AcDbLinetypeTableRecord
  2
DASHDOT
 70
      64
  3
CADPAC LINETYPE
 72
      65
 73
       4
 40
11.88
 49
5.94
 74
       0
 49
-2.97
 74
       0
 49
0.0
 74
       0
 49
-2.97
 74
       0
  0
LTYPE
  5
2B
100
AcDbSymbolTableRecord
100
AcDbLinetypeTableRecord
  2
DASHDOT2
 70
      64
  3
CADPAC LINETYPE
 72
      65
 73
       4
 40
8.91
 49
4.455
 74
       0
 49
-2.2275
 74
       0
 49
0.0
 74
       0
 49
-2.2275
 74
       0
  0
LTYPE
  5
2C
100
AcDbSymbolTableRecord
100
AcDbLinetypeTableRecord
  2
DIVIDEX2
 70
      64
  3
CADPAC LINETYPE
 72
      65
 73
       6
 40
18.5625
 49
7.425
 74
       0
 49
-3.7125
 74
       0
 49
0.0
 74
       0
 49
-3.7125
 74
       0
 49
0.0
 74
       0
 49
-3.7125
 74
       0
  0
LTYPE
  5
2D
100
AcDbSymbolTableRecord
100
AcDbLinetypeTableRecord
  2
DIVIDE
 70
      64
  3
CADPAC LINETYPE
 72
      65
 73
       6
 40
14.85
 49
5.94
 74
       0
 49
-2.97
 74
       0
 49
0.0
 74
       0
 49
-2.97
 74
       0
 49
0.0
 74
       0
 49
-2.97
 74
       0
  0
LTYPE
  5
2E
100
AcDbSymbolTableRecord
100
AcDbLinetypeTableRecord
  2
DIVIDE2
 70
      64
  3
CADPAC LINETYPE
 72
      65
 73
       6
 40
11.1375
 49
4.455
 74
       0
 49
-2.2275
 74
       0
 49
0.0
 74
       0
 49
-2.2275
 74
       0
 49
0.0
 74
       0
 49
-2.2275
 74
       0
  0
LTYPE
  5
2F
100
AcDbSymbolTableRecord
100
AcDbLinetypeTableRecord
  2
BORDERX2
 70
      64
  3
CADPAC LINETYPE
 72
      65
 73
       6
 40
25.9875
 49
7.425
 74
       0
 49
-3.7125
 74
       0
 49
7.425
 74
       0
 49
-3.7125
 74
       0
 49
0.0
 74
       0
 49
-3.7125
 74
       0
  0
LTYPE
  5
30
100
AcDbSymbolTableRecord
100
AcDbLinetypeTableRecord
  2
BORDER
 70
      64
  3
CADPAC LINETYPE
 72
      65
 73
       6
 40
20.79
 49
5.94
 74
       0
 49
-2.97
 74
       0
 49
5.94
 74
       0
 49
-2.97
 74
       0
 49
0.0
 74
       0
 49
-2.97
 74
       0
  0
LTYPE
  5
31
100
AcDbSymbolTableRecord
100
AcDbLinetypeTableRecord
  2
BORDER2
 70
      64
  3
CADPAC LINETYPE
 72
      65
 73
       6
 40
15.5925
 49
4.455
 74
       0
 49
-2.2275
 74
       0
 49
4.455
 74
       0
 49
-2.2275
 74
       0
 49
0.0
 74
       0
 49
-2.2275
 74
       0
  0
LTYPE
  5
32
100
AcDbSymbolTableRecord
100
AcDbLinetypeTableRecord
  2
PHANTOMX2
 70
      64
  3
CADPAC LINETYPE
 72
      65
 73
       6
 40
22.275
 49
7.425
 74
       0
 49
-2.97
 74
       0
 49
2.97
 74
       0
 49
-2.97
 74
       0
 49
2.97
 74
       0
 49
-2.97
 74
       0
  0
LTYPE
  5
33
100
AcDbSymbolTableRecord
100
AcDbLinetypeTableRecord
  2
PHANTOM
 70
      64
  3
CADPAC LINETYPE
 72
      65
 73
       6
 40
18.414
 49
5.94
 74
       0
 49
-2.97
 74
       0
 49
1.782
 74
       0
 49
-2.97
 74
       0
 49
1.782
 74
       0
 49
-2.97
 74
       0
  0
LTYPE
  5
34
100
AcDbSymbolTableRecord
100
AcDbLinetypeTableRecord
  2
PHANTOM2
 70
      64
  3
CADPAC LINETYPE
 72
      65
 73
       6
 40
15.741
 49
4.455
 74
       0
 49
-2.97
 74
       0
 49
1.188
 74
       0
 49
-2.97
 74
       0
 49
1.188
 74
       0
 49
-2.97
 74
       0
  0
LTYPE
  5
35
100
AcDbSymbolTableRecord
100
AcDbLinetypeTableRecord
  2
ACAD_ISO06W100
 70
      64
  3
CADPAC LINETYPE
 72
      65
 73
       8
 40
20.0475
 49
7.425
 74
       0
 49
-3.7125
 74
       0
 49
0.0
 74
       0
 49
-2.97
 74
       0
 49
0.0
 74
       0
 49
-2.97
 74
       0
 49
0.0
 74
       0
 49
-2.97
 74
       0
  0
LTYPE
  5
36
100
AcDbSymbolTableRecord
100
AcDbLinetypeTableRecord
  2
ACAD_ISO13W100
 70
      64
  3
CADPAC LINETYPE
 72
      65
 73
       8
 40
23.76
 49
5.94
 74
       0
 49
-2.97
 74
       0
 49
5.94
 74
       0
 49
-2.97
 74
       0
 49
0.0
 74
       0
 49
-2.97
 74
       0
 49
0.0
 74
       0
 49
-2.97
 74
       0
  0
LTYPE
  5
37
100
AcDbSymbolTableRecord
100
AcDbLinetypeTableRecord
  2
ACAD_ISO14W100
 70
      64
  3
CADPAC LINETYPE
 72
      65
 73
       8
 40
17.82
 49
5.94
 74
       0
 49
-2.97
 74
       0
 49
0.0
 74
       0
 49
-2.97
 74
       0
 49
0.0
 74
       0
 49
-2.97
 74
       0
 49
0.0
 74
       0
 49
-2.97
 74
       0
  0
ENDTAB
  0
TABLE
  2
LAYER
  5
2
100
AcDbSymbolTable
 70
       1
  0
LAYER
  5
14
100
AcDbSymbolTableRecord
100
AcDbLayerTableRecord
  2
0
 70
       0
 62
       7
  6
CONTINUOUS
  0
ENDTAB
  0
TABLE
  2
STYLE
  5
3
100
AcDbSymbolTable
 70
       1
  0
STYLE
  5
17
100
AcDbSymbolTableRecord
100
AcDbTextStyleTableRecord
  2
STANDARD
 70
       0
 40
0.0
 41
0.8
 50
0.0
 71
       0
 42
5.0
  3
txt.shx
  4
bigfont.shx
  0
ENDTAB
  0
TABLE
  2
VIEW
  5
5
100
AcDbSymbolTable
 70
       1
  0
VIEW
  5
38
100
AcDbSymbolTableRecord
100
AcDbViewTableRecord
  2
QQQQ
 70
       0
 40
160.92294888
 10
0.0
 20
-30.96020413
 41
278.90597774
 11
0.0
 21
0.0
 31
1.0
 12
100.0
 22
100.0
 32
0.0
 42
50.0
 43
0.0
 44
0.0
 50
0.0
 71
       0
  0
ENDTAB
  0
TABLE
  2
UCS
  5
6
100
AcDbSymbolTable
 70
       0
  0
ENDTAB
  0
TABLE
  2
APPID
  5
8
100
AcDbSymbolTable
 70
       1
  0
APPID
  5
16
100
AcDbSymbolTableRecord
100
AcDbRegAppTableRecord
  2
ACAD
 70
       0
  0
ENDTAB
  0
TABLE
  2
DIMSTYLE
  5
9
100
AcDbSymbolTable
 70
       1
  0
DIMSTYLE
105
18
100
AcDbSymbolTableRecord
100
AcDbDimStyleTableRecord
  2
STANDARD
 70
       0
  3

  4

  5

  6

  7

 40
1.0
 41
0.18
 42
0.0625
 43
0.38
 44
0.18
 45
0.0
 46
0.0
 47
0.0
 48
0.0
 71
       0
 72
       0
 73
       1
 74
       1
 75
       0
 76
       0
 77
       0
 78
       0
140
0.18
141
0.09
142
0.0
143
25.4
144
1.0
145
0.0
146
1.0
147
0.09
170
       0
171
       2
172
       0
173
       0
174
       0
175
       0
176
       0
177
       0
178
       0
270
       2
271
       4
272
       4
273
       2
274
       2
275
       0
280
       0
281
       0
282
       0
283
       1
284
       0
285
       0
286
       0
287
       0
288
       0
340
17
  0
ENDTAB
  0
TABLE
  2
BLOCK_RECORD
  5
1
100
AcDbSymbolTable
 70
       0
  0
BLOCK_RECORD
  5
A
100
AcDbSymbolTableRecord
100
AcDbBlockTableRecord
  2
*MODEL_SPACE
  0
BLOCK_RECORD
  5
B
100
AcDbSymbolTableRecord
100
AcDbBlockTableRecord
  2
*PAPER_SPACE
  0
ENDTAB
  0
ENDSEC
  0
SECTION
  2
BLOCKS
  0
BLOCK
  5
D
100
AcDbEntity
  8
0
100
AcDbBlockBegin
  2
*MODEL_SPACE
 70
       0
 10
0.0
 20
0.0
 30
0.0
  3
*MODEL_SPACE
  1

  0
ENDBLK
  5
E
100
AcDbEntity
  8
0
100
AcDbBlockEnd
  0
BLOCK
  5
F
100
AcDbEntity
 67
       1
  8
0
100
AcDbBlockBegin
  2
*PAPER_SPACE
 70
       0
 10
0.0
 20
0.0
 30
0.0
  3
*PAPER_SPACE
  1

  0
ENDBLK
  5
10
100
AcDbEntity
 67
       1
  8
0
100
AcDbBlockEnd
  0
ENDSEC
  0
SECTION
  2
ENTITIES
  0
LINE
  5
39
100
AcDbEntity
  8
0
  6
CONTINUOUS
 62
       3
100
AcDbLine
 10
-106.43449776
 20
-5.99310632
 30
0.0
 11
-113.22553341
 21
-5.99310632
 31
0.0
  0
LINE
  5
3A
100
AcDbEntity
  8
0
  6
CONTINUOUS
 62
       3
100
AcDbLine
 10
-111.23648543
 20
-2.79758815
 30
0.0
 11
-108.42354574
 21
-2.79758815
 31
0.0
  0
ARC
  5
3B
100
AcDbEntity
  8
0
  6
CONTINUOUS
 62
       3
100
AcDbCircle
 10
-108.42354583
 20
-3.09758818
 30
0.0
 40
0.3
100
AcDbArc
 50
45.0
 51
90.0
  0
LINE
  5
3C
100
AcDbEntity
  8
0
  6
CONTINUOUS
 62
       3
100
AcDbLine
 10
-108.21141374
 20
-2.88545611
 30
0.0
 11
-106.22236576
 21
-4.87450455
 31
0.0
  0
ARC
  5
3D
100
AcDbEntity
  8
0
  6
CONTINUOUS
 62
       3
100
AcDbCircle
 10
-111.23648515
 20
-3.09758818
 30
0.0
 40
0.3
100
AcDbArc
 50
90.0
 51
135.0
  0
LINE
  5
3E
100
AcDbEntity
  8
0
  6
CONTINUOUS
 62
       3
100
AcDbLine
 10
-113.43766587
 20
-4.87450455
 30
0.0
 11
-111.44861743
 21
-2.88545611
 31
0.0
  0
ARC
  5
3F
100
AcDbEntity
  8
0
  6
CONTINUOUS
 62
       3
100
AcDbCircle
 10
-106.43449736
 20
-5.08663665
 30
0.0
 40
0.3
100
AcDbArc
 50
0.0
 51
45.0
  0
ARC
  5
40
100
AcDbEntity
  8
0
  6
CONTINUOUS
 62
       3
100
AcDbCircle
 10
-113.22553362
 20
-5.08663665
 30
0.0
 40
0.3
100
AcDbArc
 50
135.0
 51
180.0
  0
LINE
  5
41
100
AcDbEntity
  8
0
  6
CONTINUOUS
 62
       3
100
AcDbLine
 10
-106.13449734
 20
-5.08663655
 30
0.0
 11
-106.13449734
 21
-5.99310632
 31
0.0
  0
LINE
  5
42
100
AcDbEntity
  8
0
  6
CONTINUOUS
 62
       3
100
AcDbLine
 10
-106.13449734
 20
-5.99310632
 30
0.0
 11
-106.43449776
 21
-5.99310632
 31
0.0
  0
LINE
  5
43
100
AcDbEntity
  8
0
  6
CONTINUOUS
 62
       3
100
AcDbLine
 10
-113.52553383
 20
-5.99310632
 30
0.0
 11
-113.52553383
 21
-5.08663655
 31
0.0
  0
LINE
  5
44
100
AcDbEntity
  8
0
  6
CONTINUOUS
 62
       3
100
AcDbLine
 10
-113.22553341
 20
-5.99310632
 30
0.0
 11
-113.52553383
 21
-5.99310632
 31
0.0
  0
LINE
  5
45
100
AcDbEntity
  8
0
  6
CONTINUOUS
 62
       3
100
AcDbLine
 10
-113.22553341
 20
-6.99310648
 30
0.0
 11
-106.43449776
 21
-6.99310648
 31
0.0
  0
LINE
  5
46
100
AcDbEntity
  8
0
  6
CONTINUOUS
 62
       3
100
AcDbLine
 10
-113.52553383
 20
-7.89957625
 30
0.0
 11
-113.52553383
 21
-6.99310648
 31
0.0
  0
LINE
  5
47
100
AcDbEntity
  8
0
  6
CONTINUOUS
 62
       3
100
AcDbLine
 10
-113.52553383
 20
-6.99310648
 30
0.0
 11
-113.22553341
 21
-6.99310648
 31
0.0
  0
LINE
  5
48
100
AcDbEntity
  8
0
  6
CONTINUOUS
 62
       3
100
AcDbLine
 10
-106.13449734
 20
-6.99310648
 30
0.0
 11
-106.13449734
 21
-7.89957625
 31
0.0
  0
LINE
  5
49
100
AcDbEntity
  8
0
  6
CONTINUOUS
 62
       3
100
AcDbLine
 10
-106.43449776
 20
-6.99310648
 30
0.0
 11
-106.13449734
 21
-6.99310648
 31
0.0
  0
LINE
  5
4A
100
AcDbEntity
  8
0
  6
CONTINUOUS
 62
       3
100
AcDbLine
 10
-106.22236576
 20
-8.11170824
 30
0.0
 11
-108.21141374
 21
-10.10075622
 31
0.0
  0
ARC
  5
4B
100
AcDbEntity
  8
0
  6
CONTINUOUS
 62
       3
100
AcDbCircle
 10
-113.22553362
 20
-7.89957597
 30
0.0
 40
0.3
100
AcDbArc
 50
180.0
 51
225.0
  0
LINE
  5
4C
100
AcDbEntity
  8
0
  6
CONTINUOUS
 62
       3
100
AcDbLine
 10
-111.44861743
 20
-10.10075622
 30
0.0
 11
-113.43766587
 21
-8.11170824
 31
0.0
  0
ARC
  5
4D
100
AcDbEntity
  8
0
  6
CONTINUOUS
 62
       3
100
AcDbCircle
 10
-106.43449736
 20
-7.89957597
 30
0.0
 40
0.3
100
AcDbArc
 50
315.0
 51
360.0
  0
LINE
  5
4E
100
AcDbEntity
  8
0
  6
CONTINUOUS
 62
       3
100
AcDbLine
 10
-108.42354574
 20
-10.18862464
 30
0.0
 11
-111.23648543
 21
-10.18862464
 31
0.0
  0
ARC
  5
4F
100
AcDbEntity
  8
0
  6
CONTINUOUS
 62
       3
100
AcDbCircle
 10
-108.42354583
 20
-9.88862444
 30
0.0
 40
0.3
100
AcDbArc
 50
270.0
 51
315.0
  0
ARC
  5
50
100
AcDbEntity
  8
0
  6
CONTINUOUS
 62
       3
100
AcDbCircle
 10
-111.23648515
 20
-9.88862444
 30
0.0
 40
0.3
100
AcDbArc
 50
225.0
 51
270.0
  0
LINE
  5
51
100
AcDbEntity
  8
0
  6
CONTINUOUS
 62
       3
100
AcDbLine
 10
-106.13449734
 20
-5.99310632
 30
0.0
 11
-106.13449734
 21
-6.99310648
 31
0.0
  0
LINE
  5
52
100
AcDbEntity
  8
0
  6
CONTINUOUS
 62
       3
100
AcDbLine
 10
-113.52553383
 20
-6.99310648
 30
0.0
 11
-113.52553383
 21
-5.99310632
 31
0.0
  0
ARC
  5
53
100
AcDbEntity
  8
0
  6
CONTINUOUS
 62
       3
100
AcDbCircle
 10
-109.83001549
 20
-6.49310631
 30
0.0
 40
4.0
100
AcDbArc
 50
112.5
 51
157.5
  0
ARC
  5
54
100
AcDbEntity
  8
0
  6
CONTINUOUS
 62
       3
100
AcDbCircle
 10
-109.83001549
 20
-6.49310631
 30
0.0
 40
4.0
100
AcDbArc
 50
157.5
 51
202.5
  0
ARC
  5
55
100
AcDbEntity
  8
0
  6
CONTINUOUS
 62
       3
100
AcDbCircle
 10
-109.83001549
 20
-6.49310631
 30
0.0
 40
4.0
100
AcDbArc
 50
202.5
 51
247.5
  0
ARC
  5
56
100
AcDbEntity
  8
0
  6
CONTINUOUS
 62
       3
100
AcDbCircle
 10
-109.83001549
 20
-6.49310631
 30
0.0
 40
4.0
100
AcDbArc
 50
247.5
 51
292.5
  0
ARC
  5
57
100
AcDbEntity
  8
0
  6
CONTINUOUS
 62
       3
100
AcDbCircle
 10
-109.83001549
 20
-6.49310631
 30
0.0
 40
4.0
100
AcDbArc
 50
292.5
 51
337.5
  0
ARC
  5
58
100
AcDbEntity
  8
0
  6
CONTINUOUS
 62
       3
100
AcDbCircle
 10
-109.83001549
 20
-6.49310631
 30
0.0
 40
4.0
100
AcDbArc
 50
337.5
 51
382.5
  0
ARC
  5
59
100
AcDbEntity
  8
0
  6
CONTINUOUS
 62
       3
100
AcDbCircle
 10
-109.83001549
 20
-6.49310631
 30
0.0
 40
4.0
100
AcDbArc
 50
22.5
 51
67.5
  0
ARC
  5
5A
100
AcDbEntity
  8
0
  6
CONTINUOUS
 62
       3
100
AcDbCircle
 10
-109.83001549
 20
-6.49310631
 30
0.0
 40
4.0
100
AcDbArc
 50
67.5
 51
112.5
  0
LINE
  5
5B
100
AcDbEntity
  8
0
  6
CONTINUOUS
 62
       3
100
AcDbLine
 10
-100.08001492
 20
-2.19310625
 30
0.0
 11
-100.08001492
 21
30.80689404
 31
0.0
  0
LINE
  5
5C
100
AcDbEntity
  8
0
  6
CONTINUOUS
 62
       3
100
AcDbLine
 10
-120.58001549
 20
35.55689435
 30
0.0
 11
-99.08001476
 21
35.55689435
 31
0.0
  0
LINE
  5
5D
100
AcDbEntity
  8
0
  6
CONTINUOUS
 62
       3
100
AcDbLine
 10
-99.08001476
 20
35.55689435
 30
0.0
 11
-99.08001476
 21
-34.94310696
 31
0.0
  0
LINE
  5
5E
100
AcDbEntity
  8
0
  6
CONTINUOUS
 62
       3
100
AcDbLine
 10
-99.08001476
 20
-34.94310696
 30
0.0
 11
-120.58001549
 21
-34.94310696
 31
0.0
  0
LINE
  5
5F
100
AcDbEntity
  8
0
  6
CONTINUOUS
 62
       3
100
AcDbLine
 10
-120.58001549
 20
35.55689435
 30
0.0
 11
-120.58001549
 21
-34.94310696
 31
0.0
  0
ARC
  5
60
100
AcDbEntity
  8
0
  6
CONTINUOUS
 62
       3
100
AcDbCircle
 10
-118.58001549
 20
-11.19310631
 30
0.0
 40
0.5
100
AcDbArc
 50
90.0
 51
180.0
  0
LINE
  5
61
100
AcDbEntity
  8
0
  6
CONTINUOUS
 62
       3
100
AcDbLine
 10
-119.08001547
 20
-11.19310633
 30
0.0
 11
-119.08001547
 21
-30.19310665
 31
0.0
  0
ARC
  5
62
100
AcDbEntity
  8
0
  6
CONTINUOUS
 62
       3
100
AcDbCircle
 10
-118.58001549
 20
-30.19310631
 30
0.0
 40
0.5
100
AcDbArc
 50
180.0
 51
270.0
  0
LINE
  5
63
100
AcDbEntity
  8
0
  6
CONTINUOUS
 62
       3
100
AcDbLine
 10
-118.58001539
 20
-30.6931058
 30
0.0
 11
-100.58001593
 21
-30.6931058
 31
0.0
  0
ARC
  5
64
100
AcDbEntity
  8
0
  6
CONTINUOUS
 62
       3
100
AcDbCircle
 10
-100.58001549
 20
-30.19310631
 30
0.0
 40
0.5
100
AcDbArc
 50
270.0
 51
360.0
  0
LINE
  5
65
100
AcDbEntity
  8
0
  6
CONTINUOUS
 62
       3
100
AcDbLine
 10
-100.08001492
 20
-30.19310665
 30
0.0
 11
-100.08001492
 21
-11.19310633
 31
0.0
  0
ARC
  5
66
100
AcDbEntity
  8
0
  6
CONTINUOUS
 62
       3
100
AcDbCircle
 10
-100.58001549
 20
-11.19310631
 30
0.0
 40
0.5
100
AcDbArc
 50
0.0
 51
90.0
  0
LINE
  5
67
100
AcDbEntity
  8
0
  6
CONTINUOUS
 62
       3
100
AcDbLine
 10
-100.58001593
 20
-10.69310625
 30
0.0
 11
-118.58001539
 21
-10.69310625
 31
0.0
  0
ARC
  5
68
100
AcDbEntity
  8
0
  6
CONTINUOUS
 62
       3
100
AcDbCircle
 10
-118.58001549
 20
30.80689369
 30
0.0
 40
0.5
100
AcDbArc
 50
90.0
 51
180.0
  0
LINE
  5
69
100
AcDbEntity
  8
0
  6
CONTINUOUS
 62
       3
100
AcDbLine
 10
-119.08001547
 20
-2.19310625
 30
0.0
 11
-100.08001492
 21
-2.19310625
 31
0.0
  0
ARC
  5
6A
100
AcDbEntity
  8
0
  6
CONTINUOUS
 62
       3
100
AcDbCircle
 10
-100.58001549
 20
30.80689369
 30
0.0
 40
0.5
100
AcDbArc
 50
0.0
 51
90.0
  0
LINE
  5
6B
100
AcDbEntity
  8
0
  6
CONTINUOUS
 62
       3
100
AcDbLine
 10
-100.58001593
 20
31.30689319
 30
0.0
 11
-118.58001539
 21
31.30689319
 31
0.0
  0
LINE
  5
6C
100
AcDbEntity
  8
0
  6
CONTINUOUS
 62
       3
100
AcDbLine
 10
-119.08001547
 20
30.80689404
 30
0.0
 11
-119.08001547
 21
-2.19310625
 31
0.0
  0
LINE
  5
6D
100
AcDbEntity
  8
0
  6
CONTINUOUS
 62
       3
100
AcDbLine
 10
-62.77173086
 20
-2.49310621
 30
0.0
 11
-65.77172949
 21
-2.49310621
 31
0.0
  0
LINE
  5
6E
100
AcDbEntity
  8
0
  6
CONTINUOUS
 62
       3
100
AcDbLine
 10
-65.77172949
 20
-10.49310659
 30
0.0
 11
-62.77173086
 21
-10.49310659
 31
0.0
  0
LINE
  5
6F
100
AcDbEntity
  8
0
  6
CONTINUOUS
 62
       3
100
AcDbLine
 10
-62.67172917
 20
-4.99310615
 30
0.0
 11
-62.77173086
 21
-4.99310615
 31
0.0
  0
LINE
  5
70
100
AcDbEntity
  8
0
  6
CONTINUOUS
 62
       3
100
AcDbLine
 10
-62.77173086
 20
-7.99310618
 30
0.0
 11
-62.67172917
 21
-7.99310618
 31
0.0
  0
LINE
  5
71
100
AcDbEntity
  8
0
  6
CONTINUOUS
 62
       3
100
AcDbLine
 10
-65.77172949
 20
-10.18862464
 30
0.0
 11
-65.77172949
 21
-10.49310659
 31
0.0
  0
LINE
  5
72
100
AcDbEntity
  8
0
  6
CONTINUOUS
 62
       3
100
AcDbLine
 10
-65.77172949
 20
-8.02383982
 30
0.0
 11
-65.77172949
 21
-10.18862464
 31
0.0
  0
LINE
  5
73
100
AcDbEntity
  8
0
  6
CONTINUOUS
 62
       3
100
AcDbLine
 10
-65.77172949
 20
-4.96237251
 30
0.0
 11
-65.77172949
 21
-8.02383982
 31
0.0
  0
LINE
  5
74
100
AcDbEntity
  8
0
  6
CONTINUOUS
 62
       3
100
AcDbLine
 10
-65.77172949
 20
-2.79758815
 30
0.0
 11
-65.77172949
 21
-4.96237251
 31
0.0
  0
LINE
  5
75
100
AcDbEntity
  8
0
  6
CONTINUOUS
 62
       3
100
AcDbLine
 10
-65.77172949
 20
-2.49310621
 30
0.0
 11
-65.77172949
 21
-2.79758815
 31
0.0
  0
LINE
  5
76
100
AcDbEntity
  8
0
  6
CONTINUOUS
 62
       3
100
AcDbLine
 10
-62.77173086
 20
-2.49310621
 30
0.0
 11
-62.77173086
 21
-10.49310659
 31
0.0
  0
LINE
  5
77
100
AcDbEntity
  8
0
  6
CONTINUOUS
 62
       3
100
AcDbLine
 10
-72.37172782
 20
-6.99310648
 30
0.0
 11
-71.17172985
 21
-6.99310648
 31
0.0
  0
LINE
  5
78
100
AcDbEntity
  8
0
  6
CONTINUOUS
 62
       3
100
AcDbLine
 10
-71.17172985
 20
-5.99310632
 30
0.0
 11
-71.17172985
 21
-6.99310648
 31
0.0
  0
LINE
  5
79
100
AcDbEntity
  8
0
  6
CONTINUOUS
 62
       3
100
AcDbLine
 10
-71.17172985
 20
-5.99310632
 30
0.0
 11
-72.37172782
 21
-5.99310632
 31
0.0
  0
LINE
  5
7A
100
AcDbEntity
  8
0
  6
CONTINUOUS
 62
       3
100
AcDbLine
 10
-72.67172917
 20
-5.99310632
 30
0.0
 11
-72.67172917
 21
-5.08663655
 31
0.0
  0
LINE
  5
7B
100
AcDbEntity
  8
0
  6
CONTINUOUS
 62
       3
100
AcDbLine
 10
-72.37172782
 20
-5.99310632
 30
0.0
 11
-72.67172917
 21
-5.99310632
 31
0.0
  0
LINE
  5
7C
100
AcDbEntity
  8
0
  6
CONTINUOUS
 62
       3
100
AcDbLine
 10
-72.67172917
 20
-7.89957625
 30
0.0
 11
-72.67172917
 21
-6.99310648
 31
0.0
  0
LINE
  5
7D
100
AcDbEntity
  8
0
  6
CONTINUOUS
 62
       3
100
AcDbLine
 10
-72.67172917
 20
-6.99310648
 30
0.0
 11
-72.37172782
 21
-6.99310648
 31
0.0
  0
LINE
  5
7E
100
AcDbEntity
  8
0
  6
CONTINUOUS
 62
       3
100
AcDbLine
 10
-72.67172917
 20
-5.08663655
 30
0.0
 11
-72.67172917
 21
-3.09758811
 31
0.0
  0
LINE
  5
7F
100
AcDbEntity
  8
0
  6
CONTINUOUS
 62
       3
100
AcDbLine
 10
-72.67172917
 20
-9.88862422
 30
0.0
 11
-72.67172917
 21
-7.89957625
 31
0.0
  0
LINE
  5
80
100
AcDbEntity
  8
0
  6
CONTINUOUS
 62
       3
100
AcDbLine
 10
-65.77172949
 20
-10.18862464
 30
0.0
 11
-72.37172782
 21
-10.18862464
 31
0.0
  0
LINE
  5
81
100
AcDbEntity
  8
0
  6
CONTINUOUS
 62
       3
100
AcDbLine
 10
-72.37172782
 20
-2.79758815
 30
0.0
 11
-65.77172949
 21
-2.79758815
 31
0.0
  0
ARC
  5
82
100
AcDbEntity
  8
0
  6
CONTINUOUS
 62
       3
100
AcDbCircle
 10
-72.37172843
 20
-9.88862444
 30
0.0
 40
0.3
100
AcDbArc
 50
180.0
 51
270.0
  0
ARC
  5
83
100
AcDbEntity
  8
0
  6
CONTINUOUS
 62
       3
100
AcDbCircle
 10
-72.37172843
 20
-3.09758818
 30
0.0
 40
0.3
100
AcDbArc
 50
90.0
 51
180.0
  0
ARC
  5
84
100
AcDbEntity
  8
0
  6
CONTINUOUS
 62
       3
100
AcDbCircle
 10
-60.17172974
 20
32.55389369
 30
0.0
 40
0.5
100
AcDbArc
 50
90.0
 51
180.0
  0
LINE
  5
85
100
AcDbEntity
  8
0
  6
CONTINUOUS
 62
       3
100
AcDbLine
 10
-60.67172884
 20
32.55389314
 30
0.0
 11
-60.67172884
 21
-1.94610623
 31
0.0
  0
ARC
  5
86
100
AcDbEntity
  8
0
  6
CONTINUOUS
 62
       3
100
AcDbCircle
 10
-60.17172974
 20
-1.94610631
 30
0.0
 40
0.5
100
AcDbArc
 50
180.0
 51
270.0
  0
LINE
  5
87
100
AcDbEntity
  8
0
  6
CONTINUOUS
 62
       3
100
AcDbLine
 10
-60.17173155
 20
-2.44610632
 30
0.0
 11
-42.42172911
 21
-2.44610632
 31
0.0
  0
ARC
  5
88
100
AcDbEntity
  8
0
  6
CONTINUOUS
 62
       3
100
AcDbCircle
 10
-40.92172974
 20
-2.44610631
 30
0.0
 40
1.5
100
AcDbArc
 50
0.0
 51
180.0
  0
LINE
  5
89
100
AcDbEntity
  8
0
  6
CONTINUOUS
 62
       3
100
AcDbLine
 10
-39.42173048
 20
-2.44610632
 30
0.0
 11
-21.67172978
 21
-2.44610632
 31
0.0
  0
ARC
  5
8A
100
AcDbEntity
  8
0
  6
CONTINUOUS
 62
       3
100
AcDbCircle
 10
-21.67172974
 20
-1.94610631
 30
0.0
 40
0.5
100
AcDbArc
 50
270.0
 51
360.0
  0
LINE
  5
8B
100
AcDbEntity
  8
0
  6
CONTINUOUS
 62
       3
100
AcDbLine
 10
-21.17172976
 20
-1.94610623
 30
0.0
 11
-21.17172976
 21
32.55389314
 31
0.0
  0
ARC
  5
8C
100
AcDbEntity
  8
0
  6
CONTINUOUS
 62
       3
100
AcDbCircle
 10
-21.67172974
 20
32.55389369
 30
0.0
 40
0.5
100
AcDbArc
 50
0.0
 51
90.0
  0
LINE
  5
8D
100
AcDbEntity
  8
0
  6
CONTINUOUS
 62
       3
100
AcDbLine
 10
-21.67172978
 20
33.05389415
 30
0.0
 11
-60.17172974
 21
33.05389415
 31
0.0
  0
LINE
  5
8E
100
AcDbEntity
  8
0
  6
CONTINUOUS
 62
       3
100
AcDbLine
 10
21.3282697
 20
-34.94310696
 30
0.0
 11
21.3282697
 21
35.55689435
 31
0.0
  0
LINE
  5
8F
100
AcDbEntity
  8
0
  6
CONTINUOUS
 62
       3
100
AcDbLine
 10
-62.67172917
 20
-34.94310696
 30
0.0
 11
21.3282697
 21
-34.94310696
 31
0.0
  0
LINE
  5
90
100
AcDbEntity
  8
0
  6
CONTINUOUS
 62
       3
100
AcDbLine
 10
-62.67172917
 20
35.55689435
 30
0.0
 11
-62.67172917
 21
-34.94310696
 31
0.0
  0
LINE
  5
91
100
AcDbEntity
  8
0
  6
CONTINUOUS
 62
       3
100
AcDbLine
 10
-19.17172972
 20
-32.44310562
 30
0.0
 11
-1.67173035
 21
-32.44310562
 31
0.0
  0
ARC
  5
92
100
AcDbEntity
  8
0
  6
CONTINUOUS
 62
       3
100
AcDbCircle
 10
-0.17172974
 20
-32.44310631
 30
0.0
 40
1.5
100
AcDbArc
 50
0.0
 51
180.0
  0
LINE
  5
93
100
AcDbEntity
  8
0
  6
CONTINUOUS
 62
       3
100
AcDbLine
 10
1.32827015
 20
-32.44310562
 30
0.0
 11
18.82827208
 21
-32.44310562
 31
0.0
  0
ARC
  5
94
100
AcDbEntity
  8
0
  6
CONTINUOUS
 62
       3
100
AcDbCircle
 10
18.82827026
 20
-31.94310631
 30
0.0
 40
0.5
100
AcDbArc
 50
270.0
 51
360.0
  0
LINE
  5
95
100
AcDbEntity
  8
0
  6
CONTINUOUS
 62
       3
100
AcDbLine
 10
19.32826937
 20
-31.94310461
 30
0.0
 11
19.32826937
 21
32.55689199
 31
0.0
  0
ARC
  5
96
100
AcDbEntity
  8
0
  6
CONTINUOUS
 62
       3
100
AcDbCircle
 10
18.82827026
 20
32.55689369
 30
0.0
 40
0.5
100
AcDbArc
 50
0.0
 51
90.0
  0
LINE
  5
97
100
AcDbEntity
  8
0
  6
CONTINUOUS
 62
       3
100
AcDbLine
 10
18.82827208
 20
33.05689301
 30
0.0
 11
-19.17172972
 21
33.05689301
 31
0.0
  0
ARC
  5
98
100
AcDbEntity
  8
0
  6
CONTINUOUS
 62
       3
100
AcDbCircle
 10
-19.17172974
 20
32.55689369
 30
0.0
 40
0.5
100
AcDbArc
 50
90.0
 51
180.0
  0
LINE
  5
99
100
AcDbEntity
  8
0
  6
CONTINUOUS
 62
       3
100
AcDbLine
 10
-19.67172969
 20
32.55689199
 30
0.0
 11
-19.67172969
 21
-31.94310461
 31
0.0
  0
ARC
  5
9A
100
AcDbEntity
  8
0
  6
CONTINUOUS
 62
       3
100
AcDbCircle
 10
-19.17172974
 20
-31.94310631
 30
0.0
 40
0.5
100
AcDbArc
 50
180.0
 51
270.0
  0
LINE
  5
9B
100
AcDbEntity
  8
0
  6
CONTINUOUS
 62
       3
100
AcDbLine
 10
21.3282697
 20
35.55689435
 30
0.0
 11
-62.67172917
 21
35.55689435
 31
0.0
  0
LINE
  5
9C
100
AcDbEntity
  8
0
  6
CONTINUOUS
 62
       3
100
AcDbLine
 10
51.22827077
 20
-35.69310255
 30
0.0
 11
51.22827077
 21
-37.69310288
 31
0.0
  0
LINE
  5
9D
100
AcDbEntity
  8
0
  6
CONTINUOUS
 62
       3
100
AcDbLine
 10
47.92827079
 20
-37.69310288
 30
0.0
 11
51.22827077
 21
-37.69310288
 31
0.0
  0
LINE
  5
9E
100
AcDbEntity
  8
0
  6
CONTINUOUS
 62
       3
100
AcDbLine
 10
47.92827079
 20
-35.69310255
 30
0.0
 11
47.92827079
 21
-37.69310288
 31
0.0
  0
LINE
  5
9F
100
AcDbEntity
  8
0
  6
CONTINUOUS
 62
       3
100
AcDbLine
 10
47.92827079
 20
-16.89310469
 30
0.0
 11
48.92827083
 21
-16.89310469
 31
0.0
  0
LINE
  5
A0
100
AcDbEntity
  8
0
  6
CONTINUOUS
 62
       3
100
AcDbLine
 10
48.92827083
 20
-16.89310469
 30
0.0
 11
48.92827083
 21
-17.44310468
 31
0.0
  0
LINE
  5
A1
100
AcDbEntity
  8
0
  6
CONTINUOUS
 62
       3
100
AcDbLine
 10
47.92827079
 20
-39.69310321
 30
0.0
 11
51.22827077
 21
-39.69310321
 31
0.0
  0
LINE
  5
A2
100
AcDbEntity
  8
0
  6
CONTINUOUS
 62
       3
100
AcDbLine
 10
47.92827079
 20
-37.69310288
 30
0.0
 11
47.92827079
 21
-39.69310321
 31
0.0
  0
LINE
  5
A3
100
AcDbEntity
  8
0
  6
CONTINUOUS
 62
       3
100
AcDbLine
 10
51.22827077
 20
-37.69310288
 30
0.0
 11
51.22827077
 21
-39.69310321
 31
0.0
  0
LINE
  5
A4
100
AcDbEntity
  8
0
  6
CONTINUOUS
 62
       3
100
AcDbLine
 10
49.4282708
 20
-16.89310469
 30
0.0
 11
49.4282708
 21
-15.69310486
 31
0.0
  0
LINE
  5
A5
100
AcDbEntity
  8
0
  6
CONTINUOUS
 62
       3
100
AcDbLine
 10
49.4282708
 20
-15.69310486
 30
0.0
 11
49.72827075
 21
-15.69310486
 31
0.0
  0
LINE
  5
A6
100
AcDbEntity
  8
0
  6
CONTINUOUS
 62
       3
100
AcDbLine
 10
49.72827075
 20
-15.69310486
 30
0.0
 11
51.04077085
 21
-17.44310468
 31
0.0
  0
LINE
  5
A7
100
AcDbEntity
  8
0
  6
CONTINUOUS
 62
       3
100
AcDbLine
 10
48.92827083
 20
-16.89310469
 30
0.0
 11
49.4282708
 21
-16.89310469
 31
0.0
  0
LINE
  5
A8
100
AcDbEntity
  8
0
  6
CONTINUOUS
 62
       3
100
AcDbLine
 10
23.3282716
 20
25.80689542
 30
0.0
 11
23.3282716
 21
-24.69310447
 31
0.0
  0
LINE
  5
A9
100
AcDbEntity
  8
0
  6
CONTINUOUS
 62
       3
100
AcDbLine
 10
24.82827091
 20
27.3068966
 30
0.0
 11
23.3282716
 21
25.80689542
 31
0.0
  0
LINE
  5
AA
100
AcDbEntity
  8
0
  6
CONTINUOUS
 62
       3
100
AcDbLine
 10
34.82827069
 20
27.3068966
 30
0.0
 11
24.82827091
 21
27.3068966
 31
0.0
  0
LINE
  5
AB
100
AcDbEntity
  8
0
  6
CONTINUOUS
 62
       3
100
AcDbLine
 10
34.82827069
 20
34.80689503
 30
0.0
 11
34.82827069
 21
27.3068966
 31
0.0
  0
LINE
  5
AC
100
AcDbEntity
  8
0
  6
CONTINUOUS
 62
       3
100
AcDbLine
 10
36.32827093
 20
36.30689435
 30
0.0
 11
34.82827069
 21
34.80689503
 31
0.0
  0
LINE
  5
AD
100
AcDbEntity
  8
0
  6
CONTINUOUS
 62
       3
100
AcDbLine
 10
51.32827083
 20
36.30689435
 30
0.0
 11
36.32827093
 21
36.30689435
 31
0.0
  0
LINE
  5
AE
100
AcDbEntity
  8
0
  6
CONTINUOUS
 62
       3
100
AcDbLine
 10
51.32827083
 20
18.05689648
 30
0.0
 11
51.32827083
 21
36.30689435
 31
0.0
  0
LINE
  5
AF
100
AcDbEntity
  8
0
  6
CONTINUOUS
 62
       3
100
AcDbLine
 10
47.92827079
 20
18.05689648
 30
0.0
 11
51.32827083
 21
18.05689648
 31
0.0
  0
LINE
  5
B0
100
AcDbEntity
  8
0
  6
CONTINUOUS
 62
       3
100
AcDbLine
 10
47.92827079
 20
-17.44310468
 30
0.0
 11
47.92827079
 21
18.05689648
 31
0.0
  0
LINE
  5
B1
100
AcDbEntity
  8
0
  6
CONTINUOUS
 62
       3
100
AcDbLine
 10
51.32827083
 20
-17.44310468
 30
0.0
 11
47.92827079
 21
-17.44310468
 31
0.0
  0
LINE
  5
B2
100
AcDbEntity
  8
0
  6
CONTINUOUS
 62
       3
100
AcDbLine
 10
45.32827078
 20
-24.69310447
 30
0.0
 11
45.32827078
 21
-35.69310255
 31
0.0
  0
LINE
  5
B3
100
AcDbEntity
  8
0
  6
CONTINUOUS
 62
       3
100
AcDbLine
 10
45.32827078
 20
-24.69310447
 30
0.0
 11
23.3282716
 21
-24.69310447
 31
0.0
  0
LINE
  5
B4
100
AcDbEntity
  8
0
  6
CONTINUOUS
 62
       3
100
AcDbLine
 10
51.32827083
 20
-35.69310255
 30
0.0
 11
51.32827083
 21
-17.44310468
 31
0.0
  0
LINE
  5
B5
100
AcDbEntity
  8
0
  6
CONTINUOUS
 62
       3
100
AcDbLine
 10
45.32827078
 20
-35.69310255
 30
0.0
 11
51.32827083
 21
-35.69310255
 31
0.0
  0
LINE
  5
B6
100
AcDbEntity
  8
0
  6
CONTINUOUS
 62
       3
100
AcDbLine
 10
21.32827127
 20
-13.69310453
 30
0.0
 11
21.32827127
 21
14.30689633
 31
0.0
  0
LINE
  5
B7
100
AcDbEntity
  8
0
  6
CONTINUOUS
 62
       3
100
AcDbLine
 10
23.3282716
 20
14.30689633
 30
0.0
 11
21.32827127
 21
14.30689633
 31
0.0
  0
LINE
  5
B8
100
AcDbEntity
  8
0
  6
CONTINUOUS
 62
       3
100
AcDbLine
 10
23.3282716
 20
-13.69310453
 30
0.0
 11
21.32827127
 21
-13.69310453
 31
0.0
  0
LINE
  5
B9
100
AcDbEntity
  8
0
  6
CONTINUOUS
 62
       3
100
AcDbLine
 10
48.92827083
 20
16.05689615
 30
0.0
 11
50.3282709
 21
16.05689615
 31
0.0
  0
LINE
  5
BA
100
AcDbEntity
  8
0
  6
CONTINUOUS
 62
       3
100
AcDbLine
 10
48.92827083
 20
18.05689648
 30
0.0
 11
48.92827083
 21
16.05689615
 31
0.0
  0
LINE
  5
BB
100
AcDbEntity
  8
0
  6
CONTINUOUS
 62
       3
100
AcDbLine
 10
50.3282709
 20
16.05689615
 30
0.0
 11
51.32827083
 21
18.05689648
 31
0.0
  0
LINE
  5
BC
100
AcDbEntity
  8
0
  6
CONTINUOUS
 62
       3
100
AcDbLine
 10
23.3282716
 20
17.30689682
 30
0.0
 11
21.32827127
 21
17.30689682
 31
0.0
  0
LINE
  5
BD
100
AcDbEntity
  8
0
  6
CONTINUOUS
 62
       3
100
AcDbLine
 10
21.32827127
 20
14.30689633
 30
0.0
 11
21.32827127
 21
17.30689682
 31
0.0
  0
LINE
  5
BE
100
AcDbEntity
  8
0
  6
CONTINUOUS
 62
       3
100
AcDbLine
 10
36.32827093
 20
-35.69310255
 30
0.0
 11
34.82827069
 21
-34.19310324
 31
0.0
  0
LINE
  5
BF
100
AcDbEntity
  8
0
  6
CONTINUOUS
 62
       3
100
AcDbLine
 10
34.82827069
 20
-34.19310324
 30
0.0
 11
34.82827069
 21
-26.6931048
 31
0.0
  0
LINE
  5
C0
100
AcDbEntity
  8
0
  6
CONTINUOUS
 62
       3
100
AcDbLine
 10
34.82827069
 20
-26.6931048
 30
0.0
 11
24.82827091
 21
-26.6931048
 31
0.0
  0
LINE
  5
C1
100
AcDbEntity
  8
0
  6
CONTINUOUS
 62
       3
100
AcDbLine
 10
23.3282716
 20
-25.19310362
 30
0.0
 11
24.82827091
 21
-26.6931048
 31
0.0
  0
LINE
  5
C2
100
AcDbEntity
  8
0
  6
CONTINUOUS
 62
       3
100
AcDbLine
 10
23.3282716
 20
-25.19310362
 30
0.0
 11
23.3282716
 21
-24.69310447
 31
0.0
  0
LINE
  5
C3
100
AcDbEntity
  8
0
  6
CONTINUOUS
 62
       3
100
AcDbLine
 10
23.3282716
 20
-16.69310503
 30
0.0
 11
21.32827127
 21
-16.69310503
 31
0.0
  0
LINE
  5
C4
100
AcDbEntity
  8
0
  6
CONTINUOUS
 62
       3
100
AcDbLine
 10
21.32827127
 20
-16.69310503
 30
0.0
 11
21.32827127
 21
-13.69310453
 31
0.0
  0
LINE
  5
C5
100
AcDbEntity
  8
0
  6
CONTINUOUS
 62
       3
100
AcDbLine
 10
45.32827078
 20
-35.69310255
 30
0.0
 11
36.32827093
 21
-35.69310255
 31
0.0
  0
LINE
  5
C6
100
AcDbEntity
  8
0
  6
CONTINUOUS
 62
       3
100
AcDbLine
 10
112.68213308
 20
-35.69310255
 30
0.0
 11
111.52743255
 21
-37.69310288
 31
0.0
  0
LINE
  5
C7
100
AcDbEntity
  8
0
  6
CONTINUOUS
 62
       3
100
AcDbLine
 10
111.52743255
 20
-37.69310288
 30
0.0
 11
109.16033225
 21
-37.69310288
 31
0.0
  0
LINE
  5
C8
100
AcDbEntity
  8
0
  6
CONTINUOUS
 62
       3
100
AcDbLine
 10
109.16033225
 20
-37.69310288
 30
0.0
 11
107.48213295
 21
-39.69310321
 31
0.0
  0
LINE
  5
C9
100
AcDbEntity
  8
0
  6
CONTINUOUS
 62
       3
100
AcDbLine
 10
107.48213295
 20
-39.69310321
 30
0.0
 11
103.48213311
 21
-39.69310321
 31
0.0
  0
LINE
  5
CA
100
AcDbEntity
  8
0
  6
CONTINUOUS
 62
       3
100
AcDbLine
 10
103.48213311
 20
-39.69310321
 30
0.0
 11
101.8039336
 21
-37.69310288
 31
0.0
  0
LINE
  5
CB
100
AcDbEntity
  8
0
  6
CONTINUOUS
 62
       3
100
AcDbLine
 10
101.8039336
 20
-37.69310288
 30
0.0
 11
99.43683385
 21
-37.69310288
 31
0.0
  0
LINE
  5
CC
100
AcDbEntity
  8
0
  6
CONTINUOUS
 62
       3
100
AcDbLine
 10
99.43683385
 20
-37.69310288
 30
0.0
 11
98.28213263
 21
-35.69310255
 31
0.0
  0
LINE
  5
CD
100
AcDbEntity
  8
0
  6
CONTINUOUS
 62
       3
100
AcDbLine
 10
119.78213336
 20
-12.38810368
 30
0.0
 11
123.78213308
 21
-12.38810368
 31
0.0
  0
LINE
  5
CE
100
AcDbEntity
  8
0
  6
CONTINUOUS
 62
       3
100
AcDbLine
 10
119.78213336
 20
-17.3881045
 30
0.0
 11
119.78213336
 21
-12.38810368
 31
0.0
  0
LINE
  5
CF
100
AcDbEntity
  8
0
  6
CONTINUOUS
 62
       3
100
AcDbLine
 10
119.78213336
 20
-17.3881045
 30
0.0
 11
98.28213263
 21
-17.3881045
 31
0.0
  0
LINE
  5
D0
100
AcDbEntity
  8
0
  6
CONTINUOUS
 62
       3
100
AcDbLine
 10
98.28213263
 20
7.00189589
 30
0.0
 11
98.28213263
 21
-17.3881045
 31
0.0
  0
LINE
  5
D1
100
AcDbEntity
  8
0
  6
CONTINUOUS
 62
       3
100
AcDbLine
 10
94.2821329
 20
7.00189589
 30
0.0
 11
98.28213263
 21
7.00189589
 31
0.0
  0
LINE
  5
D2
100
AcDbEntity
  8
0
  6
CONTINUOUS
 62
       3
100
AcDbLine
 10
94.2821329
 20
7.75189601
 30
0.0
 11
95.28213307
 21
7.75189601
 31
0.0
  0
LINE
  5
D3
100
AcDbEntity
  8
0
  6
CONTINUOUS
 62
       3
100
AcDbLine
 10
95.28213307
 20
7.75189601
 30
0.0
 11
95.28213307
 21
12.25189582
 31
0.0
  0
LINE
  5
D4
100
AcDbEntity
  8
0
  6
CONTINUOUS
 62
       3
100
AcDbLine
 10
95.28213307
 20
12.25189582
 30
0.0
 11
94.2821329
 21
12.25189582
 31
0.0
  0
LINE
  5
D5
100
AcDbEntity
  8
0
  6
CONTINUOUS
 62
       3
100
AcDbLine
 10
98.28213263
 20
13.00189547
 30
0.0
 11
94.2821329
 21
13.00189547
 31
0.0
  0
LINE
  5
D6
100
AcDbEntity
  8
0
  6
CONTINUOUS
 62
       3
100
AcDbLine
 10
98.28213263
 20
18.00189629
 30
0.0
 11
98.28213263
 21
13.00189547
 31
0.0
  0
LINE
  5
D7
100
AcDbEntity
  8
0
  6
CONTINUOUS
 62
       3
100
AcDbLine
 10
119.78213336
 20
18.00189629
 30
0.0
 11
98.28213263
 21
18.00189629
 31
0.0
  0
LINE
  5
D8
100
AcDbEntity
  8
0
  6
CONTINUOUS
 62
       3
100
AcDbLine
 10
119.78213336
 20
-6.38810409
 30
0.0
 11
119.78213336
 21
18.00189629
 31
0.0
  0
LINE
  5
D9
100
AcDbEntity
  8
0
  6
CONTINUOUS
 62
       3
100
AcDbLine
 10
123.78213308
 20
-6.38810409
 30
0.0
 11
119.78213336
 21
-6.38810409
 31
0.0
  0
LINE
  5
DA
100
AcDbEntity
  8
0
  6
CONTINUOUS
 62
       3
100
AcDbLine
 10
123.78213308
 20
-6.38810409
 30
0.0
 11
123.78213308
 21
-7.13810421
 31
0.0
  0
LINE
  5
DB
100
AcDbEntity
  8
0
  6
CONTINUOUS
 62
       3
100
AcDbLine
 10
123.78213308
 20
-7.13810421
 30
0.0
 11
122.78213292
 21
-7.13810421
 31
0.0
  0
LINE
  5
DC
100
AcDbEntity
  8
0
  6
CONTINUOUS
 62
       3
100
AcDbLine
 10
122.78213292
 20
-7.13810421
 30
0.0
 11
122.78213292
 21
-11.63810402
 31
0.0
  0
LINE
  5
DD
100
AcDbEntity
  8
0
  6
CONTINUOUS
 62
       3
100
AcDbLine
 10
122.78213292
 20
-11.63810402
 30
0.0
 11
123.78213308
 21
-11.63810402
 31
0.0
  0
LINE
  5
DE
100
AcDbEntity
  8
0
  6
CONTINUOUS
 62
       3
100
AcDbLine
 10
123.78213308
 20
-11.63810402
 30
0.0
 11
123.78213308
 21
-12.38810368
 31
0.0
  0
LINE
  5
DF
100
AcDbEntity
  8
0
  6
CONTINUOUS
 62
       3
100
AcDbLine
 10
103.73213315
 20
-1.66810401
 30
0.0
 11
103.73213315
 21
-1.16810416
 31
0.0
  0
LINE
  5
E0
100
AcDbEntity
  8
0
  6
CONTINUOUS
 62
       3
100
AcDbLine
 10
103.73213315
 20
-1.16810416
 30
0.0
 11
101.13213337
 21
-1.16810416
 31
0.0
  0
LINE
  5
E1
100
AcDbEntity
  8
0
  6
CONTINUOUS
 62
       3
100
AcDbLine
 10
101.13213337
 20
-1.16810416
 30
0.0
 11
101.13213337
 21
-1.66810401
 31
0.0
  0
LINE
  5
E2
100
AcDbEntity
  8
0
  6
CONTINUOUS
 62
       3
100
AcDbLine
 10
101.13213337
 20
-1.66810401
 30
0.0
 11
103.73213315
 21
-1.66810401
 31
0.0
  0
LINE
  5
E3
100
AcDbEntity
  8
0
  6
CONTINUOUS
 62
       3
100
AcDbLine
 10
103.73213315
 20
4.631896
 30
0.0
 11
103.73213315
 21
5.13189608
 31
0.0
  0
LINE
  5
E4
100
AcDbEntity
  8
0
  6
CONTINUOUS
 62
       3
100
AcDbLine
 10
103.73213315
 20
5.13189608
 30
0.0
 11
101.13213337
 21
5.13189608
 31
0.0
  0
LINE
  5
E5
100
AcDbEntity
  8
0
  6
CONTINUOUS
 62
       3
100
AcDbLine
 10
101.13213337
 20
5.13189608
 30
0.0
 11
101.13213337
 21
4.631896
 31
0.0
  0
LINE
  5
E6
100
AcDbEntity
  8
0
  6
CONTINUOUS
 62
       3
100
AcDbLine
 10
101.13213337
 20
4.631896
 30
0.0
 11
103.73213315
 21
4.631896
 31
0.0
  0
LINE
  5
E7
100
AcDbEntity
  8
0
  6
CONTINUOUS
 62
       3
100
AcDbLine
 10
103.73213315
 20
8.73189602
 30
0.0
 11
103.73213315
 21
9.2318961
 31
0.0
  0
LINE
  5
E8
100
AcDbEntity
  8
0
  6
CONTINUOUS
 62
       3
100
AcDbLine
 10
103.73213315
 20
9.2318961
 30
0.0
 11
101.13213337
 21
9.2318961
 31
0.0
  0
LINE
  5
E9
100
AcDbEntity
  8
0
  6
CONTINUOUS
 62
       3
100
AcDbLine
 10
101.13213337
 20
9.2318961
 30
0.0
 11
101.13213337
 21
8.73189602
 31
0.0
  0
LINE
  5
EA
100
AcDbEntity
  8
0
  6
CONTINUOUS
 62
       3
100
AcDbLine
 10
101.13213337
 20
8.73189602
 30
0.0
 11
103.73213315
 21
8.73189602
 31
0.0
  0
LINE
  5
EB
100
AcDbEntity
  8
0
  6
CONTINUOUS
 62
       3
100
AcDbLine
 10
110.332133
 20
8.73189602
 30
0.0
 11
110.332133
 21
9.2318961
 31
0.0
  0
LINE
  5
EC
100
AcDbEntity
  8
0
  6
CONTINUOUS
 62
       3
100
AcDbLine
 10
110.332133
 20
9.2318961
 30
0.0
 11
107.73213299
 21
9.2318961
 31
0.0
  0
LINE
  5
ED
100
AcDbEntity
  8
0
  6
CONTINUOUS
 62
       3
100
AcDbLine
 10
107.73213299
 20
9.2318961
 30
0.0
 11
107.73213299
 21
8.73189602
 31
0.0
  0
LINE
  5
EE
100
AcDbEntity
  8
0
  6
CONTINUOUS
 62
       3
100
AcDbLine
 10
107.73213299
 20
8.73189602
 30
0.0
 11
110.332133
 21
8.73189602
 31
0.0
  0
LINE
  5
EF
100
AcDbEntity
  8
0
  6
CONTINUOUS
 62
       3
100
AcDbLine
 10
103.73213315
 20
-8.0181044
 30
0.0
 11
103.73213315
 21
-7.51810431
 31
0.0
  0
LINE
  5
F0
100
AcDbEntity
  8
0
  6
CONTINUOUS
 62
       3
100
AcDbLine
 10
103.73213315
 20
-7.51810431
 30
0.0
 11
101.13213337
 21
-7.51810431
 31
0.0
  0
LINE
  5
F1
100
AcDbEntity
  8
0
  6
CONTINUOUS
 62
       3
100
AcDbLine
 10
101.13213337
 20
-7.51810431
 30
0.0
 11
101.13213337
 21
-8.0181044
 31
0.0
  0
LINE
  5
F2
100
AcDbEntity
  8
0
  6
CONTINUOUS
 62
       3
100
AcDbLine
 10
101.13213337
 20
-8.0181044
 30
0.0
 11
103.73213315
 21
-8.0181044
 31
0.0
  0
LINE
  5
F3
100
AcDbEntity
  8
0
  6
CONTINUOUS
 62
       3
100
AcDbLine
 10
114.33213284
 20
-8.0181044
 30
0.0
 11
116.93213261
 21
-8.0181044
 31
0.0
  0
LINE
  5
F4
100
AcDbEntity
  8
0
  6
CONTINUOUS
 62
       3
100
AcDbLine
 10
116.93213261
 20
-8.0181044
 30
0.0
 11
116.93213261
 21
-7.51810431
 31
0.0
  0
LINE
  5
F5
100
AcDbEntity
  8
0
  6
CONTINUOUS
 62
       3
100
AcDbLine
 10
116.93213261
 20
-7.51810431
 30
0.0
 11
114.33213284
 21
-7.51810431
 31
0.0
  0
LINE
  5
F6
100
AcDbEntity
  8
0
  6
CONTINUOUS
 62
       3
100
AcDbLine
 10
114.33213284
 20
-7.51810431
 30
0.0
 11
114.33213284
 21
-8.0181044
 31
0.0
  0
LINE
  5
F7
100
AcDbEntity
  8
0
  6
CONTINUOUS
 62
       3
100
AcDbLine
 10
110.332133
 20
4.631896
 30
0.0
 11
110.332133
 21
5.13189608
 31
0.0
  0
LINE
  5
F8
100
AcDbEntity
  8
0
  6
CONTINUOUS
 62
       3
100
AcDbLine
 10
110.332133
 20
5.13189608
 30
0.0
 11
107.73213299
 21
5.13189608
 31
0.0
  0
LINE
  5
F9
100
AcDbEntity
  8
0
  6
CONTINUOUS
 62
       3
100
AcDbLine
 10
107.73213299
 20
5.13189608
 30
0.0
 11
107.73213299
 21
4.631896
 31
0.0
  0
LINE
  5
FA
100
AcDbEntity
  8
0
  6
CONTINUOUS
 62
       3
100
AcDbLine
 10
107.73213299
 20
4.631896
 30
0.0
 11
110.332133
 21
4.631896
 31
0.0
  0
LINE
  5
FB
100
AcDbEntity
  8
0
  6
CONTINUOUS
 62
       3
100
AcDbLine
 10
110.332133
 20
-1.66810401
 30
0.0
 11
110.332133
 21
-1.16810416
 31
0.0
  0
LINE
  5
FC
100
AcDbEntity
  8
0
  6
CONTINUOUS
 62
       3
100
AcDbLine
 10
110.332133
 20
-1.16810416
 30
0.0
 11
107.73213299
 21
-1.16810416
 31
0.0
  0
LINE
  5
FD
100
AcDbEntity
  8
0
  6
CONTINUOUS
 62
       3
100
AcDbLine
 10
107.73213299
 20
-1.16810416
 30
0.0
 11
107.73213299
 21
-1.66810401
 31
0.0
  0
LINE
  5
FE
100
AcDbEntity
  8
0
  6
CONTINUOUS
 62
       3
100
AcDbLine
 10
107.73213299
 20
-1.66810401
 30
0.0
 11
110.332133
 21
-1.66810401
 31
0.0
  0
LINE
  5
FF
100
AcDbEntity
  8
0
  6
CONTINUOUS
 62
       3
100
AcDbLine
 10
116.93213261
 20
-1.16810416
 30
0.0
 11
114.33213284
 21
-1.16810416
 31
0.0
  0
LINE
  5
100
100
AcDbEntity
  8
0
  6
CONTINUOUS
 62
       3
100
AcDbLine
 10
114.33213284
 20
-1.16810416
 30
0.0
 11
114.33213284
 21
-1.66810401
 31
0.0
  0
LINE
  5
101
100
AcDbEntity
  8
0
  6
CONTINUOUS
 62
       3
100
AcDbLine
 10
114.33213284
 20
-1.66810401
 30
0.0
 11
116.93213261
 21
-1.66810401
 31
0.0
  0
LINE
  5
102
100
AcDbEntity
  8
0
  6
CONTINUOUS
 62
       3
100
AcDbLine
 10
116.93213261
 20
-1.66810401
 30
0.0
 11
116.93213261
 21
-1.16810416
 31
0.0
  0
LINE
  5
103
100
AcDbEntity
  8
0
  6
CONTINUOUS
 62
       3
100
AcDbLine
 10
116.93213261
 20
5.13189608
 30
0.0
 11
114.33213284
 21
5.13189608
 31
0.0
  0
LINE
  5
104
100
AcDbEntity
  8
0
  6
CONTINUOUS
 62
       3
100
AcDbLine
 10
114.33213284
 20
5.13189608
 30
0.0
 11
114.33213284
 21
4.631896
 31
0.0
  0
LINE
  5
105
100
AcDbEntity
  8
0
  6
CONTINUOUS
 62
       3
100
AcDbLine
 10
114.33213284
 20
4.631896
 30
0.0
 11
116.93213261
 21
4.631896
 31
0.0
  0
LINE
  5
106
100
AcDbEntity
  8
0
  6
CONTINUOUS
 62
       3
100
AcDbLine
 10
116.93213261
 20
4.631896
 30
0.0
 11
116.93213261
 21
5.13189608
 31
0.0
  0
LINE
  5
107
100
AcDbEntity
  8
0
  6
CONTINUOUS
 62
       3
100
AcDbLine
 10
116.93213261
 20
9.2318961
 30
0.0
 11
114.33213284
 21
9.2318961
 31
0.0
  0
LINE
  5
108
100
AcDbEntity
  8
0
  6
CONTINUOUS
 62
       3
100
AcDbLine
 10
114.33213284
 20
9.2318961
 30
0.0
 11
114.33213284
 21
8.73189602
 31
0.0
  0
LINE
  5
109
100
AcDbEntity
  8
0
  6
CONTINUOUS
 62
       3
100
AcDbLine
 10
114.33213284
 20
8.73189602
 30
0.0
 11
116.93213261
 21
8.73189602
 31
0.0
  0
LINE
  5
10A
100
AcDbEntity
  8
0
  6
CONTINUOUS
 62
       3
100
AcDbLine
 10
116.93213261
 20
8.73189602
 30
0.0
 11
116.93213261
 21
9.2318961
 31
0.0
  0
LINE
  5
10B
100
AcDbEntity
  8
0
  6
CONTINUOUS
 62
       3
100
AcDbLine
 10
97.28213339
 20
7.75189601
 30
0.0
 11
97.28213339
 21
12.25189582
 31
0.0
  0
LINE
  5
10C
100
AcDbEntity
  8
0
  6
CONTINUOUS
 62
       3
100
AcDbLine
 10
97.28213339
 20
12.25189582
 30
0.0
 11
96.58213272
 21
12.25189582
 31
0.0
  0
LINE
  5
10D
100
AcDbEntity
  8
0
  6
CONTINUOUS
 62
       3
100
AcDbLine
 10
96.58213272
 20
12.25189582
 30
0.0
 11
96.58213272
 21
7.75189601
 31
0.0
  0
LINE
  5
10E
100
AcDbEntity
  8
0
  6
CONTINUOUS
 62
       3
100
AcDbLine
 10
96.58213272
 20
7.75189601
 30
0.0
 11
97.28213339
 21
7.75189601
 31
0.0
  0
LINE
  5
10F
100
AcDbEntity
  8
0
  6
CONTINUOUS
 62
       3
100
AcDbLine
 10
121.48213326
 20
-11.63810402
 30
0.0
 11
121.48213326
 21
-7.13810421
 31
0.0
  0
LINE
  5
110
100
AcDbEntity
  8
0
  6
CONTINUOUS
 62
       3
100
AcDbLine
 10
121.48213326
 20
-7.13810421
 30
0.0
 11
120.78213259
 21
-7.13810421
 31
0.0
  0
LINE
  5
111
100
AcDbEntity
  8
0
  6
CONTINUOUS
 62
       3
100
AcDbLine
 10
120.78213259
 20
-7.13810421
 30
0.0
 11
120.78213259
 21
-11.63810402
 31
0.0
  0
LINE
  5
112
100
AcDbEntity
  8
0
  6
CONTINUOUS
 62
       3
100
AcDbLine
 10
120.78213259
 20
-11.63810402
 30
0.0
 11
121.48213326
 21
-11.63810402
 31
0.0
  0
LINE
  5
113
100
AcDbEntity
  8
0
  6
CONTINUOUS
 62
       3
100
AcDbLine
 10
94.2821329
 20
7.75189601
 30
0.0
 11
94.2821329
 21
7.00189589
 31
0.0
  0
LINE
  5
114
100
AcDbEntity
  8
0
  6
CONTINUOUS
 62
       3
100
AcDbLine
 10
94.2821329
 20
13.00189547
 30
0.0
 11
94.2821329
 21
12.25189582
 31
0.0
  0
LINE
  5
115
100
AcDbEntity
  8
0
  6
CONTINUOUS
 62
       3
100
AcDbLine
 10
95.3821329
 20
-29.69310343
 30
0.0
 11
94.2821329
 21
-29.69310343
 31
0.0
  0
LINE
  5
116
100
AcDbEntity
  8
0
  6
CONTINUOUS
 62
       3
100
AcDbLine
 10
95.3821329
 20
-27.19310395
 30
0.0
 11
95.3821329
 21
-29.69310343
 31
0.0
  0
LINE
  5
117
100
AcDbEntity
  8
0
  6
CONTINUOUS
 62
       3
100
AcDbLine
 10
94.2821329
 20
-27.19310395
 30
0.0
 11
94.2821329
 21
-29.69310343
 31
0.0
  0
LINE
  5
118
100
AcDbEntity
  8
0
  6
CONTINUOUS
 62
       3
100
AcDbLine
 10
102.48213294
 20
-29.69310343
 30
0.0
 11
101.38213295
 21
-29.69310343
 31
0.0
  0
LINE
  5
119
100
AcDbEntity
  8
0
  6
CONTINUOUS
 62
       3
100
AcDbLine
 10
101.38213295
 20
-29.69310343
 30
0.0
 11
101.38213295
 21
-27.19310395
 31
0.0
  0
LINE
  5
11A
100
AcDbEntity
  8
0
  6
CONTINUOUS
 62
       3
100
AcDbLine
 10
102.48213294
 20
-27.19310395
 30
0.0
 11
102.48213294
 21
-29.69310343
 31
0.0
  0
LINE
  5
11B
100
AcDbEntity
  8
0
  6
CONTINUOUS
 62
       3
100
AcDbLine
 10
116.68213304
 20
-18.38810466
 30
0.0
 11
122.68213309
 21
-18.38810466
 31
0.0
  0
LINE
  5
11C
100
AcDbEntity
  8
0
  6
CONTINUOUS
 62
       3
100
AcDbLine
 10
116.68213304
 20
-27.19310395
 30
0.0
 11
116.68213304
 21
-18.38810466
 31
0.0
  0
LINE
  5
11D
100
AcDbEntity
  8
0
  6
CONTINUOUS
 62
       3
100
AcDbLine
 10
115.58213304
 20
-18.38810466
 30
0.0
 11
115.58213304
 21
-27.19310395
 31
0.0
  0
LINE
  5
11E
100
AcDbEntity
  8
0
  6
CONTINUOUS
 62
       3
100
AcDbLine
 10
109.58213299
 20
-18.38810466
 30
0.0
 11
115.58213304
 21
-18.38810466
 31
0.0
  0
LINE
  5
11F
100
AcDbEntity
  8
0
  6
CONTINUOUS
 62
       3
100
AcDbLine
 10
109.58213299
 20
-27.19310395
 30
0.0
 11
109.58213299
 21
-18.38810466
 31
0.0
  0
LINE
  5
120
100
AcDbEntity
  8
0
  6
CONTINUOUS
 62
       3
100
AcDbLine
 10
108.482133
 20
-18.38810466
 30
0.0
 11
108.482133
 21
-27.19310395
 31
0.0
  0
LINE
  5
121
100
AcDbEntity
  8
0
  6
CONTINUOUS
 62
       3
100
AcDbLine
 10
102.48213294
 20
-18.38810466
 30
0.0
 11
108.482133
 21
-18.38810466
 31
0.0
  0
LINE
  5
122
100
AcDbEntity
  8
0
  6
CONTINUOUS
 62
       3
100
AcDbLine
 10
95.3821329
 20
-18.38810466
 30
0.0
 11
101.38213295
 21
-18.38810466
 31
0.0
  0
LINE
  5
123
100
AcDbEntity
  8
0
  6
CONTINUOUS
 62
       3
100
AcDbLine
 10
123.78213308
 20
-25.88810496
 30
0.0
 11
122.68213309
 21
-25.88810496
 31
0.0
  0
LINE
  5
124
100
AcDbEntity
  8
0
  6
CONTINUOUS
 62
       3
100
AcDbLine
 10
122.68213309
 20
-18.38810466
 30
0.0
 11
122.68213309
 21
-25.88810496
 31
0.0
  0
LINE
  5
125
100
AcDbEntity
  8
0
  6
CONTINUOUS
 62
       3
100
AcDbLine
 10
95.3821329
 20
-27.19310395
 30
0.0
 11
95.3821329
 21
-18.38810466
 31
0.0
  0
LINE
  5
126
100
AcDbEntity
  8
0
  6
CONTINUOUS
 62
       3
100
AcDbLine
 10
101.38213295
 20
-18.38810466
 30
0.0
 11
101.38213295
 21
-27.19310395
 31
0.0
  0
LINE
  5
127
100
AcDbEntity
  8
0
  6
CONTINUOUS
 62
       3
100
AcDbLine
 10
102.48213294
 20
-27.19310395
 30
0.0
 11
102.48213294
 21
-18.38810466
 31
0.0
  0
LINE
  5
128
100
AcDbEntity
  8
0
  6
CONTINUOUS
 62
       3
100
AcDbLine
 10
123.78213308
 20
-12.38810368
 30
0.0
 11
123.78213308
 21
-25.88810496
 31
0.0
  0
LINE
  5
129
100
AcDbEntity
  8
0
  6
CONTINUOUS
 62
       3
100
AcDbLine
 10
94.2821329
 20
7.00189589
 30
0.0
 11
94.2821329
 21
-27.19310395
 31
0.0
  0
LINE
  5
12A
100
AcDbEntity
  8
0
  6
CONTINUOUS
 62
       3
100
AcDbLine
 10
109.58213299
 20
-29.69310343
 30
0.0
 11
108.482133
 21
-29.69310343
 31
0.0
  0
LINE
  5
12B
100
AcDbEntity
  8
0
  6
CONTINUOUS
 62
       3
100
AcDbLine
 10
109.58213299
 20
-27.19310395
 30
0.0
 11
109.58213299
 21
-29.69310343
 31
0.0
  0
LINE
  5
12C
100
AcDbEntity
  8
0
  6
CONTINUOUS
 62
       3
100
AcDbLine
 10
108.482133
 20
-29.69310343
 30
0.0
 11
108.482133
 21
-27.19310395
 31
0.0
  0
LINE
  5
12D
100
AcDbEntity
  8
0
  6
CONTINUOUS
 62
       3
100
AcDbLine
 10
116.68213304
 20
-29.69310343
 30
0.0
 11
115.58213304
 21
-29.69310343
 31
0.0
  0
LINE
  5
12E
100
AcDbEntity
  8
0
  6
CONTINUOUS
 62
       3
100
AcDbLine
 10
115.58213304
 20
-29.69310343
 30
0.0
 11
115.58213304
 21
-27.19310395
 31
0.0
  0
LINE
  5
12F
100
AcDbEntity
  8
0
  6
CONTINUOUS
 62
       3
100
AcDbLine
 10
116.68213304
 20
-27.19310395
 30
0.0
 11
116.68213304
 21
-29.69310343
 31
0.0
  0
LINE
  5
130
100
AcDbEntity
  8
0
  6
CONTINUOUS
 62
       3
100
AcDbLine
 10
95.3821329
 20
19.00189646
 30
0.0
 11
101.38213295
 21
19.00189646
 31
0.0
  0
LINE
  5
131
100
AcDbEntity
  8
0
  6
CONTINUOUS
 62
       3
100
AcDbLine
 10
101.38213295
 20
19.00189646
 30
0.0
 11
101.38213295
 21
27.80689575
 31
0.0
  0
LINE
  5
132
100
AcDbEntity
  8
0
  6
CONTINUOUS
 62
       3
100
AcDbLine
 10
102.48213294
 20
19.00189646
 30
0.0
 11
102.48213294
 21
27.80689575
 31
0.0
  0
LINE
  5
133
100
AcDbEntity
  8
0
  6
CONTINUOUS
 62
       3
100
AcDbLine
 10
102.48213294
 20
19.00189646
 30
0.0
 11
108.482133
 21
19.00189646
 31
0.0
  0
LINE
  5
134
100
AcDbEntity
  8
0
  6
CONTINUOUS
 62
       3
100
AcDbLine
 10
108.482133
 20
19.00189646
 30
0.0
 11
108.482133
 21
27.80689575
 31
0.0
  0
LINE
  5
135
100
AcDbEntity
  8
0
  6
CONTINUOUS
 62
       3
100
AcDbLine
 10
109.58213299
 20
19.00189646
 30
0.0
 11
109.58213299
 21
27.80689575
 31
0.0
  0
LINE
  5
136
100
AcDbEntity
  8
0
  6
CONTINUOUS
 62
       3
100
AcDbLine
 10
109.58213299
 20
19.00189646
 30
0.0
 11
115.58213304
 21
19.00189646
 31
0.0
  0
LINE
  5
137
100
AcDbEntity
  8
0
  6
CONTINUOUS
 62
       3
100
AcDbLine
 10
115.58213304
 20
19.00189646
 30
0.0
 11
115.58213304
 21
27.80689575
 31
0.0
  0
LINE
  5
138
100
AcDbEntity
  8
0
  6
CONTINUOUS
 62
       3
100
AcDbLine
 10
116.68213304
 20
19.00189646
 30
0.0
 11
116.68213304
 21
27.80689575
 31
0.0
  0
LINE
  5
139
100
AcDbEntity
  8
0
  6
CONTINUOUS
 62
       3
100
AcDbLine
 10
116.68213304
 20
19.00189646
 30
0.0
 11
122.68213309
 21
19.00189646
 31
0.0
  0
LINE
  5
13A
100
AcDbEntity
  8
0
  6
CONTINUOUS
 62
       3
100
AcDbLine
 10
122.68213309
 20
19.00189646
 30
0.0
 11
122.68213309
 21
27.80689575
 31
0.0
  0
LINE
  5
13B
100
AcDbEntity
  8
0
  6
CONTINUOUS
 62
       3
100
AcDbLine
 10
95.3821329
 20
26.50189676
 30
0.0
 11
94.2821329
 21
26.50189676
 31
0.0
  0
LINE
  5
13C
100
AcDbEntity
  8
0
  6
CONTINUOUS
 62
       3
100
AcDbLine
 10
95.3821329
 20
19.00189646
 30
0.0
 11
95.3821329
 21
26.50189676
 31
0.0
  0
LINE
  5
13D
100
AcDbEntity
  8
0
  6
CONTINUOUS
 62
       3
100
AcDbLine
 10
123.78213308
 20
27.80689575
 30
0.0
 11
123.78213308
 21
-6.38810409
 31
0.0
  0
LINE
  5
13E
100
AcDbEntity
  8
0
  6
CONTINUOUS
 62
       3
100
AcDbLine
 10
94.2821329
 20
26.50189676
 30
0.0
 11
94.2821329
 21
13.00189547
 31
0.0
  0
LINE
  5
13F
100
AcDbEntity
  8
0
  6
CONTINUOUS
 62
       3
100
AcDbLine
 10
102.48213294
 20
30.30689523
 30
0.0
 11
101.38213295
 21
30.30689523
 31
0.0
  0
LINE
  5
140
100
AcDbEntity
  8
0
  6
CONTINUOUS
 62
       3
100
AcDbLine
 10
102.48213294
 20
27.80689575
 30
0.0
 11
102.48213294
 21
30.30689523
 31
0.0
  0
LINE
  5
141
100
AcDbEntity
  8
0
  6
CONTINUOUS
 62
       3
100
AcDbLine
 10
101.38213295
 20
30.30689523
 30
0.0
 11
101.38213295
 21
27.80689575
 31
0.0
  0
LINE
  5
142
100
AcDbEntity
  8
0
  6
CONTINUOUS
 62
       3
100
AcDbLine
 10
108.482133
 20
30.30689523
 30
0.0
 11
108.482133
 21
27.80689575
 31
0.0
  0
LINE
  5
143
100
AcDbEntity
  8
0
  6
CONTINUOUS
 62
       3
100
AcDbLine
 10
109.58213299
 20
30.30689523
 30
0.0
 11
108.482133
 21
30.30689523
 31
0.0
  0
LINE
  5
144
100
AcDbEntity
  8
0
  6
CONTINUOUS
 62
       3
100
AcDbLine
 10
109.58213299
 20
27.80689575
 30
0.0
 11
109.58213299
 21
30.30689523
 31
0.0
  0
LINE
  5
145
100
AcDbEntity
  8
0
  6
CONTINUOUS
 62
       3
100
AcDbLine
 10
115.58213304
 20
30.30689523
 30
0.0
 11
115.58213304
 21
27.80689575
 31
0.0
  0
LINE
  5
146
100
AcDbEntity
  8
0
  6
CONTINUOUS
 62
       3
100
AcDbLine
 10
116.68213304
 20
30.30689523
 30
0.0
 11
115.58213304
 21
30.30689523
 31
0.0
  0
LINE
  5
147
100
AcDbEntity
  8
0
  6
CONTINUOUS
 62
       3
100
AcDbLine
 10
116.68213304
 20
27.80689575
 30
0.0
 11
116.68213304
 21
30.30689523
 31
0.0
  0
LINE
  5
148
100
AcDbEntity
  8
0
  6
CONTINUOUS
 62
       3
100
AcDbLine
 10
123.78213308
 20
30.30689523
 30
0.0
 11
122.68213309
 21
30.30689523
 31
0.0
  0
LINE
  5
149
100
AcDbEntity
  8
0
  6
CONTINUOUS
 62
       3
100
AcDbLine
 10
122.68213309
 20
30.30689523
 30
0.0
 11
122.68213309
 21
27.80689575
 31
0.0
  0
LINE
  5
14A
100
AcDbEntity
  8
0
  6
CONTINUOUS
 62
       3
100
AcDbLine
 10
123.78213308
 20
30.30689523
 30
0.0
 11
123.78213308
 21
27.80689575
 31
0.0
  0
CIRCLE
  5
14B
100
AcDbEntity
  8
0
  6
CONTINUOUS
 62
       3
100
AcDbCircle
 10
98.38213299
 20
-21.6381041
 30
0.0
 40
2.8
  0
CIRCLE
  5
14C
100
AcDbEntity
  8
0
  6
CONTINUOUS
 62
       3
100
AcDbCircle
 10
112.58213299
 20
-21.6381041
 30
0.0
 40
2.8
  0
CIRCLE
  5
14D
100
AcDbEntity
  8
0
  6
CONTINUOUS
 62
       3
100
AcDbCircle
 10
119.68213299
 20
-21.6381041
 30
0.0
 40
2.8
  0
CIRCLE
  5
14E
100
AcDbEntity
  8
0
  6
CONTINUOUS
 62
       3
100
AcDbCircle
 10
98.38213299
 20
22.2518959
 30
0.0
 40
2.8
  0
CIRCLE
  5
14F
100
AcDbEntity
  8
0
  6
CONTINUOUS
 62
       3
100
AcDbCircle
 10
112.58213299
 20
22.2518959
 30
0.0
 40
2.8
  0
CIRCLE
  5
150
100
AcDbEntity
  8
0
  6
CONTINUOUS
 62
       3
100
AcDbCircle
 10
119.68213299
 20
22.2518959
 30
0.0
 40
2.8
  0
LINE
  5
151
100
AcDbEntity
  8
0
  6
CONTINUOUS
 62
       3
100
AcDbLine
 10
123.78213308
 20
-11.63810402
 30
0.0
 11
123.78213308
 21
-7.13810421
 31
0.0
  0
LINE
  5
152
100
AcDbEntity
  8
0
  6
CONTINUOUS
 62
       3
100
AcDbLine
 10
94.2821329
 20
12.25189582
 30
0.0
 11
94.2821329
 21
7.75189601
 31
0.0
  0
LINE
  5
153
100
AcDbEntity
  8
0
  6
CONTINUOUS
 62
       3
100
AcDbLine
 10
101.38213295
 20
-24.8881048
 30
0.0
 11
95.3821329
 21
-24.8881048
 31
0.0
  0
LINE
  5
154
100
AcDbEntity
  8
0
  6
CONTINUOUS
 62
       3
100
AcDbLine
 10
115.58213304
 20
-24.8881048
 30
0.0
 11
109.58213299
 21
-24.8881048
 31
0.0
  0
LINE
  5
155
100
AcDbEntity
  8
0
  6
CONTINUOUS
 62
       3
100
AcDbLine
 10
122.68213309
 20
-24.8881048
 30
0.0
 11
116.68213304
 21
-24.8881048
 31
0.0
  0
LINE
  5
156
100
AcDbEntity
  8
0
  6
CONTINUOUS
 62
       3
100
AcDbLine
 10
101.38213295
 20
25.50189659
 30
0.0
 11
95.3821329
 21
25.50189659
 31
0.0
  0
LINE
  5
157
100
AcDbEntity
  8
0
  6
CONTINUOUS
 62
       3
100
AcDbLine
 10
115.58213304
 20
25.50189659
 30
0.0
 11
109.58213299
 21
25.50189659
 31
0.0
  0
LINE
  5
158
100
AcDbEntity
  8
0
  6
CONTINUOUS
 62
       3
100
AcDbLine
 10
122.68213309
 20
25.50189659
 30
0.0
 11
116.68213304
 21
25.50189659
 31
0.0
  0
LINE
  5
159
100
AcDbEntity
  8
0
  6
CONTINUOUS
 62
       3
100
AcDbLine
 10
101.38213295
 20
-25.88810496
 30
0.0
 11
95.3821329
 21
-25.88810496
 31
0.0
  0
LINE
  5
15A
100
AcDbEntity
  8
0
  6
CONTINUOUS
 62
       3
100
AcDbLine
 10
108.482133
 20
-25.88810496
 30
0.0
 11
102.48213294
 21
-25.88810496
 31
0.0
  0
LINE
  5
15B
100
AcDbEntity
  8
0
  6
CONTINUOUS
 62
       3
100
AcDbLine
 10
115.58213304
 20
-25.88810496
 30
0.0
 11
109.58213299
 21
-25.88810496
 31
0.0
  0
LINE
  5
15C
100
AcDbEntity
  8
0
  6
CONTINUOUS
 62
       3
100
AcDbLine
 10
116.68213304
 20
-25.88810496
 30
0.0
 11
122.68213309
 21
-25.88810496
 31
0.0
  0
LINE
  5
15D
100
AcDbEntity
  8
0
  6
CONTINUOUS
 62
       3
100
AcDbLine
 10
101.38213295
 20
26.50189676
 30
0.0
 11
95.3821329
 21
26.50189676
 31
0.0
  0
LINE
  5
15E
100
AcDbEntity
  8
0
  6
CONTINUOUS
 62
       3
100
AcDbLine
 10
102.48213294
 20
26.50189676
 30
0.0
 11
108.482133
 21
26.50189676
 31
0.0
  0
LINE
  5
15F
100
AcDbEntity
  8
0
  6
CONTINUOUS
 62
       3
100
AcDbLine
 10
109.58213299
 20
26.50189676
 30
0.0
 11
115.58213304
 21
26.50189676
 31
0.0
  0
LINE
  5
160
100
AcDbEntity
  8
0
  6
CONTINUOUS
 62
       3
100
AcDbLine
 10
116.68213304
 20
26.50189676
 30
0.0
 11
122.68213309
 21
26.50189676
 31
0.0
  0
LINE
  5
161
100
AcDbEntity
  8
0
  6
CONTINUOUS
 62
       3
100
AcDbLine
 10
95.3821329
 20
-33.19310494
 30
0.0
 11
95.3821329
 21
-29.69310343
 31
0.0
  0
LINE
  5
162
100
AcDbEntity
  8
0
  6
CONTINUOUS
 62
       3
100
AcDbLine
 10
94.2821329
 20
-29.69310343
 30
0.0
 11
94.2821329
 21
-33.19310494
 31
0.0
  0
LINE
  5
163
100
AcDbEntity
  8
0
  6
CONTINUOUS
 62
       3
100
AcDbLine
 10
95.3821329
 20
-35.69310255
 30
0.0
 11
94.2821329
 21
-35.69310255
 31
0.0
  0
LINE
  5
164
100
AcDbEntity
  8
0
  6
CONTINUOUS
 62
       3
100
AcDbLine
 10
95.3821329
 20
-35.69310255
 30
0.0
 11
95.3821329
 21
-33.19310494
 31
0.0
  0
LINE
  5
165
100
AcDbEntity
  8
0
  6
CONTINUOUS
 62
       3
100
AcDbLine
 10
94.2821329
 20
-33.19310494
 30
0.0
 11
94.2821329
 21
-35.69310255
 31
0.0
  0
LINE
  5
166
100
AcDbEntity
  8
0
  6
CONTINUOUS
 62
       3
100
AcDbLine
 10
102.48213294
 20
-35.69310255
 30
0.0
 11
101.38213295
 21
-35.69310255
 31
0.0
  0
LINE
  5
167
100
AcDbEntity
  8
0
  6
CONTINUOUS
 62
       3
100
AcDbLine
 10
101.38213295
 20
-33.19310494
 30
0.0
 11
101.38213295
 21
-35.69310255
 31
0.0
  0
LINE
  5
168
100
AcDbEntity
  8
0
  6
CONTINUOUS
 62
       3
100
AcDbLine
 10
102.48213294
 20
-35.69310255
 30
0.0
 11
102.48213294
 21
-33.19310494
 31
0.0
  0
LINE
  5
169
100
AcDbEntity
  8
0
  6
CONTINUOUS
 62
       3
100
AcDbLine
 10
101.38213295
 20
-29.69310343
 30
0.0
 11
101.38213295
 21
-33.19310494
 31
0.0
  0
LINE
  5
16A
100
AcDbEntity
  8
0
  6
CONTINUOUS
 62
       3
100
AcDbLine
 10
102.48213294
 20
-33.19310494
 30
0.0
 11
102.48213294
 21
-29.69310343
 31
0.0
  0
LINE
  5
16B
100
AcDbEntity
  8
0
  6
CONTINUOUS
 62
       3
100
AcDbLine
 10
109.58213299
 20
-35.69310255
 30
0.0
 11
108.482133
 21
-35.69310255
 31
0.0
  0
LINE
  5
16C
100
AcDbEntity
  8
0
  6
CONTINUOUS
 62
       3
100
AcDbLine
 10
109.58213299
 20
-35.69310255
 30
0.0
 11
109.58213299
 21
-33.19310494
 31
0.0
  0
LINE
  5
16D
100
AcDbEntity
  8
0
  6
CONTINUOUS
 62
       3
100
AcDbLine
 10
108.482133
 20
-33.19310494
 30
0.0
 11
108.482133
 21
-35.69310255
 31
0.0
  0
LINE
  5
16E
100
AcDbEntity
  8
0
  6
CONTINUOUS
 62
       3
100
AcDbLine
 10
109.58213299
 20
-33.19310494
 30
0.0
 11
109.58213299
 21
-29.69310343
 31
0.0
  0
LINE
  5
16F
100
AcDbEntity
  8
0
  6
CONTINUOUS
 62
       3
100
AcDbLine
 10
108.482133
 20
-29.69310343
 30
0.0
 11
108.482133
 21
-33.19310494
 31
0.0
  0
LINE
  5
170
100
AcDbEntity
  8
0
  6
CONTINUOUS
 62
       3
100
AcDbLine
 10
116.68213304
 20
-35.69310255
 30
0.0
 11
115.58213304
 21
-35.69310255
 31
0.0
  0
LINE
  5
171
100
AcDbEntity
  8
0
  6
CONTINUOUS
 62
       3
100
AcDbLine
 10
115.58213304
 20
-33.19310494
 30
0.0
 11
115.58213304
 21
-35.69310255
 31
0.0
  0
LINE
  5
172
100
AcDbEntity
  8
0
  6
CONTINUOUS
 62
       3
100
AcDbLine
 10
116.68213304
 20
-35.69310255
 30
0.0
 11
116.68213304
 21
-33.19310494
 31
0.0
  0
LINE
  5
173
100
AcDbEntity
  8
0
  6
CONTINUOUS
 62
       3
100
AcDbLine
 10
115.58213304
 20
-29.69310343
 30
0.0
 11
115.58213304
 21
-33.19310494
 31
0.0
  0
LINE
  5
174
100
AcDbEntity
  8
0
  6
CONTINUOUS
 62
       3
100
AcDbLine
 10
116.68213304
 20
-33.19310494
 30
0.0
 11
116.68213304
 21
-29.69310343
 31
0.0
  0
LINE
  5
175
100
AcDbEntity
  8
0
  6
CONTINUOUS
 62
       3
100
AcDbLine
 10
102.48213294
 20
30.30689523
 30
0.0
 11
102.48213294
 21
33.80689673
 31
0.0
  0
LINE
  5
176
100
AcDbEntity
  8
0
  6
CONTINUOUS
 62
       3
100
AcDbLine
 10
101.38213295
 20
33.80689673
 30
0.0
 11
101.38213295
 21
30.30689523
 31
0.0
  0
LINE
  5
177
100
AcDbEntity
  8
0
  6
CONTINUOUS
 62
       3
100
AcDbLine
 10
108.482133
 20
33.80689673
 30
0.0
 11
108.482133
 21
30.30689523
 31
0.0
  0
LINE
  5
178
100
AcDbEntity
  8
0
  6
CONTINUOUS
 62
       3
100
AcDbLine
 10
109.58213299
 20
30.30689523
 30
0.0
 11
109.58213299
 21
33.80689673
 31
0.0
  0
LINE
  5
179
100
AcDbEntity
  8
0
  6
CONTINUOUS
 62
       3
100
AcDbLine
 10
102.48213294
 20
36.30689435
 30
0.0
 11
101.38213295
 21
36.30689435
 31
0.0
  0
LINE
  5
17A
100
AcDbEntity
  8
0
  6
CONTINUOUS
 62
       3
100
AcDbLine
 10
102.48213294
 20
33.80689673
 30
0.0
 11
102.48213294
 21
36.30689435
 31
0.0
  0
LINE
  5
17B
100
AcDbEntity
  8
0
  6
CONTINUOUS
 62
       3
100
AcDbLine
 10
101.38213295
 20
36.30689435
 30
0.0
 11
101.38213295
 21
33.80689673
 31
0.0
  0
LINE
  5
17C
100
AcDbEntity
  8
0
  6
CONTINUOUS
 62
       3
100
AcDbLine
 10
115.58213304
 20
33.80689673
 30
0.0
 11
115.58213304
 21
30.30689523
 31
0.0
  0
LINE
  5
17D
100
AcDbEntity
  8
0
  6
CONTINUOUS
 62
       3
100
AcDbLine
 10
116.68213304
 20
30.30689523
 30
0.0
 11
116.68213304
 21
33.80689673
 31
0.0
  0
LINE
  5
17E
100
AcDbEntity
  8
0
  6
CONTINUOUS
 62
       3
100
AcDbLine
 10
109.58213299
 20
36.30689435
 30
0.0
 11
108.482133
 21
36.30689435
 31
0.0
  0
LINE
  5
17F
100
AcDbEntity
  8
0
  6
CONTINUOUS
 62
       3
100
AcDbLine
 10
108.482133
 20
36.30689435
 30
0.0
 11
108.482133
 21
33.80689673
 31
0.0
  0
LINE
  5
180
100
AcDbEntity
  8
0
  6
CONTINUOUS
 62
       3
100
AcDbLine
 10
109.58213299
 20
33.80689673
 30
0.0
 11
109.58213299
 21
36.30689435
 31
0.0
  0
LINE
  5
181
100
AcDbEntity
  8
0
  6
CONTINUOUS
 62
       3
100
AcDbLine
 10
116.68213304
 20
36.30689435
 30
0.0
 11
115.58213304
 21
36.30689435
 31
0.0
  0
LINE
  5
182
100
AcDbEntity
  8
0
  6
CONTINUOUS
 62
       3
100
AcDbLine
 10
115.58213304
 20
36.30689435
 30
0.0
 11
115.58213304
 21
33.80689673
 31
0.0
  0
LINE
  5
183
100
AcDbEntity
  8
0
  6
CONTINUOUS
 62
       3
100
AcDbLine
 10
116.68213304
 20
33.80689673
 30
0.0
 11
116.68213304
 21
36.30689435
 31
0.0
  0
LINE
  5
184
100
AcDbEntity
  8
0
  6
CONTINUOUS
 62
       3
100
AcDbLine
 10
122.68213309
 20
33.80689673
 30
0.0
 11
122.68213309
 21
30.30689523
 31
0.0
  0
LINE
  5
185
100
AcDbEntity
  8
0
  6
CONTINUOUS
 62
       3
100
AcDbLine
 10
123.78213308
 20
33.80689673
 30
0.0
 11
123.78213308
 21
30.30689523
 31
0.0
  0
LINE
  5
186
100
AcDbEntity
  8
0
  6
CONTINUOUS
 62
       3
100
AcDbLine
 10
123.78213308
 20
36.30689435
 30
0.0
 11
122.68213309
 21
36.30689435
 31
0.0
  0
LINE
  5
187
100
AcDbEntity
  8
0
  6
CONTINUOUS
 62
       3
100
AcDbLine
 10
122.68213309
 20
36.30689435
 30
0.0
 11
122.68213309
 21
33.80689673
 31
0.0
  0
LINE
  5
188
100
AcDbEntity
  8
0
  6
CONTINUOUS
 62
       3
100
AcDbLine
 10
123.78213308
 20
36.30689435
 30
0.0
 11
123.78213308
 21
33.80689673
 31
0.0
  0
CIRCLE
  5
189
100
AcDbEntity
  8
0
  6
CONTINUOUS
 62
       3
100
AcDbCircle
 10
105.48213299
 20
-29.1381041
 30
0.0
 40
2.8
  0
CIRCLE
  5
18A
100
AcDbEntity
  8
0
  6
CONTINUOUS
 62
       3
100
AcDbCircle
 10
112.58213299
 20
-29.1381041
 30
0.0
 40
2.8
  0
CIRCLE
  5
18B
100
AcDbEntity
  8
0
  6
CONTINUOUS
 62
       3
100
AcDbCircle
 10
105.48213299
 20
29.7518959
 30
0.0
 40
2.8
  0
CIRCLE
  5
18C
100
AcDbEntity
  8
0
  6
CONTINUOUS
 62
       3
100
AcDbCircle
 10
112.58213299
 20
29.7518959
 30
0.0
 40
2.8
  0
CIRCLE
  5
18D
100
AcDbEntity
  8
0
  6
CONTINUOUS
 62
       3
100
AcDbCircle
 10
119.68213299
 20
29.7518959
 30
0.0
 40
2.8
  0
LINE
  5
18E
100
AcDbEntity
  8
0
  6
CONTINUOUS
 62
       3
100
AcDbLine
 10
108.482133
 20
-32.38810323
 30
0.0
 11
102.48213294
 21
-32.38810323
 31
0.0
  0
LINE
  5
18F
100
AcDbEntity
  8
0
  6
CONTINUOUS
 62
       3
100
AcDbLine
 10
115.58213304
 20
-32.38810323
 30
0.0
 11
109.58213299
 21
-32.38810323
 31
0.0
  0
LINE
  5
190
100
AcDbEntity
  8
0
  6
CONTINUOUS
 62
       3
100
AcDbLine
 10
108.482133
 20
33.00189503
 30
0.0
 11
102.48213294
 21
33.00189503
 31
0.0
  0
LINE
  5
191
100
AcDbEntity
  8
0
  6
CONTINUOUS
 62
       3
100
AcDbLine
 10
115.58213304
 20
33.00189503
 30
0.0
 11
109.58213299
 21
33.00189503
 31
0.0
  0
LINE
  5
192
100
AcDbEntity
  8
0
  6
CONTINUOUS
 62
       3
100
AcDbLine
 10
122.68213309
 20
33.00189503
 30
0.0
 11
116.68213304
 21
33.00189503
 31
0.0
  0
LINE
  5
193
100
AcDbEntity
  8
0
  6
CONTINUOUS
 62
       3
100
AcDbLine
 10
101.38213295
 20
-33.38810526
 30
0.0
 11
95.3821329
 21
-33.38810526
 31
0.0
  0
LINE
  5
194
100
AcDbEntity
  8
0
  6
CONTINUOUS
 62
       3
100
AcDbLine
 10
108.482133
 20
-33.38810526
 30
0.0
 11
102.48213294
 21
-33.38810526
 31
0.0
  0
LINE
  5
195
100
AcDbEntity
  8
0
  6
CONTINUOUS
 62
       3
100
AcDbLine
 10
115.58213304
 20
-33.38810526
 30
0.0
 11
109.58213299
 21
-33.38810526
 31
0.0
  0
LINE
  5
196
100
AcDbEntity
  8
0
  6
CONTINUOUS
 62
       3
100
AcDbLine
 10
108.482133
 20
34.00189705
 30
0.0
 11
102.48213294
 21
34.00189705
 31
0.0
  0
LINE
  5
197
100
AcDbEntity
  8
0
  6
CONTINUOUS
 62
       3
100
AcDbLine
 10
115.58213304
 20
34.00189705
 30
0.0
 11
109.58213299
 21
34.00189705
 31
0.0
  0
LINE
  5
198
100
AcDbEntity
  8
0
  6
CONTINUOUS
 62
       3
100
AcDbLine
 10
122.68213309
 20
34.00189705
 30
0.0
 11
116.68213304
 21
34.00189705
 31
0.0
  0
LINE
  5
199
100
AcDbEntity
  8
0
  6
CONTINUOUS
 62
       3
100
AcDbLine
 10
101.38213295
 20
-35.69310255
 30
0.0
 11
95.3821329
 21
-35.69310255
 31
0.0
  0
LINE
  5
19A
100
AcDbEntity
  8
0
  6
CONTINUOUS
 62
       3
100
AcDbLine
 10
108.482133
 20
-35.69310255
 30
0.0
 11
102.48213294
 21
-35.69310255
 31
0.0
  0
LINE
  5
19B
100
AcDbEntity
  8
0
  6
CONTINUOUS
 62
       3
100
AcDbLine
 10
115.58213304
 20
-35.69310255
 30
0.0
 11
109.58213299
 21
-35.69310255
 31
0.0
  0
LINE
  5
19C
100
AcDbEntity
  8
0
  6
CONTINUOUS
 62
       3
100
AcDbLine
 10
122.13213309
 20
-29.5931036
 30
0.0
 11
122.13213309
 21
-28.79310496
 31
0.0
  0
ARC
  5
19D
100
AcDbEntity
  8
0
  6
CONTINUOUS
 62
       3
100
AcDbCircle
 10
120.03213299
 20
-28.7931041
 30
0.0
 40
2.1
100
AcDbArc
 50
0.0
 51
180.0
  0
LINE
  5
19E
100
AcDbEntity
  8
0
  6
CONTINUOUS
 62
       3
100
AcDbLine
 10
117.93213277
 20
-28.79310496
 30
0.0
 11
117.93213277
 21
-29.5931036
 31
0.0
  0
ARC
  5
19F
100
AcDbEntity
  8
0
  6
CONTINUOUS
 62
       3
100
AcDbCircle
 10
120.03213299
 20
-29.5931041
 30
0.0
 40
2.1
100
AcDbArc
 50
180.0
 51
360.0
  0
LINE
  5
1A0
100
AcDbEntity
  8
0
  6
CONTINUOUS
 62
       3
100
AcDbLine
 10
123.78213308
 20
-35.69310255
 30
0.0
 11
116.68213304
 21
-35.69310255
 31
0.0
  0
LINE
  5
1A1
100
AcDbEntity
  8
0
  6
CONTINUOUS
 62
       3
100
AcDbLine
 10
123.78213308
 20
-25.88810496
 30
0.0
 11
123.78213308
 21
-35.69310255
 31
0.0
  0
LINE
  5
1A2
100
AcDbEntity
  8
0
  6
CONTINUOUS
 62
       3
100
AcDbLine
 10
95.93213289
 20
30.2068954
 30
0.0
 11
95.93213289
 21
29.40689676
 31
0.0
  0
ARC
  5
1A3
100
AcDbEntity
  8
0
  6
CONTINUOUS
 62
       3
100
AcDbCircle
 10
98.03213299
 20
29.4068959
 30
0.0
 40
2.1
100
AcDbArc
 50
180.0
 51
360.0
  0
LINE
  5
1A4
100
AcDbEntity
  8
0
  6
CONTINUOUS
 62
       3
100
AcDbLine
 10
100.13213321
 20
29.40689676
 30
0.0
 11
100.13213321
 21
30.2068954
 31
0.0
  0
ARC
  5
1A5
100
AcDbEntity
  8
0
  6
CONTINUOUS
 62
       3
100
AcDbCircle
 10
98.03213299
 20
30.2068959
 30
0.0
 40
2.1
100
AcDbArc
 50
0.0
 51
180.0
  0
LINE
  5
1A6
100
AcDbEntity
  8
0
  6
CONTINUOUS
 62
       3
100
AcDbLine
 10
94.2821329
 20
36.30689435
 30
0.0
 11
101.38213295
 21
36.30689435
 31
0.0
  0
LINE
  5
1A7
100
AcDbEntity
  8
0
  6
CONTINUOUS
 62
       3
100
AcDbLine
 10
94.2821329
 20
26.50189676
 30
0.0
 11
94.2821329
 21
36.30689435
 31
0.0
  0
LINE
  5
1A8
100
AcDbEntity
  8
0
  6
CONTINUOUS
 62
       3
100
AcDbLine
 10
108.482133
 20
36.30689435
 30
0.0
 11
102.48213294
 21
36.30689435
 31
0.0
  0
LINE
  5
1A9
100
AcDbEntity
  8
0
  6
CONTINUOUS
 62
       3
100
AcDbLine
 10
115.58213304
 20
36.30689435
 30
0.0
 11
109.58213299
 21
36.30689435
 31
0.0
  0
LINE
  5
1AA
100
AcDbEntity
  8
0
  6
CONTINUOUS
 62
       3
100
AcDbLine
 10
122.68213309
 20
36.30689435
 30
0.0
 11
116.68213304
 21
36.30689435
 31
0.0
  0
LINE
  5
1AB
100
AcDbEntity
  8
0
  6
CENTER
 62
       4
100
AcDbLine
 10
-67.71430617
 20
0.30689435
 30
0.0
 11
57.69056271
 21
0.30689435
 31
0.0
  0
LINE
  5
1AC
100
AcDbEntity
  8
0
  6
CENTER
 62
       4
100
AcDbLine
 10
-94.65391485
 20
0.30689435
 30
0.0
 11
-126.20179988
 21
0.30689435
 31
0.0
  0
LINE
  5
1AD
100
AcDbEntity
  8
0
  6
CENTER
 62
       4
100
AcDbLine
 10
-109.83001549
 20
41.85560985
 30
0.0
 11
-109.83001549
 21
-41.85560985
 31
0.0
  0
LINE
  5
1AE
100
AcDbEntity
  8
0
  6
CENTER
 62
       4
100
AcDbLine
 10
91.86246592
 20
0.30689435
 30
0.0
 11
126.20179988
 21
0.30689435
 31
0.0
  0
LINE
  5
1AF
100
AcDbEntity
  8
0
  6
CENTER
 62
       4
100
AcDbLine
 10
109.03213308
 20
39.61894411
 30
0.0
 11
109.03213308
 21
-39.59314248
 31
0.0
  0
ARC
  5
1B0
100
AcDbEntity
  8
0
  6
DIVIDE
 62
       8
100
AcDbCircle
 10
52.72827077
 20
-10.3931041
 30
0.0
 40
2.0
100
AcDbArc
 50
270.0
 51
360.0
  0
LINE
  5
1B1
100
AcDbEntity
  8
0
  6
DIVIDE
 62
       8
100
AcDbLine
 10
54.72827075
 20
11.00689635
 30
0.0
 11
54.72827075
 21
-10.39310455
 31
0.0
  0
ARC
  5
1B2
100
AcDbEntity
  8
0
  6
DIVIDE
 62
       8
100
AcDbCircle
 10
52.72827077
 20
11.0068959
 30
0.0
 40
2.0
100
AcDbArc
 50
0.0
 51
90.0
  0
LINE
  5
1B3
100
AcDbEntity
  8
0
  6
DIVIDE
 62
       8
100
AcDbLine
 10
48.92827082
 20
13.00689574
 30
0.0
 11
52.72827077
 21
13.00689574
 31
0.0
  0
ARC
  5
1B4
100
AcDbEntity
  8
0
  6
DIVIDE
 62
       8
100
AcDbCircle
 10
48.92827077
 20
14.0068959
 30
0.0
 40
1.0
100
AcDbArc
 50
180.0
 51
270.0
  0
LINE
  5
1B5
100
AcDbEntity
  8
0
  6
DIVIDE
 62
       8
100
AcDbLine
 10
47.92827066
 20
17.80689597
 30
0.0
 11
47.92827066
 21
14.00689591
 31
0.0
  0
LINE
  5
1B6
100
AcDbEntity
  8
0
  6
DIVIDE
 62
       8
100
AcDbLine
 10
48.7282707
 20
17.80689597
 30
0.0
 11
47.92827066
 21
17.80689597
 31
0.0
  0
LINE
  5
1B7
100
AcDbEntity
  8
0
  6
DIVIDE
 62
       8
100
AcDbLine
 10
48.7282707
 20
15.80689564
 30
0.0
 11
48.7282707
 21
17.80689597
 31
0.0
  0
LINE
  5
1B8
100
AcDbEntity
  8
0
  6
DIVIDE
 62
       8
100
AcDbLine
 10
50.22827071
 20
13.80689625
 30
0.0
 11
48.7282707
 21
15.80689564
 31
0.0
  0
LINE
  5
1B9
100
AcDbEntity
  8
0
  6
DIVIDE
 62
       8
100
AcDbLine
 10
54.52827085
 20
13.80689625
 30
0.0
 11
50.22827071
 21
13.80689625
 31
0.0
  0
ARC
  5
1BA
100
AcDbEntity
  8
0
  6
DIVIDE
 62
       8
100
AcDbCircle
 10
54.52827077
 20
12.8068959
 30
0.0
 40
1.0
100
AcDbArc
 50
0.0
 51
90.0
  0
LINE
  5
1BB
100
AcDbEntity
  8
0
  6
DIVIDE
 62
       8
100
AcDbLine
 10
55.52827079
 20
-12.19310429
 30
0.0
 11
55.52827079
 21
12.80689608
 31
0.0
  0
ARC
  5
1BC
100
AcDbEntity
  8
0
  6
DIVIDE
 62
       8
100
AcDbCircle
 10
54.52827077
 20
-12.1931041
 30
0.0
 40
1.0
100
AcDbArc
 50
270.0
 51
360.0
  0
LINE
  5
1BD
100
AcDbEntity
  8
0
  6
DIVIDE
 62
       8
100
AcDbLine
 10
50.22827071
 20
-13.19310445
 30
0.0
 11
54.52827085
 21
-13.19310445
 31
0.0
  0
LINE
  5
1BE
100
AcDbEntity
  8
0
  6
DIVIDE
 62
       8
100
AcDbLine
 10
48.7282707
 20
-15.19310385
 30
0.0
 11
50.22827071
 21
-13.19310445
 31
0.0
  0
LINE
  5
1BF
100
AcDbEntity
  8
0
  6
DIVIDE
 62
       8
100
AcDbLine
 10
48.7282707
 20
-17.19310418
 30
0.0
 11
48.7282707
 21
-15.19310385
 31
0.0
  0
LINE
  5
1C0
100
AcDbEntity
  8
0
  6
DIVIDE
 62
       8
100
AcDbLine
 10
47.92827066
 20
-17.19310418
 30
0.0
 11
48.7282707
 21
-17.19310418
 31
0.0
  0
LINE
  5
1C1
100
AcDbEntity
  8
0
  6
DIVIDE
 62
       8
100
AcDbLine
 10
47.92827066
 20
-13.39310411
 30
0.0
 11
47.92827066
 21
-17.19310418
 31
0.0
  0
ARC
  5
1C2
100
AcDbEntity
  8
0
  6
DIVIDE
 62
       8
100
AcDbCircle
 10
48.92827077
 20
-13.3931041
 30
0.0
 40
1.0
100
AcDbArc
 50
90.0
 51
180.0
  0
LINE
  5
1C3
100
AcDbEntity
  8
0
  6
DIVIDE
 62
       8
100
AcDbLine
 10
52.72827077
 20
-12.39310395
 30
0.0
 11
48.92827082
 21
-12.39310395
 31
0.0
  0
TEXT
  5
1C4
100
AcDbEntity
  8
0
 62
       7
100
AcDbText
 10
113.82760181
 20
-103.7760181
 30
0.0
 40
5.0
  1
000
 41
0.8
 72
       5
 11
125.82760181
 21
-103.7760181
 31
0.0
100
AcDbText
  0
ENDSEC
  0
SECTION
  2
OBJECTS
  0
DICTIONARY
  5
19
100
AcDbDictionary
  3
ACAD_GROUP
350
1A
  3
ACAD_MLINESTYLE
350
1B
  0
DICTIONARY
  5
1A
102
{ACAD_REACTORS
330
19
102
}
100
AcDbDictionary
  0
DICTIONARY
  5
1B
102
{ACAD_REACTORS
330
19
102
}
100
AcDbDictionary
  3
STANDARD
350
1C
  0
MLINESTYLE
  5
1C
102
{ACAD_REACTORS
330
1B
102
}
100
AcDbMlineStyle
  2
STANDARD
 70
       0
  3

 62
       0
 51
90.0
 52
90.0
 71
       2
 49
0.5
 62
     256
  6
BYLAYER
 49
-0.5
 62
     256
  6
BYLAYER
  0
ENDSEC
  0
EOF
