  0
SECTION
  2
HEADER
  9
$ACADVER
  1
AC1014
  9
$ACADMAINTVER
 70
       0
  9
$DWGCODEPAGE
  3
ANSI_932
  9
$INSBASE
 10
0.0
 20
0.0
 30
0.0
  9
$EXTMIN
 10
-88.02536956
 20
-103.1432411
 30
0.0
  9
$EXTMAX
 10
122.97304646
 20
59.62294307
 30
0.0
  9
$LIMMIN
 10
-94.61907006
 20
-108.22968435
  9
$LIMMAX
 10
129.56674696
 20
64.70938632
  9
$ORTHOMODE
 70
       0
  9
$REGENMODE
 70
       1
  9
$FILLMODE
 70
       1
  9
$QTEXTMODE
 70
       0
  9
$MIRRTEXT
 70
       1
  9
$DRAGMODE
 70
       2
  9
$LTSCALE
 40
1.0
  9
$OSMODE
 70
       0
  9
$ATTMODE
 70
       1
  9
$TEXTSIZE
 40
0.2
  9
$TRACEWID
 40
0.05
  9
$TEXTSTYLE
  7
STANDARD
  9
$CLAYER
  8
0
  9
$CELTYPE
  6
CONTINUOUS
  9
$CECOLOR
 62
     256
  9
$CELTSCALE
 40
1.0
  9
$DELOBJ
 70
       1
  9
$DISPSILH
 70
       0
  9
$DIMSCALE
 40
1.0
  9
$DIMASZ
 40
0.18
  9
$DIMEXO
 40
0.0625
  9
$DIMDLI
 40
0.38
  9
$DIMRND
 40
0.0
  9
$DIMDLE
 40
0.0
  9
$DIMEXE
 40
0.18
  9
$DIMTP
 40
0.0
  9
$DIMTM
 40
0.0
  9
$DIMTXT
 40
0.18
  9
$DIMCEN
 40
0.09
  9
$DIMTSZ
 40
0.0
  9
$DIMTOL
 70
       0
  9
$DIMLIM
 70
       0
  9
$DIMTIH
 70
       1
  9
$DIMTOH
 70
       1
  9
$DIMSE1
 70
       0
  9
$DIMSE2
 70
       0
  9
$DIMTAD
 70
       0
  9
$DIMZIN
 70
       0
  9
$DIMBLK
  1

  9
$DIMASO
 70
       1
  9
$DIMSHO
 70
       1
  9
$DIMPOST
  1

  9
$DIMAPOST
  1

  9
$DIMALT
 70
       0
  9
$DIMALTD
 70
       2
  9
$DIMALTF
 40
25.4
  9
$DIMLFAC
 40
1.0
  9
$DIMTOFL
 70
       0
  9
$DIMTVP
 40
0.0
  9
$DIMTIX
 70
       0
  9
$DIMSOXD
 70
       0
  9
$DIMSAH
 70
       0
  9
$DIMBLK1
  1

  9
$DIMBLK2
  1

  9
$DIMSTYLE
  2
STANDARD
  9
$DIMCLRD
 70
       0
  9
$DIMCLRE
 70
       0
  9
$DIMCLRT
 70
       0
  9
$DIMTFAC
 40
1.0
  9
$DIMGAP
 40
0.09
  9
$DIMJUST
 70
       0
  9
$DIMSD1
 70
       0
  9
$DIMSD2
 70
       0
  9
$DIMTOLJ
 70
       1
  9
$DIMTZIN
 70
       0
  9
$DIMALTZ
 70
       0
  9
$DIMALTTZ
 70
       0
  9
$DIMFIT
 70
       3
  9
$DIMUPT
 70
       0
  9
$DIMUNIT
 70
       2
  9
$DIMDEC
 70
       4
  9
$DIMTDEC
 70
       4
  9
$DIMALTU
 70
       2
  9
$DIMALTTD
 70
       2
  9
$DIMTXSTY
  7
STANDARD
  9
$DIMAUNIT
 70
       0
  9
$LUNITS
 70
       2
  9
$LUPREC
 70
       4
  9
$SKETCHINC
 40
0.1
  9
$FILLETRAD
 40
0.0
  9
$AUNITS
 70
       0
  9
$AUPREC
 70
       0
  9
$MENU
  1
acad
  9
$ELEVATION
 40
0.0
  9
$PELEVATION
 40
0.0
  9
$THICKNESS
 40
0.0
  9
$LIMCHECK
 70
       0
  9
$BLIPMODE
 70
       1
  9
$CHAMFERA
 40
0.0
  9
$CHAMFERB
 40
0.0
  9
$CHAMFERC
 40
0.0
  9
$CHAMFERD
 40
0.0
  9
$SKPOLY
 70
       0
  9
$TDCREATE
 40
0.000000000
  9
$TDUPDATE
 40
0.000000000
  9
$TDINDWG
 40
0.0000000000
  9
$TDUSRTIMER
 40
0.0000000000
  9
$USRTIMER
 70
       1
  9
$ANGBASE
 50
0.0
  9
$ANGDIR
 70
       0
  9
$PDMODE
 70
       0
  9
$PDSIZE
 40
1.0
  9
$PLINEWID
 40
0.0
  9
$COORDS
 70
       1
  9
$SPLFRAME
 70
       0
  9
$SPLINETYPE
 70
       6
  9
$SPLINESEGS
 70
       8
  9
$ATTDIA
 70
       0
  9
$ATTREQ
 70
       1
  9
$HANDLING
 70
       1
  9
$HANDSEED
  5
45A
  9
$SURFTAB1
 70
       6
  9
$SURFTAB2
 70
       6
  9
$SURFTYPE
 70
       6
  9
$SURFU
 70
       6
  9
$SURFV
 70
       6
  9
$UCSNAME
  2

  9
$UCSORG
 10
0.0
 20
0.0
 30
0.0
  9
$UCSXDIR
 10
1.0
 20
0.0
 30
0.0
  9
$UCSYDIR
 10
0.0
 20
1.0
 30
0.0
  9
$PUCSNAME
  2

  9
$PUCSORG
 10
0.0
 20
0.0
 30
0.0
  9
$PUCSXDIR
 10
1.0
 20
0.0
 30
0.0
  9
$PUCSYDIR
 10
0.0
 20
1.0
 30
0.0
  9
$USERI1
 70
       0
  9
$USERI2
 70
       0
  9
$USERI3
 70
       0
  9
$USERI4
 70
       0
  9
$USERI5
 70
       0
  9
$USERR1
 40
0.0
  9
$USERR2
 40
0.0
  9
$USERR3
 40
0.0
  9
$USERR4
 40
0.0
  9
$USERR5
 40
0.0
  9
$WORLDVIEW
 70
       1
  9
$SHADEDGE
 70
       3
  9
$SHADEDIF
 70
      70
  9
$TILEMODE
 70
       1
  9
$MAXACTVP
 70
      16
  9
$PINSBASE
 10
0.0
 20
0.0
 30
0.0
  9
$PLIMCHECK
 70
       0
  9
$PEXTMIN
 10
1.00000000E+20
 20
1.00000000E+20
 30
1.00000000E+20
  9
$PEXTMAX
 10
-1.00000000E+20
 20
-1.00000000E+20
 30
-1.00000000E+20
  9
$PLIMMIN
 10
0.0
 20
0.0
  9
$PLIMMAX
 10
12.0
 20
9.0
  9
$UNITMODE
 70
       0
  9
$VISRETAIN
 70
       0
  9
$PLINEGEN
 70
       1
  9
$PSLTSCALE
 70
       0
  9
$TREEDEPTH
 70
    3020
  9
$PICKSTYLE
 70
       1
  9
$CMLSTYLE
  2
STANDARD
  9
$CMLJUST
 70
       0
  9
$CMLSCALE
 40
1.0
  9
$PROXYGRAPHICS
 70
       0
  9
$MEASUREMENT
 70
       0
  0
ENDSEC
  0
SECTION
  2
CLASSES
  0
CLASS
  1
LWPOLYLINE
  2
AcDbPolyline
  3
"AutoCAD"
 90
        0
280
       0
281
       1
  0
CLASS
  1
IMAGE
  2
AcDbRasterImage
  3
ISM
 90
      127
280
       0
281
       1
  0
CLASS
  1
OLE2FRAME
  2
AcDbOle2Frame
  3
""
 90
        0
280
       0
281
       1
  0
CLASS
  1
HATCH
  2
AcDbHatch
  3
"ACAD_SEDONA"
 90
        0
280
       0
281
       1
  0
CLASS
  1
DICTIONARYVAR
  2
AcDbDictionaryVar
  3
"AutoCAD"
 90
        0
280
       0
281
       0
  0
CLASS
  1
RASTERVARIABLES
  2
AcDbRasterVariables
  3
ISM
 90
        0
280
       0
281
       0
  0
CLASS
  1
IMAGEDEF
  2
AcDbRasterImageDef
  3
ISM
 90
        0
280
       0
281
       0
  0
CLASS
  1
IMAGEDEF_REACTOR
  2
AcDbRasterImageDefReactor
  3
ISM
 90
        1
280
       0
281
       0
  0
CLASS
  1
IDBUFFER
  2
AcDbIdBuffer
  3
"Acad"
 90
        0
280
       0
281
       0
  0
CLASS
  1
SPATIAL_FILTER
  2
AcDbSpatialFilter
  3
"Acad"
 90
        0
280
       0
281
       0
  0
CLASS
  1
XRECORD
  2
AcDbXrecord
  3
"<Built In>"
 90
        0
280
       0
281
       0
  0
CLASS
  1
SORTENTSTABLE
  2
AcDbSortentsTable
  3
"AutoCAD"
 90
        0
280
       0
281
       0
  0
CLASS
  1
LAYER_INDEX
  2
AcDbLayerIndex
  3
"Acad"
 90
        0
280
       0
281
       0
  0
CLASS
  1
SPATIAL_INDEX
  2
AcDbSpatialIndex
  3
"Acad"
 90
        0
280
       0
281
       0
  0
CLASS
  1
OBJECT_PTR
  2
CAseDLPNTableRecord
  3
"ASE-LPNTableRecord"
 90
        1
280
       0
281
       0
  0
CLASS
  1
LAYOUT
  2
AcDbLayout
  3
"AutoCAD 2000"
 90
        1
280
       0
281
       0
  0
CLASS
  1
PLOTSETTINGS
  2
AcDbPlotSettings
  3
"AutoCAD 2000"
 90
        1
280
       0
281
       0
  0
CLASS
  1
ACDBDICTIONARYWDFLT
  2
AcDbDictionaryWithDefault
  3
"AutoCAD 2000"
 90
        1
280
       0
281
       0
  0
CLASS
  1
ACDBPLACEHOLDER
  2
AcDbPlaceHolder
  3
"AutoCAD 2000"
 90
        1
280
       0
281
       0
  0
CLASS
  1
VBA_PROJECT
  2
AcDbVbaProject
  3
"acadvba"
 90
        1
280
       0
281
       0
  0
CLASS
  1
WIPEOUT
  2
AcDbWipeout
  3
WipeOut|AutoCAD Express Tool|expresstools@autodesk.com
 90
      127
280
       0
281
       1
  0
CLASS
  1
WIPEOUTVARIABLES
  2
AcDbWipeoutVariables
  3
WipeOut|AutoCAD Express Tool|expresstools@autodesk.com
 90
        0
280
       0
281
       0
  0
CLASS
  1
RTEXT
  2
RText
  3
RText|AutoCAD Express Tool|expresstools@autodesk.com
 90
        0
280
       0
281
       1
  0
CLASS
  1
ARCALIGNEDTEXT
  2
AcDbArcAlignedText
  3
ATEXT|AutoCAD Express Tool|expresstools@autodesk.com
 90
        0
280
       0
281
       1
  0
ENDSEC
  0
SECTION
  2
TABLES
  0
TABLE
  2
VPORT
  5
7
100
AcDbSymbolTable
 70
       1
  0
VPORT
  5
15
100
AcDbSymbolTableRecord
100
AcDbViewportTableRecord
  2
*ACTIVE
 70
       0
 10
0.0
 20
0.0
 11
1.0
 21
1.0
 12
17.47383845
 22
-21.76014902
 13
0.0
 23
0.0
 14
1.0
 24
1.0
 15
0.0
 25
0.0
 16
0.0
 26
0.0
 36
1.0
 17
0.0
 27
0.0
 37
0.0
 40
172.93907067
 41
1.29632833
 42
50.0
 43
0.0
 44
0.0
 50
0.0
 51
0.0
 71
       0
 72
     100
 73
       1
 74
       1
 75
       0
 76
       0
 77
       0
 78
       0
  0
ENDTAB
  0
TABLE
  2
LTYPE
  5
4
100
AcDbSymbolTable
 70
      30
  0
LTYPE
  5
11
100
AcDbSymbolTableRecord
100
AcDbLinetypeTableRecord
  2
BYBLOCK
 70
      64
  3

 72
      65
 73
       0
 40
0.0
  0
LTYPE
  5
12
100
AcDbSymbolTableRecord
100
AcDbLinetypeTableRecord
  2
BYLAYER
 70
      64
  3

 72
      65
 73
       0
 40
0.0
  0
LTYPE
  5
13
100
AcDbSymbolTableRecord
100
AcDbLinetypeTableRecord
  2
CONTINUOUS
 70
      64
  3
Solid line
 72
      65
 73
       0
 40
0.0
  0
LTYPE
  5
1D
100
AcDbSymbolTableRecord
100
AcDbLinetypeTableRecord
  2
HIDDENX2
 70
      64
  3
CADPAC LINETYPE
 72
      65
 73
       2
 40
11.88
 49
8.91
 74
       0
 49
-2.97
 74
       0
  0
LTYPE
  5
1E
100
AcDbSymbolTableRecord
100
AcDbLinetypeTableRecord
  2
HIDDEN
 70
      64
  3
CADPAC LINETYPE
 72
      65
 73
       2
 40
8.91
 49
5.94
 74
       0
 49
-2.97
 74
       0
  0
LTYPE
  5
1F
100
AcDbSymbolTableRecord
100
AcDbLinetypeTableRecord
  2
HIDDEN2
 70
      64
  3
CADPAC LINETYPE
 72
      65
 73
       2
 40
7.425
 49
4.455
 74
       0
 49
-2.97
 74
       0
  0
LTYPE
  5
20
100
AcDbSymbolTableRecord
100
AcDbLinetypeTableRecord
  2
DASHED
 70
      64
  3
CADPAC LINETYPE
 72
      65
 73
       2
 40
8.91
 49
5.94
 74
       0
 49
-2.97
 74
       0
  0
LTYPE
  5
21
100
AcDbSymbolTableRecord
100
AcDbLinetypeTableRecord
  2
DASHED2
 70
      64
  3
CADPAC LINETYPE
 72
      65
 73
       2
 40
6.6825
 49
4.455
 74
       0
 49
-2.2275
 74
       0
  0
LTYPE
  5
22
100
AcDbSymbolTableRecord
100
AcDbLinetypeTableRecord
  2
DASHEDX2
 70
      64
  3
CADPAC LINETYPE
 72
      65
 73
       2
 40
13.365
 49
8.91
 74
       0
 49
-4.455
 74
       0
  0
LTYPE
  5
23
100
AcDbSymbolTableRecord
100
AcDbLinetypeTableRecord
  2
DOTX2
 70
      64
  3
CADPAC LINETYPE
 72
      65
 73
       2
 40
3.7125
 49
0.0
 74
       0
 49
-3.7125
 74
       0
  0
LTYPE
  5
24
100
AcDbSymbolTableRecord
100
AcDbLinetypeTableRecord
  2
DOT
 70
      64
  3
CADPAC LINETYPE
 72
      65
 73
       2
 40
2.97
 49
0.0
 74
       0
 49
-2.97
 74
       0
  0
LTYPE
  5
25
100
AcDbSymbolTableRecord
100
AcDbLinetypeTableRecord
  2
DOT2
 70
      64
  3
CADPAC LINETYPE
 72
      65
 73
       2
 40
2.2275
 49
0.0
 74
       0
 49
-2.2275
 74
       0
  0
LTYPE
  5
26
100
AcDbSymbolTableRecord
100
AcDbLinetypeTableRecord
  2
CENTERX2
 70
      64
  3
CADPAC LINETYPE
 72
      65
 73
       4
 40
17.82
 49
7.425
 74
       0
 49
-3.7125
 74
       0
 49
2.97
 74
       0
 49
-3.7125
 74
       0
  0
LTYPE
  5
27
100
AcDbSymbolTableRecord
100
AcDbLinetypeTableRecord
  2
CENTER
 70
      64
  3
CADPAC LINETYPE
 72
      65
 73
       4
 40
13.662
 49
5.94
 74
       0
 49
-2.97
 74
       0
 49
1.782
 74
       0
 49
-2.97
 74
       0
  0
LTYPE
  5
28
100
AcDbSymbolTableRecord
100
AcDbLinetypeTableRecord
  2
CENTER2
 70
      64
  3
CADPAC LINETYPE
 72
      65
 73
       4
 40
9.504
 49
4.455
 74
       0
 49
-2.2275
 74
       0
 49
0.594
 74
       0
 49
-2.2275
 74
       0
  0
LTYPE
  5
29
100
AcDbSymbolTableRecord
100
AcDbLinetypeTableRecord
  2
DASHDOTX2
 70
      64
  3
CADPAC LINETYPE
 72
      65
 73
       4
 40
14.85
 49
7.425
 74
       0
 49
-3.7125
 74
       0
 49
0.0
 74
       0
 49
-3.7125
 74
       0
  0
LTYPE
  5
2A
100
AcDbSymbolTableRecord
100
AcDbLinetypeTableRecord
  2
DASHDOT
 70
      64
  3
CADPAC LINETYPE
 72
      65
 73
       4
 40
11.88
 49
5.94
 74
       0
 49
-2.97
 74
       0
 49
0.0
 74
       0
 49
-2.97
 74
       0
  0
LTYPE
  5
2B
100
AcDbSymbolTableRecord
100
AcDbLinetypeTableRecord
  2
DASHDOT2
 70
      64
  3
CADPAC LINETYPE
 72
      65
 73
       4
 40
8.91
 49
4.455
 74
       0
 49
-2.2275
 74
       0
 49
0.0
 74
       0
 49
-2.2275
 74
       0
  0
LTYPE
  5
2C
100
AcDbSymbolTableRecord
100
AcDbLinetypeTableRecord
  2
DIVIDEX2
 70
      64
  3
CADPAC LINETYPE
 72
      65
 73
       6
 40
18.5625
 49
7.425
 74
       0
 49
-3.7125
 74
       0
 49
0.0
 74
       0
 49
-3.7125
 74
       0
 49
0.0
 74
       0
 49
-3.7125
 74
       0
  0
LTYPE
  5
2D
100
AcDbSymbolTableRecord
100
AcDbLinetypeTableRecord
  2
DIVIDE
 70
      64
  3
CADPAC LINETYPE
 72
      65
 73
       6
 40
14.85
 49
5.94
 74
       0
 49
-2.97
 74
       0
 49
0.0
 74
       0
 49
-2.97
 74
       0
 49
0.0
 74
       0
 49
-2.97
 74
       0
  0
LTYPE
  5
2E
100
AcDbSymbolTableRecord
100
AcDbLinetypeTableRecord
  2
DIVIDE2
 70
      64
  3
CADPAC LINETYPE
 72
      65
 73
       6
 40
11.1375
 49
4.455
 74
       0
 49
-2.2275
 74
       0
 49
0.0
 74
       0
 49
-2.2275
 74
       0
 49
0.0
 74
       0
 49
-2.2275
 74
       0
  0
LTYPE
  5
2F
100
AcDbSymbolTableRecord
100
AcDbLinetypeTableRecord
  2
BORDERX2
 70
      64
  3
CADPAC LINETYPE
 72
      65
 73
       6
 40
25.9875
 49
7.425
 74
       0
 49
-3.7125
 74
       0
 49
7.425
 74
       0
 49
-3.7125
 74
       0
 49
0.0
 74
       0
 49
-3.7125
 74
       0
  0
LTYPE
  5
30
100
AcDbSymbolTableRecord
100
AcDbLinetypeTableRecord
  2
BORDER
 70
      64
  3
CADPAC LINETYPE
 72
      65
 73
       6
 40
20.79
 49
5.94
 74
       0
 49
-2.97
 74
       0
 49
5.94
 74
       0
 49
-2.97
 74
       0
 49
0.0
 74
       0
 49
-2.97
 74
       0
  0
LTYPE
  5
31
100
AcDbSymbolTableRecord
100
AcDbLinetypeTableRecord
  2
BORDER2
 70
      64
  3
CADPAC LINETYPE
 72
      65
 73
       6
 40
15.5925
 49
4.455
 74
       0
 49
-2.2275
 74
       0
 49
4.455
 74
       0
 49
-2.2275
 74
       0
 49
0.0
 74
       0
 49
-2.2275
 74
       0
  0
LTYPE
  5
32
100
AcDbSymbolTableRecord
100
AcDbLinetypeTableRecord
  2
PHANTOMX2
 70
      64
  3
CADPAC LINETYPE
 72
      65
 73
       6
 40
22.275
 49
7.425
 74
       0
 49
-2.97
 74
       0
 49
2.97
 74
       0
 49
-2.97
 74
       0
 49
2.97
 74
       0
 49
-2.97
 74
       0
  0
LTYPE
  5
33
100
AcDbSymbolTableRecord
100
AcDbLinetypeTableRecord
  2
PHANTOM
 70
      64
  3
CADPAC LINETYPE
 72
      65
 73
       6
 40
18.414
 49
5.94
 74
       0
 49
-2.97
 74
       0
 49
1.782
 74
       0
 49
-2.97
 74
       0
 49
1.782
 74
       0
 49
-2.97
 74
       0
  0
LTYPE
  5
34
100
AcDbSymbolTableRecord
100
AcDbLinetypeTableRecord
  2
PHANTOM2
 70
      64
  3
CADPAC LINETYPE
 72
      65
 73
       6
 40
15.741
 49
4.455
 74
       0
 49
-2.97
 74
       0
 49
1.188
 74
       0
 49
-2.97
 74
       0
 49
1.188
 74
       0
 49
-2.97
 74
       0
  0
LTYPE
  5
35
100
AcDbSymbolTableRecord
100
AcDbLinetypeTableRecord
  2
ACAD_ISO06W100
 70
      64
  3
CADPAC LINETYPE
 72
      65
 73
       8
 40
20.0475
 49
7.425
 74
       0
 49
-3.7125
 74
       0
 49
0.0
 74
       0
 49
-2.97
 74
       0
 49
0.0
 74
       0
 49
-2.97
 74
       0
 49
0.0
 74
       0
 49
-2.97
 74
       0
  0
LTYPE
  5
36
100
AcDbSymbolTableRecord
100
AcDbLinetypeTableRecord
  2
ACAD_ISO13W100
 70
      64
  3
CADPAC LINETYPE
 72
      65
 73
       8
 40
23.76
 49
5.94
 74
       0
 49
-2.97
 74
       0
 49
5.94
 74
       0
 49
-2.97
 74
       0
 49
0.0
 74
       0
 49
-2.97
 74
       0
 49
0.0
 74
       0
 49
-2.97
 74
       0
  0
LTYPE
  5
37
100
AcDbSymbolTableRecord
100
AcDbLinetypeTableRecord
  2
ACAD_ISO14W100
 70
      64
  3
CADPAC LINETYPE
 72
      65
 73
       8
 40
17.82
 49
5.94
 74
       0
 49
-2.97
 74
       0
 49
0.0
 74
       0
 49
-2.97
 74
       0
 49
0.0
 74
       0
 49
-2.97
 74
       0
 49
0.0
 74
       0
 49
-2.97
 74
       0
  0
ENDTAB
  0
TABLE
  2
LAYER
  5
2
100
AcDbSymbolTable
 70
       2
  0
LAYER
  5
14
100
AcDbSymbolTableRecord
100
AcDbLayerTableRecord
  2
0
 70
       0
 62
       7
  6
CONTINUOUS
  0
LAYER
  5
38
100
AcDbSymbolTableRecord
100
AcDbLayerTableRecord
  2
レイヤー_1
 70
       0
 62
       7
  6
CONTINUOUS
  0
ENDTAB
  0
TABLE
  2
STYLE
  5
3
100
AcDbSymbolTable
 70
       1
  0
STYLE
  5
17
100
AcDbSymbolTableRecord
100
AcDbTextStyleTableRecord
  2
STANDARD
 70
       0
 40
0.0
 41
0.8
 50
0.0
 71
       0
 42
5.0
  3
txt.shx
  4
bigfont.shx
  0
ENDTAB
  0
TABLE
  2
VIEW
  5
5
100
AcDbSymbolTable
 70
       1
  0
VIEW
  5
39
100
AcDbSymbolTableRecord
100
AcDbViewTableRecord
  2
QQQQ
 70
       0
 40
172.93907067
 10
17.47383845
 20
-21.76014902
 41
224.18581702
 11
0.0
 21
0.0
 31
1.0
 12
100.0
 22
100.0
 32
0.0
 42
50.0
 43
0.0
 44
0.0
 50
0.0
 71
       0
  0
ENDTAB
  0
TABLE
  2
UCS
  5
6
100
AcDbSymbolTable
 70
       0
  0
ENDTAB
  0
TABLE
  2
APPID
  5
8
100
AcDbSymbolTable
 70
       1
  0
APPID
  5
16
100
AcDbSymbolTableRecord
100
AcDbRegAppTableRecord
  2
ACAD
 70
       0
  0
ENDTAB
  0
TABLE
  2
DIMSTYLE
  5
9
100
AcDbSymbolTable
 70
       1
  0
DIMSTYLE
105
18
100
AcDbSymbolTableRecord
100
AcDbDimStyleTableRecord
  2
STANDARD
 70
       0
  3

  4

  5

  6

  7

 40
1.0
 41
0.18
 42
0.0625
 43
0.38
 44
0.18
 45
0.0
 46
0.0
 47
0.0
 48
0.0
 71
       0
 72
       0
 73
       1
 74
       1
 75
       0
 76
       0
 77
       0
 78
       0
140
0.18
141
0.09
142
0.0
143
25.4
144
1.0
145
0.0
146
1.0
147
0.09
170
       0
171
       2
172
       0
173
       0
174
       0
175
       0
176
       0
177
       0
178
       0
270
       2
271
       4
272
       4
273
       2
274
       2
275
       0
280
       0
281
       0
282
       0
283
       1
284
       0
285
       0
286
       0
287
       0
288
       0
340
17
  0
ENDTAB
  0
TABLE
  2
BLOCK_RECORD
  5
1
100
AcDbSymbolTable
 70
       0
  0
BLOCK_RECORD
  5
A
100
AcDbSymbolTableRecord
100
AcDbBlockTableRecord
  2
*MODEL_SPACE
  0
BLOCK_RECORD
  5
B
100
AcDbSymbolTableRecord
100
AcDbBlockTableRecord
  2
*PAPER_SPACE
  0
ENDTAB
  0
ENDSEC
  0
SECTION
  2
BLOCKS
  0
BLOCK
  5
D
100
AcDbEntity
  8
0
100
AcDbBlockBegin
  2
*MODEL_SPACE
 70
       0
 10
0.0
 20
0.0
 30
0.0
  3
*MODEL_SPACE
  1

  0
ENDBLK
  5
E
100
AcDbEntity
  8
0
100
AcDbBlockEnd
  0
BLOCK
  5
F
100
AcDbEntity
 67
       1
  8
0
100
AcDbBlockBegin
  2
*PAPER_SPACE
 70
       0
 10
0.0
 20
0.0
 30
0.0
  3
*PAPER_SPACE
  1

  0
ENDBLK
  5
10
100
AcDbEntity
 67
       1
  8
0
100
AcDbBlockEnd
  0
ENDSEC
  0
SECTION
  2
ENTITIES
  0
LINE
  5
3A
100
AcDbEntity
  8
レイヤー_1
  6
CONTINUOUS
 62
       3
100
AcDbLine
 10
26.41587179
 20
-45.99758493
 30
0.0
 11
83.34511006
 21
-45.99758493
 31
0.0
  0
LINE
  5
3B
100
AcDbEntity
  8
レイヤー_1
  6
CONTINUOUS
 62
       3
100
AcDbLine
 10
83.34511006
 20
-45.99758493
 30
0.0
 11
83.34511006
 21
-18.82156931
 31
0.0
  0
LINE
  5
3C
100
AcDbEntity
  8
レイヤー_1
  6
CONTINUOUS
 62
       3
100
AcDbLine
 10
83.34511006
 20
-18.82156931
 30
0.0
 11
80.36792744
 21
-18.82156931
 31
0.0
  0
LINE
  5
3D
100
AcDbEntity
  8
レイヤー_1
  6
CONTINUOUS
 62
       3
100
AcDbLine
 10
80.36792744
 20
-18.82156931
 30
0.0
 11
80.36792744
 21
16.5967339
 31
0.0
  0
LINE
  5
3E
100
AcDbEntity
  8
レイヤー_1
  6
CONTINUOUS
 62
       3
100
AcDbLine
 10
80.36792744
 20
16.5967339
 30
0.0
 11
83.34511006
 21
16.5967339
 31
0.0
  0
LINE
  5
3F
100
AcDbEntity
  8
レイヤー_1
  6
CONTINUOUS
 62
       3
100
AcDbLine
 10
83.34511006
 20
16.5967339
 30
0.0
 11
83.34511006
 21
43.77243946
 31
0.0
  0
LINE
  5
40
100
AcDbEntity
  8
レイヤー_1
  6
CONTINUOUS
 62
       3
100
AcDbLine
 10
83.34511006
 20
43.77243946
 30
0.0
 11
26.44191671
 21
43.77243946
 31
0.0
  0
LINE
  5
41
100
AcDbEntity
  8
レイヤー_1
  6
CONTINUOUS
 62
       3
100
AcDbLine
 10
26.44191671
 20
43.77243946
 30
0.0
 11
-5.25351297
 21
20.95739797
 31
0.0
  0
LINE
  5
42
100
AcDbEntity
  8
レイヤー_1
  6
CONTINUOUS
 62
       3
100
AcDbLine
 10
-5.25351297
 20
20.95739797
 30
0.0
 11
-5.25351297
 21
-23.10316843
 31
0.0
  0
LINE
  5
43
100
AcDbEntity
  8
レイヤー_1
  6
CONTINUOUS
 62
       3
100
AcDbLine
 10
-5.25351297
 20
-23.10316843
 30
0.0
 11
26.41587179
 21
-45.99758493
 31
0.0
  0
LINE
  5
44
100
AcDbEntity
  8
レイヤー_1
  6
CONTINUOUS
 62
       3
100
AcDbLine
 10
-1.79666971
 20
-50.88162789
 30
0.0
 11
-1.79666971
 21
-53.16831002
 31
0.0
  0
LINE
  5
45
100
AcDbEntity
  8
レイヤー_1
  6
CONTINUOUS
 62
       3
100
AcDbLine
 10
-1.79666971
 20
-53.16831002
 30
0.0
 11
-1.26522928
 21
-53.16831002
 31
0.0
  0
LINE
  5
46
100
AcDbEntity
  8
レイヤー_1
  6
CONTINUOUS
 62
       3
100
AcDbLine
 10
-1.26522928
 20
-53.16831002
 30
0.0
 11
-1.26522928
 21
-52.74290963
 31
0.0
  0
LINE
  5
47
100
AcDbEntity
  8
レイヤー_1
  6
CONTINUOUS
 62
       3
100
AcDbLine
 10
-1.26522928
 20
-52.74290963
 30
0.0
 11
0.86208274
 21
-52.95560983
 31
0.0
  0
LINE
  5
48
100
AcDbEntity
  8
レイヤー_1
  6
CONTINUOUS
 62
       3
100
AcDbLine
 10
-1.79666971
 20
48.55881397
 30
0.0
 11
-1.79666971
 21
50.84518604
 31
0.0
  0
LINE
  5
49
100
AcDbEntity
  8
レイヤー_1
  6
CONTINUOUS
 62
       3
100
AcDbLine
 10
-1.79666971
 20
50.84518604
 30
0.0
 11
-1.26522928
 21
50.84518604
 31
0.0
  0
LINE
  5
4A
100
AcDbEntity
  8
レイヤー_1
  6
CONTINUOUS
 62
       3
100
AcDbLine
 10
-1.26522928
 20
50.84518604
 30
0.0
 11
-1.26522928
 21
50.41978565
 31
0.0
  0
LINE
  5
4B
100
AcDbEntity
  8
レイヤー_1
  6
CONTINUOUS
 62
       3
100
AcDbLine
 10
-1.26522928
 20
50.41978565
 30
0.0
 11
0.86208274
 21
50.63248585
 31
0.0
  0
LINE
  5
4C
100
AcDbEntity
  8
レイヤー_1
  6
CONTINUOUS
 62
       3
100
AcDbLine
 10
83.34511006
 20
34.54540578
 30
0.0
 11
42.43225851
 21
34.54540578
 31
0.0
  0
LINE
  5
4D
100
AcDbEntity
  8
レイヤー_1
  6
CONTINUOUS
 62
       3
100
AcDbLine
 10
42.43225851
 20
34.54540578
 30
0.0
 11
12.40514757
 21
51.87905568
 31
0.0
  0
LINE
  5
4E
100
AcDbEntity
  8
レイヤー_1
  6
CONTINUOUS
 62
       3
100
AcDbLine
 10
12.47111322
 20
-54.12094432
 30
0.0
 11
42.43225851
 21
-36.6465278
 31
0.0
  0
LINE
  5
4F
100
AcDbEntity
  8
レイヤー_1
  6
CONTINUOUS
 62
       3
100
AcDbLine
 10
42.43225851
 20
-36.6465278
 30
0.0
 11
83.34511006
 21
-36.6465278
 31
0.0
  0
LINE
  5
50
100
AcDbEntity
  8
レイヤー_1
  6
CONTINUOUS
 62
       3
100
AcDbLine
 10
81.37809834
 20
-18.82187937
 30
0.0
 11
81.4847585
 21
-17.27995798
 31
0.0
  0
LINE
  5
51
100
AcDbEntity
  8
レイヤー_1
  6
CONTINUOUS
 62
       3
100
AcDbLine
 10
81.4847585
 20
-17.27995798
 30
0.0
 11
81.85620869
 21
-17.27995798
 31
0.0
  0
LINE
  5
52
100
AcDbEntity
  8
レイヤー_1
  6
CONTINUOUS
 62
       3
100
AcDbLine
 10
81.85620869
 20
-17.27995798
 30
0.0
 11
83.34511006
 21
-18.82187937
 31
0.0
  0
LINE
  5
53
100
AcDbEntity
  8
レイヤー_1
  6
CONTINUOUS
 62
       3
100
AcDbLine
 10
81.37809834
 20
16.5967339
 30
0.0
 11
81.4847585
 21
15.0541924
 31
0.0
  0
LINE
  5
54
100
AcDbEntity
  8
レイヤー_1
  6
CONTINUOUS
 62
       3
100
AcDbLine
 10
81.4847585
 20
15.0541924
 30
0.0
 11
81.85620869
 21
15.0541924
 31
0.0
  0
LINE
  5
55
100
AcDbEntity
  8
レイヤー_1
  6
CONTINUOUS
 62
       3
100
AcDbLine
 10
81.85620869
 20
15.0541924
 30
0.0
 11
83.34511006
 21
16.5967339
 31
0.0
  0
LINE
  5
56
100
AcDbEntity
  8
レイヤー_1
  6
CONTINUOUS
 62
       3
100
AcDbLine
 10
-63.77521217
 20
50.82782276
 30
0.0
 11
-78.77212623
 21
50.82782276
 31
0.0
  0
LINE
  5
57
100
AcDbEntity
  8
レイヤー_1
  6
CONTINUOUS
 62
       3
100
AcDbLine
 10
-80.24335426
 20
29.91871144
 30
0.0
 11
-62.26832741
 21
29.91871144
 31
0.0
  0
LINE
  5
58
100
AcDbEntity
  8
レイヤー_1
  6
CONTINUOUS
 62
       3
100
AcDbLine
 10
-80.24335426
 20
-32.09114694
 30
0.0
 11
-62.26832741
 21
-32.09114694
 31
0.0
  0
LINE
  5
59
100
AcDbEntity
  8
レイヤー_1
  6
CONTINUOUS
 62
       3
100
AcDbLine
 10
-78.75414283
 20
-53.16986032
 30
0.0
 11
-63.75753883
 21
-53.16986032
 31
0.0
  0
LINE
  5
5A
100
AcDbEntity
  8
レイヤー_1
  6
CONTINUOUS
 62
       3
100
AcDbLine
 10
-63.75753883
 20
-33.89878854
 30
0.0
 11
-63.75753883
 21
-54.12094432
 31
0.0
  0
LINE
  5
5B
100
AcDbEntity
  8
レイヤー_1
  6
CONTINUOUS
 62
       3
100
AcDbLine
 10
-63.75753883
 20
51.87905568
 30
0.0
 11
-63.75753883
 21
31.6742632
 31
0.0
  0
LINE
  5
5C
100
AcDbEntity
  8
レイヤー_1
  6
CONTINUOUS
 62
       3
100
AcDbLine
 10
-63.75753883
 20
31.6742632
 30
0.0
 11
-78.75414283
 21
31.6742632
 31
0.0
  0
LINE
  5
5D
100
AcDbEntity
  8
レイヤー_1
  6
CONTINUOUS
 62
       3
100
AcDbLine
 10
-78.75414283
 20
31.6742632
 30
0.0
 11
-78.75414283
 21
51.87905568
 31
0.0
  0
LINE
  5
5E
100
AcDbEntity
  8
レイヤー_1
  6
CONTINUOUS
 62
       3
100
AcDbLine
 10
-78.75414283
 20
-54.12094432
 30
0.0
 11
-78.75414283
 21
-33.89878854
 31
0.0
  0
LINE
  5
5F
100
AcDbEntity
  8
レイヤー_1
  6
CONTINUOUS
 62
       3
100
AcDbLine
 10
-78.75414283
 20
-33.89878854
 30
0.0
 11
-63.75753883
 21
-33.89878854
 31
0.0
  0
LINE
  5
60
100
AcDbEntity
  8
レイヤー_1
  6
CONTINUOUS
 62
       3
100
AcDbLine
 10
-63.74854713
 20
40.82967335
 30
0.0
 11
-78.74546119
 21
40.82967335
 31
0.0
  0
LINE
  5
61
100
AcDbEntity
  8
レイヤー_1
  6
CONTINUOUS
 62
       3
100
AcDbLine
 10
-67.21872291
 20
48.84964894
 30
0.0
 11
-65.19838112
 21
48.84964894
 31
0.0
  0
LINE
  5
62
100
AcDbEntity
  8
レイヤー_1
  6
CONTINUOUS
 62
       3
100
AcDbLine
 10
-65.19838112
 20
48.84964894
 30
0.0
 11
-65.19838112
 21
49.86012989
 31
0.0
  0
LINE
  5
63
100
AcDbEntity
  8
レイヤー_1
  6
CONTINUOUS
 62
       3
100
AcDbLine
 10
-65.19838112
 20
49.86012989
 30
0.0
 11
-67.21872291
 21
49.86012989
 31
0.0
  0
LINE
  5
64
100
AcDbEntity
  8
レイヤー_1
  6
CONTINUOUS
 62
       3
100
AcDbLine
 10
-67.21872291
 20
49.86012989
 30
0.0
 11
-67.21872291
 21
48.84964894
 31
0.0
  0
LINE
  5
65
100
AcDbEntity
  8
レイヤー_1
  6
CONTINUOUS
 62
       3
100
AcDbLine
 10
-72.28415016
 20
48.84964894
 30
0.0
 11
-70.26287818
 21
48.84964894
 31
0.0
  0
LINE
  5
66
100
AcDbEntity
  8
レイヤー_1
  6
CONTINUOUS
 62
       3
100
AcDbLine
 10
-70.26287818
 20
48.84964894
 30
0.0
 11
-70.26287818
 21
49.86012989
 31
0.0
  0
LINE
  5
67
100
AcDbEntity
  8
レイヤー_1
  6
CONTINUOUS
 62
       3
100
AcDbLine
 10
-70.26287818
 20
49.86012989
 30
0.0
 11
-72.28415016
 21
49.86012989
 31
0.0
  0
LINE
  5
68
100
AcDbEntity
  8
レイヤー_1
  6
CONTINUOUS
 62
       3
100
AcDbLine
 10
-72.28415016
 20
49.86012989
 30
0.0
 11
-72.28415016
 21
48.84964894
 31
0.0
  0
LINE
  5
69
100
AcDbEntity
  8
レイヤー_1
  6
CONTINUOUS
 62
       3
100
AcDbLine
 10
-77.34895728
 20
48.84964894
 30
0.0
 11
-75.32830543
 21
48.84964894
 31
0.0
  0
LINE
  5
6A
100
AcDbEntity
  8
レイヤー_1
  6
CONTINUOUS
 62
       3
100
AcDbLine
 10
-75.32830543
 20
48.84964894
 30
0.0
 11
-75.32830543
 21
49.86012989
 31
0.0
  0
LINE
  5
6B
100
AcDbEntity
  8
レイヤー_1
  6
CONTINUOUS
 62
       3
100
AcDbLine
 10
-75.32830543
 20
49.86012989
 30
0.0
 11
-77.34895728
 21
49.86012989
 31
0.0
  0
LINE
  5
6C
100
AcDbEntity
  8
レイヤー_1
  6
CONTINUOUS
 62
       3
100
AcDbLine
 10
-77.34895728
 20
49.86012989
 30
0.0
 11
-77.34895728
 21
48.84964894
 31
0.0
  0
LINE
  5
6D
100
AcDbEntity
  8
レイヤー_1
  6
CONTINUOUS
 62
       3
100
AcDbLine
 10
-75.31063209
 20
-40.98951852
 30
0.0
 11
-77.33190406
 21
-40.98951852
 31
0.0
  0
LINE
  5
6E
100
AcDbEntity
  8
レイヤー_1
  6
CONTINUOUS
 62
       3
100
AcDbLine
 10
-77.33190406
 20
-40.98951852
 30
0.0
 11
-77.33190406
 21
-42.00030954
 31
0.0
  0
LINE
  5
6F
100
AcDbEntity
  8
レイヤー_1
  6
CONTINUOUS
 62
       3
100
AcDbLine
 10
-77.33190406
 20
-42.00030954
 30
0.0
 11
-75.31063209
 21
-42.00030954
 31
0.0
  0
LINE
  5
70
100
AcDbEntity
  8
レイヤー_1
  6
CONTINUOUS
 62
       3
100
AcDbLine
 10
-75.31063209
 20
-42.00030954
 30
0.0
 11
-75.31063209
 21
-40.98951852
 31
0.0
  0
LINE
  5
71
100
AcDbEntity
  8
レイヤー_1
  6
CONTINUOUS
 62
       3
100
AcDbLine
 10
-70.24520484
 20
-40.98951852
 30
0.0
 11
-72.2658567
 21
-40.98951852
 31
0.0
  0
LINE
  5
72
100
AcDbEntity
  8
レイヤー_1
  6
CONTINUOUS
 62
       3
100
AcDbLine
 10
-72.2658567
 20
-40.98951852
 30
0.0
 11
-72.2658567
 21
-42.00030954
 31
0.0
  0
LINE
  5
73
100
AcDbEntity
  8
レイヤー_1
  6
CONTINUOUS
 62
       3
100
AcDbLine
 10
-72.2658567
 20
-42.00030954
 30
0.0
 11
-70.24520484
 21
-42.00030954
 31
0.0
  0
LINE
  5
74
100
AcDbEntity
  8
レイヤー_1
  6
CONTINUOUS
 62
       3
100
AcDbLine
 10
-70.24520484
 20
-42.00030954
 30
0.0
 11
-70.24520484
 21
-40.98951852
 31
0.0
  0
LINE
  5
75
100
AcDbEntity
  8
レイヤー_1
  6
CONTINUOUS
 62
       3
100
AcDbLine
 10
-65.1797776
 20
-40.98951852
 30
0.0
 11
-67.20104957
 21
-40.98951852
 31
0.0
  0
LINE
  5
76
100
AcDbEntity
  8
レイヤー_1
  6
CONTINUOUS
 62
       3
100
AcDbLine
 10
-67.20104957
 20
-40.98951852
 30
0.0
 11
-67.20104957
 21
-42.00030954
 31
0.0
  0
LINE
  5
77
100
AcDbEntity
  8
レイヤー_1
  6
CONTINUOUS
 62
       3
100
AcDbLine
 10
-67.20104957
 20
-42.00030954
 30
0.0
 11
-65.1797776
 21
-42.00030954
 31
0.0
  0
LINE
  5
78
100
AcDbEntity
  8
レイヤー_1
  6
CONTINUOUS
 62
       3
100
AcDbLine
 10
-65.1797776
 20
-42.00030954
 30
0.0
 11
-65.1797776
 21
-40.98951852
 31
0.0
  0
LINE
  5
79
100
AcDbEntity
  8
レイヤー_1
  6
CONTINUOUS
 62
       3
100
AcDbLine
 10
-78.75414283
 20
-43.25201608
 30
0.0
 11
-63.75753883
 21
-43.25201608
 31
0.0
  0
LINE
  5
7A
100
AcDbEntity
  8
レイヤー_1
  6
CONTINUOUS
 62
       3
100
AcDbLine
 10
-75.31063209
 20
-50.90798288
 30
0.0
 11
-77.33190406
 21
-50.90798288
 31
0.0
  0
LINE
  5
7B
100
AcDbEntity
  8
レイヤー_1
  6
CONTINUOUS
 62
       3
100
AcDbLine
 10
-77.33190406
 20
-50.90798288
 30
0.0
 11
-77.33190406
 21
-51.91846383
 31
0.0
  0
LINE
  5
7C
100
AcDbEntity
  8
レイヤー_1
  6
CONTINUOUS
 62
       3
100
AcDbLine
 10
-77.33190406
 20
-51.91846383
 30
0.0
 11
-75.31063209
 21
-51.91846383
 31
0.0
  0
LINE
  5
7D
100
AcDbEntity
  8
レイヤー_1
  6
CONTINUOUS
 62
       3
100
AcDbLine
 10
-75.31063209
 20
-51.91846383
 30
0.0
 11
-75.31063209
 21
-50.90798288
 31
0.0
  0
LINE
  5
7E
100
AcDbEntity
  8
レイヤー_1
  6
CONTINUOUS
 62
       3
100
AcDbLine
 10
-70.24520484
 20
-50.90798288
 30
0.0
 11
-72.2658567
 21
-50.90798288
 31
0.0
  0
LINE
  5
7F
100
AcDbEntity
  8
レイヤー_1
  6
CONTINUOUS
 62
       3
100
AcDbLine
 10
-72.2658567
 20
-50.90798288
 30
0.0
 11
-72.2658567
 21
-51.91846383
 31
0.0
  0
LINE
  5
80
100
AcDbEntity
  8
レイヤー_1
  6
CONTINUOUS
 62
       3
100
AcDbLine
 10
-72.2658567
 20
-51.91846383
 30
0.0
 11
-70.24520484
 21
-51.91846383
 31
0.0
  0
LINE
  5
81
100
AcDbEntity
  8
レイヤー_1
  6
CONTINUOUS
 62
       3
100
AcDbLine
 10
-70.24520484
 20
-51.91846383
 30
0.0
 11
-70.24520484
 21
-50.90798288
 31
0.0
  0
LINE
  5
82
100
AcDbEntity
  8
レイヤー_1
  6
CONTINUOUS
 62
       3
100
AcDbLine
 10
-65.1797776
 20
-50.90798288
 30
0.0
 11
-67.20104957
 21
-50.90798288
 31
0.0
  0
LINE
  5
83
100
AcDbEntity
  8
レイヤー_1
  6
CONTINUOUS
 62
       3
100
AcDbLine
 10
-67.20104957
 20
-50.90798288
 30
0.0
 11
-67.20104957
 21
-51.91846383
 31
0.0
  0
LINE
  5
84
100
AcDbEntity
  8
レイヤー_1
  6
CONTINUOUS
 62
       3
100
AcDbLine
 10
-67.20104957
 20
-51.91846383
 30
0.0
 11
-65.1797776
 21
-51.91846383
 31
0.0
  0
LINE
  5
85
100
AcDbEntity
  8
レイヤー_1
  6
CONTINUOUS
 62
       3
100
AcDbLine
 10
-65.1797776
 20
-51.91846383
 30
0.0
 11
-65.1797776
 21
-50.90798288
 31
0.0
  0
LINE
  5
86
100
AcDbEntity
  8
レイヤー_1
  6
CONTINUOUS
 62
       3
100
AcDbLine
 10
-63.76311989
 20
28.84838917
 30
0.0
 11
-78.74794166
 21
28.84838917
 31
0.0
  0
LINE
  5
87
100
AcDbEntity
  8
レイヤー_1
  6
CONTINUOUS
 62
       3
100
AcDbLine
 10
-78.74794166
 20
28.84838917
 30
0.0
 11
-78.74794166
 21
-31.0902778
 31
0.0
  0
LINE
  5
88
100
AcDbEntity
  8
レイヤー_1
  6
CONTINUOUS
 62
       3
100
AcDbLine
 10
-78.74794166
 20
-31.0902778
 30
0.0
 11
-63.76311989
 21
-31.0902778
 31
0.0
  0
LINE
  5
89
100
AcDbEntity
  8
レイヤー_1
  6
CONTINUOUS
 62
       3
100
AcDbLine
 10
-63.76311989
 20
-31.0902778
 30
0.0
 11
-63.76311989
 21
28.84838917
 31
0.0
  0
LINE
  5
8A
100
AcDbEntity
  8
レイヤー_1
  6
CONTINUOUS
 62
       3
100
AcDbLine
 10
-67.21872291
 20
38.56748585
 30
0.0
 11
-65.19838112
 21
38.56748585
 31
0.0
  0
LINE
  5
8B
100
AcDbEntity
  8
レイヤー_1
  6
CONTINUOUS
 62
       3
100
AcDbLine
 10
-65.19838112
 20
38.56748585
 30
0.0
 11
-65.19838112
 21
39.57765675
 31
0.0
  0
LINE
  5
8C
100
AcDbEntity
  8
レイヤー_1
  6
CONTINUOUS
 62
       3
100
AcDbLine
 10
-65.19838112
 20
39.57765675
 30
0.0
 11
-67.21872291
 21
39.57765675
 31
0.0
  0
LINE
  5
8D
100
AcDbEntity
  8
レイヤー_1
  6
CONTINUOUS
 62
       3
100
AcDbLine
 10
-67.21872291
 20
39.57765675
 30
0.0
 11
-67.21872291
 21
38.56748585
 31
0.0
  0
LINE
  5
8E
100
AcDbEntity
  8
レイヤー_1
  6
CONTINUOUS
 62
       3
100
AcDbLine
 10
-72.28415016
 20
38.56748585
 30
0.0
 11
-70.26318824
 21
38.56748585
 31
0.0
  0
LINE
  5
8F
100
AcDbEntity
  8
レイヤー_1
  6
CONTINUOUS
 62
       3
100
AcDbLine
 10
-70.26318824
 20
38.56748585
 30
0.0
 11
-70.26318824
 21
39.57765675
 31
0.0
  0
LINE
  5
90
100
AcDbEntity
  8
レイヤー_1
  6
CONTINUOUS
 62
       3
100
AcDbLine
 10
-70.26318824
 20
39.57765675
 30
0.0
 11
-72.28415016
 21
39.57765675
 31
0.0
  0
LINE
  5
91
100
AcDbEntity
  8
レイヤー_1
  6
CONTINUOUS
 62
       3
100
AcDbLine
 10
-72.28415016
 20
39.57765675
 30
0.0
 11
-72.28415016
 21
38.56748585
 31
0.0
  0
LINE
  5
92
100
AcDbEntity
  8
レイヤー_1
  6
CONTINUOUS
 62
       3
100
AcDbLine
 10
-77.34895728
 20
38.56748585
 30
0.0
 11
-75.32861549
 21
38.56748585
 31
0.0
  0
LINE
  5
93
100
AcDbEntity
  8
レイヤー_1
  6
CONTINUOUS
 62
       3
100
AcDbLine
 10
-75.32861549
 20
38.56748585
 30
0.0
 11
-75.32861549
 21
39.57765675
 31
0.0
  0
LINE
  5
94
100
AcDbEntity
  8
レイヤー_1
  6
CONTINUOUS
 62
       3
100
AcDbLine
 10
-75.32861549
 20
39.57765675
 30
0.0
 11
-77.34895728
 21
39.57765675
 31
0.0
  0
LINE
  5
95
100
AcDbEntity
  8
レイヤー_1
  6
CONTINUOUS
 62
       3
100
AcDbLine
 10
-77.34895728
 20
39.57765675
 30
0.0
 11
-77.34895728
 21
38.56748585
 31
0.0
  0
LINE
  5
96
100
AcDbEntity
  8
レイヤー_1
  6
CONTINUOUS
 62
       3
100
AcDbLine
 10
-17.69833474
 20
-38.89786325
 30
0.0
 11
-17.69833474
 21
-43.17016061
 31
0.0
  0
LINE
  5
97
100
AcDbEntity
  8
レイヤー_1
  6
CONTINUOUS
 62
       3
100
AcDbLine
 10
-17.69833474
 20
-43.17016061
 30
0.0
 11
-17.21960427
 21
-43.17016061
 31
0.0
  0
LINE
  5
98
100
AcDbEntity
  8
レイヤー_1
  6
CONTINUOUS
 62
       3
100
AcDbLine
 10
-17.21960427
 20
-43.17016061
 30
0.0
 11
-17.21960427
 21
-42.7980903
 31
0.0
  0
LINE
  5
99
100
AcDbEntity
  8
レイヤー_1
  6
CONTINUOUS
 62
       3
100
AcDbLine
 10
-17.21960427
 20
-42.7980903
 30
0.0
 11
-12.75228005
 21
-43.17016061
 31
0.0
  0
LINE
  5
9A
100
AcDbEntity
  8
レイヤー_1
  6
CONTINUOUS
 62
       3
100
AcDbLine
 10
-12.75228005
 20
-43.17016061
 30
0.0
 11
-12.75228005
 21
-43.48952096
 31
0.0
  0
LINE
  5
9B
100
AcDbEntity
  8
レイヤー_1
  6
CONTINUOUS
 62
       3
100
AcDbLine
 10
-12.75228005
 20
-43.48952096
 30
0.0
 11
-11.635449
 21
-43.48952096
 31
0.0
  0
LINE
  5
9C
100
AcDbEntity
  8
レイヤー_1
  6
CONTINUOUS
 62
       3
100
AcDbLine
 10
-17.69833474
 20
36.70837452
 30
0.0
 11
-17.69833474
 21
40.84703663
 31
0.0
  0
LINE
  5
9D
100
AcDbEntity
  8
レイヤー_1
  6
CONTINUOUS
 62
       3
100
AcDbLine
 10
-17.69833474
 20
40.84703663
 30
0.0
 11
-17.21960427
 21
40.84703663
 31
0.0
  0
LINE
  5
9E
100
AcDbEntity
  8
レイヤー_1
  6
CONTINUOUS
 62
       3
100
AcDbLine
 10
-17.21960427
 20
40.84703663
 30
0.0
 11
-17.21960427
 21
40.47496632
 31
0.0
  0
LINE
  5
9F
100
AcDbEntity
  8
レイヤー_1
  6
CONTINUOUS
 62
       3
100
AcDbLine
 10
-17.21960427
 20
40.47496632
 30
0.0
 11
-12.75228005
 21
40.84703663
 31
0.0
  0
LINE
  5
A0
100
AcDbEntity
  8
レイヤー_1
  6
CONTINUOUS
 62
       3
100
AcDbLine
 10
-12.75228005
 20
40.84703663
 30
0.0
 11
-12.75228005
 21
41.16670704
 31
0.0
  0
LINE
  5
A1
100
AcDbEntity
  8
レイヤー_1
  6
CONTINUOUS
 62
       3
100
AcDbLine
 10
-12.75228005
 20
41.16670704
 30
0.0
 11
-11.635449
 21
41.16670704
 31
0.0
  0
LINE
  5
A2
100
AcDbEntity
  8
レイヤー_1
  6
CONTINUOUS
 62
       3
100
AcDbLine
 10
22.08125265
 20
-1.85702342
 30
0.0
 11
22.06453159
 21
-1.85509721
 31
0.0
  0
LINE
  5
A3
100
AcDbEntity
  8
レイヤー_1
  6
CONTINUOUS
 62
       3
100
AcDbLine
 10
22.06453159
 20
-1.85509721
 30
0.0
 11
22.01727642
 21
-1.84908422
 31
0.0
  0
LINE
  5
A4
100
AcDbEntity
  8
レイヤー_1
  6
CONTINUOUS
 62
       3
100
AcDbLine
 10
22.01727642
 20
-1.84908422
 30
0.0
 11
21.94384916
 21
-1.83863291
 31
0.0
  0
LINE
  5
A5
100
AcDbEntity
  8
レイヤー_1
  6
CONTINUOUS
 62
       3
100
AcDbLine
 10
21.94384916
 20
-1.83863291
 30
0.0
 11
21.84861181
 21
-1.82339175
 31
0.0
  0
LINE
  5
A6
100
AcDbEntity
  8
レイヤー_1
  6
CONTINUOUS
 62
       3
100
AcDbLine
 10
21.84861181
 20
-1.82339175
 30
0.0
 11
21.73592641
 21
-1.80300918
 31
0.0
  0
LINE
  5
A7
100
AcDbEntity
  8
レイヤー_1
  6
CONTINUOUS
 62
       3
100
AcDbLine
 10
21.73592641
 20
-1.80300918
 30
0.0
 11
21.61015495
 21
-1.77713367
 31
0.0
  0
LINE
  5
A8
100
AcDbEntity
  8
レイヤー_1
  6
CONTINUOUS
 62
       3
100
AcDbLine
 10
21.61015495
 20
-1.77713367
 30
0.0
 11
21.47565947
 21
-1.74541368
 31
0.0
  0
LINE
  5
A9
100
AcDbEntity
  8
レイヤー_1
  6
CONTINUOUS
 62
       3
100
AcDbLine
 10
21.47565947
 20
-1.74541368
 30
0.0
 11
21.33680197
 21
-1.70749766
 31
0.0
  0
LINE
  5
AA
100
AcDbEntity
  8
レイヤー_1
  6
CONTINUOUS
 62
       3
100
AcDbLine
 10
21.33680197
 20
-1.70749766
 30
0.0
 11
21.19794447
 21
-1.66303407
 31
0.0
  0
LINE
  5
AB
100
AcDbEntity
  8
レイヤー_1
  6
CONTINUOUS
 62
       3
100
AcDbLine
 10
21.19794447
 20
-1.66303407
 30
0.0
 11
21.06344898
 21
-1.61167139
 31
0.0
  0
LINE
  5
AC
100
AcDbEntity
  8
レイヤー_1
  6
CONTINUOUS
 62
       3
100
AcDbLine
 10
21.06344898
 20
-1.61167139
 30
0.0
 11
20.93767753
 21
-1.55305805
 31
0.0
  0
LINE
  5
AD
100
AcDbEntity
  8
レイヤー_1
  6
CONTINUOUS
 62
       3
100
AcDbLine
 10
20.93767753
 20
-1.55305805
 30
0.0
 11
20.82499212
 21
-1.48684252
 31
0.0
  0
LINE
  5
AE
100
AcDbEntity
  8
レイヤー_1
  6
CONTINUOUS
 62
       3
100
AcDbLine
 10
20.82499212
 20
-1.48684252
 30
0.0
 11
20.72975478
 21
-1.41267327
 31
0.0
  0
LINE
  5
AF
100
AcDbEntity
  8
レイヤー_1
  6
CONTINUOUS
 62
       3
100
AcDbLine
 10
20.72975478
 20
-1.41267327
 30
0.0
 11
20.65632752
 21
-1.33019874
 31
0.0
  0
LINE
  5
B0
100
AcDbEntity
  8
レイヤー_1
  6
CONTINUOUS
 62
       3
100
AcDbLine
 10
20.65632752
 20
-1.33019874
 30
0.0
 11
20.60907235
 21
-1.2390674
 31
0.0
  0
LINE
  5
B1
100
AcDbEntity
  8
レイヤー_1
  6
CONTINUOUS
 62
       3
100
AcDbLine
 10
20.60907235
 20
-1.2390674
 30
0.0
 11
20.59235128
 21
-1.13892771
 31
0.0
  0
LINE
  5
B2
100
AcDbEntity
  8
レイヤー_1
  6
CONTINUOUS
 62
       3
100
AcDbLine
 10
20.59235128
 20
-1.13892771
 30
0.0
 11
20.60907235
 21
-1.03829826
 31
0.0
  0
LINE
  5
B3
100
AcDbEntity
  8
レイヤー_1
  6
CONTINUOUS
 62
       3
100
AcDbLine
 10
20.60907235
 20
-1.03829826
 30
0.0
 11
20.65632752
 21
-0.94556984
 31
0.0
  0
LINE
  5
B4
100
AcDbEntity
  8
レイヤー_1
  6
CONTINUOUS
 62
       3
100
AcDbLine
 10
20.65632752
 20
-0.94556984
 30
0.0
 11
20.72975478
 21
-0.86054808
 31
0.0
  0
LINE
  5
B5
100
AcDbEntity
  8
レイヤー_1
  6
CONTINUOUS
 62
       3
100
AcDbLine
 10
20.72975478
 20
-0.86054808
 30
0.0
 11
20.82499212
 21
-0.78303858
 31
0.0
  0
LINE
  5
B6
100
AcDbEntity
  8
レイヤー_1
  6
CONTINUOUS
 62
       3
100
AcDbLine
 10
20.82499212
 20
-0.78303858
 30
0.0
 11
20.93767753
 21
-0.71284695
 31
0.0
  0
LINE
  5
B7
100
AcDbEntity
  8
レイヤー_1
  6
CONTINUOUS
 62
       3
100
AcDbLine
 10
20.93767753
 20
-0.71284695
 30
0.0
 11
21.06344898
 21
-0.64977879
 31
0.0
  0
LINE
  5
B8
100
AcDbEntity
  8
レイヤー_1
  6
CONTINUOUS
 62
       3
100
AcDbLine
 10
21.06344898
 20
-0.64977879
 30
0.0
 11
21.19794447
 21
-0.59363971
 31
0.0
  0
LINE
  5
B9
100
AcDbEntity
  8
レイヤー_1
  6
CONTINUOUS
 62
       3
100
AcDbLine
 10
21.19794447
 20
-0.59363971
 30
0.0
 11
21.33680197
 21
-0.54423533
 31
0.0
  0
LINE
  5
BA
100
AcDbEntity
  8
レイヤー_1
  6
CONTINUOUS
 62
       3
100
AcDbLine
 10
21.33680197
 20
-0.54423533
 30
0.0
 11
21.47565947
 21
-0.50137124
 31
0.0
  0
LINE
  5
BB
100
AcDbEntity
  8
レイヤー_1
  6
CONTINUOUS
 62
       3
100
AcDbLine
 10
21.47565947
 20
-0.50137124
 30
0.0
 11
21.61015495
 21
-0.46485306
 31
0.0
  0
LINE
  5
BC
100
AcDbEntity
  8
レイヤー_1
  6
CONTINUOUS
 62
       3
100
AcDbLine
 10
21.61015495
 20
-0.46485306
 30
0.0
 11
21.73592641
 21
-0.4344864
 31
0.0
  0
LINE
  5
BD
100
AcDbEntity
  8
レイヤー_1
  6
CONTINUOUS
 62
       3
100
AcDbLine
 10
21.73592641
 20
-0.4344864
 30
0.0
 11
21.84861181
 21
-0.41007685
 31
0.0
  0
LINE
  5
BE
100
AcDbEntity
  8
レイヤー_1
  6
CONTINUOUS
 62
       3
100
AcDbLine
 10
21.84861181
 20
-0.41007685
 30
0.0
 11
21.94384916
 21
-0.39143004
 31
0.0
  0
LINE
  5
BF
100
AcDbEntity
  8
レイヤー_1
  6
CONTINUOUS
 62
       3
100
AcDbLine
 10
21.94384916
 20
-0.39143004
 30
0.0
 11
22.01727642
 21
-0.37835156
 31
0.0
  0
LINE
  5
C0
100
AcDbEntity
  8
レイヤー_1
  6
CONTINUOUS
 62
       3
100
AcDbLine
 10
22.01727642
 20
-0.37835156
 30
0.0
 11
22.06453159
 21
-0.37064703
 31
0.0
  0
LINE
  5
C1
100
AcDbEntity
  8
レイヤー_1
  6
CONTINUOUS
 62
       3
100
AcDbLine
 10
22.06453159
 20
-0.37064703
 30
0.0
 11
22.08125265
 21
-0.36812205
 31
0.0
  0
LINE
  5
C2
100
AcDbEntity
  8
レイヤー_1
  6
CONTINUOUS
 62
       3
100
AcDbLine
 10
22.08125265
 20
-0.36812205
 30
0.0
 11
22.73583933
 21
-0.36812205
 31
0.0
  0
LINE
  5
C3
100
AcDbEntity
  8
レイヤー_1
  6
CONTINUOUS
 62
       3
100
AcDbLine
 10
22.73583933
 20
-0.36812205
 30
0.0
 11
24.58575821
 21
-0.36812205
 31
0.0
  0
LINE
  5
C4
100
AcDbEntity
  8
レイヤー_1
  6
CONTINUOUS
 62
       3
100
AcDbLine
 10
24.58575821
 20
-0.36812205
 30
0.0
 11
27.46024754
 21
-0.36812205
 31
0.0
  0
LINE
  5
C5
100
AcDbEntity
  8
レイヤー_1
  6
CONTINUOUS
 62
       3
100
AcDbLine
 10
27.46024754
 20
-0.36812205
 30
0.0
 11
31.18854559
 21
-0.36812205
 31
0.0
  0
LINE
  5
C6
100
AcDbEntity
  8
レイヤー_1
  6
CONTINUOUS
 62
       3
100
AcDbLine
 10
31.18854559
 20
-0.36812205
 30
0.0
 11
35.5998906
 21
-0.36812205
 31
0.0
  0
LINE
  5
C7
100
AcDbEntity
  8
レイヤー_1
  6
CONTINUOUS
 62
       3
100
AcDbLine
 10
35.5998906
 20
-0.36812205
 30
0.0
 11
40.52352085
 21
-0.36812205
 31
0.0
  0
LINE
  5
C8
100
AcDbEntity
  8
レイヤー_1
  6
CONTINUOUS
 62
       3
100
AcDbLine
 10
40.52352085
 20
-0.36812205
 30
0.0
 11
45.78867458
 21
-0.36812205
 31
0.0
  0
LINE
  5
C9
100
AcDbEntity
  8
レイヤー_1
  6
CONTINUOUS
 62
       3
100
AcDbLine
 10
45.78867458
 20
-0.36812205
 30
0.0
 11
51.22459005
 21
-0.36812205
 31
0.0
  0
LINE
  5
CA
100
AcDbEntity
  8
レイヤー_1
  6
CONTINUOUS
 62
       3
100
AcDbLine
 10
51.22459005
 20
-0.36812205
 30
0.0
 11
56.66050552
 21
-0.36812205
 31
0.0
  0
LINE
  5
CB
100
AcDbEntity
  8
レイヤー_1
  6
CONTINUOUS
 62
       3
100
AcDbLine
 10
56.66050552
 20
-0.36812205
 30
0.0
 11
61.92565925
 21
-0.36812205
 31
0.0
  0
LINE
  5
CC
100
AcDbEntity
  8
レイヤー_1
  6
CONTINUOUS
 62
       3
100
AcDbLine
 10
61.92565925
 20
-0.36812205
 30
0.0
 11
66.84928949
 21
-0.36812205
 31
0.0
  0
LINE
  5
CD
100
AcDbEntity
  8
レイヤー_1
  6
CONTINUOUS
 62
       3
100
AcDbLine
 10
66.84928949
 20
-0.36812205
 30
0.0
 11
71.26063451
 21
-0.36812205
 31
0.0
  0
LINE
  5
CE
100
AcDbEntity
  8
レイヤー_1
  6
CONTINUOUS
 62
       3
100
AcDbLine
 10
71.26063451
 20
-0.36812205
 30
0.0
 11
74.98893255
 21
-0.36812205
 31
0.0
  0
LINE
  5
CF
100
AcDbEntity
  8
レイヤー_1
  6
CONTINUOUS
 62
       3
100
AcDbLine
 10
74.98893255
 20
-0.36812205
 30
0.0
 11
77.86342188
 21
-0.36812205
 31
0.0
  0
LINE
  5
D0
100
AcDbEntity
  8
レイヤー_1
  6
CONTINUOUS
 62
       3
100
AcDbLine
 10
77.86342188
 20
-0.36812205
 30
0.0
 11
79.71334076
 21
-0.36812205
 31
0.0
  0
LINE
  5
D1
100
AcDbEntity
  8
レイヤー_1
  6
CONTINUOUS
 62
       3
100
AcDbLine
 10
79.71334076
 20
-0.36812205
 30
0.0
 11
80.36792744
 21
-0.36812205
 31
0.0
  0
LINE
  5
D2
100
AcDbEntity
  8
レイヤー_1
  6
CONTINUOUS
 62
       3
100
AcDbLine
 10
80.36792744
 20
-0.36812205
 30
0.0
 11
80.36792744
 21
-0.38484311
 31
0.0
  0
LINE
  5
D3
100
AcDbEntity
  8
レイヤー_1
  6
CONTINUOUS
 62
       3
100
AcDbLine
 10
80.36792744
 20
-0.38484311
 30
0.0
 11
80.36792744
 21
-0.43209828
 31
0.0
  0
LINE
  5
D4
100
AcDbEntity
  8
レイヤー_1
  6
CONTINUOUS
 62
       3
100
AcDbLine
 10
80.36792744
 20
-0.43209828
 30
0.0
 11
80.36792744
 21
-0.50552554
 31
0.0
  0
LINE
  5
D5
100
AcDbEntity
  8
レイヤー_1
  6
CONTINUOUS
 62
       3
100
AcDbLine
 10
80.36792744
 20
-0.50552554
 30
0.0
 11
80.36792744
 21
-0.60076289
 31
0.0
  0
LINE
  5
D6
100
AcDbEntity
  8
レイヤー_1
  6
CONTINUOUS
 62
       3
100
AcDbLine
 10
80.36792744
 20
-0.60076289
 30
0.0
 11
80.36792744
 21
-0.71344829
 31
0.0
  0
LINE
  5
D7
100
AcDbEntity
  8
レイヤー_1
  6
CONTINUOUS
 62
       3
100
AcDbLine
 10
80.36792744
 20
-0.71344829
 30
0.0
 11
80.36792744
 21
-0.83921975
 31
0.0
  0
LINE
  5
D8
100
AcDbEntity
  8
レイヤー_1
  6
CONTINUOUS
 62
       3
100
AcDbLine
 10
80.36792744
 20
-0.83921975
 30
0.0
 11
80.36792744
 21
-0.97371523
 31
0.0
  0
LINE
  5
D9
100
AcDbEntity
  8
レイヤー_1
  6
CONTINUOUS
 62
       3
100
AcDbLine
 10
80.36792744
 20
-0.97371523
 30
0.0
 11
80.36792744
 21
-1.11257273
 31
0.0
  0
LINE
  5
DA
100
AcDbEntity
  8
レイヤー_1
  6
CONTINUOUS
 62
       3
100
AcDbLine
 10
80.36792744
 20
-1.11257273
 30
0.0
 11
80.36792744
 21
-1.25143023
 31
0.0
  0
LINE
  5
DB
100
AcDbEntity
  8
レイヤー_1
  6
CONTINUOUS
 62
       3
100
AcDbLine
 10
80.36792744
 20
-1.25143023
 30
0.0
 11
80.36792744
 21
-1.38592572
 31
0.0
  0
LINE
  5
DC
100
AcDbEntity
  8
レイヤー_1
  6
CONTINUOUS
 62
       3
100
AcDbLine
 10
80.36792744
 20
-1.38592572
 30
0.0
 11
80.36792744
 21
-1.51169717
 31
0.0
  0
LINE
  5
DD
100
AcDbEntity
  8
レイヤー_1
  6
CONTINUOUS
 62
       3
100
AcDbLine
 10
80.36792744
 20
-1.51169717
 30
0.0
 11
80.36792744
 21
-1.62438258
 31
0.0
  0
LINE
  5
DE
100
AcDbEntity
  8
レイヤー_1
  6
CONTINUOUS
 62
       3
100
AcDbLine
 10
80.36792744
 20
-1.62438258
 30
0.0
 11
80.36792744
 21
-1.71961992
 31
0.0
  0
LINE
  5
DF
100
AcDbEntity
  8
レイヤー_1
  6
CONTINUOUS
 62
       3
100
AcDbLine
 10
80.36792744
 20
-1.71961992
 30
0.0
 11
80.36792744
 21
-1.79304718
 31
0.0
  0
LINE
  5
E0
100
AcDbEntity
  8
レイヤー_1
  6
CONTINUOUS
 62
       3
100
AcDbLine
 10
80.36792744
 20
-1.79304718
 30
0.0
 11
80.36792744
 21
-1.84030235
 31
0.0
  0
LINE
  5
E1
100
AcDbEntity
  8
レイヤー_1
  6
CONTINUOUS
 62
       3
100
AcDbLine
 10
80.36792744
 20
-1.84030235
 30
0.0
 11
80.36792744
 21
-1.85702342
 31
0.0
  0
LINE
  5
E2
100
AcDbEntity
  8
レイヤー_1
  6
CONTINUOUS
 62
       3
100
AcDbLine
 10
80.36792744
 20
-1.85702342
 30
0.0
 11
79.71334076
 21
-1.85702342
 31
0.0
  0
LINE
  5
E3
100
AcDbEntity
  8
レイヤー_1
  6
CONTINUOUS
 62
       3
100
AcDbLine
 10
79.71334076
 20
-1.85702342
 30
0.0
 11
77.86342188
 21
-1.85702342
 31
0.0
  0
LINE
  5
E4
100
AcDbEntity
  8
レイヤー_1
  6
CONTINUOUS
 62
       3
100
AcDbLine
 10
77.86342188
 20
-1.85702342
 30
0.0
 11
74.98893255
 21
-1.85702342
 31
0.0
  0
LINE
  5
E5
100
AcDbEntity
  8
レイヤー_1
  6
CONTINUOUS
 62
       3
100
AcDbLine
 10
74.98893255
 20
-1.85702342
 30
0.0
 11
71.26063451
 21
-1.85702342
 31
0.0
  0
LINE
  5
E6
100
AcDbEntity
  8
レイヤー_1
  6
CONTINUOUS
 62
       3
100
AcDbLine
 10
71.26063451
 20
-1.85702342
 30
0.0
 11
66.84928949
 21
-1.85702342
 31
0.0
  0
LINE
  5
E7
100
AcDbEntity
  8
レイヤー_1
  6
CONTINUOUS
 62
       3
100
AcDbLine
 10
66.84928949
 20
-1.85702342
 30
0.0
 11
61.92565925
 21
-1.85702342
 31
0.0
  0
LINE
  5
E8
100
AcDbEntity
  8
レイヤー_1
  6
CONTINUOUS
 62
       3
100
AcDbLine
 10
61.92565925
 20
-1.85702342
 30
0.0
 11
56.66050552
 21
-1.85702342
 31
0.0
  0
LINE
  5
E9
100
AcDbEntity
  8
レイヤー_1
  6
CONTINUOUS
 62
       3
100
AcDbLine
 10
56.66050552
 20
-1.85702342
 30
0.0
 11
51.22459005
 21
-1.85702342
 31
0.0
  0
LINE
  5
EA
100
AcDbEntity
  8
レイヤー_1
  6
CONTINUOUS
 62
       3
100
AcDbLine
 10
51.22459005
 20
-1.85702342
 30
0.0
 11
45.78867458
 21
-1.85702342
 31
0.0
  0
LINE
  5
EB
100
AcDbEntity
  8
レイヤー_1
  6
CONTINUOUS
 62
       3
100
AcDbLine
 10
45.78867458
 20
-1.85702342
 30
0.0
 11
40.52352085
 21
-1.85702342
 31
0.0
  0
LINE
  5
EC
100
AcDbEntity
  8
レイヤー_1
  6
CONTINUOUS
 62
       3
100
AcDbLine
 10
40.52352085
 20
-1.85702342
 30
0.0
 11
35.5998906
 21
-1.85702342
 31
0.0
  0
LINE
  5
ED
100
AcDbEntity
  8
レイヤー_1
  6
CONTINUOUS
 62
       3
100
AcDbLine
 10
35.5998906
 20
-1.85702342
 30
0.0
 11
31.18854559
 21
-1.85702342
 31
0.0
  0
LINE
  5
EE
100
AcDbEntity
  8
レイヤー_1
  6
CONTINUOUS
 62
       3
100
AcDbLine
 10
31.18854559
 20
-1.85702342
 30
0.0
 11
27.46024754
 21
-1.85702342
 31
0.0
  0
LINE
  5
EF
100
AcDbEntity
  8
レイヤー_1
  6
CONTINUOUS
 62
       3
100
AcDbLine
 10
27.46024754
 20
-1.85702342
 30
0.0
 11
24.58575821
 21
-1.85702342
 31
0.0
  0
LINE
  5
F0
100
AcDbEntity
  8
レイヤー_1
  6
CONTINUOUS
 62
       3
100
AcDbLine
 10
24.58575821
 20
-1.85702342
 30
0.0
 11
22.73583933
 21
-1.85702342
 31
0.0
  0
LINE
  5
F1
100
AcDbEntity
  8
レイヤー_1
  6
CONTINUOUS
 62
       3
100
AcDbLine
 10
22.73583933
 20
-1.85702342
 30
0.0
 11
22.08125265
 21
-1.85702342
 31
0.0
  0
LINE
  5
F2
100
AcDbEntity
  8
レイヤー_1
  6
CONTINUOUS
 62
       3
100
AcDbLine
 10
-5.25351297
 20
12.82084035
 30
0.0
 11
-5.00947158
 21
12.80424259
 31
0.0
  0
LINE
  5
F3
100
AcDbEntity
  8
レイヤー_1
  6
CONTINUOUS
 62
       3
100
AcDbLine
 10
-5.00947158
 20
12.80424259
 30
0.0
 11
-4.31600744
 21
12.7474437
 31
0.0
  0
LINE
  5
F4
100
AcDbEntity
  8
レイヤー_1
  6
CONTINUOUS
 62
       3
100
AcDbLine
 10
-4.31600744
 20
12.7474437
 30
0.0
 11
-3.23111057
 21
12.6399353
 31
0.0
  0
LINE
  5
F5
100
AcDbEntity
  8
レイヤー_1
  6
CONTINUOUS
 62
       3
100
AcDbLine
 10
-3.23111057
 20
12.6399353
 30
0.0
 11
-1.81277102
 21
12.47120898
 31
0.0
  0
LINE
  5
F6
100
AcDbEntity
  8
レイヤー_1
  6
CONTINUOUS
 62
       3
100
AcDbLine
 10
-1.81277102
 20
12.47120898
 30
0.0
 11
-0.11897881
 21
12.23075636
 31
0.0
  0
LINE
  5
F7
100
AcDbEntity
  8
レイヤー_1
  6
CONTINUOUS
 62
       3
100
AcDbLine
 10
-0.11897881
 20
12.23075636
 30
0.0
 11
1.79227602
 21
11.90806904
 31
0.0
  0
LINE
  5
F8
100
AcDbEntity
  8
レイヤー_1
  6
CONTINUOUS
 62
       3
100
AcDbLine
 10
1.79227602
 20
11.90806904
 30
0.0
 11
3.86300344
 21
11.49263863
 31
0.0
  0
LINE
  5
F9
100
AcDbEntity
  8
レイヤー_1
  6
CONTINUOUS
 62
       3
100
AcDbLine
 10
3.86300344
 20
11.49263863
 30
0.0
 11
6.03521342
 21
10.97395674
 31
0.0
  0
LINE
  5
FA
100
AcDbEntity
  8
レイヤー_1
  6
CONTINUOUS
 62
       3
100
AcDbLine
 10
6.03521342
 20
10.97395674
 30
0.0
 11
8.25091592
 21
10.34151496
 31
0.0
  0
LINE
  5
FB
100
AcDbEntity
  8
レイヤー_1
  6
CONTINUOUS
 62
       3
100
AcDbLine
 10
8.25091592
 20
10.34151496
 30
0.0
 11
10.45212091
 21
9.58480491
 31
0.0
  0
LINE
  5
FC
100
AcDbEntity
  8
レイヤー_1
  6
CONTINUOUS
 62
       3
100
AcDbLine
 10
10.45212091
 20
9.58480491
 30
0.0
 11
12.58083837
 21
8.69331819
 31
0.0
  0
LINE
  5
FD
100
AcDbEntity
  8
レイヤー_1
  6
CONTINUOUS
 62
       3
100
AcDbLine
 10
12.58083837
 20
8.69331819
 30
0.0
 11
14.57907825
 21
7.65654642
 31
0.0
  0
LINE
  5
FE
100
AcDbEntity
  8
レイヤー_1
  6
CONTINUOUS
 62
       3
100
AcDbLine
 10
14.57907825
 20
7.65654642
 30
0.0
 11
16.38885052
 21
6.46398118
 31
0.0
  0
LINE
  5
FF
100
AcDbEntity
  8
レイヤー_1
  6
CONTINUOUS
 62
       3
100
AcDbLine
 10
16.38885052
 20
6.46398118
 30
0.0
 11
17.95216515
 21
5.1051141
 31
0.0
  0
LINE
  5
100
100
AcDbEntity
  8
レイヤー_1
  6
CONTINUOUS
 62
       3
100
AcDbLine
 10
17.95216515
 20
5.1051141
 30
0.0
 11
19.21103211
 21
3.56943678
 31
0.0
  0
LINE
  5
101
100
AcDbEntity
  8
レイヤー_1
  6
CONTINUOUS
 62
       3
100
AcDbLine
 10
19.21103211
 20
3.56943678
 30
0.0
 11
20.10746137
 21
1.84644082
 31
0.0
  0
LINE
  5
102
100
AcDbEntity
  8
レイヤー_1
  6
CONTINUOUS
 62
       3
100
AcDbLine
 10
20.10746137
 20
1.84644082
 30
0.0
 11
20.58346289
 21
-0.07438217
 31
0.0
  0
LINE
  5
103
100
AcDbEntity
  8
レイヤー_1
  6
CONTINUOUS
 62
       3
100
AcDbLine
 10
20.58346289
 20
-0.07438217
 30
0.0
 11
20.58346289
 21
-2.15024647
 31
0.0
  0
LINE
  5
104
100
AcDbEntity
  8
レイヤー_1
  6
CONTINUOUS
 62
       3
100
AcDbLine
 10
20.58346289
 20
-2.15024647
 30
0.0
 11
20.10746137
 21
-4.07125853
 31
0.0
  0
LINE
  5
105
100
AcDbEntity
  8
レイヤー_1
  6
CONTINUOUS
 62
       3
100
AcDbLine
 10
20.10746137
 20
-4.07125853
 30
0.0
 11
19.21103211
 21
-5.79442134
 31
0.0
  0
LINE
  5
106
100
AcDbEntity
  8
レイヤー_1
  6
CONTINUOUS
 62
       3
100
AcDbLine
 10
19.21103211
 20
-5.79442134
 30
0.0
 11
17.95216515
 21
-7.33024468
 31
0.0
  0
LINE
  5
107
100
AcDbEntity
  8
レイヤー_1
  6
CONTINUOUS
 62
       3
100
AcDbLine
 10
17.95216515
 20
-7.33024468
 30
0.0
 11
16.38885052
 21
-8.68923835
 31
0.0
  0
LINE
  5
108
100
AcDbEntity
  8
レイヤー_1
  6
CONTINUOUS
 62
       3
100
AcDbLine
 10
16.38885052
 20
-8.68923835
 30
0.0
 11
14.57907825
 21
-9.88191211
 31
0.0
  0
LINE
  5
109
100
AcDbEntity
  8
レイヤー_1
  6
CONTINUOUS
 62
       3
100
AcDbLine
 10
14.57907825
 20
-9.88191211
 30
0.0
 11
12.58083837
 21
-10.91877576
 31
0.0
  0
LINE
  5
10A
100
AcDbEntity
  8
レイヤー_1
  6
CONTINUOUS
 62
       3
100
AcDbLine
 10
12.58083837
 20
-10.91877576
 30
0.0
 11
10.45212091
 21
-11.81033908
 31
0.0
  0
LINE
  5
10B
100
AcDbEntity
  8
レイヤー_1
  6
CONTINUOUS
 62
       3
100
AcDbLine
 10
10.45212091
 20
-11.81033908
 30
0.0
 11
8.25091592
 21
-12.56711184
 31
0.0
  0
LINE
  5
10C
100
AcDbEntity
  8
レイヤー_1
  6
CONTINUOUS
 62
       3
100
AcDbLine
 10
8.25091592
 20
-12.56711184
 30
0.0
 11
6.03521342
 21
-13.19960383
 31
0.0
  0
LINE
  5
10D
100
AcDbEntity
  8
レイヤー_1
  6
CONTINUOUS
 62
       3
100
AcDbLine
 10
6.03521342
 20
-13.19960383
 30
0.0
 11
3.86300344
 21
-13.71832484
 31
0.0
  0
LINE
  5
10E
100
AcDbEntity
  8
レイヤー_1
  6
CONTINUOUS
 62
       3
100
AcDbLine
 10
3.86300344
 20
-13.71832484
 30
0.0
 11
1.79227602
 21
-14.13378464
 31
0.0
  0
LINE
  5
10F
100
AcDbEntity
  8
レイヤー_1
  6
CONTINUOUS
 62
       3
100
AcDbLine
 10
1.79227602
 20
-14.13378464
 30
0.0
 11
-0.11897881
 21
-14.45649301
 31
0.0
  0
LINE
  5
110
100
AcDbEntity
  8
レイヤー_1
  6
CONTINUOUS
 62
       3
100
AcDbLine
 10
-0.11897881
 20
-14.45649301
 30
0.0
 11
-1.81277102
 21
-14.69695975
 31
0.0
  0
LINE
  5
111
100
AcDbEntity
  8
レイヤー_1
  6
CONTINUOUS
 62
       3
100
AcDbLine
 10
-1.81277102
 20
-14.69695975
 30
0.0
 11
-3.23111057
 21
-14.86569463
 31
0.0
  0
LINE
  5
112
100
AcDbEntity
  8
レイヤー_1
  6
CONTINUOUS
 62
       3
100
AcDbLine
 10
-3.23111057
 20
-14.86569463
 30
0.0
 11
-4.31600744
 21
-14.97320743
 31
0.0
  0
LINE
  5
113
100
AcDbEntity
  8
レイヤー_1
  6
CONTINUOUS
 62
       3
100
AcDbLine
 10
-4.31600744
 20
-14.97320743
 30
0.0
 11
-5.00947158
 21
-15.03000794
 31
0.0
  0
LINE
  5
114
100
AcDbEntity
  8
レイヤー_1
  6
CONTINUOUS
 62
       3
100
AcDbLine
 10
-5.00947158
 20
-15.03000794
 30
0.0
 11
-5.25351297
 21
-15.04660593
 31
0.0
  0
LINE
  5
115
100
AcDbEntity
  8
レイヤー_1
  6
CONTINUOUS
 62
       3
100
AcDbLine
 10
-66.20855201
 20
48.03760548
 30
0.0
 11
-66.38650775
 21
48.02875724
 31
0.0
  0
LINE
  5
116
100
AcDbEntity
  8
レイヤー_1
  6
CONTINUOUS
 62
       3
100
AcDbLine
 10
-66.38650775
 20
48.02875724
 30
0.0
 11
-66.55941657
 21
48.00277788
 31
0.0
  0
LINE
  5
117
100
AcDbEntity
  8
レイヤー_1
  6
CONTINUOUS
 62
       3
100
AcDbLine
 10
-66.55941657
 20
48.00277788
 30
0.0
 11
-66.72643048
 21
47.96051541
 31
0.0
  0
LINE
  5
118
100
AcDbEntity
  8
レイヤー_1
  6
CONTINUOUS
 62
       3
100
AcDbLine
 10
-66.72643048
 20
47.96051541
 30
0.0
 11
-66.88670145
 21
47.90281784
 31
0.0
  0
LINE
  5
119
100
AcDbEntity
  8
レイヤー_1
  6
CONTINUOUS
 62
       3
100
AcDbLine
 10
-66.88670145
 20
47.90281784
 30
0.0
 11
-67.03938146
 21
47.83053319
 31
0.0
  0
LINE
  5
11A
100
AcDbEntity
  8
レイヤー_1
  6
CONTINUOUS
 62
       3
100
AcDbLine
 10
-67.03938146
 20
47.83053319
 30
0.0
 11
-67.18362251
 21
47.74450948
 31
0.0
  0
LINE
  5
11B
100
AcDbEntity
  8
レイヤー_1
  6
CONTINUOUS
 62
       3
100
AcDbLine
 10
-67.18362251
 20
47.74450948
 30
0.0
 11
-67.31857658
 21
47.64559472
 31
0.0
  0
LINE
  5
11C
100
AcDbEntity
  8
レイヤー_1
  6
CONTINUOUS
 62
       3
100
AcDbLine
 10
-67.31857658
 20
47.64559472
 30
0.0
 11
-67.44339564
 21
47.53463692
 31
0.0
  0
LINE
  5
11D
100
AcDbEntity
  8
レイヤー_1
  6
CONTINUOUS
 62
       3
100
AcDbLine
 10
-67.44339564
 20
47.53463692
 30
0.0
 11
-67.5572317
 21
47.41248411
 31
0.0
  0
LINE
  5
11E
100
AcDbEntity
  8
レイヤー_1
  6
CONTINUOUS
 62
       3
100
AcDbLine
 10
-67.5572317
 20
47.41248411
 30
0.0
 11
-67.65923672
 21
47.27998429
 31
0.0
  0
LINE
  5
11F
100
AcDbEntity
  8
レイヤー_1
  6
CONTINUOUS
 62
       3
100
AcDbLine
 10
-67.65923672
 20
47.27998429
 30
0.0
 11
-67.7485627
 21
47.13798549
 31
0.0
  0
LINE
  5
120
100
AcDbEntity
  8
レイヤー_1
  6
CONTINUOUS
 62
       3
100
AcDbLine
 10
-67.7485627
 20
47.13798549
 30
0.0
 11
-67.82436161
 21
46.98733571
 31
0.0
  0
LINE
  5
121
100
AcDbEntity
  8
レイヤー_1
  6
CONTINUOUS
 62
       3
100
AcDbLine
 10
-67.82436161
 20
46.98733571
 30
0.0
 11
-67.88578545
 21
46.82888298
 31
0.0
  0
LINE
  5
122
100
AcDbEntity
  8
レイヤー_1
  6
CONTINUOUS
 62
       3
100
AcDbLine
 10
-67.88578545
 20
46.82888298
 30
0.0
 11
-67.9319862
 21
46.66347531
 31
0.0
  0
LINE
  5
123
100
AcDbEntity
  8
レイヤー_1
  6
CONTINUOUS
 62
       3
100
AcDbLine
 10
-67.9319862
 20
46.66347531
 30
0.0
 11
-67.96211584
 21
46.49196071
 31
0.0
  0
LINE
  5
124
100
AcDbEntity
  8
レイヤー_1
  6
CONTINUOUS
 62
       3
100
AcDbLine
 10
-67.96211584
 20
46.49196071
 30
0.0
 11
-67.97532636
 21
46.3151872
 31
0.0
  0
LINE
  5
125
100
AcDbEntity
  8
レイヤー_1
  6
CONTINUOUS
 62
       3
100
AcDbLine
 10
-67.97532636
 20
46.3151872
 30
0.0
 11
-67.97088899
 21
46.13640565
 31
0.0
  0
LINE
  5
126
100
AcDbEntity
  8
レイヤー_1
  6
CONTINUOUS
 62
       3
100
AcDbLine
 10
-67.97088899
 20
46.13640565
 30
0.0
 11
-67.94911291
 21
45.96220439
 31
0.0
  0
LINE
  5
127
100
AcDbEntity
  8
レイヤー_1
  6
CONTINUOUS
 62
       3
100
AcDbLine
 10
-67.94911291
 20
45.96220439
 30
0.0
 11
-67.91084171
 21
45.79367976
 31
0.0
  0
LINE
  5
128
100
AcDbEntity
  8
レイヤー_1
  6
CONTINUOUS
 62
       3
100
AcDbLine
 10
-67.91084171
 20
45.79367976
 30
0.0
 11
-67.85692342
 21
45.63168021
 31
0.0
  0
LINE
  5
129
100
AcDbEntity
  8
レイヤー_1
  6
CONTINUOUS
 62
       3
100
AcDbLine
 10
-67.85692342
 20
45.63168021
 30
0.0
 11
-67.78820604
 21
45.47705418
 31
0.0
  0
LINE
  5
12A
100
AcDbEntity
  8
レイヤー_1
  6
CONTINUOUS
 62
       3
100
AcDbLine
 10
-67.78820604
 20
45.47705418
 30
0.0
 11
-67.70553759
 21
45.33065014
 31
0.0
  0
LINE
  5
12B
100
AcDbEntity
  8
レイヤー_1
  6
CONTINUOUS
 62
       3
100
AcDbLine
 10
-67.70553759
 20
45.33065014
 30
0.0
 11
-67.60976609
 21
45.19331652
 31
0.0
  0
LINE
  5
12C
100
AcDbEntity
  8
レイヤー_1
  6
CONTINUOUS
 62
       3
100
AcDbLine
 10
-67.60976609
 20
45.19331652
 30
0.0
 11
-67.50173955
 21
45.06590178
 31
0.0
  0
LINE
  5
12D
100
AcDbEntity
  8
レイヤー_1
  6
CONTINUOUS
 62
       3
100
AcDbLine
 10
-67.50173955
 20
45.06590178
 30
0.0
 11
-67.38230599
 21
44.94925437
 31
0.0
  0
LINE
  5
12E
100
AcDbEntity
  8
レイヤー_1
  6
CONTINUOUS
 62
       3
100
AcDbLine
 10
-67.38230599
 20
44.94925437
 30
0.0
 11
-67.25231342
 21
44.84422273
 31
0.0
  0
LINE
  5
12F
100
AcDbEntity
  8
レイヤー_1
  6
CONTINUOUS
 62
       3
100
AcDbLine
 10
-67.25231342
 20
44.84422273
 30
0.0
 11
-67.11260986
 21
44.75165531
 31
0.0
  0
LINE
  5
130
100
AcDbEntity
  8
レイヤー_1
  6
CONTINUOUS
 62
       3
100
AcDbLine
 10
-67.11260986
 20
44.75165531
 30
0.0
 11
-66.96404333
 21
44.67240056
 31
0.0
  0
LINE
  5
131
100
AcDbEntity
  8
レイヤー_1
  6
CONTINUOUS
 62
       3
100
AcDbLine
 10
-66.96404333
 20
44.67240056
 30
0.0
 11
-66.80746183
 21
44.60730694
 31
0.0
  0
LINE
  5
132
100
AcDbEntity
  8
レイヤー_1
  6
CONTINUOUS
 62
       3
100
AcDbLine
 10
-66.80746183
 20
44.60730694
 30
0.0
 11
-66.64371339
 21
44.55722289
 31
0.0
  0
LINE
  5
133
100
AcDbEntity
  8
レイヤー_1
  6
CONTINUOUS
 62
       3
100
AcDbLine
 10
-66.64371339
 20
44.55722289
 30
0.0
 11
-66.47364602
 21
44.52299685
 31
0.0
  0
LINE
  5
134
100
AcDbEntity
  8
レイヤー_1
  6
CONTINUOUS
 62
       3
100
AcDbLine
 10
-66.47364602
 20
44.52299685
 30
0.0
 11
-66.29810774
 21
44.50547729
 31
0.0
  0
LINE
  5
135
100
AcDbEntity
  8
レイヤー_1
  6
CONTINUOUS
 62
       3
100
AcDbLine
 10
-66.29810774
 20
44.50547729
 30
0.0
 11
-66.11899456
 21
44.50547729
 31
0.0
  0
LINE
  5
136
100
AcDbEntity
  8
レイヤー_1
  6
CONTINUOUS
 62
       3
100
AcDbLine
 10
-66.11899456
 20
44.50547729
 30
0.0
 11
-65.94344313
 21
44.52299685
 31
0.0
  0
LINE
  5
137
100
AcDbEntity
  8
レイヤー_1
  6
CONTINUOUS
 62
       3
100
AcDbLine
 10
-65.94344313
 20
44.52299685
 30
0.0
 11
-65.77335112
 21
44.55722289
 31
0.0
  0
LINE
  5
138
100
AcDbEntity
  8
レイヤー_1
  6
CONTINUOUS
 62
       3
100
AcDbLine
 10
-65.77335112
 20
44.55722289
 30
0.0
 11
-65.60956828
 21
44.60730694
 31
0.0
  0
LINE
  5
139
100
AcDbEntity
  8
レイヤー_1
  6
CONTINUOUS
 62
       3
100
AcDbLine
 10
-65.60956828
 20
44.60730694
 30
0.0
 11
-65.45294437
 21
44.67240056
 31
0.0
  0
LINE
  5
13A
100
AcDbEntity
  8
レイヤー_1
  6
CONTINUOUS
 62
       3
100
AcDbLine
 10
-65.45294437
 20
44.67240056
 30
0.0
 11
-65.30432914
 21
44.75165531
 31
0.0
  0
LINE
  5
13B
100
AcDbEntity
  8
レイヤー_1
  6
CONTINUOUS
 62
       3
100
AcDbLine
 10
-65.30432914
 20
44.75165531
 30
0.0
 11
-65.16457233
 21
44.84422273
 31
0.0
  0
LINE
  5
13C
100
AcDbEntity
  8
レイヤー_1
  6
CONTINUOUS
 62
       3
100
AcDbLine
 10
-65.16457233
 20
44.84422273
 30
0.0
 11
-65.03452369
 21
44.94925437
 31
0.0
  0
LINE
  5
13D
100
AcDbEntity
  8
レイヤー_1
  6
CONTINUOUS
 62
       3
100
AcDbLine
 10
-65.03452369
 20
44.94925437
 30
0.0
 11
-64.91503297
 21
45.06590178
 31
0.0
  0
LINE
  5
13E
100
AcDbEntity
  8
レイヤー_1
  6
CONTINUOUS
 62
       3
100
AcDbLine
 10
-64.91503297
 20
45.06590178
 30
0.0
 11
-64.80694993
 21
45.19331652
 31
0.0
  0
LINE
  5
13F
100
AcDbEntity
  8
レイヤー_1
  6
CONTINUOUS
 62
       3
100
AcDbLine
 10
-64.80694993
 20
45.19331652
 30
0.0
 11
-64.7111243
 21
45.33065014
 31
0.0
  0
LINE
  5
140
100
AcDbEntity
  8
レイヤー_1
  6
CONTINUOUS
 62
       3
100
AcDbLine
 10
-64.7111243
 20
45.33065014
 30
0.0
 11
-64.62840585
 21
45.47705418
 31
0.0
  0
LINE
  5
141
100
AcDbEntity
  8
レイヤー_1
  6
CONTINUOUS
 62
       3
100
AcDbLine
 10
-64.62840585
 20
45.47705418
 30
0.0
 11
-64.55964432
 21
45.63168021
 31
0.0
  0
LINE
  5
142
100
AcDbEntity
  8
レイヤー_1
  6
CONTINUOUS
 62
       3
100
AcDbLine
 10
-64.55964432
 20
45.63168021
 30
0.0
 11
-64.50568947
 21
45.79367976
 31
0.0
  0
LINE
  5
143
100
AcDbEntity
  8
レイヤー_1
  6
CONTINUOUS
 62
       3
100
AcDbLine
 10
-64.50568947
 20
45.79367976
 30
0.0
 11
-64.46739103
 21
45.96220439
 31
0.0
  0
LINE
  5
144
100
AcDbEntity
  8
レイヤー_1
  6
CONTINUOUS
 62
       3
100
AcDbLine
 10
-64.46739103
 20
45.96220439
 30
0.0
 11
-64.44559876
 21
46.13640565
 31
0.0
  0
LINE
  5
145
100
AcDbEntity
  8
レイヤー_1
  6
CONTINUOUS
 62
       3
100
AcDbLine
 10
-64.44559876
 20
46.13640565
 30
0.0
 11
-64.44115799
 21
46.3151872
 31
0.0
  0
LINE
  5
146
100
AcDbEntity
  8
レイヤー_1
  6
CONTINUOUS
 62
       3
100
AcDbLine
 10
-64.44115799
 20
46.3151872
 30
0.0
 11
-64.45437851
 21
46.49196071
 31
0.0
  0
LINE
  5
147
100
AcDbEntity
  8
レイヤー_1
  6
CONTINUOUS
 62
       3
100
AcDbLine
 10
-64.45437851
 20
46.49196071
 30
0.0
 11
-64.48453009
 21
46.66347531
 31
0.0
  0
LINE
  5
148
100
AcDbEntity
  8
レイヤー_1
  6
CONTINUOUS
 62
       3
100
AcDbLine
 10
-64.48453009
 20
46.66347531
 30
0.0
 11
-64.53076295
 21
46.82888298
 31
0.0
  0
LINE
  5
149
100
AcDbEntity
  8
レイヤー_1
  6
CONTINUOUS
 62
       3
100
AcDbLine
 10
-64.53076295
 20
46.82888298
 30
0.0
 11
-64.59222736
 21
46.98733571
 31
0.0
  0
LINE
  5
14A
100
AcDbEntity
  8
レイヤー_1
  6
CONTINUOUS
 62
       3
100
AcDbLine
 10
-64.59222736
 20
46.98733571
 30
0.0
 11
-64.66807357
 21
47.13798549
 31
0.0
  0
LINE
  5
14B
100
AcDbEntity
  8
レイヤー_1
  6
CONTINUOUS
 62
       3
100
AcDbLine
 10
-64.66807357
 20
47.13798549
 30
0.0
 11
-64.75745183
 21
47.27998429
 31
0.0
  0
LINE
  5
14C
100
AcDbEntity
  8
レイヤー_1
  6
CONTINUOUS
 62
       3
100
AcDbLine
 10
-64.75745183
 20
47.27998429
 30
0.0
 11
-64.85951238
 21
47.41248411
 31
0.0
  0
LINE
  5
14D
100
AcDbEntity
  8
レイヤー_1
  6
CONTINUOUS
 62
       3
100
AcDbLine
 10
-64.85951238
 20
47.41248411
 30
0.0
 11
-64.97340548
 21
47.53463692
 31
0.0
  0
LINE
  5
14E
100
AcDbEntity
  8
レイヤー_1
  6
CONTINUOUS
 62
       3
100
AcDbLine
 10
-64.97340548
 20
47.53463692
 30
0.0
 11
-65.09828138
 21
47.64559472
 31
0.0
  0
LINE
  5
14F
100
AcDbEntity
  8
レイヤー_1
  6
CONTINUOUS
 62
       3
100
AcDbLine
 10
-65.09828138
 20
47.64559472
 30
0.0
 11
-65.23329032
 21
47.74450948
 31
0.0
  0
LINE
  5
150
100
AcDbEntity
  8
レイヤー_1
  6
CONTINUOUS
 62
       3
100
AcDbLine
 10
-65.23329032
 20
47.74450948
 30
0.0
 11
-65.37758256
 21
47.83053319
 31
0.0
  0
LINE
  5
151
100
AcDbEntity
  8
レイヤー_1
  6
CONTINUOUS
 62
       3
100
AcDbLine
 10
-65.37758256
 20
47.83053319
 30
0.0
 11
-65.53030835
 21
47.90281784
 31
0.0
  0
LINE
  5
152
100
AcDbEntity
  8
レイヤー_1
  6
CONTINUOUS
 62
       3
100
AcDbLine
 10
-65.53030835
 20
47.90281784
 30
0.0
 11
-65.69061795
 21
47.96051541
 31
0.0
  0
LINE
  5
153
100
AcDbEntity
  8
レイヤー_1
  6
CONTINUOUS
 62
       3
100
AcDbLine
 10
-65.69061795
 20
47.96051541
 30
0.0
 11
-65.85766159
 21
48.00277788
 31
0.0
  0
LINE
  5
154
100
AcDbEntity
  8
レイヤー_1
  6
CONTINUOUS
 62
       3
100
AcDbLine
 10
-65.85766159
 20
48.00277788
 30
0.0
 11
-66.03058952
 21
48.02875724
 31
0.0
  0
LINE
  5
155
100
AcDbEntity
  8
レイヤー_1
  6
CONTINUOUS
 62
       3
100
AcDbLine
 10
-66.03058952
 20
48.02875724
 30
0.0
 11
-66.20855201
 21
48.03760548
 31
0.0
  0
LINE
  5
156
100
AcDbEntity
  8
レイヤー_1
  6
CONTINUOUS
 62
       3
100
AcDbLine
 10
-76.33878639
 20
48.03760548
 30
0.0
 11
-76.51668833
 21
48.02875724
 31
0.0
  0
LINE
  5
157
100
AcDbEntity
  8
レイヤー_1
  6
CONTINUOUS
 62
       3
100
AcDbLine
 10
-76.51668833
 20
48.02875724
 30
0.0
 11
-76.68954998
 21
48.00277788
 31
0.0
  0
LINE
  5
158
100
AcDbEntity
  8
レイヤー_1
  6
CONTINUOUS
 62
       3
100
AcDbLine
 10
-76.68954998
 20
48.00277788
 30
0.0
 11
-76.85652288
 21
47.96051541
 31
0.0
  0
LINE
  5
159
100
AcDbEntity
  8
レイヤー_1
  6
CONTINUOUS
 62
       3
100
AcDbLine
 10
-76.85652288
 20
47.96051541
 30
0.0
 11
-77.01675859
 21
47.90281784
 31
0.0
  0
LINE
  5
15A
100
AcDbEntity
  8
レイヤー_1
  6
CONTINUOUS
 62
       3
100
AcDbLine
 10
-77.01675859
 20
47.90281784
 30
0.0
 11
-77.16940866
 21
47.83053319
 31
0.0
  0
LINE
  5
15B
100
AcDbEntity
  8
レイヤー_1
  6
CONTINUOUS
 62
       3
100
AcDbLine
 10
-77.16940866
 20
47.83053319
 30
0.0
 11
-77.31362464
 21
47.74450948
 31
0.0
  0
LINE
  5
15C
100
AcDbEntity
  8
レイヤー_1
  6
CONTINUOUS
 62
       3
100
AcDbLine
 10
-77.31362464
 20
47.74450948
 30
0.0
 11
-77.44855808
 21
47.64559472
 31
0.0
  0
LINE
  5
15D
100
AcDbEntity
  8
レイヤー_1
  6
CONTINUOUS
 62
       3
100
AcDbLine
 10
-77.44855808
 20
47.64559472
 30
0.0
 11
-77.57336053
 21
47.53463692
 31
0.0
  0
LINE
  5
15E
100
AcDbEntity
  8
レイヤー_1
  6
CONTINUOUS
 62
       3
100
AcDbLine
 10
-77.57336053
 20
47.53463692
 30
0.0
 11
-77.68718355
 21
47.41248411
 31
0.0
  0
LINE
  5
15F
100
AcDbEntity
  8
レイヤー_1
  6
CONTINUOUS
 62
       3
100
AcDbLine
 10
-77.68718355
 20
47.41248411
 30
0.0
 11
-77.78917867
 21
47.27998429
 31
0.0
  0
LINE
  5
160
100
AcDbEntity
  8
レイヤー_1
  6
CONTINUOUS
 62
       3
100
AcDbLine
 10
-77.78917867
 20
47.27998429
 30
0.0
 11
-77.87849746
 21
47.13798549
 31
0.0
  0
LINE
  5
161
100
AcDbEntity
  8
レイヤー_1
  6
CONTINUOUS
 62
       3
100
AcDbLine
 10
-77.87849746
 20
47.13798549
 30
0.0
 11
-77.95429147
 21
46.98733571
 31
0.0
  0
LINE
  5
162
100
AcDbEntity
  8
レイヤー_1
  6
CONTINUOUS
 62
       3
100
AcDbLine
 10
-77.95429147
 20
46.98733571
 30
0.0
 11
-78.01571225
 21
46.82888298
 31
0.0
  0
LINE
  5
163
100
AcDbEntity
  8
レイヤー_1
  6
CONTINUOUS
 62
       3
100
AcDbLine
 10
-78.01571225
 20
46.82888298
 30
0.0
 11
-78.06191134
 21
46.66347531
 31
0.0
  0
LINE
  5
164
100
AcDbEntity
  8
レイヤー_1
  6
CONTINUOUS
 62
       3
100
AcDbLine
 10
-78.06191134
 20
46.66347531
 30
0.0
 11
-78.09204029
 21
46.49196071
 31
0.0
  0
LINE
  5
165
100
AcDbEntity
  8
レイヤー_1
  6
CONTINUOUS
 62
       3
100
AcDbLine
 10
-78.09204029
 20
46.49196071
 30
0.0
 11
-78.10525067
 21
46.3151872
 31
0.0
  0
LINE
  5
166
100
AcDbEntity
  8
レイヤー_1
  6
CONTINUOUS
 62
       3
100
AcDbLine
 10
-78.10525067
 20
46.3151872
 30
0.0
 11
-78.10081333
 21
46.13640565
 31
0.0
  0
LINE
  5
167
100
AcDbEntity
  8
レイヤー_1
  6
CONTINUOUS
 62
       3
100
AcDbLine
 10
-78.10081333
 20
46.13640565
 30
0.0
 11
-78.07903761
 21
45.96220439
 31
0.0
  0
LINE
  5
168
100
AcDbEntity
  8
レイヤー_1
  6
CONTINUOUS
 62
       3
100
AcDbLine
 10
-78.07903761
 20
45.96220439
 30
0.0
 11
-78.04076753
 21
45.79367976
 31
0.0
  0
LINE
  5
169
100
AcDbEntity
  8
レイヤー_1
  6
CONTINUOUS
 62
       3
100
AcDbLine
 10
-78.04076753
 20
45.79367976
 30
0.0
 11
-77.98685154
 21
45.63168021
 31
0.0
  0
LINE
  5
16A
100
AcDbEntity
  8
レイヤー_1
  6
CONTINUOUS
 62
       3
100
AcDbLine
 10
-77.98685154
 20
45.63168021
 30
0.0
 11
-77.91813809
 21
45.47705418
 31
0.0
  0
LINE
  5
16B
100
AcDbEntity
  8
レイヤー_1
  6
CONTINUOUS
 62
       3
100
AcDbLine
 10
-77.91813809
 20
45.47705418
 30
0.0
 11
-77.83547564
 21
45.33065014
 31
0.0
  0
LINE
  5
16C
100
AcDbEntity
  8
レイヤー_1
  6
CONTINUOUS
 62
       3
100
AcDbLine
 10
-77.83547564
 20
45.33065014
 30
0.0
 11
-77.73971262
 21
45.19331652
 31
0.0
  0
LINE
  5
16D
100
AcDbEntity
  8
レイヤー_1
  6
CONTINUOUS
 62
       3
100
AcDbLine
 10
-77.73971262
 20
45.19331652
 30
0.0
 11
-77.6316975
 21
45.06590178
 31
0.0
  0
LINE
  5
16E
100
AcDbEntity
  8
レイヤー_1
  6
CONTINUOUS
 62
       3
100
AcDbLine
 10
-77.6316975
 20
45.06590178
 30
0.0
 11
-77.51227871
 21
44.94925437
 31
0.0
  0
LINE
  5
16F
100
AcDbEntity
  8
レイヤー_1
  6
CONTINUOUS
 62
       3
100
AcDbLine
 10
-77.51227871
 20
44.94925437
 30
0.0
 11
-77.38230471
 21
44.84422273
 31
0.0
  0
LINE
  5
170
100
AcDbEntity
  8
レイヤー_1
  6
CONTINUOUS
 62
       3
100
AcDbLine
 10
-77.38230471
 20
44.84422273
 30
0.0
 11
-77.24262394
 21
44.75165531
 31
0.0
  0
LINE
  5
171
100
AcDbEntity
  8
レイヤー_1
  6
CONTINUOUS
 62
       3
100
AcDbLine
 10
-77.24262394
 20
44.75165531
 30
0.0
 11
-77.09408486
 21
44.67240056
 31
0.0
  0
LINE
  5
172
100
AcDbEntity
  8
レイヤー_1
  6
CONTINUOUS
 62
       3
100
AcDbLine
 10
-77.09408486
 20
44.67240056
 30
0.0
 11
-76.93753591
 21
44.60730694
 31
0.0
  0
LINE
  5
173
100
AcDbEntity
  8
レイヤー_1
  6
CONTINUOUS
 62
       3
100
AcDbLine
 10
-76.93753591
 20
44.60730694
 30
0.0
 11
-76.77382555
 21
44.55722289
 31
0.0
  0
LINE
  5
174
100
AcDbEntity
  8
レイヤー_1
  6
CONTINUOUS
 62
       3
100
AcDbLine
 10
-76.77382555
 20
44.55722289
 30
0.0
 11
-76.60380222
 21
44.52299685
 31
0.0
  0
LINE
  5
175
100
AcDbEntity
  8
レイヤー_1
  6
CONTINUOUS
 62
       3
100
AcDbLine
 10
-76.60380222
 20
44.52299685
 30
0.0
 11
-76.42831437
 21
44.50547729
 31
0.0
  0
LINE
  5
176
100
AcDbEntity
  8
レイヤー_1
  6
CONTINUOUS
 62
       3
100
AcDbLine
 10
-76.42831437
 20
44.50547729
 30
0.0
 11
-76.24923066
 21
44.50547729
 31
0.0
  0
LINE
  5
177
100
AcDbEntity
  8
レイヤー_1
  6
CONTINUOUS
 62
       3
100
AcDbLine
 10
-76.24923066
 20
44.50547729
 30
0.0
 11
-76.07369238
 21
44.52299685
 31
0.0
  0
LINE
  5
178
100
AcDbEntity
  8
レイヤー_1
  6
CONTINUOUS
 62
       3
100
AcDbLine
 10
-76.07369238
 20
44.52299685
 30
0.0
 11
-75.90362501
 21
44.55722289
 31
0.0
  0
LINE
  5
179
100
AcDbEntity
  8
レイヤー_1
  6
CONTINUOUS
 62
       3
100
AcDbLine
 10
-75.90362501
 20
44.55722289
 30
0.0
 11
-75.73987657
 21
44.60730694
 31
0.0
  0
LINE
  5
17A
100
AcDbEntity
  8
レイヤー_1
  6
CONTINUOUS
 62
       3
100
AcDbLine
 10
-75.73987657
 20
44.60730694
 30
0.0
 11
-75.58329507
 21
44.67240056
 31
0.0
  0
LINE
  5
17B
100
AcDbEntity
  8
レイヤー_1
  6
CONTINUOUS
 62
       3
100
AcDbLine
 10
-75.58329507
 20
44.67240056
 30
0.0
 11
-75.43472854
 21
44.75165531
 31
0.0
  0
LINE
  5
17C
100
AcDbEntity
  8
レイヤー_1
  6
CONTINUOUS
 62
       3
100
AcDbLine
 10
-75.43472854
 20
44.75165531
 30
0.0
 11
-75.29502498
 21
44.84422273
 31
0.0
  0
LINE
  5
17D
100
AcDbEntity
  8
レイヤー_1
  6
CONTINUOUS
 62
       3
100
AcDbLine
 10
-75.29502498
 20
44.84422273
 30
0.0
 11
-75.16503241
 21
44.94925437
 31
0.0
  0
LINE
  5
17E
100
AcDbEntity
  8
レイヤー_1
  6
CONTINUOUS
 62
       3
100
AcDbLine
 10
-75.16503241
 20
44.94925437
 30
0.0
 11
-75.04559885
 21
45.06590178
 31
0.0
  0
LINE
  5
17F
100
AcDbEntity
  8
レイヤー_1
  6
CONTINUOUS
 62
       3
100
AcDbLine
 10
-75.04559885
 20
45.06590178
 30
0.0
 11
-74.93757231
 21
45.19331652
 31
0.0
  0
LINE
  5
180
100
AcDbEntity
  8
レイヤー_1
  6
CONTINUOUS
 62
       3
100
AcDbLine
 10
-74.93757231
 20
45.19331652
 30
0.0
 11
-74.84180081
 21
45.33065014
 31
0.0
  0
LINE
  5
181
100
AcDbEntity
  8
レイヤー_1
  6
CONTINUOUS
 62
       3
100
AcDbLine
 10
-74.84180081
 20
45.33065014
 30
0.0
 11
-74.75913236
 21
45.47705418
 31
0.0
  0
LINE
  5
182
100
AcDbEntity
  8
レイヤー_1
  6
CONTINUOUS
 62
       3
100
AcDbLine
 10
-74.75913236
 20
45.47705418
 30
0.0
 11
-74.69041498
 21
45.63168021
 31
0.0
  0
LINE
  5
183
100
AcDbEntity
  8
レイヤー_1
  6
CONTINUOUS
 62
       3
100
AcDbLine
 10
-74.69041498
 20
45.63168021
 30
0.0
 11
-74.63649669
 21
45.79367976
 31
0.0
  0
LINE
  5
184
100
AcDbEntity
  8
レイヤー_1
  6
CONTINUOUS
 62
       3
100
AcDbLine
 10
-74.63649669
 20
45.79367976
 30
0.0
 11
-74.59822549
 21
45.96220439
 31
0.0
  0
LINE
  5
185
100
AcDbEntity
  8
レイヤー_1
  6
CONTINUOUS
 62
       3
100
AcDbLine
 10
-74.59822549
 20
45.96220439
 30
0.0
 11
-74.57644941
 21
46.13640565
 31
0.0
  0
LINE
  5
186
100
AcDbEntity
  8
レイヤー_1
  6
CONTINUOUS
 62
       3
100
AcDbLine
 10
-74.57644941
 20
46.13640565
 30
0.0
 11
-74.57201204
 21
46.3151872
 31
0.0
  0
LINE
  5
187
100
AcDbEntity
  8
レイヤー_1
  6
CONTINUOUS
 62
       3
100
AcDbLine
 10
-74.57201204
 20
46.3151872
 30
0.0
 11
-74.58522256
 21
46.49196071
 31
0.0
  0
LINE
  5
188
100
AcDbEntity
  8
レイヤー_1
  6
CONTINUOUS
 62
       3
100
AcDbLine
 10
-74.58522256
 20
46.49196071
 30
0.0
 11
-74.6153522
 21
46.66347531
 31
0.0
  0
LINE
  5
189
100
AcDbEntity
  8
レイヤー_1
  6
CONTINUOUS
 62
       3
100
AcDbLine
 10
-74.6153522
 20
46.66347531
 30
0.0
 11
-74.66155295
 21
46.82888298
 31
0.0
  0
LINE
  5
18A
100
AcDbEntity
  8
レイヤー_1
  6
CONTINUOUS
 62
       3
100
AcDbLine
 10
-74.66155295
 20
46.82888298
 30
0.0
 11
-74.72297679
 21
46.98733571
 31
0.0
  0
LINE
  5
18B
100
AcDbEntity
  8
レイヤー_1
  6
CONTINUOUS
 62
       3
100
AcDbLine
 10
-74.72297679
 20
46.98733571
 30
0.0
 11
-74.7987757
 21
47.13798549
 31
0.0
  0
LINE
  5
18C
100
AcDbEntity
  8
レイヤー_1
  6
CONTINUOUS
 62
       3
100
AcDbLine
 10
-74.7987757
 20
47.13798549
 30
0.0
 11
-74.88810168
 21
47.27998429
 31
0.0
  0
LINE
  5
18D
100
AcDbEntity
  8
レイヤー_1
  6
CONTINUOUS
 62
       3
100
AcDbLine
 10
-74.88810168
 20
47.27998429
 30
0.0
 11
-74.9901067
 21
47.41248411
 31
0.0
  0
LINE
  5
18E
100
AcDbEntity
  8
レイヤー_1
  6
CONTINUOUS
 62
       3
100
AcDbLine
 10
-74.9901067
 20
47.41248411
 30
0.0
 11
-75.10394276
 21
47.53463692
 31
0.0
  0
LINE
  5
18F
100
AcDbEntity
  8
レイヤー_1
  6
CONTINUOUS
 62
       3
100
AcDbLine
 10
-75.10394276
 20
47.53463692
 30
0.0
 11
-75.22876182
 21
47.64559472
 31
0.0
  0
LINE
  5
190
100
AcDbEntity
  8
レイヤー_1
  6
CONTINUOUS
 62
       3
100
AcDbLine
 10
-75.22876182
 20
47.64559472
 30
0.0
 11
-75.36371589
 21
47.74450948
 31
0.0
  0
LINE
  5
191
100
AcDbEntity
  8
レイヤー_1
  6
CONTINUOUS
 62
       3
100
AcDbLine
 10
-75.36371589
 20
47.74450948
 30
0.0
 11
-75.50795694
 21
47.83053319
 31
0.0
  0
LINE
  5
192
100
AcDbEntity
  8
レイヤー_1
  6
CONTINUOUS
 62
       3
100
AcDbLine
 10
-75.50795694
 20
47.83053319
 30
0.0
 11
-75.66063695
 21
47.90281784
 31
0.0
  0
LINE
  5
193
100
AcDbEntity
  8
レイヤー_1
  6
CONTINUOUS
 62
       3
100
AcDbLine
 10
-75.66063695
 20
47.90281784
 30
0.0
 11
-75.82090792
 21
47.96051541
 31
0.0
  0
LINE
  5
194
100
AcDbEntity
  8
レイヤー_1
  6
CONTINUOUS
 62
       3
100
AcDbLine
 10
-75.82090792
 20
47.96051541
 30
0.0
 11
-75.98792183
 21
48.00277788
 31
0.0
  0
LINE
  5
195
100
AcDbEntity
  8
レイヤー_1
  6
CONTINUOUS
 62
       3
100
AcDbLine
 10
-75.98792183
 20
48.00277788
 30
0.0
 11
-76.16083065
 21
48.02875724
 31
0.0
  0
LINE
  5
196
100
AcDbEntity
  8
レイヤー_1
  6
CONTINUOUS
 62
       3
100
AcDbLine
 10
-76.16083065
 20
48.02875724
 30
0.0
 11
-76.33878639
 21
48.03760548
 31
0.0
  0
LINE
  5
197
100
AcDbEntity
  8
レイヤー_1
  6
CONTINUOUS
 62
       3
100
AcDbLine
 10
-71.27335914
 20
48.03760548
 30
0.0
 11
-71.45141908
 21
48.02875724
 31
0.0
  0
LINE
  5
198
100
AcDbEntity
  8
レイヤー_1
  6
CONTINUOUS
 62
       3
100
AcDbLine
 10
-71.45141908
 20
48.02875724
 30
0.0
 11
-71.62441271
 21
48.00277788
 31
0.0
  0
LINE
  5
199
100
AcDbEntity
  8
レイヤー_1
  6
CONTINUOUS
 62
       3
100
AcDbLine
 10
-71.62441271
 20
48.00277788
 30
0.0
 11
-71.79149375
 21
47.96051541
 31
0.0
  0
LINE
  5
19A
100
AcDbEntity
  8
レイヤー_1
  6
CONTINUOUS
 62
       3
100
AcDbLine
 10
-71.79149375
 20
47.96051541
 30
0.0
 11
-71.95181592
 21
47.90281784
 31
0.0
  0
LINE
  5
19B
100
AcDbEntity
  8
レイヤー_1
  6
CONTINUOUS
 62
       3
100
AcDbLine
 10
-71.95181592
 20
47.90281784
 30
0.0
 11
-72.10453295
 21
47.83053319
 31
0.0
  0
LINE
  5
19C
100
AcDbEntity
  8
レイヤー_1
  6
CONTINUOUS
 62
       3
100
AcDbLine
 10
-72.10453295
 20
47.83053319
 30
0.0
 11
-72.24879853
 21
47.74450948
 31
0.0
  0
LINE
  5
19D
100
AcDbEntity
  8
レイヤー_1
  6
CONTINUOUS
 62
       3
100
AcDbLine
 10
-72.24879853
 20
47.74450948
 30
0.0
 11
-72.38376641
 21
47.64559472
 31
0.0
  0
LINE
  5
19E
100
AcDbEntity
  8
レイヤー_1
  6
CONTINUOUS
 62
       3
100
AcDbLine
 10
-72.38376641
 20
47.64559472
 30
0.0
 11
-72.50859029
 21
47.53463692
 31
0.0
  0
LINE
  5
19F
100
AcDbEntity
  8
レイヤー_1
  6
CONTINUOUS
 62
       3
100
AcDbLine
 10
-72.50859029
 20
47.53463692
 30
0.0
 11
-72.62242389
 21
47.41248411
 31
0.0
  0
LINE
  5
1A0
100
AcDbEntity
  8
レイヤー_1
  6
CONTINUOUS
 62
       3
100
AcDbLine
 10
-72.62242389
 20
47.41248411
 30
0.0
 11
-72.72442094
 21
47.27998429
 31
0.0
  0
LINE
  5
1A1
100
AcDbEntity
  8
レイヤー_1
  6
CONTINUOUS
 62
       3
100
AcDbLine
 10
-72.72442094
 20
47.27998429
 30
0.0
 11
-72.81373515
 21
47.13798549
 31
0.0
  0
LINE
  5
1A2
100
AcDbEntity
  8
レイヤー_1
  6
CONTINUOUS
 62
       3
100
AcDbLine
 10
-72.81373515
 20
47.13798549
 30
0.0
 11
-72.88952024
 21
46.98733571
 31
0.0
  0
LINE
  5
1A3
100
AcDbEntity
  8
レイヤー_1
  6
CONTINUOUS
 62
       3
100
AcDbLine
 10
-72.88952024
 20
46.98733571
 30
0.0
 11
-72.95092992
 21
46.82888298
 31
0.0
  0
LINE
  5
1A4
100
AcDbEntity
  8
レイヤー_1
  6
CONTINUOUS
 62
       3
100
AcDbLine
 10
-72.95092992
 20
46.82888298
 30
0.0
 11
-72.99711793
 21
46.66347531
 31
0.0
  0
LINE
  5
1A5
100
AcDbEntity
  8
レイヤー_1
  6
CONTINUOUS
 62
       3
100
AcDbLine
 10
-72.99711793
 20
46.66347531
 30
0.0
 11
-73.02723797
 21
46.49196071
 31
0.0
  0
LINE
  5
1A6
100
AcDbEntity
  8
レイヤー_1
  6
CONTINUOUS
 62
       3
100
AcDbLine
 10
-73.02723797
 20
46.49196071
 30
0.0
 11
-73.04044376
 21
46.3151872
 31
0.0
  0
LINE
  5
1A7
100
AcDbEntity
  8
レイヤー_1
  6
CONTINUOUS
 62
       3
100
AcDbLine
 10
-73.04044376
 20
46.3151872
 30
0.0
 11
-73.03600804
 21
46.13640565
 31
0.0
  0
LINE
  5
1A8
100
AcDbEntity
  8
レイヤー_1
  6
CONTINUOUS
 62
       3
100
AcDbLine
 10
-73.03600804
 20
46.13640565
 30
0.0
 11
-73.01423933
 21
45.96220439
 31
0.0
  0
LINE
  5
1A9
100
AcDbEntity
  8
レイヤー_1
  6
CONTINUOUS
 62
       3
100
AcDbLine
 10
-73.01423933
 20
45.96220439
 30
0.0
 11
-72.97597953
 21
45.79367976
 31
0.0
  0
LINE
  5
1AA
100
AcDbEntity
  8
レイヤー_1
  6
CONTINUOUS
 62
       3
100
AcDbLine
 10
-72.97597953
 20
45.79367976
 30
0.0
 11
-72.9220749
 21
45.63168021
 31
0.0
  0
LINE
  5
1AB
100
AcDbEntity
  8
レイヤー_1
  6
CONTINUOUS
 62
       3
100
AcDbLine
 10
-72.9220749
 20
45.63168021
 30
0.0
 11
-72.85337172
 21
45.47705418
 31
0.0
  0
LINE
  5
1AC
100
AcDbEntity
  8
レイヤー_1
  6
CONTINUOUS
 62
       3
100
AcDbLine
 10
-72.85337172
 20
45.47705418
 30
0.0
 11
-72.77071629
 21
45.33065014
 31
0.0
  0
LINE
  5
1AD
100
AcDbEntity
  8
レイヤー_1
  6
CONTINUOUS
 62
       3
100
AcDbLine
 10
-72.77071629
 20
45.33065014
 30
0.0
 11
-72.67495488
 21
45.19331652
 31
0.0
  0
LINE
  5
1AE
100
AcDbEntity
  8
レイヤー_1
  6
CONTINUOUS
 62
       3
100
AcDbLine
 10
-72.67495488
 20
45.19331652
 30
0.0
 11
-72.56693377
 21
45.06590178
 31
0.0
  0
LINE
  5
1AF
100
AcDbEntity
  8
レイヤー_1
  6
CONTINUOUS
 62
       3
100
AcDbLine
 10
-72.56693377
 20
45.06590178
 30
0.0
 11
-72.44749924
 21
44.94925437
 31
0.0
  0
LINE
  5
1B0
100
AcDbEntity
  8
レイヤー_1
  6
CONTINUOUS
 62
       3
100
AcDbLine
 10
-72.44749924
 20
44.94925437
 30
0.0
 11
-72.31749758
 21
44.84422273
 31
0.0
  0
LINE
  5
1B1
100
AcDbEntity
  8
レイヤー_1
  6
CONTINUOUS
 62
       3
100
AcDbLine
 10
-72.31749758
 20
44.84422273
 30
0.0
 11
-72.17777506
 21
44.75165531
 31
0.0
  0
LINE
  5
1B2
100
AcDbEntity
  8
レイヤー_1
  6
CONTINUOUS
 62
       3
100
AcDbLine
 10
-72.17777506
 20
44.75165531
 30
0.0
 11
-72.02917797
 21
44.67240056
 31
0.0
  0
LINE
  5
1B3
100
AcDbEntity
  8
レイヤー_1
  6
CONTINUOUS
 62
       3
100
AcDbLine
 10
-72.02917797
 20
44.67240056
 30
0.0
 11
-71.87255259
 21
44.60730694
 31
0.0
  0
LINE
  5
1B4
100
AcDbEntity
  8
レイヤー_1
  6
CONTINUOUS
 62
       3
100
AcDbLine
 10
-71.87255259
 20
44.60730694
 30
0.0
 11
-71.7087452
 21
44.55722289
 31
0.0
  0
LINE
  5
1B5
100
AcDbEntity
  8
レイヤー_1
  6
CONTINUOUS
 62
       3
100
AcDbLine
 10
-71.7087452
 20
44.55722289
 30
0.0
 11
-71.53860208
 21
44.52299685
 31
0.0
  0
LINE
  5
1B6
100
AcDbEntity
  8
レイヤー_1
  6
CONTINUOUS
 62
       3
100
AcDbLine
 10
-71.53860208
 20
44.52299685
 30
0.0
 11
-71.36296951
 21
44.50547729
 31
0.0
  0
LINE
  5
1B7
100
AcDbEntity
  8
レイヤー_1
  6
CONTINUOUS
 62
       3
100
AcDbLine
 10
-71.36296951
 20
44.50547729
 30
0.0
 11
-71.18380341
 21
44.50547729
 31
0.0
  0
LINE
  5
1B8
100
AcDbEntity
  8
レイヤー_1
  6
CONTINUOUS
 62
       3
100
AcDbLine
 10
-71.18380341
 20
44.50547729
 30
0.0
 11
-71.00826513
 21
44.52299685
 31
0.0
  0
LINE
  5
1B9
100
AcDbEntity
  8
レイヤー_1
  6
CONTINUOUS
 62
       3
100
AcDbLine
 10
-71.00826513
 20
44.52299685
 30
0.0
 11
-70.83819776
 21
44.55722289
 31
0.0
  0
LINE
  5
1BA
100
AcDbEntity
  8
レイヤー_1
  6
CONTINUOUS
 62
       3
100
AcDbLine
 10
-70.83819776
 20
44.55722289
 30
0.0
 11
-70.67444932
 21
44.60730694
 31
0.0
  0
LINE
  5
1BB
100
AcDbEntity
  8
レイヤー_1
  6
CONTINUOUS
 62
       3
100
AcDbLine
 10
-70.67444932
 20
44.60730694
 30
0.0
 11
-70.51786783
 21
44.67240056
 31
0.0
  0
LINE
  5
1BC
100
AcDbEntity
  8
レイヤー_1
  6
CONTINUOUS
 62
       3
100
AcDbLine
 10
-70.51786783
 20
44.67240056
 30
0.0
 11
-70.36930129
 21
44.75165531
 31
0.0
  0
LINE
  5
1BD
100
AcDbEntity
  8
レイヤー_1
  6
CONTINUOUS
 62
       3
100
AcDbLine
 10
-70.36930129
 20
44.75165531
 30
0.0
 11
-70.22959774
 21
44.84422273
 31
0.0
  0
LINE
  5
1BE
100
AcDbEntity
  8
レイヤー_1
  6
CONTINUOUS
 62
       3
100
AcDbLine
 10
-70.22959774
 20
44.84422273
 30
0.0
 11
-70.09960517
 21
44.94925437
 31
0.0
  0
LINE
  5
1BF
100
AcDbEntity
  8
レイヤー_1
  6
CONTINUOUS
 62
       3
100
AcDbLine
 10
-70.09960517
 20
44.94925437
 30
0.0
 11
-69.98017161
 21
45.06590178
 31
0.0
  0
LINE
  5
1C0
100
AcDbEntity
  8
レイヤー_1
  6
CONTINUOUS
 62
       3
100
AcDbLine
 10
-69.98017161
 20
45.06590178
 30
0.0
 11
-69.87214507
 21
45.19331652
 31
0.0
  0
LINE
  5
1C1
100
AcDbEntity
  8
レイヤー_1
  6
CONTINUOUS
 62
       3
100
AcDbLine
 10
-69.87214507
 20
45.19331652
 30
0.0
 11
-69.77637357
 21
45.33065014
 31
0.0
  0
LINE
  5
1C2
100
AcDbEntity
  8
レイヤー_1
  6
CONTINUOUS
 62
       3
100
AcDbLine
 10
-69.77637357
 20
45.33065014
 30
0.0
 11
-69.69370512
 21
45.47705418
 31
0.0
  0
LINE
  5
1C3
100
AcDbEntity
  8
レイヤー_1
  6
CONTINUOUS
 62
       3
100
AcDbLine
 10
-69.69370512
 20
45.47705418
 30
0.0
 11
-69.62498774
 21
45.63168021
 31
0.0
  0
LINE
  5
1C4
100
AcDbEntity
  8
レイヤー_1
  6
CONTINUOUS
 62
       3
100
AcDbLine
 10
-69.62498774
 20
45.63168021
 30
0.0
 11
-69.57106944
 21
45.79367976
 31
0.0
  0
LINE
  5
1C5
100
AcDbEntity
  8
レイヤー_1
  6
CONTINUOUS
 62
       3
100
AcDbLine
 10
-69.57106944
 20
45.79367976
 30
0.0
 11
-69.53279825
 21
45.96220439
 31
0.0
  0
LINE
  5
1C6
100
AcDbEntity
  8
レイヤー_1
  6
CONTINUOUS
 62
       3
100
AcDbLine
 10
-69.53279825
 20
45.96220439
 30
0.0
 11
-69.51102217
 21
46.13640565
 31
0.0
  0
LINE
  5
1C7
100
AcDbEntity
  8
レイヤー_1
  6
CONTINUOUS
 62
       3
100
AcDbLine
 10
-69.51102217
 20
46.13640565
 30
0.0
 11
-69.5065848
 21
46.3151872
 31
0.0
  0
LINE
  5
1C8
100
AcDbEntity
  8
レイヤー_1
  6
CONTINUOUS
 62
       3
100
AcDbLine
 10
-69.5065848
 20
46.3151872
 30
0.0
 11
-69.51979532
 21
46.49196071
 31
0.0
  0
LINE
  5
1C9
100
AcDbEntity
  8
レイヤー_1
  6
CONTINUOUS
 62
       3
100
AcDbLine
 10
-69.51979532
 20
46.49196071
 30
0.0
 11
-69.54992496
 21
46.66347531
 31
0.0
  0
LINE
  5
1CA
100
AcDbEntity
  8
レイヤー_1
  6
CONTINUOUS
 62
       3
100
AcDbLine
 10
-69.54992496
 20
46.66347531
 30
0.0
 11
-69.5961257
 21
46.82888298
 31
0.0
  0
LINE
  5
1CB
100
AcDbEntity
  8
レイヤー_1
  6
CONTINUOUS
 62
       3
100
AcDbLine
 10
-69.5961257
 20
46.82888298
 30
0.0
 11
-69.65754954
 21
46.98733571
 31
0.0
  0
LINE
  5
1CC
100
AcDbEntity
  8
レイヤー_1
  6
CONTINUOUS
 62
       3
100
AcDbLine
 10
-69.65754954
 20
46.98733571
 30
0.0
 11
-69.73334846
 21
47.13798549
 31
0.0
  0
LINE
  5
1CD
100
AcDbEntity
  8
レイヤー_1
  6
CONTINUOUS
 62
       3
100
AcDbLine
 10
-69.73334846
 20
47.13798549
 30
0.0
 11
-69.82267444
 21
47.27998429
 31
0.0
  0
LINE
  5
1CE
100
AcDbEntity
  8
レイヤー_1
  6
CONTINUOUS
 62
       3
100
AcDbLine
 10
-69.82267444
 20
47.27998429
 30
0.0
 11
-69.92467946
 21
47.41248411
 31
0.0
  0
LINE
  5
1CF
100
AcDbEntity
  8
レイヤー_1
  6
CONTINUOUS
 62
       3
100
AcDbLine
 10
-69.92467946
 20
47.41248411
 30
0.0
 11
-70.03851551
 21
47.53463692
 31
0.0
  0
LINE
  5
1D0
100
AcDbEntity
  8
レイヤー_1
  6
CONTINUOUS
 62
       3
100
AcDbLine
 10
-70.03851551
 20
47.53463692
 30
0.0
 11
-70.16333458
 21
47.64559472
 31
0.0
  0
LINE
  5
1D1
100
AcDbEntity
  8
レイヤー_1
  6
CONTINUOUS
 62
       3
100
AcDbLine
 10
-70.16333458
 20
47.64559472
 30
0.0
 11
-70.29828864
 21
47.74450948
 31
0.0
  0
LINE
  5
1D2
100
AcDbEntity
  8
レイヤー_1
  6
CONTINUOUS
 62
       3
100
AcDbLine
 10
-70.29828864
 20
47.74450948
 30
0.0
 11
-70.44252969
 21
47.83053319
 31
0.0
  0
LINE
  5
1D3
100
AcDbEntity
  8
レイヤー_1
  6
CONTINUOUS
 62
       3
100
AcDbLine
 10
-70.44252969
 20
47.83053319
 30
0.0
 11
-70.59520971
 21
47.90281784
 31
0.0
  0
LINE
  5
1D4
100
AcDbEntity
  8
レイヤー_1
  6
CONTINUOUS
 62
       3
100
AcDbLine
 10
-70.59520971
 20
47.90281784
 30
0.0
 11
-70.75548068
 21
47.96051541
 31
0.0
  0
LINE
  5
1D5
100
AcDbEntity
  8
レイヤー_1
  6
CONTINUOUS
 62
       3
100
AcDbLine
 10
-70.75548068
 20
47.96051541
 30
0.0
 11
-70.92249458
 21
48.00277788
 31
0.0
  0
LINE
  5
1D6
100
AcDbEntity
  8
レイヤー_1
  6
CONTINUOUS
 62
       3
100
AcDbLine
 10
-70.92249458
 20
48.00277788
 30
0.0
 11
-71.09540341
 21
48.02875724
 31
0.0
  0
LINE
  5
1D7
100
AcDbEntity
  8
レイヤー_1
  6
CONTINUOUS
 62
       3
100
AcDbLine
 10
-71.09540341
 20
48.02875724
 30
0.0
 11
-71.27335914
 21
48.03760548
 31
0.0
  0
LINE
  5
1D8
100
AcDbEntity
  8
レイヤー_1
  6
CONTINUOUS
 62
       3
100
AcDbLine
 10
-76.32080299
 20
-40.17778512
 30
0.0
 11
-76.14290105
 21
-40.16894027
 31
0.0
  0
LINE
  5
1D9
100
AcDbEntity
  8
レイヤー_1
  6
CONTINUOUS
 62
       3
100
AcDbLine
 10
-76.14290105
 20
-40.16894027
 30
0.0
 11
-75.9700394
 21
-40.14297046
 31
0.0
  0
LINE
  5
1DA
100
AcDbEntity
  8
レイヤー_1
  6
CONTINUOUS
 62
       3
100
AcDbLine
 10
-75.9700394
 20
-40.14297046
 30
0.0
 11
-75.80306649
 21
-40.10072286
 31
0.0
  0
LINE
  5
1DB
100
AcDbEntity
  8
レイヤー_1
  6
CONTINUOUS
 62
       3
100
AcDbLine
 10
-75.80306649
 20
-40.10072286
 30
0.0
 11
-75.64283078
 21
-40.0430446
 31
0.0
  0
LINE
  5
1DC
100
AcDbEntity
  8
レイヤー_1
  6
CONTINUOUS
 62
       3
100
AcDbLine
 10
-75.64283078
 20
-40.0430446
 30
0.0
 11
-75.49018071
 21
-39.97078284
 31
0.0
  0
LINE
  5
1DD
100
AcDbEntity
  8
レイヤー_1
  6
CONTINUOUS
 62
       3
100
AcDbLine
 10
-75.49018071
 20
-39.97078284
 30
0.0
 11
-75.34596473
 21
-39.88478472
 31
0.0
  0
LINE
  5
1DE
100
AcDbEntity
  8
レイヤー_1
  6
CONTINUOUS
 62
       3
100
AcDbLine
 10
-75.34596473
 20
-39.88478472
 30
0.0
 11
-75.21103129
 21
-39.7858974
 31
0.0
  0
LINE
  5
1DF
100
AcDbEntity
  8
レイヤー_1
  6
CONTINUOUS
 62
       3
100
AcDbLine
 10
-75.21103129
 20
-39.7858974
 30
0.0
 11
-75.08622884
 21
-39.67496802
 31
0.0
  0
LINE
  5
1E0
100
AcDbEntity
  8
レイヤー_1
  6
CONTINUOUS
 62
       3
100
AcDbLine
 10
-75.08622884
 20
-39.67496802
 30
0.0
 11
-74.97240583
 21
-39.55284373
 31
0.0
  0
LINE
  5
1E1
100
AcDbEntity
  8
レイヤー_1
  6
CONTINUOUS
 62
       3
100
AcDbLine
 10
-74.97240583
 20
-39.55284373
 30
0.0
 11
-74.8704107
 21
-39.42037168
 31
0.0
  0
LINE
  5
1E2
100
AcDbEntity
  8
レイヤー_1
  6
CONTINUOUS
 62
       3
100
AcDbLine
 10
-74.8704107
 20
-39.42037168
 30
0.0
 11
-74.78109191
 21
-39.27839901
 31
0.0
  0
LINE
  5
1E3
100
AcDbEntity
  8
レイヤー_1
  6
CONTINUOUS
 62
       3
100
AcDbLine
 10
-74.78109191
 20
-39.27839901
 30
0.0
 11
-74.7052979
 21
-39.12777288
 31
0.0
  0
LINE
  5
1E4
100
AcDbEntity
  8
レイヤー_1
  6
CONTINUOUS
 62
       3
100
AcDbLine
 10
-74.7052979
 20
-39.12777288
 30
0.0
 11
-74.64387713
 21
-38.96934044
 31
0.0
  0
LINE
  5
1E5
100
AcDbEntity
  8
レイヤー_1
  6
CONTINUOUS
 62
       3
100
AcDbLine
 10
-74.64387713
 20
-38.96934044
 30
0.0
 11
-74.59767804
 21
-38.80394882
 31
0.0
  0
LINE
  5
1E6
100
AcDbEntity
  8
レイヤー_1
  6
CONTINUOUS
 62
       3
100
AcDbLine
 10
-74.59767804
 20
-38.80394882
 30
0.0
 11
-74.56754908
 21
-38.63244519
 31
0.0
  0
LINE
  5
1E7
100
AcDbEntity
  8
レイヤー_1
  6
CONTINUOUS
 62
       3
100
AcDbLine
 10
-74.56754908
 20
-38.63244519
 30
0.0
 11
-74.5543387
 21
-38.45567669
 31
0.0
  0
LINE
  5
1E8
100
AcDbEntity
  8
レイヤー_1
  6
CONTINUOUS
 62
       3
100
AcDbLine
 10
-74.5543387
 20
-38.45567669
 30
0.0
 11
-74.55877604
 21
-38.27685438
 31
0.0
  0
LINE
  5
1E9
100
AcDbEntity
  8
レイヤー_1
  6
CONTINUOUS
 62
       3
100
AcDbLine
 10
-74.55877604
 20
-38.27685438
 30
0.0
 11
-74.58055176
 21
-38.10260432
 31
0.0
  0
LINE
  5
1EA
100
AcDbEntity
  8
レイヤー_1
  6
CONTINUOUS
 62
       3
100
AcDbLine
 10
-74.58055176
 20
-38.10260432
 30
0.0
 11
-74.61882185
 21
-37.93403718
 31
0.0
  0
LINE
  5
1EB
100
AcDbEntity
  8
レイヤー_1
  6
CONTINUOUS
 62
       3
100
AcDbLine
 10
-74.61882185
 20
-37.93403718
 30
0.0
 11
-74.67273783
 21
-37.77200098
 31
0.0
  0
LINE
  5
1EC
100
AcDbEntity
  8
レイヤー_1
  6
CONTINUOUS
 62
       3
100
AcDbLine
 10
-74.67273783
 20
-37.77200098
 30
0.0
 11
-74.74145128
 21
-37.61734372
 31
0.0
  0
LINE
  5
1ED
100
AcDbEntity
  8
レイヤー_1
  6
CONTINUOUS
 62
       3
100
AcDbLine
 10
-74.74145128
 20
-37.61734372
 30
0.0
 11
-74.82411373
 21
-37.47091343
 31
0.0
  0
LINE
  5
1EE
100
AcDbEntity
  8
レイヤー_1
  6
CONTINUOUS
 62
       3
100
AcDbLine
 10
-74.82411373
 20
-37.47091343
 30
0.0
 11
-74.91987675
 21
-37.33355812
 31
0.0
  0
LINE
  5
1EF
100
AcDbEntity
  8
レイヤー_1
  6
CONTINUOUS
 62
       3
100
AcDbLine
 10
-74.91987675
 20
-37.33355812
 30
0.0
 11
-75.02789188
 21
-37.2061258
 31
0.0
  0
LINE
  5
1F0
100
AcDbEntity
  8
レイヤー_1
  6
CONTINUOUS
 62
       3
100
AcDbLine
 10
-75.02789188
 20
-37.2061258
 30
0.0
 11
-75.14731067
 21
-37.0894645
 31
0.0
  0
LINE
  5
1F1
100
AcDbEntity
  8
レイヤー_1
  6
CONTINUOUS
 62
       3
100
AcDbLine
 10
-75.14731067
 20
-37.0894645
 30
0.0
 11
-75.27728467
 21
-36.98442221
 31
0.0
  0
LINE
  5
1F2
100
AcDbEntity
  8
レイヤー_1
  6
CONTINUOUS
 62
       3
100
AcDbLine
 10
-75.27728467
 20
-36.98442221
 30
0.0
 11
-75.41696543
 21
-36.89184698
 31
0.0
  0
LINE
  5
1F3
100
AcDbEntity
  8
レイヤー_1
  6
CONTINUOUS
 62
       3
100
AcDbLine
 10
-75.41696543
 20
-36.89184698
 30
0.0
 11
-75.56550451
 21
-36.81258679
 31
0.0
  0
LINE
  5
1F4
100
AcDbEntity
  8
レイヤー_1
  6
CONTINUOUS
 62
       3
100
AcDbLine
 10
-75.56550451
 20
-36.81258679
 30
0.0
 11
-75.72205346
 21
-36.74748968
 31
0.0
  0
LINE
  5
1F5
100
AcDbEntity
  8
レイヤー_1
  6
CONTINUOUS
 62
       3
100
AcDbLine
 10
-75.72205346
 20
-36.74748968
 30
0.0
 11
-75.88576383
 21
-36.69740366
 31
0.0
  0
LINE
  5
1F6
100
AcDbEntity
  8
レイヤー_1
  6
CONTINUOUS
 62
       3
100
AcDbLine
 10
-75.88576383
 20
-36.69740366
 30
0.0
 11
-76.05578716
 21
-36.66317674
 31
0.0
  0
LINE
  5
1F7
100
AcDbEntity
  8
レイヤー_1
  6
CONTINUOUS
 62
       3
100
AcDbLine
 10
-76.05578716
 20
-36.66317674
 30
0.0
 11
-76.23127501
 21
-36.64565694
 31
0.0
  0
LINE
  5
1F8
100
AcDbEntity
  8
レイヤー_1
  6
CONTINUOUS
 62
       3
100
AcDbLine
 10
-76.23127501
 20
-36.64565694
 30
0.0
 11
-76.41035872
 21
-36.64565694
 31
0.0
  0
LINE
  5
1F9
100
AcDbEntity
  8
レイヤー_1
  6
CONTINUOUS
 62
       3
100
AcDbLine
 10
-76.41035872
 20
-36.64565694
 30
0.0
 11
-76.585897
 21
-36.66317674
 31
0.0
  0
LINE
  5
1FA
100
AcDbEntity
  8
レイヤー_1
  6
CONTINUOUS
 62
       3
100
AcDbLine
 10
-76.585897
 20
-36.66317674
 30
0.0
 11
-76.75596437
 21
-36.69740366
 31
0.0
  0
LINE
  5
1FB
100
AcDbEntity
  8
レイヤー_1
  6
CONTINUOUS
 62
       3
100
AcDbLine
 10
-76.75596437
 20
-36.69740366
 30
0.0
 11
-76.91971281
 21
-36.74748968
 31
0.0
  0
LINE
  5
1FC
100
AcDbEntity
  8
レイヤー_1
  6
CONTINUOUS
 62
       3
100
AcDbLine
 10
-76.91971281
 20
-36.74748968
 30
0.0
 11
-77.0762943
 21
-36.81258679
 31
0.0
  0
LINE
  5
1FD
100
AcDbEntity
  8
レイヤー_1
  6
CONTINUOUS
 62
       3
100
AcDbLine
 10
-77.0762943
 20
-36.81258679
 30
0.0
 11
-77.22486084
 21
-36.89184698
 31
0.0
  0
LINE
  5
1FE
100
AcDbEntity
  8
レイヤー_1
  6
CONTINUOUS
 62
       3
100
AcDbLine
 10
-77.22486084
 20
-36.89184698
 30
0.0
 11
-77.36456439
 21
-36.98442221
 31
0.0
  0
LINE
  5
1FF
100
AcDbEntity
  8
レイヤー_1
  6
CONTINUOUS
 62
       3
100
AcDbLine
 10
-77.36456439
 20
-36.98442221
 30
0.0
 11
-77.49455696
 21
-37.0894645
 31
0.0
  0
LINE
  5
200
100
AcDbEntity
  8
レイヤー_1
  6
CONTINUOUS
 62
       3
100
AcDbLine
 10
-77.49455696
 20
-37.0894645
 30
0.0
 11
-77.61399052
 21
-37.2061258
 31
0.0
  0
LINE
  5
201
100
AcDbEntity
  8
レイヤー_1
  6
CONTINUOUS
 62
       3
100
AcDbLine
 10
-77.61399052
 20
-37.2061258
 30
0.0
 11
-77.72201706
 21
-37.33355812
 31
0.0
  0
LINE
  5
202
100
AcDbEntity
  8
レイヤー_1
  6
CONTINUOUS
 62
       3
100
AcDbLine
 10
-77.72201706
 20
-37.33355812
 30
0.0
 11
-77.81778856
 21
-37.47091343
 31
0.0
  0
LINE
  5
203
100
AcDbEntity
  8
レイヤー_1
  6
CONTINUOUS
 62
       3
100
AcDbLine
 10
-77.81778856
 20
-37.47091343
 30
0.0
 11
-77.90045701
 21
-37.61734372
 31
0.0
  0
LINE
  5
204
100
AcDbEntity
  8
レイヤー_1
  6
CONTINUOUS
 62
       3
100
AcDbLine
 10
-77.90045701
 20
-37.61734372
 30
0.0
 11
-77.96917439
 21
-37.77200098
 31
0.0
  0
LINE
  5
205
100
AcDbEntity
  8
レイヤー_1
  6
CONTINUOUS
 62
       3
100
AcDbLine
 10
-77.96917439
 20
-37.77200098
 30
0.0
 11
-78.02309269
 21
-37.93403718
 31
0.0
  0
LINE
  5
206
100
AcDbEntity
  8
レイヤー_1
  6
CONTINUOUS
 62
       3
100
AcDbLine
 10
-78.02309269
 20
-37.93403718
 30
0.0
 11
-78.06136388
 21
-38.10260432
 31
0.0
  0
LINE
  5
207
100
AcDbEntity
  8
レイヤー_1
  6
CONTINUOUS
 62
       3
100
AcDbLine
 10
-78.06136388
 20
-38.10260432
 30
0.0
 11
-78.08313996
 21
-38.27685438
 31
0.0
  0
LINE
  5
208
100
AcDbEntity
  8
レイヤー_1
  6
CONTINUOUS
 62
       3
100
AcDbLine
 10
-78.08313996
 20
-38.27685438
 30
0.0
 11
-78.08757733
 21
-38.45567669
 31
0.0
  0
LINE
  5
209
100
AcDbEntity
  8
レイヤー_1
  6
CONTINUOUS
 62
       3
100
AcDbLine
 10
-78.08757733
 20
-38.45567669
 30
0.0
 11
-78.07436681
 21
-38.63244519
 31
0.0
  0
LINE
  5
20A
100
AcDbEntity
  8
レイヤー_1
  6
CONTINUOUS
 62
       3
100
AcDbLine
 10
-78.07436681
 20
-38.63244519
 30
0.0
 11
-78.04423717
 21
-38.80394882
 31
0.0
  0
LINE
  5
20B
100
AcDbEntity
  8
レイヤー_1
  6
CONTINUOUS
 62
       3
100
AcDbLine
 10
-78.04423717
 20
-38.80394882
 30
0.0
 11
-77.99803642
 21
-38.96934044
 31
0.0
  0
LINE
  5
20C
100
AcDbEntity
  8
レイヤー_1
  6
CONTINUOUS
 62
       3
100
AcDbLine
 10
-77.99803642
 20
-38.96934044
 30
0.0
 11
-77.93661259
 21
-39.12777288
 31
0.0
  0
LINE
  5
20D
100
AcDbEntity
  8
レイヤー_1
  6
CONTINUOUS
 62
       3
100
AcDbLine
 10
-77.93661259
 20
-39.12777288
 30
0.0
 11
-77.86081367
 21
-39.27839901
 31
0.0
  0
LINE
  5
20E
100
AcDbEntity
  8
レイヤー_1
  6
CONTINUOUS
 62
       3
100
AcDbLine
 10
-77.86081367
 20
-39.27839901
 30
0.0
 11
-77.77148769
 21
-39.42037168
 31
0.0
  0
LINE
  5
20F
100
AcDbEntity
  8
レイヤー_1
  6
CONTINUOUS
 62
       3
100
AcDbLine
 10
-77.77148769
 20
-39.42037168
 30
0.0
 11
-77.66948267
 21
-39.55284373
 31
0.0
  0
LINE
  5
210
100
AcDbEntity
  8
レイヤー_1
  6
CONTINUOUS
 62
       3
100
AcDbLine
 10
-77.66948267
 20
-39.55284373
 30
0.0
 11
-77.55564662
 21
-39.67496802
 31
0.0
  0
LINE
  5
211
100
AcDbEntity
  8
レイヤー_1
  6
CONTINUOUS
 62
       3
100
AcDbLine
 10
-77.55564662
 20
-39.67496802
 30
0.0
 11
-77.43082755
 21
-39.7858974
 31
0.0
  0
LINE
  5
212
100
AcDbEntity
  8
レイヤー_1
  6
CONTINUOUS
 62
       3
100
AcDbLine
 10
-77.43082755
 20
-39.7858974
 30
0.0
 11
-77.29587349
 21
-39.88478472
 31
0.0
  0
LINE
  5
213
100
AcDbEntity
  8
レイヤー_1
  6
CONTINUOUS
 62
       3
100
AcDbLine
 10
-77.29587349
 20
-39.88478472
 30
0.0
 11
-77.15163244
 21
-39.97078284
 31
0.0
  0
LINE
  5
214
100
AcDbEntity
  8
レイヤー_1
  6
CONTINUOUS
 62
       3
100
AcDbLine
 10
-77.15163244
 20
-39.97078284
 30
0.0
 11
-76.99895242
 21
-40.0430446
 31
0.0
  0
LINE
  5
215
100
AcDbEntity
  8
レイヤー_1
  6
CONTINUOUS
 62
       3
100
AcDbLine
 10
-76.99895242
 20
-40.0430446
 30
0.0
 11
-76.83868145
 21
-40.10072286
 31
0.0
  0
LINE
  5
216
100
AcDbEntity
  8
レイヤー_1
  6
CONTINUOUS
 62
       3
100
AcDbLine
 10
-76.83868145
 20
-40.10072286
 30
0.0
 11
-76.67166755
 21
-40.14297046
 31
0.0
  0
LINE
  5
217
100
AcDbEntity
  8
レイヤー_1
  6
CONTINUOUS
 62
       3
100
AcDbLine
 10
-76.67166755
 20
-40.14297046
 30
0.0
 11
-76.49875872
 21
-40.16894027
 31
0.0
  0
LINE
  5
218
100
AcDbEntity
  8
レイヤー_1
  6
CONTINUOUS
 62
       3
100
AcDbLine
 10
-76.49875872
 20
-40.16894027
 30
0.0
 11
-76.32080299
 21
-40.17778512
 31
0.0
  0
LINE
  5
219
100
AcDbEntity
  8
レイヤー_1
  6
CONTINUOUS
 62
       3
100
AcDbLine
 10
-66.19087867
 20
-40.17778512
 30
0.0
 11
-66.01281536
 21
-40.16894027
 31
0.0
  0
LINE
  5
21A
100
AcDbEntity
  8
レイヤー_1
  6
CONTINUOUS
 62
       3
100
AcDbLine
 10
-66.01281536
 20
-40.16894027
 30
0.0
 11
-65.83981217
 21
-40.14297046
 31
0.0
  0
LINE
  5
21B
100
AcDbEntity
  8
レイヤー_1
  6
CONTINUOUS
 62
       3
100
AcDbLine
 10
-65.83981217
 20
-40.14297046
 30
0.0
 11
-65.67271626
 21
-40.10072286
 31
0.0
  0
LINE
  5
21C
100
AcDbEntity
  8
レイヤー_1
  6
CONTINUOUS
 62
       3
100
AcDbLine
 10
-65.67271626
 20
-40.10072286
 30
0.0
 11
-65.51237478
 21
-40.0430446
 31
0.0
  0
LINE
  5
21D
100
AcDbEntity
  8
レイヤー_1
  6
CONTINUOUS
 62
       3
100
AcDbLine
 10
-65.51237478
 20
-40.0430446
 30
0.0
 11
-65.35963487
 21
-39.97078284
 31
0.0
  0
LINE
  5
21E
100
AcDbEntity
  8
レイヤー_1
  6
CONTINUOUS
 62
       3
100
AcDbLine
 10
-65.35963487
 20
-39.97078284
 30
0.0
 11
-65.21534368
 21
-39.88478472
 31
0.0
  0
LINE
  5
21F
100
AcDbEntity
  8
レイヤー_1
  6
CONTINUOUS
 62
       3
100
AcDbLine
 10
-65.21534368
 20
-39.88478472
 30
0.0
 11
-65.08034837
 21
-39.7858974
 31
0.0
  0
LINE
  5
220
100
AcDbEntity
  8
レイヤー_1
  6
CONTINUOUS
 62
       3
100
AcDbLine
 10
-65.08034837
 20
-39.7858974
 30
0.0
 11
-64.95549607
 21
-39.67496802
 31
0.0
  0
LINE
  5
221
100
AcDbEntity
  8
レイヤー_1
  6
CONTINUOUS
 62
       3
100
AcDbLine
 10
-64.95549607
 20
-39.67496802
 30
0.0
 11
-64.84163395
 21
-39.55284373
 31
0.0
  0
LINE
  5
222
100
AcDbEntity
  8
レイヤー_1
  6
CONTINUOUS
 62
       3
100
AcDbLine
 10
-64.84163395
 20
-39.55284373
 30
0.0
 11
-64.73960913
 21
-39.42037168
 31
0.0
  0
LINE
  5
223
100
AcDbEntity
  8
レイヤー_1
  6
CONTINUOUS
 62
       3
100
AcDbLine
 10
-64.73960913
 20
-39.42037168
 30
0.0
 11
-64.65026879
 21
-39.27839901
 31
0.0
  0
LINE
  5
224
100
AcDbEntity
  8
レイヤー_1
  6
CONTINUOUS
 62
       3
100
AcDbLine
 10
-64.65026879
 20
-39.27839901
 30
0.0
 11
-64.57446005
 21
-39.12777288
 31
0.0
  0
LINE
  5
225
100
AcDbEntity
  8
レイヤー_1
  6
CONTINUOUS
 62
       3
100
AcDbLine
 10
-64.57446005
 20
-39.12777288
 30
0.0
 11
-64.51303008
 21
-38.96934044
 31
0.0
  0
LINE
  5
226
100
AcDbEntity
  8
レイヤー_1
  6
CONTINUOUS
 62
       3
100
AcDbLine
 10
-64.51303008
 20
-38.96934044
 30
0.0
 11
-64.46682602
 21
-38.80394882
 31
0.0
  0
LINE
  5
227
100
AcDbEntity
  8
レイヤー_1
  6
CONTINUOUS
 62
       3
100
AcDbLine
 10
-64.46682602
 20
-38.80394882
 30
0.0
 11
-64.43669501
 21
-38.63244519
 31
0.0
  0
LINE
  5
228
100
AcDbEntity
  8
レイヤー_1
  6
CONTINUOUS
 62
       3
100
AcDbLine
 10
-64.43669501
 20
-38.63244519
 30
0.0
 11
-64.42348421
 21
-38.45567669
 31
0.0
  0
LINE
  5
229
100
AcDbEntity
  8
レイヤー_1
  6
CONTINUOUS
 62
       3
100
AcDbLine
 10
-64.42348421
 20
-38.45567669
 30
0.0
 11
-64.42792164
 21
-38.27685438
 31
0.0
  0
LINE
  5
22A
100
AcDbEntity
  8
レイヤー_1
  6
CONTINUOUS
 62
       3
100
AcDbLine
 10
-64.42792164
 20
-38.27685438
 30
0.0
 11
-64.44969844
 21
-38.10260432
 31
0.0
  0
LINE
  5
22B
100
AcDbEntity
  8
レイヤー_1
  6
CONTINUOUS
 62
       3
100
AcDbLine
 10
-64.44969844
 20
-38.10260432
 30
0.0
 11
-64.48797186
 21
-37.93403718
 31
0.0
  0
LINE
  5
22C
100
AcDbEntity
  8
レイヤー_1
  6
CONTINUOUS
 62
       3
100
AcDbLine
 10
-64.48797186
 20
-37.93403718
 30
0.0
 11
-64.54189477
 21
-37.77200098
 31
0.0
  0
LINE
  5
22D
100
AcDbEntity
  8
レイヤー_1
  6
CONTINUOUS
 62
       3
100
AcDbLine
 10
-64.54189477
 20
-37.77200098
 30
0.0
 11
-64.61062002
 21
-37.61734372
 31
0.0
  0
LINE
  5
22E
100
AcDbEntity
  8
レイヤー_1
  6
CONTINUOUS
 62
       3
100
AcDbLine
 10
-64.61062002
 20
-37.61734372
 30
0.0
 11
-64.69330046
 21
-37.47091343
 31
0.0
  0
LINE
  5
22F
100
AcDbEntity
  8
レイヤー_1
  6
CONTINUOUS
 62
       3
100
AcDbLine
 10
-64.69330046
 20
-37.47091343
 30
0.0
 11
-64.78908893
 21
-37.33355812
 31
0.0
  0
LINE
  5
230
100
AcDbEntity
  8
レイヤー_1
  6
CONTINUOUS
 62
       3
100
AcDbLine
 10
-64.78908893
 20
-37.33355812
 30
0.0
 11
-64.89713829
 21
-37.2061258
 31
0.0
  0
LINE
  5
231
100
AcDbEntity
  8
レイヤー_1
  6
CONTINUOUS
 62
       3
100
AcDbLine
 10
-64.89713829
 20
-37.2061258
 30
0.0
 11
-65.0166014
 21
-37.0894645
 31
0.0
  0
LINE
  5
232
100
AcDbEntity
  8
レイヤー_1
  6
CONTINUOUS
 62
       3
100
AcDbLine
 10
-65.0166014
 20
-37.0894645
 30
0.0
 11
-65.1466311
 21
-36.98442221
 31
0.0
  0
LINE
  5
233
100
AcDbEntity
  8
レイヤー_1
  6
CONTINUOUS
 62
       3
100
AcDbLine
 10
-65.1466311
 20
-36.98442221
 30
0.0
 11
-65.28638024
 21
-36.89184698
 31
0.0
  0
LINE
  5
234
100
AcDbEntity
  8
レイヤー_1
  6
CONTINUOUS
 62
       3
100
AcDbLine
 10
-65.28638024
 20
-36.89184698
 30
0.0
 11
-65.43500168
 21
-36.81258679
 31
0.0
  0
LINE
  5
235
100
AcDbEntity
  8
レイヤー_1
  6
CONTINUOUS
 62
       3
100
AcDbLine
 10
-65.43500168
 20
-36.81258679
 30
0.0
 11
-65.59164827
 21
-36.74748968
 31
0.0
  0
LINE
  5
236
100
AcDbEntity
  8
レイヤー_1
  6
CONTINUOUS
 62
       3
100
AcDbLine
 10
-65.59164827
 20
-36.74748968
 30
0.0
 11
-65.75547286
 21
-36.69740366
 31
0.0
  0
LINE
  5
237
100
AcDbEntity
  8
レイヤー_1
  6
CONTINUOUS
 62
       3
100
AcDbLine
 10
-65.75547286
 20
-36.69740366
 30
0.0
 11
-65.9256283
 21
-36.66317674
 31
0.0
  0
LINE
  5
238
100
AcDbEntity
  8
レイヤー_1
  6
CONTINUOUS
 62
       3
100
AcDbLine
 10
-65.9256283
 20
-36.66317674
 30
0.0
 11
-66.10126745
 21
-36.64565694
 31
0.0
  0
LINE
  5
239
100
AcDbEntity
  8
レイヤー_1
  6
CONTINUOUS
 62
       3
100
AcDbLine
 10
-66.10126745
 20
-36.64565694
 30
0.0
 11
-66.28040665
 21
-36.64565694
 31
0.0
  0
LINE
  5
23A
100
AcDbEntity
  8
レイヤー_1
  6
CONTINUOUS
 62
       3
100
AcDbLine
 10
-66.28040665
 20
-36.64565694
 30
0.0
 11
-66.4558945
 21
-36.66317674
 31
0.0
  0
LINE
  5
23B
100
AcDbEntity
  8
レイヤー_1
  6
CONTINUOUS
 62
       3
100
AcDbLine
 10
-66.4558945
 20
-36.66317674
 30
0.0
 11
-66.62591784
 21
-36.69740366
 31
0.0
  0
LINE
  5
23C
100
AcDbEntity
  8
レイヤー_1
  6
CONTINUOUS
 62
       3
100
AcDbLine
 10
-66.62591784
 20
-36.69740366
 30
0.0
 11
-66.7896282
 21
-36.74748968
 31
0.0
  0
LINE
  5
23D
100
AcDbEntity
  8
レイヤー_1
  6
CONTINUOUS
 62
       3
100
AcDbLine
 10
-66.7896282
 20
-36.74748968
 30
0.0
 11
-66.94617715
 21
-36.81258679
 31
0.0
  0
LINE
  5
23E
100
AcDbEntity
  8
レイヤー_1
  6
CONTINUOUS
 62
       3
100
AcDbLine
 10
-66.94617715
 20
-36.81258679
 30
0.0
 11
-67.09471623
 21
-36.89184698
 31
0.0
  0
LINE
  5
23F
100
AcDbEntity
  8
レイヤー_1
  6
CONTINUOUS
 62
       3
100
AcDbLine
 10
-67.09471623
 20
-36.89184698
 30
0.0
 11
-67.23439699
 21
-36.98442221
 31
0.0
  0
LINE
  5
240
100
AcDbEntity
  8
レイヤー_1
  6
CONTINUOUS
 62
       3
100
AcDbLine
 10
-67.23439699
 20
-36.98442221
 30
0.0
 11
-67.364371
 21
-37.0894645
 31
0.0
  0
LINE
  5
241
100
AcDbEntity
  8
レイヤー_1
  6
CONTINUOUS
 62
       3
100
AcDbLine
 10
-67.364371
 20
-37.0894645
 30
0.0
 11
-67.48378978
 21
-37.2061258
 31
0.0
  0
LINE
  5
242
100
AcDbEntity
  8
レイヤー_1
  6
CONTINUOUS
 62
       3
100
AcDbLine
 10
-67.48378978
 20
-37.2061258
 30
0.0
 11
-67.59180491
 21
-37.33355812
 31
0.0
  0
LINE
  5
243
100
AcDbEntity
  8
レイヤー_1
  6
CONTINUOUS
 62
       3
100
AcDbLine
 10
-67.59180491
 20
-37.33355812
 30
0.0
 11
-67.68756793
 21
-37.47091343
 31
0.0
  0
LINE
  5
244
100
AcDbEntity
  8
レイヤー_1
  6
CONTINUOUS
 62
       3
100
AcDbLine
 10
-67.68756793
 20
-37.47091343
 30
0.0
 11
-67.77023038
 21
-37.61734372
 31
0.0
  0
LINE
  5
245
100
AcDbEntity
  8
レイヤー_1
  6
CONTINUOUS
 62
       3
100
AcDbLine
 10
-67.77023038
 20
-37.61734372
 30
0.0
 11
-67.83894383
 21
-37.77200098
 31
0.0
  0
LINE
  5
246
100
AcDbEntity
  8
レイヤー_1
  6
CONTINUOUS
 62
       3
100
AcDbLine
 10
-67.83894383
 20
-37.77200098
 30
0.0
 11
-67.89285982
 21
-37.93403718
 31
0.0
  0
LINE
  5
247
100
AcDbEntity
  8
レイヤー_1
  6
CONTINUOUS
 62
       3
100
AcDbLine
 10
-67.89285982
 20
-37.93403718
 30
0.0
 11
-67.9311299
 21
-38.10260432
 31
0.0
  0
LINE
  5
248
100
AcDbEntity
  8
レイヤー_1
  6
CONTINUOUS
 62
       3
100
AcDbLine
 10
-67.9311299
 20
-38.10260432
 30
0.0
 11
-67.95290562
 21
-38.27685438
 31
0.0
  0
LINE
  5
249
100
AcDbEntity
  8
レイヤー_1
  6
CONTINUOUS
 62
       3
100
AcDbLine
 10
-67.95290562
 20
-38.27685438
 30
0.0
 11
-67.95734296
 21
-38.45567669
 31
0.0
  0
LINE
  5
24A
100
AcDbEntity
  8
レイヤー_1
  6
CONTINUOUS
 62
       3
100
AcDbLine
 10
-67.95734296
 20
-38.45567669
 30
0.0
 11
-67.94413258
 21
-38.63244519
 31
0.0
  0
LINE
  5
24B
100
AcDbEntity
  8
レイヤー_1
  6
CONTINUOUS
 62
       3
100
AcDbLine
 10
-67.94413258
 20
-38.63244519
 30
0.0
 11
-67.91400362
 21
-38.80394882
 31
0.0
  0
LINE
  5
24C
100
AcDbEntity
  8
レイヤー_1
  6
CONTINUOUS
 62
       3
100
AcDbLine
 10
-67.91400362
 20
-38.80394882
 30
0.0
 11
-67.86780453
 21
-38.96934044
 31
0.0
  0
LINE
  5
24D
100
AcDbEntity
  8
レイヤー_1
  6
CONTINUOUS
 62
       3
100
AcDbLine
 10
-67.86780453
 20
-38.96934044
 30
0.0
 11
-67.80638376
 21
-39.12777288
 31
0.0
  0
LINE
  5
24E
100
AcDbEntity
  8
レイヤー_1
  6
CONTINUOUS
 62
       3
100
AcDbLine
 10
-67.80638376
 20
-39.12777288
 30
0.0
 11
-67.73058975
 21
-39.27839901
 31
0.0
  0
LINE
  5
24F
100
AcDbEntity
  8
レイヤー_1
  6
CONTINUOUS
 62
       3
100
AcDbLine
 10
-67.73058975
 20
-39.27839901
 30
0.0
 11
-67.64127096
 21
-39.42037168
 31
0.0
  0
LINE
  5
250
100
AcDbEntity
  8
レイヤー_1
  6
CONTINUOUS
 62
       3
100
AcDbLine
 10
-67.64127096
 20
-39.42037168
 30
0.0
 11
-67.53927583
 21
-39.55284373
 31
0.0
  0
LINE
  5
251
100
AcDbEntity
  8
レイヤー_1
  6
CONTINUOUS
 62
       3
100
AcDbLine
 10
-67.53927583
 20
-39.55284373
 30
0.0
 11
-67.42545282
 21
-39.67496802
 31
0.0
  0
LINE
  5
252
100
AcDbEntity
  8
レイヤー_1
  6
CONTINUOUS
 62
       3
100
AcDbLine
 10
-67.42545282
 20
-39.67496802
 30
0.0
 11
-67.30065037
 21
-39.7858974
 31
0.0
  0
LINE
  5
253
100
AcDbEntity
  8
レイヤー_1
  6
CONTINUOUS
 62
       3
100
AcDbLine
 10
-67.30065037
 20
-39.7858974
 30
0.0
 11
-67.16571693
 21
-39.88478472
 31
0.0
  0
LINE
  5
254
100
AcDbEntity
  8
レイヤー_1
  6
CONTINUOUS
 62
       3
100
AcDbLine
 10
-67.16571693
 20
-39.88478472
 30
0.0
 11
-67.02150095
 21
-39.97078284
 31
0.0
  0
LINE
  5
255
100
AcDbEntity
  8
レイヤー_1
  6
CONTINUOUS
 62
       3
100
AcDbLine
 10
-67.02150095
 20
-39.97078284
 30
0.0
 11
-66.86885088
 21
-40.0430446
 31
0.0
  0
LINE
  5
256
100
AcDbEntity
  8
レイヤー_1
  6
CONTINUOUS
 62
       3
100
AcDbLine
 10
-66.86885088
 20
-40.0430446
 30
0.0
 11
-66.70861517
 21
-40.10072286
 31
0.0
  0
LINE
  5
257
100
AcDbEntity
  8
レイヤー_1
  6
CONTINUOUS
 62
       3
100
AcDbLine
 10
-66.70861517
 20
-40.10072286
 30
0.0
 11
-66.54164226
 21
-40.14297046
 31
0.0
  0
LINE
  5
258
100
AcDbEntity
  8
レイヤー_1
  6
CONTINUOUS
 62
       3
100
AcDbLine
 10
-66.54164226
 20
-40.14297046
 30
0.0
 11
-66.36878062
 21
-40.16894027
 31
0.0
  0
LINE
  5
259
100
AcDbEntity
  8
レイヤー_1
  6
CONTINUOUS
 62
       3
100
AcDbLine
 10
-66.36878062
 20
-40.16894027
 30
0.0
 11
-66.19087867
 21
-40.17778512
 31
0.0
  0
LINE
  5
25A
100
AcDbEntity
  8
レイヤー_1
  6
CONTINUOUS
 62
       3
100
AcDbLine
 10
-71.25599586
 20
-40.17778512
 30
0.0
 11
-71.07808716
 21
-40.16894027
 31
0.0
  0
LINE
  5
25B
100
AcDbEntity
  8
レイヤー_1
  6
CONTINUOUS
 62
       3
100
AcDbLine
 10
-71.07808716
 20
-40.16894027
 30
0.0
 11
-70.9052064
 21
-40.14297046
 31
0.0
  0
LINE
  5
25C
100
AcDbEntity
  8
レイヤー_1
  6
CONTINUOUS
 62
       3
100
AcDbLine
 10
-70.9052064
 20
-40.14297046
 30
0.0
 11
-70.73820376
 21
-40.10072286
 31
0.0
  0
LINE
  5
25D
100
AcDbEntity
  8
レイヤー_1
  6
CONTINUOUS
 62
       3
100
AcDbLine
 10
-70.73820376
 20
-40.10072286
 30
0.0
 11
-70.57792943
 21
-40.0430446
 31
0.0
  0
LINE
  5
25E
100
AcDbEntity
  8
レイヤー_1
  6
CONTINUOUS
 62
       3
100
AcDbLine
 10
-70.57792943
 20
-40.0430446
 30
0.0
 11
-70.42523359
 21
-39.97078284
 31
0.0
  0
LINE
  5
25F
100
AcDbEntity
  8
レイヤー_1
  6
CONTINUOUS
 62
       3
100
AcDbLine
 10
-70.42523359
 20
-39.97078284
 30
0.0
 11
-70.28096641
 21
-39.88478472
 31
0.0
  0
LINE
  5
260
100
AcDbEntity
  8
レイヤー_1
  6
CONTINUOUS
 62
       3
100
AcDbLine
 10
-70.28096641
 20
-39.88478472
 30
0.0
 11
-70.14597809
 21
-39.7858974
 31
0.0
  0
LINE
  5
261
100
AcDbEntity
  8
レイヤー_1
  6
CONTINUOUS
 62
       3
100
AcDbLine
 10
-70.14597809
 20
-39.7858974
 30
0.0
 11
-70.02111881
 21
-39.67496802
 31
0.0
  0
LINE
  5
262
100
AcDbEntity
  8
レイヤー_1
  6
CONTINUOUS
 62
       3
100
AcDbLine
 10
-70.02111881
 20
-39.67496802
 30
0.0
 11
-69.90723875
 21
-39.55284373
 31
0.0
  0
LINE
  5
263
100
AcDbEntity
  8
レイヤー_1
  6
CONTINUOUS
 62
       3
100
AcDbLine
 10
-69.90723875
 20
-39.55284373
 30
0.0
 11
-69.80518809
 21
-39.42037168
 31
0.0
  0
LINE
  5
264
100
AcDbEntity
  8
レイヤー_1
  6
CONTINUOUS
 62
       3
100
AcDbLine
 10
-69.80518809
 20
-39.42037168
 30
0.0
 11
-69.71581702
 21
-39.27839901
 31
0.0
  0
LINE
  5
265
100
AcDbEntity
  8
レイヤー_1
  6
CONTINUOUS
 62
       3
100
AcDbLine
 10
-69.71581702
 20
-39.27839901
 30
0.0
 11
-69.63997572
 21
-39.12777288
 31
0.0
  0
LINE
  5
266
100
AcDbEntity
  8
レイヤー_1
  6
CONTINUOUS
 62
       3
100
AcDbLine
 10
-69.63997572
 20
-39.12777288
 30
0.0
 11
-69.57851438
 21
-38.96934044
 31
0.0
  0
LINE
  5
267
100
AcDbEntity
  8
レイヤー_1
  6
CONTINUOUS
 62
       3
100
AcDbLine
 10
-69.57851438
 20
-38.96934044
 30
0.0
 11
-69.53228317
 21
-38.80394882
 31
0.0
  0
LINE
  5
268
100
AcDbEntity
  8
レイヤー_1
  6
CONTINUOUS
 62
       3
100
AcDbLine
 10
-69.53228317
 20
-38.80394882
 30
0.0
 11
-69.50213228
 21
-38.63244519
 31
0.0
  0
LINE
  5
269
100
AcDbEntity
  8
レイヤー_1
  6
CONTINUOUS
 62
       3
100
AcDbLine
 10
-69.50213228
 20
-38.63244519
 30
0.0
 11
-69.48891189
 21
-38.45567669
 31
0.0
  0
LINE
  5
26A
100
AcDbEntity
  8
レイヤー_1
  6
CONTINUOUS
 62
       3
100
AcDbLine
 10
-69.48891189
 20
-38.45567669
 30
0.0
 11
-69.49335264
 21
-38.27685438
 31
0.0
  0
LINE
  5
26B
100
AcDbEntity
  8
レイヤー_1
  6
CONTINUOUS
 62
       3
100
AcDbLine
 10
-69.49335264
 20
-38.27685438
 30
0.0
 11
-69.51514455
 21
-38.10260432
 31
0.0
  0
LINE
  5
26C
100
AcDbEntity
  8
レイヤー_1
  6
CONTINUOUS
 62
       3
100
AcDbLine
 10
-69.51514455
 20
-38.10260432
 30
0.0
 11
-69.55344187
 21
-37.93403718
 31
0.0
  0
LINE
  5
26D
100
AcDbEntity
  8
レイヤー_1
  6
CONTINUOUS
 62
       3
100
AcDbLine
 10
-69.55344187
 20
-37.93403718
 30
0.0
 11
-69.60739442
 21
-37.77200098
 31
0.0
  0
LINE
  5
26E
100
AcDbEntity
  8
レイヤー_1
  6
CONTINUOUS
 62
       3
100
AcDbLine
 10
-69.60739442
 20
-37.77200098
 30
0.0
 11
-69.67615201
 21
-37.61734372
 31
0.0
  0
LINE
  5
26F
100
AcDbEntity
  8
レイヤー_1
  6
CONTINUOUS
 62
       3
100
AcDbLine
 10
-69.67615201
 20
-37.61734372
 30
0.0
 11
-69.75886447
 21
-37.47091343
 31
0.0
  0
LINE
  5
270
100
AcDbEntity
  8
レイヤー_1
  6
CONTINUOUS
 62
       3
100
AcDbLine
 10
-69.75886447
 20
-37.47091343
 30
0.0
 11
-69.85468161
 21
-37.33355812
 31
0.0
  0
LINE
  5
271
100
AcDbEntity
  8
レイヤー_1
  6
CONTINUOUS
 62
       3
100
AcDbLine
 10
-69.85468161
 20
-37.33355812
 30
0.0
 11
-69.96275324
 21
-37.2061258
 31
0.0
  0
LINE
  5
272
100
AcDbEntity
  8
レイヤー_1
  6
CONTINUOUS
 62
       3
100
AcDbLine
 10
-69.96275324
 20
-37.2061258
 30
0.0
 11
-70.08222919
 21
-37.0894645
 31
0.0
  0
LINE
  5
273
100
AcDbEntity
  8
レイヤー_1
  6
CONTINUOUS
 62
       3
100
AcDbLine
 10
-70.08222919
 20
-37.0894645
 30
0.0
 11
-70.21225926
 21
-36.98442221
 31
0.0
  0
LINE
  5
274
100
AcDbEntity
  8
レイヤー_1
  6
CONTINUOUS
 62
       3
100
AcDbLine
 10
-70.21225926
 20
-36.98442221
 30
0.0
 11
-70.35199328
 21
-36.89184698
 31
0.0
  0
LINE
  5
275
100
AcDbEntity
  8
レイヤー_1
  6
CONTINUOUS
 62
       3
100
AcDbLine
 10
-70.35199328
 20
-36.89184698
 30
0.0
 11
-70.50058106
 21
-36.81258679
 31
0.0
  0
LINE
  5
276
100
AcDbEntity
  8
レイヤー_1
  6
CONTINUOUS
 62
       3
100
AcDbLine
 10
-70.50058106
 20
-36.81258679
 30
0.0
 11
-70.65717242
 21
-36.74748968
 31
0.0
  0
LINE
  5
277
100
AcDbEntity
  8
レイヤー_1
  6
CONTINUOUS
 62
       3
100
AcDbLine
 10
-70.65717242
 20
-36.74748968
 30
0.0
 11
-70.82091718
 21
-36.69740366
 31
0.0
  0
LINE
  5
278
100
AcDbEntity
  8
レイヤー_1
  6
CONTINUOUS
 62
       3
100
AcDbLine
 10
-70.82091718
 20
-36.69740366
 30
0.0
 11
-70.99096515
 21
-36.66317674
 31
0.0
  0
LINE
  5
279
100
AcDbEntity
  8
レイヤー_1
  6
CONTINUOUS
 62
       3
100
AcDbLine
 10
-70.99096515
 20
-36.66317674
 30
0.0
 11
-71.16646616
 21
-36.64565694
 31
0.0
  0
LINE
  5
27A
100
AcDbEntity
  8
レイヤー_1
  6
CONTINUOUS
 62
       3
100
AcDbLine
 10
-71.16646616
 20
-36.64565694
 30
0.0
 11
-71.34555159
 21
-36.64565694
 31
0.0
  0
LINE
  5
27B
100
AcDbEntity
  8
レイヤー_1
  6
CONTINUOUS
 62
       3
100
AcDbLine
 10
-71.34555159
 20
-36.64565694
 30
0.0
 11
-71.52108987
 21
-36.66317674
 31
0.0
  0
LINE
  5
27C
100
AcDbEntity
  8
レイヤー_1
  6
CONTINUOUS
 62
       3
100
AcDbLine
 10
-71.52108987
 20
-36.66317674
 30
0.0
 11
-71.69115724
 21
-36.69740366
 31
0.0
  0
LINE
  5
27D
100
AcDbEntity
  8
レイヤー_1
  6
CONTINUOUS
 62
       3
100
AcDbLine
 10
-71.69115724
 20
-36.69740366
 30
0.0
 11
-71.85490568
 21
-36.74748968
 31
0.0
  0
LINE
  5
27E
100
AcDbEntity
  8
レイヤー_1
  6
CONTINUOUS
 62
       3
100
AcDbLine
 10
-71.85490568
 20
-36.74748968
 30
0.0
 11
-72.01148717
 21
-36.81258679
 31
0.0
  0
LINE
  5
27F
100
AcDbEntity
  8
レイヤー_1
  6
CONTINUOUS
 62
       3
100
AcDbLine
 10
-72.01148717
 20
-36.81258679
 30
0.0
 11
-72.16005371
 21
-36.89184698
 31
0.0
  0
LINE
  5
280
100
AcDbEntity
  8
レイヤー_1
  6
CONTINUOUS
 62
       3
100
AcDbLine
 10
-72.16005371
 20
-36.89184698
 30
0.0
 11
-72.29975727
 21
-36.98442221
 31
0.0
  0
LINE
  5
281
100
AcDbEntity
  8
レイヤー_1
  6
CONTINUOUS
 62
       3
100
AcDbLine
 10
-72.29975727
 20
-36.98442221
 30
0.0
 11
-72.42974983
 21
-37.0894645
 31
0.0
  0
LINE
  5
282
100
AcDbEntity
  8
レイヤー_1
  6
CONTINUOUS
 62
       3
100
AcDbLine
 10
-72.42974983
 20
-37.0894645
 30
0.0
 11
-72.54918339
 21
-37.2061258
 31
0.0
  0
LINE
  5
283
100
AcDbEntity
  8
レイヤー_1
  6
CONTINUOUS
 62
       3
100
AcDbLine
 10
-72.54918339
 20
-37.2061258
 30
0.0
 11
-72.65720993
 21
-37.33355812
 31
0.0
  0
LINE
  5
284
100
AcDbEntity
  8
レイヤー_1
  6
CONTINUOUS
 62
       3
100
AcDbLine
 10
-72.65720993
 20
-37.33355812
 30
0.0
 11
-72.75298143
 21
-37.47091343
 31
0.0
  0
LINE
  5
285
100
AcDbEntity
  8
レイヤー_1
  6
CONTINUOUS
 62
       3
100
AcDbLine
 10
-72.75298143
 20
-37.47091343
 30
0.0
 11
-72.83564988
 21
-37.61734372
 31
0.0
  0
LINE
  5
286
100
AcDbEntity
  8
レイヤー_1
  6
CONTINUOUS
 62
       3
100
AcDbLine
 10
-72.83564988
 20
-37.61734372
 30
0.0
 11
-72.90436726
 21
-37.77200098
 31
0.0
  0
LINE
  5
287
100
AcDbEntity
  8
レイヤー_1
  6
CONTINUOUS
 62
       3
100
AcDbLine
 10
-72.90436726
 20
-37.77200098
 30
0.0
 11
-72.95828556
 21
-37.93403718
 31
0.0
  0
LINE
  5
288
100
AcDbEntity
  8
レイヤー_1
  6
CONTINUOUS
 62
       3
100
AcDbLine
 10
-72.95828556
 20
-37.93403718
 30
0.0
 11
-72.99655676
 21
-38.10260432
 31
0.0
  0
LINE
  5
289
100
AcDbEntity
  8
レイヤー_1
  6
CONTINUOUS
 62
       3
100
AcDbLine
 10
-72.99655676
 20
-38.10260432
 30
0.0
 11
-73.01833284
 21
-38.27685438
 31
0.0
  0
LINE
  5
28A
100
AcDbEntity
  8
レイヤー_1
  6
CONTINUOUS
 62
       3
100
AcDbLine
 10
-73.01833284
 20
-38.27685438
 30
0.0
 11
-73.0227702
 21
-38.45567669
 31
0.0
  0
LINE
  5
28B
100
AcDbEntity
  8
レイヤー_1
  6
CONTINUOUS
 62
       3
100
AcDbLine
 10
-73.0227702
 20
-38.45567669
 30
0.0
 11
-73.00955969
 21
-38.63244519
 31
0.0
  0
LINE
  5
28C
100
AcDbEntity
  8
レイヤー_1
  6
CONTINUOUS
 62
       3
100
AcDbLine
 10
-73.00955969
 20
-38.63244519
 30
0.0
 11
-72.97943005
 21
-38.80394882
 31
0.0
  0
LINE
  5
28D
100
AcDbEntity
  8
レイヤー_1
  6
CONTINUOUS
 62
       3
100
AcDbLine
 10
-72.97943005
 20
-38.80394882
 30
0.0
 11
-72.9332293
 21
-38.96934044
 31
0.0
  0
LINE
  5
28E
100
AcDbEntity
  8
レイヤー_1
  6
CONTINUOUS
 62
       3
100
AcDbLine
 10
-72.9332293
 20
-38.96934044
 30
0.0
 11
-72.87180546
 21
-39.12777288
 31
0.0
  0
LINE
  5
28F
100
AcDbEntity
  8
レイヤー_1
  6
CONTINUOUS
 62
       3
100
AcDbLine
 10
-72.87180546
 20
-39.12777288
 30
0.0
 11
-72.79600654
 21
-39.27839901
 31
0.0
  0
LINE
  5
290
100
AcDbEntity
  8
レイヤー_1
  6
CONTINUOUS
 62
       3
100
AcDbLine
 10
-72.79600654
 20
-39.27839901
 30
0.0
 11
-72.70668056
 21
-39.42037168
 31
0.0
  0
LINE
  5
291
100
AcDbEntity
  8
レイヤー_1
  6
CONTINUOUS
 62
       3
100
AcDbLine
 10
-72.70668056
 20
-39.42037168
 30
0.0
 11
-72.60467554
 21
-39.55284373
 31
0.0
  0
LINE
  5
292
100
AcDbEntity
  8
レイヤー_1
  6
CONTINUOUS
 62
       3
100
AcDbLine
 10
-72.60467554
 20
-39.55284373
 30
0.0
 11
-72.49083949
 21
-39.67496802
 31
0.0
  0
LINE
  5
293
100
AcDbEntity
  8
レイヤー_1
  6
CONTINUOUS
 62
       3
100
AcDbLine
 10
-72.49083949
 20
-39.67496802
 30
0.0
 11
-72.36602042
 21
-39.7858974
 31
0.0
  0
LINE
  5
294
100
AcDbEntity
  8
レイヤー_1
  6
CONTINUOUS
 62
       3
100
AcDbLine
 10
-72.36602042
 20
-39.7858974
 30
0.0
 11
-72.23106636
 21
-39.88478472
 31
0.0
  0
LINE
  5
295
100
AcDbEntity
  8
レイヤー_1
  6
CONTINUOUS
 62
       3
100
AcDbLine
 10
-72.23106636
 20
-39.88478472
 30
0.0
 11
-72.08682531
 21
-39.97078284
 31
0.0
  0
LINE
  5
296
100
AcDbEntity
  8
レイヤー_1
  6
CONTINUOUS
 62
       3
100
AcDbLine
 10
-72.08682531
 20
-39.97078284
 30
0.0
 11
-71.93414529
 21
-40.0430446
 31
0.0
  0
LINE
  5
297
100
AcDbEntity
  8
レイヤー_1
  6
CONTINUOUS
 62
       3
100
AcDbLine
 10
-71.93414529
 20
-40.0430446
 30
0.0
 11
-71.77387433
 21
-40.10072286
 31
0.0
  0
LINE
  5
298
100
AcDbEntity
  8
レイヤー_1
  6
CONTINUOUS
 62
       3
100
AcDbLine
 10
-71.77387433
 20
-40.10072286
 30
0.0
 11
-71.60686042
 21
-40.14297046
 31
0.0
  0
LINE
  5
299
100
AcDbEntity
  8
レイヤー_1
  6
CONTINUOUS
 62
       3
100
AcDbLine
 10
-71.60686042
 20
-40.14297046
 30
0.0
 11
-71.43395159
 21
-40.16894027
 31
0.0
  0
LINE
  5
29A
100
AcDbEntity
  8
レイヤー_1
  6
CONTINUOUS
 62
       3
100
AcDbLine
 10
-71.43395159
 20
-40.16894027
 30
0.0
 11
-71.25599586
 21
-40.17778512
 31
0.0
  0
LINE
  5
29B
100
AcDbEntity
  8
レイヤー_1
  6
CONTINUOUS
 62
       3
100
AcDbLine
 10
-76.32080299
 20
-50.09593942
 30
0.0
 11
-76.14290105
 21
-50.08709118
 31
0.0
  0
LINE
  5
29C
100
AcDbEntity
  8
レイヤー_1
  6
CONTINUOUS
 62
       3
100
AcDbLine
 10
-76.14290105
 20
-50.08709118
 30
0.0
 11
-75.9700394
 21
-50.06111182
 31
0.0
  0
LINE
  5
29D
100
AcDbEntity
  8
レイヤー_1
  6
CONTINUOUS
 62
       3
100
AcDbLine
 10
-75.9700394
 20
-50.06111182
 30
0.0
 11
-75.80306649
 21
-50.01884935
 31
0.0
  0
LINE
  5
29E
100
AcDbEntity
  8
レイヤー_1
  6
CONTINUOUS
 62
       3
100
AcDbLine
 10
-75.80306649
 20
-50.01884935
 30
0.0
 11
-75.64283078
 21
-49.96115178
 31
0.0
  0
LINE
  5
29F
100
AcDbEntity
  8
レイヤー_1
  6
CONTINUOUS
 62
       3
100
AcDbLine
 10
-75.64283078
 20
-49.96115178
 30
0.0
 11
-75.49018071
 21
-49.88886713
 31
0.0
  0
LINE
  5
2A0
100
AcDbEntity
  8
レイヤー_1
  6
CONTINUOUS
 62
       3
100
AcDbLine
 10
-75.49018071
 20
-49.88886713
 30
0.0
 11
-75.34596473
 21
-49.80284342
 31
0.0
  0
LINE
  5
2A1
100
AcDbEntity
  8
レイヤー_1
  6
CONTINUOUS
 62
       3
100
AcDbLine
 10
-75.34596473
 20
-49.80284342
 30
0.0
 11
-75.21103129
 21
-49.70392866
 31
0.0
  0
LINE
  5
2A2
100
AcDbEntity
  8
レイヤー_1
  6
CONTINUOUS
 62
       3
100
AcDbLine
 10
-75.21103129
 20
-49.70392866
 30
0.0
 11
-75.08622884
 21
-49.59297086
 31
0.0
  0
LINE
  5
2A3
100
AcDbEntity
  8
レイヤー_1
  6
CONTINUOUS
 62
       3
100
AcDbLine
 10
-75.08622884
 20
-49.59297086
 30
0.0
 11
-74.97240583
 21
-49.47081805
 31
0.0
  0
LINE
  5
2A4
100
AcDbEntity
  8
レイヤー_1
  6
CONTINUOUS
 62
       3
100
AcDbLine
 10
-74.97240583
 20
-49.47081805
 30
0.0
 11
-74.8704107
 21
-49.33831823
 31
0.0
  0
LINE
  5
2A5
100
AcDbEntity
  8
レイヤー_1
  6
CONTINUOUS
 62
       3
100
AcDbLine
 10
-74.8704107
 20
-49.33831823
 30
0.0
 11
-74.78109191
 21
-49.19631943
 31
0.0
  0
LINE
  5
2A6
100
AcDbEntity
  8
レイヤー_1
  6
CONTINUOUS
 62
       3
100
AcDbLine
 10
-74.78109191
 20
-49.19631943
 30
0.0
 11
-74.7052979
 21
-49.04566965
 31
0.0
  0
LINE
  5
2A7
100
AcDbEntity
  8
レイヤー_1
  6
CONTINUOUS
 62
       3
100
AcDbLine
 10
-74.7052979
 20
-49.04566965
 30
0.0
 11
-74.64387713
 21
-48.88721692
 31
0.0
  0
LINE
  5
2A8
100
AcDbEntity
  8
レイヤー_1
  6
CONTINUOUS
 62
       3
100
AcDbLine
 10
-74.64387713
 20
-48.88721692
 30
0.0
 11
-74.59767804
 21
-48.72180925
 31
0.0
  0
LINE
  5
2A9
100
AcDbEntity
  8
レイヤー_1
  6
CONTINUOUS
 62
       3
100
AcDbLine
 10
-74.59767804
 20
-48.72180925
 30
0.0
 11
-74.56754908
 21
-48.55029465
 31
0.0
  0
LINE
  5
2AA
100
AcDbEntity
  8
レイヤー_1
  6
CONTINUOUS
 62
       3
100
AcDbLine
 10
-74.56754908
 20
-48.55029465
 30
0.0
 11
-74.5543387
 21
-48.37352114
 31
0.0
  0
LINE
  5
2AB
100
AcDbEntity
  8
レイヤー_1
  6
CONTINUOUS
 62
       3
100
AcDbLine
 10
-74.5543387
 20
-48.37352114
 30
0.0
 11
-74.55877604
 21
-48.19473959
 31
0.0
  0
LINE
  5
2AC
100
AcDbEntity
  8
レイヤー_1
  6
CONTINUOUS
 62
       3
100
AcDbLine
 10
-74.55877604
 20
-48.19473959
 30
0.0
 11
-74.58055176
 21
-48.02053833
 31
0.0
  0
LINE
  5
2AD
100
AcDbEntity
  8
レイヤー_1
  6
CONTINUOUS
 62
       3
100
AcDbLine
 10
-74.58055176
 20
-48.02053833
 30
0.0
 11
-74.61882185
 21
-47.8520137
 31
0.0
  0
LINE
  5
2AE
100
AcDbEntity
  8
レイヤー_1
  6
CONTINUOUS
 62
       3
100
AcDbLine
 10
-74.61882185
 20
-47.8520137
 30
0.0
 11
-74.67273783
 21
-47.69001415
 31
0.0
  0
LINE
  5
2AF
100
AcDbEntity
  8
レイヤー_1
  6
CONTINUOUS
 62
       3
100
AcDbLine
 10
-74.67273783
 20
-47.69001415
 30
0.0
 11
-74.74145128
 21
-47.53538812
 31
0.0
  0
LINE
  5
2B0
100
AcDbEntity
  8
レイヤー_1
  6
CONTINUOUS
 62
       3
100
AcDbLine
 10
-74.74145128
 20
-47.53538812
 30
0.0
 11
-74.82411373
 21
-47.38898408
 31
0.0
  0
LINE
  5
2B1
100
AcDbEntity
  8
レイヤー_1
  6
CONTINUOUS
 62
       3
100
AcDbLine
 10
-74.82411373
 20
-47.38898408
 30
0.0
 11
-74.91987675
 21
-47.25165046
 31
0.0
  0
LINE
  5
2B2
100
AcDbEntity
  8
レイヤー_1
  6
CONTINUOUS
 62
       3
100
AcDbLine
 10
-74.91987675
 20
-47.25165046
 30
0.0
 11
-75.02789188
 21
-47.12423572
 31
0.0
  0
LINE
  5
2B3
100
AcDbEntity
  8
レイヤー_1
  6
CONTINUOUS
 62
       3
100
AcDbLine
 10
-75.02789188
 20
-47.12423572
 30
0.0
 11
-75.14731067
 21
-47.00758831
 31
0.0
  0
LINE
  5
2B4
100
AcDbEntity
  8
レイヤー_1
  6
CONTINUOUS
 62
       3
100
AcDbLine
 10
-75.14731067
 20
-47.00758831
 30
0.0
 11
-75.27728467
 21
-46.90255667
 31
0.0
  0
LINE
  5
2B5
100
AcDbEntity
  8
レイヤー_1
  6
CONTINUOUS
 62
       3
100
AcDbLine
 10
-75.27728467
 20
-46.90255667
 30
0.0
 11
-75.41696543
 21
-46.80998925
 31
0.0
  0
LINE
  5
2B6
100
AcDbEntity
  8
レイヤー_1
  6
CONTINUOUS
 62
       3
100
AcDbLine
 10
-75.41696543
 20
-46.80998925
 30
0.0
 11
-75.56550451
 21
-46.7307345
 31
0.0
  0
LINE
  5
2B7
100
AcDbEntity
  8
レイヤー_1
  6
CONTINUOUS
 62
       3
100
AcDbLine
 10
-75.56550451
 20
-46.7307345
 30
0.0
 11
-75.72205346
 21
-46.66564088
 31
0.0
  0
LINE
  5
2B8
100
AcDbEntity
  8
レイヤー_1
  6
CONTINUOUS
 62
       3
100
AcDbLine
 10
-75.72205346
 20
-46.66564088
 30
0.0
 11
-75.88576383
 21
-46.61555683
 31
0.0
  0
LINE
  5
2B9
100
AcDbEntity
  8
レイヤー_1
  6
CONTINUOUS
 62
       3
100
AcDbLine
 10
-75.88576383
 20
-46.61555683
 30
0.0
 11
-76.05578716
 21
-46.58133079
 31
0.0
  0
LINE
  5
2BA
100
AcDbEntity
  8
レイヤー_1
  6
CONTINUOUS
 62
       3
100
AcDbLine
 10
-76.05578716
 20
-46.58133079
 30
0.0
 11
-76.23127501
 21
-46.56381123
 31
0.0
  0
LINE
  5
2BB
100
AcDbEntity
  8
レイヤー_1
  6
CONTINUOUS
 62
       3
100
AcDbLine
 10
-76.23127501
 20
-46.56381123
 30
0.0
 11
-76.41035872
 21
-46.56381123
 31
0.0
  0
LINE
  5
2BC
100
AcDbEntity
  8
レイヤー_1
  6
CONTINUOUS
 62
       3
100
AcDbLine
 10
-76.41035872
 20
-46.56381123
 30
0.0
 11
-76.585897
 21
-46.58133079
 31
0.0
  0
LINE
  5
2BD
100
AcDbEntity
  8
レイヤー_1
  6
CONTINUOUS
 62
       3
100
AcDbLine
 10
-76.585897
 20
-46.58133079
 30
0.0
 11
-76.75596437
 21
-46.61555683
 31
0.0
  0
LINE
  5
2BE
100
AcDbEntity
  8
レイヤー_1
  6
CONTINUOUS
 62
       3
100
AcDbLine
 10
-76.75596437
 20
-46.61555683
 30
0.0
 11
-76.91971281
 21
-46.66564088
 31
0.0
  0
LINE
  5
2BF
100
AcDbEntity
  8
レイヤー_1
  6
CONTINUOUS
 62
       3
100
AcDbLine
 10
-76.91971281
 20
-46.66564088
 30
0.0
 11
-77.0762943
 21
-46.7307345
 31
0.0
  0
LINE
  5
2C0
100
AcDbEntity
  8
レイヤー_1
  6
CONTINUOUS
 62
       3
100
AcDbLine
 10
-77.0762943
 20
-46.7307345
 30
0.0
 11
-77.22486084
 21
-46.80998925
 31
0.0
  0
LINE
  5
2C1
100
AcDbEntity
  8
レイヤー_1
  6
CONTINUOUS
 62
       3
100
AcDbLine
 10
-77.22486084
 20
-46.80998925
 30
0.0
 11
-77.36456439
 21
-46.90255667
 31
0.0
  0
LINE
  5
2C2
100
AcDbEntity
  8
レイヤー_1
  6
CONTINUOUS
 62
       3
100
AcDbLine
 10
-77.36456439
 20
-46.90255667
 30
0.0
 11
-77.49455696
 21
-47.00758831
 31
0.0
  0
LINE
  5
2C3
100
AcDbEntity
  8
レイヤー_1
  6
CONTINUOUS
 62
       3
100
AcDbLine
 10
-77.49455696
 20
-47.00758831
 30
0.0
 11
-77.61399052
 21
-47.12423572
 31
0.0
  0
LINE
  5
2C4
100
AcDbEntity
  8
レイヤー_1
  6
CONTINUOUS
 62
       3
100
AcDbLine
 10
-77.61399052
 20
-47.12423572
 30
0.0
 11
-77.72201706
 21
-47.25165046
 31
0.0
  0
LINE
  5
2C5
100
AcDbEntity
  8
レイヤー_1
  6
CONTINUOUS
 62
       3
100
AcDbLine
 10
-77.72201706
 20
-47.25165046
 30
0.0
 11
-77.81778856
 21
-47.38898408
 31
0.0
  0
LINE
  5
2C6
100
AcDbEntity
  8
レイヤー_1
  6
CONTINUOUS
 62
       3
100
AcDbLine
 10
-77.81778856
 20
-47.38898408
 30
0.0
 11
-77.90045701
 21
-47.53538812
 31
0.0
  0
LINE
  5
2C7
100
AcDbEntity
  8
レイヤー_1
  6
CONTINUOUS
 62
       3
100
AcDbLine
 10
-77.90045701
 20
-47.53538812
 30
0.0
 11
-77.96917439
 21
-47.69001415
 31
0.0
  0
LINE
  5
2C8
100
AcDbEntity
  8
レイヤー_1
  6
CONTINUOUS
 62
       3
100
AcDbLine
 10
-77.96917439
 20
-47.69001415
 30
0.0
 11
-78.02309269
 21
-47.8520137
 31
0.0
  0
LINE
  5
2C9
100
AcDbEntity
  8
レイヤー_1
  6
CONTINUOUS
 62
       3
100
AcDbLine
 10
-78.02309269
 20
-47.8520137
 30
0.0
 11
-78.06136388
 21
-48.02053833
 31
0.0
  0
LINE
  5
2CA
100
AcDbEntity
  8
レイヤー_1
  6
CONTINUOUS
 62
       3
100
AcDbLine
 10
-78.06136388
 20
-48.02053833
 30
0.0
 11
-78.08313996
 21
-48.19473959
 31
0.0
  0
LINE
  5
2CB
100
AcDbEntity
  8
レイヤー_1
  6
CONTINUOUS
 62
       3
100
AcDbLine
 10
-78.08313996
 20
-48.19473959
 30
0.0
 11
-78.08757733
 21
-48.37352114
 31
0.0
  0
LINE
  5
2CC
100
AcDbEntity
  8
レイヤー_1
  6
CONTINUOUS
 62
       3
100
AcDbLine
 10
-78.08757733
 20
-48.37352114
 30
0.0
 11
-78.07436681
 21
-48.55029465
 31
0.0
  0
LINE
  5
2CD
100
AcDbEntity
  8
レイヤー_1
  6
CONTINUOUS
 62
       3
100
AcDbLine
 10
-78.07436681
 20
-48.55029465
 30
0.0
 11
-78.04423717
 21
-48.72180925
 31
0.0
  0
LINE
  5
2CE
100
AcDbEntity
  8
レイヤー_1
  6
CONTINUOUS
 62
       3
100
AcDbLine
 10
-78.04423717
 20
-48.72180925
 30
0.0
 11
-77.99803642
 21
-48.88721692
 31
0.0
  0
LINE
  5
2CF
100
AcDbEntity
  8
レイヤー_1
  6
CONTINUOUS
 62
       3
100
AcDbLine
 10
-77.99803642
 20
-48.88721692
 30
0.0
 11
-77.93661259
 21
-49.04566965
 31
0.0
  0
LINE
  5
2D0
100
AcDbEntity
  8
レイヤー_1
  6
CONTINUOUS
 62
       3
100
AcDbLine
 10
-77.93661259
 20
-49.04566965
 30
0.0
 11
-77.86081367
 21
-49.19631943
 31
0.0
  0
LINE
  5
2D1
100
AcDbEntity
  8
レイヤー_1
  6
CONTINUOUS
 62
       3
100
AcDbLine
 10
-77.86081367
 20
-49.19631943
 30
0.0
 11
-77.77148769
 21
-49.33831823
 31
0.0
  0
LINE
  5
2D2
100
AcDbEntity
  8
レイヤー_1
  6
CONTINUOUS
 62
       3
100
AcDbLine
 10
-77.77148769
 20
-49.33831823
 30
0.0
 11
-77.66948267
 21
-49.47081805
 31
0.0
  0
LINE
  5
2D3
100
AcDbEntity
  8
レイヤー_1
  6
CONTINUOUS
 62
       3
100
AcDbLine
 10
-77.66948267
 20
-49.47081805
 30
0.0
 11
-77.55564662
 21
-49.59297086
 31
0.0
  0
LINE
  5
2D4
100
AcDbEntity
  8
レイヤー_1
  6
CONTINUOUS
 62
       3
100
AcDbLine
 10
-77.55564662
 20
-49.59297086
 30
0.0
 11
-77.43082755
 21
-49.70392866
 31
0.0
  0
LINE
  5
2D5
100
AcDbEntity
  8
レイヤー_1
  6
CONTINUOUS
 62
       3
100
AcDbLine
 10
-77.43082755
 20
-49.70392866
 30
0.0
 11
-77.29587349
 21
-49.80284342
 31
0.0
  0
LINE
  5
2D6
100
AcDbEntity
  8
レイヤー_1
  6
CONTINUOUS
 62
       3
100
AcDbLine
 10
-77.29587349
 20
-49.80284342
 30
0.0
 11
-77.15163244
 21
-49.88886713
 31
0.0
  0
LINE
  5
2D7
100
AcDbEntity
  8
レイヤー_1
  6
CONTINUOUS
 62
       3
100
AcDbLine
 10
-77.15163244
 20
-49.88886713
 30
0.0
 11
-76.99895242
 21
-49.96115178
 31
0.0
  0
LINE
  5
2D8
100
AcDbEntity
  8
レイヤー_1
  6
CONTINUOUS
 62
       3
100
AcDbLine
 10
-76.99895242
 20
-49.96115178
 30
0.0
 11
-76.83868145
 21
-50.01884935
 31
0.0
  0
LINE
  5
2D9
100
AcDbEntity
  8
レイヤー_1
  6
CONTINUOUS
 62
       3
100
AcDbLine
 10
-76.83868145
 20
-50.01884935
 30
0.0
 11
-76.67166755
 21
-50.06111182
 31
0.0
  0
LINE
  5
2DA
100
AcDbEntity
  8
レイヤー_1
  6
CONTINUOUS
 62
       3
100
AcDbLine
 10
-76.67166755
 20
-50.06111182
 30
0.0
 11
-76.49875872
 21
-50.08709118
 31
0.0
  0
LINE
  5
2DB
100
AcDbEntity
  8
レイヤー_1
  6
CONTINUOUS
 62
       3
100
AcDbLine
 10
-76.49875872
 20
-50.08709118
 30
0.0
 11
-76.32080299
 21
-50.09593942
 31
0.0
  0
LINE
  5
2DC
100
AcDbEntity
  8
レイヤー_1
  6
CONTINUOUS
 62
       3
100
AcDbLine
 10
-66.19087867
 20
-50.09593942
 30
0.0
 11
-66.01281536
 21
-50.08709118
 31
0.0
  0
LINE
  5
2DD
100
AcDbEntity
  8
レイヤー_1
  6
CONTINUOUS
 62
       3
100
AcDbLine
 10
-66.01281536
 20
-50.08709118
 30
0.0
 11
-65.83981217
 21
-50.06111182
 31
0.0
  0
LINE
  5
2DE
100
AcDbEntity
  8
レイヤー_1
  6
CONTINUOUS
 62
       3
100
AcDbLine
 10
-65.83981217
 20
-50.06111182
 30
0.0
 11
-65.67271626
 21
-50.01884935
 31
0.0
  0
LINE
  5
2DF
100
AcDbEntity
  8
レイヤー_1
  6
CONTINUOUS
 62
       3
100
AcDbLine
 10
-65.67271626
 20
-50.01884935
 30
0.0
 11
-65.51237478
 21
-49.96115178
 31
0.0
  0
LINE
  5
2E0
100
AcDbEntity
  8
レイヤー_1
  6
CONTINUOUS
 62
       3
100
AcDbLine
 10
-65.51237478
 20
-49.96115178
 30
0.0
 11
-65.35963487
 21
-49.88886713
 31
0.0
  0
LINE
  5
2E1
100
AcDbEntity
  8
レイヤー_1
  6
CONTINUOUS
 62
       3
100
AcDbLine
 10
-65.35963487
 20
-49.88886713
 30
0.0
 11
-65.21534368
 21
-49.80284342
 31
0.0
  0
LINE
  5
2E2
100
AcDbEntity
  8
レイヤー_1
  6
CONTINUOUS
 62
       3
100
AcDbLine
 10
-65.21534368
 20
-49.80284342
 30
0.0
 11
-65.08034837
 21
-49.70392866
 31
0.0
  0
LINE
  5
2E3
100
AcDbEntity
  8
レイヤー_1
  6
CONTINUOUS
 62
       3
100
AcDbLine
 10
-65.08034837
 20
-49.70392866
 30
0.0
 11
-64.95549607
 21
-49.59297086
 31
0.0
  0
LINE
  5
2E4
100
AcDbEntity
  8
レイヤー_1
  6
CONTINUOUS
 62
       3
100
AcDbLine
 10
-64.95549607
 20
-49.59297086
 30
0.0
 11
-64.84163395
 21
-49.47081805
 31
0.0
  0
LINE
  5
2E5
100
AcDbEntity
  8
レイヤー_1
  6
CONTINUOUS
 62
       3
100
AcDbLine
 10
-64.84163395
 20
-49.47081805
 30
0.0
 11
-64.73960913
 21
-49.33831823
 31
0.0
  0
LINE
  5
2E6
100
AcDbEntity
  8
レイヤー_1
  6
CONTINUOUS
 62
       3
100
AcDbLine
 10
-64.73960913
 20
-49.33831823
 30
0.0
 11
-64.65026879
 21
-49.19631943
 31
0.0
  0
LINE
  5
2E7
100
AcDbEntity
  8
レイヤー_1
  6
CONTINUOUS
 62
       3
100
AcDbLine
 10
-64.65026879
 20
-49.19631943
 30
0.0
 11
-64.57446005
 21
-49.04566965
 31
0.0
  0
LINE
  5
2E8
100
AcDbEntity
  8
レイヤー_1
  6
CONTINUOUS
 62
       3
100
AcDbLine
 10
-64.57446005
 20
-49.04566965
 30
0.0
 11
-64.51303008
 21
-48.88721692
 31
0.0
  0
LINE
  5
2E9
100
AcDbEntity
  8
レイヤー_1
  6
CONTINUOUS
 62
       3
100
AcDbLine
 10
-64.51303008
 20
-48.88721692
 30
0.0
 11
-64.46682602
 21
-48.72180925
 31
0.0
  0
LINE
  5
2EA
100
AcDbEntity
  8
レイヤー_1
  6
CONTINUOUS
 62
       3
100
AcDbLine
 10
-64.46682602
 20
-48.72180925
 30
0.0
 11
-64.43669501
 21
-48.55029465
 31
0.0
  0
LINE
  5
2EB
100
AcDbEntity
  8
レイヤー_1
  6
CONTINUOUS
 62
       3
100
AcDbLine
 10
-64.43669501
 20
-48.55029465
 30
0.0
 11
-64.42348421
 21
-48.37352114
 31
0.0
  0
LINE
  5
2EC
100
AcDbEntity
  8
レイヤー_1
  6
CONTINUOUS
 62
       3
100
AcDbLine
 10
-64.42348421
 20
-48.37352114
 30
0.0
 11
-64.42792164
 21
-48.19473959
 31
0.0
  0
LINE
  5
2ED
100
AcDbEntity
  8
レイヤー_1
  6
CONTINUOUS
 62
       3
100
AcDbLine
 10
-64.42792164
 20
-48.19473959
 30
0.0
 11
-64.44969844
 21
-48.02053833
 31
0.0
  0
LINE
  5
2EE
100
AcDbEntity
  8
レイヤー_1
  6
CONTINUOUS
 62
       3
100
AcDbLine
 10
-64.44969844
 20
-48.02053833
 30
0.0
 11
-64.48797186
 21
-47.8520137
 31
0.0
  0
LINE
  5
2EF
100
AcDbEntity
  8
レイヤー_1
  6
CONTINUOUS
 62
       3
100
AcDbLine
 10
-64.48797186
 20
-47.8520137
 30
0.0
 11
-64.54189477
 21
-47.69001415
 31
0.0
  0
LINE
  5
2F0
100
AcDbEntity
  8
レイヤー_1
  6
CONTINUOUS
 62
       3
100
AcDbLine
 10
-64.54189477
 20
-47.69001415
 30
0.0
 11
-64.61062002
 21
-47.53538812
 31
0.0
  0
LINE
  5
2F1
100
AcDbEntity
  8
レイヤー_1
  6
CONTINUOUS
 62
       3
100
AcDbLine
 10
-64.61062002
 20
-47.53538812
 30
0.0
 11
-64.69330046
 21
-47.38898408
 31
0.0
  0
LINE
  5
2F2
100
AcDbEntity
  8
レイヤー_1
  6
CONTINUOUS
 62
       3
100
AcDbLine
 10
-64.69330046
 20
-47.38898408
 30
0.0
 11
-64.78908893
 21
-47.25165046
 31
0.0
  0
LINE
  5
2F3
100
AcDbEntity
  8
レイヤー_1
  6
CONTINUOUS
 62
       3
100
AcDbLine
 10
-64.78908893
 20
-47.25165046
 30
0.0
 11
-64.89713829
 21
-47.12423572
 31
0.0
  0
LINE
  5
2F4
100
AcDbEntity
  8
レイヤー_1
  6
CONTINUOUS
 62
       3
100
AcDbLine
 10
-64.89713829
 20
-47.12423572
 30
0.0
 11
-65.0166014
 21
-47.00758831
 31
0.0
  0
LINE
  5
2F5
100
AcDbEntity
  8
レイヤー_1
  6
CONTINUOUS
 62
       3
100
AcDbLine
 10
-65.0166014
 20
-47.00758831
 30
0.0
 11
-65.1466311
 21
-46.90255667
 31
0.0
  0
LINE
  5
2F6
100
AcDbEntity
  8
レイヤー_1
  6
CONTINUOUS
 62
       3
100
AcDbLine
 10
-65.1466311
 20
-46.90255667
 30
0.0
 11
-65.28638024
 21
-46.80998925
 31
0.0
  0
LINE
  5
2F7
100
AcDbEntity
  8
レイヤー_1
  6
CONTINUOUS
 62
       3
100
AcDbLine
 10
-65.28638024
 20
-46.80998925
 30
0.0
 11
-65.43500168
 21
-46.7307345
 31
0.0
  0
LINE
  5
2F8
100
AcDbEntity
  8
レイヤー_1
  6
CONTINUOUS
 62
       3
100
AcDbLine
 10
-65.43500168
 20
-46.7307345
 30
0.0
 11
-65.59164827
 21
-46.66564088
 31
0.0
  0
LINE
  5
2F9
100
AcDbEntity
  8
レイヤー_1
  6
CONTINUOUS
 62
       3
100
AcDbLine
 10
-65.59164827
 20
-46.66564088
 30
0.0
 11
-65.75547286
 21
-46.61555683
 31
0.0
  0
LINE
  5
2FA
100
AcDbEntity
  8
レイヤー_1
  6
CONTINUOUS
 62
       3
100
AcDbLine
 10
-65.75547286
 20
-46.61555683
 30
0.0
 11
-65.9256283
 21
-46.58133079
 31
0.0
  0
LINE
  5
2FB
100
AcDbEntity
  8
レイヤー_1
  6
CONTINUOUS
 62
       3
100
AcDbLine
 10
-65.9256283
 20
-46.58133079
 30
0.0
 11
-66.10126745
 21
-46.56381123
 31
0.0
  0
LINE
  5
2FC
100
AcDbEntity
  8
レイヤー_1
  6
CONTINUOUS
 62
       3
100
AcDbLine
 10
-66.10126745
 20
-46.56381123
 30
0.0
 11
-66.28040665
 21
-46.56381123
 31
0.0
  0
LINE
  5
2FD
100
AcDbEntity
  8
レイヤー_1
  6
CONTINUOUS
 62
       3
100
AcDbLine
 10
-66.28040665
 20
-46.56381123
 30
0.0
 11
-66.4558945
 21
-46.58133079
 31
0.0
  0
LINE
  5
2FE
100
AcDbEntity
  8
レイヤー_1
  6
CONTINUOUS
 62
       3
100
AcDbLine
 10
-66.4558945
 20
-46.58133079
 30
0.0
 11
-66.62591784
 21
-46.61555683
 31
0.0
  0
LINE
  5
2FF
100
AcDbEntity
  8
レイヤー_1
  6
CONTINUOUS
 62
       3
100
AcDbLine
 10
-66.62591784
 20
-46.61555683
 30
0.0
 11
-66.7896282
 21
-46.66564088
 31
0.0
  0
LINE
  5
300
100
AcDbEntity
  8
レイヤー_1
  6
CONTINUOUS
 62
       3
100
AcDbLine
 10
-66.7896282
 20
-46.66564088
 30
0.0
 11
-66.94617715
 21
-46.7307345
 31
0.0
  0
LINE
  5
301
100
AcDbEntity
  8
レイヤー_1
  6
CONTINUOUS
 62
       3
100
AcDbLine
 10
-66.94617715
 20
-46.7307345
 30
0.0
 11
-67.09471623
 21
-46.80998925
 31
0.0
  0
LINE
  5
302
100
AcDbEntity
  8
レイヤー_1
  6
CONTINUOUS
 62
       3
100
AcDbLine
 10
-67.09471623
 20
-46.80998925
 30
0.0
 11
-67.23439699
 21
-46.90255667
 31
0.0
  0
LINE
  5
303
100
AcDbEntity
  8
レイヤー_1
  6
CONTINUOUS
 62
       3
100
AcDbLine
 10
-67.23439699
 20
-46.90255667
 30
0.0
 11
-67.364371
 21
-47.00758831
 31
0.0
  0
LINE
  5
304
100
AcDbEntity
  8
レイヤー_1
  6
CONTINUOUS
 62
       3
100
AcDbLine
 10
-67.364371
 20
-47.00758831
 30
0.0
 11
-67.48378978
 21
-47.12423572
 31
0.0
  0
LINE
  5
305
100
AcDbEntity
  8
レイヤー_1
  6
CONTINUOUS
 62
       3
100
AcDbLine
 10
-67.48378978
 20
-47.12423572
 30
0.0
 11
-67.59180491
 21
-47.25165046
 31
0.0
  0
LINE
  5
306
100
AcDbEntity
  8
レイヤー_1
  6
CONTINUOUS
 62
       3
100
AcDbLine
 10
-67.59180491
 20
-47.25165046
 30
0.0
 11
-67.68756793
 21
-47.38898408
 31
0.0
  0
LINE
  5
307
100
AcDbEntity
  8
レイヤー_1
  6
CONTINUOUS
 62
       3
100
AcDbLine
 10
-67.68756793
 20
-47.38898408
 30
0.0
 11
-67.77023038
 21
-47.53538812
 31
0.0
  0
LINE
  5
308
100
AcDbEntity
  8
レイヤー_1
  6
CONTINUOUS
 62
       3
100
AcDbLine
 10
-67.77023038
 20
-47.53538812
 30
0.0
 11
-67.83894383
 21
-47.69001415
 31
0.0
  0
LINE
  5
309
100
AcDbEntity
  8
レイヤー_1
  6
CONTINUOUS
 62
       3
100
AcDbLine
 10
-67.83894383
 20
-47.69001415
 30
0.0
 11
-67.89285982
 21
-47.8520137
 31
0.0
  0
LINE
  5
30A
100
AcDbEntity
  8
レイヤー_1
  6
CONTINUOUS
 62
       3
100
AcDbLine
 10
-67.89285982
 20
-47.8520137
 30
0.0
 11
-67.9311299
 21
-48.02053833
 31
0.0
  0
LINE
  5
30B
100
AcDbEntity
  8
レイヤー_1
  6
CONTINUOUS
 62
       3
100
AcDbLine
 10
-67.9311299
 20
-48.02053833
 30
0.0
 11
-67.95290562
 21
-48.19473959
 31
0.0
  0
LINE
  5
30C
100
AcDbEntity
  8
レイヤー_1
  6
CONTINUOUS
 62
       3
100
AcDbLine
 10
-67.95290562
 20
-48.19473959
 30
0.0
 11
-67.95734296
 21
-48.37352114
 31
0.0
  0
LINE
  5
30D
100
AcDbEntity
  8
レイヤー_1
  6
CONTINUOUS
 62
       3
100
AcDbLine
 10
-67.95734296
 20
-48.37352114
 30
0.0
 11
-67.94413258
 21
-48.55029465
 31
0.0
  0
LINE
  5
30E
100
AcDbEntity
  8
レイヤー_1
  6
CONTINUOUS
 62
       3
100
AcDbLine
 10
-67.94413258
 20
-48.55029465
 30
0.0
 11
-67.91400362
 21
-48.72180925
 31
0.0
  0
LINE
  5
30F
100
AcDbEntity
  8
レイヤー_1
  6
CONTINUOUS
 62
       3
100
AcDbLine
 10
-67.91400362
 20
-48.72180925
 30
0.0
 11
-67.86780453
 21
-48.88721692
 31
0.0
  0
LINE
  5
310
100
AcDbEntity
  8
レイヤー_1
  6
CONTINUOUS
 62
       3
100
AcDbLine
 10
-67.86780453
 20
-48.88721692
 30
0.0
 11
-67.80638376
 21
-49.04566965
 31
0.0
  0
LINE
  5
311
100
AcDbEntity
  8
レイヤー_1
  6
CONTINUOUS
 62
       3
100
AcDbLine
 10
-67.80638376
 20
-49.04566965
 30
0.0
 11
-67.73058975
 21
-49.19631943
 31
0.0
  0
LINE
  5
312
100
AcDbEntity
  8
レイヤー_1
  6
CONTINUOUS
 62
       3
100
AcDbLine
 10
-67.73058975
 20
-49.19631943
 30
0.0
 11
-67.64127096
 21
-49.33831823
 31
0.0
  0
LINE
  5
313
100
AcDbEntity
  8
レイヤー_1
  6
CONTINUOUS
 62
       3
100
AcDbLine
 10
-67.64127096
 20
-49.33831823
 30
0.0
 11
-67.53927583
 21
-49.47081805
 31
0.0
  0
LINE
  5
314
100
AcDbEntity
  8
レイヤー_1
  6
CONTINUOUS
 62
       3
100
AcDbLine
 10
-67.53927583
 20
-49.47081805
 30
0.0
 11
-67.42545282
 21
-49.59297086
 31
0.0
  0
LINE
  5
315
100
AcDbEntity
  8
レイヤー_1
  6
CONTINUOUS
 62
       3
100
AcDbLine
 10
-67.42545282
 20
-49.59297086
 30
0.0
 11
-67.30065037
 21
-49.70392866
 31
0.0
  0
LINE
  5
316
100
AcDbEntity
  8
レイヤー_1
  6
CONTINUOUS
 62
       3
100
AcDbLine
 10
-67.30065037
 20
-49.70392866
 30
0.0
 11
-67.16571693
 21
-49.80284342
 31
0.0
  0
LINE
  5
317
100
AcDbEntity
  8
レイヤー_1
  6
CONTINUOUS
 62
       3
100
AcDbLine
 10
-67.16571693
 20
-49.80284342
 30
0.0
 11
-67.02150095
 21
-49.88886713
 31
0.0
  0
LINE
  5
318
100
AcDbEntity
  8
レイヤー_1
  6
CONTINUOUS
 62
       3
100
AcDbLine
 10
-67.02150095
 20
-49.88886713
 30
0.0
 11
-66.86885088
 21
-49.96115178
 31
0.0
  0
LINE
  5
319
100
AcDbEntity
  8
レイヤー_1
  6
CONTINUOUS
 62
       3
100
AcDbLine
 10
-66.86885088
 20
-49.96115178
 30
0.0
 11
-66.70861517
 21
-50.01884935
 31
0.0
  0
LINE
  5
31A
100
AcDbEntity
  8
レイヤー_1
  6
CONTINUOUS
 62
       3
100
AcDbLine
 10
-66.70861517
 20
-50.01884935
 30
0.0
 11
-66.54164226
 21
-50.06111182
 31
0.0
  0
LINE
  5
31B
100
AcDbEntity
  8
レイヤー_1
  6
CONTINUOUS
 62
       3
100
AcDbLine
 10
-66.54164226
 20
-50.06111182
 30
0.0
 11
-66.36878062
 21
-50.08709118
 31
0.0
  0
LINE
  5
31C
100
AcDbEntity
  8
レイヤー_1
  6
CONTINUOUS
 62
       3
100
AcDbLine
 10
-66.36878062
 20
-50.08709118
 30
0.0
 11
-66.19087867
 21
-50.09593942
 31
0.0
  0
LINE
  5
31D
100
AcDbEntity
  8
レイヤー_1
  6
CONTINUOUS
 62
       3
100
AcDbLine
 10
-71.25599586
 20
-50.09593942
 30
0.0
 11
-71.07808716
 21
-50.08709118
 31
0.0
  0
LINE
  5
31E
100
AcDbEntity
  8
レイヤー_1
  6
CONTINUOUS
 62
       3
100
AcDbLine
 10
-71.07808716
 20
-50.08709118
 30
0.0
 11
-70.9052064
 21
-50.06111182
 31
0.0
  0
LINE
  5
31F
100
AcDbEntity
  8
レイヤー_1
  6
CONTINUOUS
 62
       3
100
AcDbLine
 10
-70.9052064
 20
-50.06111182
 30
0.0
 11
-70.73820376
 21
-50.01884935
 31
0.0
  0
LINE
  5
320
100
AcDbEntity
  8
レイヤー_1
  6
CONTINUOUS
 62
       3
100
AcDbLine
 10
-70.73820376
 20
-50.01884935
 30
0.0
 11
-70.57792943
 21
-49.96115178
 31
0.0
  0
LINE
  5
321
100
AcDbEntity
  8
レイヤー_1
  6
CONTINUOUS
 62
       3
100
AcDbLine
 10
-70.57792943
 20
-49.96115178
 30
0.0
 11
-70.42523359
 21
-49.88886713
 31
0.0
  0
LINE
  5
322
100
AcDbEntity
  8
レイヤー_1
  6
CONTINUOUS
 62
       3
100
AcDbLine
 10
-70.42523359
 20
-49.88886713
 30
0.0
 11
-70.28096641
 21
-49.80284342
 31
0.0
  0
LINE
  5
323
100
AcDbEntity
  8
レイヤー_1
  6
CONTINUOUS
 62
       3
100
AcDbLine
 10
-70.28096641
 20
-49.80284342
 30
0.0
 11
-70.14597809
 21
-49.70392866
 31
0.0
  0
LINE
  5
324
100
AcDbEntity
  8
レイヤー_1
  6
CONTINUOUS
 62
       3
100
AcDbLine
 10
-70.14597809
 20
-49.70392866
 30
0.0
 11
-70.02111881
 21
-49.59297086
 31
0.0
  0
LINE
  5
325
100
AcDbEntity
  8
レイヤー_1
  6
CONTINUOUS
 62
       3
100
AcDbLine
 10
-70.02111881
 20
-49.59297086
 30
0.0
 11
-69.90723875
 21
-49.47081805
 31
0.0
  0
LINE
  5
326
100
AcDbEntity
  8
レイヤー_1
  6
CONTINUOUS
 62
       3
100
AcDbLine
 10
-69.90723875
 20
-49.47081805
 30
0.0
 11
-69.80518809
 21
-49.33831823
 31
0.0
  0
LINE
  5
327
100
AcDbEntity
  8
レイヤー_1
  6
CONTINUOUS
 62
       3
100
AcDbLine
 10
-69.80518809
 20
-49.33831823
 30
0.0
 11
-69.71581702
 21
-49.19631943
 31
0.0
  0
LINE
  5
328
100
AcDbEntity
  8
レイヤー_1
  6
CONTINUOUS
 62
       3
100
AcDbLine
 10
-69.71581702
 20
-49.19631943
 30
0.0
 11
-69.63997572
 21
-49.04566965
 31
0.0
  0
LINE
  5
329
100
AcDbEntity
  8
レイヤー_1
  6
CONTINUOUS
 62
       3
100
AcDbLine
 10
-69.63997572
 20
-49.04566965
 30
0.0
 11
-69.57851438
 21
-48.88721692
 31
0.0
  0
LINE
  5
32A
100
AcDbEntity
  8
レイヤー_1
  6
CONTINUOUS
 62
       3
100
AcDbLine
 10
-69.57851438
 20
-48.88721692
 30
0.0
 11
-69.53228317
 21
-48.72180925
 31
0.0
  0
LINE
  5
32B
100
AcDbEntity
  8
レイヤー_1
  6
CONTINUOUS
 62
       3
100
AcDbLine
 10
-69.53228317
 20
-48.72180925
 30
0.0
 11
-69.50213228
 21
-48.55029465
 31
0.0
  0
LINE
  5
32C
100
AcDbEntity
  8
レイヤー_1
  6
CONTINUOUS
 62
       3
100
AcDbLine
 10
-69.50213228
 20
-48.55029465
 30
0.0
 11
-69.48891189
 21
-48.37352114
 31
0.0
  0
LINE
  5
32D
100
AcDbEntity
  8
レイヤー_1
  6
CONTINUOUS
 62
       3
100
AcDbLine
 10
-69.48891189
 20
-48.37352114
 30
0.0
 11
-69.49335264
 21
-48.19473959
 31
0.0
  0
LINE
  5
32E
100
AcDbEntity
  8
レイヤー_1
  6
CONTINUOUS
 62
       3
100
AcDbLine
 10
-69.49335264
 20
-48.19473959
 30
0.0
 11
-69.51514455
 21
-48.02053833
 31
0.0
  0
LINE
  5
32F
100
AcDbEntity
  8
レイヤー_1
  6
CONTINUOUS
 62
       3
100
AcDbLine
 10
-69.51514455
 20
-48.02053833
 30
0.0
 11
-69.55344187
 21
-47.8520137
 31
0.0
  0
LINE
  5
330
100
AcDbEntity
  8
レイヤー_1
  6
CONTINUOUS
 62
       3
100
AcDbLine
 10
-69.55344187
 20
-47.8520137
 30
0.0
 11
-69.60739442
 21
-47.69001415
 31
0.0
  0
LINE
  5
331
100
AcDbEntity
  8
レイヤー_1
  6
CONTINUOUS
 62
       3
100
AcDbLine
 10
-69.60739442
 20
-47.69001415
 30
0.0
 11
-69.67615201
 21
-47.53538812
 31
0.0
  0
LINE
  5
332
100
AcDbEntity
  8
レイヤー_1
  6
CONTINUOUS
 62
       3
100
AcDbLine
 10
-69.67615201
 20
-47.53538812
 30
0.0
 11
-69.75886447
 21
-47.38898408
 31
0.0
  0
LINE
  5
333
100
AcDbEntity
  8
レイヤー_1
  6
CONTINUOUS
 62
       3
100
AcDbLine
 10
-69.75886447
 20
-47.38898408
 30
0.0
 11
-69.85468161
 21
-47.25165046
 31
0.0
  0
LINE
  5
334
100
AcDbEntity
  8
レイヤー_1
  6
CONTINUOUS
 62
       3
100
AcDbLine
 10
-69.85468161
 20
-47.25165046
 30
0.0
 11
-69.96275324
 21
-47.12423572
 31
0.0
  0
LINE
  5
335
100
AcDbEntity
  8
レイヤー_1
  6
CONTINUOUS
 62
       3
100
AcDbLine
 10
-69.96275324
 20
-47.12423572
 30
0.0
 11
-70.08222919
 21
-47.00758831
 31
0.0
  0
LINE
  5
336
100
AcDbEntity
  8
レイヤー_1
  6
CONTINUOUS
 62
       3
100
AcDbLine
 10
-70.08222919
 20
-47.00758831
 30
0.0
 11
-70.21225926
 21
-46.90255667
 31
0.0
  0
LINE
  5
337
100
AcDbEntity
  8
レイヤー_1
  6
CONTINUOUS
 62
       3
100
AcDbLine
 10
-70.21225926
 20
-46.90255667
 30
0.0
 11
-70.35199328
 21
-46.80998925
 31
0.0
  0
LINE
  5
338
100
AcDbEntity
  8
レイヤー_1
  6
CONTINUOUS
 62
       3
100
AcDbLine
 10
-70.35199328
 20
-46.80998925
 30
0.0
 11
-70.50058106
 21
-46.7307345
 31
0.0
  0
LINE
  5
339
100
AcDbEntity
  8
レイヤー_1
  6
CONTINUOUS
 62
       3
100
AcDbLine
 10
-70.50058106
 20
-46.7307345
 30
0.0
 11
-70.65717242
 21
-46.66564088
 31
0.0
  0
LINE
  5
33A
100
AcDbEntity
  8
レイヤー_1
  6
CONTINUOUS
 62
       3
100
AcDbLine
 10
-70.65717242
 20
-46.66564088
 30
0.0
 11
-70.82091718
 21
-46.61555683
 31
0.0
  0
LINE
  5
33B
100
AcDbEntity
  8
レイヤー_1
  6
CONTINUOUS
 62
       3
100
AcDbLine
 10
-70.82091718
 20
-46.61555683
 30
0.0
 11
-70.99096515
 21
-46.58133079
 31
0.0
  0
LINE
  5
33C
100
AcDbEntity
  8
レイヤー_1
  6
CONTINUOUS
 62
       3
100
AcDbLine
 10
-70.99096515
 20
-46.58133079
 30
0.0
 11
-71.16646616
 21
-46.56381123
 31
0.0
  0
LINE
  5
33D
100
AcDbEntity
  8
レイヤー_1
  6
CONTINUOUS
 62
       3
100
AcDbLine
 10
-71.16646616
 20
-46.56381123
 30
0.0
 11
-71.34555159
 21
-46.56381123
 31
0.0
  0
LINE
  5
33E
100
AcDbEntity
  8
レイヤー_1
  6
CONTINUOUS
 62
       3
100
AcDbLine
 10
-71.34555159
 20
-46.56381123
 30
0.0
 11
-71.52108987
 21
-46.58133079
 31
0.0
  0
LINE
  5
33F
100
AcDbEntity
  8
レイヤー_1
  6
CONTINUOUS
 62
       3
100
AcDbLine
 10
-71.52108987
 20
-46.58133079
 30
0.0
 11
-71.69115724
 21
-46.61555683
 31
0.0
  0
LINE
  5
340
100
AcDbEntity
  8
レイヤー_1
  6
CONTINUOUS
 62
       3
100
AcDbLine
 10
-71.69115724
 20
-46.61555683
 30
0.0
 11
-71.85490568
 21
-46.66564088
 31
0.0
  0
LINE
  5
341
100
AcDbEntity
  8
レイヤー_1
  6
CONTINUOUS
 62
       3
100
AcDbLine
 10
-71.85490568
 20
-46.66564088
 30
0.0
 11
-72.01148717
 21
-46.7307345
 31
0.0
  0
LINE
  5
342
100
AcDbEntity
  8
レイヤー_1
  6
CONTINUOUS
 62
       3
100
AcDbLine
 10
-72.01148717
 20
-46.7307345
 30
0.0
 11
-72.16005371
 21
-46.80998925
 31
0.0
  0
LINE
  5
343
100
AcDbEntity
  8
レイヤー_1
  6
CONTINUOUS
 62
       3
100
AcDbLine
 10
-72.16005371
 20
-46.80998925
 30
0.0
 11
-72.29975727
 21
-46.90255667
 31
0.0
  0
LINE
  5
344
100
AcDbEntity
  8
レイヤー_1
  6
CONTINUOUS
 62
       3
100
AcDbLine
 10
-72.29975727
 20
-46.90255667
 30
0.0
 11
-72.42974983
 21
-47.00758831
 31
0.0
  0
LINE
  5
345
100
AcDbEntity
  8
レイヤー_1
  6
CONTINUOUS
 62
       3
100
AcDbLine
 10
-72.42974983
 20
-47.00758831
 30
0.0
 11
-72.54918339
 21
-47.12423572
 31
0.0
  0
LINE
  5
346
100
AcDbEntity
  8
レイヤー_1
  6
CONTINUOUS
 62
       3
100
AcDbLine
 10
-72.54918339
 20
-47.12423572
 30
0.0
 11
-72.65720993
 21
-47.25165046
 31
0.0
  0
LINE
  5
347
100
AcDbEntity
  8
レイヤー_1
  6
CONTINUOUS
 62
       3
100
AcDbLine
 10
-72.65720993
 20
-47.25165046
 30
0.0
 11
-72.75298143
 21
-47.38898408
 31
0.0
  0
LINE
  5
348
100
AcDbEntity
  8
レイヤー_1
  6
CONTINUOUS
 62
       3
100
AcDbLine
 10
-72.75298143
 20
-47.38898408
 30
0.0
 11
-72.83564988
 21
-47.53538812
 31
0.0
  0
LINE
  5
349
100
AcDbEntity
  8
レイヤー_1
  6
CONTINUOUS
 62
       3
100
AcDbLine
 10
-72.83564988
 20
-47.53538812
 30
0.0
 11
-72.90436726
 21
-47.69001415
 31
0.0
  0
LINE
  5
34A
100
AcDbEntity
  8
レイヤー_1
  6
CONTINUOUS
 62
       3
100
AcDbLine
 10
-72.90436726
 20
-47.69001415
 30
0.0
 11
-72.95828556
 21
-47.8520137
 31
0.0
  0
LINE
  5
34B
100
AcDbEntity
  8
レイヤー_1
  6
CONTINUOUS
 62
       3
100
AcDbLine
 10
-72.95828556
 20
-47.8520137
 30
0.0
 11
-72.99655676
 21
-48.02053833
 31
0.0
  0
LINE
  5
34C
100
AcDbEntity
  8
レイヤー_1
  6
CONTINUOUS
 62
       3
100
AcDbLine
 10
-72.99655676
 20
-48.02053833
 30
0.0
 11
-73.01833284
 21
-48.19473959
 31
0.0
  0
LINE
  5
34D
100
AcDbEntity
  8
レイヤー_1
  6
CONTINUOUS
 62
       3
100
AcDbLine
 10
-73.01833284
 20
-48.19473959
 30
0.0
 11
-73.0227702
 21
-48.37352114
 31
0.0
  0
LINE
  5
34E
100
AcDbEntity
  8
レイヤー_1
  6
CONTINUOUS
 62
       3
100
AcDbLine
 10
-73.0227702
 20
-48.37352114
 30
0.0
 11
-73.00955969
 21
-48.55029465
 31
0.0
  0
LINE
  5
34F
100
AcDbEntity
  8
レイヤー_1
  6
CONTINUOUS
 62
       3
100
AcDbLine
 10
-73.00955969
 20
-48.55029465
 30
0.0
 11
-72.97943005
 21
-48.72180925
 31
0.0
  0
LINE
  5
350
100
AcDbEntity
  8
レイヤー_1
  6
CONTINUOUS
 62
       3
100
AcDbLine
 10
-72.97943005
 20
-48.72180925
 30
0.0
 11
-72.9332293
 21
-48.88721692
 31
0.0
  0
LINE
  5
351
100
AcDbEntity
  8
レイヤー_1
  6
CONTINUOUS
 62
       3
100
AcDbLine
 10
-72.9332293
 20
-48.88721692
 30
0.0
 11
-72.87180546
 21
-49.04566965
 31
0.0
  0
LINE
  5
352
100
AcDbEntity
  8
レイヤー_1
  6
CONTINUOUS
 62
       3
100
AcDbLine
 10
-72.87180546
 20
-49.04566965
 30
0.0
 11
-72.79600654
 21
-49.19631943
 31
0.0
  0
LINE
  5
353
100
AcDbEntity
  8
レイヤー_1
  6
CONTINUOUS
 62
       3
100
AcDbLine
 10
-72.79600654
 20
-49.19631943
 30
0.0
 11
-72.70668056
 21
-49.33831823
 31
0.0
  0
LINE
  5
354
100
AcDbEntity
  8
レイヤー_1
  6
CONTINUOUS
 62
       3
100
AcDbLine
 10
-72.70668056
 20
-49.33831823
 30
0.0
 11
-72.60467554
 21
-49.47081805
 31
0.0
  0
LINE
  5
355
100
AcDbEntity
  8
レイヤー_1
  6
CONTINUOUS
 62
       3
100
AcDbLine
 10
-72.60467554
 20
-49.47081805
 30
0.0
 11
-72.49083949
 21
-49.59297086
 31
0.0
  0
LINE
  5
356
100
AcDbEntity
  8
レイヤー_1
  6
CONTINUOUS
 62
       3
100
AcDbLine
 10
-72.49083949
 20
-49.59297086
 30
0.0
 11
-72.36602042
 21
-49.70392866
 31
0.0
  0
LINE
  5
357
100
AcDbEntity
  8
レイヤー_1
  6
CONTINUOUS
 62
       3
100
AcDbLine
 10
-72.36602042
 20
-49.70392866
 30
0.0
 11
-72.23106636
 21
-49.80284342
 31
0.0
  0
LINE
  5
358
100
AcDbEntity
  8
レイヤー_1
  6
CONTINUOUS
 62
       3
100
AcDbLine
 10
-72.23106636
 20
-49.80284342
 30
0.0
 11
-72.08682531
 21
-49.88886713
 31
0.0
  0
LINE
  5
359
100
AcDbEntity
  8
レイヤー_1
  6
CONTINUOUS
 62
       3
100
AcDbLine
 10
-72.08682531
 20
-49.88886713
 30
0.0
 11
-71.93414529
 21
-49.96115178
 31
0.0
  0
LINE
  5
35A
100
AcDbEntity
  8
レイヤー_1
  6
CONTINUOUS
 62
       3
100
AcDbLine
 10
-71.93414529
 20
-49.96115178
 30
0.0
 11
-71.77387433
 21
-50.01884935
 31
0.0
  0
LINE
  5
35B
100
AcDbEntity
  8
レイヤー_1
  6
CONTINUOUS
 62
       3
100
AcDbLine
 10
-71.77387433
 20
-50.01884935
 30
0.0
 11
-71.60686042
 21
-50.06111182
 31
0.0
  0
LINE
  5
35C
100
AcDbEntity
  8
レイヤー_1
  6
CONTINUOUS
 62
       3
100
AcDbLine
 10
-71.60686042
 20
-50.06111182
 30
0.0
 11
-71.43395159
 21
-50.08709118
 31
0.0
  0
LINE
  5
35D
100
AcDbEntity
  8
レイヤー_1
  6
CONTINUOUS
 62
       3
100
AcDbLine
 10
-71.43395159
 20
-50.08709118
 30
0.0
 11
-71.25599586
 21
-50.09593942
 31
0.0
  0
LINE
  5
35E
100
AcDbEntity
  8
レイヤー_1
  6
CONTINUOUS
 62
       3
100
AcDbLine
 10
-5.25351297
 20
13.77799123
 30
0.0
 11
-5.06305692
 21
13.76824372
 31
0.0
  0
LINE
  5
35F
100
AcDbEntity
  8
レイヤー_1
  6
CONTINUOUS
 62
       3
100
AcDbLine
 10
-5.06305692
 20
13.76824372
 30
0.0
 11
-4.5173886
 21
13.73365564
 31
0.0
  0
LINE
  5
360
100
AcDbEntity
  8
レイヤー_1
  6
CONTINUOUS
 62
       3
100
AcDbLine
 10
-4.5173886
 20
13.73365564
 30
0.0
 11
-3.65505774
 21
13.66620863
 31
0.0
  0
LINE
  5
361
100
AcDbEntity
  8
レイヤー_1
  6
CONTINUOUS
 62
       3
100
AcDbLine
 10
-3.65505774
 20
13.66620863
 30
0.0
 11
-2.5146141
 21
13.55788435
 31
0.0
  0
LINE
  5
362
100
AcDbEntity
  8
レイヤー_1
  6
CONTINUOUS
 62
       3
100
AcDbLine
 10
-2.5146141
 20
13.55788435
 30
0.0
 11
-1.1346074
 21
13.40066446
 31
0.0
  0
LINE
  5
363
100
AcDbEntity
  8
レイヤー_1
  6
CONTINUOUS
 62
       3
100
AcDbLine
 10
-1.1346074
 20
13.40066446
 30
0.0
 11
0.4464126
 21
13.18653059
 31
0.0
  0
LINE
  5
364
100
AcDbEntity
  8
レイヤー_1
  6
CONTINUOUS
 62
       3
100
AcDbLine
 10
0.4464126
 20
13.18653059
 30
0.0
 11
2.18989618
 21
12.9074644
 31
0.0
  0
LINE
  5
365
100
AcDbEntity
  8
レイヤー_1
  6
CONTINUOUS
 62
       3
100
AcDbLine
 10
2.18989618
 20
12.9074644
 30
0.0
 11
4.05729359
 21
12.55544756
 31
0.0
  0
LINE
  5
366
100
AcDbEntity
  8
レイヤー_1
  6
CONTINUOUS
 62
       3
100
AcDbLine
 10
4.05729359
 20
12.55544756
 30
0.0
 11
6.0100551
 21
12.1224617
 31
0.0
  0
LINE
  5
367
100
AcDbEntity
  8
レイヤー_1
  6
CONTINUOUS
 62
       3
100
AcDbLine
 10
6.0100551
 20
12.1224617
 30
0.0
 11
8.00963095
 21
11.60048848
 31
0.0
  0
LINE
  5
368
100
AcDbEntity
  8
レイヤー_1
  6
CONTINUOUS
 62
       3
100
AcDbLine
 10
8.00963095
 20
11.60048848
 30
0.0
 11
10.01747142
 21
10.98150956
 31
0.0
  0
LINE
  5
369
100
AcDbEntity
  8
レイヤー_1
  6
CONTINUOUS
 62
       3
100
AcDbLine
 10
10.01747142
 20
10.98150956
 30
0.0
 11
11.99502676
 21
10.25750658
 31
0.0
  0
LINE
  5
36A
100
AcDbEntity
  8
レイヤー_1
  6
CONTINUOUS
 62
       3
100
AcDbLine
 10
11.99502676
 20
10.25750658
 30
0.0
 11
13.90374723
 21
9.4204612
 31
0.0
  0
LINE
  5
36B
100
AcDbEntity
  8
レイヤー_1
  6
CONTINUOUS
 62
       3
100
AcDbLine
 10
13.90374723
 20
9.4204612
 30
0.0
 11
15.70508309
 21
8.46235507
 31
0.0
  0
LINE
  5
36C
100
AcDbEntity
  8
レイヤー_1
  6
CONTINUOUS
 62
       3
100
AcDbLine
 10
15.70508309
 20
8.46235507
 30
0.0
 11
17.3604846
 21
7.37516984
 31
0.0
  0
LINE
  5
36D
100
AcDbEntity
  8
レイヤー_1
  6
CONTINUOUS
 62
       3
100
AcDbLine
 10
17.3604846
 20
7.37516984
 30
0.0
 11
18.83140203
 21
6.15088717
 31
0.0
  0
LINE
  5
36E
100
AcDbEntity
  8
レイヤー_1
  6
CONTINUOUS
 62
       3
100
AcDbLine
 10
18.83140203
 20
6.15088717
 30
0.0
 11
20.07928563
 21
4.7814887
 31
0.0
  0
LINE
  5
36F
100
AcDbEntity
  8
レイヤー_1
  6
CONTINUOUS
 62
       3
100
AcDbLine
 10
20.07928563
 20
4.7814887
 30
0.0
 11
21.06558565
 21
3.25895609
 31
0.0
  0
LINE
  5
370
100
AcDbEntity
  8
レイヤー_1
  6
CONTINUOUS
 62
       3
100
AcDbLine
 10
21.06558565
 20
3.25895609
 30
0.0
 11
21.75175238
 21
1.575271
 31
0.0
  0
LINE
  5
371
100
AcDbEntity
  8
レイヤー_1
  6
CONTINUOUS
 62
       3
100
AcDbLine
 10
21.75175238
 20
1.575271
 30
0.0
 11
22.09923605
 21
-0.27758494
 31
0.0
  0
LINE
  5
372
100
AcDbEntity
  8
レイヤー_1
  6
CONTINUOUS
 62
       3
100
AcDbLine
 10
22.11225851
 20
-1.79842234
 30
0.0
 11
21.79498578
 21
-3.67688477
 31
0.0
  0
LINE
  5
373
100
AcDbEntity
  8
レイヤー_1
  6
CONTINUOUS
 62
       3
100
AcDbLine
 10
21.79498578
 20
-3.67688477
 30
0.0
 11
21.13264203
 21
-5.38596429
 31
0.0
  0
LINE
  5
374
100
AcDbEntity
  8
レイヤー_1
  6
CONTINUOUS
 62
       3
100
AcDbLine
 10
21.13264203
 20
-5.38596429
 30
0.0
 11
20.1643002
 21
-6.93356018
 31
0.0
  0
LINE
  5
375
100
AcDbEntity
  8
レイヤー_1
  6
CONTINUOUS
 62
       3
100
AcDbLine
 10
20.1643002
 20
-6.93356018
 30
0.0
 11
18.92903328
 21
-8.32757171
 31
0.0
  0
LINE
  5
376
100
AcDbEntity
  8
レイヤー_1
  6
CONTINUOUS
 62
       3
100
AcDbLine
 10
18.92903328
 20
-8.32757171
 30
0.0
 11
17.46591421
 21
-9.57589819
 31
0.0
  0
LINE
  5
377
100
AcDbEntity
  8
レイヤー_1
  6
CONTINUOUS
 62
       3
100
AcDbLine
 10
17.46591421
 20
-9.57589819
 30
0.0
 11
15.81401597
 21
-10.68643889
 31
0.0
  0
LINE
  5
378
100
AcDbEntity
  8
レイヤー_1
  6
CONTINUOUS
 62
       3
100
AcDbLine
 10
15.81401597
 20
-10.68643889
 30
0.0
 11
14.01241152
 21
-11.66709311
 31
0.0
  0
LINE
  5
379
100
AcDbEntity
  8
レイヤー_1
  6
CONTINUOUS
 62
       3
100
AcDbLine
 10
14.01241152
 20
-11.66709311
 30
0.0
 11
12.10017383
 21
-12.52576011
 31
0.0
  0
LINE
  5
37A
100
AcDbEntity
  8
レイヤー_1
  6
CONTINUOUS
 62
       3
100
AcDbLine
 10
12.10017383
 20
-12.52576011
 30
0.0
 11
10.11637585
 21
-13.2703392
 31
0.0
  0
LINE
  5
37B
100
AcDbEntity
  8
レイヤー_1
  6
CONTINUOUS
 62
       3
100
AcDbLine
 10
10.11637585
 20
-13.2703392
 30
0.0
 11
8.10009055
 21
-13.90872965
 31
0.0
  0
LINE
  5
37C
100
AcDbEntity
  8
レイヤー_1
  6
CONTINUOUS
 62
       3
100
AcDbLine
 10
8.10009055
 20
-13.90872965
 30
0.0
 11
6.09039089
 21
-14.44883075
 31
0.0
  0
LINE
  5
37D
100
AcDbEntity
  8
レイヤー_1
  6
CONTINUOUS
 62
       3
100
AcDbLine
 10
6.09039089
 20
-14.44883075
 30
0.0
 11
4.12634984
 21
-14.89854179
 31
0.0
  0
LINE
  5
37E
100
AcDbEntity
  8
レイヤー_1
  6
CONTINUOUS
 62
       3
100
AcDbLine
 10
4.12634984
 20
-14.89854179
 30
0.0
 11
2.24704037
 21
-15.26576205
 31
0.0
  0
LINE
  5
37F
100
AcDbEntity
  8
レイヤー_1
  6
CONTINUOUS
 62
       3
100
AcDbLine
 10
2.24704037
 20
-15.26576205
 30
0.0
 11
0.49153543
 21
-15.55839082
 31
0.0
  0
LINE
  5
380
100
AcDbEntity
  8
レイヤー_1
  6
CONTINUOUS
 62
       3
100
AcDbLine
 10
0.49153543
 20
-15.55839082
 30
0.0
 11
-1.10109201
 21
-15.78432737
 31
0.0
  0
LINE
  5
381
100
AcDbEntity
  8
レイヤー_1
  6
CONTINUOUS
 62
       3
100
AcDbLine
 10
-1.10109201
 20
-15.78432737
 30
0.0
 11
-2.49176898
 21
-15.95147101
 31
0.0
  0
LINE
  5
382
100
AcDbEntity
  8
レイヤー_1
  6
CONTINUOUS
 62
       3
100
AcDbLine
 10
-2.49176898
 20
-15.95147101
 30
0.0
 11
-3.64142253
 21
-16.06772101
 31
0.0
  0
LINE
  5
383
100
AcDbEntity
  8
レイヤー_1
  6
CONTINUOUS
 62
       3
100
AcDbLine
 10
-3.64142253
 20
-16.06772101
 30
0.0
 11
-4.51097969
 21
-16.14097665
 31
0.0
  0
LINE
  5
384
100
AcDbEntity
  8
レイヤー_1
  6
CONTINUOUS
 62
       3
100
AcDbLine
 10
-4.51097969
 20
-16.14097665
 30
0.0
 11
-5.06136749
 21
-16.17913723
 31
0.0
  0
LINE
  5
385
100
AcDbEntity
  8
レイヤー_1
  6
CONTINUOUS
 62
       3
100
AcDbLine
 10
-5.06136749
 20
-16.17913723
 30
0.0
 11
-5.25351297
 21
-16.19010202
 31
0.0
  0
LINE
  5
386
100
AcDbEntity
  8
レイヤー_1
  6
CONTINUOUS
 62
       3
100
AcDbLine
 10
-66.20855201
 20
37.75606251
 30
0.0
 11
-66.38650775
 21
37.74721428
 31
0.0
  0
LINE
  5
387
100
AcDbEntity
  8
レイヤー_1
  6
CONTINUOUS
 62
       3
100
AcDbLine
 10
-66.38650775
 20
37.74721428
 30
0.0
 11
-66.55941657
 21
37.72123492
 31
0.0
  0
LINE
  5
388
100
AcDbEntity
  8
レイヤー_1
  6
CONTINUOUS
 62
       3
100
AcDbLine
 10
-66.55941657
 20
37.72123492
 30
0.0
 11
-66.72643048
 21
37.67897244
 31
0.0
  0
LINE
  5
389
100
AcDbEntity
  8
レイヤー_1
  6
CONTINUOUS
 62
       3
100
AcDbLine
 10
-66.72643048
 20
37.67897244
 30
0.0
 11
-66.88670145
 21
37.62127487
 31
0.0
  0
LINE
  5
38A
100
AcDbEntity
  8
レイヤー_1
  6
CONTINUOUS
 62
       3
100
AcDbLine
 10
-66.88670145
 20
37.62127487
 30
0.0
 11
-67.03938146
 21
37.54899023
 31
0.0
  0
LINE
  5
38B
100
AcDbEntity
  8
レイヤー_1
  6
CONTINUOUS
 62
       3
100
AcDbLine
 10
-67.03938146
 20
37.54899023
 30
0.0
 11
-67.18362251
 21
37.46296651
 31
0.0
  0
LINE
  5
38C
100
AcDbEntity
  8
レイヤー_1
  6
CONTINUOUS
 62
       3
100
AcDbLine
 10
-67.18362251
 20
37.46296651
 30
0.0
 11
-67.31857658
 21
37.36405175
 31
0.0
  0
LINE
  5
38D
100
AcDbEntity
  8
レイヤー_1
  6
CONTINUOUS
 62
       3
100
AcDbLine
 10
-67.31857658
 20
37.36405175
 30
0.0
 11
-67.44339564
 21
37.25309396
 31
0.0
  0
LINE
  5
38E
100
AcDbEntity
  8
レイヤー_1
  6
CONTINUOUS
 62
       3
100
AcDbLine
 10
-67.44339564
 20
37.25309396
 30
0.0
 11
-67.5572317
 21
37.13094114
 31
0.0
  0
LINE
  5
38F
100
AcDbEntity
  8
レイヤー_1
  6
CONTINUOUS
 62
       3
100
AcDbLine
 10
-67.5572317
 20
37.13094114
 30
0.0
 11
-67.65923672
 21
36.99844132
 31
0.0
  0
LINE
  5
390
100
AcDbEntity
  8
レイヤー_1
  6
CONTINUOUS
 62
       3
100
AcDbLine
 10
-67.65923672
 20
36.99844132
 30
0.0
 11
-67.7485627
 21
36.85644252
 31
0.0
  0
LINE
  5
391
100
AcDbEntity
  8
レイヤー_1
  6
CONTINUOUS
 62
       3
100
AcDbLine
 10
-67.7485627
 20
36.85644252
 30
0.0
 11
-67.82436161
 21
36.70579274
 31
0.0
  0
LINE
  5
392
100
AcDbEntity
  8
レイヤー_1
  6
CONTINUOUS
 62
       3
100
AcDbLine
 10
-67.82436161
 20
36.70579274
 30
0.0
 11
-67.88578545
 21
36.54734001
 31
0.0
  0
LINE
  5
393
100
AcDbEntity
  8
レイヤー_1
  6
CONTINUOUS
 62
       3
100
AcDbLine
 10
-67.88578545
 20
36.54734001
 30
0.0
 11
-67.9319862
 21
36.38193234
 31
0.0
  0
LINE
  5
394
100
AcDbEntity
  8
レイヤー_1
  6
CONTINUOUS
 62
       3
100
AcDbLine
 10
-67.9319862
 20
36.38193234
 30
0.0
 11
-67.96211584
 21
36.21041774
 31
0.0
  0
LINE
  5
395
100
AcDbEntity
  8
レイヤー_1
  6
CONTINUOUS
 62
       3
100
AcDbLine
 10
-67.96211584
 20
36.21041774
 30
0.0
 11
-67.97532636
 21
36.03364423
 31
0.0
  0
LINE
  5
396
100
AcDbEntity
  8
レイヤー_1
  6
CONTINUOUS
 62
       3
100
AcDbLine
 10
-67.97532636
 20
36.03364423
 30
0.0
 11
-67.97088899
 21
35.85474167
 31
0.0
  0
LINE
  5
397
100
AcDbEntity
  8
レイヤー_1
  6
CONTINUOUS
 62
       3
100
AcDbLine
 10
-67.97088899
 20
35.85474167
 30
0.0
 11
-67.94911291
 21
35.68040212
 31
0.0
  0
LINE
  5
398
100
AcDbEntity
  8
レイヤー_1
  6
CONTINUOUS
 62
       3
100
AcDbLine
 10
-67.94911291
 20
35.68040212
 30
0.0
 11
-67.91084171
 21
35.51176359
 31
0.0
  0
LINE
  5
399
100
AcDbEntity
  8
レイヤー_1
  6
CONTINUOUS
 62
       3
100
AcDbLine
 10
-67.91084171
 20
35.51176359
 30
0.0
 11
-67.85692342
 21
35.34967236
 31
0.0
  0
LINE
  5
39A
100
AcDbEntity
  8
レイヤー_1
  6
CONTINUOUS
 62
       3
100
AcDbLine
 10
-67.85692342
 20
35.34967236
 30
0.0
 11
-67.78820604
 21
35.19497472
 31
0.0
  0
LINE
  5
39B
100
AcDbEntity
  8
レイヤー_1
  6
CONTINUOUS
 62
       3
100
AcDbLine
 10
-67.78820604
 20
35.19497472
 30
0.0
 11
-67.70553759
 21
35.04851693
 31
0.0
  0
LINE
  5
39C
100
AcDbEntity
  8
レイヤー_1
  6
CONTINUOUS
 62
       3
100
AcDbLine
 10
-67.70553759
 20
35.04851693
 30
0.0
 11
-67.60976609
 21
34.91114529
 31
0.0
  0
LINE
  5
39D
100
AcDbEntity
  8
レイヤー_1
  6
CONTINUOUS
 62
       3
100
AcDbLine
 10
-67.60976609
 20
34.91114529
 30
0.0
 11
-67.50173955
 21
34.78370607
 31
0.0
  0
LINE
  5
39E
100
AcDbEntity
  8
レイヤー_1
  6
CONTINUOUS
 62
       3
100
AcDbLine
 10
-67.50173955
 20
34.78370607
 30
0.0
 11
-67.38230599
 21
34.66704556
 31
0.0
  0
LINE
  5
39F
100
AcDbEntity
  8
レイヤー_1
  6
CONTINUOUS
 62
       3
100
AcDbLine
 10
-67.38230599
 20
34.66704556
 30
0.0
 11
-67.25231342
 21
34.56201003
 31
0.0
  0
LINE
  5
3A0
100
AcDbEntity
  8
レイヤー_1
  6
CONTINUOUS
 62
       3
100
AcDbLine
 10
-67.25231342
 20
34.56201003
 30
0.0
 11
-67.11260986
 21
34.46944578
 31
0.0
  0
LINE
  5
3A1
100
AcDbEntity
  8
レイヤー_1
  6
CONTINUOUS
 62
       3
100
AcDbLine
 10
-67.11260986
 20
34.46944578
 30
0.0
 11
-66.96404333
 21
34.39019907
 31
0.0
  0
LINE
  5
3A2
100
AcDbEntity
  8
レイヤー_1
  6
CONTINUOUS
 62
       3
100
AcDbLine
 10
-66.96404333
 20
34.39019907
 30
0.0
 11
-66.80746183
 21
34.32511619
 31
0.0
  0
LINE
  5
3A3
100
AcDbEntity
  8
レイヤー_1
  6
CONTINUOUS
 62
       3
100
AcDbLine
 10
-66.80746183
 20
34.32511619
 30
0.0
 11
-66.64371339
 21
34.27504343
 31
0.0
  0
LINE
  5
3A4
100
AcDbEntity
  8
レイヤー_1
  6
CONTINUOUS
 62
       3
100
AcDbLine
 10
-66.64371339
 20
34.27504343
 30
0.0
 11
-66.47364602
 21
34.24082706
 31
0.0
  0
LINE
  5
3A5
100
AcDbEntity
  8
レイヤー_1
  6
CONTINUOUS
 62
       3
100
AcDbLine
 10
-66.47364602
 20
34.24082706
 30
0.0
 11
-66.29810774
 21
34.22331337
 31
0.0
  0
LINE
  5
3A6
100
AcDbEntity
  8
レイヤー_1
  6
CONTINUOUS
 62
       3
100
AcDbLine
 10
-66.29810774
 20
34.22331337
 30
0.0
 11
-66.11899456
 21
34.22331337
 31
0.0
  0
LINE
  5
3A7
100
AcDbEntity
  8
レイヤー_1
  6
CONTINUOUS
 62
       3
100
AcDbLine
 10
-66.11899456
 20
34.22331337
 30
0.0
 11
-65.94344313
 21
34.24082706
 31
0.0
  0
LINE
  5
3A8
100
AcDbEntity
  8
レイヤー_1
  6
CONTINUOUS
 62
       3
100
AcDbLine
 10
-65.94344313
 20
34.24082706
 30
0.0
 11
-65.77335112
 21
34.27504343
 31
0.0
  0
LINE
  5
3A9
100
AcDbEntity
  8
レイヤー_1
  6
CONTINUOUS
 62
       3
100
AcDbLine
 10
-65.77335112
 20
34.27504343
 30
0.0
 11
-65.60956828
 21
34.32511619
 31
0.0
  0
LINE
  5
3AA
100
AcDbEntity
  8
レイヤー_1
  6
CONTINUOUS
 62
       3
100
AcDbLine
 10
-65.60956828
 20
34.32511619
 30
0.0
 11
-65.45294437
 21
34.39019907
 31
0.0
  0
LINE
  5
3AB
100
AcDbEntity
  8
レイヤー_1
  6
CONTINUOUS
 62
       3
100
AcDbLine
 10
-65.45294437
 20
34.39019907
 30
0.0
 11
-65.30432914
 21
34.46944578
 31
0.0
  0
LINE
  5
3AC
100
AcDbEntity
  8
レイヤー_1
  6
CONTINUOUS
 62
       3
100
AcDbLine
 10
-65.30432914
 20
34.46944578
 30
0.0
 11
-65.16457233
 21
34.56201003
 31
0.0
  0
LINE
  5
3AD
100
AcDbEntity
  8
レイヤー_1
  6
CONTINUOUS
 62
       3
100
AcDbLine
 10
-65.16457233
 20
34.56201003
 30
0.0
 11
-65.03452369
 21
34.66704556
 31
0.0
  0
LINE
  5
3AE
100
AcDbEntity
  8
レイヤー_1
  6
CONTINUOUS
 62
       3
100
AcDbLine
 10
-65.03452369
 20
34.66704556
 30
0.0
 11
-64.91503297
 21
34.78370607
 31
0.0
  0
LINE
  5
3AF
100
AcDbEntity
  8
レイヤー_1
  6
CONTINUOUS
 62
       3
100
AcDbLine
 10
-64.91503297
 20
34.78370607
 30
0.0
 11
-64.80694993
 21
34.91114529
 31
0.0
  0
LINE
  5
3B0
100
AcDbEntity
  8
レイヤー_1
  6
CONTINUOUS
 62
       3
100
AcDbLine
 10
-64.80694993
 20
34.91114529
 30
0.0
 11
-64.7111243
 21
35.04851693
 31
0.0
  0
LINE
  5
3B1
100
AcDbEntity
  8
レイヤー_1
  6
CONTINUOUS
 62
       3
100
AcDbLine
 10
-64.7111243
 20
35.04851693
 30
0.0
 11
-64.62840585
 21
35.19497472
 31
0.0
  0
LINE
  5
3B2
100
AcDbEntity
  8
レイヤー_1
  6
CONTINUOUS
 62
       3
100
AcDbLine
 10
-64.62840585
 20
35.19497472
 30
0.0
 11
-64.55964432
 21
35.34967236
 31
0.0
  0
LINE
  5
3B3
100
AcDbEntity
  8
レイヤー_1
  6
CONTINUOUS
 62
       3
100
AcDbLine
 10
-64.55964432
 20
35.34967236
 30
0.0
 11
-64.50568947
 21
35.51176359
 31
0.0
  0
LINE
  5
3B4
100
AcDbEntity
  8
レイヤー_1
  6
CONTINUOUS
 62
       3
100
AcDbLine
 10
-64.50568947
 20
35.51176359
 30
0.0
 11
-64.46739103
 21
35.68040212
 31
0.0
  0
LINE
  5
3B5
100
AcDbEntity
  8
レイヤー_1
  6
CONTINUOUS
 62
       3
100
AcDbLine
 10
-64.46739103
 20
35.68040212
 30
0.0
 11
-64.44559876
 21
35.85474167
 31
0.0
  0
LINE
  5
3B6
100
AcDbEntity
  8
レイヤー_1
  6
CONTINUOUS
 62
       3
100
AcDbLine
 10
-64.44559876
 20
35.85474167
 30
0.0
 11
-64.44115799
 21
36.03364423
 31
0.0
  0
LINE
  5
3B7
100
AcDbEntity
  8
レイヤー_1
  6
CONTINUOUS
 62
       3
100
AcDbLine
 10
-64.44115799
 20
36.03364423
 30
0.0
 11
-64.45437851
 21
36.21041774
 31
0.0
  0
LINE
  5
3B8
100
AcDbEntity
  8
レイヤー_1
  6
CONTINUOUS
 62
       3
100
AcDbLine
 10
-64.45437851
 20
36.21041774
 30
0.0
 11
-64.48453009
 21
36.38193234
 31
0.0
  0
LINE
  5
3B9
100
AcDbEntity
  8
レイヤー_1
  6
CONTINUOUS
 62
       3
100
AcDbLine
 10
-64.48453009
 20
36.38193234
 30
0.0
 11
-64.53076295
 21
36.54734001
 31
0.0
  0
LINE
  5
3BA
100
AcDbEntity
  8
レイヤー_1
  6
CONTINUOUS
 62
       3
100
AcDbLine
 10
-64.53076295
 20
36.54734001
 30
0.0
 11
-64.59222736
 21
36.70579274
 31
0.0
  0
LINE
  5
3BB
100
AcDbEntity
  8
レイヤー_1
  6
CONTINUOUS
 62
       3
100
AcDbLine
 10
-64.59222736
 20
36.70579274
 30
0.0
 11
-64.66807357
 21
36.85644252
 31
0.0
  0
LINE
  5
3BC
100
AcDbEntity
  8
レイヤー_1
  6
CONTINUOUS
 62
       3
100
AcDbLine
 10
-64.66807357
 20
36.85644252
 30
0.0
 11
-64.75745183
 21
36.99844132
 31
0.0
  0
LINE
  5
3BD
100
AcDbEntity
  8
レイヤー_1
  6
CONTINUOUS
 62
       3
100
AcDbLine
 10
-64.75745183
 20
36.99844132
 30
0.0
 11
-64.85951238
 21
37.13094114
 31
0.0
  0
LINE
  5
3BE
100
AcDbEntity
  8
レイヤー_1
  6
CONTINUOUS
 62
       3
100
AcDbLine
 10
-64.85951238
 20
37.13094114
 30
0.0
 11
-64.97340548
 21
37.25309396
 31
0.0
  0
LINE
  5
3BF
100
AcDbEntity
  8
レイヤー_1
  6
CONTINUOUS
 62
       3
100
AcDbLine
 10
-64.97340548
 20
37.25309396
 30
0.0
 11
-65.09828138
 21
37.36405175
 31
0.0
  0
LINE
  5
3C0
100
AcDbEntity
  8
レイヤー_1
  6
CONTINUOUS
 62
       3
100
AcDbLine
 10
-65.09828138
 20
37.36405175
 30
0.0
 11
-65.23329032
 21
37.46296651
 31
0.0
  0
LINE
  5
3C1
100
AcDbEntity
  8
レイヤー_1
  6
CONTINUOUS
 62
       3
100
AcDbLine
 10
-65.23329032
 20
37.46296651
 30
0.0
 11
-65.37758256
 21
37.54899023
 31
0.0
  0
LINE
  5
3C2
100
AcDbEntity
  8
レイヤー_1
  6
CONTINUOUS
 62
       3
100
AcDbLine
 10
-65.37758256
 20
37.54899023
 30
0.0
 11
-65.53030835
 21
37.62127487
 31
0.0
  0
LINE
  5
3C3
100
AcDbEntity
  8
レイヤー_1
  6
CONTINUOUS
 62
       3
100
AcDbLine
 10
-65.53030835
 20
37.62127487
 30
0.0
 11
-65.69061795
 21
37.67897244
 31
0.0
  0
LINE
  5
3C4
100
AcDbEntity
  8
レイヤー_1
  6
CONTINUOUS
 62
       3
100
AcDbLine
 10
-65.69061795
 20
37.67897244
 30
0.0
 11
-65.85766159
 21
37.72123492
 31
0.0
  0
LINE
  5
3C5
100
AcDbEntity
  8
レイヤー_1
  6
CONTINUOUS
 62
       3
100
AcDbLine
 10
-65.85766159
 20
37.72123492
 30
0.0
 11
-66.03058952
 21
37.74721428
 31
0.0
  0
LINE
  5
3C6
100
AcDbEntity
  8
レイヤー_1
  6
CONTINUOUS
 62
       3
100
AcDbLine
 10
-66.03058952
 20
37.74721428
 30
0.0
 11
-66.20855201
 21
37.75606251
 31
0.0
  0
LINE
  5
3C7
100
AcDbEntity
  8
レイヤー_1
  6
CONTINUOUS
 62
       3
100
AcDbLine
 10
-76.33878639
 20
37.75606251
 30
0.0
 11
-76.51673874
 21
37.74721428
 31
0.0
  0
LINE
  5
3C8
100
AcDbEntity
  8
レイヤー_1
  6
CONTINUOUS
 62
       3
100
AcDbLine
 10
-76.51673874
 20
37.74721428
 30
0.0
 11
-76.68963801
 21
37.72123492
 31
0.0
  0
LINE
  5
3C9
100
AcDbEntity
  8
レイヤー_1
  6
CONTINUOUS
 62
       3
100
AcDbLine
 10
-76.68963801
 20
37.72123492
 30
0.0
 11
-76.85663705
 21
37.67897244
 31
0.0
  0
LINE
  5
3CA
100
AcDbEntity
  8
レイヤー_1
  6
CONTINUOUS
 62
       3
100
AcDbLine
 10
-76.85663705
 20
37.67897244
 30
0.0
 11
-77.01688871
 21
37.62127487
 31
0.0
  0
LINE
  5
3CB
100
AcDbEntity
  8
レイヤー_1
  6
CONTINUOUS
 62
       3
100
AcDbLine
 10
-77.01688871
 20
37.62127487
 30
0.0
 11
-77.16954584
 21
37.54899023
 31
0.0
  0
LINE
  5
3CC
100
AcDbEntity
  8
レイヤー_1
  6
CONTINUOUS
 62
       3
100
AcDbLine
 10
-77.16954584
 20
37.54899023
 30
0.0
 11
-77.31376129
 21
37.46296651
 31
0.0
  0
LINE
  5
3CD
100
AcDbEntity
  8
レイヤー_1
  6
CONTINUOUS
 62
       3
100
AcDbLine
 10
-77.31376129
 20
37.46296651
 30
0.0
 11
-77.44868791
 21
37.36405175
 31
0.0
  0
LINE
  5
3CE
100
AcDbEntity
  8
レイヤー_1
  6
CONTINUOUS
 62
       3
100
AcDbLine
 10
-77.44868791
 20
37.36405175
 30
0.0
 11
-77.57347856
 21
37.25309396
 31
0.0
  0
LINE
  5
3CF
100
AcDbEntity
  8
レイヤー_1
  6
CONTINUOUS
 62
       3
100
AcDbLine
 10
-77.57347856
 20
37.25309396
 30
0.0
 11
-77.68728609
 21
37.13094114
 31
0.0
  0
LINE
  5
3D0
100
AcDbEntity
  8
レイヤー_1
  6
CONTINUOUS
 62
       3
100
AcDbLine
 10
-77.68728609
 20
37.13094114
 30
0.0
 11
-77.78926335
 21
36.99844132
 31
0.0
  0
LINE
  5
3D1
100
AcDbEntity
  8
レイヤー_1
  6
CONTINUOUS
 62
       3
100
AcDbLine
 10
-77.78926335
 20
36.99844132
 30
0.0
 11
-77.87856319
 21
36.85644252
 31
0.0
  0
LINE
  5
3D2
100
AcDbEntity
  8
レイヤー_1
  6
CONTINUOUS
 62
       3
100
AcDbLine
 10
-77.87856319
 20
36.85644252
 30
0.0
 11
-77.95433846
 21
36.70579274
 31
0.0
  0
LINE
  5
3D3
100
AcDbEntity
  8
レイヤー_1
  6
CONTINUOUS
 62
       3
100
AcDbLine
 10
-77.95433846
 20
36.70579274
 30
0.0
 11
-78.01574201
 21
36.54734001
 31
0.0
  0
LINE
  5
3D4
100
AcDbEntity
  8
レイヤー_1
  6
CONTINUOUS
 62
       3
100
AcDbLine
 10
-78.01574201
 20
36.54734001
 30
0.0
 11
-78.0619267
 21
36.38193234
 31
0.0
  0
LINE
  5
3D5
100
AcDbEntity
  8
レイヤー_1
  6
CONTINUOUS
 62
       3
100
AcDbLine
 10
-78.0619267
 20
36.38193234
 30
0.0
 11
-78.09204538
 21
36.21041774
 31
0.0
  0
LINE
  5
3D6
100
AcDbEntity
  8
レイヤー_1
  6
CONTINUOUS
 62
       3
100
AcDbLine
 10
-78.09204538
 20
36.21041774
 30
0.0
 11
-78.10525089
 21
36.03364423
 31
0.0
  0
LINE
  5
3D7
100
AcDbEntity
  8
レイヤー_1
  6
CONTINUOUS
 62
       3
100
AcDbLine
 10
-78.10525089
 20
36.03364423
 30
0.0
 11
-78.10081522
 21
35.85474167
 31
0.0
  0
LINE
  5
3D8
100
AcDbEntity
  8
レイヤー_1
  6
CONTINUOUS
 62
       3
100
AcDbLine
 10
-78.10081522
 20
35.85474167
 30
0.0
 11
-78.07904724
 21
35.68040212
 31
0.0
  0
LINE
  5
3D9
100
AcDbEntity
  8
レイヤー_1
  6
CONTINUOUS
 62
       3
100
AcDbLine
 10
-78.07904724
 20
35.68040212
 30
0.0
 11
-78.04078966
 21
35.51176359
 31
0.0
  0
LINE
  5
3DA
100
AcDbEntity
  8
レイヤー_1
  6
CONTINUOUS
 62
       3
100
AcDbLine
 10
-78.04078966
 20
35.51176359
 30
0.0
 11
-77.98688965
 21
35.34967236
 31
0.0
  0
LINE
  5
3DB
100
AcDbEntity
  8
レイヤー_1
  6
CONTINUOUS
 62
       3
100
AcDbLine
 10
-77.98688965
 20
35.34967236
 30
0.0
 11
-77.91819434
 21
35.19497472
 31
0.0
  0
LINE
  5
3DC
100
AcDbEntity
  8
レイヤー_1
  6
CONTINUOUS
 62
       3
100
AcDbLine
 10
-77.91819434
 20
35.19497472
 30
0.0
 11
-77.83555089
 21
35.04851693
 31
0.0
  0
LINE
  5
3DD
100
AcDbEntity
  8
レイヤー_1
  6
CONTINUOUS
 62
       3
100
AcDbLine
 10
-77.83555089
 20
35.04851693
 30
0.0
 11
-77.73980645
 21
34.91114529
 31
0.0
  0
LINE
  5
3DE
100
AcDbEntity
  8
レイヤー_1
  6
CONTINUOUS
 62
       3
100
AcDbLine
 10
-77.73980645
 20
34.91114529
 30
0.0
 11
-77.63180817
 21
34.78370607
 31
0.0
  0
LINE
  5
3DF
100
AcDbEntity
  8
レイヤー_1
  6
CONTINUOUS
 62
       3
100
AcDbLine
 10
-77.63180817
 20
34.78370607
 30
0.0
 11
-77.51240318
 21
34.66704556
 31
0.0
  0
LINE
  5
3E0
100
AcDbEntity
  8
レイヤー_1
  6
CONTINUOUS
 62
       3
100
AcDbLine
 10
-77.51240318
 20
34.66704556
 30
0.0
 11
-77.38243865
 21
34.56201003
 31
0.0
  0
LINE
  5
3E1
100
AcDbEntity
  8
レイヤー_1
  6
CONTINUOUS
 62
       3
100
AcDbLine
 10
-77.38243865
 20
34.56201003
 30
0.0
 11
-77.24276172
 21
34.46944578
 31
0.0
  0
LINE
  5
3E2
100
AcDbEntity
  8
レイヤー_1
  6
CONTINUOUS
 62
       3
100
AcDbLine
 10
-77.24276172
 20
34.46944578
 30
0.0
 11
-77.09421954
 21
34.39019907
 31
0.0
  0
LINE
  5
3E3
100
AcDbEntity
  8
レイヤー_1
  6
CONTINUOUS
 62
       3
100
AcDbLine
 10
-77.09421954
 20
34.39019907
 30
0.0
 11
-76.93765925
 21
34.32511619
 31
0.0
  0
LINE
  5
3E4
100
AcDbEntity
  8
レイヤー_1
  6
CONTINUOUS
 62
       3
100
AcDbLine
 10
-76.93765925
 20
34.32511619
 30
0.0
 11
-76.77392801
 21
34.27504343
 31
0.0
  0
LINE
  5
3E5
100
AcDbEntity
  8
レイヤー_1
  6
CONTINUOUS
 62
       3
100
AcDbLine
 10
-76.77392801
 20
34.27504343
 30
0.0
 11
-76.60387296
 21
34.24082706
 31
0.0
  0
LINE
  5
3E6
100
AcDbEntity
  8
レイヤー_1
  6
CONTINUOUS
 62
       3
100
AcDbLine
 10
-76.60387296
 20
34.24082706
 30
0.0
 11
-76.42834125
 21
34.22331337
 31
0.0
  0
LINE
  5
3E7
100
AcDbEntity
  8
レイヤー_1
  6
CONTINUOUS
 62
       3
100
AcDbLine
 10
-76.42834125
 20
34.22331337
 30
0.0
 11
-76.24923066
 21
34.22331337
 31
0.0
  0
LINE
  5
3E8
100
AcDbEntity
  8
レイヤー_1
  6
CONTINUOUS
 62
       3
100
AcDbLine
 10
-76.24923066
 20
34.22331337
 30
0.0
 11
-76.07369238
 21
34.24082706
 31
0.0
  0
LINE
  5
3E9
100
AcDbEntity
  8
レイヤー_1
  6
CONTINUOUS
 62
       3
100
AcDbLine
 10
-76.07369238
 20
34.24082706
 30
0.0
 11
-75.90362501
 21
34.27504343
 31
0.0
  0
LINE
  5
3EA
100
AcDbEntity
  8
レイヤー_1
  6
CONTINUOUS
 62
       3
100
AcDbLine
 10
-75.90362501
 20
34.27504343
 30
0.0
 11
-75.73987657
 21
34.32511619
 31
0.0
  0
LINE
  5
3EB
100
AcDbEntity
  8
レイヤー_1
  6
CONTINUOUS
 62
       3
100
AcDbLine
 10
-75.73987657
 20
34.32511619
 30
0.0
 11
-75.58329507
 21
34.39019907
 31
0.0
  0
LINE
  5
3EC
100
AcDbEntity
  8
レイヤー_1
  6
CONTINUOUS
 62
       3
100
AcDbLine
 10
-75.58329507
 20
34.39019907
 30
0.0
 11
-75.43472854
 21
34.46944578
 31
0.0
  0
LINE
  5
3ED
100
AcDbEntity
  8
レイヤー_1
  6
CONTINUOUS
 62
       3
100
AcDbLine
 10
-75.43472854
 20
34.46944578
 30
0.0
 11
-75.29502498
 21
34.56201003
 31
0.0
  0
LINE
  5
3EE
100
AcDbEntity
  8
レイヤー_1
  6
CONTINUOUS
 62
       3
100
AcDbLine
 10
-75.29502498
 20
34.56201003
 30
0.0
 11
-75.16503241
 21
34.66704556
 31
0.0
  0
LINE
  5
3EF
100
AcDbEntity
  8
レイヤー_1
  6
CONTINUOUS
 62
       3
100
AcDbLine
 10
-75.16503241
 20
34.66704556
 30
0.0
 11
-75.04559885
 21
34.78370607
 31
0.0
  0
LINE
  5
3F0
100
AcDbEntity
  8
レイヤー_1
  6
CONTINUOUS
 62
       3
100
AcDbLine
 10
-75.04559885
 20
34.78370607
 30
0.0
 11
-74.93757231
 21
34.91114529
 31
0.0
  0
LINE
  5
3F1
100
AcDbEntity
  8
レイヤー_1
  6
CONTINUOUS
 62
       3
100
AcDbLine
 10
-74.93757231
 20
34.91114529
 30
0.0
 11
-74.84180081
 21
35.04851693
 31
0.0
  0
LINE
  5
3F2
100
AcDbEntity
  8
レイヤー_1
  6
CONTINUOUS
 62
       3
100
AcDbLine
 10
-74.84180081
 20
35.04851693
 30
0.0
 11
-74.75913236
 21
35.19497472
 31
0.0
  0
LINE
  5
3F3
100
AcDbEntity
  8
レイヤー_1
  6
CONTINUOUS
 62
       3
100
AcDbLine
 10
-74.75913236
 20
35.19497472
 30
0.0
 11
-74.69041498
 21
35.34967236
 31
0.0
  0
LINE
  5
3F4
100
AcDbEntity
  8
レイヤー_1
  6
CONTINUOUS
 62
       3
100
AcDbLine
 10
-74.69041498
 20
35.34967236
 30
0.0
 11
-74.63649669
 21
35.51176359
 31
0.0
  0
LINE
  5
3F5
100
AcDbEntity
  8
レイヤー_1
  6
CONTINUOUS
 62
       3
100
AcDbLine
 10
-74.63649669
 20
35.51176359
 30
0.0
 11
-74.59822549
 21
35.68040212
 31
0.0
  0
LINE
  5
3F6
100
AcDbEntity
  8
レイヤー_1
  6
CONTINUOUS
 62
       3
100
AcDbLine
 10
-74.59822549
 20
35.68040212
 30
0.0
 11
-74.57644941
 21
35.85474167
 31
0.0
  0
LINE
  5
3F7
100
AcDbEntity
  8
レイヤー_1
  6
CONTINUOUS
 62
       3
100
AcDbLine
 10
-74.57644941
 20
35.85474167
 30
0.0
 11
-74.57201204
 21
36.03364423
 31
0.0
  0
LINE
  5
3F8
100
AcDbEntity
  8
レイヤー_1
  6
CONTINUOUS
 62
       3
100
AcDbLine
 10
-74.57201204
 20
36.03364423
 30
0.0
 11
-74.58522256
 21
36.21041774
 31
0.0
  0
LINE
  5
3F9
100
AcDbEntity
  8
レイヤー_1
  6
CONTINUOUS
 62
       3
100
AcDbLine
 10
-74.58522256
 20
36.21041774
 30
0.0
 11
-74.6153522
 21
36.38193234
 31
0.0
  0
LINE
  5
3FA
100
AcDbEntity
  8
レイヤー_1
  6
CONTINUOUS
 62
       3
100
AcDbLine
 10
-74.6153522
 20
36.38193234
 30
0.0
 11
-74.66155295
 21
36.54734001
 31
0.0
  0
LINE
  5
3FB
100
AcDbEntity
  8
レイヤー_1
  6
CONTINUOUS
 62
       3
100
AcDbLine
 10
-74.66155295
 20
36.54734001
 30
0.0
 11
-74.72297679
 21
36.70579274
 31
0.0
  0
LINE
  5
3FC
100
AcDbEntity
  8
レイヤー_1
  6
CONTINUOUS
 62
       3
100
AcDbLine
 10
-74.72297679
 20
36.70579274
 30
0.0
 11
-74.7987757
 21
36.85644252
 31
0.0
  0
LINE
  5
3FD
100
AcDbEntity
  8
レイヤー_1
  6
CONTINUOUS
 62
       3
100
AcDbLine
 10
-74.7987757
 20
36.85644252
 30
0.0
 11
-74.88810168
 21
36.99844132
 31
0.0
  0
LINE
  5
3FE
100
AcDbEntity
  8
レイヤー_1
  6
CONTINUOUS
 62
       3
100
AcDbLine
 10
-74.88810168
 20
36.99844132
 30
0.0
 11
-74.9901067
 21
37.13094114
 31
0.0
  0
LINE
  5
3FF
100
AcDbEntity
  8
レイヤー_1
  6
CONTINUOUS
 62
       3
100
AcDbLine
 10
-74.9901067
 20
37.13094114
 30
0.0
 11
-75.10394276
 21
37.25309396
 31
0.0
  0
LINE
  5
400
100
AcDbEntity
  8
レイヤー_1
  6
CONTINUOUS
 62
       3
100
AcDbLine
 10
-75.10394276
 20
37.25309396
 30
0.0
 11
-75.22876182
 21
37.36405175
 31
0.0
  0
LINE
  5
401
100
AcDbEntity
  8
レイヤー_1
  6
CONTINUOUS
 62
       3
100
AcDbLine
 10
-75.22876182
 20
37.36405175
 30
0.0
 11
-75.36371589
 21
37.46296651
 31
0.0
  0
LINE
  5
402
100
AcDbEntity
  8
レイヤー_1
  6
CONTINUOUS
 62
       3
100
AcDbLine
 10
-75.36371589
 20
37.46296651
 30
0.0
 11
-75.50795694
 21
37.54899023
 31
0.0
  0
LINE
  5
403
100
AcDbEntity
  8
レイヤー_1
  6
CONTINUOUS
 62
       3
100
AcDbLine
 10
-75.50795694
 20
37.54899023
 30
0.0
 11
-75.66063695
 21
37.62127487
 31
0.0
  0
LINE
  5
404
100
AcDbEntity
  8
レイヤー_1
  6
CONTINUOUS
 62
       3
100
AcDbLine
 10
-75.66063695
 20
37.62127487
 30
0.0
 11
-75.82090792
 21
37.67897244
 31
0.0
  0
LINE
  5
405
100
AcDbEntity
  8
レイヤー_1
  6
CONTINUOUS
 62
       3
100
AcDbLine
 10
-75.82090792
 20
37.67897244
 30
0.0
 11
-75.98792183
 21
37.72123492
 31
0.0
  0
LINE
  5
406
100
AcDbEntity
  8
レイヤー_1
  6
CONTINUOUS
 62
       3
100
AcDbLine
 10
-75.98792183
 20
37.72123492
 30
0.0
 11
-76.16083065
 21
37.74721428
 31
0.0
  0
LINE
  5
407
100
AcDbEntity
  8
レイヤー_1
  6
CONTINUOUS
 62
       3
100
AcDbLine
 10
-76.16083065
 20
37.74721428
 30
0.0
 11
-76.33878639
 21
37.75606251
 31
0.0
  0
LINE
  5
408
100
AcDbEntity
  8
レイヤー_1
  6
CONTINUOUS
 62
       3
100
AcDbLine
 10
-71.27335914
 20
37.75606251
 30
0.0
 11
-71.45142246
 21
37.74721428
 31
0.0
  0
LINE
  5
409
100
AcDbEntity
  8
レイヤー_1
  6
CONTINUOUS
 62
       3
100
AcDbLine
 10
-71.45142246
 20
37.74721428
 30
0.0
 11
-71.62442564
 21
37.72123492
 31
0.0
  0
LINE
  5
40A
100
AcDbEntity
  8
レイヤー_1
  6
CONTINUOUS
 62
       3
100
AcDbLine
 10
-71.62442564
 20
37.72123492
 30
0.0
 11
-71.79152155
 21
37.67897244
 31
0.0
  0
LINE
  5
40B
100
AcDbEntity
  8
レイヤー_1
  6
CONTINUOUS
 62
       3
100
AcDbLine
 10
-71.79152155
 20
37.67897244
 30
0.0
 11
-71.95186304
 21
37.62127487
 31
0.0
  0
LINE
  5
40C
100
AcDbEntity
  8
レイヤー_1
  6
CONTINUOUS
 62
       3
100
AcDbLine
 10
-71.95186304
 20
37.62127487
 30
0.0
 11
-72.10460294
 21
37.54899023
 31
0.0
  0
LINE
  5
40D
100
AcDbEntity
  8
レイヤー_1
  6
CONTINUOUS
 62
       3
100
AcDbLine
 10
-72.10460294
 20
37.54899023
 30
0.0
 11
-72.24889413
 21
37.46296651
 31
0.0
  0
LINE
  5
40E
100
AcDbEntity
  8
レイヤー_1
  6
CONTINUOUS
 62
       3
100
AcDbLine
 10
-72.24889413
 20
37.46296651
 30
0.0
 11
-72.38388945
 21
37.36405175
 31
0.0
  0
LINE
  5
40F
100
AcDbEntity
  8
レイヤー_1
  6
CONTINUOUS
 62
       3
100
AcDbLine
 10
-72.38388945
 20
37.36405175
 30
0.0
 11
-72.50874174
 21
37.25309396
 31
0.0
  0
LINE
  5
410
100
AcDbEntity
  8
レイヤー_1
  6
CONTINUOUS
 62
       3
100
AcDbLine
 10
-72.50874174
 20
37.25309396
 30
0.0
 11
-72.62260387
 21
37.13094114
 31
0.0
  0
LINE
  5
411
100
AcDbEntity
  8
レイヤー_1
  6
CONTINUOUS
 62
       3
100
AcDbLine
 10
-72.62260387
 20
37.13094114
 30
0.0
 11
-72.72462868
 21
36.99844132
 31
0.0
  0
LINE
  5
412
100
AcDbEntity
  8
レイヤー_1
  6
CONTINUOUS
 62
       3
100
AcDbLine
 10
-72.72462868
 20
36.99844132
 30
0.0
 11
-72.81396903
 21
36.85644252
 31
0.0
  0
LINE
  5
413
100
AcDbEntity
  8
レイヤー_1
  6
CONTINUOUS
 62
       3
100
AcDbLine
 10
-72.81396903
 20
36.85644252
 30
0.0
 11
-72.88977776
 21
36.70579274
 31
0.0
  0
LINE
  5
414
100
AcDbEntity
  8
レイヤー_1
  6
CONTINUOUS
 62
       3
100
AcDbLine
 10
-72.88977776
 20
36.70579274
 30
0.0
 11
-72.95120773
 21
36.54734001
 31
0.0
  0
LINE
  5
415
100
AcDbEntity
  8
レイヤー_1
  6
CONTINUOUS
 62
       3
100
AcDbLine
 10
-72.95120773
 20
36.54734001
 30
0.0
 11
-72.9974118
 21
36.38193234
 31
0.0
  0
LINE
  5
416
100
AcDbEntity
  8
レイヤー_1
  6
CONTINUOUS
 62
       3
100
AcDbLine
 10
-72.9974118
 20
36.38193234
 30
0.0
 11
-73.0275428
 21
36.21041774
 31
0.0
  0
LINE
  5
417
100
AcDbEntity
  8
レイヤー_1
  6
CONTINUOUS
 62
       3
100
AcDbLine
 10
-73.0275428
 20
36.21041774
 30
0.0
 11
-73.0407536
 21
36.03364423
 31
0.0
  0
LINE
  5
418
100
AcDbEntity
  8
レイヤー_1
  6
CONTINUOUS
 62
       3
100
AcDbLine
 10
-73.0407536
 20
36.03364423
 30
0.0
 11
-73.03631617
 21
35.85474167
 31
0.0
  0
LINE
  5
419
100
AcDbEntity
  8
レイヤー_1
  6
CONTINUOUS
 62
       3
100
AcDbLine
 10
-73.03631617
 20
35.85474167
 30
0.0
 11
-73.01453938
 21
35.68040212
 31
0.0
  0
LINE
  5
41A
100
AcDbEntity
  8
レイヤー_1
  6
CONTINUOUS
 62
       3
100
AcDbLine
 10
-73.01453938
 20
35.68040212
 30
0.0
 11
-72.97626595
 21
35.51176359
 31
0.0
  0
LINE
  5
41B
100
AcDbEntity
  8
レイヤー_1
  6
CONTINUOUS
 62
       3
100
AcDbLine
 10
-72.97626595
 20
35.51176359
 30
0.0
 11
-72.92234304
 21
35.34967236
 31
0.0
  0
LINE
  5
41C
100
AcDbEntity
  8
レイヤー_1
  6
CONTINUOUS
 62
       3
100
AcDbLine
 10
-72.92234304
 20
35.34967236
 30
0.0
 11
-72.85361779
 21
35.19497472
 31
0.0
  0
LINE
  5
41D
100
AcDbEntity
  8
レイヤー_1
  6
CONTINUOUS
 62
       3
100
AcDbLine
 10
-72.85361779
 20
35.19497472
 30
0.0
 11
-72.77093736
 21
35.04851693
 31
0.0
  0
LINE
  5
41E
100
AcDbEntity
  8
レイヤー_1
  6
CONTINUOUS
 62
       3
100
AcDbLine
 10
-72.77093736
 20
35.04851693
 30
0.0
 11
-72.67514889
 21
34.91114529
 31
0.0
  0
LINE
  5
41F
100
AcDbEntity
  8
レイヤー_1
  6
CONTINUOUS
 62
       3
100
AcDbLine
 10
-72.67514889
 20
34.91114529
 30
0.0
 11
-72.56709952
 21
34.78370607
 31
0.0
  0
LINE
  5
420
100
AcDbEntity
  8
レイヤー_1
  6
CONTINUOUS
 62
       3
100
AcDbLine
 10
-72.56709952
 20
34.78370607
 30
0.0
 11
-72.44763642
 21
34.66704556
 31
0.0
  0
LINE
  5
421
100
AcDbEntity
  8
レイヤー_1
  6
CONTINUOUS
 62
       3
100
AcDbLine
 10
-72.44763642
 20
34.66704556
 30
0.0
 11
-72.31760672
 21
34.56201003
 31
0.0
  0
LINE
  5
422
100
AcDbEntity
  8
レイヤー_1
  6
CONTINUOUS
 62
       3
100
AcDbLine
 10
-72.31760672
 20
34.56201003
 30
0.0
 11
-72.17785758
 21
34.46944578
 31
0.0
  0
LINE
  5
423
100
AcDbEntity
  8
レイヤー_1
  6
CONTINUOUS
 62
       3
100
AcDbLine
 10
-72.17785758
 20
34.46944578
 30
0.0
 11
-72.02923613
 21
34.39019907
 31
0.0
  0
LINE
  5
424
100
AcDbEntity
  8
レイヤー_1
  6
CONTINUOUS
 62
       3
100
AcDbLine
 10
-72.02923613
 20
34.39019907
 30
0.0
 11
-71.87258954
 21
34.32511619
 31
0.0
  0
LINE
  5
425
100
AcDbEntity
  8
レイヤー_1
  6
CONTINUOUS
 62
       3
100
AcDbLine
 10
-71.87258954
 20
34.32511619
 30
0.0
 11
-71.70876495
 21
34.27504343
 31
0.0
  0
LINE
  5
426
100
AcDbEntity
  8
レイヤー_1
  6
CONTINUOUS
 62
       3
100
AcDbLine
 10
-71.70876495
 20
34.27504343
 30
0.0
 11
-71.53860951
 21
34.24082706
 31
0.0
  0
LINE
  5
427
100
AcDbEntity
  8
レイヤー_1
  6
CONTINUOUS
 62
       3
100
AcDbLine
 10
-71.53860951
 20
34.24082706
 30
0.0
 11
-71.36297037
 21
34.22331337
 31
0.0
  0
LINE
  5
428
100
AcDbEntity
  8
レイヤー_1
  6
CONTINUOUS
 62
       3
100
AcDbLine
 10
-71.36297037
 20
34.22331337
 30
0.0
 11
-71.18380341
 21
34.22331337
 31
0.0
  0
LINE
  5
429
100
AcDbEntity
  8
レイヤー_1
  6
CONTINUOUS
 62
       3
100
AcDbLine
 10
-71.18380341
 20
34.22331337
 30
0.0
 11
-71.00826513
 21
34.24082706
 31
0.0
  0
LINE
  5
42A
100
AcDbEntity
  8
レイヤー_1
  6
CONTINUOUS
 62
       3
100
AcDbLine
 10
-71.00826513
 20
34.24082706
 30
0.0
 11
-70.83819776
 21
34.27504343
 31
0.0
  0
LINE
  5
42B
100
AcDbEntity
  8
レイヤー_1
  6
CONTINUOUS
 62
       3
100
AcDbLine
 10
-70.83819776
 20
34.27504343
 30
0.0
 11
-70.67444932
 21
34.32511619
 31
0.0
  0
LINE
  5
42C
100
AcDbEntity
  8
レイヤー_1
  6
CONTINUOUS
 62
       3
100
AcDbLine
 10
-70.67444932
 20
34.32511619
 30
0.0
 11
-70.51786783
 21
34.39019907
 31
0.0
  0
LINE
  5
42D
100
AcDbEntity
  8
レイヤー_1
  6
CONTINUOUS
 62
       3
100
AcDbLine
 10
-70.51786783
 20
34.39019907
 30
0.0
 11
-70.36930129
 21
34.46944578
 31
0.0
  0
LINE
  5
42E
100
AcDbEntity
  8
レイヤー_1
  6
CONTINUOUS
 62
       3
100
AcDbLine
 10
-70.36930129
 20
34.46944578
 30
0.0
 11
-70.22959774
 21
34.56201003
 31
0.0
  0
LINE
  5
42F
100
AcDbEntity
  8
レイヤー_1
  6
CONTINUOUS
 62
       3
100
AcDbLine
 10
-70.22959774
 20
34.56201003
 30
0.0
 11
-70.09960517
 21
34.66704556
 31
0.0
  0
LINE
  5
430
100
AcDbEntity
  8
レイヤー_1
  6
CONTINUOUS
 62
       3
100
AcDbLine
 10
-70.09960517
 20
34.66704556
 30
0.0
 11
-69.98017161
 21
34.78370607
 31
0.0
  0
LINE
  5
431
100
AcDbEntity
  8
レイヤー_1
  6
CONTINUOUS
 62
       3
100
AcDbLine
 10
-69.98017161
 20
34.78370607
 30
0.0
 11
-69.87214507
 21
34.91114529
 31
0.0
  0
LINE
  5
432
100
AcDbEntity
  8
レイヤー_1
  6
CONTINUOUS
 62
       3
100
AcDbLine
 10
-69.87214507
 20
34.91114529
 30
0.0
 11
-69.77637357
 21
35.04851693
 31
0.0
  0
LINE
  5
433
100
AcDbEntity
  8
レイヤー_1
  6
CONTINUOUS
 62
       3
100
AcDbLine
 10
-69.77637357
 20
35.04851693
 30
0.0
 11
-69.69370512
 21
35.19497472
 31
0.0
  0
LINE
  5
434
100
AcDbEntity
  8
レイヤー_1
  6
CONTINUOUS
 62
       3
100
AcDbLine
 10
-69.69370512
 20
35.19497472
 30
0.0
 11
-69.62498774
 21
35.34967236
 31
0.0
  0
LINE
  5
435
100
AcDbEntity
  8
レイヤー_1
  6
CONTINUOUS
 62
       3
100
AcDbLine
 10
-69.62498774
 20
35.34967236
 30
0.0
 11
-69.57106944
 21
35.51176359
 31
0.0
  0
LINE
  5
436
100
AcDbEntity
  8
レイヤー_1
  6
CONTINUOUS
 62
       3
100
AcDbLine
 10
-69.57106944
 20
35.51176359
 30
0.0
 11
-69.53279825
 21
35.68040212
 31
0.0
  0
LINE
  5
437
100
AcDbEntity
  8
レイヤー_1
  6
CONTINUOUS
 62
       3
100
AcDbLine
 10
-69.53279825
 20
35.68040212
 30
0.0
 11
-69.51102217
 21
35.85474167
 31
0.0
  0
LINE
  5
438
100
AcDbEntity
  8
レイヤー_1
  6
CONTINUOUS
 62
       3
100
AcDbLine
 10
-69.51102217
 20
35.85474167
 30
0.0
 11
-69.5065848
 21
36.03364423
 31
0.0
  0
LINE
  5
439
100
AcDbEntity
  8
レイヤー_1
  6
CONTINUOUS
 62
       3
100
AcDbLine
 10
-69.5065848
 20
36.03364423
 30
0.0
 11
-69.51979532
 21
36.21041774
 31
0.0
  0
LINE
  5
43A
100
AcDbEntity
  8
レイヤー_1
  6
CONTINUOUS
 62
       3
100
AcDbLine
 10
-69.51979532
 20
36.21041774
 30
0.0
 11
-69.54992496
 21
36.38193234
 31
0.0
  0
LINE
  5
43B
100
AcDbEntity
  8
レイヤー_1
  6
CONTINUOUS
 62
       3
100
AcDbLine
 10
-69.54992496
 20
36.38193234
 30
0.0
 11
-69.5961257
 21
36.54734001
 31
0.0
  0
LINE
  5
43C
100
AcDbEntity
  8
レイヤー_1
  6
CONTINUOUS
 62
       3
100
AcDbLine
 10
-69.5961257
 20
36.54734001
 30
0.0
 11
-69.65754954
 21
36.70579274
 31
0.0
  0
LINE
  5
43D
100
AcDbEntity
  8
レイヤー_1
  6
CONTINUOUS
 62
       3
100
AcDbLine
 10
-69.65754954
 20
36.70579274
 30
0.0
 11
-69.73334846
 21
36.85644252
 31
0.0
  0
LINE
  5
43E
100
AcDbEntity
  8
レイヤー_1
  6
CONTINUOUS
 62
       3
100
AcDbLine
 10
-69.73334846
 20
36.85644252
 30
0.0
 11
-69.82267444
 21
36.99844132
 31
0.0
  0
LINE
  5
43F
100
AcDbEntity
  8
レイヤー_1
  6
CONTINUOUS
 62
       3
100
AcDbLine
 10
-69.82267444
 20
36.99844132
 30
0.0
 11
-69.92467946
 21
37.13094114
 31
0.0
  0
LINE
  5
440
100
AcDbEntity
  8
レイヤー_1
  6
CONTINUOUS
 62
       3
100
AcDbLine
 10
-69.92467946
 20
37.13094114
 30
0.0
 11
-70.03851551
 21
37.25309396
 31
0.0
  0
LINE
  5
441
100
AcDbEntity
  8
レイヤー_1
  6
CONTINUOUS
 62
       3
100
AcDbLine
 10
-70.03851551
 20
37.25309396
 30
0.0
 11
-70.16333458
 21
37.36405175
 31
0.0
  0
LINE
  5
442
100
AcDbEntity
  8
レイヤー_1
  6
CONTINUOUS
 62
       3
100
AcDbLine
 10
-70.16333458
 20
37.36405175
 30
0.0
 11
-70.29828864
 21
37.46296651
 31
0.0
  0
LINE
  5
443
100
AcDbEntity
  8
レイヤー_1
  6
CONTINUOUS
 62
       3
100
AcDbLine
 10
-70.29828864
 20
37.46296651
 30
0.0
 11
-70.44252969
 21
37.54899023
 31
0.0
  0
LINE
  5
444
100
AcDbEntity
  8
レイヤー_1
  6
CONTINUOUS
 62
       3
100
AcDbLine
 10
-70.44252969
 20
37.54899023
 30
0.0
 11
-70.59520971
 21
37.62127487
 31
0.0
  0
LINE
  5
445
100
AcDbEntity
  8
レイヤー_1
  6
CONTINUOUS
 62
       3
100
AcDbLine
 10
-70.59520971
 20
37.62127487
 30
0.0
 11
-70.75548068
 21
37.67897244
 31
0.0
  0
LINE
  5
446
100
AcDbEntity
  8
レイヤー_1
  6
CONTINUOUS
 62
       3
100
AcDbLine
 10
-70.75548068
 20
37.67897244
 30
0.0
 11
-70.92249458
 21
37.72123492
 31
0.0
  0
LINE
  5
447
100
AcDbEntity
  8
レイヤー_1
  6
CONTINUOUS
 62
       3
100
AcDbLine
 10
-70.92249458
 20
37.72123492
 30
0.0
 11
-71.09540341
 21
37.74721428
 31
0.0
  0
LINE
  5
448
100
AcDbEntity
  8
レイヤー_1
  6
CONTINUOUS
 62
       3
100
AcDbLine
 10
-71.09540341
 20
37.74721428
 30
0.0
 11
-71.27335914
 21
37.75606251
 31
0.0
  0
LINE
  5
449
100
AcDbEntity
  8
レイヤー_1
  6
CONTINUOUS
 62
       3
100
AcDbLine
 10
81.70080151
 20
15.05450246
 30
0.0
 11
81.54122428
 21
15.05450246
 31
0.0
  0
LINE
  5
44A
100
AcDbEntity
  8
レイヤー_1
  6
CONTINUOUS
 62
       3
100
AcDbLine
 10
81.54122428
 20
15.05450246
 30
0.0
 11
81.4847585
 21
15.05450246
 31
0.0
  0
LINE
  5
44B
100
AcDbEntity
  8
レイヤー_1
  6
CONTINUOUS
 62
       3
100
AcDbLine
 10
2.54394671
 20
51.87905568
 30
0.0
 11
12.40514757
 21
51.87905568
 31
0.0
  0
LINE
  5
44C
100
AcDbEntity
  8
レイヤー_1
  6
CONTINUOUS
 62
       3
100
AcDbLine
 10
-27.15488994
 20
-32.12125437
 30
0.0
 11
-27.15488994
 21
29.87874563
 31
0.0
  0
LINE
  5
44D
100
AcDbEntity
  8
レイヤー_1
  6
CONTINUOUS
 62
       3
100
AcDbLine
 10
-27.15488994
 20
29.87874563
 30
0.0
 11
2.54394671
 21
51.87905568
 31
0.0
  0
LINE
  5
44E
100
AcDbEntity
  8
レイヤー_1
  6
CONTINUOUS
 62
       3
100
AcDbLine
 10
-27.15488994
 20
-32.12125437
 30
0.0
 11
2.49423295
 21
-54.12094432
 31
0.0
  0
LINE
  5
44F
100
AcDbEntity
  8
レイヤー_1
  6
CONTINUOUS
 62
       3
100
AcDbLine
 10
2.49423295
 20
-54.12094432
 30
0.0
 11
12.47111322
 21
-54.12094432
 31
0.0
  0
LINE
  5
450
100
AcDbEntity
  8
レイヤー_1
  6
CONTINUOUS
 62
       3
100
AcDbLine
 10
-80.2736692
 20
-54.12094432
 30
0.0
 11
-78.75414283
 21
-54.12094432
 31
0.0
  0
LINE
  5
451
100
AcDbEntity
  8
レイヤー_1
  6
CONTINUOUS
 62
       3
100
AcDbLine
 10
-80.2736692
 20
51.87905568
 30
0.0
 11
-78.75414283
 21
51.87905568
 31
0.0
  0
LINE
  5
452
100
AcDbEntity
  8
レイヤー_1
  6
CONTINUOUS
 62
       3
100
AcDbLine
 10
-80.2736692
 20
51.87905568
 30
0.0
 11
-80.2736692
 21
-54.12094432
 31
0.0
  0
LINE
  5
453
100
AcDbEntity
  8
レイヤー_1
  6
CONTINUOUS
 62
       3
100
AcDbLine
 10
-62.2736692
 20
51.87905568
 30
0.0
 11
-62.2736692
 21
-54.12094432
 31
0.0
  0
LINE
  5
454
100
AcDbEntity
  8
レイヤー_1
  6
CONTINUOUS
 62
       3
100
AcDbLine
 10
-63.75753883
 20
-54.12094432
 30
0.0
 11
-62.2736692
 21
-54.12094432
 31
0.0
  0
LINE
  5
455
100
AcDbEntity
  8
レイヤー_1
  6
CONTINUOUS
 62
       3
100
AcDbLine
 10
-63.75753883
 20
51.87905568
 30
0.0
 11
-62.2736692
 21
51.87905568
 31
0.0
  0
LINE
  5
456
100
AcDbEntity
  8
レイヤー_1
  6
CENTERX2
 62
       3
100
AcDbLine
 10
-30.28578347
 20
-1.12125437
 30
0.0
 11
83.96770771
 21
-1.12125437
 31
0.0
  0
LINE
  5
457
100
AcDbEntity
  8
レイヤー_1
  6
CENTERX2
 62
       3
100
AcDbLine
 10
-83.96770771
 20
-1.12094432
 30
0.0
 11
-60.10898411
 21
-1.12094432
 31
0.0
  0
LINE
  5
458
100
AcDbEntity
  8
レイヤー_1
  6
CENTERX2
 62
       3
100
AcDbLine
 10
-71.2736692
 20
56.49282414
 30
0.0
 11
-71.2736692
 21
-56.49282414
 31
0.0
  0
TEXT
  5
459
100
AcDbEntity
  8
0
 62
       7
100
AcDbText
 10
116.51538462
 20
-100.01312217
 30
0.0
 40
5.0
  1
000
 41
0.8
 72
       5
 11
128.51538462
 21
-100.01312217
 31
0.0
100
AcDbText
  0
ENDSEC
  0
SECTION
  2
OBJECTS
  0
DICTIONARY
  5
19
100
AcDbDictionary
  3
ACAD_GROUP
350
1A
  3
ACAD_MLINESTYLE
350
1B
  0
DICTIONARY
  5
1A
102
{ACAD_REACTORS
330
19
102
}
100
AcDbDictionary
  0
DICTIONARY
  5
1B
102
{ACAD_REACTORS
330
19
102
}
100
AcDbDictionary
  3
STANDARD
350
1C
  0
MLINESTYLE
  5
1C
102
{ACAD_REACTORS
330
1B
102
}
100
AcDbMlineStyle
  2
STANDARD
 70
       0
  3

 62
       0
 51
90.0
 52
90.0
 71
       2
 49
0.5
 62
     256
  6
BYLAYER
 49
-0.5
 62
     256
  6
BYLAYER
  0
ENDSEC
  0
EOF
