  0
SECTION
  2
HEADER
  9
$ACADVER
  1
AC1014
  9
$ACADMAINTVER
 70
       0
  9
$DWGCODEPAGE
  3
ANSI_932
  9
$INSBASE
 10
0.0
 20
0.0
 30
0.0
  9
$EXTMIN
 10
-89.2865775
 20
-104.01531101
 30
0.0
  9
$EXTMAX
 10
115.32441963
 20
62.16909699
 30
0.0
  9
$LIMMIN
 10
-95.68067116
 20
-109.20857376
  9
$LIMMAX
 10
121.71851329
 20
67.36235974
  9
$ORTHOMODE
 70
       0
  9
$REGENMODE
 70
       1
  9
$FILLMODE
 70
       1
  9
$QTEXTMODE
 70
       0
  9
$MIRRTEXT
 70
       1
  9
$DRAGMODE
 70
       2
  9
$LTSCALE
 40
1.0
  9
$OSMODE
 70
       0
  9
$ATTMODE
 70
       1
  9
$TEXTSIZE
 40
0.2
  9
$TRACEWID
 40
0.05
  9
$TEXTSTYLE
  7
STANDARD
  9
$CLAYER
  8
0
  9
$CELTYPE
  6
CONTINUOUS
  9
$CECOLOR
 62
     256
  9
$CELTSCALE
 40
1.0
  9
$DELOBJ
 70
       1
  9
$DISPSILH
 70
       0
  9
$DIMSCALE
 40
1.0
  9
$DIMASZ
 40
0.18
  9
$DIMEXO
 40
0.0625
  9
$DIMDLI
 40
0.38
  9
$DIMRND
 40
0.0
  9
$DIMDLE
 40
0.0
  9
$DIMEXE
 40
0.18
  9
$DIMTP
 40
0.0
  9
$DIMTM
 40
0.0
  9
$DIMTXT
 40
0.18
  9
$DIMCEN
 40
0.09
  9
$DIMTSZ
 40
0.0
  9
$DIMTOL
 70
       0
  9
$DIMLIM
 70
       0
  9
$DIMTIH
 70
       1
  9
$DIMTOH
 70
       1
  9
$DIMSE1
 70
       0
  9
$DIMSE2
 70
       0
  9
$DIMTAD
 70
       0
  9
$DIMZIN
 70
       0
  9
$DIMBLK
  1

  9
$DIMASO
 70
       1
  9
$DIMSHO
 70
       1
  9
$DIMPOST
  1

  9
$DIMAPOST
  1

  9
$DIMALT
 70
       0
  9
$DIMALTD
 70
       2
  9
$DIMALTF
 40
25.4
  9
$DIMLFAC
 40
1.0
  9
$DIMTOFL
 70
       0
  9
$DIMTVP
 40
0.0
  9
$DIMTIX
 70
       0
  9
$DIMSOXD
 70
       0
  9
$DIMSAH
 70
       0
  9
$DIMBLK1
  1

  9
$DIMBLK2
  1

  9
$DIMSTYLE
  2
STANDARD
  9
$DIMCLRD
 70
       0
  9
$DIMCLRE
 70
       0
  9
$DIMCLRT
 70
       0
  9
$DIMTFAC
 40
1.0
  9
$DIMGAP
 40
0.09
  9
$DIMJUST
 70
       0
  9
$DIMSD1
 70
       0
  9
$DIMSD2
 70
       0
  9
$DIMTOLJ
 70
       1
  9
$DIMTZIN
 70
       0
  9
$DIMALTZ
 70
       0
  9
$DIMALTTZ
 70
       0
  9
$DIMFIT
 70
       3
  9
$DIMUPT
 70
       0
  9
$DIMUNIT
 70
       2
  9
$DIMDEC
 70
       4
  9
$DIMTDEC
 70
       4
  9
$DIMALTU
 70
       2
  9
$DIMALTTD
 70
       2
  9
$DIMTXSTY
  7
STANDARD
  9
$DIMAUNIT
 70
       0
  9
$LUNITS
 70
       2
  9
$LUPREC
 70
       4
  9
$SKETCHINC
 40
0.1
  9
$FILLETRAD
 40
0.0
  9
$AUNITS
 70
       0
  9
$AUPREC
 70
       0
  9
$MENU
  1
acad
  9
$ELEVATION
 40
0.0
  9
$PELEVATION
 40
0.0
  9
$THICKNESS
 40
0.0
  9
$LIMCHECK
 70
       0
  9
$BLIPMODE
 70
       1
  9
$CHAMFERA
 40
0.0
  9
$CHAMFERB
 40
0.0
  9
$CHAMFERC
 40
0.0
  9
$CHAMFERD
 40
0.0
  9
$SKPOLY
 70
       0
  9
$TDCREATE
 40
0.000000000
  9
$TDUPDATE
 40
0.000000000
  9
$TDINDWG
 40
0.0000000000
  9
$TDUSRTIMER
 40
0.0000000000
  9
$USRTIMER
 70
       1
  9
$ANGBASE
 50
0.0
  9
$ANGDIR
 70
       0
  9
$PDMODE
 70
       0
  9
$PDSIZE
 40
1.0
  9
$PLINEWID
 40
0.0
  9
$COORDS
 70
       1
  9
$SPLFRAME
 70
       0
  9
$SPLINETYPE
 70
       6
  9
$SPLINESEGS
 70
       8
  9
$ATTDIA
 70
       0
  9
$ATTREQ
 70
       1
  9
$HANDLING
 70
       1
  9
$HANDSEED
  5
354
  9
$SURFTAB1
 70
       6
  9
$SURFTAB2
 70
       6
  9
$SURFTYPE
 70
       6
  9
$SURFU
 70
       6
  9
$SURFV
 70
       6
  9
$UCSNAME
  2

  9
$UCSORG
 10
0.0
 20
0.0
 30
0.0
  9
$UCSXDIR
 10
1.0
 20
0.0
 30
0.0
  9
$UCSYDIR
 10
0.0
 20
1.0
 30
0.0
  9
$PUCSNAME
  2

  9
$PUCSORG
 10
0.0
 20
0.0
 30
0.0
  9
$PUCSXDIR
 10
1.0
 20
0.0
 30
0.0
  9
$PUCSYDIR
 10
0.0
 20
1.0
 30
0.0
  9
$USERI1
 70
       0
  9
$USERI2
 70
       0
  9
$USERI3
 70
       0
  9
$USERI4
 70
       0
  9
$USERI5
 70
       0
  9
$USERR1
 40
0.0
  9
$USERR2
 40
0.0
  9
$USERR3
 40
0.0
  9
$USERR4
 40
0.0
  9
$USERR5
 40
0.0
  9
$WORLDVIEW
 70
       1
  9
$SHADEDGE
 70
       3
  9
$SHADEDIF
 70
      70
  9
$TILEMODE
 70
       1
  9
$MAXACTVP
 70
      16
  9
$PINSBASE
 10
0.0
 20
0.0
 30
0.0
  9
$PLIMCHECK
 70
       0
  9
$PEXTMIN
 10
1.00000000E+20
 20
1.00000000E+20
 30
1.00000000E+20
  9
$PEXTMAX
 10
-1.00000000E+20
 20
-1.00000000E+20
 30
-1.00000000E+20
  9
$PLIMMIN
 10
0.0
 20
0.0
  9
$PLIMMAX
 10
12.0
 20
9.0
  9
$UNITMODE
 70
       0
  9
$VISRETAIN
 70
       0
  9
$PLINEGEN
 70
       1
  9
$PSLTSCALE
 70
       0
  9
$TREEDEPTH
 70
    3020
  9
$PICKSTYLE
 70
       1
  9
$CMLSTYLE
  2
STANDARD
  9
$CMLJUST
 70
       0
  9
$CMLSCALE
 40
1.0
  9
$PROXYGRAPHICS
 70
       0
  9
$MEASUREMENT
 70
       0
  0
ENDSEC
  0
SECTION
  2
CLASSES
  0
CLASS
  1
LWPOLYLINE
  2
AcDbPolyline
  3
"AutoCAD"
 90
        0
280
       0
281
       1
  0
CLASS
  1
IMAGE
  2
AcDbRasterImage
  3
ISM
 90
      127
280
       0
281
       1
  0
CLASS
  1
OLE2FRAME
  2
AcDbOle2Frame
  3
""
 90
        0
280
       0
281
       1
  0
CLASS
  1
HATCH
  2
AcDbHatch
  3
"ACAD_SEDONA"
 90
        0
280
       0
281
       1
  0
CLASS
  1
DICTIONARYVAR
  2
AcDbDictionaryVar
  3
"AutoCAD"
 90
        0
280
       0
281
       0
  0
CLASS
  1
RASTERVARIABLES
  2
AcDbRasterVariables
  3
ISM
 90
        0
280
       0
281
       0
  0
CLASS
  1
IMAGEDEF
  2
AcDbRasterImageDef
  3
ISM
 90
        0
280
       0
281
       0
  0
CLASS
  1
IMAGEDEF_REACTOR
  2
AcDbRasterImageDefReactor
  3
ISM
 90
        1
280
       0
281
       0
  0
CLASS
  1
IDBUFFER
  2
AcDbIdBuffer
  3
"Acad"
 90
        0
280
       0
281
       0
  0
CLASS
  1
SPATIAL_FILTER
  2
AcDbSpatialFilter
  3
"Acad"
 90
        0
280
       0
281
       0
  0
CLASS
  1
XRECORD
  2
AcDbXrecord
  3
"<Built In>"
 90
        0
280
       0
281
       0
  0
CLASS
  1
SORTENTSTABLE
  2
AcDbSortentsTable
  3
"AutoCAD"
 90
        0
280
       0
281
       0
  0
CLASS
  1
LAYER_INDEX
  2
AcDbLayerIndex
  3
"Acad"
 90
        0
280
       0
281
       0
  0
CLASS
  1
SPATIAL_INDEX
  2
AcDbSpatialIndex
  3
"Acad"
 90
        0
280
       0
281
       0
  0
CLASS
  1
OBJECT_PTR
  2
CAseDLPNTableRecord
  3
"ASE-LPNTableRecord"
 90
        1
280
       0
281
       0
  0
CLASS
  1
LAYOUT
  2
AcDbLayout
  3
"AutoCAD 2000"
 90
        1
280
       0
281
       0
  0
CLASS
  1
PLOTSETTINGS
  2
AcDbPlotSettings
  3
"AutoCAD 2000"
 90
        1
280
       0
281
       0
  0
CLASS
  1
ACDBDICTIONARYWDFLT
  2
AcDbDictionaryWithDefault
  3
"AutoCAD 2000"
 90
        1
280
       0
281
       0
  0
CLASS
  1
ACDBPLACEHOLDER
  2
AcDbPlaceHolder
  3
"AutoCAD 2000"
 90
        1
280
       0
281
       0
  0
CLASS
  1
VBA_PROJECT
  2
AcDbVbaProject
  3
"acadvba"
 90
        1
280
       0
281
       0
  0
CLASS
  1
WIPEOUT
  2
AcDbWipeout
  3
WipeOut|AutoCAD Express Tool|expresstools@autodesk.com
 90
      127
280
       0
281
       1
  0
CLASS
  1
WIPEOUTVARIABLES
  2
AcDbWipeoutVariables
  3
WipeOut|AutoCAD Express Tool|expresstools@autodesk.com
 90
        0
280
       0
281
       0
  0
CLASS
  1
RTEXT
  2
RText
  3
RText|AutoCAD Express Tool|expresstools@autodesk.com
 90
        0
280
       0
281
       1
  0
CLASS
  1
ARCALIGNEDTEXT
  2
AcDbArcAlignedText
  3
ATEXT|AutoCAD Express Tool|expresstools@autodesk.com
 90
        0
280
       0
281
       1
  0
ENDSEC
  0
SECTION
  2
TABLES
  0
TABLE
  2
VPORT
  5
7
100
AcDbSymbolTable
 70
       1
  0
VPORT
  5
15
100
AcDbSymbolTableRecord
100
AcDbViewportTableRecord
  2
*ACTIVE
 70
       0
 10
0.0
 20
0.0
 11
1.0
 21
1.0
 12
13.01892107
 22
-20.92310701
 13
0.0
 23
0.0
 14
1.0
 24
1.0
 15
0.0
 25
0.0
 16
0.0
 26
0.0
 36
1.0
 17
0.0
 27
0.0
 37
0.0
 40
176.5709335
 41
1.23122861
 42
50.0
 43
0.0
 44
0.0
 50
0.0
 51
0.0
 71
       0
 72
     100
 73
       1
 74
       1
 75
       0
 76
       0
 77
       0
 78
       0
  0
ENDTAB
  0
TABLE
  2
LTYPE
  5
4
100
AcDbSymbolTable
 70
      30
  0
LTYPE
  5
11
100
AcDbSymbolTableRecord
100
AcDbLinetypeTableRecord
  2
BYBLOCK
 70
      64
  3

 72
      65
 73
       0
 40
0.0
  0
LTYPE
  5
12
100
AcDbSymbolTableRecord
100
AcDbLinetypeTableRecord
  2
BYLAYER
 70
      64
  3

 72
      65
 73
       0
 40
0.0
  0
LTYPE
  5
13
100
AcDbSymbolTableRecord
100
AcDbLinetypeTableRecord
  2
CONTINUOUS
 70
      64
  3
Solid line
 72
      65
 73
       0
 40
0.0
  0
LTYPE
  5
1D
100
AcDbSymbolTableRecord
100
AcDbLinetypeTableRecord
  2
HIDDENX2
 70
      64
  3
CADPAC LINETYPE
 72
      65
 73
       2
 40
11.88
 49
8.91
 74
       0
 49
-2.97
 74
       0
  0
LTYPE
  5
1E
100
AcDbSymbolTableRecord
100
AcDbLinetypeTableRecord
  2
HIDDEN
 70
      64
  3
CADPAC LINETYPE
 72
      65
 73
       2
 40
8.91
 49
5.94
 74
       0
 49
-2.97
 74
       0
  0
LTYPE
  5
1F
100
AcDbSymbolTableRecord
100
AcDbLinetypeTableRecord
  2
HIDDEN2
 70
      64
  3
CADPAC LINETYPE
 72
      65
 73
       2
 40
7.425
 49
4.455
 74
       0
 49
-2.97
 74
       0
  0
LTYPE
  5
20
100
AcDbSymbolTableRecord
100
AcDbLinetypeTableRecord
  2
DASHED
 70
      64
  3
CADPAC LINETYPE
 72
      65
 73
       2
 40
8.91
 49
5.94
 74
       0
 49
-2.97
 74
       0
  0
LTYPE
  5
21
100
AcDbSymbolTableRecord
100
AcDbLinetypeTableRecord
  2
DASHED2
 70
      64
  3
CADPAC LINETYPE
 72
      65
 73
       2
 40
6.6825
 49
4.455
 74
       0
 49
-2.2275
 74
       0
  0
LTYPE
  5
22
100
AcDbSymbolTableRecord
100
AcDbLinetypeTableRecord
  2
DASHEDX2
 70
      64
  3
CADPAC LINETYPE
 72
      65
 73
       2
 40
13.365
 49
8.91
 74
       0
 49
-4.455
 74
       0
  0
LTYPE
  5
23
100
AcDbSymbolTableRecord
100
AcDbLinetypeTableRecord
  2
DOTX2
 70
      64
  3
CADPAC LINETYPE
 72
      65
 73
       2
 40
3.7125
 49
0.0
 74
       0
 49
-3.7125
 74
       0
  0
LTYPE
  5
24
100
AcDbSymbolTableRecord
100
AcDbLinetypeTableRecord
  2
DOT
 70
      64
  3
CADPAC LINETYPE
 72
      65
 73
       2
 40
2.97
 49
0.0
 74
       0
 49
-2.97
 74
       0
  0
LTYPE
  5
25
100
AcDbSymbolTableRecord
100
AcDbLinetypeTableRecord
  2
DOT2
 70
      64
  3
CADPAC LINETYPE
 72
      65
 73
       2
 40
2.2275
 49
0.0
 74
       0
 49
-2.2275
 74
       0
  0
LTYPE
  5
26
100
AcDbSymbolTableRecord
100
AcDbLinetypeTableRecord
  2
CENTERX2
 70
      64
  3
CADPAC LINETYPE
 72
      65
 73
       4
 40
17.82
 49
7.425
 74
       0
 49
-3.7125
 74
       0
 49
2.97
 74
       0
 49
-3.7125
 74
       0
  0
LTYPE
  5
27
100
AcDbSymbolTableRecord
100
AcDbLinetypeTableRecord
  2
CENTER
 70
      64
  3
CADPAC LINETYPE
 72
      65
 73
       4
 40
13.662
 49
5.94
 74
       0
 49
-2.97
 74
       0
 49
1.782
 74
       0
 49
-2.97
 74
       0
  0
LTYPE
  5
28
100
AcDbSymbolTableRecord
100
AcDbLinetypeTableRecord
  2
CENTER2
 70
      64
  3
CADPAC LINETYPE
 72
      65
 73
       4
 40
9.504
 49
4.455
 74
       0
 49
-2.2275
 74
       0
 49
0.594
 74
       0
 49
-2.2275
 74
       0
  0
LTYPE
  5
29
100
AcDbSymbolTableRecord
100
AcDbLinetypeTableRecord
  2
DASHDOTX2
 70
      64
  3
CADPAC LINETYPE
 72
      65
 73
       4
 40
14.85
 49
7.425
 74
       0
 49
-3.7125
 74
       0
 49
0.0
 74
       0
 49
-3.7125
 74
       0
  0
LTYPE
  5
2A
100
AcDbSymbolTableRecord
100
AcDbLinetypeTableRecord
  2
DASHDOT
 70
      64
  3
CADPAC LINETYPE
 72
      65
 73
       4
 40
11.88
 49
5.94
 74
       0
 49
-2.97
 74
       0
 49
0.0
 74
       0
 49
-2.97
 74
       0
  0
LTYPE
  5
2B
100
AcDbSymbolTableRecord
100
AcDbLinetypeTableRecord
  2
DASHDOT2
 70
      64
  3
CADPAC LINETYPE
 72
      65
 73
       4
 40
8.91
 49
4.455
 74
       0
 49
-2.2275
 74
       0
 49
0.0
 74
       0
 49
-2.2275
 74
       0
  0
LTYPE
  5
2C
100
AcDbSymbolTableRecord
100
AcDbLinetypeTableRecord
  2
DIVIDEX2
 70
      64
  3
CADPAC LINETYPE
 72
      65
 73
       6
 40
18.5625
 49
7.425
 74
       0
 49
-3.7125
 74
       0
 49
0.0
 74
       0
 49
-3.7125
 74
       0
 49
0.0
 74
       0
 49
-3.7125
 74
       0
  0
LTYPE
  5
2D
100
AcDbSymbolTableRecord
100
AcDbLinetypeTableRecord
  2
DIVIDE
 70
      64
  3
CADPAC LINETYPE
 72
      65
 73
       6
 40
14.85
 49
5.94
 74
       0
 49
-2.97
 74
       0
 49
0.0
 74
       0
 49
-2.97
 74
       0
 49
0.0
 74
       0
 49
-2.97
 74
       0
  0
LTYPE
  5
2E
100
AcDbSymbolTableRecord
100
AcDbLinetypeTableRecord
  2
DIVIDE2
 70
      64
  3
CADPAC LINETYPE
 72
      65
 73
       6
 40
11.1375
 49
4.455
 74
       0
 49
-2.2275
 74
       0
 49
0.0
 74
       0
 49
-2.2275
 74
       0
 49
0.0
 74
       0
 49
-2.2275
 74
       0
  0
LTYPE
  5
2F
100
AcDbSymbolTableRecord
100
AcDbLinetypeTableRecord
  2
BORDERX2
 70
      64
  3
CADPAC LINETYPE
 72
      65
 73
       6
 40
25.9875
 49
7.425
 74
       0
 49
-3.7125
 74
       0
 49
7.425
 74
       0
 49
-3.7125
 74
       0
 49
0.0
 74
       0
 49
-3.7125
 74
       0
  0
LTYPE
  5
30
100
AcDbSymbolTableRecord
100
AcDbLinetypeTableRecord
  2
BORDER
 70
      64
  3
CADPAC LINETYPE
 72
      65
 73
       6
 40
20.79
 49
5.94
 74
       0
 49
-2.97
 74
       0
 49
5.94
 74
       0
 49
-2.97
 74
       0
 49
0.0
 74
       0
 49
-2.97
 74
       0
  0
LTYPE
  5
31
100
AcDbSymbolTableRecord
100
AcDbLinetypeTableRecord
  2
BORDER2
 70
      64
  3
CADPAC LINETYPE
 72
      65
 73
       6
 40
15.5925
 49
4.455
 74
       0
 49
-2.2275
 74
       0
 49
4.455
 74
       0
 49
-2.2275
 74
       0
 49
0.0
 74
       0
 49
-2.2275
 74
       0
  0
LTYPE
  5
32
100
AcDbSymbolTableRecord
100
AcDbLinetypeTableRecord
  2
PHANTOMX2
 70
      64
  3
CADPAC LINETYPE
 72
      65
 73
       6
 40
22.275
 49
7.425
 74
       0
 49
-2.97
 74
       0
 49
2.97
 74
       0
 49
-2.97
 74
       0
 49
2.97
 74
       0
 49
-2.97
 74
       0
  0
LTYPE
  5
33
100
AcDbSymbolTableRecord
100
AcDbLinetypeTableRecord
  2
PHANTOM
 70
      64
  3
CADPAC LINETYPE
 72
      65
 73
       6
 40
18.414
 49
5.94
 74
       0
 49
-2.97
 74
       0
 49
1.782
 74
       0
 49
-2.97
 74
       0
 49
1.782
 74
       0
 49
-2.97
 74
       0
  0
LTYPE
  5
34
100
AcDbSymbolTableRecord
100
AcDbLinetypeTableRecord
  2
PHANTOM2
 70
      64
  3
CADPAC LINETYPE
 72
      65
 73
       6
 40
15.741
 49
4.455
 74
       0
 49
-2.97
 74
       0
 49
1.188
 74
       0
 49
-2.97
 74
       0
 49
1.188
 74
       0
 49
-2.97
 74
       0
  0
LTYPE
  5
35
100
AcDbSymbolTableRecord
100
AcDbLinetypeTableRecord
  2
ACAD_ISO06W100
 70
      64
  3
CADPAC LINETYPE
 72
      65
 73
       8
 40
20.0475
 49
7.425
 74
       0
 49
-3.7125
 74
       0
 49
0.0
 74
       0
 49
-2.97
 74
       0
 49
0.0
 74
       0
 49
-2.97
 74
       0
 49
0.0
 74
       0
 49
-2.97
 74
       0
  0
LTYPE
  5
36
100
AcDbSymbolTableRecord
100
AcDbLinetypeTableRecord
  2
ACAD_ISO13W100
 70
      64
  3
CADPAC LINETYPE
 72
      65
 73
       8
 40
23.76
 49
5.94
 74
       0
 49
-2.97
 74
       0
 49
5.94
 74
       0
 49
-2.97
 74
       0
 49
0.0
 74
       0
 49
-2.97
 74
       0
 49
0.0
 74
       0
 49
-2.97
 74
       0
  0
LTYPE
  5
37
100
AcDbSymbolTableRecord
100
AcDbLinetypeTableRecord
  2
ACAD_ISO14W100
 70
      64
  3
CADPAC LINETYPE
 72
      65
 73
       8
 40
17.82
 49
5.94
 74
       0
 49
-2.97
 74
       0
 49
0.0
 74
       0
 49
-2.97
 74
       0
 49
0.0
 74
       0
 49
-2.97
 74
       0
 49
0.0
 74
       0
 49
-2.97
 74
       0
  0
ENDTAB
  0
TABLE
  2
LAYER
  5
2
100
AcDbSymbolTable
 70
       2
  0
LAYER
  5
14
100
AcDbSymbolTableRecord
100
AcDbLayerTableRecord
  2
0
 70
       0
 62
       7
  6
CONTINUOUS
  0
LAYER
  5
38
100
AcDbSymbolTableRecord
100
AcDbLayerTableRecord
  2
レイヤー_1
 70
       0
 62
       7
  6
CONTINUOUS
  0
ENDTAB
  0
TABLE
  2
STYLE
  5
3
100
AcDbSymbolTable
 70
       1
  0
STYLE
  5
17
100
AcDbSymbolTableRecord
100
AcDbTextStyleTableRecord
  2
STANDARD
 70
       0
 40
0.0
 41
0.8
 50
0.0
 71
       0
 42
5.0
  3
txt.shx
  4
bigfont.shx
  0
ENDTAB
  0
TABLE
  2
VIEW
  5
5
100
AcDbSymbolTable
 70
       1
  0
VIEW
  5
39
100
AcDbSymbolTableRecord
100
AcDbViewTableRecord
  2
QQQQ
 70
       0
 40
176.5709335
 10
13.01892107
 20
-20.92310701
 41
217.39918445
 11
0.0
 21
0.0
 31
1.0
 12
100.0
 22
100.0
 32
0.0
 42
50.0
 43
0.0
 44
0.0
 50
0.0
 71
       0
  0
ENDTAB
  0
TABLE
  2
UCS
  5
6
100
AcDbSymbolTable
 70
       0
  0
ENDTAB
  0
TABLE
  2
APPID
  5
8
100
AcDbSymbolTable
 70
       1
  0
APPID
  5
16
100
AcDbSymbolTableRecord
100
AcDbRegAppTableRecord
  2
ACAD
 70
       0
  0
ENDTAB
  0
TABLE
  2
DIMSTYLE
  5
9
100
AcDbSymbolTable
 70
       1
  0
DIMSTYLE
105
18
100
AcDbSymbolTableRecord
100
AcDbDimStyleTableRecord
  2
STANDARD
 70
       0
  3

  4

  5

  6

  7

 40
1.0
 41
0.18
 42
0.0625
 43
0.38
 44
0.18
 45
0.0
 46
0.0
 47
0.0
 48
0.0
 71
       0
 72
       0
 73
       1
 74
       1
 75
       0
 76
       0
 77
       0
 78
       0
140
0.18
141
0.09
142
0.0
143
25.4
144
1.0
145
0.0
146
1.0
147
0.09
170
       0
171
       2
172
       0
173
       0
174
       0
175
       0
176
       0
177
       0
178
       0
270
       2
271
       4
272
       4
273
       2
274
       2
275
       0
280
       0
281
       0
282
       0
283
       1
284
       0
285
       0
286
       0
287
       0
288
       0
340
17
  0
ENDTAB
  0
TABLE
  2
BLOCK_RECORD
  5
1
100
AcDbSymbolTable
 70
       0
  0
BLOCK_RECORD
  5
A
100
AcDbSymbolTableRecord
100
AcDbBlockTableRecord
  2
*MODEL_SPACE
  0
BLOCK_RECORD
  5
B
100
AcDbSymbolTableRecord
100
AcDbBlockTableRecord
  2
*PAPER_SPACE
  0
ENDTAB
  0
ENDSEC
  0
SECTION
  2
BLOCKS
  0
BLOCK
  5
D
100
AcDbEntity
  8
0
100
AcDbBlockBegin
  2
*MODEL_SPACE
 70
       0
 10
0.0
 20
0.0
 30
0.0
  3
*MODEL_SPACE
  1

  0
ENDBLK
  5
E
100
AcDbEntity
  8
0
100
AcDbBlockEnd
  0
BLOCK
  5
F
100
AcDbEntity
 67
       1
  8
0
100
AcDbBlockBegin
  2
*PAPER_SPACE
 70
       0
 10
0.0
 20
0.0
 30
0.0
  3
*PAPER_SPACE
  1

  0
ENDBLK
  5
10
100
AcDbEntity
 67
       1
  8
0
100
AcDbBlockEnd
  0
ENDSEC
  0
SECTION
  2
ENTITIES
  0
LINE
  5
3A
100
AcDbEntity
  8
レイヤー_1
  6
CONTINUOUS
 62
       3
100
AcDbLine
 10
17.17530037
 20
0.39455548
 30
0.0
 11
17.15857931
 21
0.39648176
 31
0.0
  0
LINE
  5
3B
100
AcDbEntity
  8
レイヤー_1
  6
CONTINUOUS
 62
       3
100
AcDbLine
 10
17.15857931
 20
0.39648176
 30
0.0
 11
17.11132414
 21
0.40249528
 31
0.0
  0
LINE
  5
3C
100
AcDbEntity
  8
レイヤー_1
  6
CONTINUOUS
 62
       3
100
AcDbLine
 10
17.11132414
 20
0.40249528
 30
0.0
 11
17.03789688
 21
0.41294802
 31
0.0
  0
LINE
  5
3D
100
AcDbEntity
  8
レイヤー_1
  6
CONTINUOUS
 62
       3
100
AcDbLine
 10
17.03789688
 20
0.41294802
 30
0.0
 11
16.94265953
 21
0.42819199
 31
0.0
  0
LINE
  5
3E
100
AcDbEntity
  8
レイヤー_1
  6
CONTINUOUS
 62
       3
100
AcDbLine
 10
16.94265953
 20
0.42819199
 30
0.0
 11
16.82997413
 21
0.44857918
 31
0.0
  0
LINE
  5
3F
100
AcDbEntity
  8
レイヤー_1
  6
CONTINUOUS
 62
       3
100
AcDbLine
 10
16.82997413
 20
0.44857918
 30
0.0
 11
16.70420267
 21
0.47446157
 31
0.0
  0
LINE
  5
40
100
AcDbEntity
  8
レイヤー_1
  6
CONTINUOUS
 62
       3
100
AcDbLine
 10
16.70420267
 20
0.47446157
 30
0.0
 11
16.56970719
 21
0.50619118
 31
0.0
  0
LINE
  5
41
100
AcDbEntity
  8
レイヤー_1
  6
CONTINUOUS
 62
       3
100
AcDbLine
 10
16.56970719
 20
0.50619118
 30
0.0
 11
16.43084969
 21
0.54411999
 31
0.0
  0
LINE
  5
42
100
AcDbEntity
  8
レイヤー_1
  6
CONTINUOUS
 62
       3
100
AcDbLine
 10
16.43084969
 20
0.54411999
 30
0.0
 11
16.29199219
 21
0.5886
 31
0.0
  0
LINE
  5
43
100
AcDbEntity
  8
レイヤー_1
  6
CONTINUOUS
 62
       3
100
AcDbLine
 10
16.29199219
 20
0.5886
 30
0.0
 11
16.1574967
 21
0.63998321
 31
0.0
  0
LINE
  5
44
100
AcDbEntity
  8
レイヤー_1
  6
CONTINUOUS
 62
       3
100
AcDbLine
 10
16.1574967
 20
0.63998321
 30
0.0
 11
16.03172525
 21
0.6986216
 31
0.0
  0
LINE
  5
45
100
AcDbEntity
  8
レイヤー_1
  6
CONTINUOUS
 62
       3
100
AcDbLine
 10
16.03172525
 20
0.6986216
 30
0.0
 11
15.91903984
 21
0.76486718
 31
0.0
  0
LINE
  5
46
100
AcDbEntity
  8
レイヤー_1
  6
CONTINUOUS
 62
       3
100
AcDbLine
 10
15.91903984
 20
0.76486718
 30
0.0
 11
15.8238025
 21
0.83907193
 31
0.0
  0
LINE
  5
47
100
AcDbEntity
  8
レイヤー_1
  6
CONTINUOUS
 62
       3
100
AcDbLine
 10
15.8238025
 20
0.83907193
 30
0.0
 11
15.75037524
 21
0.92158787
 31
0.0
  0
LINE
  5
48
100
AcDbEntity
  8
レイヤー_1
  6
CONTINUOUS
 62
       3
100
AcDbLine
 10
15.75037524
 20
0.92158787
 30
0.0
 11
15.70312007
 21
1.01276697
 31
0.0
  0
LINE
  5
49
100
AcDbEntity
  8
レイヤー_1
  6
CONTINUOUS
 62
       3
100
AcDbLine
 10
15.70312007
 20
1.01276697
 30
0.0
 11
15.686399
 21
1.11296124
 31
0.0
  0
LINE
  5
4A
100
AcDbEntity
  8
レイヤー_1
  6
CONTINUOUS
 62
       3
100
AcDbLine
 10
15.686399
 20
1.11296124
 30
0.0
 11
15.70312007
 21
1.2135907
 31
0.0
  0
LINE
  5
4B
100
AcDbEntity
  8
レイヤー_1
  6
CONTINUOUS
 62
       3
100
AcDbLine
 10
15.70312007
 20
1.2135907
 30
0.0
 11
15.75037524
 21
1.30631911
 31
0.0
  0
LINE
  5
4C
100
AcDbEntity
  8
レイヤー_1
  6
CONTINUOUS
 62
       3
100
AcDbLine
 10
15.75037524
 20
1.30631911
 30
0.0
 11
15.8238025
 21
1.39134087
 31
0.0
  0
LINE
  5
4D
100
AcDbEntity
  8
レイヤー_1
  6
CONTINUOUS
 62
       3
100
AcDbLine
 10
15.8238025
 20
1.39134087
 30
0.0
 11
15.91903984
 21
1.46885037
 31
0.0
  0
LINE
  5
4E
100
AcDbEntity
  8
レイヤー_1
  6
CONTINUOUS
 62
       3
100
AcDbLine
 10
15.91903984
 20
1.46885037
 30
0.0
 11
16.03172525
 21
1.539042
 31
0.0
  0
LINE
  5
4F
100
AcDbEntity
  8
レイヤー_1
  6
CONTINUOUS
 62
       3
100
AcDbLine
 10
16.03172525
 20
1.539042
 30
0.0
 11
16.1574967
 21
1.60211016
 31
0.0
  0
LINE
  5
50
100
AcDbEntity
  8
レイヤー_1
  6
CONTINUOUS
 62
       3
100
AcDbLine
 10
16.1574967
 20
1.60211016
 30
0.0
 11
16.29199219
 21
1.65824924
 31
0.0
  0
LINE
  5
51
100
AcDbEntity
  8
レイヤー_1
  6
CONTINUOUS
 62
       3
100
AcDbLine
 10
16.29199219
 20
1.65824924
 30
0.0
 11
16.43084969
 21
1.70765362
 31
0.0
  0
LINE
  5
52
100
AcDbEntity
  8
レイヤー_1
  6
CONTINUOUS
 62
       3
100
AcDbLine
 10
16.43084969
 20
1.70765362
 30
0.0
 11
16.56970719
 21
1.75051771
 31
0.0
  0
LINE
  5
53
100
AcDbEntity
  8
レイヤー_1
  6
CONTINUOUS
 62
       3
100
AcDbLine
 10
16.56970719
 20
1.75051771
 30
0.0
 11
16.70420267
 21
1.78703589
 31
0.0
  0
LINE
  5
54
100
AcDbEntity
  8
レイヤー_1
  6
CONTINUOUS
 62
       3
100
AcDbLine
 10
16.70420267
 20
1.78703589
 30
0.0
 11
16.82997413
 21
1.81740256
 31
0.0
  0
LINE
  5
55
100
AcDbEntity
  8
レイヤー_1
  6
CONTINUOUS
 62
       3
100
AcDbLine
 10
16.82997413
 20
1.81740256
 30
0.0
 11
16.94265953
 21
1.8418121
 31
0.0
  0
LINE
  5
56
100
AcDbEntity
  8
レイヤー_1
  6
CONTINUOUS
 62
       3
100
AcDbLine
 10
16.94265953
 20
1.8418121
 30
0.0
 11
17.03789688
 21
1.86045891
 31
0.0
  0
LINE
  5
57
100
AcDbEntity
  8
レイヤー_1
  6
CONTINUOUS
 62
       3
100
AcDbLine
 10
17.03789688
 20
1.86045891
 30
0.0
 11
17.11132414
 21
1.87353739
 31
0.0
  0
LINE
  5
58
100
AcDbEntity
  8
レイヤー_1
  6
CONTINUOUS
 62
       3
100
AcDbLine
 10
17.11132414
 20
1.87353739
 30
0.0
 11
17.15857931
 21
1.88124192
 31
0.0
  0
LINE
  5
59
100
AcDbEntity
  8
レイヤー_1
  6
CONTINUOUS
 62
       3
100
AcDbLine
 10
17.15857931
 20
1.88124192
 30
0.0
 11
17.17530037
 21
1.8837669
 31
0.0
  0
LINE
  5
5A
100
AcDbEntity
  8
レイヤー_1
  6
CONTINUOUS
 62
       3
100
AcDbLine
 10
17.17530037
 20
1.8837669
 30
0.0
 11
17.82988705
 21
1.8837669
 31
0.0
  0
LINE
  5
5B
100
AcDbEntity
  8
レイヤー_1
  6
CONTINUOUS
 62
       3
100
AcDbLine
 10
17.82988705
 20
1.8837669
 30
0.0
 11
19.67980593
 21
1.8837669
 31
0.0
  0
LINE
  5
5C
100
AcDbEntity
  8
レイヤー_1
  6
CONTINUOUS
 62
       3
100
AcDbLine
 10
19.67980593
 20
1.8837669
 30
0.0
 11
22.55429526
 21
1.8837669
 31
0.0
  0
LINE
  5
5D
100
AcDbEntity
  8
レイヤー_1
  6
CONTINUOUS
 62
       3
100
AcDbLine
 10
22.55429526
 20
1.8837669
 30
0.0
 11
26.28259331
 21
1.8837669
 31
0.0
  0
LINE
  5
5E
100
AcDbEntity
  8
レイヤー_1
  6
CONTINUOUS
 62
       3
100
AcDbLine
 10
26.28259331
 20
1.8837669
 30
0.0
 11
30.69393832
 21
1.8837669
 31
0.0
  0
LINE
  5
5F
100
AcDbEntity
  8
レイヤー_1
  6
CONTINUOUS
 62
       3
100
AcDbLine
 10
30.69393832
 20
1.8837669
 30
0.0
 11
35.61756857
 21
1.8837669
 31
0.0
  0
LINE
  5
60
100
AcDbEntity
  8
レイヤー_1
  6
CONTINUOUS
 62
       3
100
AcDbLine
 10
35.61756857
 20
1.8837669
 30
0.0
 11
40.8827223
 21
1.8837669
 31
0.0
  0
LINE
  5
61
100
AcDbEntity
  8
レイヤー_1
  6
CONTINUOUS
 62
       3
100
AcDbLine
 10
40.8827223
 20
1.8837669
 30
0.0
 11
46.31863777
 21
1.8837669
 31
0.0
  0
LINE
  5
62
100
AcDbEntity
  8
レイヤー_1
  6
CONTINUOUS
 62
       3
100
AcDbLine
 10
46.31863777
 20
1.8837669
 30
0.0
 11
51.75455324
 21
1.8837669
 31
0.0
  0
LINE
  5
63
100
AcDbEntity
  8
レイヤー_1
  6
CONTINUOUS
 62
       3
100
AcDbLine
 10
51.75455324
 20
1.8837669
 30
0.0
 11
57.01970697
 21
1.8837669
 31
0.0
  0
LINE
  5
64
100
AcDbEntity
  8
レイヤー_1
  6
CONTINUOUS
 62
       3
100
AcDbLine
 10
57.01970697
 20
1.8837669
 30
0.0
 11
61.94333721
 21
1.8837669
 31
0.0
  0
LINE
  5
65
100
AcDbEntity
  8
レイヤー_1
  6
CONTINUOUS
 62
       3
100
AcDbLine
 10
61.94333721
 20
1.8837669
 30
0.0
 11
66.35468223
 21
1.8837669
 31
0.0
  0
LINE
  5
66
100
AcDbEntity
  8
レイヤー_1
  6
CONTINUOUS
 62
       3
100
AcDbLine
 10
66.35468223
 20
1.8837669
 30
0.0
 11
70.08298027
 21
1.8837669
 31
0.0
  0
LINE
  5
67
100
AcDbEntity
  8
レイヤー_1
  6
CONTINUOUS
 62
       3
100
AcDbLine
 10
70.08298027
 20
1.8837669
 30
0.0
 11
72.9574696
 21
1.8837669
 31
0.0
  0
LINE
  5
68
100
AcDbEntity
  8
レイヤー_1
  6
CONTINUOUS
 62
       3
100
AcDbLine
 10
72.9574696
 20
1.8837669
 30
0.0
 11
74.80738848
 21
1.8837669
 31
0.0
  0
LINE
  5
69
100
AcDbEntity
  8
レイヤー_1
  6
CONTINUOUS
 62
       3
100
AcDbLine
 10
74.80738848
 20
1.8837669
 30
0.0
 11
75.46197516
 21
1.8837669
 31
0.0
  0
LINE
  5
6A
100
AcDbEntity
  8
レイヤー_1
  6
CONTINUOUS
 62
       3
100
AcDbLine
 10
75.46197516
 20
1.8837669
 30
0.0
 11
75.46197516
 21
1.86704236
 31
0.0
  0
LINE
  5
6B
100
AcDbEntity
  8
レイヤー_1
  6
CONTINUOUS
 62
       3
100
AcDbLine
 10
75.46197516
 20
1.86704236
 30
0.0
 11
75.46197516
 21
1.81977735
 31
0.0
  0
LINE
  5
6C
100
AcDbEntity
  8
レイヤー_1
  6
CONTINUOUS
 62
       3
100
AcDbLine
 10
75.46197516
 20
1.81977735
 30
0.0
 11
75.46197516
 21
1.74633479
 31
0.0
  0
LINE
  5
6D
100
AcDbEntity
  8
レイヤー_1
  6
CONTINUOUS
 62
       3
100
AcDbLine
 10
75.46197516
 20
1.74633479
 30
0.0
 11
75.46197516
 21
1.65107762
 31
0.0
  0
LINE
  5
6E
100
AcDbEntity
  8
レイヤー_1
  6
CONTINUOUS
 62
       3
100
AcDbLine
 10
75.46197516
 20
1.65107762
 30
0.0
 11
75.46197516
 21
1.53836875
 31
0.0
  0
LINE
  5
6F
100
AcDbEntity
  8
レイヤー_1
  6
CONTINUOUS
 62
       3
100
AcDbLine
 10
75.46197516
 20
1.53836875
 30
0.0
 11
75.46197516
 21
1.4125711
 31
0.0
  0
LINE
  5
70
100
AcDbEntity
  8
レイヤー_1
  6
CONTINUOUS
 62
       3
100
AcDbLine
 10
75.46197516
 20
1.4125711
 30
0.0
 11
75.46197516
 21
1.27804761
 31
0.0
  0
LINE
  5
71
100
AcDbEntity
  8
レイヤー_1
  6
CONTINUOUS
 62
       3
100
AcDbLine
 10
75.46197516
 20
1.27804761
 30
0.0
 11
75.46197516
 21
1.13916119
 31
0.0
  0
LINE
  5
72
100
AcDbEntity
  8
レイヤー_1
  6
CONTINUOUS
 62
       3
100
AcDbLine
 10
75.46197516
 20
1.13916119
 30
0.0
 11
75.46197516
 21
1.00027477
 31
0.0
  0
LINE
  5
73
100
AcDbEntity
  8
レイヤー_1
  6
CONTINUOUS
 62
       3
100
AcDbLine
 10
75.46197516
 20
1.00027477
 30
0.0
 11
75.46197516
 21
0.86575128
 31
0.0
  0
LINE
  5
74
100
AcDbEntity
  8
レイヤー_1
  6
CONTINUOUS
 62
       3
100
AcDbLine
 10
75.46197516
 20
0.86575128
 30
0.0
 11
75.46197516
 21
0.73995364
 31
0.0
  0
LINE
  5
75
100
AcDbEntity
  8
レイヤー_1
  6
CONTINUOUS
 62
       3
100
AcDbLine
 10
75.46197516
 20
0.73995364
 30
0.0
 11
75.46197516
 21
0.62724476
 31
0.0
  0
LINE
  5
76
100
AcDbEntity
  8
レイヤー_1
  6
CONTINUOUS
 62
       3
100
AcDbLine
 10
75.46197516
 20
0.62724476
 30
0.0
 11
75.46197516
 21
0.53198759
 31
0.0
  0
LINE
  5
77
100
AcDbEntity
  8
レイヤー_1
  6
CONTINUOUS
 62
       3
100
AcDbLine
 10
75.46197516
 20
0.53198759
 30
0.0
 11
75.46197516
 21
0.45854503
 31
0.0
  0
LINE
  5
78
100
AcDbEntity
  8
レイヤー_1
  6
CONTINUOUS
 62
       3
100
AcDbLine
 10
75.46197516
 20
0.45854503
 30
0.0
 11
75.46197516
 21
0.41128002
 31
0.0
  0
LINE
  5
79
100
AcDbEntity
  8
レイヤー_1
  6
CONTINUOUS
 62
       3
100
AcDbLine
 10
75.46197516
 20
0.41128002
 30
0.0
 11
75.46197516
 21
0.39455548
 31
0.0
  0
LINE
  5
7A
100
AcDbEntity
  8
レイヤー_1
  6
CONTINUOUS
 62
       3
100
AcDbLine
 10
75.46197516
 20
0.39455548
 30
0.0
 11
74.80738848
 21
0.39455548
 31
0.0
  0
LINE
  5
7B
100
AcDbEntity
  8
レイヤー_1
  6
CONTINUOUS
 62
       3
100
AcDbLine
 10
74.80738848
 20
0.39455548
 30
0.0
 11
72.9574696
 21
0.39455548
 31
0.0
  0
LINE
  5
7C
100
AcDbEntity
  8
レイヤー_1
  6
CONTINUOUS
 62
       3
100
AcDbLine
 10
72.9574696
 20
0.39455548
 30
0.0
 11
70.08298027
 21
0.39455548
 31
0.0
  0
LINE
  5
7D
100
AcDbEntity
  8
レイヤー_1
  6
CONTINUOUS
 62
       3
100
AcDbLine
 10
70.08298027
 20
0.39455548
 30
0.0
 11
66.35468223
 21
0.39455548
 31
0.0
  0
LINE
  5
7E
100
AcDbEntity
  8
レイヤー_1
  6
CONTINUOUS
 62
       3
100
AcDbLine
 10
66.35468223
 20
0.39455548
 30
0.0
 11
61.94333721
 21
0.39455548
 31
0.0
  0
LINE
  5
7F
100
AcDbEntity
  8
レイヤー_1
  6
CONTINUOUS
 62
       3
100
AcDbLine
 10
61.94333721
 20
0.39455548
 30
0.0
 11
57.01970697
 21
0.39455548
 31
0.0
  0
LINE
  5
80
100
AcDbEntity
  8
レイヤー_1
  6
CONTINUOUS
 62
       3
100
AcDbLine
 10
57.01970697
 20
0.39455548
 30
0.0
 11
51.75455324
 21
0.39455548
 31
0.0
  0
LINE
  5
81
100
AcDbEntity
  8
レイヤー_1
  6
CONTINUOUS
 62
       3
100
AcDbLine
 10
51.75455324
 20
0.39455548
 30
0.0
 11
46.31863777
 21
0.39455548
 31
0.0
  0
LINE
  5
82
100
AcDbEntity
  8
レイヤー_1
  6
CONTINUOUS
 62
       3
100
AcDbLine
 10
46.31863777
 20
0.39455548
 30
0.0
 11
40.8827223
 21
0.39455548
 31
0.0
  0
LINE
  5
83
100
AcDbEntity
  8
レイヤー_1
  6
CONTINUOUS
 62
       3
100
AcDbLine
 10
40.8827223
 20
0.39455548
 30
0.0
 11
35.61756857
 21
0.39455548
 31
0.0
  0
LINE
  5
84
100
AcDbEntity
  8
レイヤー_1
  6
CONTINUOUS
 62
       3
100
AcDbLine
 10
35.61756857
 20
0.39455548
 30
0.0
 11
30.69393832
 21
0.39455548
 31
0.0
  0
LINE
  5
85
100
AcDbEntity
  8
レイヤー_1
  6
CONTINUOUS
 62
       3
100
AcDbLine
 10
30.69393832
 20
0.39455548
 30
0.0
 11
26.28259331
 21
0.39455548
 31
0.0
  0
LINE
  5
86
100
AcDbEntity
  8
レイヤー_1
  6
CONTINUOUS
 62
       3
100
AcDbLine
 10
26.28259331
 20
0.39455548
 30
0.0
 11
22.55429526
 21
0.39455548
 31
0.0
  0
LINE
  5
87
100
AcDbEntity
  8
レイヤー_1
  6
CONTINUOUS
 62
       3
100
AcDbLine
 10
22.55429526
 20
0.39455548
 30
0.0
 11
19.67980593
 21
0.39455548
 31
0.0
  0
LINE
  5
88
100
AcDbEntity
  8
レイヤー_1
  6
CONTINUOUS
 62
       3
100
AcDbLine
 10
19.67980593
 20
0.39455548
 30
0.0
 11
17.82988705
 21
0.39455548
 31
0.0
  0
LINE
  5
89
100
AcDbEntity
  8
レイヤー_1
  6
CONTINUOUS
 62
       3
100
AcDbLine
 10
17.82988705
 20
0.39455548
 30
0.0
 11
17.17530037
 21
0.39455548
 31
0.0
  0
LINE
  5
8A
100
AcDbEntity
  8
レイヤー_1
  6
CONTINUOUS
 62
       3
100
AcDbLine
 10
-10.15946525
 20
16.02957012
 30
0.0
 11
-9.90139433
 21
16.01598728
 31
0.0
  0
LINE
  5
8B
100
AcDbEntity
  8
レイヤー_1
  6
CONTINUOUS
 62
       3
100
AcDbLine
 10
-9.90139433
 20
16.01598728
 30
0.0
 11
-9.16806409
 21
15.96673428
 31
0.0
  0
LINE
  5
8C
100
AcDbEntity
  8
レイヤー_1
  6
CONTINUOUS
 62
       3
100
AcDbLine
 10
-9.16806409
 20
15.96673428
 30
0.0
 11
-8.02079832
 21
15.86905443
 31
0.0
  0
LINE
  5
8D
100
AcDbEntity
  8
レイヤー_1
  6
CONTINUOUS
 62
       3
100
AcDbLine
 10
-8.02079832
 20
15.86905443
 30
0.0
 11
-6.5209208
 21
15.71019104
 31
0.0
  0
LINE
  5
8E
100
AcDbEntity
  8
レイヤー_1
  6
CONTINUOUS
 62
       3
100
AcDbLine
 10
-6.5209208
 20
15.71019104
 30
0.0
 11
-4.72975531
 21
15.47738741
 31
0.0
  0
LINE
  5
8F
100
AcDbEntity
  8
レイヤー_1
  6
CONTINUOUS
 62
       3
100
AcDbLine
 10
-4.72975531
 20
15.47738741
 30
0.0
 11
-2.70862564
 21
15.15788683
 31
0.0
  0
LINE
  5
90
100
AcDbEntity
  8
レイヤー_1
  6
CONTINUOUS
 62
       3
100
AcDbLine
 10
-2.70862564
 20
15.15788683
 30
0.0
 11
-0.51885556
 21
14.73893262
 31
0.0
  0
LINE
  5
91
100
AcDbEntity
  8
レイヤー_1
  6
CONTINUOUS
 62
       3
100
AcDbLine
 10
-0.51885556
 20
14.73893262
 30
0.0
 11
1.77823114
 21
14.20776808
 31
0.0
  0
LINE
  5
92
100
AcDbEntity
  8
レイヤー_1
  6
CONTINUOUS
 62
       3
100
AcDbLine
 10
1.77823114
 20
14.20776808
 30
0.0
 11
4.12131067
 21
13.55163651
 31
0.0
  0
LINE
  5
93
100
AcDbEntity
  8
レイヤー_1
  6
CONTINUOUS
 62
       3
100
AcDbLine
 10
4.12131067
 20
13.55163651
 30
0.0
 11
6.44905926
 21
12.75778122
 31
0.0
  0
LINE
  5
94
100
AcDbEntity
  8
レイヤー_1
  6
CONTINUOUS
 62
       3
100
AcDbLine
 10
6.44905926
 20
12.75778122
 30
0.0
 11
8.70015312
 21
11.81344551
 31
0.0
  0
LINE
  5
95
100
AcDbEntity
  8
レイヤー_1
  6
CONTINUOUS
 62
       3
100
AcDbLine
 10
8.70015312
 20
11.81344551
 30
0.0
 11
10.81326847
 21
10.70587267
 31
0.0
  0
LINE
  5
96
100
AcDbEntity
  8
レイヤー_1
  6
CONTINUOUS
 62
       3
100
AcDbLine
 10
10.81326847
 20
10.70587267
 30
0.0
 11
12.72708152
 21
9.42230603
 31
0.0
  0
LINE
  5
97
100
AcDbEntity
  8
レイヤー_1
  6
CONTINUOUS
 62
       3
100
AcDbLine
 10
12.72708152
 20
9.42230603
 30
0.0
 11
14.3802685
 21
7.94998887
 31
0.0
  0
LINE
  5
98
100
AcDbEntity
  8
レイヤー_1
  6
CONTINUOUS
 62
       3
100
AcDbLine
 10
14.3802685
 20
7.94998887
 30
0.0
 11
15.71150562
 21
6.27616451
 31
0.0
  0
LINE
  5
99
100
AcDbEntity
  8
レイヤー_1
  6
CONTINUOUS
 62
       3
100
AcDbLine
 10
15.71150562
 20
6.27616451
 30
0.0
 11
16.65946909
 21
4.38807625
 31
0.0
  0
LINE
  5
9A
100
AcDbEntity
  8
レイヤー_1
  6
CONTINUOUS
 62
       3
100
AcDbLine
 10
16.65946909
 20
4.38807625
 30
0.0
 11
17.16283514
 21
2.27296738
 31
0.0
  0
LINE
  5
9B
100
AcDbEntity
  8
レイヤー_1
  6
CONTINUOUS
 62
       3
100
AcDbLine
 10
17.16283514
 20
2.27296738
 30
0.0
 11
17.16283514
 21
-0.02084169
 31
0.0
  0
LINE
  5
9C
100
AcDbEntity
  8
レイヤー_1
  6
CONTINUOUS
 62
       3
100
AcDbLine
 10
17.16283514
 20
-0.02084169
 30
0.0
 11
16.65946909
 21
-2.13903281
 31
0.0
  0
LINE
  5
9D
100
AcDbEntity
  8
レイヤー_1
  6
CONTINUOUS
 62
       3
100
AcDbLine
 10
16.65946909
 20
-2.13903281
 30
0.0
 11
15.71150562
 21
-4.03278384
 31
0.0
  0
LINE
  5
9E
100
AcDbEntity
  8
レイヤー_1
  6
CONTINUOUS
 62
       3
100
AcDbLine
 10
15.71150562
 20
-4.03278384
 30
0.0
 11
14.3802685
 21
-5.71449427
 31
0.0
  0
LINE
  5
9F
100
AcDbEntity
  8
レイヤー_1
  6
CONTINUOUS
 62
       3
100
AcDbLine
 10
14.3802685
 20
-5.71449427
 30
0.0
 11
12.72708152
 21
-7.19656361
 31
0.0
  0
LINE
  5
A0
100
AcDbEntity
  8
レイヤー_1
  6
CONTINUOUS
 62
       3
100
AcDbLine
 10
12.72708152
 20
-7.19656361
 30
0.0
 11
10.81326847
 21
-8.49139138
 31
0.0
  0
LINE
  5
A1
100
AcDbEntity
  8
レイヤー_1
  6
CONTINUOUS
 62
       3
100
AcDbLine
 10
10.81326847
 20
-8.49139138
 30
0.0
 11
8.70015312
 21
-9.61137709
 31
0.0
  0
LINE
  5
A2
100
AcDbEntity
  8
レイヤー_1
  6
CONTINUOUS
 62
       3
100
AcDbLine
 10
8.70015312
 20
-9.61137709
 30
0.0
 11
6.44905926
 21
-10.56892023
 31
0.0
  0
LINE
  5
A3
100
AcDbEntity
  8
レイヤー_1
  6
CONTINUOUS
 62
       3
100
AcDbLine
 10
6.44905926
 20
-10.56892023
 30
0.0
 11
4.12131067
 21
-11.37642033
 31
0.0
  0
LINE
  5
A4
100
AcDbEntity
  8
レイヤー_1
  6
CONTINUOUS
 62
       3
100
AcDbLine
 10
4.12131067
 20
-11.37642033
 30
0.0
 11
1.77823114
 21
-12.04627689
 31
0.0
  0
LINE
  5
A5
100
AcDbEntity
  8
レイヤー_1
  6
CONTINUOUS
 62
       3
100
AcDbLine
 10
1.77823114
 20
-12.04627689
 30
0.0
 11
-0.51885556
 21
-12.59088942
 31
0.0
  0
LINE
  5
A6
100
AcDbEntity
  8
レイヤー_1
  6
CONTINUOUS
 62
       3
100
AcDbLine
 10
-0.51885556
 20
-12.59088942
 30
0.0
 11
-2.70862564
 21
-13.02265743
 31
0.0
  0
LINE
  5
A7
100
AcDbEntity
  8
レイヤー_1
  6
CONTINUOUS
 62
       3
100
AcDbLine
 10
-2.70862564
 20
-13.02265743
 30
0.0
 11
-4.72975531
 21
-13.35398042
 31
0.0
  0
LINE
  5
A8
100
AcDbEntity
  8
レイヤー_1
  6
CONTINUOUS
 62
       3
100
AcDbLine
 10
-4.72975531
 20
-13.35398042
 30
0.0
 11
-6.5209208
 21
-13.59725791
 31
0.0
  0
LINE
  5
A9
100
AcDbEntity
  8
レイヤー_1
  6
CONTINUOUS
 62
       3
100
AcDbLine
 10
-6.5209208
 20
-13.59725791
 30
0.0
 11
-8.02079832
 21
-13.76488941
 31
0.0
  0
LINE
  5
AA
100
AcDbEntity
  8
レイヤー_1
  6
CONTINUOUS
 62
       3
100
AcDbLine
 10
-8.02079832
 20
-13.76488941
 30
0.0
 11
-9.16806409
 21
-13.86927442
 31
0.0
  0
LINE
  5
AB
100
AcDbEntity
  8
レイヤー_1
  6
CONTINUOUS
 62
       3
100
AcDbLine
 10
-9.16806409
 20
-13.86927442
 30
0.0
 11
-9.90139433
 21
-13.92281245
 31
0.0
  0
LINE
  5
AC
100
AcDbEntity
  8
レイヤー_1
  6
CONTINUOUS
 62
       3
100
AcDbLine
 10
-9.90139433
 20
-13.92281245
 30
0.0
 11
-10.15946525
 21
-13.93790301
 31
0.0
  0
LINE
  5
AD
100
AcDbEntity
  8
レイヤー_1
  6
CONTINUOUS
 62
       3
100
AcDbLine
 10
-10.15946525
 20
15.0727293
 30
0.0
 11
-9.91542386
 21
15.05612867
 31
0.0
  0
LINE
  5
AE
100
AcDbEntity
  8
レイヤー_1
  6
CONTINUOUS
 62
       3
100
AcDbLine
 10
-9.91542386
 20
15.05612867
 30
0.0
 11
-9.22195972
 21
14.99932189
 31
0.0
  0
LINE
  5
AF
100
AcDbEntity
  8
レイヤー_1
  6
CONTINUOUS
 62
       3
100
AcDbLine
 10
-9.22195972
 20
14.99932189
 30
0.0
 11
-8.13706285
 21
14.8918016
 31
0.0
  0
LINE
  5
B0
100
AcDbEntity
  8
レイヤー_1
  6
CONTINUOUS
 62
       3
100
AcDbLine
 10
-8.13706285
 20
14.8918016
 30
0.0
 11
-6.7187233
 21
14.72306044
 31
0.0
  0
LINE
  5
B1
100
AcDbEntity
  8
レイヤー_1
  6
CONTINUOUS
 62
       3
100
AcDbLine
 10
-6.7187233
 20
14.72306044
 30
0.0
 11
-5.02493109
 21
14.48259107
 31
0.0
  0
LINE
  5
B2
100
AcDbEntity
  8
レイヤー_1
  6
CONTINUOUS
 62
       3
100
AcDbLine
 10
-5.02493109
 20
14.48259107
 30
0.0
 11
-3.11367626
 21
14.15988614
 31
0.0
  0
LINE
  5
B3
100
AcDbEntity
  8
レイヤー_1
  6
CONTINUOUS
 62
       3
100
AcDbLine
 10
-3.11367626
 20
14.15988614
 30
0.0
 11
-1.04294884
 21
13.74443829
 31
0.0
  0
LINE
  5
B4
100
AcDbEntity
  8
レイヤー_1
  6
CONTINUOUS
 62
       3
100
AcDbLine
 10
-1.04294884
 20
13.74443829
 30
0.0
 11
1.12926114
 21
13.22574016
 31
0.0
  0
LINE
  5
B5
100
AcDbEntity
  8
レイヤー_1
  6
CONTINUOUS
 62
       3
100
AcDbLine
 10
1.12926114
 20
13.22574016
 30
0.0
 11
3.34496364
 21
12.59328442
 31
0.0
  0
LINE
  5
B6
100
AcDbEntity
  8
レイヤー_1
  6
CONTINUOUS
 62
       3
100
AcDbLine
 10
3.34496364
 20
12.59328442
 30
0.0
 11
5.54616863
 21
11.83656369
 31
0.0
  0
LINE
  5
B7
100
AcDbEntity
  8
レイヤー_1
  6
CONTINUOUS
 62
       3
100
AcDbLine
 10
5.54616863
 20
11.83656369
 30
0.0
 11
7.67488609
 21
10.94507064
 31
0.0
  0
LINE
  5
B8
100
AcDbEntity
  8
レイヤー_1
  6
CONTINUOUS
 62
       3
100
AcDbLine
 10
7.67488609
 20
10.94507064
 30
0.0
 11
9.67312597
 21
9.90829791
 31
0.0
  0
LINE
  5
B9
100
AcDbEntity
  8
レイヤー_1
  6
CONTINUOUS
 62
       3
100
AcDbLine
 10
9.67312597
 20
9.90829791
 30
0.0
 11
11.48289824
 21
8.71573814
 31
0.0
  0
LINE
  5
BA
100
AcDbEntity
  8
レイヤー_1
  6
CONTINUOUS
 62
       3
100
AcDbLine
 10
11.48289824
 20
8.71573814
 30
0.0
 11
13.04621287
 21
7.35688399
 31
0.0
  0
LINE
  5
BB
100
AcDbEntity
  8
レイヤー_1
  6
CONTINUOUS
 62
       3
100
AcDbLine
 10
13.04621287
 20
7.35688399
 30
0.0
 11
14.30507983
 21
5.8212281
 31
0.0
  0
LINE
  5
BC
100
AcDbEntity
  8
レイヤー_1
  6
CONTINUOUS
 62
       3
100
AcDbLine
 10
14.30507983
 20
5.8212281
 30
0.0
 11
15.20150909
 21
4.09826312
 31
0.0
  0
LINE
  5
BD
100
AcDbEntity
  8
レイヤー_1
  6
CONTINUOUS
 62
       3
100
AcDbLine
 10
15.20150909
 20
4.09826312
 30
0.0
 11
15.67751061
 21
2.1774817
 31
0.0
  0
LINE
  5
BE
100
AcDbEntity
  8
レイヤー_1
  6
CONTINUOUS
 62
       3
100
AcDbLine
 10
15.67751061
 20
2.1774817
 30
0.0
 11
15.67751061
 21
0.10164173
 31
0.0
  0
LINE
  5
BF
100
AcDbEntity
  8
レイヤー_1
  6
CONTINUOUS
 62
       3
100
AcDbLine
 10
15.67751061
 20
0.10164173
 30
0.0
 11
15.20150909
 21
-1.81937602
 31
0.0
  0
LINE
  5
C0
100
AcDbEntity
  8
レイヤー_1
  6
CONTINUOUS
 62
       3
100
AcDbLine
 10
15.20150909
 20
-1.81937602
 30
0.0
 11
14.30507983
 21
-3.54254956
 31
0.0
  0
LINE
  5
C1
100
AcDbEntity
  8
レイヤー_1
  6
CONTINUOUS
 62
       3
100
AcDbLine
 10
14.30507983
 20
-3.54254956
 30
0.0
 11
13.04621287
 21
-5.07838798
 31
0.0
  0
LINE
  5
C2
100
AcDbEntity
  8
レイヤー_1
  6
CONTINUOUS
 62
       3
100
AcDbLine
 10
13.04621287
 20
-5.07838798
 30
0.0
 11
11.48289824
 21
-6.43740036
 31
0.0
  0
LINE
  5
C3
100
AcDbEntity
  8
レイヤー_1
  6
CONTINUOUS
 62
       3
100
AcDbLine
 10
11.48289824
 20
-6.43740036
 30
0.0
 11
9.67312597
 21
-7.63009579
 31
0.0
  0
LINE
  5
C4
100
AcDbEntity
  8
レイヤー_1
  6
CONTINUOUS
 62
       3
100
AcDbLine
 10
9.67312597
 20
-7.63009579
 30
0.0
 11
7.67488609
 21
-8.66698336
 31
0.0
  0
LINE
  5
C5
100
AcDbEntity
  8
レイヤー_1
  6
CONTINUOUS
 62
       3
100
AcDbLine
 10
7.67488609
 20
-8.66698336
 30
0.0
 11
5.54616863
 21
-9.55857216
 31
0.0
  0
LINE
  5
C6
100
AcDbEntity
  8
レイヤー_1
  6
CONTINUOUS
 62
       3
100
AcDbLine
 10
5.54616863
 20
-9.55857216
 30
0.0
 11
3.34496364
 21
-10.31537128
 31
0.0
  0
LINE
  5
C7
100
AcDbEntity
  8
レイヤー_1
  6
CONTINUOUS
 62
       3
100
AcDbLine
 10
3.34496364
 20
-10.31537128
 30
0.0
 11
1.12926114
 21
-10.94788979
 31
0.0
  0
LINE
  5
C8
100
AcDbEntity
  8
レイヤー_1
  6
CONTINUOUS
 62
       3
100
AcDbLine
 10
1.12926114
 20
-10.94788979
 30
0.0
 11
-1.04294884
 21
-11.4666368
 31
0.0
  0
LINE
  5
C9
100
AcDbEntity
  8
レイヤー_1
  6
CONTINUOUS
 62
       3
100
AcDbLine
 10
-1.04294884
 20
-11.4666368
 30
0.0
 11
-3.11367626
 21
-11.88212139
 31
0.0
  0
LINE
  5
CA
100
AcDbEntity
  8
レイヤー_1
  6
CONTINUOUS
 62
       3
100
AcDbLine
 10
-3.11367626
 20
-11.88212139
 30
0.0
 11
-5.02493109
 21
-12.20485265
 31
0.0
  0
LINE
  5
CB
100
AcDbEntity
  8
レイヤー_1
  6
CONTINUOUS
 62
       3
100
AcDbLine
 10
-5.02493109
 20
-12.20485265
 30
0.0
 11
-6.7187233
 21
-12.44533967
 31
0.0
  0
LINE
  5
CC
100
AcDbEntity
  8
レイヤー_1
  6
CONTINUOUS
 62
       3
100
AcDbLine
 10
-6.7187233
 20
-12.44533967
 30
0.0
 11
-8.13706285
 21
-12.61409152
 31
0.0
  0
LINE
  5
CD
100
AcDbEntity
  8
レイヤー_1
  6
CONTINUOUS
 62
       3
100
AcDbLine
 10
-8.13706285
 20
-12.61409152
 30
0.0
 11
-9.22195972
 21
-12.72161731
 31
0.0
  0
LINE
  5
CE
100
AcDbEntity
  8
レイヤー_1
  6
CONTINUOUS
 62
       3
100
AcDbLine
 10
-9.22195972
 20
-12.72161731
 30
0.0
 11
-9.91542386
 21
-12.77842612
 31
0.0
  0
LINE
  5
CF
100
AcDbEntity
  8
レイヤー_1
  6
CONTINUOUS
 62
       3
100
AcDbLine
 10
-9.91542386
 20
-12.77842612
 30
0.0
 11
-10.15946525
 21
-12.79502704
 31
0.0
  0
LINE
  5
D0
100
AcDbEntity
  8
レイヤー_1
  6
CONTINUOUS
 62
       3
100
AcDbLine
 10
-78.69760732
 20
50.00858134
 30
0.0
 11
-78.87556305
 21
49.99972635
 31
0.0
  0
LINE
  5
D1
100
AcDbEntity
  8
レイヤー_1
  6
CONTINUOUS
 62
       3
100
AcDbLine
 10
-78.87556305
 20
49.99972635
 30
0.0
 11
-79.04847188
 21
49.97372788
 31
0.0
  0
LINE
  5
D2
100
AcDbEntity
  8
レイヤー_1
  6
CONTINUOUS
 62
       3
100
AcDbLine
 10
-79.04847188
 20
49.97372788
 30
0.0
 11
-79.21548579
 21
49.93143567
 31
0.0
  0
LINE
  5
D3
100
AcDbEntity
  8
レイヤー_1
  6
CONTINUOUS
 62
       3
100
AcDbLine
 10
-79.21548579
 20
49.93143567
 30
0.0
 11
-79.37575675
 21
49.87369948
 31
0.0
  0
LINE
  5
D4
100
AcDbEntity
  8
レイヤー_1
  6
CONTINUOUS
 62
       3
100
AcDbLine
 10
-79.37575675
 20
49.87369948
 30
0.0
 11
-79.52843677
 21
49.80136906
 31
0.0
  0
LINE
  5
D5
100
AcDbEntity
  8
レイヤー_1
  6
CONTINUOUS
 62
       3
100
AcDbLine
 10
-79.52843677
 20
49.80136906
 30
0.0
 11
-79.67267782
 21
49.71529415
 31
0.0
  0
LINE
  5
D6
100
AcDbEntity
  8
レイヤー_1
  6
CONTINUOUS
 62
       3
100
AcDbLine
 10
-79.67267782
 20
49.71529415
 30
0.0
 11
-79.80763188
 21
49.61632451
 31
0.0
  0
LINE
  5
D7
100
AcDbEntity
  8
レイヤー_1
  6
CONTINUOUS
 62
       3
100
AcDbLine
 10
-79.80763188
 20
49.61632451
 30
0.0
 11
-79.93245095
 21
49.50530988
 31
0.0
  0
LINE
  5
D8
100
AcDbEntity
  8
レイヤー_1
  6
CONTINUOUS
 62
       3
100
AcDbLine
 10
-79.93245095
 20
49.50530988
 30
0.0
 11
-80.046287
 21
49.38310002
 31
0.0
  0
LINE
  5
D9
100
AcDbEntity
  8
レイヤー_1
  6
CONTINUOUS
 62
       3
100
AcDbLine
 10
-80.046287
 20
49.38310002
 30
0.0
 11
-80.14829202
 21
49.25054468
 31
0.0
  0
LINE
  5
DA
100
AcDbEntity
  8
レイヤー_1
  6
CONTINUOUS
 62
       3
100
AcDbLine
 10
-80.14829202
 20
49.25054468
 30
0.0
 11
-80.237618
 21
49.10849359
 31
0.0
  0
LINE
  5
DB
100
AcDbEntity
  8
レイヤー_1
  6
CONTINUOUS
 62
       3
100
AcDbLine
 10
-80.237618
 20
49.10849359
 30
0.0
 11
-80.31341692
 21
48.95779652
 31
0.0
  0
LINE
  5
DC
100
AcDbEntity
  8
レイヤー_1
  6
CONTINUOUS
 62
       3
100
AcDbLine
 10
-80.31341692
 20
48.95779652
 30
0.0
 11
-80.37484076
 21
48.79930322
 31
0.0
  0
LINE
  5
DD
100
AcDbEntity
  8
レイヤー_1
  6
CONTINUOUS
 62
       3
100
AcDbLine
 10
-80.37484076
 20
48.79930322
 30
0.0
 11
-80.4210415
 21
48.63386343
 31
0.0
  0
LINE
  5
DE
100
AcDbEntity
  8
レイヤー_1
  6
CONTINUOUS
 62
       3
100
AcDbLine
 10
-80.4210415
 20
48.63386343
 30
0.0
 11
-80.45117115
 21
48.4623269
 31
0.0
  0
LINE
  5
DF
100
AcDbEntity
  8
レイヤー_1
  6
CONTINUOUS
 62
       3
100
AcDbLine
 10
-80.45117115
 20
48.4623269
 30
0.0
 11
-80.46438166
 21
48.28554338
 31
0.0
  0
LINE
  5
E0
100
AcDbEntity
  8
レイヤー_1
  6
CONTINUOUS
 62
       3
100
AcDbLine
 10
-80.46438166
 20
48.28554338
 30
0.0
 11
-80.4599443
 21
48.10672042
 31
0.0
  0
LINE
  5
E1
100
AcDbEntity
  8
レイヤー_1
  6
CONTINUOUS
 62
       3
100
AcDbLine
 10
-80.4599443
 20
48.10672042
 30
0.0
 11
-80.43816821
 21
47.93247037
 31
0.0
  0
LINE
  5
E2
100
AcDbEntity
  8
レイヤー_1
  6
CONTINUOUS
 62
       3
100
AcDbLine
 10
-80.43816821
 20
47.93247037
 30
0.0
 11
-80.39989702
 21
47.76390323
 31
0.0
  0
LINE
  5
E3
100
AcDbEntity
  8
レイヤー_1
  6
CONTINUOUS
 62
       3
100
AcDbLine
 10
-80.39989702
 20
47.76390323
 30
0.0
 11
-80.34597872
 21
47.60186702
 31
0.0
  0
LINE
  5
E4
100
AcDbEntity
  8
レイヤー_1
  6
CONTINUOUS
 62
       3
100
AcDbLine
 10
-80.34597872
 20
47.60186702
 30
0.0
 11
-80.27726134
 21
47.44720977
 31
0.0
  0
LINE
  5
E5
100
AcDbEntity
  8
レイヤー_1
  6
CONTINUOUS
 62
       3
100
AcDbLine
 10
-80.27726134
 20
47.44720977
 30
0.0
 11
-80.19459289
 21
47.30077948
 31
0.0
  0
LINE
  5
E6
100
AcDbEntity
  8
レイヤー_1
  6
CONTINUOUS
 62
       3
100
AcDbLine
 10
-80.19459289
 20
47.30077948
 30
0.0
 11
-80.09882139
 21
47.16342416
 31
0.0
  0
LINE
  5
E7
100
AcDbEntity
  8
レイヤー_1
  6
CONTINUOUS
 62
       3
100
AcDbLine
 10
-80.09882139
 20
47.16342416
 30
0.0
 11
-79.99079485
 21
47.03599185
 31
0.0
  0
LINE
  5
E8
100
AcDbEntity
  8
レイヤー_1
  6
CONTINUOUS
 62
       3
100
AcDbLine
 10
-79.99079485
 20
47.03599185
 30
0.0
 11
-79.87136129
 21
46.91933054
 31
0.0
  0
LINE
  5
E9
100
AcDbEntity
  8
レイヤー_1
  6
CONTINUOUS
 62
       3
100
AcDbLine
 10
-79.87136129
 20
46.91933054
 30
0.0
 11
-79.74136873
 21
46.81428826
 31
0.0
  0
LINE
  5
EA
100
AcDbEntity
  8
レイヤー_1
  6
CONTINUOUS
 62
       3
100
AcDbLine
 10
-79.74136873
 20
46.81428826
 30
0.0
 11
-79.60166517
 21
46.72171302
 31
0.0
  0
LINE
  5
EB
100
AcDbEntity
  8
レイヤー_1
  6
CONTINUOUS
 62
       3
100
AcDbLine
 10
-79.60166517
 20
46.72171302
 30
0.0
 11
-79.45309863
 21
46.64245284
 31
0.0
  0
LINE
  5
EC
100
AcDbEntity
  8
レイヤー_1
  6
CONTINUOUS
 62
       3
100
AcDbLine
 10
-79.45309863
 20
46.64245284
 30
0.0
 11
-79.29651714
 21
46.57735573
 31
0.0
  0
LINE
  5
ED
100
AcDbEntity
  8
レイヤー_1
  6
CONTINUOUS
 62
       3
100
AcDbLine
 10
-79.29651714
 20
46.57735573
 30
0.0
 11
-79.1327687
 21
46.5272697
 31
0.0
  0
LINE
  5
EE
100
AcDbEntity
  8
レイヤー_1
  6
CONTINUOUS
 62
       3
100
AcDbLine
 10
-79.1327687
 20
46.5272697
 30
0.0
 11
-78.96270133
 21
46.49304279
 31
0.0
  0
LINE
  5
EF
100
AcDbEntity
  8
レイヤー_1
  6
CONTINUOUS
 62
       3
100
AcDbLine
 10
-78.96270133
 20
46.49304279
 30
0.0
 11
-78.78716305
 21
46.47552299
 31
0.0
  0
LINE
  5
F0
100
AcDbEntity
  8
レイヤー_1
  6
CONTINUOUS
 62
       3
100
AcDbLine
 10
-78.78716305
 20
46.47552299
 30
0.0
 11
-78.60805245
 21
46.47552299
 31
0.0
  0
LINE
  5
F1
100
AcDbEntity
  8
レイヤー_1
  6
CONTINUOUS
 62
       3
100
AcDbLine
 10
-78.60805245
 20
46.47552299
 30
0.0
 11
-78.43252075
 21
46.49304279
 31
0.0
  0
LINE
  5
F2
100
AcDbEntity
  8
レイヤー_1
  6
CONTINUOUS
 62
       3
100
AcDbLine
 10
-78.43252075
 20
46.49304279
 30
0.0
 11
-78.2624657
 21
46.5272697
 31
0.0
  0
LINE
  5
F3
100
AcDbEntity
  8
レイヤー_1
  6
CONTINUOUS
 62
       3
100
AcDbLine
 10
-78.2624657
 20
46.5272697
 30
0.0
 11
-78.09873446
 21
46.57735573
 31
0.0
  0
LINE
  5
F4
100
AcDbEntity
  8
レイヤー_1
  6
CONTINUOUS
 62
       3
100
AcDbLine
 10
-78.09873446
 20
46.57735573
 30
0.0
 11
-77.94217417
 21
46.64245284
 31
0.0
  0
LINE
  5
F5
100
AcDbEntity
  8
レイヤー_1
  6
CONTINUOUS
 62
       3
100
AcDbLine
 10
-77.94217417
 20
46.64245284
 30
0.0
 11
-77.79363199
 21
46.72171302
 31
0.0
  0
LINE
  5
F6
100
AcDbEntity
  8
レイヤー_1
  6
CONTINUOUS
 62
       3
100
AcDbLine
 10
-77.79363199
 20
46.72171302
 30
0.0
 11
-77.65395505
 21
46.81428826
 31
0.0
  0
LINE
  5
F7
100
AcDbEntity
  8
レイヤー_1
  6
CONTINUOUS
 62
       3
100
AcDbLine
 10
-77.65395505
 20
46.81428826
 30
0.0
 11
-77.52399052
 21
46.91933054
 31
0.0
  0
LINE
  5
F8
100
AcDbEntity
  8
レイヤー_1
  6
CONTINUOUS
 62
       3
100
AcDbLine
 10
-77.52399052
 20
46.91933054
 30
0.0
 11
-77.40458554
 21
47.03599185
 31
0.0
  0
LINE
  5
F9
100
AcDbEntity
  8
レイヤー_1
  6
CONTINUOUS
 62
       3
100
AcDbLine
 10
-77.40458554
 20
47.03599185
 30
0.0
 11
-77.29658725
 21
47.16342416
 31
0.0
  0
LINE
  5
FA
100
AcDbEntity
  8
レイヤー_1
  6
CONTINUOUS
 62
       3
100
AcDbLine
 10
-77.29658725
 20
47.16342416
 30
0.0
 11
-77.20084281
 21
47.30077948
 31
0.0
  0
LINE
  5
FB
100
AcDbEntity
  8
レイヤー_1
  6
CONTINUOUS
 62
       3
100
AcDbLine
 10
-77.20084281
 20
47.30077948
 30
0.0
 11
-77.11819937
 21
47.44720977
 31
0.0
  0
LINE
  5
FC
100
AcDbEntity
  8
レイヤー_1
  6
CONTINUOUS
 62
       3
100
AcDbLine
 10
-77.11819937
 20
47.44720977
 30
0.0
 11
-77.04950406
 21
47.60186702
 31
0.0
  0
LINE
  5
FD
100
AcDbEntity
  8
レイヤー_1
  6
CONTINUOUS
 62
       3
100
AcDbLine
 10
-77.04950406
 20
47.60186702
 30
0.0
 11
-76.99560405
 21
47.76390323
 31
0.0
  0
LINE
  5
FE
100
AcDbEntity
  8
レイヤー_1
  6
CONTINUOUS
 62
       3
100
AcDbLine
 10
-76.99560405
 20
47.76390323
 30
0.0
 11
-76.95734647
 21
47.93247037
 31
0.0
  0
LINE
  5
FF
100
AcDbEntity
  8
レイヤー_1
  6
CONTINUOUS
 62
       3
100
AcDbLine
 10
-76.95734647
 20
47.93247037
 30
0.0
 11
-76.93557848
 21
48.10672042
 31
0.0
  0
LINE
  5
100
100
AcDbEntity
  8
レイヤー_1
  6
CONTINUOUS
 62
       3
100
AcDbLine
 10
-76.93557848
 20
48.10672042
 30
0.0
 11
-76.93114282
 21
48.28554338
 31
0.0
  0
LINE
  5
101
100
AcDbEntity
  8
レイヤー_1
  6
CONTINUOUS
 62
       3
100
AcDbLine
 10
-76.93114282
 20
48.28554338
 30
0.0
 11
-76.94434833
 21
48.4623269
 31
0.0
  0
LINE
  5
102
100
AcDbEntity
  8
レイヤー_1
  6
CONTINUOUS
 62
       3
100
AcDbLine
 10
-76.94434833
 20
48.4623269
 30
0.0
 11
-76.97446701
 21
48.63386343
 31
0.0
  0
LINE
  5
103
100
AcDbEntity
  8
レイヤー_1
  6
CONTINUOUS
 62
       3
100
AcDbLine
 10
-76.97446701
 20
48.63386343
 30
0.0
 11
-77.02065169
 21
48.79930322
 31
0.0
  0
LINE
  5
104
100
AcDbEntity
  8
レイヤー_1
  6
CONTINUOUS
 62
       3
100
AcDbLine
 10
-77.02065169
 20
48.79930322
 30
0.0
 11
-77.08205525
 21
48.95779652
 31
0.0
  0
LINE
  5
105
100
AcDbEntity
  8
レイヤー_1
  6
CONTINUOUS
 62
       3
100
AcDbLine
 10
-77.08205525
 20
48.95779652
 30
0.0
 11
-77.15783052
 21
49.10849359
 31
0.0
  0
LINE
  5
106
100
AcDbEntity
  8
レイヤー_1
  6
CONTINUOUS
 62
       3
100
AcDbLine
 10
-77.15783052
 20
49.10849359
 30
0.0
 11
-77.24713036
 21
49.25054468
 31
0.0
  0
LINE
  5
107
100
AcDbEntity
  8
レイヤー_1
  6
CONTINUOUS
 62
       3
100
AcDbLine
 10
-77.24713036
 20
49.25054468
 30
0.0
 11
-77.34910761
 21
49.38310002
 31
0.0
  0
LINE
  5
108
100
AcDbEntity
  8
レイヤー_1
  6
CONTINUOUS
 62
       3
100
AcDbLine
 10
-77.34910761
 20
49.38310002
 30
0.0
 11
-77.46291514
 21
49.50530988
 31
0.0
  0
LINE
  5
109
100
AcDbEntity
  8
レイヤー_1
  6
CONTINUOUS
 62
       3
100
AcDbLine
 10
-77.46291514
 20
49.50530988
 30
0.0
 11
-77.58770579
 21
49.61632451
 31
0.0
  0
LINE
  5
10A
100
AcDbEntity
  8
レイヤー_1
  6
CONTINUOUS
 62
       3
100
AcDbLine
 10
-77.58770579
 20
49.61632451
 30
0.0
 11
-77.72263242
 21
49.71529415
 31
0.0
  0
LINE
  5
10B
100
AcDbEntity
  8
レイヤー_1
  6
CONTINUOUS
 62
       3
100
AcDbLine
 10
-77.72263242
 20
49.71529415
 30
0.0
 11
-77.86684787
 21
49.80136906
 31
0.0
  0
LINE
  5
10C
100
AcDbEntity
  8
レイヤー_1
  6
CONTINUOUS
 62
       3
100
AcDbLine
 10
-77.86684787
 20
49.80136906
 30
0.0
 11
-78.019505
 21
49.87369948
 31
0.0
  0
LINE
  5
10D
100
AcDbEntity
  8
レイヤー_1
  6
CONTINUOUS
 62
       3
100
AcDbLine
 10
-78.019505
 20
49.87369948
 30
0.0
 11
-78.17975665
 21
49.93143567
 31
0.0
  0
LINE
  5
10E
100
AcDbEntity
  8
レイヤー_1
  6
CONTINUOUS
 62
       3
100
AcDbLine
 10
-78.17975665
 20
49.93143567
 30
0.0
 11
-78.34675569
 21
49.97372788
 31
0.0
  0
LINE
  5
10F
100
AcDbEntity
  8
レイヤー_1
  6
CONTINUOUS
 62
       3
100
AcDbLine
 10
-78.34675569
 20
49.97372788
 30
0.0
 11
-78.51965496
 21
49.99972635
 31
0.0
  0
LINE
  5
110
100
AcDbEntity
  8
レイヤー_1
  6
CONTINUOUS
 62
       3
100
AcDbLine
 10
-78.51965496
 20
49.99972635
 30
0.0
 11
-78.69760732
 21
50.00858134
 31
0.0
  0
LINE
  5
111
100
AcDbEntity
  8
レイヤー_1
  6
CONTINUOUS
 62
       3
100
AcDbLine
 10
-73.63218007
 20
50.00858134
 30
0.0
 11
-73.81024339
 21
49.99972635
 31
0.0
  0
LINE
  5
112
100
AcDbEntity
  8
レイヤー_1
  6
CONTINUOUS
 62
       3
100
AcDbLine
 10
-73.81024339
 20
49.99972635
 30
0.0
 11
-73.98324658
 21
49.97372788
 31
0.0
  0
LINE
  5
113
100
AcDbEntity
  8
レイヤー_1
  6
CONTINUOUS
 62
       3
100
AcDbLine
 10
-73.98324658
 20
49.97372788
 30
0.0
 11
-74.15034249
 21
49.93143567
 31
0.0
  0
LINE
  5
114
100
AcDbEntity
  8
レイヤー_1
  6
CONTINUOUS
 62
       3
100
AcDbLine
 10
-74.15034249
 20
49.93143567
 30
0.0
 11
-74.31068397
 21
49.87369948
 31
0.0
  0
LINE
  5
115
100
AcDbEntity
  8
レイヤー_1
  6
CONTINUOUS
 62
       3
100
AcDbLine
 10
-74.31068397
 20
49.87369948
 30
0.0
 11
-74.46342388
 21
49.80136906
 31
0.0
  0
LINE
  5
116
100
AcDbEntity
  8
レイヤー_1
  6
CONTINUOUS
 62
       3
100
AcDbLine
 10
-74.46342388
 20
49.80136906
 30
0.0
 11
-74.60771506
 21
49.71529415
 31
0.0
  0
LINE
  5
117
100
AcDbEntity
  8
レイヤー_1
  6
CONTINUOUS
 62
       3
100
AcDbLine
 10
-74.60771506
 20
49.71529415
 30
0.0
 11
-74.74271038
 21
49.61632451
 31
0.0
  0
LINE
  5
118
100
AcDbEntity
  8
レイヤー_1
  6
CONTINUOUS
 62
       3
100
AcDbLine
 10
-74.74271038
 20
49.61632451
 30
0.0
 11
-74.86756267
 21
49.50530988
 31
0.0
  0
LINE
  5
119
100
AcDbEntity
  8
レイヤー_1
  6
CONTINUOUS
 62
       3
100
AcDbLine
 10
-74.86756267
 20
49.50530988
 30
0.0
 11
-74.9814248
 21
49.38310002
 31
0.0
  0
LINE
  5
11A
100
AcDbEntity
  8
レイヤー_1
  6
CONTINUOUS
 62
       3
100
AcDbLine
 10
-74.9814248
 20
49.38310002
 30
0.0
 11
-75.08344961
 21
49.25054468
 31
0.0
  0
LINE
  5
11B
100
AcDbEntity
  8
レイヤー_1
  6
CONTINUOUS
 62
       3
100
AcDbLine
 10
-75.08344961
 20
49.25054468
 30
0.0
 11
-75.17278996
 21
49.10849359
 31
0.0
  0
LINE
  5
11C
100
AcDbEntity
  8
レイヤー_1
  6
CONTINUOUS
 62
       3
100
AcDbLine
 10
-75.17278996
 20
49.10849359
 30
0.0
 11
-75.2485987
 21
48.95779652
 31
0.0
  0
LINE
  5
11D
100
AcDbEntity
  8
レイヤー_1
  6
CONTINUOUS
 62
       3
100
AcDbLine
 10
-75.2485987
 20
48.95779652
 30
0.0
 11
-75.31002867
 21
48.79930322
 31
0.0
  0
LINE
  5
11E
100
AcDbEntity
  8
レイヤー_1
  6
CONTINUOUS
 62
       3
100
AcDbLine
 10
-75.31002867
 20
48.79930322
 30
0.0
 11
-75.35623273
 21
48.63386343
 31
0.0
  0
LINE
  5
11F
100
AcDbEntity
  8
レイヤー_1
  6
CONTINUOUS
 62
       3
100
AcDbLine
 10
-75.35623273
 20
48.63386343
 30
0.0
 11
-75.38636374
 21
48.4623269
 31
0.0
  0
LINE
  5
120
100
AcDbEntity
  8
レイヤー_1
  6
CONTINUOUS
 62
       3
100
AcDbLine
 10
-75.38636374
 20
48.4623269
 30
0.0
 11
-75.39957453
 21
48.28554338
 31
0.0
  0
LINE
  5
121
100
AcDbEntity
  8
レイヤー_1
  6
CONTINUOUS
 62
       3
100
AcDbLine
 10
-75.39957453
 20
48.28554338
 30
0.0
 11
-75.39513711
 21
48.10672042
 31
0.0
  0
LINE
  5
122
100
AcDbEntity
  8
レイヤー_1
  6
CONTINUOUS
 62
       3
100
AcDbLine
 10
-75.39513711
 20
48.10672042
 30
0.0
 11
-75.37336031
 21
47.93247037
 31
0.0
  0
LINE
  5
123
100
AcDbEntity
  8
レイヤー_1
  6
CONTINUOUS
 62
       3
100
AcDbLine
 10
-75.37336031
 20
47.93247037
 30
0.0
 11
-75.33508688
 21
47.76390323
 31
0.0
  0
LINE
  5
124
100
AcDbEntity
  8
レイヤー_1
  6
CONTINUOUS
 62
       3
100
AcDbLine
 10
-75.33508688
 20
47.76390323
 30
0.0
 11
-75.28116397
 21
47.60186702
 31
0.0
  0
LINE
  5
125
100
AcDbEntity
  8
レイヤー_1
  6
CONTINUOUS
 62
       3
100
AcDbLine
 10
-75.28116397
 20
47.60186702
 30
0.0
 11
-75.21243873
 21
47.44720977
 31
0.0
  0
LINE
  5
126
100
AcDbEntity
  8
レイヤー_1
  6
CONTINUOUS
 62
       3
100
AcDbLine
 10
-75.21243873
 20
47.44720977
 30
0.0
 11
-75.12975829
 21
47.30077948
 31
0.0
  0
LINE
  5
127
100
AcDbEntity
  8
レイヤー_1
  6
CONTINUOUS
 62
       3
100
AcDbLine
 10
-75.12975829
 20
47.30077948
 30
0.0
 11
-75.03396982
 21
47.16342416
 31
0.0
  0
LINE
  5
128
100
AcDbEntity
  8
レイヤー_1
  6
CONTINUOUS
 62
       3
100
AcDbLine
 10
-75.03396982
 20
47.16342416
 30
0.0
 11
-74.92592046
 21
47.03599185
 31
0.0
  0
LINE
  5
129
100
AcDbEntity
  8
レイヤー_1
  6
CONTINUOUS
 62
       3
100
AcDbLine
 10
-74.92592046
 20
47.03599185
 30
0.0
 11
-74.80645735
 21
46.91933054
 31
0.0
  0
LINE
  5
12A
100
AcDbEntity
  8
レイヤー_1
  6
CONTINUOUS
 62
       3
100
AcDbLine
 10
-74.80645735
 20
46.91933054
 30
0.0
 11
-74.67642765
 21
46.81428826
 31
0.0
  0
LINE
  5
12B
100
AcDbEntity
  8
レイヤー_1
  6
CONTINUOUS
 62
       3
100
AcDbLine
 10
-74.67642765
 20
46.81428826
 30
0.0
 11
-74.53667851
 21
46.72171302
 31
0.0
  0
LINE
  5
12C
100
AcDbEntity
  8
レイヤー_1
  6
CONTINUOUS
 62
       3
100
AcDbLine
 10
-74.53667851
 20
46.72171302
 30
0.0
 11
-74.38805707
 21
46.64245284
 31
0.0
  0
LINE
  5
12D
100
AcDbEntity
  8
レイヤー_1
  6
CONTINUOUS
 62
       3
100
AcDbLine
 10
-74.38805707
 20
46.64245284
 30
0.0
 11
-74.23141048
 21
46.57735573
 31
0.0
  0
LINE
  5
12E
100
AcDbEntity
  8
レイヤー_1
  6
CONTINUOUS
 62
       3
100
AcDbLine
 10
-74.23141048
 20
46.57735573
 30
0.0
 11
-74.06758589
 21
46.5272697
 31
0.0
  0
LINE
  5
12F
100
AcDbEntity
  8
レイヤー_1
  6
CONTINUOUS
 62
       3
100
AcDbLine
 10
-74.06758589
 20
46.5272697
 30
0.0
 11
-73.89743045
 21
46.49304279
 31
0.0
  0
LINE
  5
130
100
AcDbEntity
  8
レイヤー_1
  6
CONTINUOUS
 62
       3
100
AcDbLine
 10
-73.89743045
 20
46.49304279
 30
0.0
 11
-73.7217913
 21
46.47552299
 31
0.0
  0
LINE
  5
131
100
AcDbEntity
  8
レイヤー_1
  6
CONTINUOUS
 62
       3
100
AcDbLine
 10
-73.7217913
 20
46.47552299
 30
0.0
 11
-73.54262521
 21
46.47552299
 31
0.0
  0
LINE
  5
132
100
AcDbEntity
  8
レイヤー_1
  6
CONTINUOUS
 62
       3
100
AcDbLine
 10
-73.54262521
 20
46.47552299
 30
0.0
 11
-73.3670935
 21
46.49304279
 31
0.0
  0
LINE
  5
133
100
AcDbEntity
  8
レイヤー_1
  6
CONTINUOUS
 62
       3
100
AcDbLine
 10
-73.3670935
 20
46.49304279
 30
0.0
 11
-73.19703845
 21
46.5272697
 31
0.0
  0
LINE
  5
134
100
AcDbEntity
  8
レイヤー_1
  6
CONTINUOUS
 62
       3
100
AcDbLine
 10
-73.19703845
 20
46.5272697
 30
0.0
 11
-73.03330721
 21
46.57735573
 31
0.0
  0
LINE
  5
135
100
AcDbEntity
  8
レイヤー_1
  6
CONTINUOUS
 62
       3
100
AcDbLine
 10
-73.03330721
 20
46.57735573
 30
0.0
 11
-72.87674692
 21
46.64245284
 31
0.0
  0
LINE
  5
136
100
AcDbEntity
  8
レイヤー_1
  6
CONTINUOUS
 62
       3
100
AcDbLine
 10
-72.87674692
 20
46.64245284
 30
0.0
 11
-72.72820474
 21
46.72171302
 31
0.0
  0
LINE
  5
137
100
AcDbEntity
  8
レイヤー_1
  6
CONTINUOUS
 62
       3
100
AcDbLine
 10
-72.72820474
 20
46.72171302
 30
0.0
 11
-72.58852781
 21
46.81428826
 31
0.0
  0
LINE
  5
138
100
AcDbEntity
  8
レイヤー_1
  6
CONTINUOUS
 62
       3
100
AcDbLine
 10
-72.58852781
 20
46.81428826
 30
0.0
 11
-72.45856328
 21
46.91933054
 31
0.0
  0
LINE
  5
139
100
AcDbEntity
  8
レイヤー_1
  6
CONTINUOUS
 62
       3
100
AcDbLine
 10
-72.45856328
 20
46.91933054
 30
0.0
 11
-72.33915829
 21
47.03599185
 31
0.0
  0
LINE
  5
13A
100
AcDbEntity
  8
レイヤー_1
  6
CONTINUOUS
 62
       3
100
AcDbLine
 10
-72.33915829
 20
47.03599185
 30
0.0
 11
-72.23116001
 21
47.16342416
 31
0.0
  0
LINE
  5
13B
100
AcDbEntity
  8
レイヤー_1
  6
CONTINUOUS
 62
       3
100
AcDbLine
 10
-72.23116001
 20
47.16342416
 30
0.0
 11
-72.13541557
 21
47.30077948
 31
0.0
  0
LINE
  5
13C
100
AcDbEntity
  8
レイヤー_1
  6
CONTINUOUS
 62
       3
100
AcDbLine
 10
-72.13541557
 20
47.30077948
 30
0.0
 11
-72.05277212
 21
47.44720977
 31
0.0
  0
LINE
  5
13D
100
AcDbEntity
  8
レイヤー_1
  6
CONTINUOUS
 62
       3
100
AcDbLine
 10
-72.05277212
 20
47.44720977
 30
0.0
 11
-71.98407682
 21
47.60186702
 31
0.0
  0
LINE
  5
13E
100
AcDbEntity
  8
レイヤー_1
  6
CONTINUOUS
 62
       3
100
AcDbLine
 10
-71.98407682
 20
47.60186702
 30
0.0
 11
-71.9301768
 21
47.76390323
 31
0.0
  0
LINE
  5
13F
100
AcDbEntity
  8
レイヤー_1
  6
CONTINUOUS
 62
       3
100
AcDbLine
 10
-71.9301768
 20
47.76390323
 30
0.0
 11
-71.89191922
 21
47.93247037
 31
0.0
  0
LINE
  5
140
100
AcDbEntity
  8
レイヤー_1
  6
CONTINUOUS
 62
       3
100
AcDbLine
 10
-71.89191922
 20
47.93247037
 30
0.0
 11
-71.87015124
 21
48.10672042
 31
0.0
  0
LINE
  5
141
100
AcDbEntity
  8
レイヤー_1
  6
CONTINUOUS
 62
       3
100
AcDbLine
 10
-71.87015124
 20
48.10672042
 30
0.0
 11
-71.86571557
 21
48.28554338
 31
0.0
  0
LINE
  5
142
100
AcDbEntity
  8
レイヤー_1
  6
CONTINUOUS
 62
       3
100
AcDbLine
 10
-71.86571557
 20
48.28554338
 30
0.0
 11
-71.87892109
 21
48.4623269
 31
0.0
  0
LINE
  5
143
100
AcDbEntity
  8
レイヤー_1
  6
CONTINUOUS
 62
       3
100
AcDbLine
 10
-71.87892109
 20
48.4623269
 30
0.0
 11
-71.90903976
 21
48.63386343
 31
0.0
  0
LINE
  5
144
100
AcDbEntity
  8
レイヤー_1
  6
CONTINUOUS
 62
       3
100
AcDbLine
 10
-71.90903976
 20
48.63386343
 30
0.0
 11
-71.95522445
 21
48.79930322
 31
0.0
  0
LINE
  5
145
100
AcDbEntity
  8
レイヤー_1
  6
CONTINUOUS
 62
       3
100
AcDbLine
 10
-71.95522445
 20
48.79930322
 30
0.0
 11
-72.016628
 21
48.95779652
 31
0.0
  0
LINE
  5
146
100
AcDbEntity
  8
レイヤー_1
  6
CONTINUOUS
 62
       3
100
AcDbLine
 10
-72.016628
 20
48.95779652
 30
0.0
 11
-72.09240327
 21
49.10849359
 31
0.0
  0
LINE
  5
147
100
AcDbEntity
  8
レイヤー_1
  6
CONTINUOUS
 62
       3
100
AcDbLine
 10
-72.09240327
 20
49.10849359
 30
0.0
 11
-72.18170311
 21
49.25054468
 31
0.0
  0
LINE
  5
148
100
AcDbEntity
  8
レイヤー_1
  6
CONTINUOUS
 62
       3
100
AcDbLine
 10
-72.18170311
 20
49.25054468
 30
0.0
 11
-72.28368037
 21
49.38310002
 31
0.0
  0
LINE
  5
149
100
AcDbEntity
  8
レイヤー_1
  6
CONTINUOUS
 62
       3
100
AcDbLine
 10
-72.28368037
 20
49.38310002
 30
0.0
 11
-72.3974879
 21
49.50530988
 31
0.0
  0
LINE
  5
14A
100
AcDbEntity
  8
レイヤー_1
  6
CONTINUOUS
 62
       3
100
AcDbLine
 10
-72.3974879
 20
49.50530988
 30
0.0
 11
-72.52227855
 21
49.61632451
 31
0.0
  0
LINE
  5
14B
100
AcDbEntity
  8
レイヤー_1
  6
CONTINUOUS
 62
       3
100
AcDbLine
 10
-72.52227855
 20
49.61632451
 30
0.0
 11
-72.65720517
 21
49.71529415
 31
0.0
  0
LINE
  5
14C
100
AcDbEntity
  8
レイヤー_1
  6
CONTINUOUS
 62
       3
100
AcDbLine
 10
-72.65720517
 20
49.71529415
 30
0.0
 11
-72.80142062
 21
49.80136906
 31
0.0
  0
LINE
  5
14D
100
AcDbEntity
  8
レイヤー_1
  6
CONTINUOUS
 62
       3
100
AcDbLine
 10
-72.80142062
 20
49.80136906
 30
0.0
 11
-72.95407775
 21
49.87369948
 31
0.0
  0
LINE
  5
14E
100
AcDbEntity
  8
レイヤー_1
  6
CONTINUOUS
 62
       3
100
AcDbLine
 10
-72.95407775
 20
49.87369948
 30
0.0
 11
-73.11432941
 21
49.93143567
 31
0.0
  0
LINE
  5
14F
100
AcDbEntity
  8
レイヤー_1
  6
CONTINUOUS
 62
       3
100
AcDbLine
 10
-73.11432941
 20
49.93143567
 30
0.0
 11
-73.28132845
 21
49.97372788
 31
0.0
  0
LINE
  5
150
100
AcDbEntity
  8
レイヤー_1
  6
CONTINUOUS
 62
       3
100
AcDbLine
 10
-73.28132845
 20
49.97372788
 30
0.0
 11
-73.45422772
 21
49.99972635
 31
0.0
  0
LINE
  5
151
100
AcDbEntity
  8
レイヤー_1
  6
CONTINUOUS
 62
       3
100
AcDbLine
 10
-73.45422772
 20
49.99972635
 30
0.0
 11
-73.63218007
 21
50.00858134
 31
0.0
  0
LINE
  5
152
100
AcDbEntity
  8
レイヤー_1
  6
CONTINUOUS
 62
       3
100
AcDbLine
 10
-78.69760732
 20
40.04670879
 30
0.0
 11
-78.87556305
 21
40.03786041
 31
0.0
  0
LINE
  5
153
100
AcDbEntity
  8
レイヤー_1
  6
CONTINUOUS
 62
       3
100
AcDbLine
 10
-78.87556305
 20
40.03786041
 30
0.0
 11
-79.04847188
 21
40.01188004
 31
0.0
  0
LINE
  5
154
100
AcDbEntity
  8
レイヤー_1
  6
CONTINUOUS
 62
       3
100
AcDbLine
 10
-79.04847188
 20
40.01188004
 30
0.0
 11
-79.21548579
 21
39.96961482
 31
0.0
  0
LINE
  5
155
100
AcDbEntity
  8
レイヤー_1
  6
CONTINUOUS
 62
       3
100
AcDbLine
 10
-79.21548579
 20
39.96961482
 30
0.0
 11
-79.37575675
 21
39.9119119
 31
0.0
  0
LINE
  5
156
100
AcDbEntity
  8
レイヤー_1
  6
CONTINUOUS
 62
       3
100
AcDbLine
 10
-79.37575675
 20
39.9119119
 30
0.0
 11
-79.52843677
 21
39.83961844
 31
0.0
  0
LINE
  5
157
100
AcDbEntity
  8
レイヤー_1
  6
CONTINUOUS
 62
       3
100
AcDbLine
 10
-79.52843677
 20
39.83961844
 30
0.0
 11
-79.67267782
 21
39.75358157
 31
0.0
  0
LINE
  5
158
100
AcDbEntity
  8
レイヤー_1
  6
CONTINUOUS
 62
       3
100
AcDbLine
 10
-79.67267782
 20
39.75358157
 30
0.0
 11
-79.80763188
 21
39.65464846
 31
0.0
  0
LINE
  5
159
100
AcDbEntity
  8
レイヤー_1
  6
CONTINUOUS
 62
       3
100
AcDbLine
 10
-79.80763188
 20
39.65464846
 30
0.0
 11
-79.93245095
 21
39.54366624
 31
0.0
  0
LINE
  5
15A
100
AcDbEntity
  8
レイヤー_1
  6
CONTINUOUS
 62
       3
100
AcDbLine
 10
-79.93245095
 20
39.54366624
 30
0.0
 11
-80.046287
 21
39.42148207
 31
0.0
  0
LINE
  5
15B
100
AcDbEntity
  8
レイヤー_1
  6
CONTINUOUS
 62
       3
100
AcDbLine
 10
-80.046287
 20
39.42148207
 30
0.0
 11
-80.14829202
 21
39.28894309
 31
0.0
  0
LINE
  5
15C
100
AcDbEntity
  8
レイヤー_1
  6
CONTINUOUS
 62
       3
100
AcDbLine
 10
-80.14829202
 20
39.28894309
 30
0.0
 11
-80.237618
 21
39.14689645
 31
0.0
  0
LINE
  5
15D
100
AcDbEntity
  8
レイヤー_1
  6
CONTINUOUS
 62
       3
100
AcDbLine
 10
-80.237618
 20
39.14689645
 30
0.0
 11
-80.31341692
 21
38.9961893
 31
0.0
  0
LINE
  5
15E
100
AcDbEntity
  8
レイヤー_1
  6
CONTINUOUS
 62
       3
100
AcDbLine
 10
-80.31341692
 20
38.9961893
 30
0.0
 11
-80.37484076
 21
38.83766879
 31
0.0
  0
LINE
  5
15F
100
AcDbEntity
  8
レイヤー_1
  6
CONTINUOUS
 62
       3
100
AcDbLine
 10
-80.37484076
 20
38.83766879
 30
0.0
 11
-80.4210415
 21
38.67218207
 31
0.0
  0
LINE
  5
160
100
AcDbEntity
  8
レイヤー_1
  6
CONTINUOUS
 62
       3
100
AcDbLine
 10
-80.4210415
 20
38.67218207
 30
0.0
 11
-80.45117115
 21
38.50057628
 31
0.0
  0
LINE
  5
161
100
AcDbEntity
  8
レイヤー_1
  6
CONTINUOUS
 62
       3
100
AcDbLine
 10
-80.45117115
 20
38.50057628
 30
0.0
 11
-80.46438166
 21
38.32369857
 31
0.0
  0
LINE
  5
162
100
AcDbEntity
  8
レイヤー_1
  6
CONTINUOUS
 62
       3
100
AcDbLine
 10
-80.46438166
 20
38.32369857
 30
0.0
 11
-80.4599443
 21
38.14484787
 31
0.0
  0
LINE
  5
163
100
AcDbEntity
  8
レイヤー_1
  6
CONTINUOUS
 62
       3
100
AcDbLine
 10
-80.4599443
 20
38.14484787
 30
0.0
 11
-80.43816821
 21
37.97059781
 31
0.0
  0
LINE
  5
164
100
AcDbEntity
  8
レイヤー_1
  6
CONTINUOUS
 62
       3
100
AcDbLine
 10
-80.43816821
 20
37.97059781
 30
0.0
 11
-80.39989702
 21
37.80203067
 31
0.0
  0
LINE
  5
165
100
AcDbEntity
  8
レイヤー_1
  6
CONTINUOUS
 62
       3
100
AcDbLine
 10
-80.39989702
 20
37.80203067
 30
0.0
 11
-80.34597872
 21
37.63999447
 31
0.0
  0
LINE
  5
166
100
AcDbEntity
  8
レイヤー_1
  6
CONTINUOUS
 62
       3
100
AcDbLine
 10
-80.34597872
 20
37.63999447
 30
0.0
 11
-80.27726134
 21
37.48533721
 31
0.0
  0
LINE
  5
167
100
AcDbEntity
  8
レイヤー_1
  6
CONTINUOUS
 62
       3
100
AcDbLine
 10
-80.27726134
 20
37.48533721
 30
0.0
 11
-80.19459289
 21
37.33890692
 31
0.0
  0
LINE
  5
168
100
AcDbEntity
  8
レイヤー_1
  6
CONTINUOUS
 62
       3
100
AcDbLine
 10
-80.19459289
 20
37.33890692
 30
0.0
 11
-80.09882139
 21
37.20155161
 31
0.0
  0
LINE
  5
169
100
AcDbEntity
  8
レイヤー_1
  6
CONTINUOUS
 62
       3
100
AcDbLine
 10
-80.09882139
 20
37.20155161
 30
0.0
 11
-79.99079485
 21
37.07411929
 31
0.0
  0
LINE
  5
16A
100
AcDbEntity
  8
レイヤー_1
  6
CONTINUOUS
 62
       3
100
AcDbLine
 10
-79.99079485
 20
37.07411929
 30
0.0
 11
-79.87136129
 21
36.95745798
 31
0.0
  0
LINE
  5
16B
100
AcDbEntity
  8
レイヤー_1
  6
CONTINUOUS
 62
       3
100
AcDbLine
 10
-79.87136129
 20
36.95745798
 30
0.0
 11
-79.74136873
 21
36.8524157
 31
0.0
  0
LINE
  5
16C
100
AcDbEntity
  8
レイヤー_1
  6
CONTINUOUS
 62
       3
100
AcDbLine
 10
-79.74136873
 20
36.8524157
 30
0.0
 11
-79.60166517
 21
36.75984046
 31
0.0
  0
LINE
  5
16D
100
AcDbEntity
  8
レイヤー_1
  6
CONTINUOUS
 62
       3
100
AcDbLine
 10
-79.60166517
 20
36.75984046
 30
0.0
 11
-79.45309863
 21
36.68058028
 31
0.0
  0
LINE
  5
16E
100
AcDbEntity
  8
レイヤー_1
  6
CONTINUOUS
 62
       3
100
AcDbLine
 10
-79.45309863
 20
36.68058028
 30
0.0
 11
-79.29651714
 21
36.61548317
 31
0.0
  0
LINE
  5
16F
100
AcDbEntity
  8
レイヤー_1
  6
CONTINUOUS
 62
       3
100
AcDbLine
 10
-79.29651714
 20
36.61548317
 30
0.0
 11
-79.1327687
 21
36.56539715
 31
0.0
  0
LINE
  5
170
100
AcDbEntity
  8
レイヤー_1
  6
CONTINUOUS
 62
       3
100
AcDbLine
 10
-79.1327687
 20
36.56539715
 30
0.0
 11
-78.96270133
 21
36.53117023
 31
0.0
  0
LINE
  5
171
100
AcDbEntity
  8
レイヤー_1
  6
CONTINUOUS
 62
       3
100
AcDbLine
 10
-78.96270133
 20
36.53117023
 30
0.0
 11
-78.78716305
 21
36.51365043
 31
0.0
  0
LINE
  5
172
100
AcDbEntity
  8
レイヤー_1
  6
CONTINUOUS
 62
       3
100
AcDbLine
 10
-78.78716305
 20
36.51365043
 30
0.0
 11
-78.60805245
 21
36.51365043
 31
0.0
  0
LINE
  5
173
100
AcDbEntity
  8
レイヤー_1
  6
CONTINUOUS
 62
       3
100
AcDbLine
 10
-78.60805245
 20
36.51365043
 30
0.0
 11
-78.43252075
 21
36.53117023
 31
0.0
  0
LINE
  5
174
100
AcDbEntity
  8
レイヤー_1
  6
CONTINUOUS
 62
       3
100
AcDbLine
 10
-78.43252075
 20
36.53117023
 30
0.0
 11
-78.2624657
 21
36.56539715
 31
0.0
  0
LINE
  5
175
100
AcDbEntity
  8
レイヤー_1
  6
CONTINUOUS
 62
       3
100
AcDbLine
 10
-78.2624657
 20
36.56539715
 30
0.0
 11
-78.09873446
 21
36.61548317
 31
0.0
  0
LINE
  5
176
100
AcDbEntity
  8
レイヤー_1
  6
CONTINUOUS
 62
       3
100
AcDbLine
 10
-78.09873446
 20
36.61548317
 30
0.0
 11
-77.94217417
 21
36.68058028
 31
0.0
  0
LINE
  5
177
100
AcDbEntity
  8
レイヤー_1
  6
CONTINUOUS
 62
       3
100
AcDbLine
 10
-77.94217417
 20
36.68058028
 30
0.0
 11
-77.79363199
 21
36.75984046
 31
0.0
  0
LINE
  5
178
100
AcDbEntity
  8
レイヤー_1
  6
CONTINUOUS
 62
       3
100
AcDbLine
 10
-77.79363199
 20
36.75984046
 30
0.0
 11
-77.65395505
 21
36.8524157
 31
0.0
  0
LINE
  5
179
100
AcDbEntity
  8
レイヤー_1
  6
CONTINUOUS
 62
       3
100
AcDbLine
 10
-77.65395505
 20
36.8524157
 30
0.0
 11
-77.52399052
 21
36.95745798
 31
0.0
  0
LINE
  5
17A
100
AcDbEntity
  8
レイヤー_1
  6
CONTINUOUS
 62
       3
100
AcDbLine
 10
-77.52399052
 20
36.95745798
 30
0.0
 11
-77.40458554
 21
37.07411929
 31
0.0
  0
LINE
  5
17B
100
AcDbEntity
  8
レイヤー_1
  6
CONTINUOUS
 62
       3
100
AcDbLine
 10
-77.40458554
 20
37.07411929
 30
0.0
 11
-77.29658725
 21
37.20155161
 31
0.0
  0
LINE
  5
17C
100
AcDbEntity
  8
レイヤー_1
  6
CONTINUOUS
 62
       3
100
AcDbLine
 10
-77.29658725
 20
37.20155161
 30
0.0
 11
-77.20084281
 21
37.33890692
 31
0.0
  0
LINE
  5
17D
100
AcDbEntity
  8
レイヤー_1
  6
CONTINUOUS
 62
       3
100
AcDbLine
 10
-77.20084281
 20
37.33890692
 30
0.0
 11
-77.11819937
 21
37.48533721
 31
0.0
  0
LINE
  5
17E
100
AcDbEntity
  8
レイヤー_1
  6
CONTINUOUS
 62
       3
100
AcDbLine
 10
-77.11819937
 20
37.48533721
 30
0.0
 11
-77.04950406
 21
37.63999447
 31
0.0
  0
LINE
  5
17F
100
AcDbEntity
  8
レイヤー_1
  6
CONTINUOUS
 62
       3
100
AcDbLine
 10
-77.04950406
 20
37.63999447
 30
0.0
 11
-76.99560405
 21
37.80203067
 31
0.0
  0
LINE
  5
180
100
AcDbEntity
  8
レイヤー_1
  6
CONTINUOUS
 62
       3
100
AcDbLine
 10
-76.99560405
 20
37.80203067
 30
0.0
 11
-76.95734647
 21
37.97059781
 31
0.0
  0
LINE
  5
181
100
AcDbEntity
  8
レイヤー_1
  6
CONTINUOUS
 62
       3
100
AcDbLine
 10
-76.95734647
 20
37.97059781
 30
0.0
 11
-76.93557848
 21
38.14484787
 31
0.0
  0
LINE
  5
182
100
AcDbEntity
  8
レイヤー_1
  6
CONTINUOUS
 62
       3
100
AcDbLine
 10
-76.93557848
 20
38.14484787
 30
0.0
 11
-76.93114282
 21
38.32369857
 31
0.0
  0
LINE
  5
183
100
AcDbEntity
  8
レイヤー_1
  6
CONTINUOUS
 62
       3
100
AcDbLine
 10
-76.93114282
 20
38.32369857
 30
0.0
 11
-76.94434833
 21
38.50057628
 31
0.0
  0
LINE
  5
184
100
AcDbEntity
  8
レイヤー_1
  6
CONTINUOUS
 62
       3
100
AcDbLine
 10
-76.94434833
 20
38.50057628
 30
0.0
 11
-76.97446701
 21
38.67218207
 31
0.0
  0
LINE
  5
185
100
AcDbEntity
  8
レイヤー_1
  6
CONTINUOUS
 62
       3
100
AcDbLine
 10
-76.97446701
 20
38.67218207
 30
0.0
 11
-77.02065169
 21
38.83766879
 31
0.0
  0
LINE
  5
186
100
AcDbEntity
  8
レイヤー_1
  6
CONTINUOUS
 62
       3
100
AcDbLine
 10
-77.02065169
 20
38.83766879
 30
0.0
 11
-77.08205525
 21
38.9961893
 31
0.0
  0
LINE
  5
187
100
AcDbEntity
  8
レイヤー_1
  6
CONTINUOUS
 62
       3
100
AcDbLine
 10
-77.08205525
 20
38.9961893
 30
0.0
 11
-77.15783052
 21
39.14689645
 31
0.0
  0
LINE
  5
188
100
AcDbEntity
  8
レイヤー_1
  6
CONTINUOUS
 62
       3
100
AcDbLine
 10
-77.15783052
 20
39.14689645
 30
0.0
 11
-77.24713036
 21
39.28894309
 31
0.0
  0
LINE
  5
189
100
AcDbEntity
  8
レイヤー_1
  6
CONTINUOUS
 62
       3
100
AcDbLine
 10
-77.24713036
 20
39.28894309
 30
0.0
 11
-77.34910761
 21
39.42148207
 31
0.0
  0
LINE
  5
18A
100
AcDbEntity
  8
レイヤー_1
  6
CONTINUOUS
 62
       3
100
AcDbLine
 10
-77.34910761
 20
39.42148207
 30
0.0
 11
-77.46291514
 21
39.54366624
 31
0.0
  0
LINE
  5
18B
100
AcDbEntity
  8
レイヤー_1
  6
CONTINUOUS
 62
       3
100
AcDbLine
 10
-77.46291514
 20
39.54366624
 30
0.0
 11
-77.58770579
 21
39.65464846
 31
0.0
  0
LINE
  5
18C
100
AcDbEntity
  8
レイヤー_1
  6
CONTINUOUS
 62
       3
100
AcDbLine
 10
-77.58770579
 20
39.65464846
 30
0.0
 11
-77.72263242
 21
39.75358157
 31
0.0
  0
LINE
  5
18D
100
AcDbEntity
  8
レイヤー_1
  6
CONTINUOUS
 62
       3
100
AcDbLine
 10
-77.72263242
 20
39.75358157
 30
0.0
 11
-77.86684787
 21
39.83961844
 31
0.0
  0
LINE
  5
18E
100
AcDbEntity
  8
レイヤー_1
  6
CONTINUOUS
 62
       3
100
AcDbLine
 10
-77.86684787
 20
39.83961844
 30
0.0
 11
-78.019505
 21
39.9119119
 31
0.0
  0
LINE
  5
18F
100
AcDbEntity
  8
レイヤー_1
  6
CONTINUOUS
 62
       3
100
AcDbLine
 10
-78.019505
 20
39.9119119
 30
0.0
 11
-78.17975665
 21
39.96961482
 31
0.0
  0
LINE
  5
190
100
AcDbEntity
  8
レイヤー_1
  6
CONTINUOUS
 62
       3
100
AcDbLine
 10
-78.17975665
 20
39.96961482
 30
0.0
 11
-78.34675569
 21
40.01188004
 31
0.0
  0
LINE
  5
191
100
AcDbEntity
  8
レイヤー_1
  6
CONTINUOUS
 62
       3
100
AcDbLine
 10
-78.34675569
 20
40.01188004
 30
0.0
 11
-78.51965496
 21
40.03786041
 31
0.0
  0
LINE
  5
192
100
AcDbEntity
  8
レイヤー_1
  6
CONTINUOUS
 62
       3
100
AcDbLine
 10
-78.51965496
 20
40.03786041
 30
0.0
 11
-78.69760732
 21
40.04670879
 31
0.0
  0
LINE
  5
193
100
AcDbEntity
  8
レイヤー_1
  6
CONTINUOUS
 62
       3
100
AcDbLine
 10
-73.63218007
 20
40.04670879
 30
0.0
 11
-73.81024339
 21
40.03786041
 31
0.0
  0
LINE
  5
194
100
AcDbEntity
  8
レイヤー_1
  6
CONTINUOUS
 62
       3
100
AcDbLine
 10
-73.81024339
 20
40.03786041
 30
0.0
 11
-73.98324658
 21
40.01188004
 31
0.0
  0
LINE
  5
195
100
AcDbEntity
  8
レイヤー_1
  6
CONTINUOUS
 62
       3
100
AcDbLine
 10
-73.98324658
 20
40.01188004
 30
0.0
 11
-74.15034249
 21
39.96961482
 31
0.0
  0
LINE
  5
196
100
AcDbEntity
  8
レイヤー_1
  6
CONTINUOUS
 62
       3
100
AcDbLine
 10
-74.15034249
 20
39.96961482
 30
0.0
 11
-74.31068397
 21
39.9119119
 31
0.0
  0
LINE
  5
197
100
AcDbEntity
  8
レイヤー_1
  6
CONTINUOUS
 62
       3
100
AcDbLine
 10
-74.31068397
 20
39.9119119
 30
0.0
 11
-74.46342388
 21
39.83961844
 31
0.0
  0
LINE
  5
198
100
AcDbEntity
  8
レイヤー_1
  6
CONTINUOUS
 62
       3
100
AcDbLine
 10
-74.46342388
 20
39.83961844
 30
0.0
 11
-74.60771506
 21
39.75358157
 31
0.0
  0
LINE
  5
199
100
AcDbEntity
  8
レイヤー_1
  6
CONTINUOUS
 62
       3
100
AcDbLine
 10
-74.60771506
 20
39.75358157
 30
0.0
 11
-74.74271038
 21
39.65464846
 31
0.0
  0
LINE
  5
19A
100
AcDbEntity
  8
レイヤー_1
  6
CONTINUOUS
 62
       3
100
AcDbLine
 10
-74.74271038
 20
39.65464846
 30
0.0
 11
-74.86756267
 21
39.54366624
 31
0.0
  0
LINE
  5
19B
100
AcDbEntity
  8
レイヤー_1
  6
CONTINUOUS
 62
       3
100
AcDbLine
 10
-74.86756267
 20
39.54366624
 30
0.0
 11
-74.9814248
 21
39.42148207
 31
0.0
  0
LINE
  5
19C
100
AcDbEntity
  8
レイヤー_1
  6
CONTINUOUS
 62
       3
100
AcDbLine
 10
-74.9814248
 20
39.42148207
 30
0.0
 11
-75.08344961
 21
39.28894309
 31
0.0
  0
LINE
  5
19D
100
AcDbEntity
  8
レイヤー_1
  6
CONTINUOUS
 62
       3
100
AcDbLine
 10
-75.08344961
 20
39.28894309
 30
0.0
 11
-75.17278996
 21
39.14689645
 31
0.0
  0
LINE
  5
19E
100
AcDbEntity
  8
レイヤー_1
  6
CONTINUOUS
 62
       3
100
AcDbLine
 10
-75.17278996
 20
39.14689645
 30
0.0
 11
-75.2485987
 21
38.9961893
 31
0.0
  0
LINE
  5
19F
100
AcDbEntity
  8
レイヤー_1
  6
CONTINUOUS
 62
       3
100
AcDbLine
 10
-75.2485987
 20
38.9961893
 30
0.0
 11
-75.31002867
 21
38.83766879
 31
0.0
  0
LINE
  5
1A0
100
AcDbEntity
  8
レイヤー_1
  6
CONTINUOUS
 62
       3
100
AcDbLine
 10
-75.31002867
 20
38.83766879
 30
0.0
 11
-75.35623273
 21
38.67218207
 31
0.0
  0
LINE
  5
1A1
100
AcDbEntity
  8
レイヤー_1
  6
CONTINUOUS
 62
       3
100
AcDbLine
 10
-75.35623273
 20
38.67218207
 30
0.0
 11
-75.38636374
 21
38.50057628
 31
0.0
  0
LINE
  5
1A2
100
AcDbEntity
  8
レイヤー_1
  6
CONTINUOUS
 62
       3
100
AcDbLine
 10
-75.38636374
 20
38.50057628
 30
0.0
 11
-75.39957453
 21
38.32369857
 31
0.0
  0
LINE
  5
1A3
100
AcDbEntity
  8
レイヤー_1
  6
CONTINUOUS
 62
       3
100
AcDbLine
 10
-75.39957453
 20
38.32369857
 30
0.0
 11
-75.39513711
 21
38.14484787
 31
0.0
  0
LINE
  5
1A4
100
AcDbEntity
  8
レイヤー_1
  6
CONTINUOUS
 62
       3
100
AcDbLine
 10
-75.39513711
 20
38.14484787
 30
0.0
 11
-75.37336031
 21
37.97059781
 31
0.0
  0
LINE
  5
1A5
100
AcDbEntity
  8
レイヤー_1
  6
CONTINUOUS
 62
       3
100
AcDbLine
 10
-75.37336031
 20
37.97059781
 30
0.0
 11
-75.33508688
 21
37.80203067
 31
0.0
  0
LINE
  5
1A6
100
AcDbEntity
  8
レイヤー_1
  6
CONTINUOUS
 62
       3
100
AcDbLine
 10
-75.33508688
 20
37.80203067
 30
0.0
 11
-75.28116397
 21
37.63999447
 31
0.0
  0
LINE
  5
1A7
100
AcDbEntity
  8
レイヤー_1
  6
CONTINUOUS
 62
       3
100
AcDbLine
 10
-75.28116397
 20
37.63999447
 30
0.0
 11
-75.21243873
 21
37.48533721
 31
0.0
  0
LINE
  5
1A8
100
AcDbEntity
  8
レイヤー_1
  6
CONTINUOUS
 62
       3
100
AcDbLine
 10
-75.21243873
 20
37.48533721
 30
0.0
 11
-75.12975829
 21
37.33890692
 31
0.0
  0
LINE
  5
1A9
100
AcDbEntity
  8
レイヤー_1
  6
CONTINUOUS
 62
       3
100
AcDbLine
 10
-75.12975829
 20
37.33890692
 30
0.0
 11
-75.03396982
 21
37.20155161
 31
0.0
  0
LINE
  5
1AA
100
AcDbEntity
  8
レイヤー_1
  6
CONTINUOUS
 62
       3
100
AcDbLine
 10
-75.03396982
 20
37.20155161
 30
0.0
 11
-74.92592046
 21
37.07411929
 31
0.0
  0
LINE
  5
1AB
100
AcDbEntity
  8
レイヤー_1
  6
CONTINUOUS
 62
       3
100
AcDbLine
 10
-74.92592046
 20
37.07411929
 30
0.0
 11
-74.80645735
 21
36.95745798
 31
0.0
  0
LINE
  5
1AC
100
AcDbEntity
  8
レイヤー_1
  6
CONTINUOUS
 62
       3
100
AcDbLine
 10
-74.80645735
 20
36.95745798
 30
0.0
 11
-74.67642765
 21
36.8524157
 31
0.0
  0
LINE
  5
1AD
100
AcDbEntity
  8
レイヤー_1
  6
CONTINUOUS
 62
       3
100
AcDbLine
 10
-74.67642765
 20
36.8524157
 30
0.0
 11
-74.53667851
 21
36.75984046
 31
0.0
  0
LINE
  5
1AE
100
AcDbEntity
  8
レイヤー_1
  6
CONTINUOUS
 62
       3
100
AcDbLine
 10
-74.53667851
 20
36.75984046
 30
0.0
 11
-74.38805707
 21
36.68058028
 31
0.0
  0
LINE
  5
1AF
100
AcDbEntity
  8
レイヤー_1
  6
CONTINUOUS
 62
       3
100
AcDbLine
 10
-74.38805707
 20
36.68058028
 30
0.0
 11
-74.23141048
 21
36.61548317
 31
0.0
  0
LINE
  5
1B0
100
AcDbEntity
  8
レイヤー_1
  6
CONTINUOUS
 62
       3
100
AcDbLine
 10
-74.23141048
 20
36.61548317
 30
0.0
 11
-74.06758589
 21
36.56539715
 31
0.0
  0
LINE
  5
1B1
100
AcDbEntity
  8
レイヤー_1
  6
CONTINUOUS
 62
       3
100
AcDbLine
 10
-74.06758589
 20
36.56539715
 30
0.0
 11
-73.89743045
 21
36.53117023
 31
0.0
  0
LINE
  5
1B2
100
AcDbEntity
  8
レイヤー_1
  6
CONTINUOUS
 62
       3
100
AcDbLine
 10
-73.89743045
 20
36.53117023
 30
0.0
 11
-73.7217913
 21
36.51365043
 31
0.0
  0
LINE
  5
1B3
100
AcDbEntity
  8
レイヤー_1
  6
CONTINUOUS
 62
       3
100
AcDbLine
 10
-73.7217913
 20
36.51365043
 30
0.0
 11
-73.54262521
 21
36.51365043
 31
0.0
  0
LINE
  5
1B4
100
AcDbEntity
  8
レイヤー_1
  6
CONTINUOUS
 62
       3
100
AcDbLine
 10
-73.54262521
 20
36.51365043
 30
0.0
 11
-73.3670935
 21
36.53117023
 31
0.0
  0
LINE
  5
1B5
100
AcDbEntity
  8
レイヤー_1
  6
CONTINUOUS
 62
       3
100
AcDbLine
 10
-73.3670935
 20
36.53117023
 30
0.0
 11
-73.19703845
 21
36.56539715
 31
0.0
  0
LINE
  5
1B6
100
AcDbEntity
  8
レイヤー_1
  6
CONTINUOUS
 62
       3
100
AcDbLine
 10
-73.19703845
 20
36.56539715
 30
0.0
 11
-73.03330721
 21
36.61548317
 31
0.0
  0
LINE
  5
1B7
100
AcDbEntity
  8
レイヤー_1
  6
CONTINUOUS
 62
       3
100
AcDbLine
 10
-73.03330721
 20
36.61548317
 30
0.0
 11
-72.87674692
 21
36.68058028
 31
0.0
  0
LINE
  5
1B8
100
AcDbEntity
  8
レイヤー_1
  6
CONTINUOUS
 62
       3
100
AcDbLine
 10
-72.87674692
 20
36.68058028
 30
0.0
 11
-72.72820474
 21
36.75984046
 31
0.0
  0
LINE
  5
1B9
100
AcDbEntity
  8
レイヤー_1
  6
CONTINUOUS
 62
       3
100
AcDbLine
 10
-72.72820474
 20
36.75984046
 30
0.0
 11
-72.58852781
 21
36.8524157
 31
0.0
  0
LINE
  5
1BA
100
AcDbEntity
  8
レイヤー_1
  6
CONTINUOUS
 62
       3
100
AcDbLine
 10
-72.58852781
 20
36.8524157
 30
0.0
 11
-72.45856328
 21
36.95745798
 31
0.0
  0
LINE
  5
1BB
100
AcDbEntity
  8
レイヤー_1
  6
CONTINUOUS
 62
       3
100
AcDbLine
 10
-72.45856328
 20
36.95745798
 30
0.0
 11
-72.33915829
 21
37.07411929
 31
0.0
  0
LINE
  5
1BC
100
AcDbEntity
  8
レイヤー_1
  6
CONTINUOUS
 62
       3
100
AcDbLine
 10
-72.33915829
 20
37.07411929
 30
0.0
 11
-72.23116001
 21
37.20155161
 31
0.0
  0
LINE
  5
1BD
100
AcDbEntity
  8
レイヤー_1
  6
CONTINUOUS
 62
       3
100
AcDbLine
 10
-72.23116001
 20
37.20155161
 30
0.0
 11
-72.13541557
 21
37.33890692
 31
0.0
  0
LINE
  5
1BE
100
AcDbEntity
  8
レイヤー_1
  6
CONTINUOUS
 62
       3
100
AcDbLine
 10
-72.13541557
 20
37.33890692
 30
0.0
 11
-72.05277212
 21
37.48533721
 31
0.0
  0
LINE
  5
1BF
100
AcDbEntity
  8
レイヤー_1
  6
CONTINUOUS
 62
       3
100
AcDbLine
 10
-72.05277212
 20
37.48533721
 30
0.0
 11
-71.98407682
 21
37.63999447
 31
0.0
  0
LINE
  5
1C0
100
AcDbEntity
  8
レイヤー_1
  6
CONTINUOUS
 62
       3
100
AcDbLine
 10
-71.98407682
 20
37.63999447
 30
0.0
 11
-71.9301768
 21
37.80203067
 31
0.0
  0
LINE
  5
1C1
100
AcDbEntity
  8
レイヤー_1
  6
CONTINUOUS
 62
       3
100
AcDbLine
 10
-71.9301768
 20
37.80203067
 30
0.0
 11
-71.89191922
 21
37.97059781
 31
0.0
  0
LINE
  5
1C2
100
AcDbEntity
  8
レイヤー_1
  6
CONTINUOUS
 62
       3
100
AcDbLine
 10
-71.89191922
 20
37.97059781
 30
0.0
 11
-71.87015124
 21
38.14484787
 31
0.0
  0
LINE
  5
1C3
100
AcDbEntity
  8
レイヤー_1
  6
CONTINUOUS
 62
       3
100
AcDbLine
 10
-71.87015124
 20
38.14484787
 30
0.0
 11
-71.86571557
 21
38.32369857
 31
0.0
  0
LINE
  5
1C4
100
AcDbEntity
  8
レイヤー_1
  6
CONTINUOUS
 62
       3
100
AcDbLine
 10
-71.86571557
 20
38.32369857
 30
0.0
 11
-71.87892109
 21
38.50057628
 31
0.0
  0
LINE
  5
1C5
100
AcDbEntity
  8
レイヤー_1
  6
CONTINUOUS
 62
       3
100
AcDbLine
 10
-71.87892109
 20
38.50057628
 30
0.0
 11
-71.90903976
 21
38.67218207
 31
0.0
  0
LINE
  5
1C6
100
AcDbEntity
  8
レイヤー_1
  6
CONTINUOUS
 62
       3
100
AcDbLine
 10
-71.90903976
 20
38.67218207
 30
0.0
 11
-71.95522445
 21
38.83766879
 31
0.0
  0
LINE
  5
1C7
100
AcDbEntity
  8
レイヤー_1
  6
CONTINUOUS
 62
       3
100
AcDbLine
 10
-71.95522445
 20
38.83766879
 30
0.0
 11
-72.016628
 21
38.9961893
 31
0.0
  0
LINE
  5
1C8
100
AcDbEntity
  8
レイヤー_1
  6
CONTINUOUS
 62
       3
100
AcDbLine
 10
-72.016628
 20
38.9961893
 30
0.0
 11
-72.09240327
 21
39.14689645
 31
0.0
  0
LINE
  5
1C9
100
AcDbEntity
  8
レイヤー_1
  6
CONTINUOUS
 62
       3
100
AcDbLine
 10
-72.09240327
 20
39.14689645
 30
0.0
 11
-72.18170311
 21
39.28894309
 31
0.0
  0
LINE
  5
1CA
100
AcDbEntity
  8
レイヤー_1
  6
CONTINUOUS
 62
       3
100
AcDbLine
 10
-72.18170311
 20
39.28894309
 30
0.0
 11
-72.28368037
 21
39.42148207
 31
0.0
  0
LINE
  5
1CB
100
AcDbEntity
  8
レイヤー_1
  6
CONTINUOUS
 62
       3
100
AcDbLine
 10
-72.28368037
 20
39.42148207
 30
0.0
 11
-72.3974879
 21
39.54366624
 31
0.0
  0
LINE
  5
1CC
100
AcDbEntity
  8
レイヤー_1
  6
CONTINUOUS
 62
       3
100
AcDbLine
 10
-72.3974879
 20
39.54366624
 30
0.0
 11
-72.52227855
 21
39.65464846
 31
0.0
  0
LINE
  5
1CD
100
AcDbEntity
  8
レイヤー_1
  6
CONTINUOUS
 62
       3
100
AcDbLine
 10
-72.52227855
 20
39.65464846
 30
0.0
 11
-72.65720517
 21
39.75358157
 31
0.0
  0
LINE
  5
1CE
100
AcDbEntity
  8
レイヤー_1
  6
CONTINUOUS
 62
       3
100
AcDbLine
 10
-72.65720517
 20
39.75358157
 30
0.0
 11
-72.80142062
 21
39.83961844
 31
0.0
  0
LINE
  5
1CF
100
AcDbEntity
  8
レイヤー_1
  6
CONTINUOUS
 62
       3
100
AcDbLine
 10
-72.80142062
 20
39.83961844
 30
0.0
 11
-72.95407775
 21
39.9119119
 31
0.0
  0
LINE
  5
1D0
100
AcDbEntity
  8
レイヤー_1
  6
CONTINUOUS
 62
       3
100
AcDbLine
 10
-72.95407775
 20
39.9119119
 30
0.0
 11
-73.11432941
 21
39.96961482
 31
0.0
  0
LINE
  5
1D1
100
AcDbEntity
  8
レイヤー_1
  6
CONTINUOUS
 62
       3
100
AcDbLine
 10
-73.11432941
 20
39.96961482
 30
0.0
 11
-73.28132845
 21
40.01188004
 31
0.0
  0
LINE
  5
1D2
100
AcDbEntity
  8
レイヤー_1
  6
CONTINUOUS
 62
       3
100
AcDbLine
 10
-73.28132845
 20
40.01188004
 30
0.0
 11
-73.45422772
 21
40.03786041
 31
0.0
  0
LINE
  5
1D3
100
AcDbEntity
  8
レイヤー_1
  6
CONTINUOUS
 62
       3
100
AcDbLine
 10
-73.45422772
 20
40.03786041
 30
0.0
 11
-73.63218007
 21
40.04670879
 31
0.0
  0
LINE
  5
1D4
100
AcDbEntity
  8
レイヤー_1
  6
CONTINUOUS
 62
       3
100
AcDbLine
 10
-78.69760732
 20
-37.88558856
 30
0.0
 11
-78.87556305
 21
-37.87674355
 31
0.0
  0
LINE
  5
1D5
100
AcDbEntity
  8
レイヤー_1
  6
CONTINUOUS
 62
       3
100
AcDbLine
 10
-78.87556305
 20
-37.87674355
 30
0.0
 11
-79.04847188
 21
-37.85077274
 31
0.0
  0
LINE
  5
1D6
100
AcDbEntity
  8
レイヤー_1
  6
CONTINUOUS
 62
       3
100
AcDbLine
 10
-79.04847188
 20
-37.85077274
 30
0.0
 11
-79.21548579
 21
-37.80852239
 31
0.0
  0
LINE
  5
1D7
100
AcDbEntity
  8
レイヤー_1
  6
CONTINUOUS
 62
       3
100
AcDbLine
 10
-79.21548579
 20
-37.80852239
 30
0.0
 11
-79.37575675
 21
-37.75083878
 31
0.0
  0
LINE
  5
1D8
100
AcDbEntity
  8
レイヤー_1
  6
CONTINUOUS
 62
       3
100
AcDbLine
 10
-79.37575675
 20
-37.75083878
 30
0.0
 11
-79.52843677
 21
-37.6785682
 31
0.0
  0
LINE
  5
1D9
100
AcDbEntity
  8
レイヤー_1
  6
CONTINUOUS
 62
       3
100
AcDbLine
 10
-79.52843677
 20
-37.6785682
 30
0.0
 11
-79.67267782
 21
-37.59255694
 31
0.0
  0
LINE
  5
1DA
100
AcDbEntity
  8
レイヤー_1
  6
CONTINUOUS
 62
       3
100
AcDbLine
 10
-79.67267782
 20
-37.59255694
 30
0.0
 11
-79.80763188
 21
-37.49365126
 31
0.0
  0
LINE
  5
1DB
100
AcDbEntity
  8
レイヤー_1
  6
CONTINUOUS
 62
       3
100
AcDbLine
 10
-79.80763188
 20
-37.49365126
 30
0.0
 11
-79.93245095
 21
-37.38269746
 31
0.0
  0
LINE
  5
1DC
100
AcDbEntity
  8
レイヤー_1
  6
CONTINUOUS
 62
       3
100
AcDbLine
 10
-79.93245095
 20
-37.38269746
 30
0.0
 11
-80.046287
 21
-37.26054181
 31
0.0
  0
LINE
  5
1DD
100
AcDbEntity
  8
レイヤー_1
  6
CONTINUOUS
 62
       3
100
AcDbLine
 10
-80.046287
 20
-37.26054181
 30
0.0
 11
-80.14829202
 21
-37.12803059
 31
0.0
  0
LINE
  5
1DE
100
AcDbEntity
  8
レイヤー_1
  6
CONTINUOUS
 62
       3
100
AcDbLine
 10
-80.14829202
 20
-37.12803059
 30
0.0
 11
-80.237618
 21
-36.98601009
 31
0.0
  0
LINE
  5
1DF
100
AcDbEntity
  8
レイヤー_1
  6
CONTINUOUS
 62
       3
100
AcDbLine
 10
-80.237618
 20
-36.98601009
 30
0.0
 11
-80.31341692
 21
-36.83532659
 31
0.0
  0
LINE
  5
1E0
100
AcDbEntity
  8
レイヤー_1
  6
CONTINUOUS
 62
       3
100
AcDbLine
 10
-80.31341692
 20
-36.83532659
 30
0.0
 11
-80.37484076
 21
-36.67682637
 31
0.0
  0
LINE
  5
1E1
100
AcDbEntity
  8
レイヤー_1
  6
CONTINUOUS
 62
       3
100
AcDbLine
 10
-80.37484076
 20
-36.67682637
 30
0.0
 11
-80.4210415
 21
-36.5113557
 31
0.0
  0
LINE
  5
1E2
100
AcDbEntity
  8
レイヤー_1
  6
CONTINUOUS
 62
       3
100
AcDbLine
 10
-80.4210415
 20
-36.5113557
 30
0.0
 11
-80.45117115
 21
-36.33976088
 31
0.0
  0
LINE
  5
1E3
100
AcDbEntity
  8
レイヤー_1
  6
CONTINUOUS
 62
       3
100
AcDbLine
 10
-80.45117115
 20
-36.33976088
 30
0.0
 11
-80.46438166
 21
-36.16288818
 31
0.0
  0
LINE
  5
1E4
100
AcDbEntity
  8
レイヤー_1
  6
CONTINUOUS
 62
       3
100
AcDbLine
 10
-80.46438166
 20
-36.16288818
 30
0.0
 11
-80.4599443
 21
-35.98403769
 31
0.0
  0
LINE
  5
1E5
100
AcDbEntity
  8
レイヤー_1
  6
CONTINUOUS
 62
       3
100
AcDbLine
 10
-80.4599443
 20
-35.98403769
 30
0.0
 11
-80.43816821
 21
-35.80978764
 31
0.0
  0
LINE
  5
1E6
100
AcDbEntity
  8
レイヤー_1
  6
CONTINUOUS
 62
       3
100
AcDbLine
 10
-80.43816821
 20
-35.80978764
 30
0.0
 11
-80.39989702
 21
-35.6412205
 31
0.0
  0
LINE
  5
1E7
100
AcDbEntity
  8
レイヤー_1
  6
CONTINUOUS
 62
       3
100
AcDbLine
 10
-80.39989702
 20
-35.6412205
 30
0.0
 11
-80.34597872
 21
-35.47918429
 31
0.0
  0
LINE
  5
1E8
100
AcDbEntity
  8
レイヤー_1
  6
CONTINUOUS
 62
       3
100
AcDbLine
 10
-80.34597872
 20
-35.47918429
 30
0.0
 11
-80.27726134
 21
-35.32452704
 31
0.0
  0
LINE
  5
1E9
100
AcDbEntity
  8
レイヤー_1
  6
CONTINUOUS
 62
       3
100
AcDbLine
 10
-80.27726134
 20
-35.32452704
 30
0.0
 11
-80.19459289
 21
-35.17809675
 31
0.0
  0
LINE
  5
1EA
100
AcDbEntity
  8
レイヤー_1
  6
CONTINUOUS
 62
       3
100
AcDbLine
 10
-80.19459289
 20
-35.17809675
 30
0.0
 11
-80.09882139
 21
-35.04074143
 31
0.0
  0
LINE
  5
1EB
100
AcDbEntity
  8
レイヤー_1
  6
CONTINUOUS
 62
       3
100
AcDbLine
 10
-80.09882139
 20
-35.04074143
 30
0.0
 11
-79.99079485
 21
-34.91330912
 31
0.0
  0
LINE
  5
1EC
100
AcDbEntity
  8
レイヤー_1
  6
CONTINUOUS
 62
       3
100
AcDbLine
 10
-79.99079485
 20
-34.91330912
 30
0.0
 11
-79.87136129
 21
-34.79664781
 31
0.0
  0
LINE
  5
1ED
100
AcDbEntity
  8
レイヤー_1
  6
CONTINUOUS
 62
       3
100
AcDbLine
 10
-79.87136129
 20
-34.79664781
 30
0.0
 11
-79.74136873
 21
-34.69160553
 31
0.0
  0
LINE
  5
1EE
100
AcDbEntity
  8
レイヤー_1
  6
CONTINUOUS
 62
       3
100
AcDbLine
 10
-79.74136873
 20
-34.69160553
 30
0.0
 11
-79.60166517
 21
-34.59903029
 31
0.0
  0
LINE
  5
1EF
100
AcDbEntity
  8
レイヤー_1
  6
CONTINUOUS
 62
       3
100
AcDbLine
 10
-79.60166517
 20
-34.59903029
 30
0.0
 11
-79.45309863
 21
-34.51977011
 31
0.0
  0
LINE
  5
1F0
100
AcDbEntity
  8
レイヤー_1
  6
CONTINUOUS
 62
       3
100
AcDbLine
 10
-79.45309863
 20
-34.51977011
 30
0.0
 11
-79.29651714
 21
-34.454673
 31
0.0
  0
LINE
  5
1F1
100
AcDbEntity
  8
レイヤー_1
  6
CONTINUOUS
 62
       3
100
AcDbLine
 10
-79.29651714
 20
-34.454673
 30
0.0
 11
-79.1327687
 21
-34.40458697
 31
0.0
  0
LINE
  5
1F2
100
AcDbEntity
  8
レイヤー_1
  6
CONTINUOUS
 62
       3
100
AcDbLine
 10
-79.1327687
 20
-34.40458697
 30
0.0
 11
-78.96270133
 21
-34.37036006
 31
0.0
  0
LINE
  5
1F3
100
AcDbEntity
  8
レイヤー_1
  6
CONTINUOUS
 62
       3
100
AcDbLine
 10
-78.96270133
 20
-34.37036006
 30
0.0
 11
-78.78716305
 21
-34.35284025
 31
0.0
  0
LINE
  5
1F4
100
AcDbEntity
  8
レイヤー_1
  6
CONTINUOUS
 62
       3
100
AcDbLine
 10
-78.78716305
 20
-34.35284025
 30
0.0
 11
-78.60805245
 21
-34.35284025
 31
0.0
  0
LINE
  5
1F5
100
AcDbEntity
  8
レイヤー_1
  6
CONTINUOUS
 62
       3
100
AcDbLine
 10
-78.60805245
 20
-34.35284025
 30
0.0
 11
-78.43252075
 21
-34.37036006
 31
0.0
  0
LINE
  5
1F6
100
AcDbEntity
  8
レイヤー_1
  6
CONTINUOUS
 62
       3
100
AcDbLine
 10
-78.43252075
 20
-34.37036006
 30
0.0
 11
-78.2624657
 21
-34.40458697
 31
0.0
  0
LINE
  5
1F7
100
AcDbEntity
  8
レイヤー_1
  6
CONTINUOUS
 62
       3
100
AcDbLine
 10
-78.2624657
 20
-34.40458697
 30
0.0
 11
-78.09873446
 21
-34.454673
 31
0.0
  0
LINE
  5
1F8
100
AcDbEntity
  8
レイヤー_1
  6
CONTINUOUS
 62
       3
100
AcDbLine
 10
-78.09873446
 20
-34.454673
 30
0.0
 11
-77.94217417
 21
-34.51977011
 31
0.0
  0
LINE
  5
1F9
100
AcDbEntity
  8
レイヤー_1
  6
CONTINUOUS
 62
       3
100
AcDbLine
 10
-77.94217417
 20
-34.51977011
 30
0.0
 11
-77.79363199
 21
-34.59903029
 31
0.0
  0
LINE
  5
1FA
100
AcDbEntity
  8
レイヤー_1
  6
CONTINUOUS
 62
       3
100
AcDbLine
 10
-77.79363199
 20
-34.59903029
 30
0.0
 11
-77.65395505
 21
-34.69160553
 31
0.0
  0
LINE
  5
1FB
100
AcDbEntity
  8
レイヤー_1
  6
CONTINUOUS
 62
       3
100
AcDbLine
 10
-77.65395505
 20
-34.69160553
 30
0.0
 11
-77.52399052
 21
-34.79664781
 31
0.0
  0
LINE
  5
1FC
100
AcDbEntity
  8
レイヤー_1
  6
CONTINUOUS
 62
       3
100
AcDbLine
 10
-77.52399052
 20
-34.79664781
 30
0.0
 11
-77.40458554
 21
-34.91330912
 31
0.0
  0
LINE
  5
1FD
100
AcDbEntity
  8
レイヤー_1
  6
CONTINUOUS
 62
       3
100
AcDbLine
 10
-77.40458554
 20
-34.91330912
 30
0.0
 11
-77.29658725
 21
-35.04074143
 31
0.0
  0
LINE
  5
1FE
100
AcDbEntity
  8
レイヤー_1
  6
CONTINUOUS
 62
       3
100
AcDbLine
 10
-77.29658725
 20
-35.04074143
 30
0.0
 11
-77.20084281
 21
-35.17809675
 31
0.0
  0
LINE
  5
1FF
100
AcDbEntity
  8
レイヤー_1
  6
CONTINUOUS
 62
       3
100
AcDbLine
 10
-77.20084281
 20
-35.17809675
 30
0.0
 11
-77.11819937
 21
-35.32452704
 31
0.0
  0
LINE
  5
200
100
AcDbEntity
  8
レイヤー_1
  6
CONTINUOUS
 62
       3
100
AcDbLine
 10
-77.11819937
 20
-35.32452704
 30
0.0
 11
-77.04950406
 21
-35.47918429
 31
0.0
  0
LINE
  5
201
100
AcDbEntity
  8
レイヤー_1
  6
CONTINUOUS
 62
       3
100
AcDbLine
 10
-77.04950406
 20
-35.47918429
 30
0.0
 11
-76.99560405
 21
-35.6412205
 31
0.0
  0
LINE
  5
202
100
AcDbEntity
  8
レイヤー_1
  6
CONTINUOUS
 62
       3
100
AcDbLine
 10
-76.99560405
 20
-35.6412205
 30
0.0
 11
-76.95734647
 21
-35.80978764
 31
0.0
  0
LINE
  5
203
100
AcDbEntity
  8
レイヤー_1
  6
CONTINUOUS
 62
       3
100
AcDbLine
 10
-76.95734647
 20
-35.80978764
 30
0.0
 11
-76.93557848
 21
-35.98403769
 31
0.0
  0
LINE
  5
204
100
AcDbEntity
  8
レイヤー_1
  6
CONTINUOUS
 62
       3
100
AcDbLine
 10
-76.93557848
 20
-35.98403769
 30
0.0
 11
-76.93114282
 21
-36.16288818
 31
0.0
  0
LINE
  5
205
100
AcDbEntity
  8
レイヤー_1
  6
CONTINUOUS
 62
       3
100
AcDbLine
 10
-76.93114282
 20
-36.16288818
 30
0.0
 11
-76.94434833
 21
-36.33976088
 31
0.0
  0
LINE
  5
206
100
AcDbEntity
  8
レイヤー_1
  6
CONTINUOUS
 62
       3
100
AcDbLine
 10
-76.94434833
 20
-36.33976088
 30
0.0
 11
-76.97446701
 21
-36.5113557
 31
0.0
  0
LINE
  5
207
100
AcDbEntity
  8
レイヤー_1
  6
CONTINUOUS
 62
       3
100
AcDbLine
 10
-76.97446701
 20
-36.5113557
 30
0.0
 11
-77.02065169
 21
-36.67682637
 31
0.0
  0
LINE
  5
208
100
AcDbEntity
  8
レイヤー_1
  6
CONTINUOUS
 62
       3
100
AcDbLine
 10
-77.02065169
 20
-36.67682637
 30
0.0
 11
-77.08205525
 21
-36.83532659
 31
0.0
  0
LINE
  5
209
100
AcDbEntity
  8
レイヤー_1
  6
CONTINUOUS
 62
       3
100
AcDbLine
 10
-77.08205525
 20
-36.83532659
 30
0.0
 11
-77.15783052
 21
-36.98601009
 31
0.0
  0
LINE
  5
20A
100
AcDbEntity
  8
レイヤー_1
  6
CONTINUOUS
 62
       3
100
AcDbLine
 10
-77.15783052
 20
-36.98601009
 30
0.0
 11
-77.24713036
 21
-37.12803059
 31
0.0
  0
LINE
  5
20B
100
AcDbEntity
  8
レイヤー_1
  6
CONTINUOUS
 62
       3
100
AcDbLine
 10
-77.24713036
 20
-37.12803059
 30
0.0
 11
-77.34910761
 21
-37.26054181
 31
0.0
  0
LINE
  5
20C
100
AcDbEntity
  8
レイヤー_1
  6
CONTINUOUS
 62
       3
100
AcDbLine
 10
-77.34910761
 20
-37.26054181
 30
0.0
 11
-77.46291514
 21
-37.38269746
 31
0.0
  0
LINE
  5
20D
100
AcDbEntity
  8
レイヤー_1
  6
CONTINUOUS
 62
       3
100
AcDbLine
 10
-77.46291514
 20
-37.38269746
 30
0.0
 11
-77.58770579
 21
-37.49365126
 31
0.0
  0
LINE
  5
20E
100
AcDbEntity
  8
レイヤー_1
  6
CONTINUOUS
 62
       3
100
AcDbLine
 10
-77.58770579
 20
-37.49365126
 30
0.0
 11
-77.72263242
 21
-37.59255694
 31
0.0
  0
LINE
  5
20F
100
AcDbEntity
  8
レイヤー_1
  6
CONTINUOUS
 62
       3
100
AcDbLine
 10
-77.72263242
 20
-37.59255694
 30
0.0
 11
-77.86684787
 21
-37.6785682
 31
0.0
  0
LINE
  5
210
100
AcDbEntity
  8
レイヤー_1
  6
CONTINUOUS
 62
       3
100
AcDbLine
 10
-77.86684787
 20
-37.6785682
 30
0.0
 11
-78.019505
 21
-37.75083878
 31
0.0
  0
LINE
  5
211
100
AcDbEntity
  8
レイヤー_1
  6
CONTINUOUS
 62
       3
100
AcDbLine
 10
-78.019505
 20
-37.75083878
 30
0.0
 11
-78.17975665
 21
-37.80852239
 31
0.0
  0
LINE
  5
212
100
AcDbEntity
  8
レイヤー_1
  6
CONTINUOUS
 62
       3
100
AcDbLine
 10
-78.17975665
 20
-37.80852239
 30
0.0
 11
-78.34675569
 21
-37.85077274
 31
0.0
  0
LINE
  5
213
100
AcDbEntity
  8
レイヤー_1
  6
CONTINUOUS
 62
       3
100
AcDbLine
 10
-78.34675569
 20
-37.85077274
 30
0.0
 11
-78.51965496
 21
-37.87674355
 31
0.0
  0
LINE
  5
214
100
AcDbEntity
  8
レイヤー_1
  6
CONTINUOUS
 62
       3
100
AcDbLine
 10
-78.51965496
 20
-37.87674355
 30
0.0
 11
-78.69760732
 21
-37.88558856
 31
0.0
  0
LINE
  5
215
100
AcDbEntity
  8
レイヤー_1
  6
CONTINUOUS
 62
       3
100
AcDbLine
 10
-73.63218007
 20
-37.88558856
 30
0.0
 11
-73.81024339
 21
-37.87674355
 31
0.0
  0
LINE
  5
216
100
AcDbEntity
  8
レイヤー_1
  6
CONTINUOUS
 62
       3
100
AcDbLine
 10
-73.81024339
 20
-37.87674355
 30
0.0
 11
-73.98324658
 21
-37.85077274
 31
0.0
  0
LINE
  5
217
100
AcDbEntity
  8
レイヤー_1
  6
CONTINUOUS
 62
       3
100
AcDbLine
 10
-73.98324658
 20
-37.85077274
 30
0.0
 11
-74.15034249
 21
-37.80852239
 31
0.0
  0
LINE
  5
218
100
AcDbEntity
  8
レイヤー_1
  6
CONTINUOUS
 62
       3
100
AcDbLine
 10
-74.15034249
 20
-37.80852239
 30
0.0
 11
-74.31068397
 21
-37.75083878
 31
0.0
  0
LINE
  5
219
100
AcDbEntity
  8
レイヤー_1
  6
CONTINUOUS
 62
       3
100
AcDbLine
 10
-74.31068397
 20
-37.75083878
 30
0.0
 11
-74.46342388
 21
-37.6785682
 31
0.0
  0
LINE
  5
21A
100
AcDbEntity
  8
レイヤー_1
  6
CONTINUOUS
 62
       3
100
AcDbLine
 10
-74.46342388
 20
-37.6785682
 30
0.0
 11
-74.60771506
 21
-37.59255694
 31
0.0
  0
LINE
  5
21B
100
AcDbEntity
  8
レイヤー_1
  6
CONTINUOUS
 62
       3
100
AcDbLine
 10
-74.60771506
 20
-37.59255694
 30
0.0
 11
-74.74271038
 21
-37.49365126
 31
0.0
  0
LINE
  5
21C
100
AcDbEntity
  8
レイヤー_1
  6
CONTINUOUS
 62
       3
100
AcDbLine
 10
-74.74271038
 20
-37.49365126
 30
0.0
 11
-74.86756267
 21
-37.38269746
 31
0.0
  0
LINE
  5
21D
100
AcDbEntity
  8
レイヤー_1
  6
CONTINUOUS
 62
       3
100
AcDbLine
 10
-74.86756267
 20
-37.38269746
 30
0.0
 11
-74.9814248
 21
-37.26054181
 31
0.0
  0
LINE
  5
21E
100
AcDbEntity
  8
レイヤー_1
  6
CONTINUOUS
 62
       3
100
AcDbLine
 10
-74.9814248
 20
-37.26054181
 30
0.0
 11
-75.08344961
 21
-37.12803059
 31
0.0
  0
LINE
  5
21F
100
AcDbEntity
  8
レイヤー_1
  6
CONTINUOUS
 62
       3
100
AcDbLine
 10
-75.08344961
 20
-37.12803059
 30
0.0
 11
-75.17278996
 21
-36.98601009
 31
0.0
  0
LINE
  5
220
100
AcDbEntity
  8
レイヤー_1
  6
CONTINUOUS
 62
       3
100
AcDbLine
 10
-75.17278996
 20
-36.98601009
 30
0.0
 11
-75.2485987
 21
-36.83532659
 31
0.0
  0
LINE
  5
221
100
AcDbEntity
  8
レイヤー_1
  6
CONTINUOUS
 62
       3
100
AcDbLine
 10
-75.2485987
 20
-36.83532659
 30
0.0
 11
-75.31002867
 21
-36.67682637
 31
0.0
  0
LINE
  5
222
100
AcDbEntity
  8
レイヤー_1
  6
CONTINUOUS
 62
       3
100
AcDbLine
 10
-75.31002867
 20
-36.67682637
 30
0.0
 11
-75.35623273
 21
-36.5113557
 31
0.0
  0
LINE
  5
223
100
AcDbEntity
  8
レイヤー_1
  6
CONTINUOUS
 62
       3
100
AcDbLine
 10
-75.35623273
 20
-36.5113557
 30
0.0
 11
-75.38636374
 21
-36.33976088
 31
0.0
  0
LINE
  5
224
100
AcDbEntity
  8
レイヤー_1
  6
CONTINUOUS
 62
       3
100
AcDbLine
 10
-75.38636374
 20
-36.33976088
 30
0.0
 11
-75.39957453
 21
-36.16288818
 31
0.0
  0
LINE
  5
225
100
AcDbEntity
  8
レイヤー_1
  6
CONTINUOUS
 62
       3
100
AcDbLine
 10
-75.39957453
 20
-36.16288818
 30
0.0
 11
-75.39513711
 21
-35.98403769
 31
0.0
  0
LINE
  5
226
100
AcDbEntity
  8
レイヤー_1
  6
CONTINUOUS
 62
       3
100
AcDbLine
 10
-75.39513711
 20
-35.98403769
 30
0.0
 11
-75.37336031
 21
-35.80978764
 31
0.0
  0
LINE
  5
227
100
AcDbEntity
  8
レイヤー_1
  6
CONTINUOUS
 62
       3
100
AcDbLine
 10
-75.37336031
 20
-35.80978764
 30
0.0
 11
-75.33508688
 21
-35.6412205
 31
0.0
  0
LINE
  5
228
100
AcDbEntity
  8
レイヤー_1
  6
CONTINUOUS
 62
       3
100
AcDbLine
 10
-75.33508688
 20
-35.6412205
 30
0.0
 11
-75.28116397
 21
-35.47918429
 31
0.0
  0
LINE
  5
229
100
AcDbEntity
  8
レイヤー_1
  6
CONTINUOUS
 62
       3
100
AcDbLine
 10
-75.28116397
 20
-35.47918429
 30
0.0
 11
-75.21243873
 21
-35.32452704
 31
0.0
  0
LINE
  5
22A
100
AcDbEntity
  8
レイヤー_1
  6
CONTINUOUS
 62
       3
100
AcDbLine
 10
-75.21243873
 20
-35.32452704
 30
0.0
 11
-75.12975829
 21
-35.17809675
 31
0.0
  0
LINE
  5
22B
100
AcDbEntity
  8
レイヤー_1
  6
CONTINUOUS
 62
       3
100
AcDbLine
 10
-75.12975829
 20
-35.17809675
 30
0.0
 11
-75.03396982
 21
-35.04074143
 31
0.0
  0
LINE
  5
22C
100
AcDbEntity
  8
レイヤー_1
  6
CONTINUOUS
 62
       3
100
AcDbLine
 10
-75.03396982
 20
-35.04074143
 30
0.0
 11
-74.92592046
 21
-34.91330912
 31
0.0
  0
LINE
  5
22D
100
AcDbEntity
  8
レイヤー_1
  6
CONTINUOUS
 62
       3
100
AcDbLine
 10
-74.92592046
 20
-34.91330912
 30
0.0
 11
-74.80645735
 21
-34.79664781
 31
0.0
  0
LINE
  5
22E
100
AcDbEntity
  8
レイヤー_1
  6
CONTINUOUS
 62
       3
100
AcDbLine
 10
-74.80645735
 20
-34.79664781
 30
0.0
 11
-74.67642765
 21
-34.69160553
 31
0.0
  0
LINE
  5
22F
100
AcDbEntity
  8
レイヤー_1
  6
CONTINUOUS
 62
       3
100
AcDbLine
 10
-74.67642765
 20
-34.69160553
 30
0.0
 11
-74.53667851
 21
-34.59903029
 31
0.0
  0
LINE
  5
230
100
AcDbEntity
  8
レイヤー_1
  6
CONTINUOUS
 62
       3
100
AcDbLine
 10
-74.53667851
 20
-34.59903029
 30
0.0
 11
-74.38805707
 21
-34.51977011
 31
0.0
  0
LINE
  5
231
100
AcDbEntity
  8
レイヤー_1
  6
CONTINUOUS
 62
       3
100
AcDbLine
 10
-74.38805707
 20
-34.51977011
 30
0.0
 11
-74.23141048
 21
-34.454673
 31
0.0
  0
LINE
  5
232
100
AcDbEntity
  8
レイヤー_1
  6
CONTINUOUS
 62
       3
100
AcDbLine
 10
-74.23141048
 20
-34.454673
 30
0.0
 11
-74.06758589
 21
-34.40458697
 31
0.0
  0
LINE
  5
233
100
AcDbEntity
  8
レイヤー_1
  6
CONTINUOUS
 62
       3
100
AcDbLine
 10
-74.06758589
 20
-34.40458697
 30
0.0
 11
-73.89743045
 21
-34.37036006
 31
0.0
  0
LINE
  5
234
100
AcDbEntity
  8
レイヤー_1
  6
CONTINUOUS
 62
       3
100
AcDbLine
 10
-73.89743045
 20
-34.37036006
 30
0.0
 11
-73.7217913
 21
-34.35284025
 31
0.0
  0
LINE
  5
235
100
AcDbEntity
  8
レイヤー_1
  6
CONTINUOUS
 62
       3
100
AcDbLine
 10
-73.7217913
 20
-34.35284025
 30
0.0
 11
-73.54262521
 21
-34.35284025
 31
0.0
  0
LINE
  5
236
100
AcDbEntity
  8
レイヤー_1
  6
CONTINUOUS
 62
       3
100
AcDbLine
 10
-73.54262521
 20
-34.35284025
 30
0.0
 11
-73.3670935
 21
-34.37036006
 31
0.0
  0
LINE
  5
237
100
AcDbEntity
  8
レイヤー_1
  6
CONTINUOUS
 62
       3
100
AcDbLine
 10
-73.3670935
 20
-34.37036006
 30
0.0
 11
-73.19703845
 21
-34.40458697
 31
0.0
  0
LINE
  5
238
100
AcDbEntity
  8
レイヤー_1
  6
CONTINUOUS
 62
       3
100
AcDbLine
 10
-73.19703845
 20
-34.40458697
 30
0.0
 11
-73.03330721
 21
-34.454673
 31
0.0
  0
LINE
  5
239
100
AcDbEntity
  8
レイヤー_1
  6
CONTINUOUS
 62
       3
100
AcDbLine
 10
-73.03330721
 20
-34.454673
 30
0.0
 11
-72.87674692
 21
-34.51977011
 31
0.0
  0
LINE
  5
23A
100
AcDbEntity
  8
レイヤー_1
  6
CONTINUOUS
 62
       3
100
AcDbLine
 10
-72.87674692
 20
-34.51977011
 30
0.0
 11
-72.72820474
 21
-34.59903029
 31
0.0
  0
LINE
  5
23B
100
AcDbEntity
  8
レイヤー_1
  6
CONTINUOUS
 62
       3
100
AcDbLine
 10
-72.72820474
 20
-34.59903029
 30
0.0
 11
-72.58852781
 21
-34.69160553
 31
0.0
  0
LINE
  5
23C
100
AcDbEntity
  8
レイヤー_1
  6
CONTINUOUS
 62
       3
100
AcDbLine
 10
-72.58852781
 20
-34.69160553
 30
0.0
 11
-72.45856328
 21
-34.79664781
 31
0.0
  0
LINE
  5
23D
100
AcDbEntity
  8
レイヤー_1
  6
CONTINUOUS
 62
       3
100
AcDbLine
 10
-72.45856328
 20
-34.79664781
 30
0.0
 11
-72.33915829
 21
-34.91330912
 31
0.0
  0
LINE
  5
23E
100
AcDbEntity
  8
レイヤー_1
  6
CONTINUOUS
 62
       3
100
AcDbLine
 10
-72.33915829
 20
-34.91330912
 30
0.0
 11
-72.23116001
 21
-35.04074143
 31
0.0
  0
LINE
  5
23F
100
AcDbEntity
  8
レイヤー_1
  6
CONTINUOUS
 62
       3
100
AcDbLine
 10
-72.23116001
 20
-35.04074143
 30
0.0
 11
-72.13541557
 21
-35.17809675
 31
0.0
  0
LINE
  5
240
100
AcDbEntity
  8
レイヤー_1
  6
CONTINUOUS
 62
       3
100
AcDbLine
 10
-72.13541557
 20
-35.17809675
 30
0.0
 11
-72.05277212
 21
-35.32452704
 31
0.0
  0
LINE
  5
241
100
AcDbEntity
  8
レイヤー_1
  6
CONTINUOUS
 62
       3
100
AcDbLine
 10
-72.05277212
 20
-35.32452704
 30
0.0
 11
-71.98407682
 21
-35.47918429
 31
0.0
  0
LINE
  5
242
100
AcDbEntity
  8
レイヤー_1
  6
CONTINUOUS
 62
       3
100
AcDbLine
 10
-71.98407682
 20
-35.47918429
 30
0.0
 11
-71.9301768
 21
-35.6412205
 31
0.0
  0
LINE
  5
243
100
AcDbEntity
  8
レイヤー_1
  6
CONTINUOUS
 62
       3
100
AcDbLine
 10
-71.9301768
 20
-35.6412205
 30
0.0
 11
-71.89191922
 21
-35.80978764
 31
0.0
  0
LINE
  5
244
100
AcDbEntity
  8
レイヤー_1
  6
CONTINUOUS
 62
       3
100
AcDbLine
 10
-71.89191922
 20
-35.80978764
 30
0.0
 11
-71.87015124
 21
-35.98403769
 31
0.0
  0
LINE
  5
245
100
AcDbEntity
  8
レイヤー_1
  6
CONTINUOUS
 62
       3
100
AcDbLine
 10
-71.87015124
 20
-35.98403769
 30
0.0
 11
-71.86571557
 21
-36.16288818
 31
0.0
  0
LINE
  5
246
100
AcDbEntity
  8
レイヤー_1
  6
CONTINUOUS
 62
       3
100
AcDbLine
 10
-71.86571557
 20
-36.16288818
 30
0.0
 11
-71.87892109
 21
-36.33976088
 31
0.0
  0
LINE
  5
247
100
AcDbEntity
  8
レイヤー_1
  6
CONTINUOUS
 62
       3
100
AcDbLine
 10
-71.87892109
 20
-36.33976088
 30
0.0
 11
-71.90903976
 21
-36.5113557
 31
0.0
  0
LINE
  5
248
100
AcDbEntity
  8
レイヤー_1
  6
CONTINUOUS
 62
       3
100
AcDbLine
 10
-71.90903976
 20
-36.5113557
 30
0.0
 11
-71.95522445
 21
-36.67682637
 31
0.0
  0
LINE
  5
249
100
AcDbEntity
  8
レイヤー_1
  6
CONTINUOUS
 62
       3
100
AcDbLine
 10
-71.95522445
 20
-36.67682637
 30
0.0
 11
-72.016628
 21
-36.83532659
 31
0.0
  0
LINE
  5
24A
100
AcDbEntity
  8
レイヤー_1
  6
CONTINUOUS
 62
       3
100
AcDbLine
 10
-72.016628
 20
-36.83532659
 30
0.0
 11
-72.09240327
 21
-36.98601009
 31
0.0
  0
LINE
  5
24B
100
AcDbEntity
  8
レイヤー_1
  6
CONTINUOUS
 62
       3
100
AcDbLine
 10
-72.09240327
 20
-36.98601009
 30
0.0
 11
-72.18170311
 21
-37.12803059
 31
0.0
  0
LINE
  5
24C
100
AcDbEntity
  8
レイヤー_1
  6
CONTINUOUS
 62
       3
100
AcDbLine
 10
-72.18170311
 20
-37.12803059
 30
0.0
 11
-72.28368037
 21
-37.26054181
 31
0.0
  0
LINE
  5
24D
100
AcDbEntity
  8
レイヤー_1
  6
CONTINUOUS
 62
       3
100
AcDbLine
 10
-72.28368037
 20
-37.26054181
 30
0.0
 11
-72.3974879
 21
-37.38269746
 31
0.0
  0
LINE
  5
24E
100
AcDbEntity
  8
レイヤー_1
  6
CONTINUOUS
 62
       3
100
AcDbLine
 10
-72.3974879
 20
-37.38269746
 30
0.0
 11
-72.52227855
 21
-37.49365126
 31
0.0
  0
LINE
  5
24F
100
AcDbEntity
  8
レイヤー_1
  6
CONTINUOUS
 62
       3
100
AcDbLine
 10
-72.52227855
 20
-37.49365126
 30
0.0
 11
-72.65720517
 21
-37.59255694
 31
0.0
  0
LINE
  5
250
100
AcDbEntity
  8
レイヤー_1
  6
CONTINUOUS
 62
       3
100
AcDbLine
 10
-72.65720517
 20
-37.59255694
 30
0.0
 11
-72.80142062
 21
-37.6785682
 31
0.0
  0
LINE
  5
251
100
AcDbEntity
  8
レイヤー_1
  6
CONTINUOUS
 62
       3
100
AcDbLine
 10
-72.80142062
 20
-37.6785682
 30
0.0
 11
-72.95407775
 21
-37.75083878
 31
0.0
  0
LINE
  5
252
100
AcDbEntity
  8
レイヤー_1
  6
CONTINUOUS
 62
       3
100
AcDbLine
 10
-72.95407775
 20
-37.75083878
 30
0.0
 11
-73.11432941
 21
-37.80852239
 31
0.0
  0
LINE
  5
253
100
AcDbEntity
  8
レイヤー_1
  6
CONTINUOUS
 62
       3
100
AcDbLine
 10
-73.11432941
 20
-37.80852239
 30
0.0
 11
-73.28132845
 21
-37.85077274
 31
0.0
  0
LINE
  5
254
100
AcDbEntity
  8
レイヤー_1
  6
CONTINUOUS
 62
       3
100
AcDbLine
 10
-73.28132845
 20
-37.85077274
 30
0.0
 11
-73.45422772
 21
-37.87674355
 31
0.0
  0
LINE
  5
255
100
AcDbEntity
  8
レイヤー_1
  6
CONTINUOUS
 62
       3
100
AcDbLine
 10
-73.45422772
 20
-37.87674355
 30
0.0
 11
-73.63218007
 21
-37.88558856
 31
0.0
  0
LINE
  5
256
100
AcDbEntity
  8
レイヤー_1
  6
CONTINUOUS
 62
       3
100
AcDbLine
 10
-78.69760732
 20
-47.84684099
 30
0.0
 11
-78.87556305
 21
-47.83799283
 31
0.0
  0
LINE
  5
257
100
AcDbEntity
  8
レイヤー_1
  6
CONTINUOUS
 62
       3
100
AcDbLine
 10
-78.87556305
 20
-47.83799283
 30
0.0
 11
-79.04847188
 21
-47.81201398
 31
0.0
  0
LINE
  5
258
100
AcDbEntity
  8
レイヤー_1
  6
CONTINUOUS
 62
       3
100
AcDbLine
 10
-79.04847188
 20
-47.81201398
 30
0.0
 11
-79.21548579
 21
-47.76975288
 31
0.0
  0
LINE
  5
259
100
AcDbEntity
  8
レイヤー_1
  6
CONTINUOUS
 62
       3
100
AcDbLine
 10
-79.21548579
 20
-47.76975288
 30
0.0
 11
-79.37575675
 21
-47.71205798
 31
0.0
  0
LINE
  5
25A
100
AcDbEntity
  8
レイヤー_1
  6
CONTINUOUS
 62
       3
100
AcDbLine
 10
-79.37575675
 20
-47.71205798
 30
0.0
 11
-79.52843677
 21
-47.63977774
 31
0.0
  0
LINE
  5
25B
100
AcDbEntity
  8
レイヤー_1
  6
CONTINUOUS
 62
       3
100
AcDbLine
 10
-79.52843677
 20
-47.63977774
 30
0.0
 11
-79.67267782
 21
-47.5537606
 31
0.0
  0
LINE
  5
25C
100
AcDbEntity
  8
レイヤー_1
  6
CONTINUOUS
 62
       3
100
AcDbLine
 10
-79.67267782
 20
-47.5537606
 30
0.0
 11
-79.80763188
 21
-47.45485502
 31
0.0
  0
LINE
  5
25D
100
AcDbEntity
  8
レイヤー_1
  6
CONTINUOUS
 62
       3
100
AcDbLine
 10
-79.80763188
 20
-47.45485502
 30
0.0
 11
-79.93245095
 21
-47.34390943
 31
0.0
  0
LINE
  5
25E
100
AcDbEntity
  8
レイヤー_1
  6
CONTINUOUS
 62
       3
100
AcDbLine
 10
-79.93245095
 20
-47.34390943
 30
0.0
 11
-80.046287
 21
-47.2217723
 31
0.0
  0
LINE
  5
25F
100
AcDbEntity
  8
レイヤー_1
  6
CONTINUOUS
 62
       3
100
AcDbLine
 10
-80.046287
 20
-47.2217723
 30
0.0
 11
-80.14829202
 21
-47.08929206
 31
0.0
  0
LINE
  5
260
100
AcDbEntity
  8
レイヤー_1
  6
CONTINUOUS
 62
       3
100
AcDbLine
 10
-80.14829202
 20
-47.08929206
 30
0.0
 11
-80.237618
 21
-46.94731718
 31
0.0
  0
LINE
  5
261
100
AcDbEntity
  8
レイヤー_1
  6
CONTINUOUS
 62
       3
100
AcDbLine
 10
-80.237618
 20
-46.94731718
 30
0.0
 11
-80.31341692
 21
-46.79669609
 31
0.0
  0
LINE
  5
262
100
AcDbEntity
  8
レイヤー_1
  6
CONTINUOUS
 62
       3
100
AcDbLine
 10
-80.31341692
 20
-46.79669609
 30
0.0
 11
-80.37484076
 21
-46.63827724
 31
0.0
  0
LINE
  5
263
100
AcDbEntity
  8
レイヤー_1
  6
CONTINUOUS
 62
       3
100
AcDbLine
 10
-80.37484076
 20
-46.63827724
 30
0.0
 11
-80.4210415
 21
-46.4729091
 31
0.0
  0
LINE
  5
264
100
AcDbEntity
  8
レイヤー_1
  6
CONTINUOUS
 62
       3
100
AcDbLine
 10
-80.4210415
 20
-46.4729091
 30
0.0
 11
-80.45117115
 21
-46.30144009
 31
0.0
  0
LINE
  5
265
100
AcDbEntity
  8
レイヤー_1
  6
CONTINUOUS
 62
       3
100
AcDbLine
 10
-80.45117115
 20
-46.30144009
 30
0.0
 11
-80.46438166
 21
-46.12471868
 31
0.0
  0
LINE
  5
266
100
AcDbEntity
  8
レイヤー_1
  6
CONTINUOUS
 62
       3
100
AcDbLine
 10
-80.46438166
 20
-46.12471868
 30
0.0
 11
-80.4599443
 21
-45.94591025
 31
0.0
  0
LINE
  5
267
100
AcDbEntity
  8
レイヤー_1
  6
CONTINUOUS
 62
       3
100
AcDbLine
 10
-80.4599443
 20
-45.94591025
 30
0.0
 11
-80.43816821
 21
-45.77166019
 31
0.0
  0
LINE
  5
268
100
AcDbEntity
  8
レイヤー_1
  6
CONTINUOUS
 62
       3
100
AcDbLine
 10
-80.43816821
 20
-45.77166019
 30
0.0
 11
-80.39989702
 21
-45.60309305
 31
0.0
  0
LINE
  5
269
100
AcDbEntity
  8
レイヤー_1
  6
CONTINUOUS
 62
       3
100
AcDbLine
 10
-80.39989702
 20
-45.60309305
 30
0.0
 11
-80.34597872
 21
-45.44105685
 31
0.0
  0
LINE
  5
26A
100
AcDbEntity
  8
レイヤー_1
  6
CONTINUOUS
 62
       3
100
AcDbLine
 10
-80.34597872
 20
-45.44105685
 30
0.0
 11
-80.27726134
 21
-45.28639959
 31
0.0
  0
LINE
  5
26B
100
AcDbEntity
  8
レイヤー_1
  6
CONTINUOUS
 62
       3
100
AcDbLine
 10
-80.27726134
 20
-45.28639959
 30
0.0
 11
-80.19459289
 21
-45.1399693
 31
0.0
  0
LINE
  5
26C
100
AcDbEntity
  8
レイヤー_1
  6
CONTINUOUS
 62
       3
100
AcDbLine
 10
-80.19459289
 20
-45.1399693
 30
0.0
 11
-80.09882139
 21
-45.00261399
 31
0.0
  0
LINE
  5
26D
100
AcDbEntity
  8
レイヤー_1
  6
CONTINUOUS
 62
       3
100
AcDbLine
 10
-80.09882139
 20
-45.00261399
 30
0.0
 11
-79.99079485
 21
-44.87518167
 31
0.0
  0
LINE
  5
26E
100
AcDbEntity
  8
レイヤー_1
  6
CONTINUOUS
 62
       3
100
AcDbLine
 10
-79.99079485
 20
-44.87518167
 30
0.0
 11
-79.87136129
 21
-44.75852037
 31
0.0
  0
LINE
  5
26F
100
AcDbEntity
  8
レイヤー_1
  6
CONTINUOUS
 62
       3
100
AcDbLine
 10
-79.87136129
 20
-44.75852037
 30
0.0
 11
-79.74136873
 21
-44.65347809
 31
0.0
  0
LINE
  5
270
100
AcDbEntity
  8
レイヤー_1
  6
CONTINUOUS
 62
       3
100
AcDbLine
 10
-79.74136873
 20
-44.65347809
 30
0.0
 11
-79.60166517
 21
-44.56090285
 31
0.0
  0
LINE
  5
271
100
AcDbEntity
  8
レイヤー_1
  6
CONTINUOUS
 62
       3
100
AcDbLine
 10
-79.60166517
 20
-44.56090285
 30
0.0
 11
-79.45309863
 21
-44.48164266
 31
0.0
  0
LINE
  5
272
100
AcDbEntity
  8
レイヤー_1
  6
CONTINUOUS
 62
       3
100
AcDbLine
 10
-79.45309863
 20
-44.48164266
 30
0.0
 11
-79.29651714
 21
-44.41654555
 31
0.0
  0
LINE
  5
273
100
AcDbEntity
  8
レイヤー_1
  6
CONTINUOUS
 62
       3
100
AcDbLine
 10
-79.29651714
 20
-44.41654555
 30
0.0
 11
-79.1327687
 21
-44.36645953
 31
0.0
  0
LINE
  5
274
100
AcDbEntity
  8
レイヤー_1
  6
CONTINUOUS
 62
       3
100
AcDbLine
 10
-79.1327687
 20
-44.36645953
 30
0.0
 11
-78.96270133
 21
-44.33223261
 31
0.0
  0
LINE
  5
275
100
AcDbEntity
  8
レイヤー_1
  6
CONTINUOUS
 62
       3
100
AcDbLine
 10
-78.96270133
 20
-44.33223261
 30
0.0
 11
-78.78716305
 21
-44.31471281
 31
0.0
  0
LINE
  5
276
100
AcDbEntity
  8
レイヤー_1
  6
CONTINUOUS
 62
       3
100
AcDbLine
 10
-78.78716305
 20
-44.31471281
 30
0.0
 11
-78.60805245
 21
-44.31471281
 31
0.0
  0
LINE
  5
277
100
AcDbEntity
  8
レイヤー_1
  6
CONTINUOUS
 62
       3
100
AcDbLine
 10
-78.60805245
 20
-44.31471281
 30
0.0
 11
-78.43252075
 21
-44.33223261
 31
0.0
  0
LINE
  5
278
100
AcDbEntity
  8
レイヤー_1
  6
CONTINUOUS
 62
       3
100
AcDbLine
 10
-78.43252075
 20
-44.33223261
 30
0.0
 11
-78.2624657
 21
-44.36645953
 31
0.0
  0
LINE
  5
279
100
AcDbEntity
  8
レイヤー_1
  6
CONTINUOUS
 62
       3
100
AcDbLine
 10
-78.2624657
 20
-44.36645953
 30
0.0
 11
-78.09873446
 21
-44.41654555
 31
0.0
  0
LINE
  5
27A
100
AcDbEntity
  8
レイヤー_1
  6
CONTINUOUS
 62
       3
100
AcDbLine
 10
-78.09873446
 20
-44.41654555
 30
0.0
 11
-77.94217417
 21
-44.48164266
 31
0.0
  0
LINE
  5
27B
100
AcDbEntity
  8
レイヤー_1
  6
CONTINUOUS
 62
       3
100
AcDbLine
 10
-77.94217417
 20
-44.48164266
 30
0.0
 11
-77.79363199
 21
-44.56090285
 31
0.0
  0
LINE
  5
27C
100
AcDbEntity
  8
レイヤー_1
  6
CONTINUOUS
 62
       3
100
AcDbLine
 10
-77.79363199
 20
-44.56090285
 30
0.0
 11
-77.65395505
 21
-44.65347809
 31
0.0
  0
LINE
  5
27D
100
AcDbEntity
  8
レイヤー_1
  6
CONTINUOUS
 62
       3
100
AcDbLine
 10
-77.65395505
 20
-44.65347809
 30
0.0
 11
-77.52399052
 21
-44.75852037
 31
0.0
  0
LINE
  5
27E
100
AcDbEntity
  8
レイヤー_1
  6
CONTINUOUS
 62
       3
100
AcDbLine
 10
-77.52399052
 20
-44.75852037
 30
0.0
 11
-77.40458554
 21
-44.87518167
 31
0.0
  0
LINE
  5
27F
100
AcDbEntity
  8
レイヤー_1
  6
CONTINUOUS
 62
       3
100
AcDbLine
 10
-77.40458554
 20
-44.87518167
 30
0.0
 11
-77.29658725
 21
-45.00261399
 31
0.0
  0
LINE
  5
280
100
AcDbEntity
  8
レイヤー_1
  6
CONTINUOUS
 62
       3
100
AcDbLine
 10
-77.29658725
 20
-45.00261399
 30
0.0
 11
-77.20084281
 21
-45.1399693
 31
0.0
  0
LINE
  5
281
100
AcDbEntity
  8
レイヤー_1
  6
CONTINUOUS
 62
       3
100
AcDbLine
 10
-77.20084281
 20
-45.1399693
 30
0.0
 11
-77.11819937
 21
-45.28639959
 31
0.0
  0
LINE
  5
282
100
AcDbEntity
  8
レイヤー_1
  6
CONTINUOUS
 62
       3
100
AcDbLine
 10
-77.11819937
 20
-45.28639959
 30
0.0
 11
-77.04950406
 21
-45.44105685
 31
0.0
  0
LINE
  5
283
100
AcDbEntity
  8
レイヤー_1
  6
CONTINUOUS
 62
       3
100
AcDbLine
 10
-77.04950406
 20
-45.44105685
 30
0.0
 11
-76.99560405
 21
-45.60309305
 31
0.0
  0
LINE
  5
284
100
AcDbEntity
  8
レイヤー_1
  6
CONTINUOUS
 62
       3
100
AcDbLine
 10
-76.99560405
 20
-45.60309305
 30
0.0
 11
-76.95734647
 21
-45.77166019
 31
0.0
  0
LINE
  5
285
100
AcDbEntity
  8
レイヤー_1
  6
CONTINUOUS
 62
       3
100
AcDbLine
 10
-76.95734647
 20
-45.77166019
 30
0.0
 11
-76.93557848
 21
-45.94591025
 31
0.0
  0
LINE
  5
286
100
AcDbEntity
  8
レイヤー_1
  6
CONTINUOUS
 62
       3
100
AcDbLine
 10
-76.93557848
 20
-45.94591025
 30
0.0
 11
-76.93114282
 21
-46.12471868
 31
0.0
  0
LINE
  5
287
100
AcDbEntity
  8
レイヤー_1
  6
CONTINUOUS
 62
       3
100
AcDbLine
 10
-76.93114282
 20
-46.12471868
 30
0.0
 11
-76.94434833
 21
-46.30144009
 31
0.0
  0
LINE
  5
288
100
AcDbEntity
  8
レイヤー_1
  6
CONTINUOUS
 62
       3
100
AcDbLine
 10
-76.94434833
 20
-46.30144009
 30
0.0
 11
-76.97446701
 21
-46.4729091
 31
0.0
  0
LINE
  5
289
100
AcDbEntity
  8
レイヤー_1
  6
CONTINUOUS
 62
       3
100
AcDbLine
 10
-76.97446701
 20
-46.4729091
 30
0.0
 11
-77.02065169
 21
-46.63827724
 31
0.0
  0
LINE
  5
28A
100
AcDbEntity
  8
レイヤー_1
  6
CONTINUOUS
 62
       3
100
AcDbLine
 10
-77.02065169
 20
-46.63827724
 30
0.0
 11
-77.08205525
 21
-46.79669609
 31
0.0
  0
LINE
  5
28B
100
AcDbEntity
  8
レイヤー_1
  6
CONTINUOUS
 62
       3
100
AcDbLine
 10
-77.08205525
 20
-46.79669609
 30
0.0
 11
-77.15783052
 21
-46.94731718
 31
0.0
  0
LINE
  5
28C
100
AcDbEntity
  8
レイヤー_1
  6
CONTINUOUS
 62
       3
100
AcDbLine
 10
-77.15783052
 20
-46.94731718
 30
0.0
 11
-77.24713036
 21
-47.08929206
 31
0.0
  0
LINE
  5
28D
100
AcDbEntity
  8
レイヤー_1
  6
CONTINUOUS
 62
       3
100
AcDbLine
 10
-77.24713036
 20
-47.08929206
 30
0.0
 11
-77.34910761
 21
-47.2217723
 31
0.0
  0
LINE
  5
28E
100
AcDbEntity
  8
レイヤー_1
  6
CONTINUOUS
 62
       3
100
AcDbLine
 10
-77.34910761
 20
-47.2217723
 30
0.0
 11
-77.46291514
 21
-47.34390943
 31
0.0
  0
LINE
  5
28F
100
AcDbEntity
  8
レイヤー_1
  6
CONTINUOUS
 62
       3
100
AcDbLine
 10
-77.46291514
 20
-47.34390943
 30
0.0
 11
-77.58770579
 21
-47.45485502
 31
0.0
  0
LINE
  5
290
100
AcDbEntity
  8
レイヤー_1
  6
CONTINUOUS
 62
       3
100
AcDbLine
 10
-77.58770579
 20
-47.45485502
 30
0.0
 11
-77.72263242
 21
-47.5537606
 31
0.0
  0
LINE
  5
291
100
AcDbEntity
  8
レイヤー_1
  6
CONTINUOUS
 62
       3
100
AcDbLine
 10
-77.72263242
 20
-47.5537606
 30
0.0
 11
-77.86684787
 21
-47.63977774
 31
0.0
  0
LINE
  5
292
100
AcDbEntity
  8
レイヤー_1
  6
CONTINUOUS
 62
       3
100
AcDbLine
 10
-77.86684787
 20
-47.63977774
 30
0.0
 11
-78.019505
 21
-47.71205798
 31
0.0
  0
LINE
  5
293
100
AcDbEntity
  8
レイヤー_1
  6
CONTINUOUS
 62
       3
100
AcDbLine
 10
-78.019505
 20
-47.71205798
 30
0.0
 11
-78.17975665
 21
-47.76975288
 31
0.0
  0
LINE
  5
294
100
AcDbEntity
  8
レイヤー_1
  6
CONTINUOUS
 62
       3
100
AcDbLine
 10
-78.17975665
 20
-47.76975288
 30
0.0
 11
-78.34675569
 21
-47.81201398
 31
0.0
  0
LINE
  5
295
100
AcDbEntity
  8
レイヤー_1
  6
CONTINUOUS
 62
       3
100
AcDbLine
 10
-78.34675569
 20
-47.81201398
 30
0.0
 11
-78.51965496
 21
-47.83799283
 31
0.0
  0
LINE
  5
296
100
AcDbEntity
  8
レイヤー_1
  6
CONTINUOUS
 62
       3
100
AcDbLine
 10
-78.51965496
 20
-47.83799283
 30
0.0
 11
-78.69760732
 21
-47.84684099
 31
0.0
  0
LINE
  5
297
100
AcDbEntity
  8
レイヤー_1
  6
CONTINUOUS
 62
       3
100
AcDbLine
 10
-73.63218007
 20
-47.84684099
 30
0.0
 11
-73.81024339
 21
-47.83799283
 31
0.0
  0
LINE
  5
298
100
AcDbEntity
  8
レイヤー_1
  6
CONTINUOUS
 62
       3
100
AcDbLine
 10
-73.81024339
 20
-47.83799283
 30
0.0
 11
-73.98324658
 21
-47.81201398
 31
0.0
  0
LINE
  5
299
100
AcDbEntity
  8
レイヤー_1
  6
CONTINUOUS
 62
       3
100
AcDbLine
 10
-73.98324658
 20
-47.81201398
 30
0.0
 11
-74.15034249
 21
-47.76975288
 31
0.0
  0
LINE
  5
29A
100
AcDbEntity
  8
レイヤー_1
  6
CONTINUOUS
 62
       3
100
AcDbLine
 10
-74.15034249
 20
-47.76975288
 30
0.0
 11
-74.31068397
 21
-47.71205798
 31
0.0
  0
LINE
  5
29B
100
AcDbEntity
  8
レイヤー_1
  6
CONTINUOUS
 62
       3
100
AcDbLine
 10
-74.31068397
 20
-47.71205798
 30
0.0
 11
-74.46342388
 21
-47.63977774
 31
0.0
  0
LINE
  5
29C
100
AcDbEntity
  8
レイヤー_1
  6
CONTINUOUS
 62
       3
100
AcDbLine
 10
-74.46342388
 20
-47.63977774
 30
0.0
 11
-74.60771506
 21
-47.5537606
 31
0.0
  0
LINE
  5
29D
100
AcDbEntity
  8
レイヤー_1
  6
CONTINUOUS
 62
       3
100
AcDbLine
 10
-74.60771506
 20
-47.5537606
 30
0.0
 11
-74.74271038
 21
-47.45485502
 31
0.0
  0
LINE
  5
29E
100
AcDbEntity
  8
レイヤー_1
  6
CONTINUOUS
 62
       3
100
AcDbLine
 10
-74.74271038
 20
-47.45485502
 30
0.0
 11
-74.86756267
 21
-47.34390943
 31
0.0
  0
LINE
  5
29F
100
AcDbEntity
  8
レイヤー_1
  6
CONTINUOUS
 62
       3
100
AcDbLine
 10
-74.86756267
 20
-47.34390943
 30
0.0
 11
-74.9814248
 21
-47.2217723
 31
0.0
  0
LINE
  5
2A0
100
AcDbEntity
  8
レイヤー_1
  6
CONTINUOUS
 62
       3
100
AcDbLine
 10
-74.9814248
 20
-47.2217723
 30
0.0
 11
-75.08344961
 21
-47.08929206
 31
0.0
  0
LINE
  5
2A1
100
AcDbEntity
  8
レイヤー_1
  6
CONTINUOUS
 62
       3
100
AcDbLine
 10
-75.08344961
 20
-47.08929206
 30
0.0
 11
-75.17278996
 21
-46.94731718
 31
0.0
  0
LINE
  5
2A2
100
AcDbEntity
  8
レイヤー_1
  6
CONTINUOUS
 62
       3
100
AcDbLine
 10
-75.17278996
 20
-46.94731718
 30
0.0
 11
-75.2485987
 21
-46.79669609
 31
0.0
  0
LINE
  5
2A3
100
AcDbEntity
  8
レイヤー_1
  6
CONTINUOUS
 62
       3
100
AcDbLine
 10
-75.2485987
 20
-46.79669609
 30
0.0
 11
-75.31002867
 21
-46.63827724
 31
0.0
  0
LINE
  5
2A4
100
AcDbEntity
  8
レイヤー_1
  6
CONTINUOUS
 62
       3
100
AcDbLine
 10
-75.31002867
 20
-46.63827724
 30
0.0
 11
-75.35623273
 21
-46.4729091
 31
0.0
  0
LINE
  5
2A5
100
AcDbEntity
  8
レイヤー_1
  6
CONTINUOUS
 62
       3
100
AcDbLine
 10
-75.35623273
 20
-46.4729091
 30
0.0
 11
-75.38636374
 21
-46.30144009
 31
0.0
  0
LINE
  5
2A6
100
AcDbEntity
  8
レイヤー_1
  6
CONTINUOUS
 62
       3
100
AcDbLine
 10
-75.38636374
 20
-46.30144009
 30
0.0
 11
-75.39957453
 21
-46.12471868
 31
0.0
  0
LINE
  5
2A7
100
AcDbEntity
  8
レイヤー_1
  6
CONTINUOUS
 62
       3
100
AcDbLine
 10
-75.39957453
 20
-46.12471868
 30
0.0
 11
-75.39513711
 21
-45.94591025
 31
0.0
  0
LINE
  5
2A8
100
AcDbEntity
  8
レイヤー_1
  6
CONTINUOUS
 62
       3
100
AcDbLine
 10
-75.39513711
 20
-45.94591025
 30
0.0
 11
-75.37336031
 21
-45.77166019
 31
0.0
  0
LINE
  5
2A9
100
AcDbEntity
  8
レイヤー_1
  6
CONTINUOUS
 62
       3
100
AcDbLine
 10
-75.37336031
 20
-45.77166019
 30
0.0
 11
-75.33508688
 21
-45.60309305
 31
0.0
  0
LINE
  5
2AA
100
AcDbEntity
  8
レイヤー_1
  6
CONTINUOUS
 62
       3
100
AcDbLine
 10
-75.33508688
 20
-45.60309305
 30
0.0
 11
-75.28116397
 21
-45.44105685
 31
0.0
  0
LINE
  5
2AB
100
AcDbEntity
  8
レイヤー_1
  6
CONTINUOUS
 62
       3
100
AcDbLine
 10
-75.28116397
 20
-45.44105685
 30
0.0
 11
-75.21243873
 21
-45.28639959
 31
0.0
  0
LINE
  5
2AC
100
AcDbEntity
  8
レイヤー_1
  6
CONTINUOUS
 62
       3
100
AcDbLine
 10
-75.21243873
 20
-45.28639959
 30
0.0
 11
-75.12975829
 21
-45.1399693
 31
0.0
  0
LINE
  5
2AD
100
AcDbEntity
  8
レイヤー_1
  6
CONTINUOUS
 62
       3
100
AcDbLine
 10
-75.12975829
 20
-45.1399693
 30
0.0
 11
-75.03396982
 21
-45.00261399
 31
0.0
  0
LINE
  5
2AE
100
AcDbEntity
  8
レイヤー_1
  6
CONTINUOUS
 62
       3
100
AcDbLine
 10
-75.03396982
 20
-45.00261399
 30
0.0
 11
-74.92592046
 21
-44.87518167
 31
0.0
  0
LINE
  5
2AF
100
AcDbEntity
  8
レイヤー_1
  6
CONTINUOUS
 62
       3
100
AcDbLine
 10
-74.92592046
 20
-44.87518167
 30
0.0
 11
-74.80645735
 21
-44.75852037
 31
0.0
  0
LINE
  5
2B0
100
AcDbEntity
  8
レイヤー_1
  6
CONTINUOUS
 62
       3
100
AcDbLine
 10
-74.80645735
 20
-44.75852037
 30
0.0
 11
-74.67642765
 21
-44.65347809
 31
0.0
  0
LINE
  5
2B1
100
AcDbEntity
  8
レイヤー_1
  6
CONTINUOUS
 62
       3
100
AcDbLine
 10
-74.67642765
 20
-44.65347809
 30
0.0
 11
-74.53667851
 21
-44.56090285
 31
0.0
  0
LINE
  5
2B2
100
AcDbEntity
  8
レイヤー_1
  6
CONTINUOUS
 62
       3
100
AcDbLine
 10
-74.53667851
 20
-44.56090285
 30
0.0
 11
-74.38805707
 21
-44.48164266
 31
0.0
  0
LINE
  5
2B3
100
AcDbEntity
  8
レイヤー_1
  6
CONTINUOUS
 62
       3
100
AcDbLine
 10
-74.38805707
 20
-44.48164266
 30
0.0
 11
-74.23141048
 21
-44.41654555
 31
0.0
  0
LINE
  5
2B4
100
AcDbEntity
  8
レイヤー_1
  6
CONTINUOUS
 62
       3
100
AcDbLine
 10
-74.23141048
 20
-44.41654555
 30
0.0
 11
-74.06758589
 21
-44.36645953
 31
0.0
  0
LINE
  5
2B5
100
AcDbEntity
  8
レイヤー_1
  6
CONTINUOUS
 62
       3
100
AcDbLine
 10
-74.06758589
 20
-44.36645953
 30
0.0
 11
-73.89743045
 21
-44.33223261
 31
0.0
  0
LINE
  5
2B6
100
AcDbEntity
  8
レイヤー_1
  6
CONTINUOUS
 62
       3
100
AcDbLine
 10
-73.89743045
 20
-44.33223261
 30
0.0
 11
-73.7217913
 21
-44.31471281
 31
0.0
  0
LINE
  5
2B7
100
AcDbEntity
  8
レイヤー_1
  6
CONTINUOUS
 62
       3
100
AcDbLine
 10
-73.7217913
 20
-44.31471281
 30
0.0
 11
-73.54262521
 21
-44.31471281
 31
0.0
  0
LINE
  5
2B8
100
AcDbEntity
  8
レイヤー_1
  6
CONTINUOUS
 62
       3
100
AcDbLine
 10
-73.54262521
 20
-44.31471281
 30
0.0
 11
-73.3670935
 21
-44.33223261
 31
0.0
  0
LINE
  5
2B9
100
AcDbEntity
  8
レイヤー_1
  6
CONTINUOUS
 62
       3
100
AcDbLine
 10
-73.3670935
 20
-44.33223261
 30
0.0
 11
-73.19703845
 21
-44.36645953
 31
0.0
  0
LINE
  5
2BA
100
AcDbEntity
  8
レイヤー_1
  6
CONTINUOUS
 62
       3
100
AcDbLine
 10
-73.19703845
 20
-44.36645953
 30
0.0
 11
-73.03330721
 21
-44.41654555
 31
0.0
  0
LINE
  5
2BB
100
AcDbEntity
  8
レイヤー_1
  6
CONTINUOUS
 62
       3
100
AcDbLine
 10
-73.03330721
 20
-44.41654555
 30
0.0
 11
-72.87674692
 21
-44.48164266
 31
0.0
  0
LINE
  5
2BC
100
AcDbEntity
  8
レイヤー_1
  6
CONTINUOUS
 62
       3
100
AcDbLine
 10
-72.87674692
 20
-44.48164266
 30
0.0
 11
-72.72820474
 21
-44.56090285
 31
0.0
  0
LINE
  5
2BD
100
AcDbEntity
  8
レイヤー_1
  6
CONTINUOUS
 62
       3
100
AcDbLine
 10
-72.72820474
 20
-44.56090285
 30
0.0
 11
-72.58852781
 21
-44.65347809
 31
0.0
  0
LINE
  5
2BE
100
AcDbEntity
  8
レイヤー_1
  6
CONTINUOUS
 62
       3
100
AcDbLine
 10
-72.58852781
 20
-44.65347809
 30
0.0
 11
-72.45856328
 21
-44.75852037
 31
0.0
  0
LINE
  5
2BF
100
AcDbEntity
  8
レイヤー_1
  6
CONTINUOUS
 62
       3
100
AcDbLine
 10
-72.45856328
 20
-44.75852037
 30
0.0
 11
-72.33915829
 21
-44.87518167
 31
0.0
  0
LINE
  5
2C0
100
AcDbEntity
  8
レイヤー_1
  6
CONTINUOUS
 62
       3
100
AcDbLine
 10
-72.33915829
 20
-44.87518167
 30
0.0
 11
-72.23116001
 21
-45.00261399
 31
0.0
  0
LINE
  5
2C1
100
AcDbEntity
  8
レイヤー_1
  6
CONTINUOUS
 62
       3
100
AcDbLine
 10
-72.23116001
 20
-45.00261399
 30
0.0
 11
-72.13541557
 21
-45.1399693
 31
0.0
  0
LINE
  5
2C2
100
AcDbEntity
  8
レイヤー_1
  6
CONTINUOUS
 62
       3
100
AcDbLine
 10
-72.13541557
 20
-45.1399693
 30
0.0
 11
-72.05277212
 21
-45.28639959
 31
0.0
  0
LINE
  5
2C3
100
AcDbEntity
  8
レイヤー_1
  6
CONTINUOUS
 62
       3
100
AcDbLine
 10
-72.05277212
 20
-45.28639959
 30
0.0
 11
-71.98407682
 21
-45.44105685
 31
0.0
  0
LINE
  5
2C4
100
AcDbEntity
  8
レイヤー_1
  6
CONTINUOUS
 62
       3
100
AcDbLine
 10
-71.98407682
 20
-45.44105685
 30
0.0
 11
-71.9301768
 21
-45.60309305
 31
0.0
  0
LINE
  5
2C5
100
AcDbEntity
  8
レイヤー_1
  6
CONTINUOUS
 62
       3
100
AcDbLine
 10
-71.9301768
 20
-45.60309305
 30
0.0
 11
-71.89191922
 21
-45.77166019
 31
0.0
  0
LINE
  5
2C6
100
AcDbEntity
  8
レイヤー_1
  6
CONTINUOUS
 62
       3
100
AcDbLine
 10
-71.89191922
 20
-45.77166019
 30
0.0
 11
-71.87015124
 21
-45.94591025
 31
0.0
  0
LINE
  5
2C7
100
AcDbEntity
  8
レイヤー_1
  6
CONTINUOUS
 62
       3
100
AcDbLine
 10
-71.87015124
 20
-45.94591025
 30
0.0
 11
-71.86571557
 21
-46.12471868
 31
0.0
  0
LINE
  5
2C8
100
AcDbEntity
  8
レイヤー_1
  6
CONTINUOUS
 62
       3
100
AcDbLine
 10
-71.86571557
 20
-46.12471868
 30
0.0
 11
-71.87892109
 21
-46.30144009
 31
0.0
  0
LINE
  5
2C9
100
AcDbEntity
  8
レイヤー_1
  6
CONTINUOUS
 62
       3
100
AcDbLine
 10
-71.87892109
 20
-46.30144009
 30
0.0
 11
-71.90903976
 21
-46.4729091
 31
0.0
  0
LINE
  5
2CA
100
AcDbEntity
  8
レイヤー_1
  6
CONTINUOUS
 62
       3
100
AcDbLine
 10
-71.90903976
 20
-46.4729091
 30
0.0
 11
-71.95522445
 21
-46.63827724
 31
0.0
  0
LINE
  5
2CB
100
AcDbEntity
  8
レイヤー_1
  6
CONTINUOUS
 62
       3
100
AcDbLine
 10
-71.95522445
 20
-46.63827724
 30
0.0
 11
-72.016628
 21
-46.79669609
 31
0.0
  0
LINE
  5
2CC
100
AcDbEntity
  8
レイヤー_1
  6
CONTINUOUS
 62
       3
100
AcDbLine
 10
-72.016628
 20
-46.79669609
 30
0.0
 11
-72.09240327
 21
-46.94731718
 31
0.0
  0
LINE
  5
2CD
100
AcDbEntity
  8
レイヤー_1
  6
CONTINUOUS
 62
       3
100
AcDbLine
 10
-72.09240327
 20
-46.94731718
 30
0.0
 11
-72.18170311
 21
-47.08929206
 31
0.0
  0
LINE
  5
2CE
100
AcDbEntity
  8
レイヤー_1
  6
CONTINUOUS
 62
       3
100
AcDbLine
 10
-72.18170311
 20
-47.08929206
 30
0.0
 11
-72.28368037
 21
-47.2217723
 31
0.0
  0
LINE
  5
2CF
100
AcDbEntity
  8
レイヤー_1
  6
CONTINUOUS
 62
       3
100
AcDbLine
 10
-72.28368037
 20
-47.2217723
 30
0.0
 11
-72.3974879
 21
-47.34390943
 31
0.0
  0
LINE
  5
2D0
100
AcDbEntity
  8
レイヤー_1
  6
CONTINUOUS
 62
       3
100
AcDbLine
 10
-72.3974879
 20
-47.34390943
 30
0.0
 11
-72.52227855
 21
-47.45485502
 31
0.0
  0
LINE
  5
2D1
100
AcDbEntity
  8
レイヤー_1
  6
CONTINUOUS
 62
       3
100
AcDbLine
 10
-72.52227855
 20
-47.45485502
 30
0.0
 11
-72.65720517
 21
-47.5537606
 31
0.0
  0
LINE
  5
2D2
100
AcDbEntity
  8
レイヤー_1
  6
CONTINUOUS
 62
       3
100
AcDbLine
 10
-72.65720517
 20
-47.5537606
 30
0.0
 11
-72.80142062
 21
-47.63977774
 31
0.0
  0
LINE
  5
2D3
100
AcDbEntity
  8
レイヤー_1
  6
CONTINUOUS
 62
       3
100
AcDbLine
 10
-72.80142062
 20
-47.63977774
 30
0.0
 11
-72.95407775
 21
-47.71205798
 31
0.0
  0
LINE
  5
2D4
100
AcDbEntity
  8
レイヤー_1
  6
CONTINUOUS
 62
       3
100
AcDbLine
 10
-72.95407775
 20
-47.71205798
 30
0.0
 11
-73.11432941
 21
-47.76975288
 31
0.0
  0
LINE
  5
2D5
100
AcDbEntity
  8
レイヤー_1
  6
CONTINUOUS
 62
       3
100
AcDbLine
 10
-73.11432941
 20
-47.76975288
 30
0.0
 11
-73.28132845
 21
-47.81201398
 31
0.0
  0
LINE
  5
2D6
100
AcDbEntity
  8
レイヤー_1
  6
CONTINUOUS
 62
       3
100
AcDbLine
 10
-73.28132845
 20
-47.81201398
 30
0.0
 11
-73.45422772
 21
-47.83799283
 31
0.0
  0
LINE
  5
2D7
100
AcDbEntity
  8
レイヤー_1
  6
CONTINUOUS
 62
       3
100
AcDbLine
 10
-73.45422772
 20
-47.83799283
 30
0.0
 11
-73.63218007
 21
-47.84684099
 31
0.0
  0
LINE
  5
2D8
100
AcDbEntity
  8
レイヤー_1
  6
CONTINUOUS
 62
       3
100
AcDbLine
 10
76.79484923
 20
17.30608135
 30
0.0
 11
76.635272
 21
17.30608135
 31
0.0
  0
LINE
  5
2D9
100
AcDbEntity
  8
レイヤー_1
  6
CONTINUOUS
 62
       3
100
AcDbLine
 10
76.635272
 20
17.30608135
 30
0.0
 11
76.57880622
 21
17.30608135
 31
0.0
  0
LINE
  5
2DA
100
AcDbEntity
  8
レイヤー_1
  6
CONTINUOUS
 62
       3
100
AcDbLine
 10
21.50991951
 20
-43.74600603
 30
0.0
 11
78.44039801
 21
-43.74600603
 31
0.0
  0
LINE
  5
2DB
100
AcDbEntity
  8
レイヤー_1
  6
CONTINUOUS
 62
       3
100
AcDbLine
 10
78.44039801
 20
-43.74600603
 30
0.0
 11
78.44039801
 21
-16.57061053
 31
0.0
  0
LINE
  5
2DC
100
AcDbEntity
  8
レイヤー_1
  6
CONTINUOUS
 62
       3
100
AcDbLine
 10
78.44039801
 20
-16.57061053
 30
0.0
 11
75.46197516
 21
-16.57061053
 31
0.0
  0
LINE
  5
2DD
100
AcDbEntity
  8
レイヤー_1
  6
CONTINUOUS
 62
       3
100
AcDbLine
 10
75.46197516
 20
-16.57061053
 30
0.0
 11
75.46197516
 21
18.8483128
 31
0.0
  0
LINE
  5
2DE
100
AcDbEntity
  8
レイヤー_1
  6
CONTINUOUS
 62
       3
100
AcDbLine
 10
75.46197516
 20
18.8483128
 30
0.0
 11
78.44039801
 21
18.8483128
 31
0.0
  0
LINE
  5
2DF
100
AcDbEntity
  8
レイヤー_1
  6
CONTINUOUS
 62
       3
100
AcDbLine
 10
78.44039801
 20
18.8483128
 30
0.0
 11
78.44039801
 21
46.0237083
 31
0.0
  0
LINE
  5
2E0
100
AcDbEntity
  8
レイヤー_1
  6
CONTINUOUS
 62
       3
100
AcDbLine
 10
78.44039801
 20
46.0237083
 30
0.0
 11
21.53596443
 21
46.0237083
 31
0.0
  0
LINE
  5
2E1
100
AcDbEntity
  8
レイヤー_1
  6
CONTINUOUS
 62
       3
100
AcDbLine
 10
21.53596443
 20
46.0237083
 30
0.0
 11
-10.15946525
 21
23.20959698
 31
0.0
  0
LINE
  5
2E2
100
AcDbEntity
  8
レイヤー_1
  6
CONTINUOUS
 62
       3
100
AcDbLine
 10
-10.15946525
 20
23.20959698
 30
0.0
 11
-10.15946525
 21
-20.85189959
 31
0.0
  0
LINE
  5
2E3
100
AcDbEntity
  8
レイヤー_1
  6
CONTINUOUS
 62
       3
100
AcDbLine
 10
-10.15946525
 20
-20.85189959
 30
0.0
 11
21.50991951
 21
-43.74600603
 31
0.0
  0
LINE
  5
2E4
100
AcDbEntity
  8
レイヤー_1
  6
CONTINUOUS
 62
       3
100
AcDbLine
 10
-6.70262199
 20
-48.68053257
 30
0.0
 11
-6.70262199
 21
-50.91642107
 31
0.0
  0
LINE
  5
2E5
100
AcDbEntity
  8
レイヤー_1
  6
CONTINUOUS
 62
       3
100
AcDbLine
 10
-6.70262199
 20
-50.91642107
 30
0.0
 11
-6.17118156
 21
-50.91642107
 31
0.0
  0
LINE
  5
2E6
100
AcDbEntity
  8
レイヤー_1
  6
CONTINUOUS
 62
       3
100
AcDbLine
 10
-6.17118156
 20
-50.91642107
 30
0.0
 11
-6.17118156
 21
-50.49102068
 31
0.0
  0
LINE
  5
2E7
100
AcDbEntity
  8
レイヤー_1
  6
CONTINUOUS
 62
       3
100
AcDbLine
 10
-6.17118156
 20
-50.49102068
 30
0.0
 11
-3.97055492
 21
-50.71105127
 31
0.0
  0
LINE
  5
2E8
100
AcDbEntity
  8
レイヤー_1
  6
CONTINUOUS
 62
       3
100
AcDbLine
 10
-22.60428702
 20
-36.86214474
 30
0.0
 11
-22.60428702
 21
-40.91858172
 31
0.0
  0
LINE
  5
2E9
100
AcDbEntity
  8
レイヤー_1
  6
CONTINUOUS
 62
       3
100
AcDbLine
 10
-22.60428702
 20
-40.91858172
 30
0.0
 11
-22.12555655
 21
-40.91858172
 31
0.0
  0
LINE
  5
2EA
100
AcDbEntity
  8
レイヤー_1
  6
CONTINUOUS
 62
       3
100
AcDbLine
 10
-22.12555655
 20
-40.91858172
 30
0.0
 11
-22.12555655
 21
-40.54620135
 31
0.0
  0
LINE
  5
2EB
100
AcDbEntity
  8
レイヤー_1
  6
CONTINUOUS
 62
       3
100
AcDbLine
 10
-22.12555655
 20
-40.54620135
 30
0.0
 11
-17.65823233
 21
-40.91858172
 31
0.0
  0
LINE
  5
2EC
100
AcDbEntity
  8
レイヤー_1
  6
CONTINUOUS
 62
       3
100
AcDbLine
 10
-17.65823233
 20
-40.91858172
 30
0.0
 11
-17.65823233
 21
-41.23794207
 31
0.0
  0
LINE
  5
2ED
100
AcDbEntity
  8
レイヤー_1
  6
CONTINUOUS
 62
       3
100
AcDbLine
 10
-17.65823233
 20
-41.23794207
 30
0.0
 11
-16.71664276
 21
-41.23794207
 31
0.0
  0
LINE
  5
2EE
100
AcDbEntity
  8
レイヤー_1
  6
CONTINUOUS
 62
       3
100
AcDbLine
 10
-6.70262199
 20
50.91964647
 30
0.0
 11
-6.70262199
 21
53.097075
 31
0.0
  0
LINE
  5
2EF
100
AcDbEntity
  8
レイヤー_1
  6
CONTINUOUS
 62
       3
100
AcDbLine
 10
-6.70262199
 20
53.097075
 30
0.0
 11
-6.17118156
 21
53.097075
 31
0.0
  0
LINE
  5
2F0
100
AcDbEntity
  8
レイヤー_1
  6
CONTINUOUS
 62
       3
100
AcDbLine
 10
-6.17118156
 20
53.097075
 30
0.0
 11
-6.17118156
 21
52.67167461
 31
0.0
  0
LINE
  5
2F1
100
AcDbEntity
  8
レイヤー_1
  6
CONTINUOUS
 62
       3
100
AcDbLine
 10
-6.17118156
 20
52.67167461
 30
0.0
 11
-4.04386954
 21
52.8843748
 31
0.0
  0
LINE
  5
2F2
100
AcDbEntity
  8
レイヤー_1
  6
CONTINUOUS
 62
       3
100
AcDbLine
 10
-22.60428702
 20
39.15851291
 30
0.0
 11
-22.60428702
 21
43.09892558
 31
0.0
  0
LINE
  5
2F3
100
AcDbEntity
  8
レイヤー_1
  6
CONTINUOUS
 62
       3
100
AcDbLine
 10
-22.60428702
 20
43.09892558
 30
0.0
 11
-22.12555655
 21
43.09892558
 31
0.0
  0
LINE
  5
2F4
100
AcDbEntity
  8
レイヤー_1
  6
CONTINUOUS
 62
       3
100
AcDbLine
 10
-22.12555655
 20
43.09892558
 30
0.0
 11
-22.12555655
 21
42.72685527
 31
0.0
  0
LINE
  5
2F5
100
AcDbEntity
  8
レイヤー_1
  6
CONTINUOUS
 62
       3
100
AcDbLine
 10
-22.12555655
 20
42.72685527
 30
0.0
 11
-17.65823233
 21
43.09892558
 31
0.0
  0
LINE
  5
2F6
100
AcDbEntity
  8
レイヤー_1
  6
CONTINUOUS
 62
       3
100
AcDbLine
 10
-17.65823233
 20
43.09892558
 30
0.0
 11
-17.65823233
 21
43.41766582
 31
0.0
  0
LINE
  5
2F7
100
AcDbEntity
  8
レイヤー_1
  6
CONTINUOUS
 62
       3
100
AcDbLine
 10
-17.65823233
 20
43.41766582
 30
0.0
 11
-16.84569049
 21
43.41766582
 31
0.0
  0
LINE
  5
2F8
100
AcDbEntity
  8
レイヤー_1
  6
CONTINUOUS
 62
       3
100
AcDbLine
 10
78.44039801
 20
36.79667461
 30
0.0
 11
46.52544685
 21
36.79667461
 31
0.0
  0
LINE
  5
2F9
100
AcDbEntity
  8
レイヤー_1
  6
CONTINUOUS
 62
       3
100
AcDbLine
 10
46.52544685
 20
36.79667461
 30
0.0
 11
31.43613533
 21
46.0237083
 31
0.0
  0
LINE
  5
2FA
100
AcDbEntity
  8
レイヤー_1
  6
CONTINUOUS
 62
       3
100
AcDbLine
 10
21.53596443
 20
46.0237083
 30
0.0
 11
7.43894362
 21
54.16520611
 31
0.0
  0
LINE
  5
2FB
100
AcDbEntity
  8
レイヤー_1
  6
CONTINUOUS
 62
       3
100
AcDbLine
 10
7.62420371
 20
-51.83479389
 30
0.0
 11
21.50991951
 21
-43.74600603
 31
0.0
  0
LINE
  5
2FC
100
AcDbEntity
  8
レイヤー_1
  6
CONTINUOUS
 62
       3
100
AcDbLine
 10
31.43613533
 20
-43.74600603
 30
0.0
 11
46.52544685
 21
-34.39525897
 31
0.0
  0
LINE
  5
2FD
100
AcDbEntity
  8
レイヤー_1
  6
CONTINUOUS
 62
       3
100
AcDbLine
 10
46.52544685
 20
-34.39525897
 30
0.0
 11
78.44039801
 21
-34.39525897
 31
0.0
  0
LINE
  5
2FE
100
AcDbEntity
  8
レイヤー_1
  6
CONTINUOUS
 62
       3
100
AcDbLine
 10
76.47214606
 20
-16.57061053
 30
0.0
 11
76.57880622
 21
-15.02837909
 31
0.0
  0
LINE
  5
2FF
100
AcDbEntity
  8
レイヤー_1
  6
CONTINUOUS
 62
       3
100
AcDbLine
 10
76.57880622
 20
-15.02837909
 30
0.0
 11
76.95087653
 21
-15.02837909
 31
0.0
  0
LINE
  5
300
100
AcDbEntity
  8
レイヤー_1
  6
CONTINUOUS
 62
       3
100
AcDbLine
 10
76.95087653
 20
-15.02837909
 30
0.0
 11
78.44039801
 21
-16.57061053
 31
0.0
  0
LINE
  5
301
100
AcDbEntity
  8
レイヤー_1
  6
CONTINUOUS
 62
       3
100
AcDbLine
 10
76.47214606
 20
18.8483128
 30
0.0
 11
76.57880622
 21
17.30608135
 31
0.0
  0
LINE
  5
302
100
AcDbEntity
  8
レイヤー_1
  6
CONTINUOUS
 62
       3
100
AcDbLine
 10
76.57880622
 20
17.30608135
 30
0.0
 11
76.95087653
 21
17.30608135
 31
0.0
  0
LINE
  5
303
100
AcDbEntity
  8
レイヤー_1
  6
CONTINUOUS
 62
       3
100
AcDbLine
 10
76.95087653
 20
17.30608135
 30
0.0
 11
78.44039801
 21
18.8483128
 31
0.0
  0
LINE
  5
304
100
AcDbEntity
  8
レイヤー_1
  6
CONTINUOUS
 62
       3
100
AcDbLine
 10
-71.34053701
 20
17.77023907
 30
0.0
 11
-70.26029287
 21
17.95038311
 31
0.0
  0
LINE
  5
305
100
AcDbEntity
  8
レイヤー_1
  6
CONTINUOUS
 62
       3
100
AcDbLine
 10
-71.34053701
 20
19.57043926
 30
0.0
 11
-70.26029287
 21
19.74996319
 31
0.0
  0
LINE
  5
306
100
AcDbEntity
  8
レイヤー_1
  6
CONTINUOUS
 62
       3
100
AcDbLine
 10
-71.34053701
 20
28.5702
 30
0.0
 11
-70.26029287
 21
28.5702
 31
0.0
  0
LINE
  5
307
100
AcDbEntity
  8
レイヤー_1
  6
CONTINUOUS
 62
       3
100
AcDbLine
 10
-82.14049794
 20
17.95038311
 30
0.0
 11
-81.06056386
 21
17.77023907
 31
0.0
  0
LINE
  5
308
100
AcDbEntity
  8
レイヤー_1
  6
CONTINUOUS
 62
       3
100
AcDbLine
 10
-82.14049794
 20
19.74996319
 30
0.0
 11
-81.06056386
 21
19.57043926
 31
0.0
  0
LINE
  5
309
100
AcDbEntity
  8
レイヤー_1
  6
CONTINUOUS
 62
       3
100
AcDbLine
 10
-82.14049794
 20
28.5702
 30
0.0
 11
-81.06056386
 21
28.5702
 31
0.0
  0
LINE
  5
30A
100
AcDbEntity
  8
レイヤー_1
  6
CONTINUOUS
 62
       3
100
AcDbLine
 10
-81.0025829
 20
23.17021953
 30
0.0
 11
-71.32472402
 21
23.17021953
 31
0.0
  0
LINE
  5
30B
100
AcDbEntity
  8
レイヤー_1
  6
CONTINUOUS
 62
       3
100
AcDbLine
 10
-81.0025829
 20
22.08997539
 30
0.0
 11
-71.32472402
 21
22.08997539
 31
0.0
  0
LINE
  5
30C
100
AcDbEntity
  8
レイヤー_1
  6
CONTINUOUS
 62
       3
100
AcDbLine
 10
-81.0025829
 20
19.57043926
 30
0.0
 11
-81.0025829
 21
-23.63002459
 31
0.0
  0
LINE
  5
30D
100
AcDbEntity
  8
レイヤー_1
  6
CONTINUOUS
 62
       3
100
AcDbLine
 10
-81.0025829
 20
-23.63002459
 30
0.0
 11
-82.14049794
 21
-23.63002459
 31
0.0
  0
LINE
  5
30E
100
AcDbEntity
  8
レイヤー_1
  6
CONTINUOUS
 62
       3
100
AcDbLine
 10
-81.0025829
 20
32.16998027
 30
0.0
 11
-81.0025829
 21
22.08997539
 31
0.0
  0
LINE
  5
30F
100
AcDbEntity
  8
レイヤー_1
  6
CONTINUOUS
 62
       3
100
AcDbLine
 10
-71.32472402
 20
19.57043926
 30
0.0
 11
-71.32472402
 21
-23.63002459
 31
0.0
  0
LINE
  5
310
100
AcDbEntity
  8
レイヤー_1
  6
CONTINUOUS
 62
       3
100
AcDbLine
 10
-71.32472402
 20
-23.63002459
 30
0.0
 11
-70.19549062
 21
-23.63002459
 31
0.0
  0
LINE
  5
311
100
AcDbEntity
  8
レイヤー_1
  6
CONTINUOUS
 62
       3
100
AcDbLine
 10
-71.32472402
 20
32.16998027
 30
0.0
 11
-71.32472402
 21
22.08997539
 31
0.0
  0
LINE
  5
312
100
AcDbEntity
  8
レイヤー_1
  6
CONTINUOUS
 62
       3
100
AcDbLine
 10
-82.14049794
 20
32.16998027
 30
0.0
 11
-70.19549062
 21
32.16998027
 31
0.0
  0
LINE
  5
313
100
AcDbEntity
  8
レイヤー_1
  6
CONTINUOUS
 62
       3
100
AcDbLine
 10
-82.14049794
 20
-29.83956805
 30
0.0
 11
-70.19549062
 21
-29.83956805
 31
0.0
  0
LINE
  5
314
100
AcDbEntity
  8
レイヤー_1
  6
CONTINUOUS
 62
       3
100
AcDbLine
 10
-71.3061205
 20
-31.77836444
 30
0.0
 11
-71.3061205
 21
-51.83479389
 31
0.0
  0
LINE
  5
315
100
AcDbEntity
  8
レイヤー_1
  6
CONTINUOUS
 62
       3
100
AcDbLine
 10
-71.3061205
 20
54.16520611
 30
0.0
 11
-71.3061205
 21
33.92584209
 31
0.0
  0
LINE
  5
316
100
AcDbEntity
  8
レイヤー_1
  6
CONTINUOUS
 62
       3
100
AcDbLine
 10
-71.3061205
 20
33.92584209
 30
0.0
 11
-80.99049062
 21
33.92584209
 31
0.0
  0
LINE
  5
317
100
AcDbEntity
  8
レイヤー_1
  6
CONTINUOUS
 62
       3
100
AcDbLine
 10
-80.99049062
 20
33.92584209
 30
0.0
 11
-80.99049062
 21
54.16520611
 31
0.0
  0
LINE
  5
318
100
AcDbEntity
  8
レイヤー_1
  6
CONTINUOUS
 62
       3
100
AcDbLine
 10
-80.99049062
 20
-51.83479389
 30
0.0
 11
-80.99049062
 21
-31.77836444
 31
0.0
  0
LINE
  5
319
100
AcDbEntity
  8
レイヤー_1
  6
CONTINUOUS
 62
       3
100
AcDbLine
 10
-80.99049062
 20
-31.77836444
 30
0.0
 11
-71.3061205
 21
-31.77836444
 31
0.0
  0
LINE
  5
31A
100
AcDbEntity
  8
レイヤー_1
  6
CONTINUOUS
 62
       3
100
AcDbLine
 10
-71.32472402
 20
43.91748027
 30
0.0
 11
-81.01095449
 21
43.91748027
 31
0.0
  0
LINE
  5
31B
100
AcDbEntity
  8
レイヤー_1
  6
CONTINUOUS
 62
       3
100
AcDbLine
 10
-71.32472402
 20
43.08125224
 30
0.0
 11
-81.01095449
 21
43.08125224
 31
0.0
  0
LINE
  5
31C
100
AcDbEntity
  8
レイヤー_1
  6
CONTINUOUS
 62
       3
100
AcDbLine
 10
-71.32472402
 20
53.07940166
 30
0.0
 11
-81.01095449
 21
53.07940166
 31
0.0
  0
LINE
  5
31D
100
AcDbEntity
  8
レイヤー_1
  6
CONTINUOUS
 62
       3
100
AcDbLine
 10
-74.64328115
 20
51.83017558
 30
0.0
 11
-74.64328115
 21
50.82000468
 31
0.0
  0
LINE
  5
31E
100
AcDbEntity
  8
レイヤー_1
  6
CONTINUOUS
 62
       3
100
AcDbLine
 10
-74.64328115
 20
50.82000468
 30
0.0
 11
-72.62200918
 21
50.82000468
 31
0.0
  0
LINE
  5
31F
100
AcDbEntity
  8
レイヤー_1
  6
CONTINUOUS
 62
       3
100
AcDbLine
 10
-72.62200918
 20
50.82000468
 30
0.0
 11
-72.62200918
 21
51.83017558
 31
0.0
  0
LINE
  5
320
100
AcDbEntity
  8
レイヤー_1
  6
CONTINUOUS
 62
       3
100
AcDbLine
 10
-72.62200918
 20
51.83017558
 30
0.0
 11
-74.64328115
 21
51.83017558
 31
0.0
  0
LINE
  5
321
100
AcDbEntity
  8
レイヤー_1
  6
CONTINUOUS
 62
       3
100
AcDbLine
 10
-79.70870839
 20
51.83017558
 30
0.0
 11
-79.70870839
 21
50.82000468
 31
0.0
  0
LINE
  5
322
100
AcDbEntity
  8
レイヤー_1
  6
CONTINUOUS
 62
       3
100
AcDbLine
 10
-79.70870839
 20
50.82000468
 30
0.0
 11
-77.68743642
 21
50.82000468
 31
0.0
  0
LINE
  5
323
100
AcDbEntity
  8
レイヤー_1
  6
CONTINUOUS
 62
       3
100
AcDbLine
 10
-77.68743642
 20
50.82000468
 30
0.0
 11
-77.68743642
 21
51.83017558
 31
0.0
  0
LINE
  5
324
100
AcDbEntity
  8
レイヤー_1
  6
CONTINUOUS
 62
       3
100
AcDbLine
 10
-77.68743642
 20
51.83017558
 30
0.0
 11
-79.70870839
 21
51.83017558
 31
0.0
  0
LINE
  5
325
100
AcDbEntity
  8
レイヤー_1
  6
CONTINUOUS
 62
       3
100
AcDbLine
 10
-71.32472402
 20
-41.79232684
 30
0.0
 11
-81.01095449
 21
-41.79232684
 31
0.0
  0
LINE
  5
326
100
AcDbEntity
  8
レイヤー_1
  6
CONTINUOUS
 62
       3
100
AcDbLine
 10
-71.32472402
 20
-40.95671893
 30
0.0
 11
-81.01095449
 21
-40.95671893
 31
0.0
  0
LINE
  5
327
100
AcDbEntity
  8
レイヤー_1
  6
CONTINUOUS
 62
       3
100
AcDbLine
 10
-74.64328115
 20
41.86892314
 30
0.0
 11
-74.64328115
 21
40.85813213
 31
0.0
  0
LINE
  5
328
100
AcDbEntity
  8
レイヤー_1
  6
CONTINUOUS
 62
       3
100
AcDbLine
 10
-74.64328115
 20
40.85813213
 30
0.0
 11
-72.62200918
 21
40.85813213
 31
0.0
  0
LINE
  5
329
100
AcDbEntity
  8
レイヤー_1
  6
CONTINUOUS
 62
       3
100
AcDbLine
 10
-72.62200918
 20
40.85813213
 30
0.0
 11
-72.62200918
 21
41.86892314
 31
0.0
  0
LINE
  5
32A
100
AcDbEntity
  8
レイヤー_1
  6
CONTINUOUS
 62
       3
100
AcDbLine
 10
-72.62200918
 20
41.86892314
 30
0.0
 11
-74.64328115
 21
41.86892314
 31
0.0
  0
LINE
  5
32B
100
AcDbEntity
  8
レイヤー_1
  6
CONTINUOUS
 62
       3
100
AcDbLine
 10
-79.70870839
 20
41.86892314
 30
0.0
 11
-79.70870839
 21
40.85813213
 31
0.0
  0
LINE
  5
32C
100
AcDbEntity
  8
レイヤー_1
  6
CONTINUOUS
 62
       3
100
AcDbLine
 10
-79.70870839
 20
40.85813213
 30
0.0
 11
-77.68743642
 21
40.85813213
 31
0.0
  0
LINE
  5
32D
100
AcDbEntity
  8
レイヤー_1
  6
CONTINUOUS
 62
       3
100
AcDbLine
 10
-77.68743642
 20
40.85813213
 30
0.0
 11
-77.68743642
 21
41.86892314
 31
0.0
  0
LINE
  5
32E
100
AcDbEntity
  8
レイヤー_1
  6
CONTINUOUS
 62
       3
100
AcDbLine
 10
-77.68743642
 20
41.86892314
 30
0.0
 11
-79.70870839
 21
41.86892314
 31
0.0
  0
LINE
  5
32F
100
AcDbEntity
  8
レイヤー_1
  6
CONTINUOUS
 62
       3
100
AcDbLine
 10
-71.32472402
 20
-50.91828142
 30
0.0
 11
-81.01095449
 21
-50.91828142
 31
0.0
  0
LINE
  5
330
100
AcDbEntity
  8
レイヤー_1
  6
CONTINUOUS
 62
       3
100
AcDbLine
 10
-74.64328115
 20
-39.70811297
 30
0.0
 11
-74.64328115
 21
-38.69732195
 31
0.0
  0
LINE
  5
331
100
AcDbEntity
  8
レイヤー_1
  6
CONTINUOUS
 62
       3
100
AcDbLine
 10
-74.64328115
 20
-38.69732195
 30
0.0
 11
-72.62200918
 21
-38.69732195
 31
0.0
  0
LINE
  5
332
100
AcDbEntity
  8
レイヤー_1
  6
CONTINUOUS
 62
       3
100
AcDbLine
 10
-72.62200918
 20
-38.69732195
 30
0.0
 11
-72.62200918
 21
-39.70811297
 31
0.0
  0
LINE
  5
333
100
AcDbEntity
  8
レイヤー_1
  6
CONTINUOUS
 62
       3
100
AcDbLine
 10
-72.62200918
 20
-39.70811297
 30
0.0
 11
-74.64328115
 21
-39.70811297
 31
0.0
  0
LINE
  5
334
100
AcDbEntity
  8
レイヤー_1
  6
CONTINUOUS
 62
       3
100
AcDbLine
 10
-79.70870839
 20
-39.70811297
 30
0.0
 11
-79.70870839
 21
-38.69732195
 31
0.0
  0
LINE
  5
335
100
AcDbEntity
  8
レイヤー_1
  6
CONTINUOUS
 62
       3
100
AcDbLine
 10
-79.70870839
 20
-38.69732195
 30
0.0
 11
-77.68743642
 21
-38.69732195
 31
0.0
  0
LINE
  5
336
100
AcDbEntity
  8
レイヤー_1
  6
CONTINUOUS
 62
       3
100
AcDbLine
 10
-77.68743642
 20
-38.69732195
 30
0.0
 11
-77.68743642
 21
-39.70811297
 31
0.0
  0
LINE
  5
337
100
AcDbEntity
  8
レイヤー_1
  6
CONTINUOUS
 62
       3
100
AcDbLine
 10
-77.68743642
 20
-39.70811297
 30
0.0
 11
-79.70870839
 21
-39.70811297
 31
0.0
  0
LINE
  5
338
100
AcDbEntity
  8
レイヤー_1
  6
CONTINUOUS
 62
       3
100
AcDbLine
 10
-74.64328115
 20
-49.66936541
 30
0.0
 11
-74.64328115
 21
-48.65919451
 31
0.0
  0
LINE
  5
339
100
AcDbEntity
  8
レイヤー_1
  6
CONTINUOUS
 62
       3
100
AcDbLine
 10
-74.64328115
 20
-48.65919451
 30
0.0
 11
-72.62200918
 21
-48.65919451
 31
0.0
  0
LINE
  5
33A
100
AcDbEntity
  8
レイヤー_1
  6
CONTINUOUS
 62
       3
100
AcDbLine
 10
-72.62200918
 20
-48.65919451
 30
0.0
 11
-72.62200918
 21
-49.66936541
 31
0.0
  0
LINE
  5
33B
100
AcDbEntity
  8
レイヤー_1
  6
CONTINUOUS
 62
       3
100
AcDbLine
 10
-72.62200918
 20
-49.66936541
 30
0.0
 11
-74.64328115
 21
-49.66936541
 31
0.0
  0
LINE
  5
33C
100
AcDbEntity
  8
レイヤー_1
  6
CONTINUOUS
 62
       3
100
AcDbLine
 10
-79.70870839
 20
-49.66936541
 30
0.0
 11
-79.70870839
 21
-48.65919451
 31
0.0
  0
LINE
  5
33D
100
AcDbEntity
  8
レイヤー_1
  6
CONTINUOUS
 62
       3
100
AcDbLine
 10
-79.70870839
 20
-48.65919451
 30
0.0
 11
-77.68743642
 21
-48.65919451
 31
0.0
  0
LINE
  5
33E
100
AcDbEntity
  8
レイヤー_1
  6
CONTINUOUS
 62
       3
100
AcDbLine
 10
-77.68743642
 20
-48.65919451
 30
0.0
 11
-77.68743642
 21
-49.66936541
 31
0.0
  0
LINE
  5
33F
100
AcDbEntity
  8
レイヤー_1
  6
CONTINUOUS
 62
       3
100
AcDbLine
 10
-77.68743642
 20
-49.66936541
 30
0.0
 11
-79.70870839
 21
-49.66936541
 31
0.0
  0
LINE
  5
340
100
AcDbEntity
  8
レイヤー_1
  6
CONTINUOUS
 62
       3
100
AcDbLine
 10
-82.14049794
 20
-29.273091
 30
0.0
 11
-77.4973705
 21
-29.273091
 31
0.0
  0
LINE
  5
341
100
AcDbEntity
  8
レイヤー_1
  6
CONTINUOUS
 62
       3
100
AcDbLine
 10
-77.4973705
 20
-29.273091
 30
0.0
 11
-77.4973705
 21
-28.37268084
 31
0.0
  0
LINE
  5
342
100
AcDbEntity
  8
レイヤー_1
  6
CONTINUOUS
 62
       3
100
AcDbLine
 10
-77.4973705
 20
-28.37268084
 30
0.0
 11
-74.79738027
 21
-28.37268084
 31
0.0
  0
LINE
  5
343
100
AcDbEntity
  8
レイヤー_1
  6
CONTINUOUS
 62
       3
100
AcDbLine
 10
-74.79738027
 20
-28.37268084
 30
0.0
 11
-74.79738027
 21
-29.273091
 31
0.0
  0
LINE
  5
344
100
AcDbEntity
  8
レイヤー_1
  6
CONTINUOUS
 62
       3
100
AcDbLine
 10
-74.79738027
 20
-29.273091
 30
0.0
 11
-70.19549062
 21
-29.273091
 31
0.0
  0
LINE
  5
345
100
AcDbEntity
  8
レイヤー_1
  6
CONTINUOUS
 62
       3
100
AcDbLine
 10
-82.16783925
 20
54.16520611
 30
0.0
 11
-82.16783925
 21
-51.83479389
 31
0.0
  0
LINE
  5
346
100
AcDbEntity
  8
レイヤー_1
  6
CONTINUOUS
 62
       3
100
AcDbLine
 10
-70.16783925
 20
54.16520611
 30
0.0
 11
-70.16783925
 21
-51.83479389
 31
0.0
  0
LINE
  5
347
100
AcDbEntity
  8
レイヤー_1
  6
CONTINUOUS
 62
       3
100
AcDbLine
 10
-70.16783925
 20
54.16520611
 30
0.0
 11
-71.3061205
 21
54.16520611
 31
0.0
  0
LINE
  5
348
100
AcDbEntity
  8
レイヤー_1
  6
CONTINUOUS
 62
       3
100
AcDbLine
 10
-70.16783925
 20
-51.83479389
 30
0.0
 11
-71.3061205
 21
-51.83479389
 31
0.0
  0
LINE
  5
349
100
AcDbEntity
  8
レイヤー_1
  6
CONTINUOUS
 62
       3
100
AcDbLine
 10
-80.99049062
 20
54.16520611
 30
0.0
 11
-82.16783925
 21
54.16520611
 31
0.0
  0
LINE
  5
34A
100
AcDbEntity
  8
レイヤー_1
  6
CONTINUOUS
 62
       3
100
AcDbLine
 10
-80.99049062
 20
-51.83479389
 30
0.0
 11
-82.16783925
 21
-51.83479389
 31
0.0
  0
LINE
  5
34B
100
AcDbEntity
  8
レイヤー_1
  6
CONTINUOUS
 62
       3
100
AcDbLine
 10
-32.05960199
 20
-29.83479389
 30
0.0
 11
-32.05960199
 21
32.16520611
 31
0.0
  0
LINE
  5
34C
100
AcDbEntity
  8
レイヤー_1
  6
CONTINUOUS
 62
       3
100
AcDbLine
 10
-32.05960199
 20
32.16520611
 30
0.0
 11
-2.31445633
 21
54.16520611
 31
0.0
  0
LINE
  5
34D
100
AcDbEntity
  8
レイヤー_1
  6
CONTINUOUS
 62
       3
100
AcDbLine
 10
-32.05960199
 20
-29.83479389
 30
0.0
 11
-2.45855693
 21
-51.83479389
 31
0.0
  0
LINE
  5
34E
100
AcDbEntity
  8
レイヤー_1
  6
CONTINUOUS
 62
       3
100
AcDbLine
 10
-2.31445633
 20
54.16520611
 30
0.0
 11
7.43894362
 21
54.16520611
 31
0.0
  0
LINE
  5
34F
100
AcDbEntity
  8
レイヤー_1
  6
CONTINUOUS
 62
       3
100
AcDbLine
 10
-2.45855693
 20
-51.83479389
 30
0.0
 11
7.62420371
 21
-51.83479389
 31
0.0
  0
LINE
  5
350
100
AcDbEntity
  8
レイヤー_1
  6
CENTERX2
 62
       3
100
AcDbLine
 10
-37.28883366
 20
1.16520611
 30
0.0
 11
85.35175063
 21
1.16520611
 31
0.0
  0
LINE
  5
351
100
AcDbEntity
  8
レイヤー_1
  6
CENTERX2
 62
       3
100
AcDbLine
 10
-65.91969241
 20
1.16520611
 30
0.0
 11
-85.35175063
 21
1.16520611
 31
0.0
  0
LINE
  5
352
100
AcDbEntity
  8
レイヤー_1
  6
CENTERX2
 62
       3
100
AcDbLine
 10
-76.16783925
 20
58.97324299
 30
0.0
 11
-76.16783925
 21
-58.97324299
 31
0.0
  0
TEXT
  5
353
100
AcDbEntity
  8
0
 62
       7
100
AcDbText
 10
108.98959276
 20
-100.81945701
 30
0.0
 40
5.0
  1
000
 41
0.8
 72
       5
 11
120.98959276
 21
-100.81945701
 31
0.0
100
AcDbText
  0
ENDSEC
  0
SECTION
  2
OBJECTS
  0
DICTIONARY
  5
19
100
AcDbDictionary
  3
ACAD_GROUP
350
1A
  3
ACAD_MLINESTYLE
350
1B
  0
DICTIONARY
  5
1A
102
{ACAD_REACTORS
330
19
102
}
100
AcDbDictionary
  0
DICTIONARY
  5
1B
102
{ACAD_REACTORS
330
19
102
}
100
AcDbDictionary
  3
STANDARD
350
1C
  0
MLINESTYLE
  5
1C
102
{ACAD_REACTORS
330
1B
102
}
100
AcDbMlineStyle
  2
STANDARD
 70
       0
  3

 62
       0
 51
90.0
 52
90.0
 71
       2
 49
0.5
 62
     256
  6
BYLAYER
 49
-0.5
 62
     256
  6
BYLAYER
  0
ENDSEC
  0
EOF
