  0
SECTION
  2
HEADER
  9
$ACADVER
  1
AC1015
  9
$ACADMAINTVER
 70
     6
  9
$DWGCODEPAGE
  3
DOS932
  9
$INSBASE
 10
0.0
 20
0.0
 30
0.0
  9
$EXTMIN
 10
0.0
 20
0.0
 30
0.0
  9
$EXTMAX
 10
210.0
 20
297.0
 30
0.0
  9
$LIMMIN
 10
0.0
 20
0.0
  9
$LIMMAX
 10
210.0
 20
297.0
  9
$ORTHOMODE
 70
     0
  9
$REGENMODE
 70
     1
  9
$FILLMODE
 70
     1
  9
$QTEXTMODE
 70
     0
  9
$MIRRTEXT
 70
     1
  9
$LTSCALE
 40
1.0
  9
$ATTMODE
 70
     1
  9
$TEXTSIZE
 40
3.5
  9
$TRACEWID
 40
1.0
  9
$TEXTSTYLE
  7
Standard
  9
$CLAYER
  8
0
  9
$CELTYPE
  6
ByLayer
  9
$CECOLOR
 62
   256
  9
$CELTSCALE
 40
1.0
  9
$DISPSILH
 70
     0
  9
$DIMSCALE
 40
1.0
  9
$DIMASZ
 40
2.0
  9
$DIMEXO
 40
1.0
  9
$DIMDLI
 40
3.75
  9
$DIMRND
 40
0.0
  9
$DIMDLE
 40
0.0
  9
$DIMEXE
 40
1.0
  9
$DIMTP
 40
0.0
  9
$DIMTM
 40
0.0
  9
$DIMTXT
 40
3.5
  9
$DIMCEN
 40
2.5
  9
$DIMTSZ
 40
0.0
  9
$DIMTOL
 70
     0
  9
$DIMLIM
 70
     0
  9
$DIMTIH
 70
     1
  9
$DIMTOH
 70
     1
  9
$DIMSE1
 70
     0
  9
$DIMSE2
 70
     0
  9
$DIMTAD
 70
     1
  9
$DIMZIN
 70
     0
  9
$DIMBLK
  1

  9
$DIMASO
 70
     1
  9
$DIMSHO
 70
     1
  9
$DIMPOST
  1

  9
$DIMAPOST
  1

  9
$DIMALT
 70
     0
  9
$DIMALTD
 70
     3
  9
$DIMALTF
 40
0.0393700787
  9
$DIMLFAC
 40
2.0
  9
$DIMTOFL
 70
     1
  9
$DIMTVP
 40
0.0
  9
$DIMTIX
 70
     0
  9
$DIMSOXD
 70
     0
  9
$DIMSAH
 70
     0
  9
$DIMBLK1
  1

  9
$DIMBLK2
  1

  9
$DIMSTYLE
  2
ISO-25
  9
$DIMCLRD
 70
     0
  9
$DIMCLRE
 70
     0
  9
$DIMCLRT
 70
     0
  9
$DIMTFAC
 40
1.0
  9
$DIMGAP
 40
1.524
  9
$DIMJUST
 70
     0
  9
$DIMSD1
 70
     0
  9
$DIMSD2
 70
     0
  9
$DIMTOLJ
 70
     0
  9
$DIMTZIN
 70
     0
  9
$DIMALTZ
 70
     0
  9
$DIMALTTZ
 70
     0
  9
$DIMUPT
 70
     0
  9
$DIMDEC
 70
     2
  9
$DIMTDEC
 70
     2
  9
$DIMALTU
 70
     2
  9
$DIMALTTD
 70
     3
  9
$DIMTXSTY
  7
Standard
  9
$DIMAUNIT
 70
     0
  9
$DIMADEC
 70
     2
  9
$DIMALTRND
 40
0.0
  9
$DIMAZIN
 70
     0
  9
$DIMDSEP
 70
    44
  9
$DIMATFIT
 70
     3
  9
$DIMFRAC
 70
     0
  9
$DIMLDRBLK
  1

  9
$DIMLUNIT
 70
     2
  9
$DIMLWD
 70
    -2
  9
$DIMLWE
 70
    -2
  9
$DIMTMOVE
 70
     0
  9
$LUNITS
 70
     2
  9
$LUPREC
 70
     4
  9
$SKETCHINC
 40
1.0
  9
$FILLETRAD
 40
0.0
  9
$AUNITS
 70
     0
  9
$AUPREC
 70
     2
  9
$MENU
  1
.
  9
$ELEVATION
 40
0.0
  9
$PELEVATION
 40
0.0
  9
$THICKNESS
 40
0.0
  9
$LIMCHECK
 70
     0
  9
$CHAMFERA
 40
0.0
  9
$CHAMFERB
 40
0.0
  9
$CHAMFERC
 40
0.0
  9
$CHAMFERD
 40
0.0
  9
$SKPOLY
 70
     0
  9
$TDCREATE
 40
2460692.445531794
  9
$TDUCREATE
 40
2460692.070531794
  9
$TDUPDATE
 40
2460692.445531979
  9
$TDUUPDATE
 40
2460692.070531979
  9
$TDINDWG
 40
0.0000000116
  9
$TDUSRTIMER
 40
0.0000000116
  9
$USRTIMER
 70
     1
  9
$ANGBASE
 50
0.0
  9
$ANGDIR
 70
     0
  9
$PDMODE
 70
     0
  9
$PDSIZE
 40
-1.0
  9
$PLINEWID
 40
0.0
  9
$SPLFRAME
 70
     0
  9
$SPLINETYPE
 70
     6
  9
$SPLINESEGS
 70
     8
  9
$HANDSEED
  5
232
  9
$SURFTAB1
 70
     6
  9
$SURFTAB2
 70
     6
  9
$SURFTYPE
 70
     6
  9
$SURFU
 70
     6
  9
$SURFV
 70
     6
  9
$UCSBASE
  2

  9
$UCSNAME
  2

  9
$UCSORG
 10
0.0
 20
0.0
 30
0.0
  9
$UCSXDIR
 10
1.0
 20
0.0
 30
0.0
  9
$UCSYDIR
 10
0.0
 20
1.0
 30
0.0
  9
$UCSORTHOREF
  2

  9
$UCSORTHOVIEW
 70
     0
  9
$UCSORGTOP
 10
0.0
 20
0.0
 30
0.0
  9
$UCSORGBOTTOM
 10
0.0
 20
0.0
 30
0.0
  9
$UCSORGLEFT
 10
0.0
 20
0.0
 30
0.0
  9
$UCSORGRIGHT
 10
0.0
 20
0.0
 30
0.0
  9
$UCSORGFRONT
 10
0.0
 20
0.0
 30
0.0
  9
$UCSORGBACK
 10
0.0
 20
0.0
 30
0.0
  9
$PUCSBASE
  2

  9
$PUCSNAME
  2

  9
$PUCSORG
 10
0.0
 20
0.0
 30
0.0
  9
$PUCSXDIR
 10
1.0
 20
0.0
 30
0.0
  9
$PUCSYDIR
 10
0.0
 20
1.0
 30
0.0
  9
$PUCSORTHOREF
  2

  9
$PUCSORTHOVIEW
 70
     0
  9
$PUCSORGTOP
 10
0.0
 20
0.0
 30
0.0
  9
$PUCSORGBOTTOM
 10
0.0
 20
0.0
 30
0.0
  9
$PUCSORGLEFT
 10
0.0
 20
0.0
 30
0.0
  9
$PUCSORGRIGHT
 10
0.0
 20
0.0
 30
0.0
  9
$PUCSORGFRONT
 10
0.0
 20
0.0
 30
0.0
  9
$PUCSORGBACK
 10
0.0
 20
0.0
 30
0.0
  9
$USERI1
 70
     0
  9
$USERI2
 70
     0
  9
$USERI3
 70
     0
  9
$USERI4
 70
     0
  9
$USERI5
 70
     0
  9
$USERR1
 40
0.0
  9
$USERR2
 40
0.0
  9
$USERR3
 40
0.0
  9
$USERR4
 40
0.0
  9
$USERR5
 40
0.0
  9
$WORLDVIEW
 70
     1
  9
$SHADEDGE
 70
     3
  9
$SHADEDIF
 70
    70
  9
$TILEMODE
 70
     1
  9
$MAXACTVP
 70
    64
  9
$PINSBASE
 10
0.0
 20
0.0
 30
0.0
  9
$PLIMCHECK
 70
     0
  9
$PEXTMIN
 10
1.0000000000E+20
 20
1.0000000000E+20
 30
1.0000000000E+20
  9
$PEXTMAX
 10
-1.0000000000E+20
 20
-1.0000000000E+20
 30
-1.0000000000E+20
  9
$PLIMMIN
 10
0.0
 20
0.0
  9
$PLIMMAX
 10
420.0
 20
297.0
  9
$UNITMODE
 70
     0
  9
$VISRETAIN
 70
     1
  9
$PLINEGEN
 70
     0
  9
$PSLTSCALE
 70
     1
  9
$TREEDEPTH
 70
  3020
  9
$CMLSTYLE
  2
Standard
  9
$CMLJUST
 70
     0
  9
$CMLSCALE
 40
20.0
  9
$PROXYGRAPHICS
 70
     1
  9
$MEASUREMENT
 70
     1
  9
$CELWEIGHT
370
    -1
  9
$ENDCAPS
280
     0
  9
$JOINSTYLE
280
     0
  9
$LWDISPLAY
290
     1
  9
$INSUNITS
 70
     4
  9
$HYPERLINKBASE
  1

  9
$STYLESHEET
  1

  9
$XEDIT
290
     1
  9
$CEPSNTYPE
380
     0
  9
$PSTYLEMODE
290
     1
  9
$FINGERPRINTGUID
  2
{ecf06477-0451-435b-872e-282967023c3b}
  9
$VERSIONGUID
  2
{FAEB1C32-E019-11D5-929B-00C0DF256EC4}
  9
$EXTNAMES
290
     1
  9
$PSVPSCALE
 40
0.0
  9
$OLESTARTUP
290
     0
  0
ENDSEC
  0
SECTION
  2
CLASSES
  0
CLASS
  1
ACDBDICTIONARYWDFLT
  2
AcDbDictionaryWithDefault
  3
ObjectDBX Classes
 90
        0
280
     0
281
     0
  0
CLASS
  1
VISUALSTYLE
  2
AcDbVisualStyle
  3
ObjectDBX Classes
 90
     4095
280
     0
281
     0
  0
CLASS
  1
MATERIAL
  2
AcDbMaterial
  3
ObjectDBX Classes
 90
     1153
280
     0
281
     0
  0
CLASS
  1
SCALE
  2
AcDbScale
  3
ObjectDBX Classes
 90
     1153
280
     0
281
     0
  0
CLASS
  1
TABLESTYLE
  2
AcDbTableStyle
  3
ObjectDBX Classes
 90
     4095
280
     0
281
     0
  0
CLASS
  1
MLEADERSTYLE
  2
AcDbMLeaderStyle
  3
ACDB_MLEADERSTYLE_CLASS
 90
     4095
280
     0
281
     0
  0
CLASS
  1
SUN
  2
AcDbSun
  3
SCENEOE
 90
     1153
280
     0
281
     0
  0
CLASS
  1
ACDBPLACEHOLDER
  2
AcDbPlaceHolder
  3
ObjectDBX Classes
 90
        0
280
     0
281
     0
  0
CLASS
  1
LAYOUT
  2
AcDbLayout
  3
ObjectDBX Classes
 90
        0
280
     0
281
     0
  0
ENDSEC
  0
SECTION
  2
TABLES
  0
TABLE
  2
VPORT
  5
8
330
0
100
AcDbSymbolTable
 70
     1
  0
VPORT
  5
29
330
8
100
AcDbSymbolTableRecord
100
AcDbViewportTableRecord
  2
*Active
 70
     0
 10
0.0
 20
0.0
 11
1.0
 21
1.0
 12
105.0
 22
148.5
 13
0.0
 23
0.0
 14
10.0
 24
10.0
 15
10.0
 25
10.0
 16
0.0
 26
0.0
 36
1.0
 17
0.0
 27
0.0
 37
0.0
 40
297.0
 41
0.7070707071
 42
50.0
 43
0.0
 44
0.0
 50
0.0
 51
0.0
 71
     0
 72
  2000
 73
     1
 74
     3
 75
     0
 76
     0
 77
     0
 78
     0
281
     0
 65
     1
110
0.0
120
0.0
130
0.0
111
1.0
121
0.0
131
0.0
112
0.0
122
1.0
132
0.0
 79
     0
146
0.0
  0
ENDTAB
  0
TABLE
  2
LTYPE
  5
5
330
0
100
AcDbSymbolTable
 70
     6
  0
LTYPE
  5
14
330
5
100
AcDbSymbolTableRecord
100
AcDbLinetypeTableRecord
  2
ByBlock
 70
     0
  3

 72
    65
 73
     0
 40
0.0
  0
LTYPE
  5
15
330
5
100
AcDbSymbolTableRecord
100
AcDbLinetypeTableRecord
  2
ByLayer
 70
     0
  3

 72
    65
 73
     0
 40
0.0
  0
LTYPE
  5
16
330
5
100
AcDbSymbolTableRecord
100
AcDbLinetypeTableRecord
  2
Continuous
 70
     0
  3
Solid line
 72
    65
 73
     0
 40
0.0
  0
LTYPE
  5
5E
330
5
100
AcDbSymbolTableRecord
100
AcDbLinetypeTableRecord
  2
HIDDEN
 70
     0
  3
Hidden __ __ __ __ __ __ __ __ __ __ __ __ __ __
 72
    65
 73
     2
 40
1.905
 49
1.27
 74
     0
 49
-0.635
 74
     0
  0
LTYPE
  5
5F
330
5
100
AcDbSymbolTableRecord
100
AcDbLinetypeTableRecord
  2
PHANTOM
 70
     0
  3
Phantom ______  __  __  ______  __  __  ______
 72
    65
 73
     6
 40
12.7
 49
6.35
 74
     0
 49
-1.27
 74
     0
 49
1.27
 74
     0
 49
-1.27
 74
     0
 49
1.27
 74
     0
 49
-1.27
 74
     0
  0
LTYPE
  5
60
330
5
100
AcDbSymbolTableRecord
100
AcDbLinetypeTableRecord
  2
CENTER
 70
     0
  3
Center ____ _ ____ _ ____ _ ____ _ ____ _ ____
 72
    65
 73
     4
 40
10.16
 49
6.35
 74
     0
 49
-1.27
 74
     0
 49
1.27
 74
     0
 49
-1.27
 74
     0
  0
LTYPE
  5
61
330
5
100
AcDbSymbolTableRecord
100
AcDbLinetypeTableRecord
  2
CENTERX2
 70
     0
  3
Center (2x) ________  __  ________  __  _____
 72
    65
 73
     4
 40
20.32
 49
12.7
 74
     0
 49
-2.54
 74
     0
 49
2.54
 74
     0
 49
-2.54
 74
     0
  0
LTYPE
  5
62
330
5
100
AcDbSymbolTableRecord
100
AcDbLinetypeTableRecord
  2
DOT2
 70
     0
  3
Dot (.5x) ........................................
 72
    65
 73
     2
 40
0.635
 49
0.0
 74
     0
 49
-0.635
 74
     0
  0
ENDTAB
  0
TABLE
  2
LAYER
  5
2
330
0
100
AcDbSymbolTable
 70
     2
  0
LAYER
  5
10
330
2
100
AcDbSymbolTableRecord
100
AcDbLayerTableRecord
  2
0
 70
     0
 62
     7
  6
Continuous
370
    -3
390
F
  0
LAYER
  5
63
330
2
100
AcDbSymbolTableRecord
100
AcDbLayerTableRecord
  2
FORMAT
 70
     0
 62
     7
  6
Continuous
370
    -3
390
F
  0
ENDTAB
  0
TABLE
  2
STYLE
  5
3
330
0
100
AcDbSymbolTable
 70
     2
  0
STYLE
  5
11
330
3
100
AcDbSymbolTableRecord
100
AcDbTextStyleTableRecord
  2
Standard
 70
     0
 40
0.0
 41
1.0
 50
0.0
 71
     0
 42
3.5
  3
txt
  4
bigfont
  0
STYLE
  5
64
330
3
100
AcDbSymbolTableRecord
100
AcDbTextStyleTableRecord
  2
SLDTEXTSTYLE0
 70
     0
 40
0.0
 41
0.7
 50
0.0
 71
     0
 42
3.5
  3
TXT
  4
bigfont
  0
ENDTAB
  0
TABLE
  2
VIEW
  5
6
330
0
100
AcDbSymbolTable
 70
     0
  0
ENDTAB
  0
TABLE
  2
UCS
  5
7
330
0
100
AcDbSymbolTable
 70
     0
  0
ENDTAB
  0
TABLE
  2
APPID
  5
9
330
0
100
AcDbSymbolTable
 70
     1
  0
APPID
  5
12
330
9
100
AcDbSymbolTableRecord
100
AcDbRegAppTableRecord
  2
ACAD
 70
     0
  0
ENDTAB
  0
TABLE
  2
DIMSTYLE
  5
A
330
0
100
AcDbSymbolTable
 70
     1
100
AcDbDimStyleTable
  0
DIMSTYLE
105
27
330
A
100
AcDbSymbolTableRecord
100
AcDbDimStyleTableRecord
  2
ISO-25
 70
     0
 41
2.5
 42
0.625
 43
3.75
 44
1.25
 73
     0
 74
     0
 77
     1
 78
     8
140
2.5
141
2.5
143
0.0393700787
147
0.625
171
     3
172
     1
178
     0
271
     2
272
     2
274
     3
278
    44
283
     0
284
     8
340
11
  0
ENDTAB
  0
TABLE
  2
BLOCK_RECORD
  5
1
330
0
100
AcDbSymbolTable
 70
     1
  0
BLOCK_RECORD
  5
1F
330
1
100
AcDbSymbolTableRecord
100
AcDbBlockTableRecord
  2
*Model_Space
340
22
  0
BLOCK_RECORD
  5
1B
330
1
100
AcDbSymbolTableRecord
100
AcDbBlockTableRecord
  2
*Paper_Space
340
1E
  0
BLOCK_RECORD
  5
23
330
1
100
AcDbSymbolTableRecord
100
AcDbBlockTableRecord
  2
*Paper_Space0
340
26
  0
ENDTAB
  0
ENDSEC
  0
SECTION
  2
BLOCKS
  0
BLOCK
  5
20
330
1F
100
AcDbEntity
  8
0
100
AcDbBlockBegin
  2
*Model_Space
 70
     0
 10
0.0
 20
0.0
 30
0.0
  3
*Model_Space
  1

  0
ENDBLK
  5
21
330
1F
100
AcDbEntity
  8
0
100
AcDbBlockEnd
  0
BLOCK
  5
1C
330
1B
100
AcDbEntity
 67
     1
  8
0
100
AcDbBlockBegin
  2
*Paper_Space
 70
     0
 10
0.0
 20
0.0
 30
0.0
  3
*Paper_Space
  1

  0
ENDBLK
  5
1D
330
1B
100
AcDbEntity
 67
     1
  8
0
100
AcDbBlockEnd
  0
BLOCK
  5
24
330
23
100
AcDbEntity
  8
0
100
AcDbBlockBegin
  2
*Paper_Space0
 70
     0
 10
0.0
 20
0.0
 30
0.0
  3
*Paper_Space0
  1

  0
ENDBLK
  5
25
330
23
100
AcDbEntity
  8
0
100
AcDbBlockEnd
  0
ENDSEC
  0
SECTION
  2
ENTITIES
  0
MTEXT
  5
65
330
1F
100
AcDbEntity
  8
0
  6
Continuous
 62
     7
370
     0
100
AcDbMText
 10
118.4656556359
 20
128.3835007026
 30
0.0
 40
3.5
 41
0.0
 71
     1
 72
     1
  1
000
  7
SLDTEXTSTYLE0
 73
     1
 44
1.0
  0
LINE
  5
66
330
1F
100
AcDbEntity
  8
0
  6
Continuous
 62
     7
370
    25
100
AcDbLine
 10
76.0912696718
 20
192.8841778953
 30
0.0
 11
74.3412696718
 21
192.8841778953
 31
0.0
  0
LINE
  5
67
330
1F
100
AcDbEntity
  8
0
  6
Continuous
 62
     7
370
    25
100
AcDbLine
 10
76.0912696718
 20
192.8841778953
 30
0.0
 11
76.0912696718
 21
189.6341778953
 31
0.0
  0
LINE
  5
68
330
1F
100
AcDbEntity
  8
0
  6
Continuous
 62
     7
370
    25
100
AcDbLine
 10
74.3412696718
 20
192.8841778953
 30
0.0
 11
74.3412696718
 21
189.6341778953
 31
0.0
  0
LINE
  5
69
330
1F
100
AcDbEntity
  8
0
  6
Continuous
 62
     7
370
    25
100
AcDbLine
 10
74.3412696718
 20
193.9969696307
 30
0.0
 11
74.3412696718
 21
192.8841778953
 31
0.0
  0
ARC
  5
6A
330
1F
100
AcDbEntity
  8
0
  6
Continuous
 62
     7
370
    25
100
AcDbCircle
 10
75.2162696718
 20
195.045936703
 30
0.0
 40
1.366000336277253
100
AcDbArc
 50
230.1666927138
 51
309.8333072862
  0
LINE
  5
6B
330
1F
100
AcDbEntity
  8
0
  6
Continuous
 62
     7
370
    25
100
AcDbLine
 10
76.0912696718
 20
193.9969696307
 30
0.0
 11
76.0912696718
 21
192.8841778953
 31
0.0
  0
LINE
  5
6C
330
1F
100
AcDbEntity
  8
0
  6
Continuous
 62
     7
370
    25
100
AcDbLine
 10
74.3412696718
 20
189.6341778953
 30
0.0
 11
74.3412696718
 21
189.3341778953
 31
0.0
  0
LINE
  5
6D
330
1F
100
AcDbEntity
  8
0
  6
Continuous
 62
     7
370
    25
100
AcDbLine
 10
76.0912696718
 20
189.6341778953
 30
0.0
 11
76.0912696718
 21
189.0841778953
 31
0.0
  0
ARC
  5
6E
330
1F
100
AcDbEntity
  8
0
  6
Continuous
 62
     7
370
    25
100
AcDbCircle
 10
75.2162696718
 20
197.2678774684
 30
0.0
 40
1.36600033627724
100
AcDbArc
 50
230.1666927138
 51
309.8333072862
  0
ARC
  5
6F
330
1F
100
AcDbEntity
  8
0
  6
Continuous
 62
     7
370
    25
100
AcDbCircle
 10
75.2162696718
 20
193.5217051972
 30
0.0
 40
1.366000336277197
100
AcDbArc
 50
50.1666927138
 51
129.8333072862
  0
LINE
  5
70
330
1F
100
AcDbEntity
  8
0
  6
Continuous
 62
     7
370
    25
100
AcDbLine
 10
74.3412696718
 20
196.2189103961
 30
0.0
 11
74.3412696718
 21
194.5706722694
 31
0.0
  0
LINE
  5
71
330
1F
100
AcDbEntity
  8
0
  6
Continuous
 62
     7
370
    25
100
AcDbLine
 10
76.0912696718
 20
196.2189103961
 30
0.0
 11
76.0912696718
 21
194.5706722694
 31
0.0
  0
LINE
  5
72
330
1F
100
AcDbEntity
  8
0
  6
Continuous
 62
     7
370
    25
100
AcDbLine
 10
74.3412696718
 20
193.9969696307
 30
0.0
 11
74.3412696718
 21
194.5706722694
 31
0.0
  0
LINE
  5
73
330
1F
100
AcDbEntity
  8
0
  6
Continuous
 62
     7
370
    25
100
AcDbLine
 10
76.0912696718
 20
193.9969696307
 30
0.0
 11
76.0912696718
 21
194.5706722694
 31
0.0
  0
ARC
  5
74
330
1F
100
AcDbEntity
  8
0
  6
Continuous
 62
     7
370
    25
100
AcDbCircle
 10
75.2162696718
 20
195.7436459626
 30
0.0
 40
1.366000336277188
100
AcDbArc
 50
50.1666927138
 51
129.8333072862
  0
LINE
  5
75
330
1F
100
AcDbEntity
  8
0
  6
Continuous
 62
     7
370
    25
100
AcDbLine
 10
74.3412696718
 20
196.2189103961
 30
0.0
 11
74.3412696718
 21
196.7926130348
 31
0.0
  0
LINE
  5
76
330
1F
100
AcDbEntity
  8
0
  6
Continuous
 62
     7
370
    25
100
AcDbLine
 10
76.0912696718
 20
196.2189103961
 30
0.0
 11
76.0912696718
 21
196.7926130348
 31
0.0
  0
LINE
  5
77
330
1F
100
AcDbEntity
  8
0
  6
Continuous
 62
     7
370
    25
100
AcDbLine
 10
76.0912696718
 20
197.3341778953
 30
0.0
 11
74.3412696718
 21
197.3341778953
 31
0.0
  0
LINE
  5
78
330
1F
100
AcDbEntity
  8
0
  6
Continuous
 62
     7
370
    25
100
AcDbLine
 10
74.3412696718
 20
197.3341778953
 30
0.0
 11
74.3412696718
 21
196.7926130348
 31
0.0
  0
LINE
  5
79
330
1F
100
AcDbEntity
  8
0
  6
Continuous
 62
     7
370
    25
100
AcDbLine
 10
76.0912696718
 20
197.3341778953
 30
0.0
 11
76.0912696718
 21
196.7926130348
 31
0.0
  0
LINE
  5
7A
330
1F
100
AcDbEntity
  8
0
  6
Continuous
 62
     7
370
    25
100
AcDbLine
 10
72.5912696718
 20
189.6341778953
 30
0.0
 11
72.5912696718
 21
189.3341778953
 31
0.0
  0
LINE
  5
7B
330
1F
100
AcDbEntity
  8
0
  6
Continuous
 62
     7
370
    25
100
AcDbLine
 10
74.3412696718
 20
189.6341778953
 30
0.0
 11
74.3412696718
 21
189.3341778953
 31
0.0
  0
LINE
  5
7C
330
1F
100
AcDbEntity
  8
0
  6
Continuous
 62
     7
370
    25
100
AcDbLine
 10
74.3412696718
 20
192.8841778953
 30
0.0
 11
72.5912696718
 21
192.8841778953
 31
0.0
  0
LINE
  5
7D
330
1F
100
AcDbEntity
  8
0
  6
Continuous
 62
     7
370
    25
100
AcDbLine
 10
72.5912696718
 20
192.8841778953
 30
0.0
 11
72.5912696718
 21
189.6341778953
 31
0.0
  0
LINE
  5
7E
330
1F
100
AcDbEntity
  8
0
  6
Continuous
 62
     7
370
    25
100
AcDbLine
 10
74.3412696718
 20
192.8841778953
 30
0.0
 11
74.3412696718
 21
189.6341778953
 31
0.0
  0
LINE
  5
7F
330
1F
100
AcDbEntity
  8
0
  6
Continuous
 62
     7
370
    25
100
AcDbLine
 10
72.5912696718
 20
193.9969696307
 30
0.0
 11
72.5912696718
 21
192.8841778953
 31
0.0
  0
ARC
  5
80
330
1F
100
AcDbEntity
  8
0
  6
Continuous
 62
     7
370
    25
100
AcDbCircle
 10
73.4662696718
 20
195.045936703
 30
0.0
 40
1.366000336277218
100
AcDbArc
 50
230.1666927138
 51
309.8333072862
  0
LINE
  5
81
330
1F
100
AcDbEntity
  8
0
  6
Continuous
 62
     7
370
    25
100
AcDbLine
 10
74.3412696718
 20
193.9969696307
 30
0.0
 11
74.3412696718
 21
192.8841778953
 31
0.0
  0
ARC
  5
82
330
1F
100
AcDbEntity
  8
0
  6
Continuous
 62
     7
370
    25
100
AcDbCircle
 10
73.4662696718
 20
193.5217051972
 30
0.0
 40
1.366000336277166
100
AcDbArc
 50
50.1666927138
 51
129.8333072863
  0
LINE
  5
83
330
1F
100
AcDbEntity
  8
0
  6
Continuous
 62
     7
370
    25
100
AcDbLine
 10
72.5912696718
 20
193.9969696307
 30
0.0
 11
72.5912696718
 21
194.5706722694
 31
0.0
  0
LINE
  5
84
330
1F
100
AcDbEntity
  8
0
  6
Continuous
 62
     7
370
    25
100
AcDbLine
 10
74.3412696718
 20
193.9969696307
 30
0.0
 11
74.3412696718
 21
194.5706722694
 31
0.0
  0
ARC
  5
85
330
1F
100
AcDbEntity
  8
0
  6
Continuous
 62
     7
370
    25
100
AcDbCircle
 10
73.4662696718
 20
197.2678774684
 30
0.0
 40
1.366000336277188
100
AcDbArc
 50
230.1666927138
 51
309.8333072863
  0
LINE
  5
86
330
1F
100
AcDbEntity
  8
0
  6
Continuous
 62
     7
370
    25
100
AcDbLine
 10
72.5912696718
 20
196.2189103961
 30
0.0
 11
72.5912696718
 21
194.5706722694
 31
0.0
  0
LINE
  5
87
330
1F
100
AcDbEntity
  8
0
  6
Continuous
 62
     7
370
    25
100
AcDbLine
 10
74.3412696718
 20
196.2189103961
 30
0.0
 11
74.3412696718
 21
194.5706722694
 31
0.0
  0
ARC
  5
88
330
1F
100
AcDbEntity
  8
0
  6
Continuous
 62
     7
370
    25
100
AcDbCircle
 10
73.4662696718
 20
195.7436459626
 30
0.0
 40
1.366000336277166
100
AcDbArc
 50
50.1666927138
 51
129.8333072863
  0
LINE
  5
89
330
1F
100
AcDbEntity
  8
0
  6
Continuous
 62
     7
370
    25
100
AcDbLine
 10
72.5912696718
 20
196.2189103961
 30
0.0
 11
72.5912696718
 21
196.7926130348
 31
0.0
  0
LINE
  5
8A
330
1F
100
AcDbEntity
  8
0
  6
Continuous
 62
     7
370
    25
100
AcDbLine
 10
74.3412696718
 20
196.2189103961
 30
0.0
 11
74.3412696718
 21
196.7926130348
 31
0.0
  0
LINE
  5
8B
330
1F
100
AcDbEntity
  8
0
  6
Continuous
 62
     7
370
    25
100
AcDbLine
 10
74.3412696718
 20
197.3341778953
 30
0.0
 11
72.5912696718
 21
197.3341778953
 31
0.0
  0
LINE
  5
8C
330
1F
100
AcDbEntity
  8
0
  6
Continuous
 62
     7
370
    25
100
AcDbLine
 10
72.5912696718
 20
197.3341778953
 30
0.0
 11
72.5912696718
 21
196.7926130348
 31
0.0
  0
LINE
  5
8D
330
1F
100
AcDbEntity
  8
0
  6
Continuous
 62
     7
370
    25
100
AcDbLine
 10
74.3412696718
 20
197.3341778953
 30
0.0
 11
74.3412696718
 21
196.7926130348
 31
0.0
  0
LINE
  5
8E
330
1F
100
AcDbEntity
  8
0
  6
Continuous
 62
     7
370
    25
100
AcDbLine
 10
72.5912696718
 20
192.8841778953
 30
0.0
 11
70.8412696718
 21
192.8841778953
 31
0.0
  0
LINE
  5
8F
330
1F
100
AcDbEntity
  8
0
  6
Continuous
 62
     7
370
    25
100
AcDbLine
 10
70.8412696718
 20
193.9969696307
 30
0.0
 11
70.8412696718
 21
192.8841778953
 31
0.0
  0
ARC
  5
90
330
1F
100
AcDbEntity
  8
0
  6
Continuous
 62
     7
370
    25
100
AcDbCircle
 10
71.7162696718
 20
195.045936703
 30
0.0
 40
1.366000336277231
100
AcDbArc
 50
230.1666927138
 51
309.8333072862
  0
LINE
  5
91
330
1F
100
AcDbEntity
  8
0
  6
Continuous
 62
     7
370
    25
100
AcDbLine
 10
72.5912696718
 20
193.9969696307
 30
0.0
 11
72.5912696718
 21
192.8841778953
 31
0.0
  0
LINE
  5
92
330
1F
100
AcDbEntity
  8
0
  6
Continuous
 62
     7
370
    25
100
AcDbLine
 10
72.5912696718
 20
192.8841778953
 30
0.0
 11
72.5912696718
 21
189.6341778953
 31
0.0
  0
LINE
  5
93
330
1F
100
AcDbEntity
  8
0
  6
Continuous
 62
     7
370
    25
100
AcDbLine
 10
70.8412696718
 20
192.8841778953
 30
0.0
 11
70.8412696718
 21
189.6341778953
 31
0.0
  0
LINE
  5
94
330
1F
100
AcDbEntity
  8
0
  6
Continuous
 62
     7
370
    25
100
AcDbLine
 10
72.5912696718
 20
189.6341778953
 30
0.0
 11
72.5912696718
 21
189.3341778953
 31
0.0
  0
LINE
  5
95
330
1F
100
AcDbEntity
  8
0
  6
Continuous
 62
     7
370
    25
100
AcDbLine
 10
70.8412696718
 20
189.6341778953
 30
0.0
 11
70.8412696718
 21
189.3341778953
 31
0.0
  0
ARC
  5
96
330
1F
100
AcDbEntity
  8
0
  6
Continuous
 62
     7
370
    25
100
AcDbCircle
 10
71.7162696718
 20
193.5217051972
 30
0.0
 40
1.366000336277166
100
AcDbArc
 50
50.1666927138
 51
129.8333072863
  0
LINE
  5
97
330
1F
100
AcDbEntity
  8
0
  6
Continuous
 62
     7
370
    25
100
AcDbLine
 10
70.8412696718
 20
193.9969696307
 30
0.0
 11
70.8412696718
 21
194.5706722694
 31
0.0
  0
LINE
  5
98
330
1F
100
AcDbEntity
  8
0
  6
Continuous
 62
     7
370
    25
100
AcDbLine
 10
72.5912696718
 20
193.9969696307
 30
0.0
 11
72.5912696718
 21
194.5706722694
 31
0.0
  0
ARC
  5
99
330
1F
100
AcDbEntity
  8
0
  6
Continuous
 62
     7
370
    25
100
AcDbCircle
 10
71.7162696718
 20
197.2678774684
 30
0.0
 40
1.366000336277197
100
AcDbArc
 50
230.1666927138
 51
309.8333072862
  0
LINE
  5
9A
330
1F
100
AcDbEntity
  8
0
  6
Continuous
 62
     7
370
    25
100
AcDbLine
 10
70.8412696718
 20
196.2189103961
 30
0.0
 11
70.8412696718
 21
194.5706722694
 31
0.0
  0
LINE
  5
9B
330
1F
100
AcDbEntity
  8
0
  6
Continuous
 62
     7
370
    25
100
AcDbLine
 10
72.5912696718
 20
196.2189103961
 30
0.0
 11
72.5912696718
 21
194.5706722694
 31
0.0
  0
ARC
  5
9C
330
1F
100
AcDbEntity
  8
0
  6
Continuous
 62
     7
370
    25
100
AcDbCircle
 10
71.7162696718
 20
195.7436459626
 30
0.0
 40
1.366000336277175
100
AcDbArc
 50
50.1666927138
 51
129.8333072862
  0
LINE
  5
9D
330
1F
100
AcDbEntity
  8
0
  6
Continuous
 62
     7
370
    25
100
AcDbLine
 10
70.8412696718
 20
196.2189103961
 30
0.0
 11
70.8412696718
 21
196.7926130348
 31
0.0
  0
LINE
  5
9E
330
1F
100
AcDbEntity
  8
0
  6
Continuous
 62
     7
370
    25
100
AcDbLine
 10
72.5912696718
 20
196.2189103961
 30
0.0
 11
72.5912696718
 21
196.7926130348
 31
0.0
  0
LINE
  5
9F
330
1F
100
AcDbEntity
  8
0
  6
Continuous
 62
     7
370
    25
100
AcDbLine
 10
72.5912696718
 20
197.3341778953
 30
0.0
 11
70.8412696718
 21
197.3341778953
 31
0.0
  0
LINE
  5
A0
330
1F
100
AcDbEntity
  8
0
  6
Continuous
 62
     7
370
    25
100
AcDbLine
 10
70.8412696718
 20
197.3341778953
 30
0.0
 11
70.8412696718
 21
196.7926130348
 31
0.0
  0
LINE
  5
A1
330
1F
100
AcDbEntity
  8
0
  6
Continuous
 62
     7
370
    25
100
AcDbLine
 10
72.5912696718
 20
197.3341778953
 30
0.0
 11
72.5912696718
 21
196.7926130348
 31
0.0
  0
LINE
  5
A2
330
1F
100
AcDbEntity
  8
0
  6
Continuous
 62
     7
370
    25
100
AcDbLine
 10
70.8412696718
 20
192.8841778953
 30
0.0
 11
69.0912696718
 21
192.8841778953
 31
0.0
  0
LINE
  5
A3
330
1F
100
AcDbEntity
  8
0
  6
Continuous
 62
     7
370
    25
100
AcDbLine
 10
69.0912696718
 20
193.9969696307
 30
0.0
 11
69.0912696718
 21
192.8841778953
 31
0.0
  0
ARC
  5
A4
330
1F
100
AcDbEntity
  8
0
  6
Continuous
 62
     7
370
    25
100
AcDbCircle
 10
69.9662696718
 20
195.045936703
 30
0.0
 40
1.366000336277206
100
AcDbArc
 50
230.1666927138
 51
309.8333072862
  0
LINE
  5
A5
330
1F
100
AcDbEntity
  8
0
  6
Continuous
 62
     7
370
    25
100
AcDbLine
 10
70.8412696718
 20
193.9969696307
 30
0.0
 11
70.8412696718
 21
192.8841778953
 31
0.0
  0
LINE
  5
A6
330
1F
100
AcDbEntity
  8
0
  6
Continuous
 62
     7
370
    25
100
AcDbLine
 10
69.0912696718
 20
189.6341778953
 30
0.0
 11
69.0912696718
 21
189.3341778953
 31
0.0
  0
LINE
  5
A7
330
1F
100
AcDbEntity
  8
0
  6
Continuous
 62
     7
370
    25
100
AcDbLine
 10
70.8412696718
 20
189.6341778953
 30
0.0
 11
70.8412696718
 21
189.3341778953
 31
0.0
  0
LINE
  5
A8
330
1F
100
AcDbEntity
  8
0
  6
Continuous
 62
     7
370
    25
100
AcDbLine
 10
69.0912696718
 20
192.8841778953
 30
0.0
 11
69.0912696718
 21
189.6341778953
 31
0.0
  0
LINE
  5
A9
330
1F
100
AcDbEntity
  8
0
  6
Continuous
 62
     7
370
    25
100
AcDbLine
 10
70.8412696718
 20
192.8841778953
 30
0.0
 11
70.8412696718
 21
189.6341778953
 31
0.0
  0
ARC
  5
AA
330
1F
100
AcDbEntity
  8
0
  6
Continuous
 62
     7
370
    25
100
AcDbCircle
 10
69.9662696718
 20
197.2678774684
 30
0.0
 40
1.366000336277218
100
AcDbArc
 50
230.1666927138
 51
309.8333072862
  0
ARC
  5
AB
330
1F
100
AcDbEntity
  8
0
  6
Continuous
 62
     7
370
    25
100
AcDbCircle
 10
69.9662696718
 20
193.5217051972
 30
0.0
 40
1.36600033627724
100
AcDbArc
 50
50.1666927138
 51
129.8333072862
  0
LINE
  5
AC
330
1F
100
AcDbEntity
  8
0
  6
Continuous
 62
     7
370
    25
100
AcDbLine
 10
69.0912696718
 20
196.2189103961
 30
0.0
 11
69.0912696718
 21
194.5706722694
 31
0.0
  0
LINE
  5
AD
330
1F
100
AcDbEntity
  8
0
  6
Continuous
 62
     7
370
    25
100
AcDbLine
 10
70.8412696718
 20
196.2189103961
 30
0.0
 11
70.8412696718
 21
194.5706722694
 31
0.0
  0
LINE
  5
AE
330
1F
100
AcDbEntity
  8
0
  6
Continuous
 62
     7
370
    25
100
AcDbLine
 10
69.0912696718
 20
193.9969696307
 30
0.0
 11
69.0912696718
 21
194.5706722694
 31
0.0
  0
LINE
  5
AF
330
1F
100
AcDbEntity
  8
0
  6
Continuous
 62
     7
370
    25
100
AcDbLine
 10
70.8412696718
 20
193.9969696307
 30
0.0
 11
70.8412696718
 21
194.5706722694
 31
0.0
  0
LINE
  5
B0
330
1F
100
AcDbEntity
  8
0
  6
Continuous
 62
     7
370
    25
100
AcDbLine
 10
70.8412696718
 20
197.3341778953
 30
0.0
 11
69.0912696718
 21
197.3341778953
 31
0.0
  0
ARC
  5
B1
330
1F
100
AcDbEntity
  8
0
  6
Continuous
 62
     7
370
    25
100
AcDbCircle
 10
69.9662696718
 20
195.7436459626
 30
0.0
 40
1.366000336277209
100
AcDbArc
 50
50.1666927138
 51
129.8333072862
  0
LINE
  5
B2
330
1F
100
AcDbEntity
  8
0
  6
Continuous
 62
     7
370
    25
100
AcDbLine
 10
69.0912696718
 20
197.3341778953
 30
0.0
 11
69.0912696718
 21
196.7926130348
 31
0.0
  0
LINE
  5
B3
330
1F
100
AcDbEntity
  8
0
  6
Continuous
 62
     7
370
    25
100
AcDbLine
 10
70.8412696718
 20
197.3341778953
 30
0.0
 11
70.8412696718
 21
196.7926130348
 31
0.0
  0
LINE
  5
B4
330
1F
100
AcDbEntity
  8
0
  6
Continuous
 62
     7
370
    25
100
AcDbLine
 10
69.0912696718
 20
196.2189103961
 30
0.0
 11
69.0912696718
 21
196.7926130348
 31
0.0
  0
LINE
  5
B5
330
1F
100
AcDbEntity
  8
0
  6
Continuous
 62
     7
370
    25
100
AcDbLine
 10
70.8412696718
 20
196.2189103961
 30
0.0
 11
70.8412696718
 21
196.7926130348
 31
0.0
  0
LINE
  5
B6
330
1F
100
AcDbEntity
  8
0
  6
Continuous
 62
     7
370
    25
100
AcDbLine
 10
69.0912696718
 20
189.6341778953
 30
0.0
 11
69.0912696718
 21
189.3341778953
 31
0.0
  0
LINE
  5
B7
330
1F
100
AcDbEntity
  8
0
  6
Continuous
 62
     7
370
    25
100
AcDbLine
 10
67.3412696718
 20
189.6341778953
 30
0.0
 11
67.3412696718
 21
189.3341778953
 31
0.0
  0
LINE
  5
B8
330
1F
100
AcDbEntity
  8
0
  6
Continuous
 62
     7
370
    25
100
AcDbLine
 10
69.0912696718
 20
192.8841778953
 30
0.0
 11
67.3412696718
 21
192.8841778953
 31
0.0
  0
LINE
  5
B9
330
1F
100
AcDbEntity
  8
0
  6
Continuous
 62
     7
370
    25
100
AcDbLine
 10
69.0912696718
 20
192.8841778953
 30
0.0
 11
69.0912696718
 21
189.6341778953
 31
0.0
  0
LINE
  5
BA
330
1F
100
AcDbEntity
  8
0
  6
Continuous
 62
     7
370
    25
100
AcDbLine
 10
67.3412696718
 20
192.8841778953
 30
0.0
 11
67.3412696718
 21
189.6341778953
 31
0.0
  0
LINE
  5
BB
330
1F
100
AcDbEntity
  8
0
  6
Continuous
 62
     7
370
    25
100
AcDbLine
 10
67.3412696718
 20
193.9969696307
 30
0.0
 11
67.3412696718
 21
192.8841778953
 31
0.0
  0
ARC
  5
BC
330
1F
100
AcDbEntity
  8
0
  6
Continuous
 62
     7
370
    25
100
AcDbCircle
 10
68.2162696718
 20
195.045936703
 30
0.0
 40
1.366000336277218
100
AcDbArc
 50
230.1666927138
 51
309.8333072862
  0
LINE
  5
BD
330
1F
100
AcDbEntity
  8
0
  6
Continuous
 62
     7
370
    25
100
AcDbLine
 10
69.0912696718
 20
193.9969696307
 30
0.0
 11
69.0912696718
 21
192.8841778953
 31
0.0
  0
ARC
  5
BE
330
1F
100
AcDbEntity
  8
0
  6
Continuous
 62
     7
370
    25
100
AcDbCircle
 10
68.2162696718
 20
193.5217051972
 30
0.0
 40
1.366000336277144
100
AcDbArc
 50
50.1666927138
 51
129.8333072863
  0
LINE
  5
BF
330
1F
100
AcDbEntity
  8
0
  6
Continuous
 62
     7
370
    25
100
AcDbLine
 10
67.3412696718
 20
193.9969696307
 30
0.0
 11
67.3412696718
 21
194.5706722694
 31
0.0
  0
LINE
  5
C0
330
1F
100
AcDbEntity
  8
0
  6
Continuous
 62
     7
370
    25
100
AcDbLine
 10
69.0912696718
 20
193.9969696307
 30
0.0
 11
69.0912696718
 21
194.5706722694
 31
0.0
  0
ARC
  5
C1
330
1F
100
AcDbEntity
  8
0
  6
Continuous
 62
     7
370
    25
100
AcDbCircle
 10
68.2162696718
 20
197.2678774684
 30
0.0
 40
1.366000336277188
100
AcDbArc
 50
230.1666927138
 51
309.8333072863
  0
LINE
  5
C2
330
1F
100
AcDbEntity
  8
0
  6
Continuous
 62
     7
370
    25
100
AcDbLine
 10
67.3412696718
 20
196.2189103961
 30
0.0
 11
67.3412696718
 21
194.5706722694
 31
0.0
  0
LINE
  5
C3
330
1F
100
AcDbEntity
  8
0
  6
Continuous
 62
     7
370
    25
100
AcDbLine
 10
69.0912696718
 20
196.2189103961
 30
0.0
 11
69.0912696718
 21
194.5706722694
 31
0.0
  0
LINE
  5
C4
330
1F
100
AcDbEntity
  8
0
  6
Continuous
 62
     7
370
    25
100
AcDbLine
 10
69.0912696718
 20
197.3341778953
 30
0.0
 11
67.3412696718
 21
197.3341778953
 31
0.0
  0
ARC
  5
C5
330
1F
100
AcDbEntity
  8
0
  6
Continuous
 62
     7
370
    25
100
AcDbCircle
 10
68.2162696718
 20
195.7436459626
 30
0.0
 40
1.366000336277188
100
AcDbArc
 50
50.1666927138
 51
129.8333072862
  0
LINE
  5
C6
330
1F
100
AcDbEntity
  8
0
  6
Continuous
 62
     7
370
    25
100
AcDbLine
 10
67.3412696718
 20
197.3341778953
 30
0.0
 11
67.3412696718
 21
196.7926130348
 31
0.0
  0
LINE
  5
C7
330
1F
100
AcDbEntity
  8
0
  6
Continuous
 62
     7
370
    25
100
AcDbLine
 10
69.0912696718
 20
197.3341778953
 30
0.0
 11
69.0912696718
 21
196.7926130348
 31
0.0
  0
LINE
  5
C8
330
1F
100
AcDbEntity
  8
0
  6
Continuous
 62
     7
370
    25
100
AcDbLine
 10
67.3412696718
 20
196.2189103961
 30
0.0
 11
67.3412696718
 21
196.7926130348
 31
0.0
  0
LINE
  5
C9
330
1F
100
AcDbEntity
  8
0
  6
Continuous
 62
     7
370
    25
100
AcDbLine
 10
69.0912696718
 20
196.2189103961
 30
0.0
 11
69.0912696718
 21
196.7926130348
 31
0.0
  0
LINE
  5
CA
330
1F
100
AcDbEntity
  8
0
  6
Continuous
 62
     7
370
    25
100
AcDbLine
 10
67.3412696718
 20
192.8841778953
 30
0.0
 11
65.5912696718
 21
192.8841778953
 31
0.0
  0
LINE
  5
CB
330
1F
100
AcDbEntity
  8
0
  6
Continuous
 62
     7
370
    25
100
AcDbLine
 10
65.5912696718
 20
193.9969696307
 30
0.0
 11
65.5912696718
 21
192.8841778953
 31
0.0
  0
ARC
  5
CC
330
1F
100
AcDbEntity
  8
0
  6
Continuous
 62
     7
370
    25
100
AcDbCircle
 10
66.4662696718
 20
195.045936703
 30
0.0
 40
1.366000336277218
100
AcDbArc
 50
230.1666927138
 51
309.8333072863
  0
LINE
  5
CD
330
1F
100
AcDbEntity
  8
0
  6
Continuous
 62
     7
370
    25
100
AcDbLine
 10
67.3412696718
 20
193.9969696307
 30
0.0
 11
67.3412696718
 21
192.8841778953
 31
0.0
  0
LINE
  5
CE
330
1F
100
AcDbEntity
  8
0
  6
Continuous
 62
     7
370
    25
100
AcDbLine
 10
67.3412696718
 20
192.8841778953
 30
0.0
 11
67.3412696718
 21
189.6341778953
 31
0.0
  0
LINE
  5
CF
330
1F
100
AcDbEntity
  8
0
  6
Continuous
 62
     7
370
    25
100
AcDbLine
 10
65.5912696718
 20
192.8841778953
 30
0.0
 11
65.5912696718
 21
189.6341778953
 31
0.0
  0
LINE
  5
D0
330
1F
100
AcDbEntity
  8
0
  6
Continuous
 62
     7
370
    25
100
AcDbLine
 10
67.3412696718
 20
189.6341778953
 30
0.0
 11
67.3412696718
 21
189.3341778953
 31
0.0
  0
LINE
  5
D1
330
1F
100
AcDbEntity
  8
0
  6
Continuous
 62
     7
370
    25
100
AcDbLine
 10
65.5912696718
 20
189.6341778953
 30
0.0
 11
65.5912696718
 21
189.3341778953
 31
0.0
  0
ARC
  5
D2
330
1F
100
AcDbEntity
  8
0
  6
Continuous
 62
     7
370
    25
100
AcDbCircle
 10
66.4662696718
 20
193.5217051972
 30
0.0
 40
1.366000336277106
100
AcDbArc
 50
50.1666927137
 51
129.8333072863
  0
LINE
  5
D3
330
1F
100
AcDbEntity
  8
0
  6
Continuous
 62
     7
370
    25
100
AcDbLine
 10
67.3412696718
 20
193.9969696307
 30
0.0
 11
67.3412696718
 21
194.5706722694
 31
0.0
  0
ARC
  5
D4
330
1F
100
AcDbEntity
  8
0
  6
Continuous
 62
     7
370
    25
100
AcDbCircle
 10
66.4662696718
 20
197.2678774684
 30
0.0
 40
1.366000336277206
100
AcDbArc
 50
230.1666927138
 51
309.8333072862
  0
LINE
  5
D5
330
1F
100
AcDbEntity
  8
0
  6
Continuous
 62
     7
370
    25
100
AcDbLine
 10
65.5912696718
 20
196.2189103961
 30
0.0
 11
65.5912696718
 21
194.5706722694
 31
0.0
  0
LINE
  5
D6
330
1F
100
AcDbEntity
  8
0
  6
Continuous
 62
     7
370
    25
100
AcDbLine
 10
67.3412696718
 20
196.2189103961
 30
0.0
 11
67.3412696718
 21
194.5706722694
 31
0.0
  0
ARC
  5
D7
330
1F
100
AcDbEntity
  8
0
  6
Continuous
 62
     7
370
    25
100
AcDbCircle
 10
66.4662696718
 20
195.7436459626
 30
0.0
 40
1.366000336277175
100
AcDbArc
 50
50.1666927138
 51
129.8333072862
  0
LINE
  5
D8
330
1F
100
AcDbEntity
  8
0
  6
Continuous
 62
     7
370
    25
100
AcDbLine
 10
67.3412696718
 20
196.2189103961
 30
0.0
 11
67.3412696718
 21
196.7926130348
 31
0.0
  0
LINE
  5
D9
330
1F
100
AcDbEntity
  8
0
  6
Continuous
 62
     7
370
    25
100
AcDbLine
 10
67.3412696718
 20
197.3341778953
 30
0.0
 11
65.5912696718
 21
197.3341778953
 31
0.0
  0
LINE
  5
DA
330
1F
100
AcDbEntity
  8
0
  6
Continuous
 62
     7
370
    25
100
AcDbLine
 10
65.5912696718
 20
197.3341778953
 30
0.0
 11
65.5912696718
 21
196.7926130348
 31
0.0
  0
LINE
  5
DB
330
1F
100
AcDbEntity
  8
0
  6
Continuous
 62
     7
370
    25
100
AcDbLine
 10
67.3412696718
 20
197.3341778953
 30
0.0
 11
67.3412696718
 21
196.7926130348
 31
0.0
  0
LINE
  5
DC
330
1F
100
AcDbEntity
  8
0
  6
Continuous
 62
     7
370
    25
100
AcDbLine
 10
64.8412696718
 20
189.0841778953
 30
0.0
 11
64.8412696718
 21
189.6341778953
 31
0.0
  0
LINE
  5
DD
330
1F
100
AcDbEntity
  8
0
  6
Continuous
 62
     7
370
    25
100
AcDbLine
 10
65.5912696718
 20
189.6341778953
 30
0.0
 11
65.5912696718
 21
189.3341778953
 31
0.0
  0
LINE
  5
DE
330
1F
100
AcDbEntity
  8
0
  6
Continuous
 62
     7
370
    25
100
AcDbLine
 10
65.5912696718
 20
192.8841778953
 30
0.0
 11
64.8412696718
 21
192.8841778953
 31
0.0
  0
LINE
  5
DF
330
1F
100
AcDbEntity
  8
0
  6
Continuous
 62
     7
370
    25
100
AcDbLine
 10
64.8412696718
 20
189.6341778953
 30
0.0
 11
64.8412696718
 21
192.8841778953
 31
0.0
  0
LINE
  5
E0
330
1F
100
AcDbEntity
  8
0
  6
Continuous
 62
     7
370
    25
100
AcDbLine
 10
65.5912696718
 20
189.6341778953
 30
0.0
 11
65.5912696718
 21
192.8841778953
 31
0.0
  0
LINE
  5
E1
330
1F
100
AcDbEntity
  8
0
  6
Continuous
 62
     7
370
    25
100
AcDbLine
 10
65.5912696718
 20
197.3341778953
 30
0.0
 11
64.8412696718
 21
197.3341778953
 31
0.0
  0
LINE
  5
E2
330
1F
100
AcDbEntity
  8
0
  6
Continuous
 62
     7
370
    25
100
AcDbLine
 10
64.8412696718
 20
192.8841778953
 30
0.0
 11
64.8412696718
 21
197.3341778953
 31
0.0
  0
LINE
  5
E3
330
1F
100
AcDbEntity
  8
0
  6
Continuous
 62
     7
370
    25
100
AcDbLine
 10
65.5912696718
 20
192.8841778953
 30
0.0
 11
65.5912696718
 21
197.3341778953
 31
0.0
  0
LINE
  5
E4
330
1F
100
AcDbEntity
  8
0
  6
Continuous
 62
     7
370
    25
100
AcDbLine
 10
65.0912696718
 20
139.8341778953
 30
0.0
 11
67.5912696718
 21
139.8341778953
 31
0.0
  0
LINE
  5
E5
330
1F
100
AcDbEntity
  8
0
  6
Continuous
 62
     7
370
    25
100
AcDbLine
 10
65.0912696718
 20
144.2841778953
 30
0.0
 11
67.5912696718
 21
144.2841778953
 31
0.0
  0
LINE
  5
E6
330
1F
100
AcDbEntity
  8
0
  6
Continuous
 62
     7
370
    25
100
AcDbLine
 10
67.5912696718
 20
139.8341778953
 30
0.0
 11
67.5912696718
 21
144.2841778953
 31
0.0
  0
LWPOLYLINE
  5
E7
330
1F
100
AcDbEntity
  8
0
  6
Continuous
 62
     7
370
    25
100
AcDbPolyline
 90
       22
 70
   128
 43
0.0
 10
66.3412696718
 20
141.2632370286
 10
66.0465144973
 20
141.2367714087
 10
65.7779496137
 20
141.1597261358
 10
65.5594381893
 20
141.0389470203
 10
65.4103959231
 20
140.8851658167
 10
65.3440658746
 20
140.7120466598
 10
65.3663417596
 20
140.5349719465
 10
65.475244268
 20
140.369675542
 10
65.661096934
 20
140.2308447573
 10
65.9073859326
 20
140.1308153169
 10
66.1922274056
 20
140.0784752755
 10
66.4903119379
 20
140.0784752755
 10
66.7751534109
 20
140.1308153169
 10
67.0214424095
 20
140.2308447573
 10
67.2072950755
 20
140.369675542
 10
67.3161975839
 20
140.5349719465
 10
67.3384734689
 20
140.7120466598
 10
67.2721434204
 20
140.8851658167
 10
67.1231011542
 20
141.0389470203
 10
66.9045897298
 20
141.1597261358
 10
66.6360248462
 20
141.2367714087
 10
66.3412696718
 20
141.2632370286
  0
LWPOLYLINE
  5
E8
330
1F
100
AcDbEntity
  8
0
  6
Continuous
 62
     7
370
    25
100
AcDbPolyline
 90
       22
 70
   128
 43
0.0
 10
66.3412696718
 20
143.497140745
 10
66.0465144973
 20
143.4706751252
 10
65.7779496137
 20
143.3936298522
 10
65.5594381893
 20
143.2728507367
 10
65.4103959231
 20
143.1190695332
 10
65.3440658746
 20
142.9459503763
 10
65.3663417596
 20
142.7688756629
 10
65.475244268
 20
142.6035792584
 10
65.661096934
 20
142.4647484737
 10
65.9073859326
 20
142.3647190333
 10
66.1922274056
 20
142.3123789919
 10
66.4903119379
 20
142.3123789919
 10
66.7751534109
 20
142.3647190333
 10
67.0214424095
 20
142.4647484737
 10
67.2072950755
 20
142.6035792584
 10
67.3161975839
 20
142.7688756629
 10
67.3384734689
 20
142.9459503763
 10
67.2721434204
 20
143.1190695332
 10
67.1231011542
 20
143.2728507367
 10
66.9045897298
 20
143.3936298522
 10
66.6360248462
 20
143.4706751252
 10
66.3412696718
 20
143.497140745
  0
LINE
  5
E9
330
1F
100
AcDbEntity
  8
0
  6
Continuous
 62
     7
370
    25
100
AcDbLine
 10
65.0912696718
 20
139.8341778953
 30
0.0
 11
65.0912696718
 21
144.2841778953
 31
0.0
  0
LINE
  5
EA
330
1F
100
AcDbEntity
  8
0
  6
Continuous
 62
     7
370
    25
100
AcDbLine
 10
67.5912696718
 20
144.2841778953
 30
0.0
 11
67.5912696718
 21
147.5341778953
 31
0.0
  0
LINE
  5
EB
330
1F
100
AcDbEntity
  8
0
  6
Continuous
 62
     7
370
    25
100
AcDbLine
 10
65.0912696718
 20
144.2841778953
 30
0.0
 11
65.0912696718
 21
147.5341778953
 31
0.0
  0
LINE
  5
EC
330
1F
100
AcDbEntity
  8
0
  6
Continuous
 62
     7
370
    25
100
AcDbLine
 10
67.5912696718
 20
147.5341778953
 30
0.0
 11
67.5912696718
 21
147.8341778953
 31
0.0
  0
LINE
  5
ED
330
1F
100
AcDbEntity
  8
0
  6
Continuous
 62
     7
370
    25
100
AcDbLine
 10
65.0912696718
 20
147.5341778953
 30
0.0
 11
65.0912696718
 21
147.8341778953
 31
0.0
  0
LINE
  5
EE
330
1F
100
AcDbEntity
  8
0
  6
Continuous
 62
     7
370
    25
100
AcDbLine
 10
67.5912696718
 20
144.2841778953
 30
0.0
 11
70.0912696718
 21
144.2841778953
 31
0.0
  0
LINE
  5
EF
330
1F
100
AcDbEntity
  8
0
  6
Continuous
 62
     7
370
    25
100
AcDbLine
 10
70.0912696718
 20
144.2841778953
 30
0.0
 11
70.0912696718
 21
147.5341778953
 31
0.0
  0
LINE
  5
F0
330
1F
100
AcDbEntity
  8
0
  6
Continuous
 62
     7
370
    25
100
AcDbLine
 10
67.5912696718
 20
144.2841778953
 30
0.0
 11
67.5912696718
 21
147.5341778953
 31
0.0
  0
LINE
  5
F1
330
1F
100
AcDbEntity
  8
0
  6
Continuous
 62
     7
370
    25
100
AcDbLine
 10
70.0912696718
 20
147.5341778953
 30
0.0
 11
70.0912696718
 21
147.8341778953
 31
0.0
  0
LINE
  5
F2
330
1F
100
AcDbEntity
  8
0
  6
Continuous
 62
     7
370
    25
100
AcDbLine
 10
67.5912696718
 20
147.5341778953
 30
0.0
 11
67.5912696718
 21
147.8341778953
 31
0.0
  0
LINE
  5
F3
330
1F
100
AcDbEntity
  8
0
  6
Continuous
 62
     7
370
    25
100
AcDbLine
 10
67.5912696718
 20
139.8341778953
 30
0.0
 11
70.0912696718
 21
139.8341778953
 31
0.0
  0
LINE
  5
F4
330
1F
100
AcDbEntity
  8
0
  6
Continuous
 62
     7
370
    25
100
AcDbLine
 10
70.0912696718
 20
139.8341778953
 30
0.0
 11
70.0912696718
 21
144.2841778953
 31
0.0
  0
LWPOLYLINE
  5
F5
330
1F
100
AcDbEntity
  8
0
  6
Continuous
 62
     7
370
    25
100
AcDbPolyline
 90
       22
 70
   128
 43
0.0
 10
68.8412696718
 20
141.2632370286
 10
68.5465144973
 20
141.2367714087
 10
68.2779496137
 20
141.1597261358
 10
68.0594381893
 20
141.0389470203
 10
67.9103959231
 20
140.8851658167
 10
67.8440658746
 20
140.7120466598
 10
67.8663417596
 20
140.5349719465
 10
67.975244268
 20
140.369675542
 10
68.161096934
 20
140.2308447573
 10
68.4073859326
 20
140.1308153169
 10
68.6922274056
 20
140.0784752755
 10
68.9903119379
 20
140.0784752755
 10
69.2751534109
 20
140.1308153169
 10
69.5214424095
 20
140.2308447573
 10
69.7072950755
 20
140.369675542
 10
69.8161975839
 20
140.5349719465
 10
69.8384734689
 20
140.7120466598
 10
69.7721434204
 20
140.8851658167
 10
69.6231011542
 20
141.0389470203
 10
69.4045897298
 20
141.1597261358
 10
69.1360248462
 20
141.2367714087
 10
68.8412696718
 20
141.2632370286
  0
LWPOLYLINE
  5
F6
330
1F
100
AcDbEntity
  8
0
  6
Continuous
 62
     7
370
    25
100
AcDbPolyline
 90
       22
 70
   128
 43
0.0
 10
68.8412696718
 20
143.497140745
 10
68.5465144973
 20
143.4706751252
 10
68.2779496137
 20
143.3936298522
 10
68.0594381893
 20
143.2728507367
 10
67.9103959231
 20
143.1190695332
 10
67.8440658746
 20
142.9459503763
 10
67.8663417596
 20
142.7688756629
 10
67.975244268
 20
142.6035792584
 10
68.161096934
 20
142.4647484737
 10
68.4073859326
 20
142.3647190333
 10
68.6922274056
 20
142.3123789919
 10
68.9903119379
 20
142.3123789919
 10
69.2751534109
 20
142.3647190333
 10
69.5214424095
 20
142.4647484737
 10
69.7072950755
 20
142.6035792584
 10
69.8161975839
 20
142.7688756629
 10
69.8384734689
 20
142.9459503763
 10
69.7721434204
 20
143.1190695332
 10
69.6231011542
 20
143.2728507367
 10
69.4045897298
 20
143.3936298522
 10
69.1360248462
 20
143.4706751252
 10
68.8412696718
 20
143.497140745
  0
LINE
  5
F7
330
1F
100
AcDbEntity
  8
0
  6
Continuous
 62
     7
370
    25
100
AcDbLine
 10
67.5912696718
 20
139.8341778953
 30
0.0
 11
67.5912696718
 21
144.2841778953
 31
0.0
  0
LINE
  5
F8
330
1F
100
AcDbEntity
  8
0
  6
Continuous
 62
     7
370
    25
100
AcDbLine
 10
70.0912696718
 20
147.5341778953
 30
0.0
 11
70.0912696718
 21
147.8341778953
 31
0.0
  0
LINE
  5
F9
330
1F
100
AcDbEntity
  8
0
  6
Continuous
 62
     7
370
    25
100
AcDbLine
 10
72.5912696718
 20
147.5341778953
 30
0.0
 11
72.5912696718
 21
147.8341778953
 31
0.0
  0
LINE
  5
FA
330
1F
100
AcDbEntity
  8
0
  6
Continuous
 62
     7
370
    25
100
AcDbLine
 10
70.0912696718
 20
144.2841778953
 30
0.0
 11
72.5912696718
 21
144.2841778953
 31
0.0
  0
LINE
  5
FB
330
1F
100
AcDbEntity
  8
0
  6
Continuous
 62
     7
370
    25
100
AcDbLine
 10
72.5912696718
 20
144.2841778953
 30
0.0
 11
72.5912696718
 21
147.5341778953
 31
0.0
  0
LINE
  5
FC
330
1F
100
AcDbEntity
  8
0
  6
Continuous
 62
     7
370
    25
100
AcDbLine
 10
70.0912696718
 20
144.2841778953
 30
0.0
 11
70.0912696718
 21
147.5341778953
 31
0.0
  0
LINE
  5
FD
330
1F
100
AcDbEntity
  8
0
  6
Continuous
 62
     7
370
    25
100
AcDbLine
 10
70.0912696718
 20
139.8341778953
 30
0.0
 11
72.5912696718
 21
139.8341778953
 31
0.0
  0
LINE
  5
FE
330
1F
100
AcDbEntity
  8
0
  6
Continuous
 62
     7
370
    25
100
AcDbLine
 10
72.5912696718
 20
139.8341778953
 30
0.0
 11
72.5912696718
 21
144.2841778953
 31
0.0
  0
LWPOLYLINE
  5
FF
330
1F
100
AcDbEntity
  8
0
  6
Continuous
 62
     7
370
    25
100
AcDbPolyline
 90
       22
 70
   128
 43
0.0
 10
71.3412696718
 20
141.2632370286
 10
71.0465144973
 20
141.2367714087
 10
70.7779496137
 20
141.1597261358
 10
70.5594381893
 20
141.0389470203
 10
70.4103959231
 20
140.8851658167
 10
70.3440658746
 20
140.7120466598
 10
70.3663417596
 20
140.5349719465
 10
70.475244268
 20
140.369675542
 10
70.661096934
 20
140.2308447573
 10
70.9073859326
 20
140.1308153169
 10
71.1922274056
 20
140.0784752755
 10
71.4903119379
 20
140.0784752755
 10
71.7751534109
 20
140.1308153169
 10
72.0214424095
 20
140.2308447573
 10
72.2072950755
 20
140.369675542
 10
72.3161975839
 20
140.5349719465
 10
72.3384734689
 20
140.7120466598
 10
72.2721434204
 20
140.8851658167
 10
72.1231011542
 20
141.0389470203
 10
71.9045897298
 20
141.1597261358
 10
71.6360248462
 20
141.2367714087
 10
71.3412696718
 20
141.2632370286
  0
LWPOLYLINE
  5
100
330
1F
100
AcDbEntity
  8
0
  6
Continuous
 62
     7
370
    25
100
AcDbPolyline
 90
       22
 70
   128
 43
0.0
 10
71.3412696718
 20
143.497140745
 10
71.0465144973
 20
143.4706751252
 10
70.7779496137
 20
143.3936298522
 10
70.5594381893
 20
143.2728507367
 10
70.4103959231
 20
143.1190695332
 10
70.3440658746
 20
142.9459503763
 10
70.3663417596
 20
142.7688756629
 10
70.475244268
 20
142.6035792584
 10
70.661096934
 20
142.4647484737
 10
70.9073859326
 20
142.3647190333
 10
71.1922274056
 20
142.3123789919
 10
71.4903119379
 20
142.3123789919
 10
71.7751534109
 20
142.3647190333
 10
72.0214424095
 20
142.4647484737
 10
72.2072950755
 20
142.6035792584
 10
72.3161975839
 20
142.7688756629
 10
72.3384734689
 20
142.9459503763
 10
72.2721434204
 20
143.1190695332
 10
72.1231011542
 20
143.2728507367
 10
71.9045897298
 20
143.3936298522
 10
71.6360248462
 20
143.4706751252
 10
71.3412696718
 20
143.497140745
  0
LINE
  5
101
330
1F
100
AcDbEntity
  8
0
  6
Continuous
 62
     7
370
    25
100
AcDbLine
 10
70.0912696718
 20
139.8341778953
 30
0.0
 11
70.0912696718
 21
144.2841778953
 31
0.0
  0
LINE
  5
102
330
1F
100
AcDbEntity
  8
0
  6
Continuous
 62
     7
370
    25
100
AcDbLine
 10
72.5912696718
 20
139.8341778953
 30
0.0
 11
75.0912696718
 21
139.8341778953
 31
0.0
  0
LINE
  5
103
330
1F
100
AcDbEntity
  8
0
  6
Continuous
 62
     7
370
    25
100
AcDbLine
 10
72.5912696718
 20
139.8341778953
 30
0.0
 11
72.5912696718
 21
144.2841778953
 31
0.0
  0
LINE
  5
104
330
1F
100
AcDbEntity
  8
0
  6
Continuous
 62
     7
370
    25
100
AcDbLine
 10
72.5912696718
 20
144.2841778953
 30
0.0
 11
75.0912696718
 21
144.2841778953
 31
0.0
  0
LINE
  5
105
330
1F
100
AcDbEntity
  8
0
  6
Continuous
 62
     7
370
    25
100
AcDbLine
 10
75.0912696718
 20
139.8341778953
 30
0.0
 11
75.0912696718
 21
144.2841778953
 31
0.0
  0
LWPOLYLINE
  5
106
330
1F
100
AcDbEntity
  8
0
  6
Continuous
 62
     7
370
    25
100
AcDbPolyline
 90
       22
 70
   128
 43
0.0
 10
73.8412696718
 20
141.2632370286
 10
73.5465144973
 20
141.2367714087
 10
73.2779496137
 20
141.1597261358
 10
73.0594381893
 20
141.0389470203
 10
72.9103959231
 20
140.8851658167
 10
72.8440658746
 20
140.7120466598
 10
72.8663417596
 20
140.5349719465
 10
72.975244268
 20
140.369675542
 10
73.161096934
 20
140.2308447573
 10
73.4073859326
 20
140.1308153169
 10
73.6922274056
 20
140.0784752755
 10
73.9903119379
 20
140.0784752755
 10
74.2751534109
 20
140.1308153169
 10
74.5214424095
 20
140.2308447573
 10
74.7072950755
 20
140.369675542
 10
74.8161975839
 20
140.5349719465
 10
74.8384734689
 20
140.7120466598
 10
74.7721434204
 20
140.8851658167
 10
74.6231011542
 20
141.0389470203
 10
74.4045897298
 20
141.1597261358
 10
74.1360248462
 20
141.2367714087
 10
73.8412696718
 20
141.2632370286
  0
LWPOLYLINE
  5
107
330
1F
100
AcDbEntity
  8
0
  6
Continuous
 62
     7
370
    25
100
AcDbPolyline
 90
       22
 70
   128
 43
0.0
 10
73.8412696718
 20
143.497140745
 10
73.5465144973
 20
143.4706751252
 10
73.2779496137
 20
143.3936298522
 10
73.0594381893
 20
143.2728507367
 10
72.9103959231
 20
143.1190695332
 10
72.8440658746
 20
142.9459503763
 10
72.8663417596
 20
142.7688756629
 10
72.975244268
 20
142.6035792584
 10
73.161096934
 20
142.4647484737
 10
73.4073859326
 20
142.3647190333
 10
73.6922274056
 20
142.3123789919
 10
73.9903119379
 20
142.3123789919
 10
74.2751534109
 20
142.3647190333
 10
74.5214424095
 20
142.4647484737
 10
74.7072950755
 20
142.6035792584
 10
74.8161975839
 20
142.7688756629
 10
74.8384734689
 20
142.9459503763
 10
74.7721434204
 20
143.1190695332
 10
74.6231011542
 20
143.2728507367
 10
74.4045897298
 20
143.3936298522
 10
74.1360248462
 20
143.4706751252
 10
73.8412696718
 20
143.497140745
  0
LINE
  5
108
330
1F
100
AcDbEntity
  8
0
  6
Continuous
 62
     7
370
    25
100
AcDbLine
 10
72.5912696718
 20
147.5341778953
 30
0.0
 11
72.5912696718
 21
147.8341778953
 31
0.0
  0
LINE
  5
109
330
1F
100
AcDbEntity
  8
0
  6
Continuous
 62
     7
370
    25
100
AcDbLine
 10
75.0912696718
 20
147.5341778953
 30
0.0
 11
75.0912696718
 21
147.8341778953
 31
0.0
  0
LINE
  5
10A
330
1F
100
AcDbEntity
  8
0
  6
Continuous
 62
     7
370
    25
100
AcDbLine
 10
75.0912696718
 20
144.2841778953
 30
0.0
 11
75.0912696718
 21
147.5341778953
 31
0.0
  0
LINE
  5
10B
330
1F
100
AcDbEntity
  8
0
  6
Continuous
 62
     7
370
    25
100
AcDbLine
 10
72.5912696718
 20
144.2841778953
 30
0.0
 11
72.5912696718
 21
147.5341778953
 31
0.0
  0
LINE
  5
10C
330
1F
100
AcDbEntity
  8
0
  6
Continuous
 62
     7
370
    25
100
AcDbLine
 10
75.8412696718
 20
147.8341778953
 30
0.0
 11
75.8412696718
 21
147.5341778953
 31
0.0
  0
LINE
  5
10D
330
1F
100
AcDbEntity
  8
0
  6
Continuous
 62
     7
370
    25
100
AcDbLine
 10
75.0912696718
 20
147.5341778953
 30
0.0
 11
75.0912696718
 21
147.8341778953
 31
0.0
  0
LINE
  5
10E
330
1F
100
AcDbEntity
  8
0
  6
Continuous
 62
     7
370
    25
100
AcDbLine
 10
75.0912696718
 20
144.2841778953
 30
0.0
 11
75.8412696718
 21
144.2841778953
 31
0.0
  0
LINE
  5
10F
330
1F
100
AcDbEntity
  8
0
  6
Continuous
 62
     7
370
    25
100
AcDbLine
 10
75.8412696718
 20
147.5341778953
 30
0.0
 11
75.8412696718
 21
144.2841778953
 31
0.0
  0
LINE
  5
110
330
1F
100
AcDbEntity
  8
0
  6
Continuous
 62
     7
370
    25
100
AcDbLine
 10
75.0912696718
 20
147.5341778953
 30
0.0
 11
75.0912696718
 21
144.2841778953
 31
0.0
  0
LINE
  5
111
330
1F
100
AcDbEntity
  8
0
  6
Continuous
 62
     7
370
    25
100
AcDbLine
 10
75.0912696718
 20
139.8341778953
 30
0.0
 11
75.8412696718
 21
139.8341778953
 31
0.0
  0
LINE
  5
112
330
1F
100
AcDbEntity
  8
0
  6
Continuous
 62
     7
370
    25
100
AcDbLine
 10
75.8412696718
 20
144.2841778953
 30
0.0
 11
75.8412696718
 21
139.8341778953
 31
0.0
  0
LINE
  5
113
330
1F
100
AcDbEntity
  8
0
  6
Continuous
 62
     7
370
    25
100
AcDbLine
 10
75.0912696718
 20
144.2841778953
 30
0.0
 11
75.0912696718
 21
139.8341778953
 31
0.0
  0
LINE
  5
114
330
1F
100
AcDbEntity
  8
0
  6
Continuous
 62
     7
370
    25
100
AcDbLine
 10
73.6662696718
 20
138.5020567834
 30
0.0
 11
73.6662696718
 21
139.6286033627
 31
0.0
  0
ARC
  5
115
330
1F
100
AcDbEntity
  8
0
  6
Continuous
 62
     7
370
    25
100
AcDbCircle
 10
70.4662696718
 20
146.1341778953
 30
0.0
 40
7.250000000000002
100
AcDbArc
 50
243.8080802775
 51
296.1919197225
  0
LINE
  5
116
330
1F
100
AcDbEntity
  8
0
  6
Continuous
 62
     7
370
    25
100
AcDbLine
 10
67.2662696718
 20
139.6286033627
 30
0.0
 11
67.2662696718
 21
138.5020567834
 31
0.0
  0
ARC
  5
117
330
1F
100
AcDbEntity
  8
0
  6
Continuous
 62
     7
370
    25
100
AcDbCircle
 10
70.4662696718
 20
145.8341778953
 30
0.0
 40
8.000000000000009
100
AcDbArc
 50
246.4218215218
 51
293.5781784782
  0
LINE
  5
118
330
1F
100
AcDbEntity
  8
0
  6
Continuous
 62
     7
370
    25
100
AcDbLine
 10
73.6662696718
 20
139.8341778953
 30
0.0
 11
73.6662696718
 21
139.6286033627
 31
0.0
  0
LINE
  5
119
330
1F
100
AcDbEntity
  8
0
  6
Continuous
 62
     7
370
    25
100
AcDbLine
 10
67.2662696718
 20
139.6286033627
 30
0.0
 11
67.2662696718
 21
139.8341778953
 31
0.0
  0
ARC
  5
11A
330
1F
100
AcDbEntity
  8
0
  6
Continuous
 62
     7
370
    25
100
AcDbCircle
 10
65.0912696718
 20
189.0841778953
 30
0.0
 40
0.25
100
AcDbArc
 50
90.0
 51
180.0
  0
LINE
  5
11B
330
1F
100
AcDbEntity
  8
0
  6
Continuous
 62
     7
370
    25
100
AcDbLine
 10
64.8412696718
 20
148.0841778953
 30
0.0
 11
64.8412696718
 21
189.0841778953
 31
0.0
  0
ARC
  5
11C
330
1F
100
AcDbEntity
  8
0
  6
Continuous
 62
     7
370
    25
100
AcDbCircle
 10
75.8412696718
 20
148.0841778953
 30
0.0
 40
0.25
100
AcDbArc
 50
270.0
 51
0.0
  0
LINE
  5
11D
330
1F
100
AcDbEntity
  8
0
  6
Continuous
 62
     7
370
    25
100
AcDbLine
 10
75.8412696718
 20
147.8341778953
 30
0.0
 11
65.0912696718
 21
147.8341778953
 31
0.0
  0
CIRCLE
  5
11E
330
1F
100
AcDbEntity
  8
0
  6
Continuous
 62
     7
370
    25
100
AcDbCircle
 10
68.1662696718
 20
156.8341778953
 30
0.0
 40
0.875
  0
CIRCLE
  5
11F
330
1F
100
AcDbEntity
  8
0
  6
Continuous
 62
     7
370
    25
100
AcDbCircle
 10
68.1662696718
 20
156.8341778953
 30
0.0
 40
1.27500000000002
  0
LINE
  5
120
330
1F
100
AcDbEntity
  8
0
  6
Continuous
 62
     7
370
    25
100
AcDbLine
 10
65.0912696718
 20
189.3341778953
 30
0.0
 11
75.8412696718
 21
189.3341778953
 31
0.0
  0
CIRCLE
  5
121
330
1F
100
AcDbEntity
  8
0
  6
Continuous
 62
     7
370
    25
100
AcDbCircle
 10
72.7662696718
 20
156.8341778953
 30
0.0
 40
1.275000000000006
  0
CIRCLE
  5
122
330
1F
100
AcDbEntity
  8
0
  6
Continuous
 62
     7
370
    25
100
AcDbCircle
 10
68.1662696718
 20
153.4841778953
 30
0.0
 40
1.275000000000006
  0
CIRCLE
  5
123
330
1F
100
AcDbEntity
  8
0
  6
Continuous
 62
     7
370
    25
100
AcDbCircle
 10
72.7662696718
 20
153.4841778953
 30
0.0
 40
1.27500000000002
  0
CIRCLE
  5
124
330
1F
100
AcDbEntity
  8
0
  6
Continuous
 62
     7
370
    25
100
AcDbCircle
 10
72.7662696718
 20
156.8341778953
 30
0.0
 40
0.875
  0
ARC
  5
125
330
1F
100
AcDbEntity
  8
0
  6
Continuous
 62
     7
370
    25
100
AcDbCircle
 10
75.8412696718
 20
189.0841778953
 30
0.0
 40
0.25
100
AcDbArc
 50
0.0
 51
90.0
  0
CIRCLE
  5
126
330
1F
100
AcDbEntity
  8
0
  6
Continuous
 62
     7
370
    25
100
AcDbCircle
 10
68.1662696718
 20
153.4841778953
 30
0.0
 40
0.875
  0
CIRCLE
  5
127
330
1F
100
AcDbEntity
  8
0
  6
Continuous
 62
     7
370
    25
100
AcDbCircle
 10
72.7662696718
 20
153.4841778953
 30
0.0
 40
0.875
  0
LINE
  5
128
330
1F
100
AcDbEntity
  8
0
  6
Continuous
 62
     7
370
    25
100
AcDbLine
 10
76.0912696718
 20
189.0841778953
 30
0.0
 11
76.0912696718
 21
148.0841778953
 31
0.0
  0
ARC
  5
129
330
1F
100
AcDbEntity
  8
0
  6
Continuous
 62
     7
370
    25
100
AcDbCircle
 10
65.0912696718
 20
148.0841778953
 30
0.0
 40
0.25
100
AcDbArc
 50
180.0
 51
270.0
  0
CIRCLE
  5
12A
330
1F
100
AcDbEntity
  8
0
  6
Continuous
 62
     7
370
    25
100
AcDbCircle
 10
68.1662696718
 20
153.4841778953
 30
0.0
 40
0.625
  0
CIRCLE
  5
12B
330
1F
100
AcDbEntity
  8
0
  6
Continuous
 62
     7
370
    25
100
AcDbCircle
 10
68.1662696718
 20
156.8341778953
 30
0.0
 40
0.625
  0
CIRCLE
  5
12C
330
1F
100
AcDbEntity
  8
0
  6
Continuous
 62
     7
370
    25
100
AcDbCircle
 10
72.7662696718
 20
156.8341778953
 30
0.0
 40
0.625
  0
CIRCLE
  5
12D
330
1F
100
AcDbEntity
  8
0
  6
Continuous
 62
     7
370
    25
100
AcDbCircle
 10
72.7662696718
 20
153.4841778953
 30
0.0
 40
0.625
  0
LINE
  5
12E
330
1F
100
AcDbEntity
  8
0
  6
Continuous
 62
     7
370
    25
100
AcDbLine
 10
76.0912696718
 20
140.3341778953
 30
0.0
 11
76.0912696718
 21
148.0841778953
 31
0.0
  0
LINE
  5
12F
330
1F
100
AcDbEntity
  8
0
  6
Continuous
 62
     7
370
    25
100
AcDbLine
 10
75.8412696718
 20
140.0841778953
 30
0.0
 11
76.0912696718
 21
140.3341778953
 31
0.0
  0
ARC
  5
130
330
1F
100
AcDbEntity
  8
0
  6
Continuous
 62
     7
370
    25
100
AcDbCircle
 10
65.0912696718
 20
140.0841778953
 30
0.0
 40
0.2500000000000284
100
AcDbArc
 50
180.0
 51
270.0
  0
LINE
  5
131
330
1F
100
AcDbEntity
  8
0
  6
Continuous
 62
     7
370
    25
100
AcDbLine
 10
64.8412696718
 20
148.0841778953
 30
0.0
 11
64.8412696718
 21
140.0841778953
 31
0.0
  0
ARC
  5
132
330
1F
100
AcDbEntity
  8
0
  6
Continuous
 62
     7
370
    25
100
AcDbCircle
 10
75.8412696718
 20
140.0841778953
 30
0.0
 40
0.2500000000000142
100
AcDbArc
 50
270.0
 51
0.0
  0
LINE
  5
133
330
1F
100
AcDbEntity
  8
0
  6
Continuous
 62
     7
370
    25
100
AcDbLine
 10
76.0912696718
 20
140.3341778953
 30
0.0
 11
76.0912696718
 21
140.0841778953
 31
0.0
  0
LINE
  5
134
330
1F
100
AcDbEntity
  8
0
  6
Continuous
 62
     7
370
    25
100
AcDbLine
 10
128.7346522037
 20
189.7841778953
 30
0.0
 11
128.7846522037
 21
189.7841778953
 31
0.0
  0
LINE
  5
135
330
1F
100
AcDbEntity
  8
0
  6
Continuous
 62
     7
370
    25
100
AcDbLine
 10
128.7846522037
 20
190.3841778953
 30
0.0
 11
128.7346522037
 21
190.3841778953
 31
0.0
  0
LINE
  5
136
330
1F
100
AcDbEntity
  8
0
  6
Continuous
 62
     7
370
    25
100
AcDbLine
 10
128.7346522037
 20
192.9841778953
 30
0.0
 11
128.7846522037
 21
192.9841778953
 31
0.0
  0
LINE
  5
137
330
1F
100
AcDbEntity
  8
0
  6
Continuous
 62
     7
370
    25
100
AcDbLine
 10
128.7846522037
 20
193.5841778953
 30
0.0
 11
128.7346522037
 21
193.5841778953
 31
0.0
  0
LINE
  5
138
330
1F
100
AcDbEntity
  8
0
  6
Continuous
 62
     7
370
    25
100
AcDbLine
 10
128.7346522037
 20
140.9841778953
 30
0.0
 11
128.7846522037
 21
140.9841778953
 31
0.0
  0
LINE
  5
139
330
1F
100
AcDbEntity
  8
0
  6
Continuous
 62
     7
370
    25
100
AcDbLine
 10
128.7846522037
 20
141.5841778953
 30
0.0
 11
128.7346522037
 21
141.5841778953
 31
0.0
  0
LINE
  5
13A
330
1F
100
AcDbEntity
  8
0
  6
Continuous
 62
     7
370
    25
100
AcDbLine
 10
128.7346522037
 20
146.9341778953
 30
0.0
 11
128.7846522037
 21
146.9341778953
 31
0.0
  0
LINE
  5
13B
330
1F
100
AcDbEntity
  8
0
  6
Continuous
 62
     7
370
    25
100
AcDbLine
 10
128.7846522037
 20
147.5341778953
 30
0.0
 11
128.7346522037
 21
147.5341778953
 31
0.0
  0
LINE
  5
13C
330
1F
100
AcDbEntity
  8
0
  6
Continuous
 62
     7
370
    25
100
AcDbLine
 10
130.6346522037
 20
137.8341778953
 30
0.0
 11
133.6346522037
 21
137.8341778953
 31
0.0
  0
LINE
  5
13D
330
1F
100
AcDbEntity
  8
0
  6
Continuous
 62
     7
370
    25
100
AcDbLine
 10
106.1346522037
 20
157.4591778953
 30
0.0
 11
105.9846522037
 21
157.4591778953
 31
0.0
  0
LINE
  5
13E
330
1F
100
AcDbEntity
  8
0
  6
Continuous
 62
     7
370
    25
100
AcDbLine
 10
105.9846522037
 20
156.2091778953
 30
0.0
 11
106.1346522037
 21
156.2091778953
 31
0.0
  0
ARC
  5
13F
330
1F
100
AcDbEntity
  8
0
  6
Continuous
 62
     7
370
    25
100
AcDbCircle
 10
105.9846522037
 20
156.3591778953
 30
0.0
 40
0.1500000000000057
100
AcDbArc
 50
180.0
 51
270.0
  0
ARC
  5
140
330
1F
100
AcDbEntity
  8
0
  6
Continuous
 62
     7
370
    25
100
AcDbCircle
 10
105.9846522037
 20
157.3091778953
 30
0.0
 40
0.1500000000000057
100
AcDbArc
 50
90.0
 51
180.0
  0
LINE
  5
141
330
1F
100
AcDbEntity
  8
0
  6
Continuous
 62
     7
370
    25
100
AcDbLine
 10
106.1346522037
 20
154.1091778953
 30
0.0
 11
105.9846522037
 21
154.1091778953
 31
0.0
  0
LINE
  5
142
330
1F
100
AcDbEntity
  8
0
  6
Continuous
 62
     7
370
    25
100
AcDbLine
 10
105.9846522037
 20
152.8591778953
 30
0.0
 11
106.1346522037
 21
152.8591778953
 31
0.0
  0
ARC
  5
143
330
1F
100
AcDbEntity
  8
0
  6
Continuous
 62
     7
370
    25
100
AcDbCircle
 10
105.9846522037
 20
153.0091778953
 30
0.0
 40
0.1500000000000057
100
AcDbArc
 50
180.0
 51
270.0
  0
ARC
  5
144
330
1F
100
AcDbEntity
  8
0
  6
Continuous
 62
     7
370
    25
100
AcDbCircle
 10
105.9846522037
 20
153.9591778953
 30
0.0
 40
0.1500000000000057
100
AcDbArc
 50
90.0
 51
180.0
  0
LINE
  5
145
330
1F
100
AcDbEntity
  8
0
  6
Continuous
 62
     7
370
    25
100
AcDbLine
 10
122.6183896486
 20
196.2189103961
 30
0.0
 11
120.3775265775
 21
194.5706722694
 31
0.0
  0
LINE
  5
146
330
1F
100
AcDbEntity
  8
0
  6
Continuous
 62
     7
370
    25
100
AcDbLine
 10
122.6183896486
 20
196.2189103961
 30
0.0
 11
123.7746220832
 21
194.6469539401
 31
0.0
  0
LINE
  5
147
330
1F
100
AcDbEntity
  8
0
  6
Continuous
 62
     7
370
    25
100
AcDbLine
 10
124.554599828
 20
195.2206565788
 30
0.0
 11
123.7746220832
 21
194.6469539401
 31
0.0
  0
LINE
  5
148
330
1F
100
AcDbEntity
  8
0
  6
Continuous
 62
     7
370
    25
100
AcDbLine
 10
124.554599828
 20
195.2206565788
 30
0.0
 11
123.3983673934
 21
196.7926130348
 31
0.0
  0
LINE
  5
149
330
1F
100
AcDbEntity
  8
0
  6
Continuous
 62
     7
370
    25
100
AcDbLine
 10
124.1346522037
 20
197.3341778953
 30
0.0
 11
123.3983673934
 21
196.7926130348
 31
0.0
  0
LINE
  5
14A
330
1F
100
AcDbEntity
  8
0
  6
Continuous
 62
     7
370
    25
100
AcDbLine
 10
128.1346522037
 20
197.3341778953
 30
0.0
 11
124.1346522037
 21
197.3341778953
 31
0.0
  0
ARC
  5
14B
330
1F
100
AcDbEntity
  8
0
  6
Continuous
 62
     7
370
    25
100
AcDbCircle
 10
119.0846522037
 20
189.6341778953
 30
0.0
 40
1.0
100
AcDbArc
 50
180.0
 51
270.0
  0
LINE
  5
14C
330
1F
100
AcDbEntity
  8
0
  6
Continuous
 62
     7
370
    25
100
AcDbLine
 10
118.0846522037
 20
192.8841778953
 30
0.0
 11
118.0846522037
 21
189.6341778953
 31
0.0
  0
LINE
  5
14D
330
1F
100
AcDbEntity
  8
0
  6
Continuous
 62
     7
370
    25
100
AcDbLine
 10
119.5975488327
 20
193.9969696307
 30
0.0
 11
118.0846522037
 21
192.8841778953
 31
0.0
  0
LINE
  5
14E
330
1F
100
AcDbEntity
  8
0
  6
Continuous
 62
     7
370
    25
100
AcDbLine
 10
119.5975488327
 20
193.9969696307
 30
0.0
 11
120.7537812673
 21
192.4250131747
 31
0.0
  0
LINE
  5
14F
330
1F
100
AcDbEntity
  8
0
  6
Continuous
 62
     7
370
    25
100
AcDbLine
 10
121.5337590121
 20
192.9987158134
 30
0.0
 11
120.7537812673
 21
192.4250131747
 31
0.0
  0
LINE
  5
150
330
1F
100
AcDbEntity
  8
0
  6
Continuous
 62
     7
370
    25
100
AcDbLine
 10
121.5337590121
 20
192.9987158134
 30
0.0
 11
120.3775265775
 21
194.5706722694
 31
0.0
  0
LINE
  5
151
330
1F
100
AcDbEntity
  8
0
  6
Continuous
 62
     7
370
    25
100
AcDbLine
 10
119.0846522037
 20
188.6341778953
 30
0.0
 11
128.1346522037
 21
188.6341778953
 31
0.0
  0
LINE
  5
152
330
1F
100
AcDbEntity
  8
0
  6
Continuous
 62
     7
370
    25
100
AcDbLine
 10
128.1346522037
 20
188.6341778953
 30
0.0
 11
128.1346522037
 21
197.3341778953
 31
0.0
  0
LINE
  5
153
330
1F
100
AcDbEntity
  8
0
  6
Continuous
 62
     7
370
    25
100
AcDbLine
 10
119.5975488327
 20
193.9969696307
 30
0.0
 11
120.3775265775
 21
194.5706722694
 31
0.0
  0
LINE
  5
154
330
1F
100
AcDbEntity
  8
0
  6
Continuous
 62
     7
370
    25
100
AcDbLine
 10
122.6183896486
 20
196.2189103961
 30
0.0
 11
123.3983673934
 21
196.7926130348
 31
0.0
  0
LINE
  5
155
330
1F
100
AcDbEntity
  8
0
  6
Continuous
 62
     7
370
    25
100
AcDbLine
 10
128.1346522037
 20
139.8341778953
 30
0.0
 11
128.1346522037
 21
140.0841778953
 31
0.0
  0
LINE
  5
156
330
1F
100
AcDbEntity
  8
0
  6
Continuous
 62
     7
370
    25
100
AcDbLine
 10
128.1346522037
 20
148.4341778953
 30
0.0
 11
128.1346522037
 21
148.5341778953
 31
0.0
  0
LINE
  5
157
330
1F
100
AcDbEntity
  8
0
  6
Continuous
 62
     7
370
    25
100
AcDbLine
 10
123.6346522037
 20
139.8341778953
 30
0.0
 11
128.1346522037
 21
139.8341778953
 31
0.0
  0
LINE
  5
158
330
1F
100
AcDbEntity
  8
0
  6
Continuous
 62
     7
370
    25
100
AcDbLine
 10
117.6346522037
 20
147.5341778953
 30
0.0
 11
117.6346522037
 21
144.2841778953
 31
0.0
  0
ARC
  5
159
330
1F
100
AcDbEntity
  8
0
  6
Continuous
 62
     7
370
    25
100
AcDbCircle
 10
118.6346522037
 20
147.5341778953
 30
0.0
 40
1.0
100
AcDbArc
 50
90.0
 51
180.0
  0
LINE
  5
15A
330
1F
100
AcDbEntity
  8
0
  6
Continuous
 62
     7
370
    25
100
AcDbLine
 10
128.1346522037
 20
148.5341778953
 30
0.0
 11
118.6346522037
 21
148.5341778953
 31
0.0
  0
LINE
  5
15B
330
1F
100
AcDbEntity
  8
0
  6
Continuous
 62
     7
370
    25
100
AcDbLine
 10
117.6346522037
 20
144.2841778953
 30
0.0
 11
123.6346522037
 21
139.8341778953
 31
0.0
  0
LINE
  5
15C
330
1F
100
AcDbEntity
  8
0
  6
Continuous
 62
     7
370
    25
100
AcDbLine
 10
131.8346522037
 20
177.3341778953
 30
0.0
 11
132.2346522037
 21
177.3341778953
 31
0.0
  0
LINE
  5
15D
330
1F
100
AcDbEntity
  8
0
  6
Continuous
 62
     7
370
    25
100
AcDbLine
 10
132.2346522037
 20
177.3341778953
 30
0.0
 11
132.2346522037
 21
176.3341778953
 31
0.0
  0
LINE
  5
15E
330
1F
100
AcDbEntity
  8
0
  6
Continuous
 62
     7
370
    25
100
AcDbLine
 10
132.2346522037
 20
176.3341778953
 30
0.0
 11
132.9846522037
 21
175.3341778953
 31
0.0
  0
LINE
  5
15F
330
1F
100
AcDbEntity
  8
0
  6
Continuous
 62
     7
370
    25
100
AcDbLine
 10
132.9846522037
 20
175.3341778953
 30
0.0
 11
135.1346522037
 21
175.3341778953
 31
0.0
  0
ARC
  5
160
330
1F
100
AcDbEntity
  8
0
  6
Continuous
 62
     7
370
    25
100
AcDbCircle
 10
135.1346522037
 20
174.8341778953
 30
0.0
 40
0.5
100
AcDbArc
 50
0.0
 51
90.0
  0
LINE
  5
161
330
1F
100
AcDbEntity
  8
0
  6
Continuous
 62
     7
370
    25
100
AcDbLine
 10
135.6346522037
 20
174.8341778953
 30
0.0
 11
135.6346522037
 21
162.3341778953
 31
0.0
  0
ARC
  5
162
330
1F
100
AcDbEntity
  8
0
  6
Continuous
 62
     7
370
    25
100
AcDbCircle
 10
135.1346522037
 20
162.3341778953
 30
0.0
 40
0.5
100
AcDbArc
 50
270.0
 51
0.0
  0
LINE
  5
163
330
1F
100
AcDbEntity
  8
0
  6
Continuous
 62
     7
370
    25
100
AcDbLine
 10
135.1346522037
 20
161.8341778953
 30
0.0
 11
132.9846522037
 21
161.8341778953
 31
0.0
  0
ARC
  5
164
330
1F
100
AcDbEntity
  8
0
  6
Continuous
 62
     7
370
    25
100
AcDbCircle
 10
134.2346522037
 20
163.2341778953
 30
0.0
 40
1.0
100
AcDbArc
 50
270.0
 51
0.0
  0
LINE
  5
165
330
1F
100
AcDbEntity
  8
0
  6
Continuous
 62
     7
370
    25
100
AcDbLine
 10
135.2346522037
 20
163.2341778953
 30
0.0
 11
135.2346522037
 21
173.9341778953
 31
0.0
  0
ARC
  5
166
330
1F
100
AcDbEntity
  8
0
  6
Continuous
 62
     7
370
    25
100
AcDbCircle
 10
134.2346522037
 20
173.9341778953
 30
0.0
 40
1.0
100
AcDbArc
 50
0.0
 51
90.0
  0
LINE
  5
167
330
1F
100
AcDbEntity
  8
0
  6
Continuous
 62
     7
370
    25
100
AcDbLine
 10
134.2346522037
 20
174.9341778953
 30
0.0
 11
132.3346522037
 21
174.9341778953
 31
0.0
  0
ARC
  5
168
330
1F
100
AcDbEntity
  8
0
  6
Continuous
 62
     7
370
    25
100
AcDbCircle
 10
132.3346522037
 20
175.4341778953
 30
0.0
 40
0.5
100
AcDbArc
 50
180.0
 51
270.0
  0
LINE
  5
169
330
1F
100
AcDbEntity
  8
0
  6
Continuous
 62
     7
370
    25
100
AcDbLine
 10
131.8346522037
 20
175.4341778953
 30
0.0
 11
131.8346522037
 21
177.3341778953
 31
0.0
  0
ARC
  5
16A
330
1F
100
AcDbEntity
  8
0
  6
Continuous
 62
     7
370
    25
100
AcDbCircle
 10
132.3346522037
 20
161.7341778953
 30
0.0
 40
0.5
100
AcDbArc
 50
90.0
 51
180.0
  0
LINE
  5
16B
330
1F
100
AcDbEntity
  8
0
  6
Continuous
 62
     7
370
    25
100
AcDbLine
 10
132.9846522037
 20
161.8341778953
 30
0.0
 11
132.2346522037
 21
160.8341778953
 31
0.0
  0
LINE
  5
16C
330
1F
100
AcDbEntity
  8
0
  6
Continuous
 62
     7
370
    25
100
AcDbLine
 10
132.2346522037
 20
160.8341778953
 30
0.0
 11
132.2346522037
 21
159.8341778953
 31
0.0
  0
LINE
  5
16D
330
1F
100
AcDbEntity
  8
0
  6
Continuous
 62
     7
370
    25
100
AcDbLine
 10
131.8346522037
 20
159.8341778953
 30
0.0
 11
131.8346522037
 21
161.7341778953
 31
0.0
  0
LINE
  5
16E
330
1F
100
AcDbEntity
  8
0
  6
Continuous
 62
     7
370
    25
100
AcDbLine
 10
132.3346522037
 20
162.2341778953
 30
0.0
 11
134.2346522037
 21
162.2341778953
 31
0.0
  0
LINE
  5
16F
330
1F
100
AcDbEntity
  8
0
  6
Continuous
 62
     7
370
    25
100
AcDbLine
 10
132.2346522037
 20
159.8341778953
 30
0.0
 11
131.8346522037
 21
159.8341778953
 31
0.0
  0
LINE
  5
170
330
1F
100
AcDbEntity
  8
0
  6
Continuous
 62
     7
370
    25
100
AcDbLine
 10
133.6346522037
 20
159.250797705
 30
0.0
 11
132.8846522037
 21
160.8591778953
 31
0.0
  0
LINE
  5
171
330
1F
100
AcDbEntity
  8
0
  6
Continuous
 62
     7
370
    25
100
AcDbLine
 10
133.6346522037
 20
159.250797705
 30
0.0
 11
133.6346522037
 21
158.4395626531
 31
0.0
  0
LINE
  5
172
330
1F
100
AcDbEntity
  8
0
  6
Continuous
 62
     7
370
    25
100
AcDbLine
 10
133.6346522037
 20
140.0841778953
 30
0.0
 11
133.6346522037
 21
138.5020567834
 31
0.0
  0
LINE
  5
173
330
1F
100
AcDbEntity
  8
0
  6
Continuous
 62
     7
370
    25
100
AcDbLine
 10
133.6346522037
 20
138.5020567834
 30
0.0
 11
130.6346522037
 21
138.5020567834
 31
0.0
  0
LINE
  5
174
330
1F
100
AcDbEntity
  8
0
  6
Continuous
 62
     7
370
    25
100
AcDbLine
 10
130.6346522037
 20
138.5020567834
 30
0.0
 11
130.6346522037
 21
139.6286033627
 31
0.0
  0
LINE
  5
175
330
1F
100
AcDbEntity
  8
0
  6
Continuous
 62
     7
370
    25
100
AcDbLine
 10
130.6346522037
 20
139.6286033627
 30
0.0
 11
131.6346522037
 21
139.6286033627
 31
0.0
  0
LINE
  5
176
330
1F
100
AcDbEntity
  8
0
  6
Continuous
 62
     7
370
    25
100
AcDbLine
 10
131.6346522037
 20
159.9591778953
 30
0.0
 11
131.8346522037
 21
159.9591778953
 31
0.0
  0
LINE
  5
177
330
1F
100
AcDbEntity
  8
0
  6
Continuous
 62
     7
370
    25
100
AcDbLine
 10
132.2346522037
 20
159.9591778953
 30
0.0
 11
132.3846522037
 21
159.9591778953
 31
0.0
  0
LINE
  5
178
330
1F
100
AcDbEntity
  8
0
  6
Continuous
 62
     7
370
    25
100
AcDbLine
 10
132.3846522037
 20
159.9591778953
 30
0.0
 11
132.5046522037
 21
160.8591778953
 31
0.0
  0
LINE
  5
179
330
1F
100
AcDbEntity
  8
0
  6
Continuous
 62
     7
370
    25
100
AcDbLine
 10
132.8846522037
 20
160.8591778953
 30
0.0
 11
132.5046522037
 21
160.8591778953
 31
0.0
  0
LINE
  5
17A
330
1F
100
AcDbEntity
  8
0
  6
Continuous
 62
     7
370
    25
100
AcDbLine
 10
131.6346522037
 20
139.8341778953
 30
0.0
 11
131.6346522037
 21
139.6286033627
 31
0.0
  0
LINE
  5
17B
330
1F
100
AcDbEntity
  8
0
  6
Continuous
 62
     7
370
    25
100
AcDbLine
 10
133.6346522037
 20
138.5020567834
 30
0.0
 11
133.6346522037
 21
137.8341778953
 31
0.0
  0
LINE
  5
17C
330
1F
100
AcDbEntity
  8
0
  6
Continuous
 62
     7
370
    25
100
AcDbLine
 10
130.6346522037
 20
137.8341778953
 30
0.0
 11
130.6346522037
 21
138.5020567834
 31
0.0
  0
LINE
  5
17D
330
1F
100
AcDbEntity
  8
0
  6
Continuous
 62
     7
370
    25
100
AcDbLine
 10
133.6346522037
 20
159.350797705
 30
0.0
 11
132.8846522037
 21
160.9591778953
 31
0.0
  0
LINE
  5
17E
330
1F
100
AcDbEntity
  8
0
  6
Continuous
 62
     7
370
    25
100
AcDbLine
 10
133.6346522037
 20
159.250797705
 30
0.0
 11
133.6346522037
 21
159.350797705
 31
0.0
  0
LINE
  5
17F
330
1F
100
AcDbEntity
  8
0
  6
Continuous
 62
     7
370
    25
100
AcDbLine
 10
132.8846522037
 20
160.8591778953
 30
0.0
 11
133.6346522037
 21
159.250797705
 31
0.0
  0
LINE
  5
180
330
1F
100
AcDbEntity
  8
0
  6
Continuous
 62
     7
370
    25
100
AcDbLine
 10
132.5046522037
 20
160.8591778953
 30
0.0
 11
132.8846522037
 21
160.8591778953
 31
0.0
  0
LINE
  5
181
330
1F
100
AcDbEntity
  8
0
  6
Continuous
 62
     7
370
    25
100
AcDbLine
 10
132.5179855371
 20
160.9591778953
 30
0.0
 11
132.5046522037
 21
160.8591778953
 31
0.0
  0
LINE
  5
182
330
1F
100
AcDbEntity
  8
0
  6
Continuous
 62
     7
370
    25
100
AcDbLine
 10
132.8846522037
 20
160.9591778953
 30
0.0
 11
132.5179855371
 21
160.9591778953
 31
0.0
  0
LINE
  5
183
330
1F
100
AcDbEntity
  8
0
  6
Continuous
 62
     7
370
    25
100
AcDbLine
 10
132.3846522037
 20
160.9591778953
 30
0.0
 11
132.5179855371
 21
160.9591778953
 31
0.0
  0
LINE
  5
184
330
1F
100
AcDbEntity
  8
0
  6
Continuous
 62
     7
370
    25
100
AcDbLine
 10
132.3846522037
 20
160.4591778953
 30
0.0
 11
132.3846522037
 21
160.9591778953
 31
0.0
  0
LINE
  5
185
330
1F
100
AcDbEntity
  8
0
  6
Continuous
 62
     7
370
    25
100
AcDbLine
 10
132.3846522037
 20
159.9591778953
 30
0.0
 11
132.4513188704
 21
160.4591778953
 31
0.0
  0
LINE
  5
186
330
1F
100
AcDbEntity
  8
0
  6
Continuous
 62
     7
370
    25
100
AcDbLine
 10
132.3846522037
 20
160.4591778953
 30
0.0
 11
132.3846522037
 21
159.9591778953
 31
0.0
  0
LINE
  5
187
330
1F
100
AcDbEntity
  8
0
  6
Continuous
 62
     7
370
    25
100
AcDbLine
 10
109.6346522037
 20
148.0841778953
 30
0.0
 11
109.6346522037
 21
189.0841778953
 31
0.0
  0
LINE
  5
188
330
1F
100
AcDbEntity
  8
0
  6
Continuous
 62
     7
370
    25
100
AcDbLine
 10
109.6346522037
 20
147.8341778953
 30
0.0
 11
106.6346522037
 21
147.8341778953
 31
0.0
  0
LINE
  5
189
330
1F
100
AcDbEntity
  8
0
  6
Continuous
 62
     7
370
    25
100
AcDbLine
 10
109.6346522037
 20
148.0841778953
 30
0.0
 11
109.6346522037
 21
147.8341778953
 31
0.0
  0
LINE
  5
18A
330
1F
100
AcDbEntity
  8
0
  6
Continuous
 62
     7
370
    25
100
AcDbLine
 10
106.6346522037
 20
189.3341778953
 30
0.0
 11
109.6346522037
 21
189.3341778953
 31
0.0
  0
LINE
  5
18B
330
1F
100
AcDbEntity
  8
0
  6
Continuous
 62
     7
370
    25
100
AcDbLine
 10
109.6346522037
 20
189.3341778953
 30
0.0
 11
109.6346522037
 21
189.0841778953
 31
0.0
  0
LINE
  5
18C
330
1F
100
AcDbEntity
  8
0
  6
Continuous
 62
     7
370
    25
100
AcDbLine
 10
106.1346522037
 20
148.3341778953
 30
0.0
 11
106.1346522037
 21
188.8341778953
 31
0.0
  0
ARC
  5
18D
330
1F
100
AcDbEntity
  8
0
  6
Continuous
 62
     7
370
    25
100
AcDbCircle
 10
106.6346522037
 20
148.3341778953
 30
0.0
 40
0.5
100
AcDbArc
 50
180.0
 51
270.0
  0
ARC
  5
18E
330
1F
100
AcDbEntity
  8
0
  6
Continuous
 62
     7
370
    25
100
AcDbCircle
 10
106.6346522037
 20
188.8341778953
 30
0.0
 40
0.5
100
AcDbArc
 50
90.0
 51
180.0
  0
LINE
  5
18F
330
1F
100
AcDbEntity
  8
0
  6
Continuous
 62
     7
370
    25
100
AcDbLine
 10
128.0846522037
 20
155.0341778953
 30
0.0
 11
128.0846522037
 21
155.4341778953
 31
0.0
  0
LINE
  5
190
330
1F
100
AcDbEntity
  8
0
  6
Continuous
 62
     7
370
    25
100
AcDbLine
 10
128.0846522037
 20
155.9341778953
 30
0.0
 11
128.0846522037
 21
159.2341778953
 31
0.0
  0
LINE
  5
191
330
1F
100
AcDbEntity
  8
0
  6
Continuous
 62
     7
370
    25
100
AcDbLine
 10
128.0846522037
 20
159.7341778953
 30
0.0
 11
128.0846522037
 21
160.1341778953
 31
0.0
  0
LINE
  5
192
330
1F
100
AcDbEntity
  8
0
  6
Continuous
 62
     7
370
    25
100
AcDbLine
 10
128.0846522037
 20
177.0341778953
 30
0.0
 11
128.0846522037
 21
177.4341778953
 31
0.0
  0
LINE
  5
193
330
1F
100
AcDbEntity
  8
0
  6
Continuous
 62
     7
370
    25
100
AcDbLine
 10
128.0846522037
 20
177.9341778953
 30
0.0
 11
128.0846522037
 21
181.2341778953
 31
0.0
  0
LINE
  5
194
330
1F
100
AcDbEntity
  8
0
  6
Continuous
 62
     7
370
    25
100
AcDbLine
 10
128.0846522037
 20
181.7341778953
 30
0.0
 11
128.0846522037
 21
182.1341778953
 31
0.0
  0
LINE
  5
195
330
1F
100
AcDbEntity
  8
0
  6
Continuous
 62
     7
370
    25
100
AcDbLine
 10
105.8346522037
 20
156.8341778953
 30
0.0
 11
105.8346522037
 21
157.3091778953
 31
0.0
  0
LINE
  5
196
330
1F
100
AcDbEntity
  8
0
  6
Continuous
 62
     7
370
    25
100
AcDbLine
 10
105.8346522037
 20
156.3591778953
 30
0.0
 11
105.8346522037
 21
156.8341778953
 31
0.0
  0
LINE
  5
197
330
1F
100
AcDbEntity
  8
0
  6
Continuous
 62
     7
370
    25
100
AcDbLine
 10
105.8346522037
 20
153.4841778953
 30
0.0
 11
105.8346522037
 21
153.9591778953
 31
0.0
  0
LINE
  5
198
330
1F
100
AcDbEntity
  8
0
  6
Continuous
 62
     7
370
    25
100
AcDbLine
 10
105.8346522037
 20
153.0091778953
 30
0.0
 11
105.8346522037
 21
153.4841778953
 31
0.0
  0
LINE
  5
199
330
1F
100
AcDbEntity
  8
0
  6
Continuous
 62
     7
370
    25
100
AcDbLine
 10
128.1346522037
 20
197.3341778953
 30
0.0
 11
128.7346522037
 21
197.3341778953
 31
0.0
  0
LINE
  5
19A
330
1F
100
AcDbEntity
  8
0
  6
Continuous
 62
     7
370
    25
100
AcDbLine
 10
128.7346522037
 20
197.3341778953
 30
0.0
 11
128.7346522037
 21
197.0841778953
 31
0.0
  0
LINE
  5
19B
330
1F
100
AcDbEntity
  8
0
  6
Continuous
 62
     7
370
    25
100
AcDbLine
 10
128.1346522037
 20
188.7341778953
 30
0.0
 11
128.7346522037
 21
188.7341778953
 31
0.0
  0
LINE
  5
19C
330
1F
100
AcDbEntity
  8
0
  6
Continuous
 62
     7
370
    25
100
AcDbLine
 10
128.1346522037
 20
188.7341778953
 30
0.0
 11
128.1346522037
 21
197.0841778953
 31
0.0
  0
LINE
  5
19D
330
1F
100
AcDbEntity
  8
0
  6
Continuous
 62
     7
370
    25
100
AcDbLine
 10
128.7346522037
 20
188.7341778953
 30
0.0
 11
128.7346522037
 21
197.0841778953
 31
0.0
  0
LINE
  5
19E
330
1F
100
AcDbEntity
  8
0
  6
Continuous
 62
     7
370
    25
100
AcDbLine
 10
128.1346522037
 20
148.4341778953
 30
0.0
 11
128.7346522037
 21
148.4341778953
 31
0.0
  0
LINE
  5
19F
330
1F
100
AcDbEntity
  8
0
  6
Continuous
 62
     7
370
    25
100
AcDbLine
 10
128.1346522037
 20
140.3341778953
 30
0.0
 11
128.7346522037
 21
140.3341778953
 31
0.0
  0
LINE
  5
1A0
330
1F
100
AcDbEntity
  8
0
  6
Continuous
 62
     7
370
    25
100
AcDbLine
 10
128.1346522037
 20
140.3341778953
 30
0.0
 11
128.1346522037
 21
148.4341778953
 31
0.0
  0
LINE
  5
1A1
330
1F
100
AcDbEntity
  8
0
  6
Continuous
 62
     7
370
    25
100
AcDbLine
 10
128.7346522037
 20
140.3341778953
 30
0.0
 11
128.7346522037
 21
148.4341778953
 31
0.0
  0
LINE
  5
1A2
330
1F
100
AcDbEntity
  8
0
  6
Continuous
 62
     7
370
    25
100
AcDbLine
 10
128.7346522037
 20
139.8341778953
 30
0.0
 11
128.1346522037
 21
139.8341778953
 31
0.0
  0
LINE
  5
1A3
330
1F
100
AcDbEntity
  8
0
  6
Continuous
 62
     7
370
    25
100
AcDbLine
 10
128.1346522037
 20
140.0841778953
 30
0.0
 11
128.1346522037
 21
140.3341778953
 31
0.0
  0
LINE
  5
1A4
330
1F
100
AcDbEntity
  8
0
  6
Continuous
 62
     7
370
    25
100
AcDbLine
 10
128.7346522037
 20
140.3341778953
 30
0.0
 11
128.7346522037
 21
139.8341778953
 31
0.0
  0
LINE
  5
1A5
330
1F
100
AcDbEntity
  8
0
  6
Continuous
 62
     7
370
    25
100
AcDbLine
 10
128.7346522037
 20
154.2341778953
 30
0.0
 11
128.1346522037
 21
154.2341778953
 31
0.0
  0
LINE
  5
1A6
330
1F
100
AcDbEntity
  8
0
  6
Continuous
 62
     7
370
    25
100
AcDbLine
 10
128.7346522037
 20
151.6841778953
 30
0.0
 11
128.7346522037
 21
152.0841778953
 31
0.0
  0
LINE
  5
1A7
330
1F
100
AcDbEntity
  8
0
  6
Continuous
 62
     7
370
    25
100
AcDbLine
 10
128.7346522037
 20
154.0841778953
 30
0.0
 11
128.7346522037
 21
154.2341778953
 31
0.0
  0
LINE
  5
1A8
330
1F
100
AcDbEntity
  8
0
  6
Continuous
 62
     7
370
    25
100
AcDbLine
 10
128.1346522037
 20
148.5841778953
 30
0.0
 11
128.1346522037
 21
148.5341778953
 31
0.0
  0
LINE
  5
1A9
330
1F
100
AcDbEntity
  8
0
  6
Continuous
 62
     7
370
    25
100
AcDbLine
 10
128.7346522037
 20
148.4341778953
 30
0.0
 11
128.7346522037
 21
148.5841778953
 31
0.0
  0
LINE
  5
1AA
330
1F
100
AcDbEntity
  8
0
  6
Continuous
 62
     7
370
    25
100
AcDbLine
 10
128.1346522037
 20
188.6341778953
 30
0.0
 11
128.1346522037
 21
188.5841778953
 31
0.0
  0
LINE
  5
1AB
330
1F
100
AcDbEntity
  8
0
  6
Continuous
 62
     7
370
    25
100
AcDbLine
 10
128.7346522037
 20
188.5841778953
 30
0.0
 11
128.7346522037
 21
188.7341778953
 31
0.0
  0
LINE
  5
1AC
330
1F
100
AcDbEntity
  8
0
  6
Continuous
 62
     7
370
    25
100
AcDbLine
 10
128.7346522037
 20
182.9341778953
 30
0.0
 11
128.1346522037
 21
182.9341778953
 31
0.0
  0
LINE
  5
1AD
330
1F
100
AcDbEntity
  8
0
  6
Continuous
 62
     7
370
    25
100
AcDbLine
 10
128.7346522037
 20
182.9341778953
 30
0.0
 11
128.7346522037
 21
183.0841778953
 31
0.0
  0
LINE
  5
1AE
330
1F
100
AcDbEntity
  8
0
  6
Continuous
 62
     7
370
    25
100
AcDbLine
 10
128.7346522037
 20
185.0841778953
 30
0.0
 11
128.7346522037
 21
185.4841778953
 31
0.0
  0
LINE
  5
1AF
330
1F
100
AcDbEntity
  8
0
  6
Continuous
 62
     7
370
    25
100
AcDbLine
 10
128.7346522037
 20
154.2341778953
 30
0.0
 11
128.7346522037
 21
154.4841778953
 31
0.0
  0
LINE
  5
1B0
330
1F
100
AcDbEntity
  8
0
  6
Continuous
 62
     7
370
    25
100
AcDbLine
 10
128.7346522037
 20
182.6841778953
 30
0.0
 11
128.7346522037
 21
182.9341778953
 31
0.0
  0
LINE
  5
1B1
330
1F
100
AcDbEntity
  8
0
  6
Continuous
 62
     7
370
    25
100
AcDbLine
 10
109.6346522037
 20
148.0841778953
 30
0.0
 11
109.6346522037
 21
189.0841778953
 31
0.0
  0
LINE
  5
1B2
330
1F
100
AcDbEntity
  8
0
  6
Continuous
 62
     7
370
    25
100
AcDbLine
 10
128.1346522037
 20
182.1341778953
 30
0.0
 11
128.1346522037
 21
188.3341778953
 31
0.0
  0
LINE
  5
1B3
330
1F
100
AcDbEntity
  8
0
  6
Continuous
 62
     7
370
    25
100
AcDbLine
 10
124.1346522037
 20
182.1341778953
 30
0.0
 11
128.1346522037
 21
182.1341778953
 31
0.0
  0
LINE
  5
1B4
330
1F
100
AcDbEntity
  8
0
  6
Continuous
 62
     7
370
    25
100
AcDbLine
 10
124.1346522037
 20
181.7341778953
 30
0.0
 11
124.1346522037
 21
182.1341778953
 31
0.0
  0
LINE
  5
1B5
330
1F
100
AcDbEntity
  8
0
  6
Continuous
 62
     7
370
    25
100
AcDbLine
 10
129.9846522037
 20
181.7341778953
 30
0.0
 11
124.1346522037
 21
181.7341778953
 31
0.0
  0
ARC
  5
1B6
330
1F
100
AcDbEntity
  8
0
  6
Continuous
 62
     7
370
    25
100
AcDbCircle
 10
129.9846522037
 20
181.4841778953
 30
0.0
 40
0.25
100
AcDbArc
 50
0.0
 51
90.0
  0
LINE
  5
1B7
330
1F
100
AcDbEntity
  8
0
  6
Continuous
 62
     7
370
    25
100
AcDbLine
 10
130.2346522037
 20
181.4841778953
 30
0.0
 11
130.2346522037
 21
177.6841778953
 31
0.0
  0
ARC
  5
1B8
330
1F
100
AcDbEntity
  8
0
  6
Continuous
 62
     7
370
    25
100
AcDbCircle
 10
129.9846522037
 20
177.6841778953
 30
0.0
 40
0.25
100
AcDbArc
 50
270.0
 51
0.0
  0
LINE
  5
1B9
330
1F
100
AcDbEntity
  8
0
  6
Continuous
 62
     7
370
    25
100
AcDbLine
 10
129.9846522037
 20
177.4341778953
 30
0.0
 11
124.1346522037
 21
177.4341778953
 31
0.0
  0
LINE
  5
1BA
330
1F
100
AcDbEntity
  8
0
  6
Continuous
 62
     7
370
    25
100
AcDbLine
 10
124.1346522037
 20
177.0341778953
 30
0.0
 11
124.1346522037
 21
177.4341778953
 31
0.0
  0
LINE
  5
1BB
330
1F
100
AcDbEntity
  8
0
  6
Continuous
 62
     7
370
    25
100
AcDbLine
 10
128.1346522037
 20
177.0341778953
 30
0.0
 11
124.1346522037
 21
177.0341778953
 31
0.0
  0
LINE
  5
1BC
330
1F
100
AcDbEntity
  8
0
  6
Continuous
 62
     7
370
    25
100
AcDbLine
 10
128.1346522037
 20
160.1341778953
 30
0.0
 11
128.1346522037
 21
177.0341778953
 31
0.0
  0
LINE
  5
1BD
330
1F
100
AcDbEntity
  8
0
  6
Continuous
 62
     7
370
    25
100
AcDbLine
 10
124.1346522037
 20
160.1341778953
 30
0.0
 11
128.1346522037
 21
160.1341778953
 31
0.0
  0
LINE
  5
1BE
330
1F
100
AcDbEntity
  8
0
  6
Continuous
 62
     7
370
    25
100
AcDbLine
 10
124.1346522037
 20
159.7341778953
 30
0.0
 11
124.1346522037
 21
160.1341778953
 31
0.0
  0
LINE
  5
1BF
330
1F
100
AcDbEntity
  8
0
  6
Continuous
 62
     7
370
    25
100
AcDbLine
 10
129.9846522037
 20
159.7341778953
 30
0.0
 11
124.1346522037
 21
159.7341778953
 31
0.0
  0
ARC
  5
1C0
330
1F
100
AcDbEntity
  8
0
  6
Continuous
 62
     7
370
    25
100
AcDbCircle
 10
129.9846522037
 20
159.4841778953
 30
0.0
 40
0.25
100
AcDbArc
 50
0.0
 51
90.0
  0
LINE
  5
1C1
330
1F
100
AcDbEntity
  8
0
  6
Continuous
 62
     7
370
    25
100
AcDbLine
 10
130.2346522037
 20
159.4841778953
 30
0.0
 11
130.2346522037
 21
155.6841778953
 31
0.0
  0
ARC
  5
1C2
330
1F
100
AcDbEntity
  8
0
  6
Continuous
 62
     7
370
    25
100
AcDbCircle
 10
129.9846522037
 20
155.6841778953
 30
0.0
 40
0.25
100
AcDbArc
 50
270.0
 51
0.0
  0
LINE
  5
1C3
330
1F
100
AcDbEntity
  8
0
  6
Continuous
 62
     7
370
    25
100
AcDbLine
 10
129.9846522037
 20
155.4341778953
 30
0.0
 11
124.1346522037
 21
155.4341778953
 31
0.0
  0
LINE
  5
1C4
330
1F
100
AcDbEntity
  8
0
  6
Continuous
 62
     7
370
    25
100
AcDbLine
 10
124.1346522037
 20
155.0341778953
 30
0.0
 11
124.1346522037
 21
155.4341778953
 31
0.0
  0
LINE
  5
1C5
330
1F
100
AcDbEntity
  8
0
  6
Continuous
 62
     7
370
    25
100
AcDbLine
 10
128.1346522037
 20
155.0341778953
 30
0.0
 11
124.1346522037
 21
155.0341778953
 31
0.0
  0
LINE
  5
1C6
330
1F
100
AcDbEntity
  8
0
  6
Continuous
 62
     7
370
    25
100
AcDbLine
 10
128.1346522037
 20
148.8341778953
 30
0.0
 11
128.1346522037
 21
155.0341778953
 31
0.0
  0
LINE
  5
1C7
330
1F
100
AcDbEntity
  8
0
  6
Continuous
 62
     7
370
    25
100
AcDbLine
 10
129.2346522037
 20
155.9341778953
 30
0.0
 11
129.2346522037
 21
159.2341778953
 31
0.0
  0
LINE
  5
1C8
330
1F
100
AcDbEntity
  8
0
  6
Continuous
 62
     7
370
    25
100
AcDbLine
 10
129.2346522037
 20
159.2341778953
 30
0.0
 11
128.0346522037
 21
159.2341778953
 31
0.0
  0
LINE
  5
1C9
330
1F
100
AcDbEntity
  8
0
  6
Continuous
 62
     7
370
    25
100
AcDbLine
 10
128.0346522037
 20
159.2341778953
 30
0.0
 11
128.0346522037
 21
155.9341778953
 31
0.0
  0
LINE
  5
1CA
330
1F
100
AcDbEntity
  8
0
  6
Continuous
 62
     7
370
    25
100
AcDbLine
 10
128.0346522037
 20
155.9341778953
 30
0.0
 11
129.2346522037
 21
155.9341778953
 31
0.0
  0
LINE
  5
1CB
330
1F
100
AcDbEntity
  8
0
  6
Continuous
 62
     7
370
    25
100
AcDbLine
 10
128.0346522037
 20
181.2341778953
 30
0.0
 11
128.0346522037
 21
177.9341778953
 31
0.0
  0
LINE
  5
1CC
330
1F
100
AcDbEntity
  8
0
  6
Continuous
 62
     7
370
    25
100
AcDbLine
 10
128.0346522037
 20
177.9341778953
 30
0.0
 11
129.2346522037
 21
177.9341778953
 31
0.0
  0
LINE
  5
1CD
330
1F
100
AcDbEntity
  8
0
  6
Continuous
 62
     7
370
    25
100
AcDbLine
 10
129.2346522037
 20
177.9341778953
 30
0.0
 11
129.2346522037
 21
181.2341778953
 31
0.0
  0
LINE
  5
1CE
330
1F
100
AcDbEntity
  8
0
  6
Continuous
 62
     7
370
    25
100
AcDbLine
 10
129.2346522037
 20
181.2341778953
 30
0.0
 11
128.0346522037
 21
181.2341778953
 31
0.0
  0
LINE
  5
1CF
330
1F
100
AcDbEntity
  8
0
  6
Continuous
 62
     7
370
    25
100
AcDbLine
 10
128.1346522037
 20
148.5841778953
 30
0.0
 11
114.453898195
 21
148.5841778953
 31
0.0
  0
LINE
  5
1D0
330
1F
100
AcDbEntity
  8
0
  6
Continuous
 62
     7
370
    25
100
AcDbLine
 10
114.453898195
 20
188.5841778953
 30
0.0
 11
128.1346522037
 21
188.5841778953
 31
0.0
  0
ARC
  5
1D1
330
1F
100
AcDbEntity
  8
0
  6
Continuous
 62
     7
370
    25
100
AcDbCircle
 10
114.453898195
 20
148.3341778953
 30
0.0
 40
0.2500000000000084
100
AcDbArc
 50
90.0
 51
120.9637565321
  0
LINE
  5
1D2
330
1F
100
AcDbEntity
  8
0
  6
Continuous
 62
     7
370
    25
100
AcDbLine
 10
114.3252742561
 20
148.5485511268
 30
0.0
 11
113.1940301513
 21
147.8698046639
 31
0.0
  0
ARC
  5
1D3
330
1F
100
AcDbEntity
  8
0
  6
Continuous
 62
     7
370
    25
100
AcDbCircle
 10
114.453898195
 20
188.8341778953
 30
0.0
 40
0.2500000000000012
100
AcDbArc
 50
239.0362434679
 51
270.0
  0
ARC
  5
1D4
330
1F
100
AcDbEntity
  8
0
  6
Continuous
 62
     7
370
    25
100
AcDbCircle
 10
113.0654062125
 20
148.0841778953
 30
0.0
 40
0.25
100
AcDbArc
 50
270.0
 51
300.9637565321
  0
LINE
  5
1D5
330
1F
100
AcDbEntity
  8
0
  6
Continuous
 62
     7
370
    25
100
AcDbLine
 10
113.1940301513
 20
189.2985511268
 30
0.0
 11
114.3252742561
 21
188.6198046639
 31
0.0
  0
LINE
  5
1D6
330
1F
100
AcDbEntity
  8
0
  6
Continuous
 62
     7
370
    25
100
AcDbLine
 10
113.0654062125
 20
147.8341778953
 30
0.0
 11
109.6346522037
 21
147.8341778953
 31
0.0
  0
LINE
  5
1D7
330
1F
100
AcDbEntity
  8
0
  6
Continuous
 62
     7
370
    25
100
AcDbLine
 10
109.6346522037
 20
147.8341778953
 30
0.0
 11
109.6346522037
 21
148.0841778953
 31
0.0
  0
ARC
  5
1D8
330
1F
100
AcDbEntity
  8
0
  6
Continuous
 62
     7
370
    25
100
AcDbCircle
 10
113.0654062125
 20
189.0841778953
 30
0.0
 40
0.2500000000000012
100
AcDbArc
 50
59.0362434679
 51
90.0
  0
LINE
  5
1D9
330
1F
100
AcDbEntity
  8
0
  6
Continuous
 62
     7
370
    25
100
AcDbLine
 10
109.6346522037
 20
189.3341778953
 30
0.0
 11
113.0654062125
 21
189.3341778953
 31
0.0
  0
LINE
  5
1DA
330
1F
100
AcDbEntity
  8
0
  6
Continuous
 62
     7
370
    25
100
AcDbLine
 10
109.6346522037
 20
189.0841778953
 30
0.0
 11
109.6346522037
 21
189.3341778953
 31
0.0
  0
LINE
  5
1DB
330
1F
100
AcDbEntity
  8
0
  6
Continuous
 62
     7
370
    25
100
AcDbLine
 10
133.6346522037
 20
158.4395626531
 30
0.0
 11
133.6346522037
 21
140.0841778953
 31
0.0
  0
LINE
  5
1DC
330
1F
100
AcDbEntity
  8
0
  6
Continuous
 62
     7
370
    25
100
AcDbLine
 10
133.6346522037
 20
158.4395626531
 30
0.0
 11
133.3846522037
 21
158.372575355
 31
0.0
  0
ARC
  5
1DD
330
1F
100
AcDbEntity
  8
0
  6
Continuous
 62
     7
370
    25
100
AcDbCircle
 10
133.3846522037
 20
140.0841778953
 30
0.0
 40
0.25
100
AcDbArc
 50
270.0
 51
0.0
  0
LINE
  5
1DE
330
1F
100
AcDbEntity
  8
0
  6
Continuous
 62
     7
370
    25
100
AcDbLine
 10
128.7846522037
 20
197.3341778953
 30
0.0
 11
128.7846522037
 21
197.0841778953
 31
0.0
  0
LINE
  5
1DF
330
1F
100
AcDbEntity
  8
0
  6
Continuous
 62
     7
370
    25
100
AcDbLine
 10
128.7846522037
 20
197.3341778953
 30
0.0
 11
133.3846522037
 21
197.3341778953
 31
0.0
  0
LINE
  5
1E0
330
1F
100
AcDbEntity
  8
0
  6
Continuous
 62
     7
370
    25
100
AcDbLine
 10
133.3846522037
 20
139.8341778953
 30
0.0
 11
128.7846522037
 21
139.8341778953
 31
0.0
  0
LINE
  5
1E1
330
1F
100
AcDbEntity
  8
0
  6
Continuous
 62
     7
370
    25
100
AcDbLine
 10
128.7846522037
 20
140.0841778953
 30
0.0
 11
128.7846522037
 21
139.8341778953
 31
0.0
  0
LINE
  5
1E2
330
1F
100
AcDbEntity
  8
0
  6
Continuous
 62
     7
370
    25
100
AcDbLine
 10
128.7846522037
 20
148.5841778953
 30
0.0
 11
128.1346522037
 21
148.5841778953
 31
0.0
  0
LINE
  5
1E3
330
1F
100
AcDbEntity
  8
0
  6
Continuous
 62
     7
370
    25
100
AcDbLine
 10
128.1346522037
 20
148.5841778953
 30
0.0
 11
128.1346522037
 21
151.6841778953
 31
0.0
  0
LINE
  5
1E4
330
1F
100
AcDbEntity
  8
0
  6
Continuous
 62
     7
370
    25
100
AcDbLine
 10
130.5846522037
 20
151.6841778953
 30
0.0
 11
128.1346522037
 21
151.6841778953
 31
0.0
  0
LINE
  5
1E5
330
1F
100
AcDbEntity
  8
0
  6
Continuous
 62
     7
370
    25
100
AcDbLine
 10
130.5846522037
 20
154.4841778953
 30
0.0
 11
130.5846522037
 21
151.6841778953
 31
0.0
  0
LINE
  5
1E6
330
1F
100
AcDbEntity
  8
0
  6
Continuous
 62
     7
370
    25
100
AcDbLine
 10
130.5846522037
 20
154.4841778953
 30
0.0
 11
128.1346522037
 21
154.4841778953
 31
0.0
  0
LINE
  5
1E7
330
1F
100
AcDbEntity
  8
0
  6
Continuous
 62
     7
370
    25
100
AcDbLine
 10
128.1346522037
 20
154.4841778953
 30
0.0
 11
128.1346522037
 21
155.3591778953
 31
0.0
  0
LINE
  5
1E8
330
1F
100
AcDbEntity
  8
0
  6
Continuous
 62
     7
370
    25
100
AcDbLine
 10
128.1346522037
 20
155.3591778953
 30
0.0
 11
130.8346522037
 21
155.3591778953
 31
0.0
  0
LINE
  5
1E9
330
1F
100
AcDbEntity
  8
0
  6
Continuous
 62
     7
370
    25
100
AcDbLine
 10
130.8346522037
 20
159.8091778953
 30
0.0
 11
130.8346522037
 21
155.3591778953
 31
0.0
  0
LINE
  5
1EA
330
1F
100
AcDbEntity
  8
0
  6
Continuous
 62
     7
370
    25
100
AcDbLine
 10
128.1346522037
 20
159.8091778953
 30
0.0
 11
130.8346522037
 21
159.8091778953
 31
0.0
  0
LINE
  5
1EB
330
1F
100
AcDbEntity
  8
0
  6
Continuous
 62
     7
370
    25
100
AcDbLine
 10
128.1346522037
 20
159.8091778953
 30
0.0
 11
128.1346522037
 21
177.3591778953
 31
0.0
  0
LINE
  5
1EC
330
1F
100
AcDbEntity
  8
0
  6
Continuous
 62
     7
370
    25
100
AcDbLine
 10
128.1346522037
 20
177.3591778953
 30
0.0
 11
130.8346522037
 21
177.3591778953
 31
0.0
  0
LINE
  5
1ED
330
1F
100
AcDbEntity
  8
0
  6
Continuous
 62
     7
370
    25
100
AcDbLine
 10
130.8346522037
 20
177.3591778953
 30
0.0
 11
130.8346522037
 21
181.8091778953
 31
0.0
  0
LINE
  5
1EE
330
1F
100
AcDbEntity
  8
0
  6
Continuous
 62
     7
370
    25
100
AcDbLine
 10
128.1346522037
 20
181.8091778953
 30
0.0
 11
130.8346522037
 21
181.8091778953
 31
0.0
  0
LINE
  5
1EF
330
1F
100
AcDbEntity
  8
0
  6
Continuous
 62
     7
370
    25
100
AcDbLine
 10
128.1346522037
 20
181.8091778953
 30
0.0
 11
128.1346522037
 21
182.6841778953
 31
0.0
  0
LINE
  5
1F0
330
1F
100
AcDbEntity
  8
0
  6
Continuous
 62
     7
370
    25
100
AcDbLine
 10
130.5846522037
 20
182.6841778953
 30
0.0
 11
128.1346522037
 21
182.6841778953
 31
0.0
  0
LINE
  5
1F1
330
1F
100
AcDbEntity
  8
0
  6
Continuous
 62
     7
370
    25
100
AcDbLine
 10
130.5846522037
 20
185.4841778953
 30
0.0
 11
130.5846522037
 21
182.6841778953
 31
0.0
  0
LINE
  5
1F2
330
1F
100
AcDbEntity
  8
0
  6
Continuous
 62
     7
370
    25
100
AcDbLine
 10
130.5846522037
 20
185.4841778953
 30
0.0
 11
128.1346522037
 21
185.4841778953
 31
0.0
  0
LINE
  5
1F3
330
1F
100
AcDbEntity
  8
0
  6
Continuous
 62
     7
370
    25
100
AcDbLine
 10
128.1346522037
 20
185.4841778953
 30
0.0
 11
128.1346522037
 21
188.5841778953
 31
0.0
  0
LINE
  5
1F4
330
1F
100
AcDbEntity
  8
0
  6
Continuous
 62
     7
370
    25
100
AcDbLine
 10
128.7846522037
 20
188.5841778953
 30
0.0
 11
128.1346522037
 21
188.5841778953
 31
0.0
  0
LINE
  5
1F5
330
1F
100
AcDbEntity
  8
0
  6
Continuous
 62
     7
370
    25
100
AcDbLine
 10
128.7846522037
 20
197.0841778953
 30
0.0
 11
128.7846522037
 21
188.5841778953
 31
0.0
  0
LINE
  5
1F6
330
1F
100
AcDbEntity
  8
0
  6
Continuous
 62
     7
370
    25
100
AcDbLine
 10
131.6346522037
 20
177.7091778953
 30
0.0
 11
131.6346522037
 21
176.1341778953
 31
0.0
  0
LINE
  5
1F7
330
1F
100
AcDbEntity
  8
0
  6
Continuous
 62
     7
370
    25
100
AcDbLine
 10
131.7096522037
 20
176.1341778953
 30
0.0
 11
131.6346522037
 21
176.1341778953
 31
0.0
  0
ARC
  5
1F8
330
1F
100
AcDbEntity
  8
0
  6
Continuous
 62
     7
370
    25
100
AcDbCircle
 10
131.3096522037
 20
175.8341778953
 30
0.0
 40
0.5000000000000512
100
AcDbArc
 50
323.1301023542
 51
36.8698976458
  0
LINE
  5
1F9
330
1F
100
AcDbEntity
  8
0
  6
Continuous
 62
     7
370
    25
100
AcDbLine
 10
131.6346522037
 20
175.5341778953
 30
0.0
 11
131.7096522037
 21
175.5341778953
 31
0.0
  0
LINE
  5
1FA
330
1F
100
AcDbEntity
  8
0
  6
Continuous
 62
     7
370
    25
100
AcDbLine
 10
131.6346522037
 20
175.5341778953
 30
0.0
 11
131.6346522037
 21
159.4591778953
 31
0.0
  0
LINE
  5
1FB
330
1F
100
AcDbEntity
  8
0
  6
Continuous
 62
     7
370
    25
100
AcDbLine
 10
128.7846522037
 20
148.5841778953
 30
0.0
 11
128.7846522037
 21
140.0841778953
 31
0.0
  0
LINE
  5
1FC
330
1F
100
AcDbEntity
  8
0
  6
Continuous
 62
     7
370
    25
100
AcDbLine
 10
132.9016395018
 20
159.7091778953
 30
0.0
 11
133.6346522037
 21
158.4395626531
 31
0.0
  0
LINE
  5
1FD
330
1F
100
AcDbEntity
  8
0
  6
Continuous
 62
     7
370
    25
100
AcDbLine
 10
132.9016395018
 20
159.7091778953
 30
0.0
 11
132.7573019345
 21
159.4591778953
 31
0.0
  0
LINE
  5
1FE
330
1F
100
AcDbEntity
  8
0
  6
Continuous
 62
     7
370
    25
100
AcDbLine
 10
131.6346522037
 20
159.7091778953
 30
0.0
 11
132.9016395018
 21
159.7091778953
 31
0.0
  0
LINE
  5
1FF
330
1F
100
AcDbEntity
  8
0
  6
Continuous
 62
     7
370
    25
100
AcDbLine
 10
133.6346522037
 20
197.0841778953
 30
0.0
 11
133.6346522037
 21
177.4591778953
 31
0.0
  0
LINE
  5
200
330
1F
100
AcDbEntity
  8
0
  6
Continuous
 62
     7
370
    25
100
AcDbLine
 10
133.6346522037
 20
177.4591778953
 30
0.0
 11
133.3846522037
 21
177.7091778953
 31
0.0
  0
LINE
  5
201
330
1F
100
AcDbEntity
  8
0
  6
Continuous
 62
     7
370
    25
100
AcDbLine
 10
133.6346522037
 20
177.4591778953
 30
0.0
 11
131.6346522037
 21
177.4591778953
 31
0.0
  0
ARC
  5
202
330
1F
100
AcDbEntity
  8
0
  6
Continuous
 62
     7
370
    25
100
AcDbCircle
 10
133.3846522037
 20
197.0841778953
 30
0.0
 40
0.25
100
AcDbArc
 50
0.0
 51
90.0
  0
LINE
  5
203
330
1F
100
AcDbEntity
  8
0
  6
Continuous
 62
     7
370
    25
100
AcDbLine
 10
130.3846522037
 20
159.8091778953
 30
0.0
 11
130.3846522037
 21
155.3591778953
 31
0.0
  0
LINE
  5
204
330
1F
100
AcDbEntity
  8
0
  6
Continuous
 62
     7
370
    25
100
AcDbLine
 10
130.3846522037
 20
177.3591778953
 30
0.0
 11
130.3846522037
 21
181.8091778953
 31
0.0
  0
LINE
  5
205
330
1F
100
AcDbEntity
  8
0
  6
Continuous
 62
     7
370
    25
100
AcDbLine
 10
128.8846522037
 20
181.0841778953
 30
0.0
 11
128.8846522037
 21
178.0841778953
 31
0.0
  0
LINE
  5
206
330
1F
100
AcDbEntity
  8
0
  6
Continuous
 62
     7
370
    25
100
AcDbLine
 10
128.8846522037
 20
181.0841778953
 30
0.0
 11
129.1846522037
 21
181.0841778953
 31
0.0
  0
LINE
  5
207
330
1F
100
AcDbEntity
  8
0
  6
Continuous
 62
     7
370
    25
100
AcDbLine
 10
129.1846522037
 20
181.0841778953
 30
0.0
 11
129.1846522037
 21
178.0841778953
 31
0.0
  0
LINE
  5
208
330
1F
100
AcDbEntity
  8
0
  6
Continuous
 62
     7
370
    25
100
AcDbLine
 10
128.8846522037
 20
178.0841778953
 30
0.0
 11
129.1846522037
 21
178.0841778953
 31
0.0
  0
LINE
  5
209
330
1F
100
AcDbEntity
  8
0
  6
Continuous
 62
     7
370
    25
100
AcDbLine
 10
129.1846522037
 20
156.0841778953
 30
0.0
 11
129.1846522037
 21
159.0841778953
 31
0.0
  0
LINE
  5
20A
330
1F
100
AcDbEntity
  8
0
  6
Continuous
 62
     7
370
    25
100
AcDbLine
 10
128.8846522037
 20
156.0841778953
 30
0.0
 11
129.1846522037
 21
156.0841778953
 31
0.0
  0
LINE
  5
20B
330
1F
100
AcDbEntity
  8
0
  6
Continuous
 62
     7
370
    25
100
AcDbLine
 10
128.8846522037
 20
156.0841778953
 30
0.0
 11
128.8846522037
 21
159.0841778953
 31
0.0
  0
LINE
  5
20C
330
1F
100
AcDbEntity
  8
0
  6
Continuous
 62
     7
370
    25
100
AcDbLine
 10
128.8846522037
 20
159.0841778953
 30
0.0
 11
129.1846522037
 21
159.0841778953
 31
0.0
  0
LINE
  5
20D
330
1F
100
AcDbEntity
  8
0
  6
Continuous
 62
     7
370
    25
100
AcDbLine
 10
128.4846522037
 20
181.0841778953
 30
0.0
 11
128.4846522037
 21
178.0841778953
 31
0.0
  0
LINE
  5
20E
330
1F
100
AcDbEntity
  8
0
  6
Continuous
 62
     7
370
    25
100
AcDbLine
 10
128.4846522037
 20
181.0841778953
 30
0.0
 11
128.8846522037
 21
181.0841778953
 31
0.0
  0
LINE
  5
20F
330
1F
100
AcDbEntity
  8
0
  6
Continuous
 62
     7
370
    25
100
AcDbLine
 10
128.4846522037
 20
178.0841778953
 30
0.0
 11
128.8846522037
 21
178.0841778953
 31
0.0
  0
LINE
  5
210
330
1F
100
AcDbEntity
  8
0
  6
Continuous
 62
     7
370
    25
100
AcDbLine
 10
128.4846522037
 20
156.0841778953
 30
0.0
 11
128.4846522037
 21
159.0841778953
 31
0.0
  0
LINE
  5
211
330
1F
100
AcDbEntity
  8
0
  6
Continuous
 62
     7
370
    25
100
AcDbLine
 10
128.4846522037
 20
156.0841778953
 30
0.0
 11
128.8846522037
 21
156.0841778953
 31
0.0
  0
LINE
  5
212
330
1F
100
AcDbEntity
  8
0
  6
Continuous
 62
     7
370
    25
100
AcDbLine
 10
128.4846522037
 20
159.0841778953
 30
0.0
 11
128.8846522037
 21
159.0841778953
 31
0.0
  0
LINE
  5
213
330
1F
100
AcDbEntity
  8
0
  6
Continuous
 62
     7
370
    25
100
AcDbLine
 10
130.3346522037
 20
154.0841778953
 30
0.0
 11
130.5846522037
 21
154.0841778953
 31
0.0
  0
LINE
  5
214
330
1F
100
AcDbEntity
  8
0
  6
Continuous
 62
     7
370
    25
100
AcDbLine
 10
130.5846522037
 20
152.0841778953
 30
0.0
 11
130.3346522037
 21
152.0841778953
 31
0.0
  0
LINE
  5
215
330
1F
100
AcDbEntity
  8
0
  6
Continuous
 62
     7
370
    25
100
AcDbLine
 10
130.5846522037
 20
183.0841778953
 30
0.0
 11
130.3346522037
 21
183.0841778953
 31
0.0
  0
LINE
  5
216
330
1F
100
AcDbEntity
  8
0
  6
Continuous
 62
     7
370
    25
100
AcDbLine
 10
130.3346522037
 20
185.0841778953
 30
0.0
 11
130.5846522037
 21
185.0841778953
 31
0.0
  0
LINE
  5
217
330
1F
100
AcDbEntity
  8
0
  6
Continuous
 62
     7
370
    25
100
AcDbLine
 10
128.1346522037
 20
154.0841778953
 30
0.0
 11
130.3346522037
 21
154.0841778953
 31
0.0
  0
LINE
  5
218
330
1F
100
AcDbEntity
  8
0
  6
Continuous
 62
     7
370
    25
100
AcDbLine
 10
128.1346522037
 20
152.0841778953
 30
0.0
 11
130.3346522037
 21
152.0841778953
 31
0.0
  0
LINE
  5
219
330
1F
100
AcDbEntity
  8
0
  6
Continuous
 62
     7
370
    25
100
AcDbLine
 10
128.1346522037
 20
183.0841778953
 30
0.0
 11
130.3346522037
 21
183.0841778953
 31
0.0
  0
LINE
  5
21A
330
1F
100
AcDbEntity
  8
0
  6
Continuous
 62
     7
370
    25
100
AcDbLine
 10
128.1346522037
 20
185.0841778953
 30
0.0
 11
130.3346522037
 21
185.0841778953
 31
0.0
  0
LINE
  5
21B
330
1F
100
AcDbEntity
  8
0
  6
Continuous
 62
     7
370
    25
100
AcDbLine
 10
128.3846522037
 20
181.8091778953
 30
0.0
 11
128.3846522037
 21
181.7341778953
 31
0.0
  0
LINE
  5
21C
330
1F
100
AcDbEntity
  8
0
  6
Continuous
 62
     7
370
    25
100
AcDbLine
 10
128.3846522037
 20
181.2341778953
 30
0.0
 11
128.3846522037
 21
177.9341778953
 31
0.0
  0
LINE
  5
21D
330
1F
100
AcDbEntity
  8
0
  6
Continuous
 62
     7
370
    25
100
AcDbLine
 10
128.3846522037
 20
177.4341778953
 30
0.0
 11
128.3846522037
 21
177.3591778953
 31
0.0
  0
LINE
  5
21E
330
1F
100
AcDbEntity
  8
0
  6
Continuous
 62
     7
370
    25
100
AcDbLine
 10
128.3846522037
 20
159.8091778953
 30
0.0
 11
128.3846522037
 21
159.7341778953
 31
0.0
  0
LINE
  5
21F
330
1F
100
AcDbEntity
  8
0
  6
Continuous
 62
     7
370
    25
100
AcDbLine
 10
128.3846522037
 20
159.2341778953
 30
0.0
 11
128.3846522037
 21
155.9341778953
 31
0.0
  0
LINE
  5
220
330
1F
100
AcDbEntity
  8
0
  6
Continuous
 62
     7
370
    25
100
AcDbLine
 10
128.3846522037
 20
155.4341778953
 30
0.0
 11
128.3846522037
 21
155.3591778953
 31
0.0
  0
LINE
  5
221
330
1F
100
AcDbEntity
  8
0
  6
Continuous
 62
     7
370
    25
100
AcDbLine
 10
128.1346522037
 20
155.3591778953
 30
0.0
 11
128.1346522037
 21
155.4341778953
 31
0.0
  0
LINE
  5
222
330
1F
100
AcDbEntity
  8
0
  6
Continuous
 62
     7
370
    25
100
AcDbLine
 10
128.1346522037
 20
155.9341778953
 30
0.0
 11
128.1346522037
 21
159.2341778953
 31
0.0
  0
LINE
  5
223
330
1F
100
AcDbEntity
  8
0
  6
Continuous
 62
     7
370
    25
100
AcDbLine
 10
128.1346522037
 20
159.7341778953
 30
0.0
 11
128.1346522037
 21
159.8091778953
 31
0.0
  0
LINE
  5
224
330
1F
100
AcDbEntity
  8
0
  6
Continuous
 62
     7
370
    25
100
AcDbLine
 10
128.1346522037
 20
177.3591778953
 30
0.0
 11
128.1346522037
 21
177.4341778953
 31
0.0
  0
LINE
  5
225
330
1F
100
AcDbEntity
  8
0
  6
Continuous
 62
     7
370
    25
100
AcDbLine
 10
128.1346522037
 20
177.9341778953
 30
0.0
 11
128.1346522037
 21
181.2341778953
 31
0.0
  0
LINE
  5
226
330
1F
100
AcDbEntity
  8
0
  6
Continuous
 62
     7
370
    25
100
AcDbLine
 10
128.1346522037
 20
181.7341778953
 30
0.0
 11
128.1346522037
 21
181.8091778953
 31
0.0
  0
LINE
  5
227
330
1F
100
AcDbEntity
  8
0
  6
Continuous
 62
     7
370
    25
100
AcDbLine
 10
130.3346522037
 20
151.6841778953
 30
0.0
 11
130.3346522037
 21
152.0841778953
 31
0.0
  0
ARC
  5
228
330
1F
100
AcDbEntity
  8
0
  6
Continuous
 62
     7
370
    25
100
AcDbCircle
 10
132.8143959618
 20
176.7091778953
 30
0.0
 40
0.1500000000000222
100
AcDbArc
 50
270.0
 51
320.1944289077
  0
LINE
  5
229
330
1F
100
AcDbEntity
  8
0
  6
Continuous
 62
     7
370
    25
100
AcDbLine
 10
132.5189086227
 20
176.5591778953
 30
0.0
 11
132.8143959618
 21
176.5591778953
 31
0.0
  0
ARC
  5
22A
330
1F
100
AcDbEntity
  8
0
  6
Continuous
 62
     7
370
    25
100
AcDbCircle
 10
132.5189086227
 20
176.7091778953
 30
0.0
 40
0.1500000000000057
100
AcDbArc
 50
186.3401917459
 51
270.0
  0
LINE
  5
22B
330
1F
100
AcDbEntity
  8
0
  6
Continuous
 62
     7
370
    25
100
AcDbLine
 10
132.2846522037
 20
177.4591778953
 30
0.0
 11
132.3698260625
 21
176.6926131664
 31
0.0
  0
LINE
  5
22C
330
1F
100
AcDbEntity
  8
0
  6
Continuous
 62
     7
370
    25
100
AcDbLine
 10
132.9296291538
 20
176.6131502354
 30
0.0
 11
133.6346522037
 21
177.4591778953
 31
0.0
  0
LINE
  5
22D
330
1F
100
AcDbEntity
  8
0
  6
Continuous
 62
     7
370
    25
100
AcDbLine
 10
128.7346522037
 20
196.6841778953
 30
0.0
 11
128.7846522037
 21
196.6841778953
 31
0.0
  0
LINE
  5
22E
330
1F
100
AcDbEntity
  8
0
  6
Continuous
 62
     7
370
    25
100
AcDbLine
 10
128.7346522037
 20
197.3341778953
 30
0.0
 11
128.7846522037
 21
197.3341778953
 31
0.0
  0
LINE
  5
22F
330
1F
100
AcDbEntity
  8
0
  6
Continuous
 62
     7
370
    25
100
AcDbLine
 10
128.7346522037
 20
140.4841778953
 30
0.0
 11
128.7846522037
 21
140.4841778953
 31
0.0
  0
LINE
  5
230
330
1F
100
AcDbEntity
  8
0
  6
Continuous
 62
     7
370
    25
100
AcDbLine
 10
128.7346522037
 20
139.8341778953
 30
0.0
 11
128.7846522037
 21
139.8341778953
 31
0.0
  0
ENDSEC
  0
SECTION
  2
OBJECTS
  0
DICTIONARY
  5
C
330
0
100
AcDbDictionary
281
     1
  3
ACAD_GROUP
350
D
  3
ACAD_LAYOUT
350
1A
  3
ACAD_MLINESTYLE
350
17
  3
ACAD_PLOTSETTINGS
350
19
  3
ACAD_PLOTSTYLENAME
350
E
  3
ACAD_SCALELIST
350
47
  3
DWGPROPS
350
231
  0
DICTIONARY
  5
D
102
{ACAD_REACTORS
330
C
102
}
330
C
100
AcDbDictionary
281
     1
  0
DICTIONARY
  5
1A
102
{ACAD_REACTORS
330
C
102
}
330
C
100
AcDbDictionary
281
     1
  3
Layout1
350
1E
  3
Layout2
350
26
  3
Model
350
22
  0
DICTIONARY
  5
17
102
{ACAD_REACTORS
330
C
102
}
330
C
100
AcDbDictionary
281
     1
  3
Standard
350
18
  0
DICTIONARY
  5
19
102
{ACAD_REACTORS
330
C
102
}
330
C
100
AcDbDictionary
281
     1
  0
ACDBDICTIONARYWDFLT
  5
E
102
{ACAD_REACTORS
330
C
102
}
330
C
100
AcDbDictionary
281
     1
  3
Normal
350
F
100
AcDbDictionaryWithDefault
340
F
  0
DICTIONARY
  5
47
102
{ACAD_REACTORS
330
C
102
}
330
C
100
AcDbDictionary
281
     1
  3
A0
350
48
  3
A1
350
49
  3
A2
350
4A
  3
A3
350
4B
  3
A4
350
4C
  3
A5
350
4D
  3
A6
350
4E
  3
A7
350
4F
  3
A8
350
50
  3
A9
350
51
  3
B0
350
52
  3
B1
350
53
  3
B2
350
54
  3
B3
350
55
  3
B4
350
56
  3
B5
350
57
  3
B6
350
58
  0
XRECORD
  5
231
102
{ACAD_REACTORS
330
C
102
}
330
C
100
AcDbXrecord
280
     1
  1
DWGPROPS COOKIE
  2

  3

  4

  6

  7

  8
miyaki
  9

300
=
301
=
302
=
303
=
304
=
305
=
306
=
307
=
308
=
309
=
 40
0.0
 41
2460692.070531794
 42
2460692.070531979
  1

 90
        0
  0
LAYOUT
  5
1E
102
{ACAD_REACTORS
330
1A
102
}
330
1A
100
AcDbPlotSettings
  1

  2
none_device
  4

  6

 40
0.0
 41
0.0
 42
0.0
 43
0.0
 44
0.0
 45
0.0
 46
0.0
 47
0.0
 48
0.0
 49
0.0
140
0.0
141
0.0
142
1.0
143
1.0
 70
   688
 72
     1
 73
     0
 74
     5
  7

 75
    16
147
1.0
148
0.0
149
0.0
100
AcDbLayout
  1
Layout1
 70
     1
 71
     1
 10
0.0
 20
0.0
 11
420.0
 21
297.0
 12
0.0
 22
0.0
 32
0.0
 14
1.0000000000E+20
 24
1.0000000000E+20
 34
1.0000000000E+20
 15
-1.0000000000E+20
 25
-1.0000000000E+20
 35
-1.0000000000E+20
146
0.0
 13
0.0
 23
0.0
 33
0.0
 16
1.0
 26
0.0
 36
0.0
 17
0.0
 27
1.0
 37
0.0
 76
     0
330
1B
  0
LAYOUT
  5
26
102
{ACAD_REACTORS
330
1A
102
}
330
1A
100
AcDbPlotSettings
  1

  2
none_device
  4

  6

 40
0.0
 41
0.0
 42
0.0
 43
0.0
 44
0.0
 45
0.0
 46
0.0
 47
0.0
 48
0.0
 49
0.0
140
0.0
141
0.0
142
1.0
143
1.0
 70
   688
 72
     1
 73
     0
 74
     5
  7

 75
    16
147
1.0
148
0.0
149
0.0
100
AcDbLayout
  1
Layout2
 70
     1
 71
     2
 10
0.0
 20
0.0
 11
0.0
 21
0.0
 12
0.0
 22
0.0
 32
0.0
 14
0.0
 24
0.0
 34
0.0
 15
0.0
 25
0.0
 35
0.0
146
0.0
 13
0.0
 23
0.0
 33
0.0
 16
1.0
 26
0.0
 36
0.0
 17
0.0
 27
1.0
 37
0.0
 76
     0
330
23
  0
LAYOUT
  5
22
102
{ACAD_REACTORS
330
1A
102
}
330
1A
100
AcDbPlotSettings
  1

  2
none_device
  4
Letter_(8.50_x_11.00_Inches)
  6

 40
6.35
 41
6.35
 42
6.35000508
 43
6.35000508
 44
215.9
 45
279.4
 46
0.0
 47
0.0
 48
0.0
 49
0.0
140
0.0
141
0.0
142
1.0
143
1.0
 70
  1712
 72
     1
 73
     0
 74
     0
  7

 75
     0
147
1.0
148
0.0
149
0.0
100
AcDbLayout
  1
Model
 70
     1
 71
     0
 10
0.0
 20
0.0
 11
210.0
 21
297.0
 12
0.0
 22
0.0
 32
0.0
 14
0.0
 24
0.0
 34
0.0
 15
210.0
 25
297.0
 35
0.0
146
0.0
 13
0.0
 23
0.0
 33
0.0
 16
1.0
 26
0.0
 36
0.0
 17
0.0
 27
1.0
 37
0.0
 76
     0
330
1F
331
29
  0
MLINESTYLE
  5
18
102
{ACAD_REACTORS
330
17
102
}
330
17
100
AcDbMlineStyle
  2
Standard
 70
     0
  3

 62
   256
 51
90.0
 52
90.0
 71
     2
 49
0.5
 62
   256
  6
BYLAYER
 49
-0.5
 62
   256
  6
BYLAYER
  0
ACDBPLACEHOLDER
  5
F
102
{ACAD_REACTORS
330
E
102
}
330
E
  0
SCALE
  5
48
102
{ACAD_REACTORS
330
47
102
}
330
47
100
AcDbScale
 70
     0
300
1:1
140
1.0
141
1.0
290
     1
  0
SCALE
  5
49
102
{ACAD_REACTORS
330
47
102
}
330
47
100
AcDbScale
 70
     0
300
1:2
140
1.0
141
2.0
290
     0
  0
SCALE
  5
4A
102
{ACAD_REACTORS
330
47
102
}
330
47
100
AcDbScale
 70
     0
300
1:4
140
1.0
141
4.0
290
     0
  0
SCALE
  5
4B
102
{ACAD_REACTORS
330
47
102
}
330
47
100
AcDbScale
 70
     0
300
1:5
140
1.0
141
5.0
290
     0
  0
SCALE
  5
4C
102
{ACAD_REACTORS
330
47
102
}
330
47
100
AcDbScale
 70
     0
300
1:8
140
1.0
141
8.0
290
     0
  0
SCALE
  5
4D
102
{ACAD_REACTORS
330
47
102
}
330
47
100
AcDbScale
 70
     0
300
1:10
140
1.0
141
10.0
290
     0
  0
SCALE
  5
4E
102
{ACAD_REACTORS
330
47
102
}
330
47
100
AcDbScale
 70
     0
300
1:16
140
1.0
141
16.0
290
     0
  0
SCALE
  5
4F
102
{ACAD_REACTORS
330
47
102
}
330
47
100
AcDbScale
 70
     0
300
1:20
140
1.0
141
20.0
290
     0
  0
SCALE
  5
50
102
{ACAD_REACTORS
330
47
102
}
330
47
100
AcDbScale
 70
     0
300
1:30
140
1.0
141
30.0
290
     0
  0
SCALE
  5
51
102
{ACAD_REACTORS
330
47
102
}
330
47
100
AcDbScale
 70
     0
300
1:40
140
1.0
141
40.0
290
     0
  0
SCALE
  5
52
102
{ACAD_REACTORS
330
47
102
}
330
47
100
AcDbScale
 70
     0
300
1:50
140
1.0
141
50.0
290
     0
  0
SCALE
  5
53
102
{ACAD_REACTORS
330
47
102
}
330
47
100
AcDbScale
 70
     0
300
1:100
140
1.0
141
100.0
290
     0
  0
SCALE
  5
54
102
{ACAD_REACTORS
330
47
102
}
330
47
100
AcDbScale
 70
     0
300
2:1
140
2.0
141
1.0
290
     0
  0
SCALE
  5
55
102
{ACAD_REACTORS
330
47
102
}
330
47
100
AcDbScale
 70
     0
300
4:1
140
4.0
141
1.0
290
     0
  0
SCALE
  5
56
102
{ACAD_REACTORS
330
47
102
}
330
47
100
AcDbScale
 70
     0
300
8:1
140
8.0
141
1.0
290
     0
  0
SCALE
  5
57
102
{ACAD_REACTORS
330
47
102
}
330
47
100
AcDbScale
 70
     0
300
10:1
140
10.0
141
1.0
290
     0
  0
SCALE
  5
58
102
{ACAD_REACTORS
330
47
102
}
330
47
100
AcDbScale
 70
     0
300
100:1
140
100.0
141
1.0
290
     0
  0
ENDSEC
  0
EOF
